  0
SECTION
  2
HEADER
  9
$ACADVER
  1
AC1015
  9
$ACADMAINTVER
 70
     6
  9
$DWGCODEPAGE
  3
ANSI_1254
  9
$INSBASE
 10
0.0
 20
0.0
 30
0.0
  9
$EXTMIN
 10
0.0
 20
0.0
 30
0.0
  9
$EXTMAX
 10
431.8
 20
279.4
 30
0.0
  9
$LIMMIN
 10
0.0
 20
0.0
  9
$LIMMAX
 10
431.8
 20
279.4
  9
$ORTHOMODE
 70
     0
  9
$REGENMODE
 70
     1
  9
$FILLMODE
 70
     1
  9
$QTEXTMODE
 70
     0
  9
$MIRRTEXT
 70
     1
  9
$LTSCALE
 40
1.0
  9
$ATTMODE
 70
     1
  9
$TEXTSIZE
 40
3.5
  9
$TRACEWID
 40
1.0
  9
$TEXTSTYLE
  7
Standard
  9
$CLAYER
  8
0
  9
$CELTYPE
  6
ByLayer
  9
$CECOLOR
 62
   256
  9
$CELTSCALE
 40
1.0
  9
$DISPSILH
 70
     0
  9
$DIMSCALE
 40
1.0
  9
$DIMASZ
 40
3.302
  9
$DIMEXO
 40
1.0
  9
$DIMDLI
 40
3.75
  9
$DIMRND
 40
0.0
  9
$DIMDLE
 40
0.0
  9
$DIMEXE
 40
1.0
  9
$DIMTP
 40
0.0
  9
$DIMTM
 40
0.0
  9
$DIMTXT
 40
3.5
  9
$DIMCEN
 40
2.5
  9
$DIMTSZ
 40
0.0
  9
$DIMTOL
 70
     0
  9
$DIMLIM
 70
     0
  9
$DIMTIH
 70
     1
  9
$DIMTOH
 70
     1
  9
$DIMSE1
 70
     0
  9
$DIMSE2
 70
     0
  9
$DIMTAD
 70
     1
  9
$DIMZIN
 70
     1
  9
$DIMBLK
  1

  9
$DIMASO
 70
     1
  9
$DIMSHO
 70
     1
  9
$DIMPOST
  1

  9
$DIMAPOST
  1

  9
$DIMALT
 70
     0
  9
$DIMALTD
 70
     3
  9
$DIMALTF
 40
0.0393700787
  9
$DIMLFAC
 40
1.0
  9
$DIMTOFL
 70
     1
  9
$DIMTVP
 40
0.0
  9
$DIMTIX
 70
     0
  9
$DIMSOXD
 70
     0
  9
$DIMSAH
 70
     0
  9
$DIMBLK1
  1

  9
$DIMBLK2
  1

  9
$DIMSTYLE
  2
ISO-25
  9
$DIMCLRD
 70
     0
  9
$DIMCLRE
 70
     0
  9
$DIMCLRT
 70
     0
  9
$DIMTFAC
 40
1.0
  9
$DIMGAP
 40
1.524
  9
$DIMJUST
 70
     0
  9
$DIMSD1
 70
     0
  9
$DIMSD2
 70
     0
  9
$DIMTOLJ
 70
     0
  9
$DIMTZIN
 70
     1
  9
$DIMALTZ
 70
     0
  9
$DIMALTTZ
 70
     0
  9
$DIMUPT
 70
     0
  9
$DIMDEC
 70
     2
  9
$DIMTDEC
 70
     2
  9
$DIMALTU
 70
     2
  9
$DIMALTTD
 70
     3
  9
$DIMTXSTY
  7
Standard
  9
$DIMAUNIT
 70
     0
  9
$DIMADEC
 70
     2
  9
$DIMALTRND
 40
0.0
  9
$DIMAZIN
 70
     0
  9
$DIMDSEP
 70
    44
  9
$DIMATFIT
 70
     3
  9
$DIMFRAC
 70
     0
  9
$DIMLDRBLK
  1

  9
$DIMLUNIT
 70
     2
  9
$DIMLWD
 70
    -2
  9
$DIMLWE
 70
    -2
  9
$DIMTMOVE
 70
     0
  9
$LUNITS
 70
     2
  9
$LUPREC
 70
     2
  9
$SKETCHINC
 40
1.0
  9
$FILLETRAD
 40
10.0
  9
$AUNITS
 70
     0
  9
$AUPREC
 70
     2
  9
$MENU
  1
.
  9
$ELEVATION
 40
0.0
  9
$PELEVATION
 40
0.0
  9
$THICKNESS
 40
0.0
  9
$LIMCHECK
 70
     0
  9
$CHAMFERA
 40
0.0
  9
$CHAMFERB
 40
0.0
  9
$CHAMFERC
 40
0.0
  9
$CHAMFERD
 40
0.0
  9
$SKPOLY
 70
     0
  9
$TDCREATE
 40
2459101.827072187
  9
$TDUCREATE
 40
2459101.702072187
  9
$TDUPDATE
 40
2459101.827072963
  9
$TDUUPDATE
 40
2459101.702072963
  9
$TDINDWG
 40
0.0000000116
  9
$TDUSRTIMER
 40
0.0000000116
  9
$USRTIMER
 70
     1
  9
$ANGBASE
 50
0.0
  9
$ANGDIR
 70
     0
  9
$PDMODE
 70
     0
  9
$PDSIZE
 40
-1.0
  9
$PLINEWID
 40
0.0
  9
$SPLFRAME
 70
     0
  9
$SPLINETYPE
 70
     6
  9
$SPLINESEGS
 70
     8
  9
$HANDSEED
  5
196
  9
$SURFTAB1
 70
     6
  9
$SURFTAB2
 70
     6
  9
$SURFTYPE
 70
     6
  9
$SURFU
 70
     6
  9
$SURFV
 70
     6
  9
$UCSBASE
  2

  9
$UCSNAME
  2

  9
$UCSORG
 10
0.0
 20
0.0
 30
0.0
  9
$UCSXDIR
 10
1.0
 20
0.0
 30
0.0
  9
$UCSYDIR
 10
0.0
 20
1.0
 30
0.0
  9
$UCSORTHOREF
  2

  9
$UCSORTHOVIEW
 70
     0
  9
$UCSORGTOP
 10
0.0
 20
0.0
 30
0.0
  9
$UCSORGBOTTOM
 10
0.0
 20
0.0
 30
0.0
  9
$UCSORGLEFT
 10
0.0
 20
0.0
 30
0.0
  9
$UCSORGRIGHT
 10
0.0
 20
0.0
 30
0.0
  9
$UCSORGFRONT
 10
0.0
 20
0.0
 30
0.0
  9
$UCSORGBACK
 10
0.0
 20
0.0
 30
0.0
  9
$PUCSBASE
  2

  9
$PUCSNAME
  2

  9
$PUCSORG
 10
0.0
 20
0.0
 30
0.0
  9
$PUCSXDIR
 10
1.0
 20
0.0
 30
0.0
  9
$PUCSYDIR
 10
0.0
 20
1.0
 30
0.0
  9
$PUCSORTHOREF
  2

  9
$PUCSORTHOVIEW
 70
     0
  9
$PUCSORGTOP
 10
0.0
 20
0.0
 30
0.0
  9
$PUCSORGBOTTOM
 10
0.0
 20
0.0
 30
0.0
  9
$PUCSORGLEFT
 10
0.0
 20
0.0
 30
0.0
  9
$PUCSORGRIGHT
 10
0.0
 20
0.0
 30
0.0
  9
$PUCSORGFRONT
 10
0.0
 20
0.0
 30
0.0
  9
$PUCSORGBACK
 10
0.0
 20
0.0
 30
0.0
  9
$USERI1
 70
     0
  9
$USERI2
 70
     0
  9
$USERI3
 70
     0
  9
$USERI4
 70
     0
  9
$USERI5
 70
     0
  9
$USERR1
 40
0.0
  9
$USERR2
 40
0.0
  9
$USERR3
 40
0.0
  9
$USERR4
 40
0.0
  9
$USERR5
 40
0.0
  9
$WORLDVIEW
 70
     1
  9
$SHADEDGE
 70
     3
  9
$SHADEDIF
 70
    70
  9
$TILEMODE
 70
     1
  9
$MAXACTVP
 70
    64
  9
$PINSBASE
 10
0.0
 20
0.0
 30
0.0
  9
$PLIMCHECK
 70
     0
  9
$PEXTMIN
 10
1.0000000000E+20
 20
1.0000000000E+20
 30
1.0000000000E+20
  9
$PEXTMAX
 10
-1.0000000000E+20
 20
-1.0000000000E+20
 30
-1.0000000000E+20
  9
$PLIMMIN
 10
0.0
 20
0.0
  9
$PLIMMAX
 10
420.0
 20
297.0
  9
$UNITMODE
 70
     0
  9
$VISRETAIN
 70
     1
  9
$PLINEGEN
 70
     0
  9
$PSLTSCALE
 70
     1
  9
$TREEDEPTH
 70
  3020
  9
$CMLSTYLE
  2
Standard
  9
$CMLJUST
 70
     0
  9
$CMLSCALE
 40
20.0
  9
$PROXYGRAPHICS
 70
     1
  9
$MEASUREMENT
 70
     1
  9
$CELWEIGHT
370
    -1
  9
$ENDCAPS
280
     0
  9
$JOINSTYLE
280
     0
  9
$LWDISPLAY
290
     1
  9
$INSUNITS
 70
     4
  9
$HYPERLINKBASE
  1

  9
$STYLESHEET
  1

  9
$XEDIT
290
     1
  9
$CEPSNTYPE
380
     0
  9
$PSTYLEMODE
290
     1
  9
$FINGERPRINTGUID
  2
{89472318-9088-49d5-adf3-39ed02ba45d1}
  9
$VERSIONGUID
  2
{FAEB1C32-E019-11D5-929B-00C0DF256EC4}
  9
$EXTNAMES
290
     1
  9
$PSVPSCALE
 40
0.0
  9
$OLESTARTUP
290
     0
  0
ENDSEC
  0
SECTION
  2
CLASSES
  0
CLASS
  1
ACDBDICTIONARYWDFLT
  2
AcDbDictionaryWithDefault
  3
ObjectDBX Classes
 90
        0
280
     0
281
     0
  0
CLASS
  1
VISUALSTYLE
  2
AcDbVisualStyle
  3
ObjectDBX Classes
 90
     4095
280
     0
281
     0
  0
CLASS
  1
MATERIAL
  2
AcDbMaterial
  3
ObjectDBX Classes
 90
     1153
280
     0
281
     0
  0
CLASS
  1
SCALE
  2
AcDbScale
  3
ObjectDBX Classes
 90
     1153
280
     0
281
     0
  0
CLASS
  1
TABLESTYLE
  2
AcDbTableStyle
  3
ObjectDBX Classes
 90
     4095
280
     0
281
     0
  0
CLASS
  1
MLEADERSTYLE
  2
AcDbMLeaderStyle
  3
ACDB_MLEADERSTYLE_CLASS
 90
     4095
280
     0
281
     0
  0
CLASS
  1
SUN
  2
AcDbSun
  3
SCENEOE
 90
     1153
280
     0
281
     0
  0
CLASS
  1
ACDBPLACEHOLDER
  2
AcDbPlaceHolder
  3
ObjectDBX Classes
 90
        0
280
     0
281
     0
  0
CLASS
  1
LAYOUT
  2
AcDbLayout
  3
ObjectDBX Classes
 90
        0
280
     0
281
     0
  0
ENDSEC
  0
SECTION
  2
TABLES
  0
TABLE
  2
VPORT
  5
8
330
0
100
AcDbSymbolTable
 70
     1
  0
VPORT
  5
29
330
8
100
AcDbSymbolTableRecord
100
AcDbViewportTableRecord
  2
*Active
 70
     0
 10
0.0
 20
0.0
 11
1.0
 21
1.0
 12
215.9
 22
139.7
 13
0.0
 23
0.0
 14
10.0
 24
10.0
 15
10.0
 25
10.0
 16
0.0
 26
0.0
 36
1.0
 17
0.0
 27
0.0
 37
0.0
 40
279.4
 41
1.5454545455
 42
50.0
 43
0.0
 44
0.0
 50
0.0
 51
0.0
 71
     0
 72
  2000
 73
     1
 74
     3
 75
     0
 76
     0
 77
     0
 78
     0
281
     0
 65
     1
110
0.0
120
0.0
130
0.0
111
1.0
121
0.0
131
0.0
112
0.0
122
1.0
132
0.0
 79
     0
146
0.0
  0
ENDTAB
  0
TABLE
  2
LTYPE
  5
5
330
0
100
AcDbSymbolTable
 70
     6
  0
LTYPE
  5
14
330
5
100
AcDbSymbolTableRecord
100
AcDbLinetypeTableRecord
  2
ByBlock
 70
     0
  3

 72
    65
 73
     0
 40
0.0
  0
LTYPE
  5
15
330
5
100
AcDbSymbolTableRecord
100
AcDbLinetypeTableRecord
  2
ByLayer
 70
     0
  3

 72
    65
 73
     0
 40
0.0
  0
LTYPE
  5
16
330
5
100
AcDbSymbolTableRecord
100
AcDbLinetypeTableRecord
  2
Continuous
 70
     0
  3
Solid line
 72
    65
 73
     0
 40
0.0
  0
LTYPE
  5
6E
330
5
100
AcDbSymbolTableRecord
100
AcDbLinetypeTableRecord
  2
HIDDEN
 70
     0
  3
Hidden __ __ __ __ __ __ __ __ __ __ __ __ __ __
 72
    65
 73
     2
 40
1.905
 49
1.27
 74
     0
 49
-0.635
 74
     0
  0
LTYPE
  5
6F
330
5
100
AcDbSymbolTableRecord
100
AcDbLinetypeTableRecord
  2
PHANTOM
 70
     0
  3
Phantom ______  __  __  ______  __  __  ______
 72
    65
 73
     6
 40
12.7
 49
6.35
 74
     0
 49
-1.27
 74
     0
 49
1.27
 74
     0
 49
-1.27
 74
     0
 49
1.27
 74
     0
 49
-1.27
 74
     0
  0
LTYPE
  5
70
330
5
100
AcDbSymbolTableRecord
100
AcDbLinetypeTableRecord
  2
CENTER
 70
     0
  3
Center ____ _ ____ _ ____ _ ____ _ ____ _ ____
 72
    65
 73
     4
 40
10.16
 49
6.35
 74
     0
 49
-1.27
 74
     0
 49
1.27
 74
     0
 49
-1.27
 74
     0
  0
LTYPE
  5
71
330
5
100
AcDbSymbolTableRecord
100
AcDbLinetypeTableRecord
  2
CENTERX2
 70
     0
  3
Center (2x) ________  __  ________  __  _____
 72
    65
 73
     4
 40
20.32
 49
12.7
 74
     0
 49
-2.54
 74
     0
 49
2.54
 74
     0
 49
-2.54
 74
     0
  0
LTYPE
  5
72
330
5
100
AcDbSymbolTableRecord
100
AcDbLinetypeTableRecord
  2
DOT2
 70
     0
  3
Dot (.5x) ........................................
 72
    65
 73
     2
 40
0.635
 49
0.0
 74
     0
 49
-0.635
 74
     0
  0
ENDTAB
  0
TABLE
  2
LAYER
  5
2
330
0
100
AcDbSymbolTable
 70
     2
  0
LAYER
  5
10
330
2
100
AcDbSymbolTableRecord
100
AcDbLayerTableRecord
  2
0
 70
     0
 62
     7
  6
Continuous
370
    -3
390
F
  0
LAYER
  5
73
330
2
100
AcDbSymbolTableRecord
100
AcDbLayerTableRecord
  2
KATMAN0
 70
     0
 62
     7
  6
Continuous
370
    -3
390
F
  0
ENDTAB
  0
TABLE
  2
STYLE
  5
3
330
0
100
AcDbSymbolTable
 70
     1
  0
STYLE
  5
11
330
3
100
AcDbSymbolTableRecord
100
AcDbTextStyleTableRecord
  2
Standard
 70
     0
 40
0.0
 41
1.0
 50
0.0
 71
     0
 42
3.5
  3
txt
  4

  0
ENDTAB
  0
TABLE
  2
VIEW
  5
6
330
0
100
AcDbSymbolTable
 70
     0
  0
ENDTAB
  0
TABLE
  2
UCS
  5
7
330
0
100
AcDbSymbolTable
 70
     0
  0
ENDTAB
  0
TABLE
  2
APPID
  5
9
330
0
100
AcDbSymbolTable
 70
     1
  0
APPID
  5
12
330
9
100
AcDbSymbolTableRecord
100
AcDbRegAppTableRecord
  2
ACAD
 70
     0
  0
ENDTAB
  0
TABLE
  2
DIMSTYLE
  5
A
330
0
100
AcDbSymbolTable
 70
     1
100
AcDbDimStyleTable
  0
DIMSTYLE
105
27
330
A
100
AcDbSymbolTableRecord
100
AcDbDimStyleTableRecord
  2
ISO-25
 70
     0
 41
2.5
 42
0.625
 43
3.75
 44
1.25
 73
     0
 74
     0
 77
     1
 78
     8
140
2.5
141
2.5
143
0.0393700787
147
0.625
171
     3
172
     1
178
     0
271
     2
272
     2
274
     3
278
    44
283
     0
284
     8
340
11
  0
ENDTAB
  0
TABLE
  2
BLOCK_RECORD
  5
1
330
0
100
AcDbSymbolTable
 70
     1
  0
BLOCK_RECORD
  5
1F
330
1
100
AcDbSymbolTableRecord
100
AcDbBlockTableRecord
  2
*Model_Space
340
22
  0
BLOCK_RECORD
  5
1B
330
1
100
AcDbSymbolTableRecord
100
AcDbBlockTableRecord
  2
*Paper_Space
340
1E
  0
BLOCK_RECORD
  5
23
330
1
100
AcDbSymbolTableRecord
100
AcDbBlockTableRecord
  2
*Paper_Space0
340
26
  0
ENDTAB
  0
ENDSEC
  0
SECTION
  2
BLOCKS
  0
BLOCK
  5
20
330
1F
100
AcDbEntity
  8
0
100
AcDbBlockBegin
  2
*Model_Space
 70
     0
 10
0.0
 20
0.0
 30
0.0
  3
*Model_Space
  1

  0
ENDBLK
  5
21
330
1F
100
AcDbEntity
  8
0
100
AcDbBlockEnd
  0
BLOCK
  5
1C
330
1B
100
AcDbEntity
 67
     1
  8
0
100
AcDbBlockBegin
  2
*Paper_Space
 70
     0
 10
0.0
 20
0.0
 30
0.0
  3
*Paper_Space
  1

  0
ENDBLK
  5
1D
330
1B
100
AcDbEntity
 67
     1
  8
0
100
AcDbBlockEnd
  0
BLOCK
  5
24
330
23
100
AcDbEntity
  8
0
100
AcDbBlockBegin
  2
*Paper_Space0
 70
     0
 10
0.0
 20
0.0
 30
0.0
  3
*Paper_Space0
  1

  0
ENDBLK
  5
25
330
23
100
AcDbEntity
  8
0
100
AcDbBlockEnd
  0
ENDSEC
  0
SECTION
  2
ENTITIES
  0
LWPOLYLINE
  5
74
330
1F
100
AcDbEntity
  8
0
  6
CENTERX2
 62
     7
100
AcDbPolyline
 90
       17
 70
   128
 43
0.0
 10
200.6793165441
 20
147.4424844951
 10
200.496216336
 20
147.7861910106
 10
200.1966482764
 20
148.0330603832
 10
199.8262188867
 20
148.1455089887
 10
199.4413226836
 20
148.1064175463
 10
199.1005566249
 20
147.9217373737
 10
198.8557992541
 20
147.6195843531
 10
198.744312662
 20
147.2459585429
 10
198.7830696717
 20
146.8577410856
 10
198.9661698798
 20
146.5140345701
 10
199.2657379394
 20
146.2671651975
 10
199.6361673291
 20
146.154716592
 10
200.0210635321
 20
146.1938080344
 10
200.3618295908
 20
146.378488207
 10
200.6065869617
 20
146.6806412276
 10
200.7180735538
 20
147.0542670378
 10
200.6793165441
 20
147.4424844951
  0
LWPOLYLINE
  5
75
330
1F
100
AcDbEntity
  8
0
  6
CENTERX2
 62
     7
100
AcDbPolyline
 90
       17
 70
   128
 43
0.0
 10
200.6793165441
 20
436.3424844951
 10
200.496216336
 20
436.6861910106
 10
200.1966482764
 20
436.9330603832
 10
199.8262188867
 20
437.0455089887
 10
199.4413226836
 20
437.0064175463
 10
199.1005566249
 20
436.8217373737
 10
198.8557992541
 20
436.5195843531
 10
198.744312662
 20
436.1459585429
 10
198.7830696717
 20
435.7577410856
 10
198.9661698798
 20
435.4140345701
 10
199.2657379394
 20
435.1671651975
 10
199.6361673291
 20
435.054716592
 10
200.0210635321
 20
435.0938080344
 10
200.3618295908
 20
435.278488207
 10
200.6065869617
 20
435.5806412276
 10
200.7180735538
 20
435.9542670378
 10
200.6793165441
 20
436.3424844951
  0
LINE
  5
76
330
1F
100
AcDbEntity
  8
0
  6
Continuous
 62
     7
100
AcDbLine
 10
199.7311931079
 20
148.3048133287
 30
0.0
 11
198.7397482465
 21
147.7274630595
 31
0.0
  0
LINE
  5
77
330
1F
100
AcDbEntity
  8
0
  6
Continuous
 62
     7
100
AcDbLine
 10
198.7397482465
 20
147.7274630595
 30
0.0
 11
198.7397482465
 21
146.5727625212
 31
0.0
  0
LINE
  5
78
330
1F
100
AcDbEntity
  8
0
  6
Continuous
 62
     7
100
AcDbLine
 10
198.7397482465
 20
146.5727625212
 30
0.0
 11
199.7311931079
 21
145.995412252
 31
0.0
  0
LINE
  5
79
330
1F
100
AcDbEntity
  8
0
  6
Continuous
 62
     7
100
AcDbLine
 10
199.7311931079
 20
145.995412252
 30
0.0
 11
200.7226379692
 21
146.5727625212
 31
0.0
  0
LINE
  5
7A
330
1F
100
AcDbEntity
  8
0
  6
Continuous
 62
     7
100
AcDbLine
 10
200.7226379692
 20
146.5727625212
 30
0.0
 11
200.7226379692
 21
147.7274630595
 31
0.0
  0
LINE
  5
7B
330
1F
100
AcDbEntity
  8
0
  6
Continuous
 62
     7
100
AcDbLine
 10
200.7226379692
 20
147.7274630595
 30
0.0
 11
199.7311931079
 21
148.3048133287
 31
0.0
  0
LINE
  5
7C
330
1F
100
AcDbEntity
  8
0
  6
Continuous
 62
     7
100
AcDbLine
 10
199.7311931079
 20
437.2048133287
 30
0.0
 11
198.7397482465
 21
436.6274630595
 31
0.0
  0
LINE
  5
7D
330
1F
100
AcDbEntity
  8
0
  6
Continuous
 62
     7
100
AcDbLine
 10
198.7397482465
 20
436.6274630595
 30
0.0
 11
198.7397482465
 21
435.4727625212
 31
0.0
  0
LINE
  5
7E
330
1F
100
AcDbEntity
  8
0
  6
Continuous
 62
     7
100
AcDbLine
 10
198.7397482465
 20
435.4727625212
 30
0.0
 11
199.7311931079
 21
434.895412252
 31
0.0
  0
LINE
  5
7F
330
1F
100
AcDbEntity
  8
0
  6
Continuous
 62
     7
100
AcDbLine
 10
199.7311931079
 20
434.895412252
 30
0.0
 11
200.7226379692
 21
435.4727625212
 31
0.0
  0
LINE
  5
80
330
1F
100
AcDbEntity
  8
0
  6
Continuous
 62
     7
100
AcDbLine
 10
200.7226379692
 20
435.4727625212
 30
0.0
 11
200.7226379692
 21
436.6274630595
 31
0.0
  0
LINE
  5
81
330
1F
100
AcDbEntity
  8
0
  6
Continuous
 62
     7
100
AcDbLine
 10
200.7226379692
 20
436.6274630595
 30
0.0
 11
199.7311931079
 21
437.2048133287
 31
0.0
  0
LINE
  5
82
330
1F
100
AcDbEntity
  8
0
  6
Continuous
 62
     7
370
    25
100
AcDbLine
 10
256.2242042207
 20
1125.4770033838
 30
0.0
 11
256.2242042207
 21
1125.9501127903
 31
0.0
  0
ARC
  5
83
330
1F
100
AcDbEntity
  8
0
  6
Continuous
 62
     7
370
    25
100
AcDbCircle
 10
255.8742042207
 20
1125.9501127903
 30
0.0
 40
0.3500000000000227
100
AcDbArc
 50
0.0
 51
90.0
  0
LINE
  5
84
330
1F
100
AcDbEntity
  8
0
  6
Continuous
 62
     7
370
    25
100
AcDbLine
 10
254.7242042207
 20
1120.3001127903
 30
0.0
 11
254.7242042207
 21
1122.3001127903
 31
0.0
  0
ARC
  5
85
330
1F
100
AcDbEntity
  8
0
  6
Continuous
 62
     7
370
    25
100
AcDbCircle
 10
159.5075622271
 20
1125.9501127903
 30
0.0
 40
0.3499999999999943
100
AcDbArc
 50
90.0
 51
180.0
  0
LINE
  5
86
330
1F
100
AcDbEntity
  8
0
  6
Continuous
 62
     7
370
    25
100
AcDbLine
 10
159.1575622271
 20
1125.9501127903
 30
0.0
 11
159.1575622271
 21
1125.4789129952
 31
0.0
  0
LINE
  5
87
330
1F
100
AcDbEntity
  8
0
  6
Continuous
 62
     7
370
    25
100
AcDbLine
 10
160.6575622271
 20
1122.3001127903
 30
0.0
 11
160.6575622271
 21
1120.3001127903
 31
0.0
  0
SPLINE
  5
88
330
1F
100
AcDbEntity
  8
0
  6
Continuous
 62
     7
370
    25
100
AcDbSpline
210
0.0
220
0.0
230
1.0
 70
     8
 71
     3
 72
    12
 73
     8
 74
     0
 42
0.000000001
 43
0.00000001
 40
0.0
 40
0.0
 40
0.0
 40
0.0
 40
0.1132085080554722
 40
0.3873749400505474
 40
0.6307614431373755
 40
0.8489421955269971
 40
1.0
 40
1.0
 40
1.0
 40
1.0
 10
190.8622965504035
 20
1120.300112790347
 30
0.0
 10
190.7767915043527
 20
1120.550279279054
 30
0.0
 10
190.4842117976075
 20
1121.40629469901
 30
0.0
 10
189.837016514026
 20
1122.609577105524
 30
0.0
 10
188.9296172073541
 20
1123.855615423608
 30
0.0
 10
188.0194516801456
 20
1124.756275885085
 30
0.0
 10
187.34172848717
 20
1125.142220452431
 30
0.0
 10
187.064467687428
 20
1125.300112790347
 30
0.0
  0
LINE
  5
89
330
1F
100
AcDbEntity
  8
0
  6
Continuous
 62
     7
370
    25
100
AcDbLine
 10
268.6908832239
 20
1116.3001127903
 30
0.0
 11
268.5427194074
 21
1121.9582606666
 31
0.0
  0
LINE
  5
8A
330
1F
100
AcDbEntity
  8
0
  6
Continuous
 62
     7
370
    25
100
AcDbLine
 10
146.8390470405
 20
1121.9582606666
 30
0.0
 11
146.6908832239
 21
1116.3001127903
 31
0.0
  0
SPLINE
  5
8B
330
1F
100
AcDbEntity
  8
0
  6
Continuous
 62
     7
370
    25
100
AcDbSpline
210
0.0
220
0.0
230
1.0
 70
     8
 71
     3
 72
    17
 73
    13
 74
     0
 42
0.000000001
 43
0.00000001
 40
0.0
 40
0.0
 40
0.0
 40
0.0
 40
0.055777627424231
 40
0.131608829752226
 40
0.2155155089231817
 40
0.319996236863192
 40
0.4341921917885465
 40
0.5246491080272356
 40
0.6246463738435832
 40
0.7360223802380456
 40
0.8605616075170991
 40
1.0
 40
1.0
 40
1.0
 40
1.0
 10
268.4258082122258
 20
1122.026240657616
 30
0.0
 10
267.6922390297959
 20
1122.692105751059
 30
0.0
 10
265.961362581653
 20
1124.263232558844
 30
0.0
 10
262.6241100562247
 20
1126.168841790622
 30
0.0
 10
258.4110592897382
 20
1128.206228141115
 30
0.0
 10
253.3646293189684
 20
1130.055814557535
 30
0.0
 10
248.0515340014611
 20
1131.419737513364
 30
0.0
 10
242.7340290953287
 20
1132.367917656952
 30
0.0
 10
237.4233110675583
 20
1133.021432105765
 30
0.0
 10
231.4869497240751
 20
1133.478612351678
 30
0.0
 10
224.8398074394011
 20
1133.755222176163
 30
0.0
 10
220.161867196633
 20
1133.784596611293
 30
0.0
 10
217.6908832239354
 20
1133.800112790347
 30
0.0
  0
SPLINE
  5
8C
330
1F
100
AcDbEntity
  8
0
  6
Continuous
 62
     7
370
    25
100
AcDbSpline
210
0.0
220
0.0
230
1.0
 70
     8
 71
     3
 72
    17
 73
    13
 74
     0
 42
0.000000001
 43
0.00000001
 40
0.0
 40
0.0
 40
0.0
 40
0.0
 40
0.1464324177173651
 40
0.2763305996464535
 40
0.3917570700427349
 40
0.4948364242661343
 40
0.5877611873199058
 40
0.6727846580173744
 40
0.7659462788597395
 40
0.8543102037403023
 40
0.9344363242414324
 40
0.9999999999999999
 40
0.9999999999999999
 40
0.9999999999999999
 40
0.9999999999999999
 10
197.6908832239354
 20
1133.800112790347
 30
0.0
 10
195.0789263746748
 20
1133.782814612987
 30
0.0
 10
190.1499385613345
 20
1133.750171460621
 30
0.0
 10
183.1674324470775
 20
1133.439682028703
 30
0.0
 10
176.9725663802232
 20
1132.9252290998
 30
0.0
 10
171.4640148589844
 20
1132.189031467252
 30
0.0
 10
166.5404286163088
 20
1131.229166651603
 30
0.0
 10
161.8666654590273
 20
1129.975235065479
 30
0.0
 10
157.3815613006871
 20
1128.370224804014
 30
0.0
 10
153.1585542930544
 20
1126.387273676457
 30
0.0
 10
149.4948146057717
 20
1124.332137907601
 30
0.0
 10
147.5610987342968
 20
1122.585940697525
 30
0.0
 10
146.6908832239354
 20
1121.800112790347
 30
0.0
  0
LINE
  5
8D
330
1F
100
AcDbEntity
  8
0
  6
Continuous
 62
     7
370
    25
100
AcDbLine
 10
268.6908832239
 20
1114.3001127903
 30
0.0
 11
268.6908832239
 21
1116.3001127903
 31
0.0
  0
LINE
  5
8E
330
1F
100
AcDbEntity
  8
0
  6
Continuous
 62
     7
370
    25
100
AcDbLine
 10
146.6908832239
 20
1116.3001127903
 30
0.0
 11
146.6908832239
 21
1114.3001127903
 31
0.0
  0
ARC
  5
8F
330
1F
100
AcDbEntity
  8
0
  6
Continuous
 62
     7
370
    25
100
AcDbCircle
 10
267.6908832239
 20
1114.3001127903
 30
0.0
 40
1.0
100
AcDbArc
 50
302.1635759455
 51
0.0
  0
SPLINE
  5
90
330
1F
100
AcDbEntity
  8
0
  6
Continuous
 62
     7
370
    25
100
AcDbSpline
210
0.0
220
0.0
230
1.0
 70
     8
 71
     3
 72
    13
 73
     9
 74
     0
 42
0.000000001
 43
0.00000001
 40
0.0
 40
0.0
 40
0.0
 40
0.0
 40
0.0313698582273647
 40
0.3267847762460101
 40
0.6240262014607932
 40
0.8359740673463156
 40
0.9646966675568178
 40
1.0
 40
1.0
 40
1.0
 40
1.0
 10
268.1571152344317
 20
1112.349070191841
 30
0.0
 10
268.1569591692005
 20
1112.371871175016
 30
0.0
 10
268.155333412996
 20
1112.609392624143
 30
0.0
 10
268.1732277657396
 20
1113.059828250309
 30
0.0
 10
268.2147100174805
 20
1113.547045465402
 30
0.0
 10
268.2523506260632
 20
1113.800979299746
 30
0.0
 10
268.274265190834
 20
1113.889109836452
 30
0.0
 10
268.2720598083857
 20
1113.88219133693
 30
0.0
 10
268.2715851435051
 20
1113.880702266971
 30
0.0
  0
SPLINE
  5
91
330
1F
100
AcDbEntity
  8
0
  6
Continuous
 62
     7
370
    25
100
AcDbSpline
210
0.0
220
0.0
230
1.0
 70
    11
 71
     3
 72
    19
 73
    15
 74
     0
 42
0.000000001
 43
0.00000001
 40
0.0
 40
0.0
 40
0.0
 40
0.0
 40
0.1233156636942465
 40
0.2552283379807925
 40
0.3635947872776554
 40
0.4383447595911917
 40
0.4882417951892666
 40
0.5
 40
0.5117582048107333
 40
0.5616552404088082
 40
0.6364052127223445
 40
0.7447716620192075
 40
0.8766843363057534
 40
1.0
 40
1.0
 40
1.0
 40
1.0
 10
147.2235605910475
 20
1112.346963954475
 30
0.0
 10
147.2216444354723
 20
1112.527361164158
 30
0.0
 10
147.2176785386177
 20
1112.90073206145
 30
0.0
 10
147.184788944463
 20
1113.369121469306
 30
0.0
 10
147.1465824741349
 20
1113.689546888727
 30
0.0
 10
147.1220404155585
 20
1113.83391728881
 30
0.0
 10
147.1060568130608
 20
1113.89382425706
 30
0.0
 10
147.1102563567127
 20
1113.880793934355
 30
0.0
 10
147.1060568130608
 20
1113.893824257059
 30
0.0
 10
147.1220404155584
 20
1113.83391728881
 30
0.0
 10
147.1465824741349
 20
1113.689546888728
 30
0.0
 10
147.1847889444629
 20
1113.369121469305
 30
0.0
 10
147.2176785386177
 20
1112.90073206145
 30
0.0
 10
147.2216444354723
 20
1112.527361164158
 30
0.0
 10
147.2235605910475
 20
1112.346963954475
 30
0.0
  0
ARC
  5
92
330
1F
100
AcDbEntity
  8
0
  6
Continuous
 62
     7
370
    25
100
AcDbCircle
 10
147.6908832239
 20
1114.3001127903
 30
0.0
 40
1.000000000000038
100
AcDbArc
 50
180.0
 51
237.9200302056
  0
LINE
  5
93
330
1F
100
AcDbEntity
  8
0
  6
Continuous
 62
     7
370
    25
100
AcDbLine
 10
268.6908832239
 20
139.8001127903
 30
0.0
 11
268.6908832239
 21
443.4001127903
 31
0.0
  0
LINE
  5
94
330
1F
100
AcDbEntity
  8
0
  6
Continuous
 62
     7
370
    25
100
AcDbLine
 10
146.6908832239
 20
443.4001127903
 30
0.0
 11
146.6908832239
 21
139.8001127903
 31
0.0
  0
LINE
  5
95
330
1F
100
AcDbEntity
  8
0
  6
Continuous
 62
     7
370
    25
100
AcDbLine
 10
268.6908832239
 20
443.3001127903
 30
0.0
 11
268.6908832239
 21
448.9400592456
 31
0.0
  0
LINE
  5
96
330
1F
100
AcDbEntity
  8
0
  6
Continuous
 62
     7
370
    25
100
AcDbLine
 10
146.6908832239
 20
448.9400592456
 30
0.0
 11
146.6908832239
 21
443.3001127903
 31
0.0
  0
LINE
  5
97
330
1F
100
AcDbEntity
  8
0
  6
Continuous
 62
     7
370
    25
100
AcDbLine
 10
234.5759672511
 20
480.2192016904
 30
0.0
 11
232.6908832239
 21
480.3001127903
 31
0.0
  0
LINE
  5
98
330
1F
100
AcDbEntity
  8
0
  6
Continuous
 62
     7
370
    25
100
AcDbLine
 10
182.6908832239
 20
480.3001127903
 30
0.0
 11
180.8143304261
 21
480.2199337202
 31
0.0
  0
LINE
  5
99
330
1F
100
AcDbEntity
  8
0
  6
Continuous
 62
     7
370
    25
100
AcDbLine
 10
234.5594561698
 20
480.3008862454
 30
0.0
 11
234.2741212375
 21
472.4940337565
 31
0.0
  0
LINE
  5
9A
330
1F
100
AcDbEntity
  8
0
  6
Continuous
 62
     7
370
    25
100
AcDbLine
 10
181.106376193
 20
472.498612644
 30
0.0
 11
180.8233680466
 21
480.3004697668
 31
0.0
  0
SPLINE
  5
9B
330
1F
100
AcDbEntity
  8
0
  6
Continuous
 62
     7
370
    25
100
AcDbSpline
210
0.0
220
0.0
230
1.0
 70
     8
 71
     3
 72
    11
 73
     7
 74
     0
 42
0.000000001
 43
0.00000001
 40
0.0
 40
0.0
 40
0.0
 40
0.0
 40
0.095865546290372
 40
0.3375954313831597
 40
0.6561345878991873
 40
1.0
 40
1.0
 40
1.0
 40
1.0
 10
181.3093086564897
 20
472.43373832196
 30
0.0
 10
181.3089926447993
 20
472.4336571991558
 30
0.0
 10
181.3078797934459
 20
472.4333715210454
 30
0.0
 10
181.2254333459598
 20
472.4508953819317
 30
0.0
 10
181.1078019312467
 20
472.5486002547537
 30
0.0
 10
181.095520970147
 20
472.5783013330986
 30
0.0
 10
181.0891457155827
 20
472.59371966508
 30
0.0
  0
SPLINE
  5
9C
330
1F
100
AcDbEntity
  8
0
  6
Continuous
 62
     7
370
    25
100
AcDbSpline
210
0.0
220
0.0
230
1.0
 70
     8
 71
     3
 72
    11
 73
     7
 74
     0
 42
0.000000001
 43
0.00000001
 40
0.0
 40
0.0
 40
0.0
 40
0.0
 40
0.1986053778143032
 40
0.5935925668646986
 40
0.9021951429264174
 40
1.0
 40
1.0
 40
1.0
 40
1.0
 10
234.2903655383541
 20
472.5856042462528
 30
0.0
 10
234.2902812886123
 20
472.5845753910955
 30
0.0
 10
234.2900294826389
 20
472.5815003445866
 30
0.0
 10
234.1956810143639
 20
472.4634793138189
 30
0.0
 10
234.0747073226044
 20
472.4336723071145
 30
0.0
 10
234.0751461664105
 20
472.4339262141281
 30
0.0
 10
234.0752517773128
 20
472.4339873186677
 30
0.0
  0
LINE
  5
9D
330
1F
100
AcDbEntity
  8
0
  6
Continuous
 62
     7
370
    25
100
AcDbLine
 10
147.2404359148
 20
449.9643327113
 30
0.0
 11
146.9204054096
 21
449.5775260585
 31
0.0
  0
LINE
  5
9E
330
1F
100
AcDbEntity
  8
0
  6
Continuous
 62
     7
370
    25
100
AcDbLine
 10
268.4613610383
 20
449.5775260585
 30
0.0
 11
268.1413305331
 21
449.9643327113
 31
0.0
  0
ARC
  5
9F
330
1F
100
AcDbEntity
  8
0
  6
Continuous
 62
     7
370
    25
100
AcDbCircle
 10
267.6908832239
 20
448.9400592456
 30
0.0
 40
1.00000000000002
100
AcDbArc
 50
0.0
 51
39.6031844288
  0
ARC
  5
A0
330
1F
100
AcDbEntity
  8
0
  6
Continuous
 62
     7
370
    25
100
AcDbCircle
 10
147.6908832239
 20
448.9400592456
 30
0.0
 40
1.000000000000064
100
AcDbArc
 50
140.3968155712
 51
180.0
  0
LINE
  5
A1
330
1F
100
AcDbEntity
  8
0
  6
Continuous
 62
     7
370
    25
100
AcDbLine
 10
180.8144871726
 20
480.3001127903
 30
0.0
 11
180.8144871726
 21
1070.3001127903
 31
0.0
  0
LINE
  5
A2
330
1F
100
AcDbEntity
  8
0
  6
Continuous
 62
     7
370
    25
100
AcDbLine
 10
147.3429803481
 20
1080.3001127903
 30
0.0
 11
147.3429803481
 21
480.3001127903
 31
0.0
  0
LINE
  5
A3
330
1F
100
AcDbEntity
  8
0
  6
Continuous
 62
     7
370
    25
100
AcDbLine
 10
230.7248203832
 20
480.3001127903
 30
0.0
 11
230.7248203832
 21
1016.4001127903
 31
0.0
  0
LINE
  5
A4
330
1F
100
AcDbEntity
  8
0
  6
Continuous
 62
     7
370
    25
100
AcDbLine
 10
184.6569460646
 20
1016.4001127903
 30
0.0
 11
184.6569460646
 21
480.3001127903
 31
0.0
  0
LINE
  5
A5
330
1F
100
AcDbEntity
  8
0
  6
Continuous
 62
     7
370
    25
100
AcDbLine
 10
234.5672792753
 20
1070.3001127903
 30
0.0
 11
234.5672792753
 21
480.3001127903
 31
0.0
  0
LINE
  5
A6
330
1F
100
AcDbEntity
  8
0
  6
Continuous
 62
     7
370
    25
100
AcDbLine
 10
268.0387860998
 20
480.3001127903
 30
0.0
 11
268.0387860998
 21
1080.3001127903
 31
0.0
  0
LINE
  5
A7
330
1F
100
AcDbEntity
  8
0
  6
Continuous
 62
     7
370
    25
100
AcDbLine
 10
268.8479987534
 20
133.8001127903
 30
0.0
 11
268.6908832239
 21
139.8001127903
 31
0.0
  0
LINE
  5
A8
330
1F
100
AcDbEntity
  8
0
  6
Continuous
 62
     7
370
    25
100
AcDbLine
 10
146.6908832239
 20
139.8001127903
 30
0.0
 11
146.5337676945
 21
133.8001127903
 31
0.0
  0
LINE
  5
A9
330
1F
100
AcDbEntity
  8
0
  6
Continuous
 62
     7
370
    25
100
AcDbLine
 10
249.2242042207
 20
1122.3001127903
 30
0.0
 11
256.2242042207
 21
1122.3001127903
 31
0.0
  0
LINE
  5
AA
330
1F
100
AcDbEntity
  8
0
  6
Continuous
 62
     7
370
    25
100
AcDbLine
 10
253.2586037246
 20
1126.3001127903
 30
0.0
 11
255.8742042207
 21
1126.3001127903
 31
0.0
  0
LINE
  5
AB
330
1F
100
AcDbEntity
  8
0
  6
Continuous
 62
     7
370
    25
100
AcDbLine
 10
159.5075622271
 20
1126.3001127903
 30
0.0
 11
162.1347171808
 21
1126.3001127903
 31
0.0
  0
LINE
  5
AC
330
1F
100
AcDbEntity
  8
0
  6
Continuous
 62
     7
370
    25
100
AcDbLine
 10
159.1575622271
 20
1122.3001127903
 30
0.0
 11
164.3733142815
 21
1122.3001127903
 31
0.0
  0
LINE
  5
AD
330
1F
100
AcDbEntity
  8
0
  6
Continuous
 62
     7
370
    25
100
AcDbLine
 10
204.9514778668
 20
1017.3884768758
 30
0.0
 11
204.9436004378
 21
1018.9001127903
 31
0.0
  0
LINE
  5
AE
330
1F
100
AcDbEntity
  8
0
  6
Continuous
 62
     7
370
    25
100
AcDbLine
 10
180.8144871726
 20
1018.9001127903
 30
0.0
 11
204.9436004378
 21
1018.9001127903
 31
0.0
  0
LINE
  5
AF
330
1F
100
AcDbEntity
  8
0
  6
Continuous
 62
     7
370
    25
100
AcDbLine
 10
234.5672792753
 20
1034.4001127903
 30
0.0
 11
180.8144871726
 21
1034.4001127903
 31
0.0
  0
LINE
  5
B0
330
1F
100
AcDbEntity
  8
0
  6
Continuous
 62
     7
370
    25
100
AcDbLine
 10
234.5672792753
 20
1016.4001127903
 30
0.0
 11
202.9198423481
 21
1016.4001127903
 31
0.0
  0
SPLINE
  5
B1
330
1F
100
AcDbEntity
  8
0
  6
Continuous
 62
     7
370
    25
100
AcDbSpline
210
0.0
220
0.0
230
1.0
 70
     8
 71
     3
 72
    12
 73
     8
 74
     0
 42
0.000000001
 43
0.00000001
 40
0.0
 40
0.0
 40
0.0
 40
0.0
 40
0.4981687216287423
 40
0.7486593186385363
 40
0.8736059982821325
 40
0.9397012000722013
 40
1.0
 40
1.0
 40
1.0
 40
1.0
 10
202.9198423481196
 20
1016.400112790347
 30
0.0
 10
203.3145050736095
 20
1016.42527245827
 30
0.0
 10
203.9076132201654
 20
1016.463082981144
 30
0.0
 10
204.5607291269104
 20
1016.757163751568
 30
0.0
 10
204.8294243925112
 20
1017.018330093031
 30
0.0
 10
204.9358544116834
 20
1017.217577967591
 30
0.0
 10
204.9464317397858
 20
1017.333279251743
 30
0.0
 10
204.9514778668357
 20
1017.388476875757
 30
0.0
  0
LINE
  5
B2
330
1F
100
AcDbEntity
  8
0
  6
Continuous
 62
     7
370
    25
100
AcDbLine
 10
202.9198423481
 20
1016.4001127903
 30
0.0
 11
180.8144871726
 21
1016.4001127903
 31
0.0
  0
LINE
  5
B3
330
1F
100
AcDbEntity
  8
0
  6
Continuous
 62
     7
370
    25
100
AcDbLine
 10
186.9407524707
 20
1034.4001127903
 30
0.0
 11
234.5672792753
 21
1034.4001127903
 31
0.0
  0
LINE
  5
B4
330
1F
100
AcDbEntity
  8
0
  6
Continuous
 62
     7
370
    25
100
AcDbLine
 10
180.8144871726
 20
1034.4001127903
 30
0.0
 11
186.9407524707
 21
1034.4001127903
 31
0.0
  0
LINE
  5
B5
330
1F
100
AcDbEntity
  8
0
  6
Continuous
 62
     7
370
    25
100
AcDbLine
 10
238.1168013157
 20
1121.9582606666
 30
0.0
 11
146.8390470405
 21
1121.9582606666
 31
0.0
  0
LINE
  5
B6
330
1F
100
AcDbEntity
  8
0
  6
Continuous
 62
     7
370
    25
100
AcDbLine
 10
268.5427194074
 20
1121.9582606666
 30
0.0
 11
238.1168013157
 21
1121.9582606666
 31
0.0
  0
LINE
  5
B7
330
1F
100
AcDbEntity
  8
0
  6
Continuous
 62
     7
370
    25
100
AcDbLine
 10
268.6908832239
 20
1116.3001127903
 30
0.0
 11
146.6908832239
 21
1116.3001127903
 31
0.0
  0
SPLINE
  5
B8
330
1F
100
AcDbEntity
  8
0
  6
Continuous
 62
     7
370
    25
100
AcDbSpline
210
0.0
220
0.0
230
1.0
 70
    11
 71
     3
 72
    26
 73
    22
 74
     0
 42
0.000000001
 43
0.00000001
 40
0.0
 40
0.0
 40
0.0
 40
0.0
 40
0.0487288626010708
 40
0.097594202938153
 40
0.1436383068857411
 40
0.1892386773120392
 40
0.238061996232545
 40
0.2921412749075267
 40
0.3512949688082148
 40
0.4129159202171764
 40
0.4730990705865269
 40
0.5290078929867542
 40
0.5804913810616205
 40
0.6291505490579219
 40
0.6769649653952361
 40
0.7257612837511805
 40
0.7771269940698781
 40
0.8322514718269265
 40
0.8913950680097861
 40
0.9529624434402938
 40
1.0
 40
1.0
 40
1.0
 40
1.0
 10
254.2709639467116
 20
1125.920555419162
 30
0.0
 10
254.6506594638242
 20
1125.801308911935
 30
0.0
 10
255.4111139331837
 20
1125.562481916911
 30
0.0
 10
256.2633658240808
 20
1125.440899224841
 30
0.0
 10
256.756710675873
 20
1125.531783378743
 30
0.0
 10
256.8693155373469
 20
1125.812604517396
 30
0.0
 10
256.6003902329559
 20
1126.254971783198
 30
0.0
 10
255.9126670342079
 20
1126.838005446159
 30
0.0
 10
254.7993291399616
 20
1127.508751297519
 30
0.0
 10
253.3578425420189
 20
1128.174175751919
 30
0.0
 10
251.8088494584952
 20
1128.725119356918
 30
0.0
 10
250.4161486895617
 20
1129.089510298993
 30
0.0
 10
249.3618454354912
 20
1129.254553498149
 30
0.0
 10
248.7133688277666
 20
1129.23943050345
 30
0.0
 10
248.4807035929646
 20
1129.064187090339
 30
0.0
 10
248.6623722810652
 20
1128.740235852021
 30
0.0
 10
249.2555308395189
 20
1128.275436819377
 30
0.0
 10
250.245921785265
 20
1127.684357835354
 30
0.0
 10
251.5716682800402
 20
1127.013939469827
 30
0.0
 10
252.9932413084682
 20
1126.381469310291
 30
0.0
 10
253.8848164915794
 20
1126.059850694026
 30
0.0
 10
254.2709639467116
 20
1125.920555419162
 30
0.0
  0
SPLINE
  5
B9
330
1F
100
AcDbEntity
  8
0
  6
Continuous
 62
     7
370
    25
100
AcDbSpline
210
0.0
220
0.0
230
1.0
 70
    11
 71
     3
 72
    26
 73
    22
 74
     0
 42
0.000000001
 43
0.00000001
 40
0.0
 40
0.0
 40
0.0
 40
0.0
 40
0.0605598206018825
 40
0.1212215247574449
 40
0.1786803883444821
 40
0.2315048291442551
 40
0.2808832232685036
 40
0.3287688729410269
 40
0.3770573458581258
 40
0.4274216878886579
 40
0.4812189226543711
 40
0.5391056232927459
 40
0.6001971807045221
 40
0.6614174261390926
 40
0.7184393347802893
 40
0.7688743709109623
 40
0.8147862343998307
 40
0.8605331461283363
 40
0.9097405482898153
 40
0.9642798534108962
 40
1.0
 40
1.0
 40
1.0
 40
1.0
 10
164.3297731715964
 20
1127.280859639258
 30
0.0
 10
164.7694351248744
 20
1127.509620288811
 30
0.0
 10
165.6494987020862
 20
1127.96752644619
 30
0.0
 10
166.5319595907249
 20
1128.562540208402
 30
0.0
 10
166.911405338012
 20
1128.991604125098
 30
0.0
 10
166.7542879427655
 20
1129.221109440554
 30
0.0
 10
166.1582663322631
 20
1129.26295595964
 30
0.0
 10
165.2310221780882
 20
1129.138942998645
 30
0.0
 10
164.0651527166186
 20
1128.863300611227
 30
0.0
 10
162.7469084798261
 20
1128.443949411164
 30
0.0
 10
161.3776334277395
 20
1127.892012036084
 30
0.0
 10
160.0955796206827
 20
1127.239104804305
 30
0.0
 10
159.0854166181339
 20
1126.554732165462
 30
0.0
 10
158.5377007724817
 20
1125.953024620406
 30
0.0
 10
158.5508317142661
 20
1125.560573582717
 30
0.0
 10
159.0515534712449
 20
1125.437540061759
 30
0.0
 10
159.87502942537
 20
1125.548414611776
 30
0.0
 10
160.9247633725774
 20
1125.842764295303
 30
0.0
 10
162.165082658307
 20
1126.297583945698
 30
0.0
 10
163.3504120899455
 20
1126.804729676435
 30
0.0
 10
164.0520859756337
 20
1127.14585816047
 30
0.0
 10
164.3297731715964
 20
1127.280859639258
 30
0.0
  0
LINE
  5
BA
330
1F
100
AcDbEntity
  8
0
  6
Continuous
 62
     7
370
    25
100
AcDbLine
 10
212.6908832239
 20
1133.8001127903
 30
0.0
 11
197.6908832239
 21
1133.8001127903
 31
0.0
  0
LINE
  5
BB
330
1F
100
AcDbEntity
  8
0
  6
Continuous
 62
     7
370
    25
100
AcDbLine
 10
217.6908832239
 20
1133.8001127903
 30
0.0
 11
212.6908832239
 21
1133.8001127903
 31
0.0
  0
ELLIPSE
  5
BC
330
1F
100
AcDbEntity
  8
0
  6
Continuous
 62
     7
370
    25
100
AcDbEllipse
 10
192.0902416461
 20
1110.3001127903
 30
0.0
 11
-0.4533981982473563
 21
14.99828916609749
 31
0.0
210
0.0
220
0.0
230
1.0
 40
0.4996574619
 41
5.427013142864891
 42
6.268081813432821
  0
LINE
  5
BD
330
1F
100
AcDbEntity
  8
0
  6
Continuous
 62
     7
370
    25
100
AcDbLine
 10
191.7500765466
 20
1125.3001127903
 30
0.0
 11
182.6377706524
 21
1125.3001127903
 31
0.0
  0
SPLINE
  5
BE
330
1F
100
AcDbEntity
  8
0
  6
Continuous
 62
     7
370
    25
100
AcDbSpline
210
0.0
220
0.0
230
1.0
 70
     8
 71
     3
 72
     9
 73
     5
 74
     0
 42
0.000000001
 43
0.00000001
 40
0.0
 40
0.0
 40
0.0
 40
0.0
 40
0.405780103030204
 40
1.0
 40
1.0
 40
1.0
 40
1.0
 10
163.5683762172733
 20
1122.001996118038
 30
0.0
 10
163.5589223733962
 20
1121.771798082593
 30
0.0
 10
163.5356244250579
 20
1121.204500588889
 30
0.0
 10
163.5122682244705
 20
1120.637208836816
 30
0.0
 10
163.4983895053638
 20
1120.300112790347
 30
0.0
  0
CIRCLE
  5
BF
330
1F
100
AcDbEntity
  8
0
  6
Continuous
 62
     7
370
    25
100
AcDbCircle
 10
199.7229280737
 20
147.1468528849
 30
0.0
 40
1.495435879390998
  0
SPLINE
  5
C0
330
1F
100
AcDbEntity
  8
0
  6
Continuous
 62
     7
370
    25
100
AcDbSpline
210
0.0
220
0.0
230
1.0
 70
    24
 71
     3
 72
     9
 73
     5
 74
     0
 42
0.000000001
 43
0.00000001
 40
0.0
 40
0.0
 40
0.0
 40
0.0
 40
0.1289594393881165
 40
1.0
 40
1.0
 40
1.0
 40
1.0
 10
200.3115512325033
 20
148.1501127903468
 30
0.0
 10
200.2630286724249
 20
148.1501127903468
 30
0.0
 10
199.8867664902336
 20
148.1501127903468
 30
0.0
 10
199.5019340135413
 20
148.1501127903468
 30
0.0
 10
199.1667293173016
 20
148.1501127903468
 30
0.0
  0
LINE
  5
C1
330
1F
100
AcDbEntity
  8
0
  6
Continuous
 62
     7
370
    25
100
AcDbLine
 10
199.1667293173
 20
148.1501127903
 30
0.0
 11
198.5943183597
 21
147.1501127903
 31
0.0
  0
LINE
  5
C2
330
1F
100
AcDbEntity
  8
0
  6
Continuous
 62
     7
370
    25
100
AcDbLine
 10
198.5943183597
 20
147.1501127903
 30
0.0
 11
199.1667293173
 21
146.1501127903
 31
0.0
  0
SPLINE
  5
C3
330
1F
100
AcDbEntity
  8
0
  6
Continuous
 62
     7
370
    25
100
AcDbSpline
210
0.0
220
0.0
230
1.0
 70
    24
 71
     3
 72
     9
 73
     5
 74
     0
 42
0.000000001
 43
0.00000001
 40
0.0
 40
0.0
 40
0.0
 40
0.0
 40
0.8710405606118842
 40
1.0
 40
1.0
 40
1.0
 40
1.0
 10
199.1667293173016
 20
146.1501127903468
 30
0.0
 10
199.5019340135413
 20
146.1501127903468
 30
0.0
 10
199.8867664902336
 20
146.1501127903468
 30
0.0
 10
200.2630286724249
 20
146.1501127903468
 30
0.0
 10
200.3115512325033
 20
146.1501127903468
 30
0.0
  0
LINE
  5
C4
330
1F
100
AcDbEntity
  8
0
  6
Continuous
 62
     7
370
    25
100
AcDbLine
 10
200.3115512325
 20
146.1501127903
 30
0.0
 11
200.8839621901
 21
147.1501127903
 31
0.0
  0
LINE
  5
C5
330
1F
100
AcDbEntity
  8
0
  6
Continuous
 62
     7
370
    25
100
AcDbLine
 10
200.8839621901
 20
147.1501127903
 30
0.0
 11
200.3115512325
 21
148.1501127903
 31
0.0
  0
LINE
  5
C6
330
1F
100
AcDbEntity
  8
0
  6
Continuous
 62
     7
370
    25
100
AcDbLine
 10
199.4850976308
 20
148.1501127903
 30
0.0
 11
198.9126866732
 21
147.1501127903
 31
0.0
  0
LINE
  5
C7
330
1F
100
AcDbEntity
  8
0
  6
Continuous
 62
     7
370
    25
100
AcDbLine
 10
198.9126866732
 20
147.1501127903
 30
0.0
 11
198.5943183597
 21
147.1501127903
 31
0.0
  0
LINE
  5
C8
330
1F
100
AcDbEntity
  8
0
  6
Continuous
 62
     7
370
    25
100
AcDbLine
 10
198.9126866732
 20
147.1501127903
 30
0.0
 11
199.4850976308
 21
146.1501127903
 31
0.0
  0
CIRCLE
  5
C9
330
1F
100
AcDbEntity
  8
0
  6
Continuous
 62
     7
370
    25
100
AcDbCircle
 10
199.7229280737
 20
436.0468528849
 30
0.0
 40
1.495435879390912
  0
SPLINE
  5
CA
330
1F
100
AcDbEntity
  8
0
  6
Continuous
 62
     7
370
    25
100
AcDbSpline
210
0.0
220
0.0
230
1.0
 70
    24
 71
     3
 72
     9
 73
     5
 74
     0
 42
0.000000001
 43
0.00000001
 40
0.0
 40
0.0
 40
0.0
 40
0.0
 40
0.1289594393881165
 40
1.0
 40
1.0
 40
1.0
 40
1.0
 10
200.3115512325033
 20
437.0501127903469
 30
0.0
 10
200.2630286724249
 20
437.0501127903469
 30
0.0
 10
199.8867664902336
 20
437.0501127903469
 30
0.0
 10
199.5019340135413
 20
437.0501127903469
 30
0.0
 10
199.1667293173016
 20
437.0501127903469
 30
0.0
  0
LINE
  5
CB
330
1F
100
AcDbEntity
  8
0
  6
Continuous
 62
     7
370
    25
100
AcDbLine
 10
199.1667293173
 20
437.0501127903
 30
0.0
 11
198.5943183597
 21
436.0501127903
 31
0.0
  0
LINE
  5
CC
330
1F
100
AcDbEntity
  8
0
  6
Continuous
 62
     7
370
    25
100
AcDbLine
 10
198.5943183597
 20
436.0501127903
 30
0.0
 11
199.1667293173
 21
435.0501127903
 31
0.0
  0
SPLINE
  5
CD
330
1F
100
AcDbEntity
  8
0
  6
Continuous
 62
     7
370
    25
100
AcDbSpline
210
0.0
220
0.0
230
1.0
 70
    24
 71
     3
 72
     9
 73
     5
 74
     0
 42
0.000000001
 43
0.00000001
 40
0.0
 40
0.0
 40
0.0
 40
0.0
 40
0.8710405606118842
 40
1.0
 40
1.0
 40
1.0
 40
1.0
 10
199.1667293173016
 20
435.0501127903469
 30
0.0
 10
199.5019340135413
 20
435.0501127903469
 30
0.0
 10
199.8867664902336
 20
435.0501127903469
 30
0.0
 10
200.2630286724249
 20
435.0501127903469
 30
0.0
 10
200.3115512325033
 20
435.0501127903469
 30
0.0
  0
LINE
  5
CE
330
1F
100
AcDbEntity
  8
0
  6
Continuous
 62
     7
370
    25
100
AcDbLine
 10
200.3115512325
 20
435.0501127903
 30
0.0
 11
200.8839621901
 21
436.0501127903
 31
0.0
  0
LINE
  5
CF
330
1F
100
AcDbEntity
  8
0
  6
Continuous
 62
     7
370
    25
100
AcDbLine
 10
200.8839621901
 20
436.0501127903
 30
0.0
 11
200.3115512325
 21
437.0501127903
 31
0.0
  0
LINE
  5
D0
330
1F
100
AcDbEntity
  8
0
  6
Continuous
 62
     7
370
    25
100
AcDbLine
 10
198.9126866732
 20
436.0501127903
 30
0.0
 11
199.4850976308
 21
435.0501127903
 31
0.0
  0
LINE
  5
D1
330
1F
100
AcDbEntity
  8
0
  6
Continuous
 62
     7
370
    25
100
AcDbLine
 10
198.9126866732
 20
436.0501127903
 30
0.0
 11
198.5943183597
 21
436.0501127903
 31
0.0
  0
LINE
  5
D2
330
1F
100
AcDbEntity
  8
0
  6
Continuous
 62
     7
370
    25
100
AcDbLine
 10
199.4850976308
 20
437.0501127903
 30
0.0
 11
198.9126866732
 21
436.0501127903
 31
0.0
  0
SPLINE
  5
D3
330
1F
100
AcDbEntity
  8
0
  6
Continuous
 62
     7
370
    25
100
AcDbSpline
210
0.0
220
0.0
230
1.0
 70
     8
 71
     3
 72
    12
 73
     8
 74
     0
 42
0.000000001
 43
0.00000001
 40
0.0
 40
0.0
 40
0.0
 40
0.0
 40
0.1278395396038225
 40
0.3474101043883959
 40
0.565985632289825
 40
0.7833921352628173
 40
0.9999999999999999
 40
0.9999999999999999
 40
0.9999999999999999
 40
0.9999999999999999
 10
268.3845720823881
 20
1114.300112790347
 30
0.0
 10
268.3710742000499
 20
1114.292516025803
 30
0.0
 10
268.3343930548685
 20
1114.271871452368
 30
0.0
 10
268.2711701186309
 20
1114.054946463535
 30
0.0
 10
268.206680109294
 20
1113.616563131674
 30
0.0
 10
268.1589051467561
 20
1113.026307606461
 30
0.0
 10
268.1512530531658
 20
1112.576804613744
 30
0.0
 10
268.1474340467535
 20
1112.352466686963
 30
0.0
  0
ELLIPSE
  5
D4
330
1F
100
AcDbEntity
  8
0
  6
Continuous
 62
     7
370
    25
100
AcDbEllipse
 10
207.6908832239
 20
1118.5016628045
 30
0.0
 11
7.967648483776429
 21
2291.307548170662
 31
0.0
210
0.0
220
0.0
230
1.0
 40
0.0263942767
 41
4.695807609808956
 42
4.709797052836898
  0
LINE
  5
D5
330
1F
100
AcDbEntity
  8
0
  6
Continuous
 62
     7
370
    25
100
AcDbLine
 10
268.0278665648
 20
1080.3001127903
 30
0.0
 11
245.6270213202
 21
1080.3001127903
 31
0.0
  0
ELLIPSE
  5
D6
330
1F
100
AcDbEntity
  8
0
  6
Continuous
 62
     7
370
    25
100
AcDbEllipse
 10
207.6908832239
 20
1118.5016628045
 30
0.0
 11
-48.40725970489654
 21
2291.307423635507
 31
0.0
210
0.0
220
0.0
230
1.0
 40
0.0161994337
 41
4.695373591022104
 42
4.709363034050047
  0
SPLINE
  5
D7
330
1F
100
AcDbEntity
  8
0
  6
Continuous
 62
     7
370
    25
100
AcDbSpline
210
0.0
220
0.0
230
1.0
 70
     8
 71
     3
 72
    12
 73
     8
 74
     0
 42
0.000000001
 43
0.00000001
 40
0.0
 40
0.0
 40
0.0
 40
0.0
 40
0.1258941150703266
 40
0.3428519291404085
 40
0.5608483368691588
 40
0.7800551791283808
 40
1.0
 40
1.0
 40
1.0
 40
1.0
 10
244.9550734270426
 20
1112.352466686963
 30
0.0
 10
244.9461902946903
 20
1112.482514281572
 30
0.0
 10
244.9219985438518
 20
1112.836677529529
 30
0.0
 10
244.7341864157651
 20
1113.383502319029
 30
0.0
 10
244.3673262618088
 20
1113.890464146985
 30
0.0
 10
243.8794267189968
 20
1114.234122551166
 30
0.0
 10
243.5101324424558
 20
1114.278091414588
 30
0.0
 10
243.3251750112949
 20
1114.300112790347
 30
0.0
  0
LINE
  5
D8
330
1F
100
AcDbEntity
  8
0
  6
Continuous
 62
     7
370
    25
100
AcDbLine
 10
172.0565914366
 20
1114.3001127903
 30
0.0
 11
243.3251750113
 21
1114.3001127903
 31
0.0
  0
SPLINE
  5
D9
330
1F
100
AcDbEntity
  8
0
  6
Continuous
 62
     7
370
    25
100
AcDbSpline
210
0.0
220
0.0
230
1.0
 70
     8
 71
     3
 72
    12
 73
     8
 74
     0
 42
0.000000001
 43
0.00000001
 40
0.0
 40
0.0
 40
0.0
 40
0.0
 40
0.1278395396038313
 40
0.3474101043883986
 40
0.5659856322898275
 40
0.7833921352628184
 40
1.0
 40
1.0
 40
1.0
 40
1.0
 10
172.0565914365766
 20
1114.300112790347
 30
0.0
 10
171.9493665069396
 20
1114.292516025803
 30
0.0
 10
171.6579775977361
 20
1114.271871452368
 30
0.0
 10
171.2076188333336
 20
1114.054946463534
 30
0.0
 10
170.7860302190356
 20
1113.616563131674
 30
0.0
 10
170.4945019465979
 20
1113.026307606462
 30
0.0
 10
170.4492682509523
 20
1112.576804613744
 30
0.0
 10
170.4266930208288
 20
1112.352466686963
 30
0.0
  0
ELLIPSE
  5
DA
330
1F
100
AcDbEntity
  8
0
  6
Continuous
 62
     7
370
    25
100
AcDbEllipse
 10
207.6908832239
 20
1118.5016628045
 30
0.0
 11
48.40725970489683
 21
2291.307423635507
 31
0.0
210
0.0
220
0.0
230
1.0
 40
0.0161994337
 41
1.573822273129539
 42
1.587811716157483
  0
LINE
  5
DB
330
1F
100
AcDbEntity
  8
0
  6
Continuous
 62
     7
370
    25
100
AcDbLine
 10
169.7547451276
 20
1080.3001127903
 30
0.0
 11
147.3538998831
 21
1080.3001127903
 31
0.0
  0
ELLIPSE
  5
DC
330
1F
100
AcDbEntity
  8
0
  6
Continuous
 62
     7
370
    25
100
AcDbEllipse
 10
207.6908832239
 20
1118.5016628045
 30
0.0
 11
-7.967648483777623
 21
2291.307548170662
 31
0.0
210
0.0
220
0.0
230
1.0
 40
0.0263942767
 41
1.573388254342688
 42
1.587377697370632
  0
SPLINE
  5
DD
330
1F
100
AcDbEntity
  8
0
  6
Continuous
 62
     7
370
    25
100
AcDbSpline
210
0.0
220
0.0
230
1.0
 70
     8
 71
     3
 72
    12
 73
     8
 74
     0
 42
0.000000001
 43
0.00000001
 40
0.0
 40
0.0
 40
0.0
 40
0.0
 40
0.1258941150703257
 40
0.3428519291404085
 40
0.5608483368691584
 40
0.780055179128385
 40
0.9999999999999999
 40
0.9999999999999999
 40
0.9999999999999999
 40
0.9999999999999999
 10
147.2343324011179
 20
1112.352466686963
 30
0.0
 10
147.2328378078969
 20
1112.482514281572
 30
0.0
 10
147.2287675289263
 20
1112.836677529529
 30
0.0
 10
147.1974421825781
 20
1113.383502319029
 30
0.0
 10
147.1395909070486
 20
1113.890464146984
 30
0.0
 10
147.0679959116674
 20
1114.234122551166
 30
0.0
 10
147.0208213059553
 20
1114.278091414588
 30
0.0
 10
146.9971943654832
 20
1114.300112790347
 30
0.0
  0
LINE
  5
DE
330
1F
100
AcDbEntity
  8
0
  6
Continuous
 62
     7
370
    25
100
AcDbLine
 10
220.8936996742
 20
1116.3001127903
 30
0.0
 11
146.6908832239
 21
1116.3001127903
 31
0.0
  0
LINE
  5
DF
330
1F
100
AcDbEntity
  8
0
  6
Continuous
 62
     7
370
    25
100
AcDbLine
 10
268.6908832239
 20
1116.3001127903
 30
0.0
 11
220.8936996742
 21
1116.3001127903
 31
0.0
  0
LWPOLYLINE
  5
E0
330
1F
100
AcDbEntity
  8
0
  6
Continuous
 62
     7
370
    25
100
AcDbPolyline
 90
        9
 70
   128
 43
0.0
 10
243.3251750113
 20
1114.3001127903
 10
243.3139503732
 20
1114.1050224683
 10
243.2807078154
 20
1113.917429358
 10
243.2267248308
 20
1113.7445425573
 10
243.1540759552
 20
1113.5930060092
 10
243.0655530442
 20
1113.468643178
 10
242.9645579835
 20
1113.3762332578
 10
242.8549719567
 20
1113.3193275099
 10
242.7410062935
 20
1113.3001127903
  0
LINE
  5
E1
330
1F
100
AcDbEntity
  8
0
  6
Continuous
 62
     7
370
    25
100
AcDbLine
 10
242.7410062935
 20
1113.3001127903
 30
0.0
 11
172.6407601544
 21
1113.3001127903
 31
0.0
  0
LWPOLYLINE
  5
E2
330
1F
100
AcDbEntity
  8
0
  6
Continuous
 62
     7
370
    25
100
AcDbPolyline
 90
        9
 70
   128
 43
0.0
 10
172.0565914366
 20
1114.3001127903
 10
172.0678160747
 20
1114.1050224683
 10
172.1010586325
 20
1113.917429358
 10
172.1550416171
 20
1113.7445425573
 10
172.2276904927
 20
1113.5930060092
 10
172.3162134037
 20
1113.468643178
 10
172.4172084644
 20
1113.3762332578
 10
172.5267944911
 20
1113.3193275099
 10
172.6407601544
 20
1113.3001127903
  0
LINE
  5
E3
330
1F
100
AcDbEntity
  8
0
  6
Continuous
 62
     7
370
    25
100
AcDbLine
 10
150.1779616594
 20
1120.3001127903
 30
0.0
 11
265.2038047885
 21
1120.3001127903
 31
0.0
  0
LWPOLYLINE
  5
E4
330
1F
100
AcDbEntity
  8
0
  6
Continuous
 62
     7
370
    25
100
AcDbPolyline
 90
        9
 70
   128
 43
0.0
 10
242.6425185114
 20
1113.3001127903
 10
242.530441311
 20
1113.2815312495
 10
242.4225292448
 20
1113.2264771742
 10
242.3227926577
 20
1113.1369965437
 10
242.2349380686
 20
1113.0164147338
 10
242.1622304249
 20
1112.8692129362
 10
242.1073717665
 20
1112.7008616235
 10
242.0724008104
 20
1112.517617249
 10
242.0586171849
 20
1112.3262897387
  0
LINE
  5
E5
330
1F
100
AcDbEntity
  8
0
  6
Continuous
 62
     7
370
    25
100
AcDbLine
 10
242.0586171849
 20
1112.3262897387
 30
0.0
 11
173.3231492629
 21
1112.3262897387
 31
0.0
  0
LWPOLYLINE
  5
E6
330
1F
100
AcDbEntity
  8
0
  6
Continuous
 62
     7
370
    25
100
AcDbPolyline
 90
        9
 70
   128
 43
0.0
 10
172.7392479365
 20
1113.3001127903
 10
172.8513251369
 20
1113.2815312495
 10
172.9592372031
 20
1113.2264771742
 10
173.0589737902
 20
1113.1369965437
 10
173.1468283792
 20
1113.0164147338
 10
173.219536023
 20
1112.8692129362
 10
173.2743946814
 20
1112.7008616235
 10
173.3093656375
 20
1112.517617249
 10
173.3231492629
 20
1112.3262897387
  0
SPLINE
  5
E7
330
1F
100
AcDbEntity
  8
0
  6
Continuous
 62
     7
370
    25
100
AcDbSpline
210
0.0
220
0.0
230
1.0
 70
     8
 71
     3
 72
    10
 73
     6
 74
     0
 42
0.000000001
 43
0.00000001
 40
0.0
 40
0.0
 40
0.0
 40
0.0
 40
0.0624078128644396
 40
0.3120390645475804
 40
1.0
 40
1.0
 40
1.0
 40
1.0
 10
242.2143336572262
 20
1080.300112790347
 30
0.0
 10
242.2111652152304
 20
1080.966337925907
 30
0.0
 10
242.1953230052397
 20
1084.297463606113
 30
0.0
 10
242.1441948576013
 20
1094.972825832393
 30
0.0
 10
242.0948350697386
 20
1104.982017136056
 30
0.0
 10
242.0586171849293
 20
1112.326289738655
 30
0.0
  0
SPLINE
  5
E8
330
1F
100
AcDbEntity
  8
0
  6
Continuous
 62
     7
370
    25
100
AcDbSpline
210
0.0
220
0.0
230
1.0
 70
     8
 71
     3
 72
    10
 73
     6
 74
     0
 42
0.000000001
 43
0.00000001
 40
0.0
 40
0.0
 40
0.0
 40
0.0
 40
0.0624078128664824
 40
0.3120390645454701
 40
1.0
 40
1.0
 40
1.0
 40
1.0
 10
173.3231492629422
 20
1112.326289738655
 30
0.0
 10
173.3198399779005
 20
1111.660059150818
 30
0.0
 10
173.3032935526806
 20
1108.328906209362
 30
0.0
 10
173.2506079723402
 20
1097.653483696219
 30
0.0
 10
173.2026339015843
 20
1087.644346033666
 30
0.0
 10
173.1674327906453
 20
1080.300112790347
 30
0.0
  0
LINE
  5
E9
330
1F
100
AcDbEntity
  8
0
  6
Continuous
 62
     7
370
    25
100
AcDbLine
 10
173.1674327906
 20
1080.3001127903
 30
0.0
 11
242.2143336572
 21
1080.3001127903
 31
0.0
  0
LINE
  5
EA
330
1F
100
AcDbEntity
  8
0
  6
Continuous
 62
     7
370
    25
100
AcDbLine
 10
235.618696444
 20
1071.273935842
 30
0.0
 11
235.9504667357
 21
1080.3001127903
 31
0.0
  0
LINE
  5
EB
330
1F
100
AcDbEntity
  8
0
  6
Continuous
 62
     7
370
    25
100
AcDbLine
 10
179.7630700039
 20
1071.273935842
 30
0.0
 11
235.618696444
 21
1071.273935842
 31
0.0
  0
LINE
  5
EC
330
1F
100
AcDbEntity
  8
0
  6
Continuous
 62
     7
370
    25
100
AcDbLine
 10
179.7630700039
 20
1071.273935842
 30
0.0
 11
179.4312997121
 21
1080.3001127903
 31
0.0
  0
LINE
  5
ED
330
1F
100
AcDbEntity
  8
0
  6
Continuous
 62
     7
370
    25
100
AcDbLine
 10
234.9898190223
 20
1070.3001127903
 30
0.0
 11
180.3919474256
 21
1070.3001127903
 31
0.0
  0
SPLINE
  5
EE
330
1F
100
AcDbEntity
  8
0
  6
Continuous
 62
     7
370
    25
100
AcDbSpline
210
0.0
220
0.0
230
1.0
 70
     8
 71
     3
 72
    12
 73
     8
 74
     0
 42
0.000000001
 43
0.00000001
 40
0.0
 40
0.0
 40
0.0
 40
0.0
 40
0.21825325409811
 40
0.4365046185003297
 40
0.65480515294899
 40
0.8731785772952431
 40
1.0
 40
1.0
 40
1.0
 40
1.0
 10
180.3919474255583
 20
1070.300112790347
 30
0.0
 10
180.3232857328916
 20
1070.311164677544
 30
0.0
 10
180.1859629420499
 20
1070.333268356248
 30
0.0
 10
179.9999809568367
 20
1070.50561256688
 30
0.0
 10
179.8569480473846
 20
1070.759291318616
 30
0.0
 10
179.7805823052278
 20
1071.032249154045
 30
0.0
 10
179.7677752124231
 20
1071.208999415936
 30
0.0
 10
179.7630700039181
 20
1071.273935842039
 30
0.0
  0
SPLINE
  5
EF
330
1F
100
AcDbEntity
  8
0
  6
Continuous
 62
     7
370
    25
100
AcDbSpline
210
0.0
220
0.0
230
1.0
 70
     8
 71
     3
 72
    12
 73
     8
 74
     0
 42
0.000000001
 43
0.00000001
 40
0.0
 40
0.0
 40
0.0
 40
0.0
 40
0.2184263180358639
 40
0.4368530908737834
 40
0.6552625221024135
 40
0.8736114286770857
 40
1.0
 40
1.0
 40
1.0
 40
1.0
 10
235.6186964439532
 20
1071.273935842039
 30
0.0
 10
235.6078339266099
 20
1071.161803387381
 30
0.0
 10
235.5861088693055
 20
1070.937538244585
 30
0.0
 10
235.4701926157248
 20
1070.642437139566
 30
0.0
 10
235.3074958208877
 20
1070.422905605926
 30
0.0
 10
235.1372895151033
 20
1070.314202269646
 30
0.0
 10
235.0293808018556
 20
1070.303892562581
 30
0.0
 10
234.989819022313
 20
1070.300112790347
 30
0.0
  0
SPLINE
  5
F0
330
1F
100
AcDbEntity
  8
0
  6
Continuous
 62
     7
370
    25
100
AcDbSpline
210
0.0
220
0.0
230
1.0
 70
     8
 71
     3
 72
    12
 73
     8
 74
     0
 42
0.000000001
 43
0.00000001
 40
0.0
 40
0.0
 40
0.0
 40
0.0
 40
0.2182513775456995
 40
0.436503377501303
 40
0.6547622352445142
 40
0.8730613388571324
 40
1.0
 40
1.0
 40
1.0
 40
1.0
 10
171.8306628627301
 20
1112.326289738655
 30
0.0
 10
171.8417073901148
 20
1112.438386862881
 30
0.0
 10
171.8637964763809
 20
1112.662581431013
 30
0.0
 10
172.0068544726538
 20
1112.957617783581
 30
0.0
 10
172.215475248457
 20
1113.177158854904
 30
0.0
 10
172.4403586424796
 20
1113.285983821234
 30
0.0
 10
172.5868847421215
 20
1113.29631439567
 30
0.0
 10
172.6407601544021
 20
1113.300112790347
 30
0.0
  0
ARC
  5
F1
330
1F
100
AcDbEntity
  8
0
  6
Continuous
 62
     7
370
    25
100
AcDbCircle
 10
172.0669767442
 20
1162.6639311669
 30
0.0
 40
50.33819612195303
100
AcDbArc
 50
268.1326709873
 51
269.7310225867
  0
ARC
  5
F2
330
1F
100
AcDbEntity
  8
0
  6
Continuous
 62
     7
370
    25
100
AcDbCircle
 10
243.3147897037
 20
1162.6639311669
 30
0.0
 40
50.33819612194666
100
AcDbArc
 50
270.2689774133
 51
271.8673290127
  0
SPLINE
  5
F3
330
1F
100
AcDbEntity
  8
0
  6
Continuous
 62
     7
370
    25
100
AcDbSpline
210
0.0
220
0.0
230
1.0
 70
     8
 71
     3
 72
    12
 73
     8
 74
     0
 42
0.000000001
 43
0.00000001
 40
0.0
 40
0.0
 40
0.0
 40
0.0
 40
0.2184230073945415
 40
0.4367023683392383
 40
0.6548849743023024
 40
0.8731007387777215
 40
1.0
 40
1.0
 40
1.0
 40
1.0
 10
242.7410062934694
 20
1113.300112790347
 30
0.0
 10
242.8338744926103
 20
1113.289080876227
 30
0.0
 10
243.0195498158834
 20
1113.267024303154
 30
0.0
 10
243.2620864340463
 20
1113.094723506498
 30
0.0
 10
243.4429804467892
 20
1112.841060623225
 30
0.0
 10
243.5348989570959
 20
1112.568091841466
 30
0.0
 10
243.5467470319938
 20
1112.391297322237
 30
0.0
 10
243.5511035851413
 20
1112.326289738655
 30
0.0
  0
LINE
  5
F4
330
1F
100
AcDbEntity
  8
0
  6
Continuous
 62
     7
370
    25
100
AcDbLine
 10
171.9461664586
 20
1112.3262897387
 30
0.0
 11
171.8306628627
 21
1112.3262897387
 31
0.0
  0
ARC
  5
F5
330
1F
100
AcDbEntity
  8
0
  6
Continuous
 62
     7
370
    25
100
AcDbCircle
 10
172.8519309129
 20
1112.3984894788
 30
0.0
 40
0.9086374684580917
100
AcDbArc
 50
97.123768856
 51
184.5574896856
  0
LINE
  5
F6
330
1F
100
AcDbEntity
  8
0
  6
Continuous
 62
     7
370
    25
100
AcDbLine
 10
243.5511035851
 20
1112.3262897387
 30
0.0
 11
243.4355999893
 21
1112.3262897387
 31
0.0
  0
ARC
  5
F7
330
1F
100
AcDbEntity
  8
0
  6
Continuous
 62
     7
370
    25
100
AcDbCircle
 10
242.529835535
 20
1112.3984894788
 30
0.0
 40
0.9086374684581673
100
AcDbArc
 50
355.4425103144
 51
82.876231144
  0
ELLIPSE
  5
F8
330
1F
100
AcDbEntity
  8
0
  6
Continuous
 62
     7
370
    25
100
AcDbEllipse
 10
208.4839647019
 20
1118.4754858562
 30
0.0
 11
47.61329182989479
 21
2291.307432219074
 31
0.0
210
0.0
220
0.0
230
1.0
 40
0.0159341003
 41
1.573811146197047
 42
1.58778916317934
  0
SPLINE
  5
F9
330
1F
100
AcDbEntity
  8
0
  6
Continuous
 62
     7
370
    25
100
AcDbSpline
210
0.0
220
0.0
230
1.0
 70
    24
 71
     3
 72
    12
 73
     8
 74
     0
 42
0.000000001
 43
0.00000001
 40
0.0
 40
0.0
 40
0.0
 40
0.0
 40
0.2123525268495424
 40
0.4247039772455978
 40
0.6370869613092972
 40
0.8495385474213343
 40
1.0
 40
1.0
 40
1.0
 40
1.0
 10
171.1702673709863
 20
1080.300112790347
 30
0.0
 10
171.0930779848257
 20
1080.300112790347
 30
0.0
 10
170.9386996037915
 20
1080.300112790347
 30
0.0
 10
170.6195451510676
 20
1080.300112790347
 30
0.0
 10
170.2806295544092
 20
1080.300112790347
 30
0.0
 10
169.9788188063631
 20
1080.300112790347
 30
0.0
 10
169.8204173644978
 20
1080.300112790347
 30
0.0
 10
169.7547451276458
 20
1080.300112790347
 30
0.0
  0
ARC
  5
FA
330
1F
100
AcDbEntity
  8
0
  6
Continuous
 62
     7
370
    25
100
AcDbCircle
 10
172.6346578608
 20
1089.9868797736
 30
0.0
 40
22.35001695741247
100
AcDbArc
 50
88.2347264764
 51
91.7652735236
  0
ELLIPSE
  5
FB
330
1F
100
AcDbEntity
  8
0
  6
Continuous
 62
     7
370
    25
100
AcDbEllipse
 10
206.897801746
 20
1118.4754858562
 30
0.0
 11
-47.61329182989454
 21
2291.307432219073
 31
0.0
210
0.0
220
0.0
230
1.0
 40
0.0159341003
 41
4.695396144000247
 42
4.70937416098254
  0
SPLINE
  5
FC
330
1F
100
AcDbEntity
  8
0
  6
Continuous
 62
     7
370
    25
100
AcDbSpline
210
0.0
220
0.0
230
1.0
 70
    24
 71
     3
 72
    12
 73
     8
 74
     0
 42
0.000000001
 43
0.00000001
 40
0.0
 40
0.0
 40
0.0
 40
0.0
 40
0.2125360224344322
 40
0.4250731837089339
 40
0.6375773828131849
 40
0.8500123131606108
 40
1.0
 40
1.0
 40
1.0
 40
1.0
 10
245.6270213202257
 20
1080.300112790347
 30
0.0
 10
245.5320529231906
 20
1080.300112790347
 30
0.0
 10
245.3421156202475
 20
1080.300112790347
 30
0.0
 10
245.0000180146603
 20
1080.300112790347
 30
0.0
 10
244.6650310485385
 20
1080.300112790347
 30
0.0
 10
244.3912420497473
 20
1080.300112790347
 30
0.0
 10
244.2641116658854
 20
1080.300112790347
 30
0.0
 10
244.2114990768852
 20
1080.300112790347
 30
0.0
  0
ARC
  5
FD
330
1F
100
AcDbEntity
  8
0
  6
Continuous
 62
     7
370
    25
100
AcDbCircle
 10
242.7471085871
 20
1089.9868797736
 30
0.0
 40
22.35001695741361
100
AcDbArc
 50
88.2347264764
 51
91.7652735236
  0
LWPOLYLINE
  5
FE
330
1F
100
AcDbEntity
  8
0
  6
Continuous
 62
     7
370
    25
100
AcDbPolyline
 90
        3
 70
   128
 43
0.0
 10
243.4355999893
 20
1112.3262897387
 10
243.5174760912
 20
1096.7745681804
 10
243.6024430681
 20
1080.3001127903
  0
SPLINE
  5
FF
330
1F
100
AcDbEntity
  8
0
  6
Continuous
 62
     7
370
    25
100
AcDbSpline
210
0.0
220
0.0
230
1.0
 70
    24
 71
     3
 72
    12
 73
     8
 74
     0
 42
0.000000001
 43
0.00000001
 40
0.0
 40
0.0
 40
0.0
 40
0.0
 40
0.2170658550166253
 40
0.4341352930674904
 40
0.6511252927973354
 40
0.8680835695148256
 40
1.0
 40
1.0
 40
1.0
 40
1.0
 10
243.6024430680571
 20
1080.300112790347
 30
0.0
 10
243.525248948848
 20
1080.300112790347
 30
0.0
 10
243.3708594362119
 20
1080.300112790347
 30
0.0
 10
243.0517432315854
 20
1080.300112790347
 30
0.0
 10
242.7128558050473
 20
1080.300112790347
 30
0.0
 10
242.4227092651043
 20
1080.300112790347
 30
0.0
 10
242.2715064381631
 20
1080.300112790347
 30
0.0
 10
242.2143336572262
 20
1080.300112790347
 30
0.0
  0
LWPOLYLINE
  5
100
330
1F
100
AcDbEntity
  8
0
  6
Continuous
 62
     7
370
    25
100
AcDbPolyline
 90
        3
 70
   128
 43
0.0
 10
171.7793233798
 20
1080.3001127903
 10
171.8642903567
 20
1096.7745681804
 10
171.9461664586
 20
1112.3262897387
  0
LINE
  5
101
330
1F
100
AcDbEntity
  8
0
  6
Continuous
 62
     7
370
    25
100
AcDbLine
 10
171.170267371
 20
1080.3001127903
 30
0.0
 11
171.7793233798
 21
1080.3001127903
 31
0.0
  0
LINE
  5
102
330
1F
100
AcDbEntity
  8
0
  6
Continuous
 62
     7
370
    25
100
AcDbLine
 10
243.6024430681
 20
1080.3001127903
 30
0.0
 11
244.2114990769
 21
1080.3001127903
 31
0.0
  0
SPLINE
  5
103
330
1F
100
AcDbEntity
  8
0
  6
Continuous
 62
     7
370
    25
100
AcDbSpline
210
0.0
220
0.0
230
1.0
 70
    24
 71
     3
 72
    12
 73
     8
 74
     0
 42
0.000000001
 43
0.00000001
 40
0.0
 40
0.0
 40
0.0
 40
0.0
 40
0.2170658549053431
 40
0.434135292887467
 40
0.6511252918688751
 40
0.86808356880009
 40
1.0
 40
1.0
 40
1.0
 40
1.0
 10
173.1674327906453
 20
1080.300112790347
 30
0.0
 10
173.0705312450892
 20
1080.300112790347
 30
0.0
 10
172.8767265544362
 20
1080.300112790347
 30
0.0
 10
172.5334006692877
 20
1080.300112790347
 30
0.0
 10
172.2007297733581
 20
1080.300112790347
 30
0.0
 10
171.9423668601641
 20
1080.300112790347
 30
0.0
 10
171.8240582184972
 20
1080.300112790347
 30
0.0
 10
171.7793233798143
 20
1080.300112790347
 30
0.0
  0
LINE
  5
104
330
1F
100
AcDbEntity
  8
0
  6
Continuous
 62
     7
370
    25
100
AcDbLine
 10
146.6908832239
 20
139.8001127903
 30
0.0
 11
268.6908832239
 21
139.8001127903
 31
0.0
  0
LINE
  5
105
330
1F
100
AcDbEntity
  8
0
  6
Continuous
 62
     7
370
    25
100
AcDbLine
 10
146.6908832239
 20
443.4001127903
 30
0.0
 11
268.6908832239
 21
443.4001127903
 31
0.0
  0
SPLINE
  5
106
330
1F
100
AcDbEntity
  8
0
  6
Continuous
 62
     7
370
    25
100
AcDbSpline
210
0.0
220
0.0
230
1.0
 70
    11
 71
     3
 72
    26
 73
    22
 74
     0
 42
0.000000001
 43
0.00000001
 40
0.0
 40
0.0
 40
0.0
 40
0.0
 40
0.0536776700401034
 40
0.107354947254956
 40
0.1610424200766959
 40
0.2147365399953418
 40
0.2684195761256964
 40
0.3220910981591961
 40
0.3757686482396469
 40
0.4294603575654929
 40
0.4831522598002996
 40
0.5368300907761089
 40
0.5905015507167102
 40
0.6441842738371959
 40
0.6978783263286016
 40
0.7515660875030697
 40
0.8052397498997097
 40
0.85891351629427
 40
0.9126014230219412
 40
0.9662954386851181
 40
0.9999999999999999
 40
0.9999999999999999
 40
0.9999999999999999
 40
0.9999999999999999
 10
199.7287854985121
 20
437.5501127903476
 30
0.0
 10
199.8960412712739
 20
437.5335333356363
 30
0.0
 10
200.2305515927819
 20
437.500374547546
 30
0.0
 10
200.6763817133979
 20
437.2418900501365
 30
0.0
 10
201.015632058081
 20
436.8611955776393
 30
0.0
 10
201.2097935703342
 20
436.3857689133776
 30
0.0
 10
201.2367254978324
 20
435.8734003916502
 30
0.0
 10
201.0934296703623
 20
435.3807874418234
 30
0.0
 10
200.7962293121721
 20
434.9636639803886
 30
0.0
 10
200.3788051498244
 20
434.6689289860387
 30
0.0
 10
199.88846884547
 20
434.5299040998866
 30
0.0
 10
199.3807358002418
 20
434.5622648903321
 30
0.0
 10
198.912797091585
 20
434.7622907849544
 30
0.0
 10
198.5371007815725
 20
435.1074643585859
 30
0.0
 10
198.2957267248595
 20
435.5589415445035
 30
0.0
 10
198.2157287821556
 20
436.0658448038458
 30
0.0
 10
198.3059848393492
 20
436.570722912119
 30
0.0
 10
198.5564321185998
 20
437.0175747004758
 30
0.0
 10
198.9388916955975
 20
437.352930673297
 30
0.0
 10
199.3529014487407
 20
437.5262558423638
 30
0.0
 10
199.6241721319108
 20
437.5434730948166
 30
0.0
 10
199.7287854985121
 20
437.5501127903476
 30
0.0
  0
SPLINE
  5
107
330
1F
100
AcDbEntity
  8
0
  6
Continuous
 62
     7
370
    25
100
AcDbSpline
210
0.0
220
0.0
230
1.0
 70
    11
 71
     3
 72
    26
 73
    22
 74
     0
 42
0.000000001
 43
0.00000001
 40
0.0
 40
0.0
 40
0.0
 40
0.0
 40
0.0536776700401032
 40
0.1073549472549559
 40
0.1610424200766954
 40
0.2147365399953454
 40
0.2684195761256963
 40
0.3220910981591977
 40
0.3757686482396498
 40
0.4294603575654953
 40
0.4831522598002984
 40
0.5368300907761092
 40
0.5905015507167111
 40
0.644184273837195
 40
0.6978783263285971
 40
0.7515660875030727
 40
0.8052397498997109
 40
0.8589135162942738
 40
0.9126014230219419
 40
0.9662954386851179
 40
1.0
 40
1.0
 40
1.0
 40
1.0
 10
199.7287854985121
 20
148.6501127903476
 30
0.0
 10
199.8960412712738
 20
148.6335333356363
 30
0.0
 10
200.2305515927819
 20
148.6003745475459
 30
0.0
 10
200.6763817133979
 20
148.3418900501365
 30
0.0
 10
201.015632058081
 20
147.9611955776392
 30
0.0
 10
201.2097935703342
 20
147.4857689133776
 30
0.0
 10
201.2367254978324
 20
146.97340039165
 30
0.0
 10
201.0934296703623
 20
146.4807874418234
 30
0.0
 10
200.7962293121721
 20
146.0636639803886
 30
0.0
 10
200.3788051498243
 20
145.7689289860386
 30
0.0
 10
199.88846884547
 20
145.6299040998866
 30
0.0
 10
199.3807358002418
 20
145.6622648903321
 30
0.0
 10
198.9127970915849
 20
145.8622907849543
 30
0.0
 10
198.5371007815725
 20
146.2074643585858
 30
0.0
 10
198.2957267248595
 20
146.6589415445035
 30
0.0
 10
198.2157287821555
 20
147.1658448038458
 30
0.0
 10
198.3059848393491
 20
147.670722912119
 30
0.0
 10
198.5564321185998
 20
148.1175747004759
 30
0.0
 10
198.9388916955975
 20
148.4529306732971
 30
0.0
 10
199.3529014487407
 20
148.6262558423637
 30
0.0
 10
199.6241721319108
 20
148.6434730948166
 30
0.0
 10
199.7287854985121
 20
148.6501127903476
 30
0.0
  0
ELLIPSE
  5
108
330
1F
100
AcDbEntity
  8
0
  6
Continuous
 62
     7
370
    25
100
AcDbEllipse
 10
207.6908832239
 20
442.0985627762
 30
0.0
 11
7.967648483776856
 21
2291.307548170661
 31
0.0
210
0.0
220
0.0
230
1.0
 40
0.0263942767
 41
1.554214956219163
 42
1.567902255986674
  0
LINE
  5
109
330
1F
100
AcDbEntity
  8
0
  6
Continuous
 62
     7
370
    25
100
AcDbLine
 10
147.3538998831
 20
480.3001127903
 30
0.0
 11
169.7547451276
 21
480.3001127903
 31
0.0
  0
ELLIPSE
  5
10A
330
1F
100
AcDbEntity
  8
0
  6
Continuous
 62
     7
370
    25
100
AcDbEllipse
 10
207.6908832239
 20
442.0985627762
 30
0.0
 11
-48.40725970489678
 21
2291.307423635507
 31
0.0
210
0.0
220
0.0
230
1.0
 40
0.0161994337
 41
1.553780937432311
 42
1.567468237199822
  0
LINE
  5
10B
330
1F
100
AcDbEntity
  8
0
  6
Continuous
 62
     7
370
    25
100
AcDbLine
 10
244.9696636505
 20
448.9400592456
 30
0.0
 11
170.4121027974
 21
448.9400592456
 31
0.0
  0
ELLIPSE
  5
10C
330
1F
100
AcDbEntity
  8
0
  6
Continuous
 62
     7
370
    25
100
AcDbEllipse
 10
207.6908832239
 20
442.0985627762
 30
0.0
 11
48.40725970489706
 21
2291.307423635507
 31
0.0
210
0.0
220
0.0
230
1.0
 40
0.0161994337
 41
4.715717069979764
 42
4.729404369747275
  0
LINE
  5
10D
330
1F
100
AcDbEntity
  8
0
  6
Continuous
 62
     7
370
    25
100
AcDbLine
 10
245.6270213202
 20
480.3001127903
 30
0.0
 11
268.0278665648
 21
480.3001127903
 31
0.0
  0
ELLIPSE
  5
10E
330
1F
100
AcDbEntity
  8
0
  6
Continuous
 62
     7
370
    25
100
AcDbEllipse
 10
207.6908832239
 20
442.0985627762
 30
0.0
 11
-7.96764848377731
 21
2291.307548170662
 31
0.0
210
0.0
220
0.0
230
1.0
 40
0.0263942767
 41
4.715283051192913
 42
4.728970350960424
  0
LINE
  5
10F
330
1F
100
AcDbEntity
  8
0
  6
Continuous
 62
     7
370
    25
100
AcDbLine
 10
268.6908832239
 20
443.3001127903
 30
0.0
 11
146.6908832239
 21
443.3001127903
 31
0.0
  0
SPLINE
  5
110
330
1F
100
AcDbEntity
  8
0
  6
Continuous
 62
     7
370
    25
100
AcDbSpline
210
0.0
220
0.0
230
1.0
 70
     8
 71
     3
 72
    10
 73
     6
 74
     0
 42
0.000000001
 43
0.00000001
 40
0.0
 40
0.0
 40
0.0
 40
0.0
 40
0.0063670425395595
 40
0.46589812311888
 40
1.0
 40
1.0
 40
1.0
 40
1.0
 10
244.9696636505128
 20
448.9400592456067
 30
0.0
 10
244.9675366124903
 20
448.9414380311013
 30
0.0
 10
244.8118940176232
 20
449.0423284476583
 30
0.0
 10
244.4591070183846
 20
449.2603589981492
 30
0.0
 10
244.0557086258442
 20
449.4666432545187
 30
0.0
 10
243.8388721803852
 20
449.577526058547
 30
0.0
  0
SPLINE
  5
111
330
1F
100
AcDbEntity
  8
0
  6
Continuous
 62
     7
370
    25
100
AcDbSpline
210
0.0
220
0.0
230
1.0
 70
     8
 71
     3
 72
    12
 73
     8
 74
     0
 42
0.000000001
 43
0.00000001
 40
0.0
 40
0.0
 40
0.0
 40
0.0
 40
0.0640701909754872
 40
0.3278650376529734
 40
0.87848400917459
 40
0.9936365440157773
 40
1.0
 40
1.0
 40
1.0
 40
1.0
 10
171.5428942674848
 20
449.577526058547
 30
0.0
 10
171.516255750912
 20
449.5645631684546
 30
0.0
 10
171.3799390316052
 20
449.4982284442478
 30
0.0
 10
171.0272964687801
 20
449.3146451371325
 30
0.0
 10
170.6832870728282
 20
449.1133676163387
 30
0.0
 10
170.4548459104161
 20
448.9677681874199
 30
0.0
 10
170.4142297530593
 20
448.9414380804077
 30
0.0
 10
170.4121027973571
 20
448.9400592456067
 30
0.0
  0
LINE
  5
112
330
1F
100
AcDbEntity
  8
0
  6
Continuous
 62
     7
370
    25
100
AcDbLine
 10
171.5428942675
 20
449.5775260585
 30
0.0
 11
243.8388721804
 21
449.5775260585
 31
0.0
  0
SPLINE
  5
113
330
1F
100
AcDbEntity
  8
0
  6
Continuous
 62
     7
370
    25
100
AcDbSpline
210
0.0
220
0.0
230
1.0
 70
     8
 71
     3
 72
     9
 73
     5
 74
     0
 42
0.000000001
 43
0.00000001
 40
0.0
 40
0.0
 40
0.0
 40
0.0
 40
0.4037183133953465
 40
1.0
 40
1.0
 40
1.0
 40
1.0
 10
243.8388721803852
 20
449.577526058547
 30
0.0
 10
243.5867764325619
 20
449.8036291698814
 30
0.0
 10
242.9623416733278
 20
450.3636808292493
 30
0.0
 10
242.6003794071658
 20
451.0192746805615
 30
0.0
 10
242.3845479366115
 20
451.4101932879497
 30
0.0
  0
SPLINE
  5
114
330
1F
100
AcDbEntity
  8
0
  6
Continuous
 62
     7
370
    25
100
AcDbSpline
210
0.0
220
0.0
230
1.0
 70
     8
 71
     3
 72
     9
 73
     5
 74
     0
 42
0.000000001
 43
0.00000001
 40
0.0
 40
0.0
 40
0.0
 40
0.0
 40
0.6296550339910968
 40
1.0
 40
1.0
 40
1.0
 40
1.0
 10
172.9972185112582
 20
451.410193287949
 30
0.0
 10
172.767299363439
 20
450.9968819471219
 30
0.0
 10
172.4021483912283
 20
450.3404727730265
 30
0.0
 10
171.7751134875674
 20
449.783717551966
 30
0.0
 10
171.5428942674848
 20
449.577526058547
 30
0.0
  0
LWPOLYLINE
  5
115
330
1F
100
AcDbEntity
  8
0
  6
Continuous
 62
     7
370
    25
100
AcDbPolyline
 90
        4
 70
   128
 43
0.0
 10
182.1890246576
 20
470.4536740567
 10
181.4452298518
 20
468.9127222524
 10
178.4700838802
 20
462.7489131395
 10
172.9972185113
 20
451.4101932879
  0
SPLINE
  5
116
330
1F
100
AcDbEntity
  8
0
  6
Continuous
 62
     7
370
    25
100
AcDbSpline
210
0.0
220
0.0
230
1.0
 70
     8
 71
     3
 72
    10
 73
     6
 74
     0
 42
0.000000001
 43
0.00000001
 40
0.0
 40
0.0
 40
0.0
 40
0.0
 40
0.1596809962546788
 40
0.6161267256972138
 40
1.0
 40
1.0
 40
1.0
 40
1.0
 10
182.4797216854141
 20
472.3243826750349
 30
0.0
 10
182.5036332260984
 20
472.2392263751196
 30
0.0
 10
182.5958955466859
 20
471.910652070913
 30
0.0
 10
182.5279519859183
 20
471.2671059108567
 30
0.0
 10
182.2953030140087
 20
470.7087440770345
 30
0.0
 10
182.1890246575607
 20
470.4536740566735
 30
0.0
  0
LINE
  5
117
330
1F
100
AcDbEntity
  8
0
  6
Continuous
 62
     7
370
    25
100
AcDbLine
 10
232.9020447625
 20
472.324382675
 30
0.0
 11
182.4797216854
 21
472.324382675
 31
0.0
  0
SPLINE
  5
118
330
1F
100
AcDbEntity
  8
0
  6
Continuous
 62
     7
370
    25
100
AcDbSpline
210
0.0
220
0.0
230
1.0
 70
     8
 71
     3
 72
    10
 73
     6
 74
     0
 42
0.000000001
 43
0.00000001
 40
0.0
 40
0.0
 40
0.0
 40
0.0
 40
0.5907490186448097
 40
0.949527618996211
 40
1.0
 40
1.0
 40
1.0
 40
1.0
 10
233.1927417903094
 20
470.4536740566735
 30
0.0
 10
233.0388342123987
 20
470.8482314936155
 30
0.0
 10
232.7914542060225
 20
471.4824148300789
 30
0.0
 10
232.8213073507271
 20
472.0866113366732
 30
0.0
 10
232.8931807156416
 20
472.2982780944019
 30
0.0
 10
232.9020447624571
 20
472.3243826750349
 30
0.0
  0
LWPOLYLINE
  5
119
330
1F
100
AcDbEntity
  8
0
  6
Continuous
 62
     7
370
    25
100
AcDbPolyline
 90
        4
 70
   128
 43
0.0
 10
242.3845479366
 20
451.4101932879
 10
241.6407814198
 20
452.9511467114
 10
238.6656973995
 20
459.1149593723
 10
233.1927417903
 20
470.4536740567
  0
LINE
  5
11A
330
1F
100
AcDbEntity
  8
0
  6
Continuous
 62
     7
370
    25
100
AcDbLine
 10
232.6908832239
 20
480.3001127903
 30
0.0
 11
182.6908832239
 21
480.3001127903
 31
0.0
  0
SPLINE
  5
11B
330
1F
100
AcDbEntity
  8
0
  6
Continuous
 62
     7
370
    25
100
AcDbSpline
210
0.0
220
0.0
230
1.0
 70
     8
 71
     3
 72
    10
 73
     6
 74
     0
 42
0.000000001
 43
0.00000001
 40
0.0
 40
0.0
 40
0.0
 40
0.0
 40
0.4266955400630286
 40
0.7887744480983997
 40
1.0
 40
1.0
 40
1.0
 40
1.0
 10
232.9020447624571
 20
472.3243826750349
 30
0.0
 10
232.9597758298616
 20
472.4285205842679
 30
0.0
 10
233.0664954614364
 20
472.6210262801773
 30
0.0
 10
233.3325189575777
 20
472.7575696461965
 30
0.0
 10
233.5282484346829
 20
472.770768956455
 30
0.0
 10
233.600362066643
 20
472.7756320471667
 30
0.0
  0
SPLINE
  5
11C
330
1F
100
AcDbEntity
  8
0
  6
Continuous
 62
     7
370
    25
100
AcDbSpline
210
0.0
220
0.0
230
1.0
 70
     8
 71
     3
 72
    10
 73
     6
 74
     0
 42
0.000000001
 43
0.00000001
 40
0.0
 40
0.0
 40
0.0
 40
0.0
 40
0.3731032441560075
 40
0.7418219738776602
 40
1.0
 40
1.0
 40
1.0
 40
1.0
 10
181.7814043812272
 20
472.7756320471667
 30
0.0
 10
181.9058607756754
 20
472.7607248141414
 30
0.0
 10
182.1533110180344
 20
472.7310855301065
 30
0.0
 10
182.3691902838497
 20
472.5452767350866
 30
0.0
 10
182.4474794617491
 20
472.3888178996831
 30
0.0
 10
182.4797216854141
 20
472.3243826750349
 30
0.0
  0
SPLINE
  5
11D
330
1F
100
AcDbEntity
  8
0
  6
Continuous
 62
     7
370
    25
100
AcDbSpline
210
0.0
220
0.0
230
1.0
 70
     8
 71
     3
 72
     9
 73
     5
 74
     0
 42
0.000000001
 43
0.00000001
 40
0.0
 40
0.0
 40
0.0
 40
0.0
 40
0.3534546310559751
 40
1.0
 40
1.0
 40
1.0
 40
1.0
 10
171.0410514837523
 20
450.1980939845045
 30
0.0
 10
171.1565675832566
 20
450.4052546757719
 30
0.0
 10
171.4833877444728
 20
450.9913573126184
 30
0.0
 10
171.6471428247976
 20
451.6169858919422
 30
0.0
 10
171.7530179136227
 20
452.021483152583
 30
0.0
  0
ARC
  5
11E
330
1F
100
AcDbEntity
  8
0
  6
Continuous
 62
     7
370
    25
100
AcDbCircle
 10
173.0607977104
 20
453.1114491906
 30
0.0
 40
1.702443526503263
100
AcDbArc
 50
219.8094373938
 51
267.8597427569
  0
ARC
  5
11F
330
1F
100
AcDbEntity
  8
0
  6
Continuous
 62
     7
370
    25
100
AcDbCircle
 10
183.1864066052
 20
459.5066373635
 30
0.0
 40
15.30224267436589
100
AcDbArc
 50
217.4675755026
 51
220.45618865
  0
SPLINE
  5
120
330
1F
100
AcDbEntity
  8
0
  6
Continuous
 62
     7
370
    25
100
AcDbSpline
210
0.0
220
0.0
230
1.0
 70
     8
 71
     3
 72
     9
 73
     5
 74
     0
 42
0.000000001
 43
0.00000001
 40
0.0
 40
0.0
 40
0.0
 40
0.0
 40
0.6130880986357898
 40
1.0
 40
1.0
 40
1.0
 40
1.0
 10
243.6287485342472
 20
452.0214831525821
 30
0.0
 10
243.728480579233
 20
451.6382121210261
 30
0.0
 10
243.891152216813
 20
451.013063741195
 30
0.0
 10
244.2152987951663
 20
450.425449087453
 30
0.0
 10
244.3407149641176
 20
450.1980939845042
 30
0.0
  0
ARC
  5
121
330
1F
100
AcDbEntity
  8
0
  6
Continuous
 62
     7
370
    25
100
AcDbCircle
 10
232.1953598426
 20
459.5066373636
 30
0.0
 40
15.30224267446326
100
AcDbArc
 50
319.54381135
 51
322.5324244974
  0
ARC
  5
122
330
1F
100
AcDbEntity
  8
0
  6
Continuous
 62
     7
370
    25
100
AcDbCircle
 10
242.3209687375
 20
453.1114491906
 30
0.0
 40
1.702443526499321
100
AcDbArc
 50
272.140257243
 51
320.1905626062
  0
SPLINE
  5
123
330
1F
100
AcDbEntity
  8
0
  6
Continuous
 62
     7
370
    25
100
AcDbSpline
210
0.0
220
0.0
230
1.0
 70
     8
 71
     3
 72
    10
 73
     6
 74
     0
 42
0.000000001
 43
0.00000001
 40
0.0
 40
0.0
 40
0.0
 40
0.0
 40
0.5334586720446273
 40
0.993631824531817
 40
1.0
 40
1.0
 40
1.0
 40
1.0
 10
244.3407149641176
 20
450.1980939845042
 30
0.0
 10
244.4694855004456
 20
449.9790861244421
 30
0.0
 10
244.7093363261283
 20
449.571157280121
 30
0.0
 10
244.8915271756794
 20
449.1418110232364
 30
0.0
 10
244.9686114686924
 20
448.9427760248461
 30
0.0
 10
244.9696636505128
 20
448.9400592456068
 30
0.0
  0
SPLINE
  5
124
330
1F
100
AcDbEntity
  8
0
  6
Continuous
 62
     7
370
    25
100
AcDbSpline
210
0.0
220
0.0
230
1.0
 70
     8
 71
     3
 72
    12
 73
     8
 74
     0
 42
0.000000001
 43
0.00000001
 40
0.0
 40
0.0
 40
0.0
 40
0.0
 40
0.0063646802274266
 40
0.1217205930780371
 40
0.6728080003101289
 40
0.936145647009301
 40
1.0
 40
1.0
 40
1.0
 40
1.0
 10
170.4121027973571
 20
448.9400592456067
 30
0.0
 10
170.4131548600945
 20
448.9427761160114
 30
0.0
 10
170.4332749125978
 20
448.9947345907765
 30
0.0
 10
170.5481916852578
 20
449.2818604559103
 30
0.0
 10
170.7341390876625
 20
449.6785870158033
 30
0.0
 10
170.9413534950611
 20
450.0413903803641
 30
0.0
 10
171.0247716987122
 20
450.1725056950726
 30
0.0
 10
171.0410514837523
 20
450.1980939845045
 30
0.0
  0
ELLIPSE
  5
125
330
1F
100
AcDbEntity
  8
0
  6
Continuous
 62
     7
370
    25
100
AcDbEllipse
 10
206.897801746
 20
442.1247397245
 30
0.0
 11
47.61329182989504
 21
2291.307432219074
 31
0.0
210
0.0
220
0.0
230
1.0
 40
0.0159341003
 41
4.717039359661304
 42
4.729381816769132
  0
SPLINE
  5
126
330
1F
100
AcDbEntity
  8
0
  6
Continuous
 62
     7
370
    25
100
AcDbSpline
210
0.0
220
0.0
230
1.0
 70
    24
 71
     3
 72
    12
 73
     8
 74
     0
 42
0.000000001
 43
0.00000001
 40
0.0
 40
0.0
 40
0.0
 40
0.0
 40
0.2123525268495627
 40
0.4247039772456272
 40
0.6370869613093135
 40
0.8495385474213428
 40
1.0
 40
1.0
 40
1.0
 40
1.0
 10
244.2114990768842
 20
480.3001127903476
 30
0.0
 10
244.2886884630447
 20
480.3001127903476
 30
0.0
 10
244.4430668440789
 20
480.3001127903476
 30
0.0
 10
244.7622212968029
 20
480.3001127903476
 30
0.0
 10
245.1011368934613
 20
480.3001127903476
 30
0.0
 10
245.4029476415074
 20
480.3001127903476
 30
0.0
 10
245.5613490833726
 20
480.3001127903475
 30
0.0
 10
245.6270213202246
 20
480.3001127903476
 30
0.0
  0
SPLINE
  5
127
330
1F
100
AcDbEntity
  8
0
  6
Continuous
 62
     7
370
    25
100
AcDbSpline
210
0.0
220
0.0
230
1.0
 70
    24
 71
     3
 72
    12
 73
     8
 74
     0
 42
0.000000001
 43
0.00000001
 40
0.0
 40
0.0
 40
0.0
 40
0.0
 40
0.2125360224344299
 40
0.4250731837089273
 40
0.6375773828131763
 40
0.8500123131605973
 40
1.0
 40
1.0
 40
1.0
 40
1.0
 10
169.7547451276453
 20
480.3001127903476
 30
0.0
 10
169.8497135246804
 20
480.3001127903475
 30
0.0
 10
170.0396508276235
 20
480.3001127903475
 30
0.0
 10
170.3817484332107
 20
480.3001127903476
 30
0.0
 10
170.7167353993325
 20
480.3001127903476
 30
0.0
 10
170.9905243981237
 20
480.3001127903475
 30
0.0
 10
171.1176547819856
 20
480.3001127903476
 30
0.0
 10
171.1702673709858
 20
480.3001127903476
 30
0.0
  0
ELLIPSE
  5
128
330
1F
100
AcDbEntity
  8
0
  6
Continuous
 62
     7
370
    25
100
AcDbEllipse
 10
208.4839647019
 20
442.1247397245
 30
0.0
 11
-47.61329182989476
 21
2291.307432219074
 31
0.0
210
0.0
220
0.0
230
1.0
 40
0.0159341003
 41
1.553803490410454
 42
1.566145947518282
  0
LINE
  5
129
330
1F
100
AcDbEntity
  8
0
  6
Continuous
 62
     7
370
    25
100
AcDbLine
 10
171.7530179136
 20
452.0214831526
 30
0.0
 11
180.9442329063
 21
471.0649639213
 31
0.0
  0
ARC
  5
12A
330
1F
100
AcDbEntity
  8
0
  6
Continuous
 62
     7
370
    25
100
AcDbCircle
 10
182.2519022744
 20
472.1547662884
 30
0.0
 40
1.70225391039284
100
AcDbArc
 50
219.8075852192
 51
267.8831349488
  0
LINE
  5
12B
330
1F
100
AcDbEntity
  8
0
  6
Continuous
 62
     7
370
    25
100
AcDbLine
 10
234.4375335416
 20
471.0649639213
 30
0.0
 11
243.6287485342
 21
452.0214831526
 31
0.0
  0
ARC
  5
12C
330
1F
100
AcDbEntity
  8
0
  6
Continuous
 62
     7
370
    25
100
AcDbCircle
 10
233.1298641735
 20
472.1547662884
 30
0.0
 40
1.702253910392838
100
AcDbArc
 50
272.1168650512
 51
320.1924147808
  0
LWPOLYLINE
  5
12D
330
1F
100
AcDbEntity
  8
0
  6
Continuous
 62
     7
370
    25
100
AcDbPolyline
 90
        3
 70
   128
 43
0.0
 10
234.7737219632
 20
480.3001127903
 10
234.5991144056
 20
475.5009712872
 10
234.4375335416
 20
471.0649639213
  0
LINE
  5
12E
330
1F
100
AcDbEntity
  8
0
  6
Continuous
 62
     7
370
    25
100
AcDbLine
 10
234.7737219632
 20
480.3001127903
 30
0.0
 11
244.2114990769
 21
480.3001127903
 31
0.0
  0
LWPOLYLINE
  5
12F
330
1F
100
AcDbEntity
  8
0
  6
Continuous
 62
     7
370
    25
100
AcDbPolyline
 90
        3
 70
   128
 43
0.0
 10
180.9442329063
 20
471.0649639213
 10
180.7826520422
 20
475.5009712872
 10
180.6080444847
 20
480.3001127903
  0
LINE
  5
130
330
1F
100
AcDbEntity
  8
0
  6
Continuous
 62
     7
370
    25
100
AcDbLine
 10
171.170267371
 20
480.3001127903
 30
0.0
 11
180.6080444847
 21
480.3001127903
 31
0.0
  0
SPLINE
  5
131
330
1F
100
AcDbEntity
  8
0
  6
Continuous
 62
     7
370
    25
100
AcDbSpline
210
0.0
220
0.0
230
1.0
 70
    24
 71
     3
 72
    10
 73
     6
 74
     0
 42
0.000000001
 43
0.00000001
 40
0.0
 40
0.0
 40
0.0
 40
0.0
 40
0.1922771675278266
 40
0.6997499099658511
 40
1.0
 40
1.0
 40
1.0
 40
1.0
 10
234.5804843946715
 20
480.3001127903476
 30
0.0
 10
234.5766659006208
 20
480.3001127903476
 30
0.0
 10
234.5627693423214
 20
480.3001127903476
 30
0.0
 10
234.6387204276985
 20
480.3001127903474
 30
0.0
 10
234.7371378352337
 20
480.3001127903476
 30
0.0
 10
234.773721963211
 20
480.3001127903476
 30
0.0
  0
SPLINE
  5
132
330
1F
100
AcDbEntity
  8
0
  6
Continuous
 62
     7
370
    25
100
AcDbSpline
210
0.0
220
0.0
230
1.0
 70
    24
 71
     3
 72
     9
 73
     5
 74
     0
 42
0.000000001
 43
0.00000001
 40
0.0
 40
0.0
 40
0.0
 40
0.0
 40
0.5056718031097643
 40
0.9999999999999999
 40
0.9999999999999999
 40
0.9999999999999999
 40
0.9999999999999999
 10
180.608044484659
 20
480.3001127903476
 30
0.0
 10
180.6693283661545
 20
480.3001127903476
 30
0.0
 10
180.7905213635069
 20
480.3001127903475
 30
0.0
 10
180.8057990197999
 20
480.3001127903476
 30
0.0
 10
180.813351196088
 20
480.3001127903476
 30
0.0
  0
LINE
  5
133
330
1F
100
AcDbEntity
  8
0
  6
Continuous
 62
     7
370
    25
100
AcDbLine
 10
181.3120204019
 20
472.4336101952
 30
0.0
 11
181.3567416371
 21
472.4361873096
 31
0.0
  0
SPLINE
  5
134
330
1F
100
AcDbEntity
  8
0
  6
Continuous
 62
     7
370
    25
100
AcDbSpline
210
0.0
220
0.0
230
1.0
 70
     8
 71
     3
 72
    10
 73
     6
 74
     0
 42
0.000000001
 43
0.00000001
 40
0.0
 40
0.0
 40
0.0
 40
0.0
 40
0.254809040114289
 40
0.9898160943219907
 40
1.0
 40
1.0
 40
1.0
 40
1.0
 10
268.1434755762341
 20
449.3419976063415
 30
0.0
 10
268.1554961251684
 20
449.3087812446973
 30
0.0
 10
268.2021904370829
 20
449.1797509350379
 30
0.0
 10
268.17135826894
 20
449.0423246029125
 30
0.0
 10
268.14533223834
 20
448.9414379792666
 30
0.0
 10
268.1449765622045
 20
448.9400592456067
 30
0.0
  0
SPLINE
  5
135
330
1F
100
AcDbEntity
  8
0
  6
Continuous
 62
     7
370
    25
100
AcDbSpline
210
0.0
220
0.0
230
1.0
 70
     8
 71
     3
 72
    10
 73
     6
 74
     0
 42
0.000000001
 43
0.00000001
 40
0.0
 40
0.0
 40
0.0
 40
0.0
 40
0.0101839056783462
 40
0.7451909598858459
 40
0.9999999999999999
 40
0.9999999999999999
 40
0.9999999999999999
 40
0.9999999999999999
 10
147.2367898856658
 20
448.9400592456067
 30
0.0
 10
147.2364342095303
 20
448.9414379792661
 30
0.0
 10
147.2104081789276
 20
449.0423246028669
 30
0.0
 10
147.1795760107878
 20
449.1797509350441
 30
0.0
 10
147.226270322702
 20
449.3087812446987
 30
0.0
 10
147.2382908716363
 20
449.3419976063415
 30
0.0
  0
LINE
  5
136
330
1F
100
AcDbEntity
  8
0
  6
Continuous
 62
     7
370
    25
100
AcDbLine
 10
169.7550180788
 20
1080.3001127903
 30
0.0
 11
169.7550180788
 21
480.3001127903
 31
0.0
  0
LINE
  5
137
330
1F
100
AcDbEntity
  8
0
  6
Continuous
 62
     7
370
    25
100
AcDbLine
 10
169.7550180788
 20
1080.3001127903
 30
0.0
 11
171.1702708477
 21
1080.3001127903
 31
0.0
  0
LINE
  5
138
330
1F
100
AcDbEntity
  8
0
  6
Continuous
 62
     7
370
    25
100
AcDbLine
 10
171.1702708477
 20
1080.3001127903
 30
0.0
 11
171.1702708477
 21
480.3001127903
 31
0.0
  0
LINE
  5
139
330
1F
100
AcDbEntity
  8
0
  6
Continuous
 62
     7
370
    25
100
AcDbLine
 10
169.7550180788
 20
480.3001127903
 30
0.0
 11
171.1702708477
 21
480.3001127903
 31
0.0
  0
LINE
  5
13A
330
1F
100
AcDbEntity
  8
0
  6
Continuous
 62
     7
370
    25
100
AcDbLine
 10
147.3538486335
 20
1080.3001127903
 30
0.0
 11
147.3538486335
 21
480.3001127903
 31
0.0
  0
LINE
  5
13B
330
1F
100
AcDbEntity
  8
0
  6
Continuous
 62
     7
370
    25
100
AcDbLine
 10
147.3538486335
 20
480.3001127903
 30
0.0
 11
169.7550180788
 21
480.3001127903
 31
0.0
  0
LINE
  5
13C
330
1F
100
AcDbEntity
  8
0
  6
Continuous
 62
     7
370
    25
100
AcDbLine
 10
147.3538486335
 20
1080.3001127903
 30
0.0
 11
169.7550180788
 21
1080.3001127903
 31
0.0
  0
LINE
  5
13D
330
1F
100
AcDbEntity
  8
0
  6
Continuous
 62
     7
370
    25
100
AcDbLine
 10
171.1702708477
 20
480.3001127903
 30
0.0
 11
180.6078405129
 21
480.3001127903
 31
0.0
  0
LINE
  5
13E
330
1F
100
AcDbEntity
  8
0
  6
Continuous
 62
     7
370
    25
100
AcDbLine
 10
171.1702708477
 20
1080.3001127903
 30
0.0
 11
173.1674327906
 21
1080.3001127903
 31
0.0
  0
LINE
  5
13F
330
1F
100
AcDbEntity
  8
0
  6
Continuous
 62
     7
370
    25
100
AcDbLine
 10
180.6078405129
 20
480.3001127903
 30
0.0
 11
180.8144871726
 21
480.3001127903
 31
0.0
  0
LINE
  5
140
330
1F
100
AcDbEntity
  8
0
  6
Continuous
 62
     7
370
    25
100
AcDbLine
 10
147.3429803481
 20
480.3001127903
 30
0.0
 11
147.3538486335
 21
480.3001127903
 31
0.0
  0
LINE
  5
141
330
1F
100
AcDbEntity
  8
0
  6
Continuous
 62
     7
370
    25
100
AcDbLine
 10
147.3429803481
 20
1080.3001127903
 30
0.0
 11
147.3538486335
 21
1080.3001127903
 31
0.0
  0
LINE
  5
142
330
1F
100
AcDbEntity
  8
0
  6
Continuous
 62
     7
370
    25
100
AcDbLine
 10
245.6267483691
 20
1080.3001127903
 30
0.0
 11
245.6267483691
 21
480.3001127903
 31
0.0
  0
LINE
  5
143
330
1F
100
AcDbEntity
  8
0
  6
Continuous
 62
     7
370
    25
100
AcDbLine
 10
268.0279178144
 20
1080.3001127903
 30
0.0
 11
268.0279178144
 21
480.3001127903
 31
0.0
  0
LINE
  5
144
330
1F
100
AcDbEntity
  8
0
  6
Continuous
 62
     7
370
    25
100
AcDbLine
 10
245.6267483691
 20
1080.3001127903
 30
0.0
 11
268.0279178144
 21
1080.3001127903
 31
0.0
  0
LINE
  5
145
330
1F
100
AcDbEntity
  8
0
  6
Continuous
 62
     7
370
    25
100
AcDbLine
 10
245.6267483691
 20
480.3001127903
 30
0.0
 11
268.0279178144
 21
480.3001127903
 31
0.0
  0
LINE
  5
146
330
1F
100
AcDbEntity
  8
0
  6
Continuous
 62
     7
370
    25
100
AcDbLine
 10
244.2114956002
 20
1080.3001127903
 30
0.0
 11
244.2114956002
 21
480.3001127903
 31
0.0
  0
LINE
  5
147
330
1F
100
AcDbEntity
  8
0
  6
Continuous
 62
     7
370
    25
100
AcDbLine
 10
244.2114956002
 20
1080.3001127903
 30
0.0
 11
245.6267483691
 21
1080.3001127903
 31
0.0
  0
LINE
  5
148
330
1F
100
AcDbEntity
  8
0
  6
Continuous
 62
     7
370
    25
100
AcDbLine
 10
244.2114956002
 20
480.3001127903
 30
0.0
 11
245.6267483691
 21
480.3001127903
 31
0.0
  0
LINE
  5
149
330
1F
100
AcDbEntity
  8
0
  6
Continuous
 62
     7
370
    25
100
AcDbLine
 10
242.2143336572
 20
1080.3001127903
 30
0.0
 11
244.2114956002
 21
1080.3001127903
 31
0.0
  0
LINE
  5
14A
330
1F
100
AcDbEntity
  8
0
  6
Continuous
 62
     7
370
    25
100
AcDbLine
 10
234.773925935
 20
480.3001127903
 30
0.0
 11
244.2114956002
 21
480.3001127903
 31
0.0
  0
LINE
  5
14B
330
1F
100
AcDbEntity
  8
0
  6
Continuous
 62
     7
370
    25
100
AcDbLine
 10
234.5672792753
 20
480.3001127903
 30
0.0
 11
234.773925935
 21
480.3001127903
 31
0.0
  0
LINE
  5
14C
330
1F
100
AcDbEntity
  8
0
  6
Continuous
 62
     7
370
    25
100
AcDbLine
 10
268.0279178144
 20
1080.3001127903
 30
0.0
 11
268.0387860998
 21
1080.3001127903
 31
0.0
  0
LINE
  5
14D
330
1F
100
AcDbEntity
  8
0
  6
Continuous
 62
     7
370
    25
100
AcDbLine
 10
268.0279178144
 20
480.3001127903
 30
0.0
 11
268.0387860998
 21
480.3001127903
 31
0.0
  0
LINE
  5
14E
330
1F
100
AcDbEntity
  8
0
  6
Continuous
 62
     7
370
    25
100
AcDbLine
 10
146.5337676945
 20
133.8001127903
 30
0.0
 11
268.8479987534
 21
133.8001127903
 31
0.0
  0
LINE
  5
14F
330
1F
100
AcDbEntity
  8
0
  6
Continuous
 62
     8
370
    25
100
AcDbLine
 10
256.2242042207
 20
1125.9501127903
 30
0.0
 11
254.2109601581
 21
1125.9501127903
 31
0.0
  0
LINE
  5
150
330
1F
100
AcDbEntity
  8
0
  6
Continuous
 62
     8
370
    25
100
AcDbLine
 10
161.1507416446
 20
1125.9501127903
 30
0.0
 11
159.1575622271
 21
1125.9501127903
 31
0.0
  0
SPLINE
  5
151
330
1F
100
AcDbEntity
  8
0
  6
Continuous
 62
     8
370
    25
100
AcDbSpline
210
0.0
220
0.0
230
1.0
 70
     8
 71
     3
 72
    13
 73
     9
 74
     0
 42
0.000000001
 43
0.00000001
 40
0.0
 40
0.0
 40
0.0
 40
0.0
 40
0.1065971147391843
 40
0.2852776046466117
 40
0.4639581404194622
 40
0.6426387197646921
 40
0.8213193403892343
 40
1.0
 40
1.0
 40
1.0
 40
1.0
 10
234.5672792753093
 20
1017.384407911627
 30
0.0
 10
233.7105678401944
 20
1017.384552504607
 30
0.0
 10
231.4178173592748
 20
1017.384939467605
 30
0.0
 10
227.1425876385281
 20
1017.385568809587
 30
0.0
 10
221.9119210760809
 20
1017.386295936243
 30
0.0
 10
216.3841940899297
 20
1017.387023070682
 30
0.0
 10
210.6905394538129
 20
1017.387750211515
 30
0.0
 10
206.8645156916389
 20
1017.388234977467
 30
0.0
 10
204.9515036018524
 20
1017.388477360469
 30
0.0
  0
ARC
  5
152
330
1F
100
AcDbEntity
  8
0
  6
Continuous
 62
     8
370
    25
100
AcDbCircle
 10
165.3988495809
 20
1123.1728977514
 30
0.0
 40
2.172934276522889
100
AcDbArc
 50
188.3342405179
 51
212.605888398
  0
ARC
  5
153
330
1F
100
AcDbEntity
  8
0
  6
Continuous
 62
     8
370
    25
100
AcDbCircle
 10
252.4727378461
 20
1112.4941736645
 30
0.0
 40
9.530657222186809
100
AcDbArc
 50
88.8642535696
 51
93.9669914312
  0
ARC
  5
154
330
1F
100
AcDbEntity
  8
0
  6
Continuous
 62
     8
370
    25
100
AcDbCircle
 10
162.9006162049
 20
1112.2626770819
 30
0.0
 40
9.762184116337215
100
AcDbArc
 50
86.0777497289
 51
91.0589053445
  0
LINE
  5
155
330
1F
100
AcDbEntity
  8
0
  6
Continuous
 62
     8
370
    25
100
AcDbLine
 10
263.6463178406
 20
1122.001996118
 30
0.0
 11
254.7242042207
 21
1122.001996118
 31
0.0
  0
LINE
  5
156
330
1F
100
AcDbEntity
  8
0
  6
Continuous
 62
     8
370
    25
100
AcDbLine
 10
228.9608563374
 20
1122.001996118
 30
0.0
 11
218.8647239086
 21
1122.001996118
 31
0.0
  0
LINE
  5
157
330
1F
100
AcDbEntity
  8
0
  6
Continuous
 62
     8
370
    25
100
AcDbLine
 10
196.5170425393
 20
1122.001996118
 30
0.0
 11
190.0555110904
 21
1122.001996118
 31
0.0
  0
LINE
  5
158
330
1F
100
AcDbEntity
  8
0
  6
Continuous
 62
     8
370
    25
100
AcDbLine
 10
160.6575622271
 20
1122.001996118
 30
0.0
 11
151.7354486073
 21
1122.001996118
 31
0.0
  0
LINE
  5
159
330
1F
100
AcDbEntity
  8
0
  6
Continuous
 62
     8
370
    25
100
AcDbLine
 10
146.6908832239
 20
1114.3001127903
 30
0.0
 11
146.9971943655
 21
1114.3001127903
 31
0.0
  0
LINE
  5
15A
330
1F
100
AcDbEntity
  8
0
  6
Continuous
 62
     8
370
    25
100
AcDbLine
 10
268.3845720824
 20
1114.3001127903
 30
0.0
 11
268.6908832239
 21
1114.3001127903
 31
0.0
  0
ARC
  5
15B
330
1F
100
AcDbEntity
  8
0
  6
Continuous
 62
     8
370
    25
100
AcDbCircle
 10
267.3805481077
 20
1114.2999922569
 30
0.0
 40
1.004023981920617
100
AcDbArc
 50
334.7998624745
 51
0.0068783817
  0
ARC
  5
15C
330
1F
100
AcDbEntity
  8
0
  6
Continuous
 62
     8
370
    25
100
AcDbCircle
 10
148.0010498369
 20
1114.2999668058
 30
0.0
 40
1.003855482055627
100
AcDbArc
 50
179.9916678233
 51
208.5411356556
  0
LINE
  5
15D
330
1F
100
AcDbEntity
  8
0
  6
Continuous
 62
     8
370
    25
100
AcDbLine
 10
147.2367898857
 20
448.9400592456
 30
0.0
 11
146.6908832239
 21
448.9400592456
 31
0.0
  0
LINE
  5
15E
330
1F
100
AcDbEntity
  8
0
  6
Continuous
 62
     8
370
    25
100
AcDbLine
 10
268.6908832239
 20
448.9400592456
 30
0.0
 11
268.1449765622
 21
448.9400592456
 31
0.0
  0
LINE
  5
15F
330
1F
100
AcDbEntity
  8
0
  6
Continuous
 62
     8
370
    25
100
AcDbLine
 10
181.0769350363
 20
472.7756320472
 30
0.0
 11
181.7814043812
 21
472.7756320472
 31
0.0
  0
LINE
  5
160
330
1F
100
AcDbEntity
  8
0
  6
Continuous
 62
     8
370
    25
100
AcDbLine
 10
233.6003620666
 20
472.7756320472
 30
0.0
 11
234.2229365137
 21
472.7756320472
 31
0.0
  0
SPLINE
  5
161
330
1F
100
AcDbEntity
  8
0
  6
Continuous
 62
     8
370
    25
100
AcDbSpline
210
0.0
220
0.0
230
1.0
 70
     8
 71
     3
 72
     9
 73
     5
 74
     0
 42
0.000000001
 43
0.00000001
 40
0.0
 40
0.0
 40
0.0
 40
0.0
 40
0.1890585653581865
 40
1.0
 40
1.0
 40
1.0
 40
1.0
 10
234.2965200144261
 20
472.4721921940897
 30
0.0
 10
234.2903478247198
 20
472.3871689162997
 30
0.0
 10
234.2577008526319
 20
471.9374496579891
 30
0.0
 10
234.3570042787445
 20
471.455663930415
 30
0.0
 10
234.437533541581
 20
471.064963921306
 30
0.0
  0
ARC
  5
162
330
1F
100
AcDbEntity
  8
0
  6
Continuous
 62
     8
370
    25
100
AcDbCircle
 10
233.4734943739
 20
473.1087871298
 30
0.0
 40
0.9704869948314719
100
AcDbArc
 50
233.9261386947
 51
327.5723028573
  0
SPLINE
  5
163
330
1F
100
AcDbEntity
  8
0
  6
Continuous
 62
     8
370
    25
100
AcDbSpline
210
0.0
220
0.0
230
1.0
 70
     8
 71
     3
 72
     9
 73
     5
 74
     0
 42
0.000000001
 43
0.00000001
 40
0.0
 40
0.0
 40
0.0
 40
0.0
 40
0.523237990860976
 40
0.9999999999999999
 40
0.9999999999999999
 40
0.9999999999999999
 40
0.9999999999999999
 10
180.9442329062891
 20
471.0649639213061
 30
0.0
 10
180.9962124100445
 20
471.3182436477531
 30
0.0
 10
181.0955544009994
 20
471.802305835268
 30
0.0
 10
181.0880704367366
 20
472.2673764544049
 30
0.0
 10
181.0845023668983
 20
472.4891044571761
 30
0.0
  0
ARC
  5
164
330
1F
100
AcDbEntity
  8
0
  6
Continuous
 62
     8
370
    25
100
AcDbCircle
 10
181.9089479228
 20
473.105687324
 30
0.0
 40
0.967584436919798
100
AcDbArc
 50
211.6412132602
 51
306.1495971243
  0
ARC
  5
165
330
1F
100
AcDbEntity
  8
0
  6
Continuous
 62
     8
370
    25
100
AcDbCircle
 10
181.2499685068
 20
473.0051257469
 30
0.0
 40
0.5788708377535183
100
AcDbArc
 50
280.6291086088
 51
336.6435240322
  0
ARC
  5
166
330
1F
100
AcDbEntity
  8
0
  6
Continuous
 62
     8
370
    25
100
AcDbCircle
 10
234.1189976868
 20
472.9942997058
 30
0.0
 40
0.562848515516359
100
AcDbArc
 50
202.8613087897
 51
264.9799550575
  0
LINE
  5
167
330
1F
100
AcDbEntity
  8
0
  6
Continuous
 62
     8
370
    25
100
AcDbLine
 10
146.9204054096
 20
449.5775260585
 30
0.0
 11
147.239057608
 21
449.5775260585
 31
0.0
  0
LINE
  5
168
330
1F
100
AcDbEntity
  8
0
  6
Continuous
 62
     8
370
    25
100
AcDbLine
 10
268.1427088398
 20
449.5775260585
 30
0.0
 11
268.4613610383
 21
449.5775260585
 31
0.0
  0
LINE
  5
169
330
1F
100
AcDbEntity
  8
0
  6
Continuous
 62
     8
370
    25
100
AcDbLine
 10
180.6078405129
 20
1070.3001127903
 30
0.0
 11
180.6078405129
 21
480.3001127903
 31
0.0
  0
LINE
  5
16A
330
1F
100
AcDbEntity
  8
0
  6
Continuous
 62
     8
370
    25
100
AcDbLine
 10
191.9514758303
 20
1016.4001127903
 30
0.0
 11
191.9514758303
 21
480.3001127903
 31
0.0
  0
LINE
  5
16B
330
1F
100
AcDbEntity
  8
0
  6
Continuous
 62
     8
370
    25
100
AcDbLine
 10
223.4302906175
 20
1016.4001127903
 30
0.0
 11
223.4302906175
 21
480.3001127903
 31
0.0
  0
LINE
  5
16C
330
1F
100
AcDbEntity
  8
0
  6
Continuous
 62
     8
370
    25
100
AcDbLine
 10
190.6657708405
 20
1016.4001127903
 30
0.0
 11
190.6657708405
 21
480.3001127903
 31
0.0
  0
LINE
  5
16D
330
1F
100
AcDbEntity
  8
0
  6
Continuous
 62
     8
370
    25
100
AcDbLine
 10
224.7159956074
 20
1016.4001127903
 30
0.0
 11
224.7159956074
 21
480.3001127903
 31
0.0
  0
LINE
  5
16E
330
1F
100
AcDbEntity
  8
0
  6
Continuous
 62
     8
370
    25
100
AcDbLine
 10
184.7330665321
 20
1016.4001127903
 30
0.0
 11
184.7330665321
 21
480.3001127903
 31
0.0
  0
LINE
  5
16F
330
1F
100
AcDbEntity
  8
0
  6
Continuous
 62
     8
370
    25
100
AcDbLine
 10
230.6486999157
 20
1016.4001127903
 30
0.0
 11
230.6486999157
 21
480.3001127903
 31
0.0
  0
LINE
  5
170
330
1F
100
AcDbEntity
  8
0
  6
Continuous
 62
     8
370
    25
100
AcDbLine
 10
234.773925935
 20
1070.3001127903
 30
0.0
 11
234.773925935
 21
480.3001127903
 31
0.0
  0
LINE
  5
171
330
1F
100
AcDbEntity
  8
0
  6
Continuous
 62
     7
370
    25
100
AcDbLine
 10
158.3974682467
 20
90.8273166428
 30
0.0
 11
158.3978210517
 21
90.827045926
 31
0.0
  0
LINE
  5
172
330
1F
100
AcDbEntity
  8
0
  6
Continuous
 62
     7
370
    25
100
AcDbLine
 10
198.2440258158
 20
-5.3702020246
 30
0.0
 11
198.2416182065
 21
-5.3884896333
 31
0.0
  0
LINE
  5
173
330
1F
100
AcDbEntity
  8
0
  6
Continuous
 62
     7
370
    25
100
AcDbLine
 10
201.2159527906
 20
-5.78006821
 30
0.0
 11
201.2183603999
 21
-5.7617806013
 31
0.0
  0
CIRCLE
  5
174
330
1F
100
AcDbEntity
  8
0
  6
Continuous
 62
     7
370
    25
100
AcDbCircle
 10
252.7242042207
 20
28.8938576222
 30
0.0
 40
3.149999999999997
  0
CIRCLE
  5
175
330
1F
100
AcDbEntity
  8
0
  6
Continuous
 62
     7
370
    25
100
AcDbCircle
 10
252.7242042207
 20
28.8938576222
 30
0.0
 40
3.499999999999984
  0
LINE
  5
176
330
1F
100
AcDbEntity
  8
0
  6
Continuous
 62
     7
370
    25
100
AcDbLine
 10
251.84134074
 20
27.4037068657
 30
0.0
 11
250.9922640698
 21
28.9133644463
 31
0.0
  0
LINE
  5
177
330
1F
100
AcDbEntity
  8
0
  6
Continuous
 62
     7
370
    25
100
AcDbLine
 10
253.573280891
 20
27.3842000416
 30
0.0
 11
251.84134074
 21
27.4037068657
 31
0.0
  0
LINE
  5
178
330
1F
100
AcDbEntity
  8
0
  6
Continuous
 62
     7
370
    25
100
AcDbLine
 10
251.8751275505
 20
30.4035152027
 30
0.0
 11
253.6070677014
 21
30.3840083786
 31
0.0
  0
LINE
  5
179
330
1F
100
AcDbEntity
  8
0
  6
Continuous
 62
     7
370
    25
100
AcDbLine
 10
250.9922640698
 20
28.9133644463
 30
0.0
 11
251.8751275505
 21
30.4035152027
 31
0.0
  0
LINE
  5
17A
330
1F
100
AcDbEntity
  8
0
  6
Continuous
 62
     7
370
    25
100
AcDbLine
 10
254.4561443716
 20
28.874350798
 30
0.0
 11
253.573280891
 21
27.3842000416
 31
0.0
  0
LINE
  5
17B
330
1F
100
AcDbEntity
  8
0
  6
Continuous
 62
     7
370
    25
100
AcDbLine
 10
253.6070677014
 20
30.3840083786
 30
0.0
 11
254.4561443716
 21
28.874350798
 31
0.0
  0
LINE
  5
17C
330
1F
100
AcDbEntity
  8
0
  6
Continuous
 62
     7
370
    25
100
AcDbLine
 10
208.5399598942
 20
105.3842000416
 30
0.0
 11
206.8080197433
 21
105.4037068657
 31
0.0
  0
LINE
  5
17D
330
1F
100
AcDbEntity
  8
0
  6
Continuous
 62
     7
370
    25
100
AcDbLine
 10
209.4228233748
 20
106.874350798
 30
0.0
 11
208.5399598942
 21
105.3842000416
 31
0.0
  0
LINE
  5
17E
330
1F
100
AcDbEntity
  8
0
  6
Continuous
 62
     7
370
    25
100
AcDbLine
 10
208.5737467046
 20
108.3840083786
 30
0.0
 11
209.4228233748
 21
106.874350798
 31
0.0
  0
LINE
  5
17F
330
1F
100
AcDbEntity
  8
0
  6
Continuous
 62
     7
370
    25
100
AcDbLine
 10
206.8080197433
 20
105.4037068657
 30
0.0
 11
205.958943073
 21
106.9133644463
 31
0.0
  0
CIRCLE
  5
180
330
1F
100
AcDbEntity
  8
0
  6
Continuous
 62
     7
370
    25
100
AcDbCircle
 10
207.6908832239
 20
106.8938576222
 30
0.0
 40
3.150000000000001
  0
LINE
  5
181
330
1F
100
AcDbEntity
  8
0
  6
Continuous
 62
     7
370
    25
100
AcDbLine
 10
206.8418065537
 20
108.4035152027
 30
0.0
 11
208.5737467046
 21
108.3840083786
 31
0.0
  0
LINE
  5
182
330
1F
100
AcDbEntity
  8
0
  6
Continuous
 62
     7
370
    25
100
AcDbLine
 10
205.958943073
 20
106.9133644463
 30
0.0
 11
206.8418065537
 21
108.4035152027
 31
0.0
  0
CIRCLE
  5
183
330
1F
100
AcDbEntity
  8
0
  6
Continuous
 62
     7
370
    25
100
AcDbCircle
 10
207.6908832239
 20
106.8938576222
 30
0.0
 40
3.500000000000011
  0
CIRCLE
  5
184
330
1F
100
AcDbEntity
  8
0
  6
Continuous
 62
     7
370
    25
100
AcDbCircle
 10
162.6575622271
 20
28.8938576222
 30
0.0
 40
3.14999999999999
  0
CIRCLE
  5
185
330
1F
100
AcDbEntity
  8
0
  6
Continuous
 62
     7
370
    25
100
AcDbCircle
 10
162.6575622271
 20
28.8938576222
 30
0.0
 40
3.499999999999997
  0
LINE
  5
186
330
1F
100
AcDbEntity
  8
0
  6
Continuous
 62
     7
370
    25
100
AcDbLine
 10
160.9256220762
 20
28.9133644463
 30
0.0
 11
161.8084855569
 21
30.4035152027
 31
0.0
  0
LINE
  5
187
330
1F
100
AcDbEntity
  8
0
  6
Continuous
 62
     7
370
    25
100
AcDbLine
 10
161.7746987465
 20
27.4037068657
 30
0.0
 11
160.9256220762
 21
28.9133644463
 31
0.0
  0
LINE
  5
188
330
1F
100
AcDbEntity
  8
0
  6
Continuous
 62
     7
370
    25
100
AcDbLine
 10
161.8084855569
 20
30.4035152027
 30
0.0
 11
163.5404257078
 21
30.3840083786
 31
0.0
  0
LINE
  5
189
330
1F
100
AcDbEntity
  8
0
  6
Continuous
 62
     7
370
    25
100
AcDbLine
 10
163.5066388974
 20
27.3842000416
 30
0.0
 11
161.7746987465
 21
27.4037068657
 31
0.0
  0
LINE
  5
18A
330
1F
100
AcDbEntity
  8
0
  6
Continuous
 62
     7
370
    25
100
AcDbLine
 10
164.389502378
 20
28.874350798
 30
0.0
 11
163.5066388974
 21
27.3842000416
 31
0.0
  0
LINE
  5
18B
330
1F
100
AcDbEntity
  8
0
  6
Continuous
 62
     7
370
    25
100
AcDbLine
 10
163.5404257078
 20
30.3840083786
 30
0.0
 11
164.389502378
 21
28.874350798
 31
0.0
  0
SPLINE
  5
18C
330
1F
100
AcDbEntity
  8
0
  6
Continuous
 62
     7
370
    25
100
AcDbSpline
210
0.0
220
0.0
230
1.0
 70
    11
 71
     3
 72
    26
 73
    22
 74
     0
 42
0.000000001
 43
0.00000001
 40
0.0
 40
0.0
 40
0.0
 40
0.0
 40
0.0487288626010708
 40
0.0975942029381529
 40
0.1436383068857409
 40
0.1892386773120392
 40
0.2380619962325451
 40
0.2921412749075267
 40
0.3512949688082149
 40
0.4129159202171765
 40
0.4730990705865268
 40
0.5290078929867543
 40
0.5804913810616205
 40
0.6291505490579219
 40
0.6769649653952361
 40
0.7257612837511805
 40
0.7771269940698781
 40
0.8322514718269267
 40
0.891395068009786
 40
0.9529624434402937
 40
1.0
 40
1.0
 40
1.0
 40
1.0
 10
254.2709639467116
 20
25.10242526998337
 30
0.0
 10
254.6506594638242
 20
25.30181410793531
 30
0.0
 10
255.4111139331837
 20
25.70115022365776
 30
0.0
 10
256.2633658240808
 20
26.72915374461596
 30
0.0
 10
256.756710675873
 20
27.92038188032726
 30
0.0
 10
256.8693155373469
 20
29.17842944834408
 30
0.0
 10
256.6003902329559
 20
30.44067563212417
 30
0.0
 10
255.9126670342079
 20
31.62681193235621
 30
0.0
 10
254.7993291399616
 20
32.57686009586176
 30
0.0
 10
253.3578425420189
 20
33.09643060840953
 30
0.0
 10
251.8088494584952
 20
33.05597048739683
 30
0.0
 10
250.4161486895617
 20
32.47704860880951
 30
0.0
 10
249.3618454354912
 20
31.50545599505171
 30
0.0
 10
248.7133688277666
 20
30.30330505505322
 30
0.0
 10
248.4807035929646
 20
28.99628549377529
 30
0.0
 10
248.6623722810652
 20
27.68532109889324
 30
0.0
 10
249.2555308395189
 20
26.4721127597749
 30
0.0
 10
250.2459217852649
 20
25.4735334117744
 30
0.0
 10
251.5716682800402
 20
24.84553755200978
 30
0.0
 10
252.9932413084682
 20
24.69641611924434
 30
0.0
 10
253.8848164915794
 20
24.97972305306578
 30
0.0
 10
254.2709639467116
 20
25.10242526998337
 30
0.0
  0
SPLINE
  5
18D
330
1F
100
AcDbEntity
  8
0
  6
Continuous
 62
     7
370
    25
100
AcDbSpline
210
0.0
220
0.0
230
1.0
 70
    11
 71
     3
 72
    26
 73
    22
 74
     0
 42
0.000000001
 43
0.00000001
 40
0.0
 40
0.0
 40
0.0
 40
0.0
 40
0.060559820601883
 40
0.1212215247574452
 40
0.1786803883444822
 40
0.2315048291442555
 40
0.2808832232685038
 40
0.3287688729410272
 40
0.3770573458581263
 40
0.4274216878886584
 40
0.4812189226543716
 40
0.5391056232927464
 40
0.6001971807045225
 40
0.6614174261390933
 40
0.7184393347802898
 40
0.7688743709109629
 40
0.8147862343998311
 40
0.8605331461283368
 40
0.9097405482898158
 40
0.9642798534108964
 40
1.0
 40
1.0
 40
1.0
 40
1.0
 10
164.3297731715964
 20
25.11706997588226
 30
0.0
 10
164.7694351248744
 20
25.36277437950196
 30
0.0
 10
165.6494987020862
 20
25.85459655054505
 30
0.0
 10
166.5319595907249
 20
27.13751912914147
 30
0.0
 10
166.911405338012
 20
28.60669345041115
 30
0.0
 10
166.7542879427655
 20
30.05921969910067
 30
0.0
 10
166.1582663322631
 20
31.30966101103592
 30
0.0
 10
165.2310221780883
 20
32.27229120017395
 30
0.0
 10
164.0651527166186
 20
32.89354063184651
 30
0.0
 10
162.7469084798261
 20
33.12588822334564
 30
0.0
 10
161.3776334277395
 20
32.92083203629703
 30
0.0
 10
160.0955796206827
 20
32.24385917124517
 30
0.0
 10
159.0854166181339
 20
31.11641889904773
 30
0.0
 10
158.5377007724817
 20
29.67103012263449
 30
0.0
 10
158.550831714266
 20
28.15609947181131
 30
0.0
 10
159.0515534712449
 20
26.83160435892404
 30
0.0
 10
159.87502942537
 20
25.81779512271459
 30
0.0
 10
160.9247633725774
 20
25.11563689470717
 30
0.0
 10
162.165082658307
 20
24.75086626452385
 30
0.0
 10
163.3504120899455
 20
24.76902637276771
 30
0.0
 10
164.0520859756337
 20
25.01838599299548
 30
0.0
 10
164.3297731715964
 20
25.11706997588226
 30
0.0
  0
CIRCLE
  5
18E
330
1F
100
AcDbEntity
  8
0
  6
Continuous
 62
     7
370
    25
100
AcDbCircle
 10
207.6908832239
 20
54.8938576222
 30
0.0
 40
60.85183618348459
  0
CIRCLE
  5
18F
330
1F
100
AcDbEntity
  8
0
  6
Continuous
 62
     7
370
    25
100
AcDbCircle
 10
207.6908832239
 20
54.8938576222
 30
0.0
 40
9.999999999999995
  0
SPLINE
  5
190
330
1F
100
AcDbEntity
  8
0
  6
Continuous
 62
     7
370
    25
100
AcDbSpline
210
0.0
220
0.0
230
1.0
 70
    11
 71
     3
 72
    26
 73
    22
 74
     0
 42
0.000000001
 43
0.00000001
 40
0.0
 40
0.0
 40
0.0
 40
0.0
 40
0.0524897742856403
 40
0.1048669895220992
 40
0.1603210589366869
 40
0.2197750531821176
 40
0.2814124184716795
 40
0.3414028353036087
 40
0.3957376420359587
 40
0.4438268899249251
 40
0.4891432481971726
 40
0.5359800057478671
 40
0.5872935951810011
 40
0.6440828687442257
 40
0.7049259010303146
 40
0.766326843155285
 40
0.8245886608518103
 40
0.8781783824602792
 40
0.9280216457669411
 40
0.9760275287776776
 40
1.0
 40
1.0
 40
1.0
 40
1.0
 10
209.6746715188823
 20
103.2184897069428
 30
0.0
 10
210.0610386155252
 20
103.4826417296667
 30
0.0
 10
210.8329442833769
 20
104.0103793276315
 30
0.0
 10
211.5656489226676
 20
105.2076650041961
 30
0.0
 10
211.9023278353402
 20
106.5773918220699
 30
0.0
 10
211.7428522633673
 20
108.0488032377122
 30
0.0
 10
211.0513892547474
 20
109.4160635445988
 30
0.0
 10
209.9035150371542
 20
110.4457931695416
 30
0.0
 10
208.5205904969638
 20
110.9742430900372
 30
0.0
 10
207.1545130512848
 20
111.0087429758556
 30
0.0
 10
205.9280679656473
 20
110.6505442789659
 30
0.0
 10
204.8686504004858
 20
109.9540740187006
 30
0.0
 10
204.0311185749034
 20
108.9251660930558
 30
0.0
 10
203.5363867837477
 20
107.5964883739138
 30
0.0
 10
203.5272855980272
 20
106.0937640022761
 30
0.0
 10
204.075575407341
 20
104.6456388210261
 30
0.0
 10
205.1038273652021
 20
103.5057551316072
 30
0.0
 10
206.4133202464358
 20
102.8291769241427
 30
0.0
 10
207.7948575505053
 20
102.6433529769543
 30
0.0
 10
208.9040624549342
 20
102.8429890779085
 30
0.0
 10
209.4821416107603
 20
103.1246741719459
 30
0.0
 10
209.6746715188823
 20
103.2184897069428
 30
0.0
  0
CIRCLE
  5
191
330
1F
100
AcDbEntity
  8
0
  6
Continuous
 62
     7
370
    25
100
AcDbCircle
 10
207.6908832239
 20
106.8938576222
 30
0.0
 40
3.999999999999988
  0
CIRCLE
  5
192
330
1F
100
AcDbEntity
  8
0
  6
Continuous
 62
     7
370
    25
100
AcDbCircle
 10
162.6575622271
 20
28.8938576222
 30
0.0
 40
4.000000000000003
  0
CIRCLE
  5
193
330
1F
100
AcDbEntity
  8
0
  6
Continuous
 62
     7
370
    25
100
AcDbCircle
 10
252.7242042207
 20
28.8938576222
 30
0.0
 40
3.999999999999996
  0
CIRCLE
  5
194
330
1F
100
AcDbEntity
  8
0
  6
Continuous
 62
     7
370
    25
100
AcDbCircle
 10
207.6908832239
 20
54.8938576222
 30
0.0
 40
60.99999999999998
  0
CIRCLE
  5
195
330
1F
100
AcDbEntity
  8
0
  6
Continuous
 62
     7
370
    25
100
AcDbCircle
 10
207.6908832239
 20
54.8938576222
 30
0.0
 40
61.15711552941551
  0
ENDSEC
  0
SECTION
  2
OBJECTS
  0
DICTIONARY
  5
C
330
0
100
AcDbDictionary
281
     1
  3
ACAD_GROUP
350
D
  3
ACAD_LAYOUT
350
1A
  3
ACAD_MLINESTYLE
350
17
  3
ACAD_PLOTSETTINGS
350
19
  3
ACAD_PLOTSTYLENAME
350
E
  3
ACAD_SCALELIST
350
47
  0
DICTIONARY
  5
D
102
{ACAD_REACTORS
330
C
102
}
330
C
100
AcDbDictionary
281
     1
  0
DICTIONARY
  5
1A
102
{ACAD_REACTORS
330
C
102
}
330
C
100
AcDbDictionary
281
     1
  3
Layout1
350
1E
  3
Layout2
350
26
  3
Model
350
22
  0
DICTIONARY
  5
17
102
{ACAD_REACTORS
330
C
102
}
330
C
100
AcDbDictionary
281
     1
  3
Standard
350
18
  0
DICTIONARY
  5
19
102
{ACAD_REACTORS
330
C
102
}
330
C
100
AcDbDictionary
281
     1
  0
ACDBDICTIONARYWDFLT
  5
E
102
{ACAD_REACTORS
330
C
102
}
330
C
100
AcDbDictionary
281
     1
  3
Normal
350
F
100
AcDbDictionaryWithDefault
340
F
  0
DICTIONARY
  5
47
102
{ACAD_REACTORS
330
C
102
}
330
C
100
AcDbDictionary
281
     1
  3
A0
350
48
  3
A1
350
49
  3
A2
350
4A
  3
A3
350
4B
  3
A4
350
4C
  3
A5
350
4D
  3
A6
350
4E
  3
A7
350
4F
  3
A8
350
50
  3
A9
350
51
  3
B0
350
52
  3
B1
350
53
  3
B2
350
54
  3
B3
350
55
  3
B4
350
56
  3
B5
350
57
  3
B6
350
58
  3
B7
350
59
  3
B8
350
5A
  3
B9
350
5B
  3
C0
350
5C
  3
C1
350
5D
  3
C2
350
5E
  3
C3
350
5F
  3
C4
350
60
  3
C5
350
61
  3
C6
350
62
  3
C7
350
63
  3
C8
350
64
  3
C9
350
65
  3
D0
350
66
  3
D1
350
67
  3
D2
350
68
  0
LAYOUT
  5
1E
102
{ACAD_REACTORS
330
1A
102
}
330
1A
100
AcDbPlotSettings
  1

  2
none_device
  4

  6

 40
0.0
 41
0.0
 42
0.0
 43
0.0
 44
0.0
 45
0.0
 46
0.0
 47
0.0
 48
0.0
 49
0.0
140
0.0
141
0.0
142
1.0
143
1.0
 70
   688
 72
     1
 73
     0
 74
     5
  7

 75
    16
147
1.0
148
0.0
149
0.0
100
AcDbLayout
  1
Layout1
 70
     1
 71
     1
 10
0.0
 20
0.0
 11
420.0
 21
297.0
 12
0.0
 22
0.0
 32
0.0
 14
1.0000000000E+20
 24
1.0000000000E+20
 34
1.0000000000E+20
 15
-1.0000000000E+20
 25
-1.0000000000E+20
 35
-1.0000000000E+20
146
0.0
 13
0.0
 23
0.0
 33
0.0
 16
1.0
 26
0.0
 36
0.0
 17
0.0
 27
1.0
 37
0.0
 76
     0
330
1B
  0
LAYOUT
  5
26
102
{ACAD_REACTORS
330
1A
102
}
330
1A
100
AcDbPlotSettings
  1

  2
none_device
  4

  6

 40
0.0
 41
0.0
 42
0.0
 43
0.0
 44
0.0
 45
0.0
 46
0.0
 47
0.0
 48
0.0
 49
0.0
140
0.0
141
0.0
142
1.0
143
1.0
 70
   688
 72
     1
 73
     0
 74
     5
  7

 75
    16
147
1.0
148
0.0
149
0.0
100
AcDbLayout
  1
Layout2
 70
     1
 71
     2
 10
0.0
 20
0.0
 11
0.0
 21
0.0
 12
0.0
 22
0.0
 32
0.0
 14
0.0
 24
0.0
 34
0.0
 15
0.0
 25
0.0
 35
0.0
146
0.0
 13
0.0
 23
0.0
 33
0.0
 16
1.0
 26
0.0
 36
0.0
 17
0.0
 27
1.0
 37
0.0
 76
     0
330
23
  0
LAYOUT
  5
22
102
{ACAD_REACTORS
330
1A
102
}
330
1A
100
AcDbPlotSettings
  1

  2
none_device
  4
Letter_(8.50_x_11.00_Inches)
  6

 40
6.35
 41
6.35
 42
6.35000508
 43
6.35000508
 44
215.9
 45
279.4
 46
0.0
 47
0.0
 48
0.0
 49
0.0
140
0.0
141
0.0
142
1.0
143
1.0
 70
  1712
 72
     1
 73
     0
 74
     0
  7

 75
     0
147
1.0
148
0.0
149
0.0
100
AcDbLayout
  1
Model
 70
     1
 71
     0
 10
0.0
 20
0.0
 11
431.8
 21
279.4
 12
0.0
 22
0.0
 32
0.0
 14
0.0
 24
0.0
 34
0.0
 15
431.8
 25
279.4
 35
0.0
146
0.0
 13
0.0
 23
0.0
 33
0.0
 16
1.0
 26
0.0
 36
0.0
 17
0.0
 27
1.0
 37
0.0
 76
     0
330
1F
331
29
  0
MLINESTYLE
  5
18
102
{ACAD_REACTORS
330
17
102
}
330
17
100
AcDbMlineStyle
  2
Standard
 70
     0
  3

 62
   256
 51
90.0
 52
90.0
 71
     2
 49
0.5
 62
   256
  6
BYLAYER
 49
-0.5
 62
   256
  6
BYLAYER
  0
ACDBPLACEHOLDER
  5
F
102
{ACAD_REACTORS
330
E
102
}
330
E
  0
SCALE
  5
48
102
{ACAD_REACTORS
330
47
102
}
330
47
100
AcDbScale
 70
     0
300
1:1
140
1.0
141
1.0
290
     1
  0
SCALE
  5
49
102
{ACAD_REACTORS
330
47
102
}
330
47
100
AcDbScale
 70
     0
300
1:2
140
1.0
141
2.0
290
     0
  0
SCALE
  5
4A
102
{ACAD_REACTORS
330
47
102
}
330
47
100
AcDbScale
 70
     0
300
1:4
140
1.0
141
4.0
290
     0
  0
SCALE
  5
4B
102
{ACAD_REACTORS
330
47
102
}
330
47
100
AcDbScale
 70
     0
300
1:5
140
1.0
141
5.0
290
     0
  0
SCALE
  5
4C
102
{ACAD_REACTORS
330
47
102
}
330
47
100
AcDbScale
 70
     0
300
1:8
140
1.0
141
8.0
290
     0
  0
SCALE
  5
4D
102
{ACAD_REACTORS
330
47
102
}
330
47
100
AcDbScale
 70
     0
300
1:10
140
1.0
141
10.0
290
     0
  0
SCALE
  5
4E
102
{ACAD_REACTORS
330
47
102
}
330
47
100
AcDbScale
 70
     0
300
1:16
140
1.0
141
16.0
290
     0
  0
SCALE
  5
4F
102
{ACAD_REACTORS
330
47
102
}
330
47
100
AcDbScale
 70
     0
300
1:20
140
1.0
141
20.0
290
     0
  0
SCALE
  5
50
102
{ACAD_REACTORS
330
47
102
}
330
47
100
AcDbScale
 70
     0
300
1:30
140
1.0
141
30.0
290
     0
  0
SCALE
  5
51
102
{ACAD_REACTORS
330
47
102
}
330
47
100
AcDbScale
 70
     0
300
1:40
140
1.0
141
40.0
290
     0
  0
SCALE
  5
52
102
{ACAD_REACTORS
330
47
102
}
330
47
100
AcDbScale
 70
     0
300
1:50
140
1.0
141
50.0
290
     0
  0
SCALE
  5
53
102
{ACAD_REACTORS
330
47
102
}
330
47
100
AcDbScale
 70
     0
300
1:100
140
1.0
141
100.0
290
     0
  0
SCALE
  5
54
102
{ACAD_REACTORS
330
47
102
}
330
47
100
AcDbScale
 70
     0
300
2:1
140
2.0
141
1.0
290
     0
  0
SCALE
  5
55
102
{ACAD_REACTORS
330
47
102
}
330
47
100
AcDbScale
 70
     0
300
4:1
140
4.0
141
1.0
290
     0
  0
SCALE
  5
56
102
{ACAD_REACTORS
330
47
102
}
330
47
100
AcDbScale
 70
     0
300
8:1
140
8.0
141
1.0
290
     0
  0
SCALE
  5
57
102
{ACAD_REACTORS
330
47
102
}
330
47
100
AcDbScale
 70
     0
300
10:1
140
10.0
141
1.0
290
     0
  0
SCALE
  5
58
102
{ACAD_REACTORS
330
47
102
}
330
47
100
AcDbScale
 70
     0
300
100:1
140
100.0
141
1.0
290
     0
  0
SCALE
  5
59
102
{ACAD_REACTORS
330
47
102
}
330
47
100
AcDbScale
 70
     0
300
1/128" = 1'-0"
140
0.0078125
141
12.0
290
     0
  0
SCALE
  5
5A
102
{ACAD_REACTORS
330
47
102
}
330
47
100
AcDbScale
 70
     0
300
1/64" = 1'-0"
140
0.015625
141
12.0
290
     0
  0
SCALE
  5
5B
102
{ACAD_REACTORS
330
47
102
}
330
47
100
AcDbScale
 70
     0
300
1/32" = 1'-0"
140
0.03125
141
12.0
290
     0
  0
SCALE
  5
5C
102
{ACAD_REACTORS
330
47
102
}
330
47
100
AcDbScale
 70
     0
300
1/16" = 1'-0"
140
0.0625
141
12.0
290
     0
  0
SCALE
  5
5D
102
{ACAD_REACTORS
330
47
102
}
330
47
100
AcDbScale
 70
     0
300
3/32" = 1'-0"
140
0.09375
141
12.0
290
     0
  0
SCALE
  5
5E
102
{ACAD_REACTORS
330
47
102
}
330
47
100
AcDbScale
 70
     0
300
1/8" = 1'-0"
140
0.125
141
12.0
290
     0
  0
SCALE
  5
5F
102
{ACAD_REACTORS
330
47
102
}
330
47
100
AcDbScale
 70
     0
300
3/16" = 1'-0"
140
0.1875
141
12.0
290
     0
  0
SCALE
  5
60
102
{ACAD_REACTORS
330
47
102
}
330
47
100
AcDbScale
 70
     0
300
1/4" = 1'-0"
140
0.25
141
12.0
290
     0
  0
SCALE
  5
61
102
{ACAD_REACTORS
330
47
102
}
330
47
100
AcDbScale
 70
     0
300
3/8" = 1'-0"
140
0.375
141
12.0
290
     0
  0
SCALE
  5
62
102
{ACAD_REACTORS
330
47
102
}
330
47
100
AcDbScale
 70
     0
300
1/2" = 1'-0"
140
0.5
141
12.0
290
     0
  0
SCALE
  5
63
102
{ACAD_REACTORS
330
47
102
}
330
47
100
AcDbScale
 70
     0
300
3/4" = 1'-0"
140
0.75
141
12.0
290
     0
  0
SCALE
  5
64
102
{ACAD_REACTORS
330
47
102
}
330
47
100
AcDbScale
 70
     0
300
1" = 1'-0"
140
1.0
141
12.0
290
     0
  0
SCALE
  5
65
102
{ACAD_REACTORS
330
47
102
}
330
47
100
AcDbScale
 70
     0
300
1-1/2" = 1'-0"
140
1.5
141
12.0
290
     0
  0
SCALE
  5
66
102
{ACAD_REACTORS
330
47
102
}
330
47
100
AcDbScale
 70
     0
300
3" = 1'-0"
140
3.0
141
12.0
290
     0
  0
SCALE
  5
67
102
{ACAD_REACTORS
330
47
102
}
330
47
100
AcDbScale
 70
     0
300
6" = 1'-0"
140
6.0
141
12.0
290
     0
  0
SCALE
  5
68
102
{ACAD_REACTORS
330
47
102
}
330
47
100
AcDbScale
 70
     0
300
1'-0" = 1'-0"
140
12.0
141
12.0
290
     0
  0
ENDSEC
  0
EOF
