  0
SECTION
  2
HEADER
  9
$ACADVER
  1
AC1015
  9
$ACADMAINTVER
 70
     6
  9
$DWGCODEPAGE
  3
ANSI_1254
  9
$INSBASE
 10
0.0
 20
0.0
 30
0.0
  9
$EXTMIN
 10
0.0
 20
0.0
 30
0.0
  9
$EXTMAX
 10
420.0
 20
297.0
 30
0.0
  9
$LIMMIN
 10
0.0
 20
0.0
  9
$LIMMAX
 10
420.0
 20
297.0
  9
$ORTHOMODE
 70
     0
  9
$REGENMODE
 70
     1
  9
$FILLMODE
 70
     1
  9
$QTEXTMODE
 70
     0
  9
$MIRRTEXT
 70
     1
  9
$LTSCALE
 40
1.0
  9
$ATTMODE
 70
     1
  9
$TEXTSIZE
 40
4.9388888889
  9
$TRACEWID
 40
1.0
  9
$TEXTSTYLE
  7
Standard
  9
$CLAYER
  8
0
  9
$CELTYPE
  6
ByLayer
  9
$CECOLOR
 62
   256
  9
$CELTSCALE
 40
1.0
  9
$DISPSILH
 70
     0
  9
$DIMSCALE
 40
1.0
  9
$DIMASZ
 40
3.65
  9
$DIMEXO
 40
0.5
  9
$DIMDLI
 40
3.75
  9
$DIMRND
 40
0.0
  9
$DIMDLE
 40
0.0
  9
$DIMEXE
 40
1.0
  9
$DIMTP
 40
0.0
  9
$DIMTM
 40
0.0
  9
$DIMTXT
 40
2.6458333333
  9
$DIMCEN
 40
2.5
  9
$DIMTSZ
 40
0.0
  9
$DIMTOL
 70
     0
  9
$DIMLIM
 70
     0
  9
$DIMTIH
 70
     1
  9
$DIMTOH
 70
     1
  9
$DIMSE1
 70
     0
  9
$DIMSE2
 70
     0
  9
$DIMTAD
 70
     1
  9
$DIMZIN
 70
     0
  9
$DIMBLK
  1

  9
$DIMASO
 70
     1
  9
$DIMSHO
 70
     1
  9
$DIMPOST
  1

  9
$DIMAPOST
  1

  9
$DIMALT
 70
     0
  9
$DIMALTD
 70
     3
  9
$DIMALTF
 40
0.0393700787
  9
$DIMLFAC
 40
1.0
  9
$DIMTOFL
 70
     1
  9
$DIMTVP
 40
0.0
  9
$DIMTIX
 70
     0
  9
$DIMSOXD
 70
     0
  9
$DIMSAH
 70
     0
  9
$DIMBLK1
  1

  9
$DIMBLK2
  1

  9
$DIMSTYLE
  2
ISO-25
  9
$DIMCLRD
 70
     0
  9
$DIMCLRE
 70
     0
  9
$DIMCLRT
 70
     0
  9
$DIMTFAC
 40
1.0
  9
$DIMGAP
 40
1.524
  9
$DIMJUST
 70
     0
  9
$DIMSD1
 70
     0
  9
$DIMSD2
 70
     0
  9
$DIMTOLJ
 70
     0
  9
$DIMTZIN
 70
     0
  9
$DIMALTZ
 70
     0
  9
$DIMALTTZ
 70
     0
  9
$DIMUPT
 70
     0
  9
$DIMDEC
 70
     2
  9
$DIMTDEC
 70
     2
  9
$DIMALTU
 70
     2
  9
$DIMALTTD
 70
     3
  9
$DIMTXSTY
  7
Standard
  9
$DIMAUNIT
 70
     0
  9
$DIMADEC
 70
     2
  9
$DIMALTRND
 40
0.0
  9
$DIMAZIN
 70
     0
  9
$DIMDSEP
 70
    44
  9
$DIMATFIT
 70
     3
  9
$DIMFRAC
 70
     0
  9
$DIMLDRBLK
  1

  9
$DIMLUNIT
 70
     2
  9
$DIMLWD
 70
    -2
  9
$DIMLWE
 70
    -2
  9
$DIMTMOVE
 70
     0
  9
$LUNITS
 70
     2
  9
$LUPREC
 70
     2
  9
$SKETCHINC
 40
1.0
  9
$FILLETRAD
 40
10.0
  9
$AUNITS
 70
     0
  9
$AUPREC
 70
     2
  9
$MENU
  1
.
  9
$ELEVATION
 40
0.0
  9
$PELEVATION
 40
0.0
  9
$THICKNESS
 40
0.0
  9
$LIMCHECK
 70
     0
  9
$CHAMFERA
 40
0.0
  9
$CHAMFERB
 40
0.0
  9
$CHAMFERC
 40
0.0
  9
$CHAMFERD
 40
0.0
  9
$SKPOLY
 70
     0
  9
$TDCREATE
 40
2459107.59418735
  9
$TDUCREATE
 40
2459107.46918735
  9
$TDUPDATE
 40
2459107.594187755
  9
$TDUUPDATE
 40
2459107.469187755
  9
$TDINDWG
 40
0.0000000116
  9
$TDUSRTIMER
 40
0.0000000116
  9
$USRTIMER
 70
     1
  9
$ANGBASE
 50
0.0
  9
$ANGDIR
 70
     0
  9
$PDMODE
 70
     0
  9
$PDSIZE
 40
-1.0
  9
$PLINEWID
 40
0.0
  9
$SPLFRAME
 70
     0
  9
$SPLINETYPE
 70
     6
  9
$SPLINESEGS
 70
     8
  9
$HANDSEED
  5
280
  9
$SURFTAB1
 70
     6
  9
$SURFTAB2
 70
     6
  9
$SURFTYPE
 70
     6
  9
$SURFU
 70
     6
  9
$SURFV
 70
     6
  9
$UCSBASE
  2

  9
$UCSNAME
  2

  9
$UCSORG
 10
0.0
 20
0.0
 30
0.0
  9
$UCSXDIR
 10
1.0
 20
0.0
 30
0.0
  9
$UCSYDIR
 10
0.0
 20
1.0
 30
0.0
  9
$UCSORTHOREF
  2

  9
$UCSORTHOVIEW
 70
     0
  9
$UCSORGTOP
 10
0.0
 20
0.0
 30
0.0
  9
$UCSORGBOTTOM
 10
0.0
 20
0.0
 30
0.0
  9
$UCSORGLEFT
 10
0.0
 20
0.0
 30
0.0
  9
$UCSORGRIGHT
 10
0.0
 20
0.0
 30
0.0
  9
$UCSORGFRONT
 10
0.0
 20
0.0
 30
0.0
  9
$UCSORGBACK
 10
0.0
 20
0.0
 30
0.0
  9
$PUCSBASE
  2

  9
$PUCSNAME
  2

  9
$PUCSORG
 10
0.0
 20
0.0
 30
0.0
  9
$PUCSXDIR
 10
1.0
 20
0.0
 30
0.0
  9
$PUCSYDIR
 10
0.0
 20
1.0
 30
0.0
  9
$PUCSORTHOREF
  2

  9
$PUCSORTHOVIEW
 70
     0
  9
$PUCSORGTOP
 10
0.0
 20
0.0
 30
0.0
  9
$PUCSORGBOTTOM
 10
0.0
 20
0.0
 30
0.0
  9
$PUCSORGLEFT
 10
0.0
 20
0.0
 30
0.0
  9
$PUCSORGRIGHT
 10
0.0
 20
0.0
 30
0.0
  9
$PUCSORGFRONT
 10
0.0
 20
0.0
 30
0.0
  9
$PUCSORGBACK
 10
0.0
 20
0.0
 30
0.0
  9
$USERI1
 70
     0
  9
$USERI2
 70
     0
  9
$USERI3
 70
     0
  9
$USERI4
 70
     0
  9
$USERI5
 70
     0
  9
$USERR1
 40
0.0
  9
$USERR2
 40
0.0
  9
$USERR3
 40
0.0
  9
$USERR4
 40
0.0
  9
$USERR5
 40
0.0
  9
$WORLDVIEW
 70
     1
  9
$SHADEDGE
 70
     3
  9
$SHADEDIF
 70
    70
  9
$TILEMODE
 70
     1
  9
$MAXACTVP
 70
    64
  9
$PINSBASE
 10
0.0
 20
0.0
 30
0.0
  9
$PLIMCHECK
 70
     0
  9
$PEXTMIN
 10
1.0000000000E+20
 20
1.0000000000E+20
 30
1.0000000000E+20
  9
$PEXTMAX
 10
-1.0000000000E+20
 20
-1.0000000000E+20
 30
-1.0000000000E+20
  9
$PLIMMIN
 10
0.0
 20
0.0
  9
$PLIMMAX
 10
420.0
 20
297.0
  9
$UNITMODE
 70
     0
  9
$VISRETAIN
 70
     1
  9
$PLINEGEN
 70
     0
  9
$PSLTSCALE
 70
     1
  9
$TREEDEPTH
 70
  3020
  9
$CMLSTYLE
  2
Standard
  9
$CMLJUST
 70
     0
  9
$CMLSCALE
 40
20.0
  9
$PROXYGRAPHICS
 70
     1
  9
$MEASUREMENT
 70
     1
  9
$CELWEIGHT
370
    -1
  9
$ENDCAPS
280
     0
  9
$JOINSTYLE
280
     0
  9
$LWDISPLAY
290
     1
  9
$INSUNITS
 70
     4
  9
$HYPERLINKBASE
  1

  9
$STYLESHEET
  1

  9
$XEDIT
290
     1
  9
$CEPSNTYPE
380
     0
  9
$PSTYLEMODE
290
     1
  9
$FINGERPRINTGUID
  2
{6a0d0ac1-88cf-48d7-8458-c0e9c720faed}
  9
$VERSIONGUID
  2
{FAEB1C32-E019-11D5-929B-00C0DF256EC4}
  9
$EXTNAMES
290
     1
  9
$PSVPSCALE
 40
0.0
  9
$OLESTARTUP
290
     0
  0
ENDSEC
  0
SECTION
  2
CLASSES
  0
CLASS
  1
ACDBDICTIONARYWDFLT
  2
AcDbDictionaryWithDefault
  3
ObjectDBX Classes
 90
        0
280
     0
281
     0
  0
CLASS
  1
VISUALSTYLE
  2
AcDbVisualStyle
  3
ObjectDBX Classes
 90
     4095
280
     0
281
     0
  0
CLASS
  1
MATERIAL
  2
AcDbMaterial
  3
ObjectDBX Classes
 90
     1153
280
     0
281
     0
  0
CLASS
  1
SCALE
  2
AcDbScale
  3
ObjectDBX Classes
 90
     1153
280
     0
281
     0
  0
CLASS
  1
TABLESTYLE
  2
AcDbTableStyle
  3
ObjectDBX Classes
 90
     4095
280
     0
281
     0
  0
CLASS
  1
MLEADERSTYLE
  2
AcDbMLeaderStyle
  3
ACDB_MLEADERSTYLE_CLASS
 90
     4095
280
     0
281
     0
  0
CLASS
  1
SUN
  2
AcDbSun
  3
SCENEOE
 90
     1153
280
     0
281
     0
  0
CLASS
  1
ACDBPLACEHOLDER
  2
AcDbPlaceHolder
  3
ObjectDBX Classes
 90
        0
280
     0
281
     0
  0
CLASS
  1
LAYOUT
  2
AcDbLayout
  3
ObjectDBX Classes
 90
        0
280
     0
281
     0
  0
ENDSEC
  0
SECTION
  2
TABLES
  0
TABLE
  2
VPORT
  5
8
330
0
100
AcDbSymbolTable
 70
     1
  0
VPORT
  5
29
330
8
100
AcDbSymbolTableRecord
100
AcDbViewportTableRecord
  2
*Active
 70
     0
 10
0.0
 20
0.0
 11
1.0
 21
1.0
 12
210.0
 22
148.5
 13
0.0
 23
0.0
 14
10.0
 24
10.0
 15
10.0
 25
10.0
 16
0.0
 26
0.0
 36
1.0
 17
0.0
 27
0.0
 37
0.0
 40
297.0
 41
1.4141414141
 42
50.0
 43
0.0
 44
0.0
 50
0.0
 51
0.0
 71
     0
 72
  2000
 73
     1
 74
     3
 75
     0
 76
     0
 77
     0
 78
     0
281
     0
 65
     1
110
0.0
120
0.0
130
0.0
111
1.0
121
0.0
131
0.0
112
0.0
122
1.0
132
0.0
 79
     0
146
0.0
  0
ENDTAB
  0
TABLE
  2
LTYPE
  5
5
330
0
100
AcDbSymbolTable
 70
     6
  0
LTYPE
  5
14
330
5
100
AcDbSymbolTableRecord
100
AcDbLinetypeTableRecord
  2
ByBlock
 70
     0
  3

 72
    65
 73
     0
 40
0.0
  0
LTYPE
  5
15
330
5
100
AcDbSymbolTableRecord
100
AcDbLinetypeTableRecord
  2
ByLayer
 70
     0
  3

 72
    65
 73
     0
 40
0.0
  0
LTYPE
  5
16
330
5
100
AcDbSymbolTableRecord
100
AcDbLinetypeTableRecord
  2
Continuous
 70
     0
  3
Solid line
 72
    65
 73
     0
 40
0.0
  0
LTYPE
  5
6E
330
5
100
AcDbSymbolTableRecord
100
AcDbLinetypeTableRecord
  2
HIDDEN
 70
     0
  3
Hidden __ __ __ __ __ __ __ __ __ __ __ __ __ __
 72
    65
 73
     2
 40
1.905
 49
1.27
 74
     0
 49
-0.635
 74
     0
  0
LTYPE
  5
6F
330
5
100
AcDbSymbolTableRecord
100
AcDbLinetypeTableRecord
  2
PHANTOM
 70
     0
  3
Phantom ______  __  __  ______  __  __  ______
 72
    65
 73
     6
 40
12.7
 49
6.35
 74
     0
 49
-1.27
 74
     0
 49
1.27
 74
     0
 49
-1.27
 74
     0
 49
1.27
 74
     0
 49
-1.27
 74
     0
  0
LTYPE
  5
70
330
5
100
AcDbSymbolTableRecord
100
AcDbLinetypeTableRecord
  2
CENTER
 70
     0
  3
Center ____ _ ____ _ ____ _ ____ _ ____ _ ____
 72
    65
 73
     4
 40
10.16
 49
6.35
 74
     0
 49
-1.27
 74
     0
 49
1.27
 74
     0
 49
-1.27
 74
     0
  0
LTYPE
  5
71
330
5
100
AcDbSymbolTableRecord
100
AcDbLinetypeTableRecord
  2
CENTERX2
 70
     0
  3
Center (2x) ________  __  ________  __  _____
 72
    65
 73
     4
 40
20.32
 49
12.7
 74
     0
 49
-2.54
 74
     0
 49
2.54
 74
     0
 49
-2.54
 74
     0
  0
LTYPE
  5
72
330
5
100
AcDbSymbolTableRecord
100
AcDbLinetypeTableRecord
  2
DOT2
 70
     0
  3
Dot (.5x) ........................................
 72
    65
 73
     2
 40
0.635
 49
0.0
 74
     0
 49
-0.635
 74
     0
  0
ENDTAB
  0
TABLE
  2
LAYER
  5
2
330
0
100
AcDbSymbolTable
 70
     5
  0
LAYER
  5
10
330
2
100
AcDbSymbolTableRecord
100
AcDbLayerTableRecord
  2
0
 70
     0
 62
     7
  6
Continuous
370
    -3
390
F
  0
LAYER
  5
73
330
2
100
AcDbSymbolTableRecord
100
AcDbLayerTableRecord
  2
FORMAT
 70
     0
 62
     7
  6
Continuous
370
    -3
390
F
  0
LAYER
  5
74
330
2
100
AcDbSymbolTableRecord
100
AcDbLayerTableRecord
  2
SLD-0
 70
     0
 62
   179
  6
Continuous
370
    -3
390
F
  0
LAYER
  5
75
330
2
100
AcDbSymbolTableRecord
100
AcDbLayerTableRecord
  2
AAA_EKSEN
 70
     0
 62
     1
  6
CENTER
370
    -3
390
F
  0
LAYER
  5
76
330
2
100
AcDbSymbolTableRecord
100
AcDbLayerTableRecord
  2
03
 70
     0
 62
     3
  6
HIDDEN
370
    -3
390
F
  0
ENDTAB
  0
TABLE
  2
STYLE
  5
3
330
0
100
AcDbSymbolTable
 70
     1
  0
STYLE
  5
11
330
3
100
AcDbSymbolTableRecord
100
AcDbTextStyleTableRecord
  2
Standard
 70
     0
 40
0.0
 41
1.0
 50
0.0
 71
     0
 42
4.9388888889
  3
txt
  4

  0
ENDTAB
  0
TABLE
  2
VIEW
  5
6
330
0
100
AcDbSymbolTable
 70
     0
  0
ENDTAB
  0
TABLE
  2
UCS
  5
7
330
0
100
AcDbSymbolTable
 70
     0
  0
ENDTAB
  0
TABLE
  2
APPID
  5
9
330
0
100
AcDbSymbolTable
 70
     1
  0
APPID
  5
12
330
9
100
AcDbSymbolTableRecord
100
AcDbRegAppTableRecord
  2
ACAD
 70
     0
  0
ENDTAB
  0
TABLE
  2
DIMSTYLE
  5
A
330
0
100
AcDbSymbolTable
 70
     1
100
AcDbDimStyleTable
  0
DIMSTYLE
105
27
330
A
100
AcDbSymbolTableRecord
100
AcDbDimStyleTableRecord
  2
ISO-25
 70
     0
 41
2.5
 42
0.625
 43
3.75
 44
1.25
 73
     0
 74
     0
 77
     1
 78
     8
140
2.5
141
2.5
143
0.0393700787
147
0.625
171
     3
172
     1
178
     0
271
     2
272
     2
274
     3
278
    44
283
     0
284
     8
340
11
  0
ENDTAB
  0
TABLE
  2
BLOCK_RECORD
  5
1
330
0
100
AcDbSymbolTable
 70
     1
  0
BLOCK_RECORD
  5
1F
330
1
100
AcDbSymbolTableRecord
100
AcDbBlockTableRecord
  2
*Model_Space
340
22
  0
BLOCK_RECORD
  5
1B
330
1
100
AcDbSymbolTableRecord
100
AcDbBlockTableRecord
  2
*Paper_Space
340
1E
  0
BLOCK_RECORD
  5
23
330
1
100
AcDbSymbolTableRecord
100
AcDbBlockTableRecord
  2
*Paper_Space0
340
26
  0
ENDTAB
  0
ENDSEC
  0
SECTION
  2
BLOCKS
  0
BLOCK
  5
20
330
1F
100
AcDbEntity
  8
0
100
AcDbBlockBegin
  2
*Model_Space
 70
     0
 10
0.0
 20
0.0
 30
0.0
  3
*Model_Space
  1

  0
ENDBLK
  5
21
330
1F
100
AcDbEntity
  8
0
100
AcDbBlockEnd
  0
BLOCK
  5
1C
330
1B
100
AcDbEntity
 67
     1
  8
0
100
AcDbBlockBegin
  2
*Paper_Space
 70
     0
 10
0.0
 20
0.0
 30
0.0
  3
*Paper_Space
  1

  0
ENDBLK
  5
1D
330
1B
100
AcDbEntity
 67
     1
  8
0
100
AcDbBlockEnd
  0
BLOCK
  5
24
330
23
100
AcDbEntity
  8
0
100
AcDbBlockBegin
  2
*Paper_Space0
 70
     0
 10
0.0
 20
0.0
 30
0.0
  3
*Paper_Space0
  1

  0
ENDBLK
  5
25
330
23
100
AcDbEntity
  8
0
100
AcDbBlockEnd
  0
ENDSEC
  0
SECTION
  2
ENTITIES
  0
ARC
  5
77
330
1F
100
AcDbEntity
  8
0
  6
Continuous
 62
     7
370
    25
100
AcDbCircle
 10
294.5728174863
 20
766.3078373084
 30
0.0
 40
3.539335092962068
100
AcDbArc
 50
20.0
 51
77.8862128145
  0
ARC
  5
78
330
1F
100
AcDbEntity
  8
0
  6
Continuous
 62
     7
370
    25
100
AcDbCircle
 10
291.724591625
 20
766.3078373084
 30
0.0
 40
3.539335092962056
100
AcDbArc
 50
102.1137871855
 51
160.0
  0
LINE
  5
79
330
1F
100
AcDbEntity
  8
0
  6
Continuous
 62
     7
370
    25
100
AcDbLine
 10
297.8987055266
 20
767.0183693104
 30
0.0
 11
297.8987055266
 21
767.5183330708
 31
0.0
  0
LINE
  5
7A
330
1F
100
AcDbEntity
  8
0
  6
Continuous
 62
     7
370
    25
100
AcDbLine
 10
288.3987011754
 20
767.5183330708
 30
0.0
 11
288.3987011754
 21
767.0183693104
 31
0.0
  0
LINE
  5
7B
330
1F
100
AcDbEntity
  8
0
  6
Continuous
 62
     7
370
    25
100
AcDbLine
 10
128.898705765
 20
767.0183693104
 30
0.0
 11
128.898705765
 21
767.5183330708
 31
0.0
  0
LINE
  5
7C
330
1F
100
AcDbEntity
  8
0
  6
Continuous
 62
     7
370
    25
100
AcDbLine
 10
119.3987014138
 20
767.5183330708
 30
0.0
 11
119.3987014138
 21
767.0183693104
 31
0.0
  0
ARC
  5
7D
330
1F
100
AcDbEntity
  8
0
  6
Continuous
 62
     7
370
    25
100
AcDbCircle
 10
125.5728174863
 20
766.3078373084
 30
0.0
 40
3.539335092961925
100
AcDbArc
 50
20.0
 51
77.8862128145
  0
ARC
  5
7E
330
1F
100
AcDbEntity
  8
0
  6
Continuous
 62
     7
370
    25
100
AcDbCircle
 10
122.724591625
 20
766.3078373084
 30
0.0
 40
3.539335092961886
100
AcDbArc
 50
102.1137871855
 51
160.0
  0
LINE
  5
7F
330
1F
100
AcDbEntity
  8
0
  6
Continuous
 62
     7
370
    25
100
AcDbLine
 10
120.648446902
 20
767.0183693104
 30
0.0
 11
120.648446902
 21
764.0183483296
 31
0.0
  0
LINE
  5
80
330
1F
100
AcDbEntity
  8
0
  6
Continuous
 62
     7
370
    25
100
AcDbLine
 10
120.648446902
 20
767.0183693104
 30
0.0
 11
296.6484459483
 21
767.0183693104
 31
0.0
  0
LINE
  5
81
330
1F
100
AcDbEntity
  8
0
  6
Continuous
 62
     7
370
    25
100
AcDbLine
 10
296.6484459483
 20
764.0183483296
 30
0.0
 11
296.6484459483
 21
767.0183693104
 31
0.0
  0
LINE
  5
82
330
1F
100
AcDbEntity
  8
0
  6
Continuous
 62
     7
370
    25
100
AcDbLine
 10
120.648446902
 20
764.0183483296
 30
0.0
 11
296.6484459483
 21
764.0183483296
 31
0.0
  0
LINE
  5
83
330
1F
100
AcDbEntity
  8
0
  6
Continuous
 62
     7
370
    25
100
AcDbLine
 10
298.6484500015
 20
767.0183693104
 30
0.0
 11
298.6484500015
 21
764.0183483296
 31
0.0
  0
LINE
  5
84
330
1F
100
AcDbEntity
  8
0
  6
Continuous
 62
     7
370
    25
100
AcDbLine
 10
298.6484500015
 20
764.0183483296
 30
0.0
 11
296.6484459483
 21
764.0183483296
 31
0.0
  0
LINE
  5
85
330
1F
100
AcDbEntity
  8
0
  6
Continuous
 62
     7
370
    25
100
AcDbLine
 10
296.6484459483
 20
767.0183693104
 30
0.0
 11
298.6484500015
 21
767.0183693104
 31
0.0
  0
LINE
  5
86
330
1F
100
AcDbEntity
  8
0
  6
Continuous
 62
     7
370
    25
100
AcDbLine
 10
118.6484428489
 20
764.0183483296
 30
0.0
 11
118.6484428489
 21
767.0183693104
 31
0.0
  0
LINE
  5
87
330
1F
100
AcDbEntity
  8
0
  6
Continuous
 62
     7
370
    25
100
AcDbLine
 10
120.648446902
 20
764.0183483296
 30
0.0
 11
118.6484428489
 21
764.0183483296
 31
0.0
  0
LINE
  5
88
330
1F
100
AcDbEntity
  8
0
  6
Continuous
 62
     7
370
    25
100
AcDbLine
 10
118.6484428489
 20
767.0183693104
 30
0.0
 11
120.648446902
 21
767.0183693104
 31
0.0
  0
LINE
  5
89
330
1F
100
AcDbEntity
  8
0
  6
Continuous
 62
     7
370
    25
100
AcDbLine
 10
118.6484428489
 20
764.0183483296
 30
0.0
 11
118.6484428489
 21
271.0183615842
 31
0.0
  0
ARC
  5
8A
330
1F
100
AcDbEntity
  8
0
  6
Continuous
 62
     7
370
    25
100
AcDbCircle
 10
153.3421968647
 20
528.479044593
 30
0.0
 40
0.5000000000000683
100
AcDbArc
 50
100.6357300484
 51
166.3857525776
  0
ARC
  5
8B
330
1F
100
AcDbEntity
  8
0
  6
Continuous
 62
     7
370
    25
100
AcDbCircle
 10
153.3421968647
 20
497.5136539481
 30
0.0
 40
0.500000000000034
100
AcDbArc
 50
193.6142474224
 51
270.0
  0
ARC
  5
8C
330
1F
100
AcDbEntity
  8
0
  6
Continuous
 62
     7
370
    25
100
AcDbCircle
 10
175.2549655619
 20
497.5136539481
 30
0.0
 40
0.5000000000000029
100
AcDbArc
 50
270.0
 51
5.3304051872
  0
ARC
  5
8D
330
1F
100
AcDbEntity
  8
0
  6
Continuous
 62
     7
370
    25
100
AcDbCircle
 10
183.7162911721
 20
498.3031164343
 30
0.0
 40
7.998075199656778
100
AcDbArc
 50
116.4952320155
 51
185.3304051872
  0
ARC
  5
8E
330
1F
100
AcDbEntity
  8
0
  6
Continuous
 62
     7
370
    25
100
AcDbCircle
 10
179.9251014993
 20
505.9086514559
 30
0.0
 40
0.5000000000001344
100
AcDbArc
 50
296.4952320155
 51
0.0
  0
LINE
  5
8F
330
1F
100
AcDbEntity
  8
0
  6
Continuous
 62
     7
370
    25
100
AcDbLine
 10
180.425101369
 20
505.9086446696
 30
0.0
 11
180.425101369
 21
512.3477940493
 31
0.0
  0
ARC
  5
90
330
1F
100
AcDbEntity
  8
0
  6
Continuous
 62
     7
370
    25
100
AcDbCircle
 10
179.9251014993
 20
512.3477873006
 30
0.0
 40
0.5
100
AcDbArc
 50
0.0
 51
80.2971205587
  0
ARC
  5
91
330
1F
100
AcDbEntity
  8
0
  6
Continuous
 62
     7
370
    25
100
AcDbCircle
 10
184.104602319
 20
536.7914774868
 30
0.0
 40
24.29843174518657
100
AcDbArc
 50
191.8057132446
 51
260.2971205587
  0
ARC
  5
92
330
1F
100
AcDbEntity
  8
0
  6
Continuous
 62
     7
370
    25
100
AcDbCircle
 10
159.8307319844
 20
531.7178756106
 30
0.0
 40
0.4999999999999953
100
AcDbArc
 50
11.8057132446
 51
89.194966493
  0
ARC
  5
93
330
1F
100
AcDbEntity
  8
0
  6
Continuous
 62
     7
370
    25
100
AcDbCircle
 10
162.4546903721
 20
542.7171706885
 30
0.0
 40
0.499999999999957
100
AcDbArc
 50
270.0
 51
347.337802534
  0
ARC
  5
94
330
1F
100
AcDbEntity
  8
0
  6
Continuous
 62
     7
370
    25
100
AcDbCircle
 10
177.5777207845
 20
539.3195316339
 30
0.0
 40
14.99999999999998
100
AcDbArc
 50
117.9309268487
 51
167.337802534
  0
ARC
  5
95
330
1F
100
AcDbEntity
  8
0
  6
Continuous
 62
     7
370
    25
100
AcDbCircle
 10
170.3174156796
 20
553.0139819618
 30
0.0
 40
0.5
100
AcDbArc
 50
297.9309268487
 51
0.0
  0
LINE
  5
96
330
1F
100
AcDbEntity
  8
0
  6
Continuous
 62
     7
370
    25
100
AcDbLine
 10
170.8174156391
 20
553.0139719182
 30
0.0
 11
170.8174156391
 21
563.0147074395
 31
0.0
  0
ARC
  5
97
330
1F
100
AcDbEntity
  8
0
  6
Continuous
 62
     7
370
    25
100
AcDbCircle
 10
170.3174156796
 20
563.0147210725
 30
0.0
 40
0.5000000000001575
100
AcDbArc
 50
0.0
 51
62.0690731513
  0
ARC
  5
98
330
1F
100
AcDbEntity
  8
0
  6
Continuous
 62
     7
370
    25
100
AcDbCircle
 10
177.5777207845
 20
576.7091714005
 30
0.0
 40
15.00000000000001
100
AcDbArc
 50
192.662197466
 51
242.0690731513
  0
ARC
  5
99
330
1F
100
AcDbEntity
  8
0
  6
Continuous
 62
     7
370
    25
100
AcDbCircle
 10
162.4546903721
 20
573.3115323459
 30
0.0
 40
0.5000000000000097
100
AcDbArc
 50
12.662197466
 51
90.0
  0
ARC
  5
9A
330
1F
100
AcDbEntity
  8
0
  6
Continuous
 62
     7
370
    25
100
AcDbCircle
 10
159.8307319844
 20
584.3116253731
 30
0.0
 40
0.4999999999999957
100
AcDbArc
 50
270.8048409091
 51
348.1942867554
  0
ARC
  5
9B
330
1F
100
AcDbEntity
  8
0
  6
Continuous
 62
     7
370
    25
100
AcDbCircle
 10
184.104602319
 20
579.2380234968
 30
0.0
 40
24.29843174518657
100
AcDbArc
 50
99.7028794413
 51
168.1942867554
  0
ARC
  5
9C
330
1F
100
AcDbEntity
  8
0
  6
Continuous
 62
     7
370
    25
100
AcDbCircle
 10
179.9251014993
 20
603.681713683
 30
0.0
 40
0.5
100
AcDbArc
 50
279.7028794413
 51
0.0
  0
LINE
  5
9D
330
1F
100
AcDbEntity
  8
0
  6
Continuous
 62
     7
370
    25
100
AcDbLine
 10
180.425101369
 20
603.6817048722
 30
0.0
 11
180.425101369
 21
610.1208542519
 31
0.0
  0
ARC
  5
9E
330
1F
100
AcDbEntity
  8
0
  6
Continuous
 62
     7
370
    25
100
AcDbCircle
 10
179.9251014993
 20
610.1208495278
 30
0.0
 40
0.5
100
AcDbArc
 50
0.0
 51
63.5047679845
  0
ARC
  5
9F
330
1F
100
AcDbEntity
  8
0
  6
Continuous
 62
     7
370
    25
100
AcDbCircle
 10
183.7162911721
 20
617.7263845493
 30
0.0
 40
7.998075199656812
100
AcDbArc
 50
174.6695948128
 51
243.5047679845
  0
ARC
  5
A0
330
1F
100
AcDbEntity
  8
0
  6
Continuous
 62
     7
370
    25
100
AcDbCircle
 10
175.2549655619
 20
618.5158470356
 30
0.0
 40
0.5000000000000135
100
AcDbArc
 50
354.6695948127
 51
90.0
  0
LINE
  5
A1
330
1F
100
AcDbEntity
  8
0
  6
Continuous
 62
     7
370
    25
100
AcDbLine
 10
264.4406477356
 20
528.596750372
 30
0.0
 11
264.4406477356
 21
497.3959689074
 31
0.0
  0
ARC
  5
A2
330
1F
100
AcDbEntity
  8
0
  6
Continuous
 62
     7
370
    25
100
AcDbCircle
 10
265.0973322224
 20
538.9151396405
 30
0.0
 40
10.00000000000007
100
AcDbArc
 50
223.2712998831
 51
263.970793332
  0
ARC
  5
A3
330
1F
100
AcDbEntity
  8
0
  6
Continuous
 62
     7
370
    25
100
AcDbCircle
 10
257.4521121155
 20
531.7178756106
 30
0.0
 40
0.5000000000001482
100
AcDbArc
 50
43.2712998831
 51
89.1950193259
  0
ARC
  5
A4
330
1F
100
AcDbEntity
  8
0
  6
Continuous
 62
     7
370
    25
100
AcDbCircle
 10
263.9406472352
 20
542.7171706885
 30
0.0
 40
0.5000000000000568
100
AcDbArc
 50
270.0
 51
0.0
  0
LINE
  5
A5
330
1F
100
AcDbEntity
  8
0
  6
Continuous
 62
     7
370
    25
100
AcDbLine
 10
264.4406477356
 20
573.3115290337
 30
0.0
 11
264.4406477356
 21
542.7171801263
 31
0.0
  0
ARC
  5
A6
330
1F
100
AcDbEntity
  8
0
  6
Continuous
 62
     7
370
    25
100
AcDbCircle
 10
263.9406472352
 20
573.3115323459
 30
0.0
 40
0.5000000000000568
100
AcDbArc
 50
0.0
 51
90.0
  0
ARC
  5
A7
330
1F
100
AcDbEntity
  8
0
  6
Continuous
 62
     7
370
    25
100
AcDbCircle
 10
257.4521121155
 20
584.3116253731
 30
0.0
 40
0.5000000000000274
100
AcDbArc
 50
270.8048384193
 51
316.7287001169
  0
ARC
  5
A8
330
1F
100
AcDbEntity
  8
0
  6
Continuous
 62
     7
370
    25
100
AcDbCircle
 10
265.0973322224
 20
577.1143613432
 30
0.0
 40
10.00000000000001
100
AcDbArc
 50
96.3245663277
 51
136.7287001169
  0
ARC
  5
A9
330
1F
100
AcDbEntity
  8
0
  6
Continuous
 62
     7
370
    25
100
AcDbCircle
 10
263.9406472352
 20
587.5504563907
 30
0.0
 40
0.5
100
AcDbArc
 50
276.3245663277
 51
0.0
  0
LINE
  5
AA
330
1F
100
AcDbEntity
  8
0
  6
Continuous
 62
     7
370
    25
100
AcDbLine
 10
264.4406477356
 20
618.515840643
 30
0.0
 11
264.4406477356
 21
587.5504528218
 31
0.0
  0
ARC
  5
AB
330
1F
100
AcDbEntity
  8
0
  6
Continuous
 62
     7
370
    25
100
AcDbCircle
 10
263.9406472352
 20
618.5158470356
 30
0.0
 40
0.5
100
AcDbArc
 50
0.0
 51
90.0
  0
ARC
  5
AC
330
1F
100
AcDbEntity
  8
0
  6
Continuous
 62
     7
370
    25
100
AcDbCircle
 10
220.6408905998
 20
497.5161397794
 30
0.0
 40
0.5
100
AcDbArc
 50
270.0
 51
0.0
  0
LINE
  5
AD
330
1F
100
AcDbEntity
  8
0
  6
Continuous
 62
     7
370
    25
100
AcDbLine
 10
221.1408907914
 20
508.5121159487
 30
0.0
 11
221.1408907914
 21
497.5161467725
 31
0.0
  0
ARC
  5
AE
330
1F
100
AcDbEntity
  8
0
  6
Continuous
 62
     7
370
    25
100
AcDbCircle
 10
220.6408905998
 20
508.5121176263
 30
0.0
 40
0.5
100
AcDbArc
 50
0.0
 51
90.0
  0
ARC
  5
AF
330
1F
100
AcDbEntity
  8
0
  6
Continuous
 62
     7
370
    25
100
AcDbCircle
 10
220.6408905998
 20
618.5133612042
 30
0.0
 40
0.5
100
AcDbArc
 50
0.0000000006
 51
90.0
  0
ARC
  5
B0
330
1F
100
AcDbEntity
  8
0
  6
Continuous
 62
     7
370
    25
100
AcDbCircle
 10
220.6408905998
 20
607.5173833574
 30
0.0
 40
0.5
100
AcDbArc
 50
270.0
 51
0.0000000006
  0
LINE
  5
B1
330
1F
100
AcDbEntity
  8
0
  6
Continuous
 62
     7
370
    25
100
AcDbLine
 10
221.1408907914
 20
618.5133670502
 30
0.0
 11
221.1408907914
 21
607.5173829728
 31
0.0
  0
ARC
  5
B2
330
1F
100
AcDbEntity
  8
0
  6
Continuous
 62
     7
370
    25
100
AcDbCircle
 10
205.6407657887
 20
561.0140075761
 30
0.0
 40
0.5
100
AcDbArc
 50
270.0
 51
0.0
  0
LINE
  5
B3
330
1F
100
AcDbEntity
  8
0
  6
Continuous
 62
     7
370
    25
100
AcDbLine
 10
206.1407658638
 20
561.014017933
 30
0.0
 11
206.1407658638
 21
587.1249054604
 31
0.0
  0
ARC
  5
B4
330
1F
100
AcDbEntity
  8
0
  6
Continuous
 62
     7
370
    25
100
AcDbCircle
 10
205.6407657887
 20
587.1249073667
 30
0.0
 40
0.5000000000000314
100
AcDbArc
 50
0.0
 51
75.7168690041
  0
ARC
  5
B5
330
1F
100
AcDbEntity
  8
0
  6
Continuous
 62
     7
370
    25
100
AcDbCircle
 10
213.6589611926
 20
618.6202807168
 30
0.0
 40
31.99999999999999
100
AcDbArc
 50
221.5806148065
 51
255.7168690041
  0
ARC
  5
B6
330
1F
100
AcDbEntity
  8
0
  6
Continuous
 62
     7
370
    25
100
AcDbCircle
 10
189.3482241749
 20
597.0509027552
 30
0.0
 40
0.5000000000000284
100
AcDbArc
 50
41.5806148065
 51
89.1948597105
  0
ARC
  5
B7
330
1F
100
AcDbEntity
  8
0
  6
Continuous
 62
     7
370
    25
100
AcDbCircle
 10
245.8992682666
 20
537.2917426732
 30
0.0
 40
0.5
100
AcDbArc
 50
280.7948019133
 51
0.0
  0
LINE
  5
B8
330
1F
100
AcDbEntity
  8
0
  6
Continuous
 62
     7
370
    25
100
AcDbLine
 10
246.3992679858
 20
543.1958948308
 30
0.0
 11
246.3992679858
 21
537.2917567425
 31
0.0
  0
ARC
  5
B9
330
1F
100
AcDbEntity
  8
0
  6
Continuous
 62
     7
370
    25
100
AcDbCircle
 10
245.8992682666
 20
543.1958956424
 30
0.0
 40
0.5
100
AcDbArc
 50
0.0
 51
61.7543783924
  0
ARC
  5
BA
330
1F
100
AcDbEntity
  8
0
  6
Continuous
 62
     7
370
    25
100
AcDbCircle
 10
253.2346796987
 20
556.8502626773
 30
0.0
 40
15.00000000000007
100
AcDbArc
 50
186.7981675507
 51
241.7543783924
  0
ARC
  5
BB
330
1F
100
AcDbEntity
  8
0
  6
Continuous
 62
     7
370
    25
100
AcDbCircle
 10
237.8436556351
 20
555.0154934075
 30
0.0
 40
0.500000000000009
100
AcDbArc
 50
6.7981675507
 51
90.0
  0
ARC
  5
BC
330
1F
100
AcDbEntity
  8
0
  6
Continuous
 62
     7
370
    25
100
AcDbCircle
 10
227.934619925
 20
518.9785982285
 30
0.0
 40
0.4999999999999893
100
AcDbArc
 50
270.8049701698
 51
350.3059674655
  0
ARC
  5
BD
330
1F
100
AcDbEntity
  8
0
  6
Continuous
 62
     7
370
    25
100
AcDbCircle
 10
250.1133427003
 20
515.1898971243
 30
0.0
 40
21.99999999999999
100
AcDbArc
 50
100.7948019133
 51
170.3059674655
  0
ARC
  5
BE
330
1F
100
AcDbEntity
  8
0
  6
Continuous
 62
     7
370
    25
100
AcDbCircle
 10
189.3482241749
 20
518.9785982285
 30
0.0
 40
0.4999999999999222
100
AcDbArc
 50
270.8048708988
 51
318.4193851935
  0
ARC
  5
BF
330
1F
100
AcDbEntity
  8
0
  6
Continuous
 62
     7
370
    25
100
AcDbCircle
 10
213.6589611926
 20
497.4092202668
 30
0.0
 40
32.00000000000006
100
AcDbArc
 50
104.2831309959
 51
138.4193851935
  0
ARC
  5
C0
330
1F
100
AcDbEntity
  8
0
  6
Continuous
 62
     7
370
    25
100
AcDbCircle
 10
205.6407657887
 20
528.904593617
 30
0.0
 40
0.5000000000000244
100
AcDbArc
 50
284.2831309959
 51
0.0
  0
LINE
  5
C1
330
1F
100
AcDbEntity
  8
0
  6
Continuous
 62
     7
370
    25
100
AcDbLine
 10
206.1407658638
 20
528.9046083623
 30
0.0
 11
206.1407658638
 21
555.0154958897
 31
0.0
  0
ARC
  5
C2
330
1F
100
AcDbEntity
  8
0
  6
Continuous
 62
     7
370
    25
100
AcDbCircle
 10
205.6407657887
 20
555.0154934075
 30
0.0
 40
0.5
100
AcDbArc
 50
0.0
 51
90.0
  0
ARC
  5
C3
330
1F
100
AcDbEntity
  8
0
  6
Continuous
 62
     7
370
    25
100
AcDbCircle
 10
227.934619925
 20
597.0509027552
 30
0.0
 40
0.5000000000000262
100
AcDbArc
 50
9.6940325345
 51
89.1953598387
  0
ARC
  5
C4
330
1F
100
AcDbEntity
  8
0
  6
Continuous
 62
     7
370
    25
100
AcDbCircle
 10
237.8436556351
 20
561.0140075761
 30
0.0
 40
0.500000000000009
100
AcDbArc
 50
270.0
 51
353.2018324493
  0
ARC
  5
C5
330
1F
100
AcDbEntity
  8
0
  6
Continuous
 62
     7
370
    25
100
AcDbCircle
 10
253.2346796987
 20
559.1792383064
 30
0.0
 40
15.00000000000006
100
AcDbArc
 50
118.2456216076
 51
173.2018324493
  0
ARC
  5
C6
330
1F
100
AcDbEntity
  8
0
  6
Continuous
 62
     7
370
    25
100
AcDbCircle
 10
245.8992682666
 20
572.8336053412
 30
0.0
 40
0.5
100
AcDbArc
 50
298.2456216076
 51
0.0
  0
LINE
  5
C7
330
1F
100
AcDbEntity
  8
0
  6
Continuous
 62
     7
370
    25
100
AcDbLine
 10
246.3992679858
 20
578.7377570801
 30
0.0
 11
246.3992679858
 21
572.8336189919
 31
0.0
  0
ARC
  5
C8
330
1F
100
AcDbEntity
  8
0
  6
Continuous
 62
     7
370
    25
100
AcDbCircle
 10
245.8992682666
 20
578.7377583104
 30
0.0
 40
0.5000000000001077
100
AcDbArc
 50
0.0
 51
79.2051980867
  0
ARC
  5
C9
330
1F
100
AcDbEntity
  8
0
  6
Continuous
 62
     7
370
    25
100
AcDbCircle
 10
250.1133427003
 20
600.8396038593
 30
0.0
 40
22.0000000000001
100
AcDbArc
 50
189.6940325345
 51
259.2051980867
  0
ARC
  5
CA
330
1F
100
AcDbEntity
  8
0
  6
Continuous
 62
     7
370
    25
100
AcDbCircle
 10
263.9406472352
 20
410.7157755503
 30
0.0
 40
0.5
100
AcDbArc
 50
270.0
 51
0.0
  0
LINE
  5
CB
330
1F
100
AcDbEntity
  8
0
  6
Continuous
 62
     7
370
    25
100
AcDbLine
 10
264.4406477356
 20
410.7157801324
 30
0.0
 11
264.4406477356
 21
441.310143941
 31
0.0
  0
ARC
  5
CC
330
1F
100
AcDbEntity
  8
0
  6
Continuous
 62
     7
370
    25
100
AcDbCircle
 10
263.9406472352
 20
441.3101372077
 30
0.0
 40
0.5
100
AcDbArc
 50
0.0
 51
90.0
  0
ARC
  5
CD
330
1F
100
AcDbEntity
  8
0
  6
Continuous
 62
     7
370
    25
100
AcDbCircle
 10
245.8992682666
 20
440.8314122537
 30
0.0
 40
0.4999999999999485
100
AcDbArc
 50
298.2456216076
 51
0.0
  0
LINE
  5
CE
330
1F
100
AcDbEntity
  8
0
  6
Continuous
 62
     7
370
    25
100
AcDbLine
 10
246.3992679858
 20
440.8314143353
 30
0.0
 11
246.3992679858
 21
446.7355673247
 31
0.0
  0
ARC
  5
CF
330
1F
100
AcDbEntity
  8
0
  6
Continuous
 62
     7
370
    25
100
AcDbCircle
 10
245.8992682666
 20
446.7355652229
 30
0.0
 40
0.5
100
AcDbArc
 50
0.0
 51
79.2051980867
  0
ARC
  5
D0
330
1F
100
AcDbEntity
  8
0
  6
Continuous
 62
     7
370
    25
100
AcDbCircle
 10
250.1133427003
 20
468.8374107718
 30
0.0
 40
21.99999999999999
100
AcDbArc
 50
189.6940325345
 51
259.2051980867
  0
ARC
  5
D1
330
1F
100
AcDbEntity
  8
0
  6
Continuous
 62
     7
370
    25
100
AcDbCircle
 10
227.934619925
 20
465.0487096676
 30
0.0
 40
0.4999999999999924
100
AcDbArc
 50
9.6940325345
 51
89.1153214487
  0
ARC
  5
D2
330
1F
100
AcDbEntity
  8
0
  6
Continuous
 62
     7
370
    25
100
AcDbCircle
 10
237.8436556351
 20
429.0118144886
 30
0.0
 40
0.4999999999999741
100
AcDbArc
 50
270.0
 51
353.2018324493
  0
ARC
  5
D3
330
1F
100
AcDbEntity
  8
0
  6
Continuous
 62
     7
370
    25
100
AcDbCircle
 10
253.2346796987
 20
427.1770452188
 30
0.0
 40
15.0000000000001
100
AcDbArc
 50
118.2456216076
 51
173.2018324493
  0
ARC
  5
D4
330
1F
100
AcDbEntity
  8
0
  6
Continuous
 62
     7
370
    25
100
AcDbCircle
 10
205.6407657887
 20
429.0118144886
 30
0.0
 40
0.5
100
AcDbArc
 50
270.0
 51
0.0
  0
LINE
  5
D5
330
1F
100
AcDbEntity
  8
0
  6
Continuous
 62
     7
370
    25
100
AcDbLine
 10
206.1407658638
 20
429.0118132764
 30
0.0
 11
206.1407658638
 21
455.122715705
 31
0.0
  0
ARC
  5
D6
330
1F
100
AcDbEntity
  8
0
  6
Continuous
 62
     7
370
    25
100
AcDbCircle
 10
205.6407657887
 20
455.1227142792
 30
0.0
 40
0.5000000000000244
100
AcDbArc
 50
0.0
 51
75.7168690041
  0
ARC
  5
D7
330
1F
100
AcDbEntity
  8
0
  6
Continuous
 62
     7
370
    25
100
AcDbCircle
 10
213.6589611926
 20
486.6180876293
 30
0.0
 40
32.00000000000006
100
AcDbArc
 50
221.5806148065
 51
255.7168690041
  0
ARC
  5
D8
330
1F
100
AcDbEntity
  8
0
  6
Continuous
 62
     7
370
    25
100
AcDbCircle
 10
189.3482241749
 20
465.0487096676
 30
0.0
 40
0.499999999999994
100
AcDbArc
 50
41.5806148065
 51
89.2348941698
  0
ARC
  5
D9
330
1F
100
AcDbEntity
  8
0
  6
Continuous
 62
     7
370
    25
100
AcDbCircle
 10
162.4546903721
 20
410.7157755503
 30
0.0
 40
0.5
100
AcDbArc
 50
270.0
 51
347.337802534
  0
ARC
  5
DA
330
1F
100
AcDbEntity
  8
0
  6
Continuous
 62
     7
370
    25
100
AcDbCircle
 10
177.5777207845
 20
407.3181364957
 30
0.0
 40
15.00000000000005
100
AcDbArc
 50
117.9309268487
 51
167.337802534
  0
ARC
  5
DB
330
1F
100
AcDbEntity
  8
0
  6
Continuous
 62
     7
370
    25
100
AcDbCircle
 10
170.3174156796
 20
421.0125868236
 30
0.0
 40
0.5000000000001575
100
AcDbArc
 50
297.9309268487
 51
0.0
  0
LINE
  5
DC
330
1F
100
AcDbEntity
  8
0
  6
Continuous
 62
     7
370
    25
100
AcDbLine
 10
170.8174156391
 20
421.0125868254
 30
0.0
 11
170.8174156391
 21
431.0133223468
 31
0.0
  0
ARC
  5
DD
330
1F
100
AcDbEntity
  8
0
  6
Continuous
 62
     7
370
    25
100
AcDbCircle
 10
170.3174156796
 20
431.0133259343
 30
0.0
 40
0.5
100
AcDbArc
 50
0.0
 51
62.0690731513
  0
ARC
  5
DE
330
1F
100
AcDbEntity
  8
0
  6
Continuous
 62
     7
370
    25
100
AcDbCircle
 10
177.5777207845
 20
444.7077762623
 30
0.0
 40
14.99999999999999
100
AcDbArc
 50
192.662197466
 51
242.0690731513
  0
ARC
  5
DF
330
1F
100
AcDbEntity
  8
0
  6
Continuous
 62
     7
370
    25
100
AcDbCircle
 10
162.4546903721
 20
441.3101372077
 30
0.0
 40
0.4999999999999972
100
AcDbArc
 50
12.662197466
 51
90.0
  0
ARC
  5
E0
330
1F
100
AcDbEntity
  8
0
  6
Continuous
 62
     7
370
    25
100
AcDbCircle
 10
179.9251014993
 20
471.6795205955
 30
0.0
 40
0.5
100
AcDbArc
 50
279.7028794413
 51
0.0
  0
LINE
  5
E1
330
1F
100
AcDbEntity
  8
0
  6
Continuous
 62
     7
370
    25
100
AcDbLine
 10
180.425101369
 20
471.6795151168
 30
0.0
 11
180.425101369
 21
478.1186495953
 31
0.0
  0
ARC
  5
E2
330
1F
100
AcDbEntity
  8
0
  6
Continuous
 62
     7
370
    25
100
AcDbCircle
 10
179.9251014993
 20
478.1186564403
 30
0.0
 40
0.5000000000000709
100
AcDbArc
 50
0.0
 51
63.5047679845
  0
ARC
  5
E3
330
1F
100
AcDbEntity
  8
0
  6
Continuous
 62
     7
370
    25
100
AcDbCircle
 10
183.7162911721
 20
485.7241914618
 30
0.0
 40
7.998075199656807
100
AcDbArc
 50
174.6695948128
 51
243.5047679845
  0
ARC
  5
E4
330
1F
100
AcDbEntity
  8
0
  6
Continuous
 62
     7
370
    25
100
AcDbCircle
 10
175.2549655619
 20
486.5136539481
 30
0.0
 40
0.4999999999999799
100
AcDbArc
 50
354.6695948128
 51
90.0
  0
ARC
  5
E5
330
1F
100
AcDbEntity
  8
0
  6
Continuous
 62
     7
370
    25
100
AcDbCircle
 10
153.3421968647
 20
486.5136539481
 30
0.0
 40
0.5000000000000197
100
AcDbArc
 50
90.0
 51
166.3857525776
  0
ARC
  5
E6
330
1F
100
AcDbEntity
  8
0
  6
Continuous
 62
     7
370
    25
100
AcDbCircle
 10
153.3421968647
 20
455.5482633031
 30
0.0
 40
0.5000000000000172
100
AcDbArc
 50
193.6142474224
 51
259.3642699518
  0
ARC
  5
E7
330
1F
100
AcDbEntity
  8
0
  6
Continuous
 62
     7
370
    25
100
AcDbCircle
 10
159.8307319844
 20
452.3094322855
 30
0.0
 40
0.4999999999999122
100
AcDbArc
 50
315.1744607893
 51
348.1942867554
  0
ARC
  5
E8
330
1F
100
AcDbEntity
  8
0
  6
Continuous
 62
     7
370
    25
100
AcDbCircle
 10
184.104602319
 20
447.2358304093
 30
0.0
 40
24.29843174518667
100
AcDbArc
 50
99.7028794413
 51
168.1942867554
  0
ARC
  5
E9
330
1F
100
AcDbEntity
  8
0
  6
Continuous
 62
     7
370
    25
100
AcDbCircle
 10
220.6408905998
 20
475.5151902698
 30
0.0
 40
0.4999999999999716
100
AcDbArc
 50
270.0
 51
0.0
  0
LINE
  5
EA
330
1F
100
AcDbEntity
  8
0
  6
Continuous
 62
     7
370
    25
100
AcDbLine
 10
221.1408907914
 20
475.5151932173
 30
0.0
 11
221.1408907914
 21
486.5111623936
 31
0.0
  0
ARC
  5
EB
330
1F
100
AcDbEntity
  8
0
  6
Continuous
 62
     7
370
    25
100
AcDbCircle
 10
220.6408905998
 20
486.5111681167
 30
0.0
 40
0.5
100
AcDbArc
 50
0.0
 51
90.0
  0
ARC
  5
EC
330
1F
100
AcDbEntity
  8
0
  6
Continuous
 62
     7
370
    25
100
AcDbCircle
 10
257.4521121155
 20
452.3094322855
 30
0.0
 40
0.4999999999999573
100
AcDbArc
 50
270.5278841856
 51
316.7287001169
  0
ARC
  5
ED
330
1F
100
AcDbEntity
  8
0
  6
Continuous
 62
     7
370
    25
100
AcDbCircle
 10
265.0973322224
 20
445.1121682557
 30
0.0
 40
9.999999999999988
100
AcDbArc
 50
96.0292066657
 51
136.7287001169
  0
LINE
  5
EE
330
1F
100
AcDbEntity
  8
0
  6
Continuous
 62
     7
370
    25
100
AcDbLine
 10
264.4406477356
 20
455.4305736953
 30
0.0
 11
264.4406477356
 21
486.6313402587
 31
0.0
  0
ARC
  5
EF
330
1F
100
AcDbEntity
  8
0
  6
Continuous
 62
     7
370
    25
100
AcDbCircle
 10
175.2549655619
 20
365.5114608605
 30
0.0
 40
0.4999999999999799
100
AcDbArc
 50
270.0
 51
5.3304051872
  0
ARC
  5
F0
330
1F
100
AcDbEntity
  8
0
  6
Continuous
 62
     7
370
    25
100
AcDbCircle
 10
183.7162911721
 20
366.3009233468
 30
0.0
 40
7.998075199656807
100
AcDbArc
 50
116.4952320155
 51
185.3304051872
  0
ARC
  5
F1
330
1F
100
AcDbEntity
  8
0
  6
Continuous
 62
     7
370
    25
100
AcDbCircle
 10
179.9251014993
 20
373.9064583683
 30
0.0
 40
0.5000000000000709
100
AcDbArc
 50
296.4952320155
 51
0.0
  0
LINE
  5
F2
330
1F
100
AcDbEntity
  8
0
  6
Continuous
 62
     7
370
    25
100
AcDbLine
 10
180.425101369
 20
373.9064549142
 30
0.0
 11
180.425101369
 21
380.3455968433
 31
0.0
  0
ARC
  5
F3
330
1F
100
AcDbEntity
  8
0
  6
Continuous
 62
     7
370
    25
100
AcDbCircle
 10
179.9251014993
 20
380.3455942131
 30
0.0
 40
0.5
100
AcDbArc
 50
0.0
 51
80.2971205587
  0
ARC
  5
F4
330
1F
100
AcDbEntity
  8
0
  6
Continuous
 62
     7
370
    25
100
AcDbCircle
 10
184.104602319
 20
404.7892843993
 30
0.0
 40
24.29843174518663
100
AcDbArc
 50
191.8057132446
 51
260.2971205587
  0
ARC
  5
F5
330
1F
100
AcDbEntity
  8
0
  6
Continuous
 62
     7
370
    25
100
AcDbCircle
 10
159.8307319844
 20
399.715682523
 30
0.0
 40
0.4999999999999122
100
AcDbArc
 50
11.8057132446
 51
89.1950333075
  0
ARC
  5
F6
330
1F
100
AcDbEntity
  8
0
  6
Continuous
 62
     7
370
    25
100
AcDbCircle
 10
257.4521121155
 20
399.715682523
 30
0.0
 40
0.4999999999999262
100
AcDbArc
 50
43.2712998831
 51
89.0486994669
  0
ARC
  5
F7
330
1F
100
AcDbEntity
  8
0
  6
Continuous
 62
     7
370
    25
100
AcDbCircle
 10
263.9406472352
 20
365.5114608605
 30
0.0
 40
0.5
100
AcDbArc
 50
270.0
 51
0.0
  0
LINE
  5
F8
330
1F
100
AcDbEntity
  8
0
  6
Continuous
 62
     7
370
    25
100
AcDbLine
 10
264.4406477356
 20
365.5114610725
 30
0.0
 11
264.4406477356
 21
396.4768563443
 31
0.0
  0
ARC
  5
F9
330
1F
100
AcDbEntity
  8
0
  6
Continuous
 62
     7
370
    25
100
AcDbCircle
 10
263.9406472352
 20
396.4768515054
 30
0.0
 40
0.4999999999999845
100
AcDbArc
 50
0.0
 51
83.6754336723
  0
ARC
  5
FA
330
1F
100
AcDbEntity
  8
0
  6
Continuous
 62
     7
370
    25
100
AcDbCircle
 10
265.0973322224
 20
406.9129465529
 30
0.0
 40
10.00000000000004
100
AcDbArc
 50
223.2712998831
 51
263.6754336723
  0
ARC
  5
FB
330
1F
100
AcDbEntity
  8
0
  6
Continuous
 62
     7
370
    25
100
AcDbCircle
 10
205.6407657887
 20
396.9024005294
 30
0.0
 40
0.5000000000000314
100
AcDbArc
 50
284.2831309959
 51
0.0
  0
LINE
  5
FC
330
1F
100
AcDbEntity
  8
0
  6
Continuous
 62
     7
370
    25
100
AcDbLine
 10
206.1407658638
 20
396.9024037057
 30
0.0
 11
206.1407658638
 21
423.0133061343
 31
0.0
  0
ARC
  5
FD
330
1F
100
AcDbEntity
  8
0
  6
Continuous
 62
     7
370
    25
100
AcDbCircle
 10
205.6407657887
 20
423.01330032
 30
0.0
 40
0.5
100
AcDbArc
 50
0.0
 51
90.0
  0
ARC
  5
FE
330
1F
100
AcDbEntity
  8
0
  6
Continuous
 62
     7
370
    25
100
AcDbCircle
 10
189.3482241749
 20
386.976405141
 30
0.0
 40
0.4999999999999888
100
AcDbArc
 50
270.8197514622
 51
318.4193851935
  0
ARC
  5
FF
330
1F
100
AcDbEntity
  8
0
  6
Continuous
 62
     7
370
    25
100
AcDbCircle
 10
213.6589611926
 20
365.4070271793
 30
0.0
 40
32.00000000000005
100
AcDbArc
 50
104.2831309959
 51
138.4193851935
  0
ARC
  5
100
330
1F
100
AcDbEntity
  8
0
  6
Continuous
 62
     7
370
    25
100
AcDbCircle
 10
245.8992682666
 20
405.2895495857
 30
0.0
 40
0.5
100
AcDbArc
 50
280.7948019133
 51
0.0
  0
LINE
  5
101
330
1F
100
AcDbEntity
  8
0
  6
Continuous
 62
     7
370
    25
100
AcDbLine
 10
246.3992679858
 20
405.2895520859
 30
0.0
 11
246.3992679858
 21
411.1937050753
 31
0.0
  0
ARC
  5
102
330
1F
100
AcDbEntity
  8
0
  6
Continuous
 62
     7
370
    25
100
AcDbCircle
 10
245.8992682666
 20
411.1937025549
 30
0.0
 40
0.4999999999999432
100
AcDbArc
 50
0.0
 51
61.7543783924
  0
ARC
  5
103
330
1F
100
AcDbEntity
  8
0
  6
Continuous
 62
     7
370
    25
100
AcDbCircle
 10
253.2346796987
 20
424.8480695897
 30
0.0
 40
15.0000000000001
100
AcDbArc
 50
186.7981675507
 51
241.7543783924
  0
ARC
  5
104
330
1F
100
AcDbEntity
  8
0
  6
Continuous
 62
     7
370
    25
100
AcDbCircle
 10
237.8436556351
 20
423.01330032
 30
0.0
 40
0.4999999999999741
100
AcDbArc
 50
6.7981675507
 51
90.0
  0
ARC
  5
105
330
1F
100
AcDbEntity
  8
0
  6
Continuous
 62
     7
370
    25
100
AcDbCircle
 10
227.934619925
 20
386.976405141
 30
0.0
 40
0.4999999999999906
100
AcDbArc
 50
270.7753329227
 51
350.3059674655
  0
ARC
  5
106
330
1F
100
AcDbEntity
  8
0
  6
Continuous
 62
     7
370
    25
100
AcDbCircle
 10
250.1133427003
 20
383.1877040368
 30
0.0
 40
21.99999999999997
100
AcDbArc
 50
100.7948019133
 51
170.3059674655
  0
ARC
  5
107
330
1F
100
AcDbEntity
  8
0
  6
Continuous
 62
     7
370
    25
100
AcDbCircle
 10
220.6408905998
 20
365.5139466919
 30
0.0
 40
0.5
100
AcDbArc
 50
270.0
 51
0.0
  0
LINE
  5
108
330
1F
100
AcDbEntity
  8
0
  6
Continuous
 62
     7
370
    25
100
AcDbLine
 10
221.1408907914
 20
365.5139495664
 30
0.0
 11
221.1408907914
 21
376.5099261933
 31
0.0
  0
ARC
  5
109
330
1F
100
AcDbEntity
  8
0
  6
Continuous
 62
     7
370
    25
100
AcDbCircle
 10
220.6408905998
 20
376.5099245387
 30
0.0
 40
0.4999999999999716
100
AcDbArc
 50
0.0
 51
90.0
  0
LINE
  5
10A
330
1F
100
AcDbEntity
  8
0
  6
Continuous
 62
     7
370
    25
100
AcDbLine
 10
148.8554695987
 20
271.0183615842
 30
0.0
 11
148.8554695987
 21
764.0183483296
 31
0.0
  0
ARC
  5
10B
330
1F
100
AcDbEntity
  8
0
  6
Continuous
 62
     7
370
    25
100
AcDbCircle
 10
237.8577043855
 20
555.0154934075
 30
0.0
 40
0.500000000000009
100
AcDbArc
 50
6.7981675507
 51
90.0
  0
LINE
  5
10C
330
1F
100
AcDbEntity
  8
0
  6
Continuous
 62
     7
370
    25
100
AcDbLine
 10
211.6561270685
 20
555.5154894524
 30
0.0
 11
237.85770446
 21
555.5154894524
 31
0.0
  0
ARC
  5
10D
330
1F
100
AcDbEntity
  8
0
  6
Continuous
 62
     7
370
    25
100
AcDbCircle
 10
211.6561270617
 20
555.0154934075
 30
0.0
 40
0.5
100
AcDbArc
 50
90.0
 51
180.0
  0
LINE
  5
10E
330
1F
100
AcDbEntity
  8
0
  6
Continuous
 62
     7
370
    25
100
AcDbLine
 10
211.1561269866
 20
528.9046083623
 30
0.0
 11
211.1561269866
 21
555.0154958897
 31
0.0
  0
ARC
  5
10F
330
1F
100
AcDbEntity
  8
0
  6
Continuous
 62
     7
370
    25
100
AcDbCircle
 10
211.6561270617
 20
528.904593617
 30
0.0
 40
0.5000000000000314
100
AcDbArc
 50
180.0
 51
255.7168690041
  0
ARC
  5
110
330
1F
100
AcDbEntity
  8
0
  6
Continuous
 62
     7
370
    25
100
AcDbCircle
 10
203.6379316577
 20
497.4092202668
 30
0.0
 40
32.00000000000005
100
AcDbArc
 50
41.5806148065
 51
75.7168690041
  0
ARC
  5
111
330
1F
100
AcDbEntity
  8
0
  6
Continuous
 62
     7
370
    25
100
AcDbCircle
 10
227.9486686755
 20
518.9785982285
 30
0.0
 40
0.4999999999999893
100
AcDbArc
 50
221.5806148065
 51
350.3059674655
  0
ARC
  5
112
330
1F
100
AcDbEntity
  8
0
  6
Continuous
 62
     7
370
    25
100
AcDbCircle
 10
250.1273914508
 20
515.1898971243
 30
0.0
 40
21.99999999999998
100
AcDbArc
 50
100.7948019133
 51
170.3059674655
  0
ARC
  5
113
330
1F
100
AcDbEntity
  8
0
  6
Continuous
 62
     7
370
    25
100
AcDbCircle
 10
245.9133170171
 20
537.2917426732
 30
0.0
 40
0.5
100
AcDbArc
 50
280.7948019133
 51
0.0
  0
LINE
  5
114
330
1F
100
AcDbEntity
  8
0
  6
Continuous
 62
     7
370
    25
100
AcDbLine
 10
246.4133160555
 20
543.1958948308
 30
0.0
 11
246.4133160555
 21
537.2917567425
 31
0.0
  0
ARC
  5
115
330
1F
100
AcDbEntity
  8
0
  6
Continuous
 62
     7
370
    25
100
AcDbCircle
 10
245.9133170171
 20
543.1958956424
 30
0.0
 40
0.5
100
AcDbArc
 50
0.0
 51
61.7543783924
  0
ARC
  5
116
330
1F
100
AcDbEntity
  8
0
  6
Continuous
 62
     7
370
    25
100
AcDbCircle
 10
253.2487284491
 20
556.8502626773
 30
0.0
 40
15.00000000000005
100
AcDbArc
 50
186.7981675507
 51
241.7543783924
  0
ARC
  5
117
330
1F
100
AcDbEntity
  8
0
  6
Continuous
 62
     7
370
    25
100
AcDbCircle
 10
237.3717913511
 20
505.9086514559
 30
0.0
 40
0.5000000000001218
100
AcDbArc
 50
180.0
 51
243.5047679845
  0
ARC
  5
118
330
1F
100
AcDbEntity
  8
0
  6
Continuous
 62
     7
370
    25
100
AcDbCircle
 10
233.5806016782
 20
498.3031164343
 30
0.0
 40
7.998075199656778
100
AcDbArc
 50
354.6695948128
 51
63.5047679845
  0
ARC
  5
119
330
1F
100
AcDbEntity
  8
0
  6
Continuous
 62
     7
370
    25
100
AcDbCircle
 10
242.0419272884
 20
497.5136539481
 30
0.0
 40
0.5000000000000029
100
AcDbArc
 50
174.6695948128
 51
270.0
  0
LINE
  5
11A
330
1F
100
AcDbEntity
  8
0
  6
Continuous
 62
     7
370
    25
100
AcDbLine
 10
263.954694792
 20
497.0136498147
 30
0.0
 11
242.0419263088
 21
497.0136498147
 31
0.0
  0
ARC
  5
11B
330
1F
100
AcDbEntity
  8
0
  6
Continuous
 62
     7
370
    25
100
AcDbCircle
 10
263.9546959857
 20
497.5136539481
 30
0.0
 40
0.4999999999999432
100
AcDbArc
 50
270.0
 51
0.0
  0
LINE
  5
11C
330
1F
100
AcDbEntity
  8
0
  6
Continuous
 62
     7
370
    25
100
AcDbLine
 10
264.4546958053
 20
528.4790311986
 30
0.0
 11
264.4546958053
 21
497.5136582785
 31
0.0
  0
ARC
  5
11D
330
1F
100
AcDbEntity
  8
0
  6
Continuous
 62
     7
370
    25
100
AcDbCircle
 10
263.9546959857
 20
528.479044593
 30
0.0
 40
0.5
100
AcDbArc
 50
0.0
 51
83.6754336722
  0
ARC
  5
11E
330
1F
100
AcDbEntity
  8
0
  6
Continuous
 62
     7
370
    25
100
AcDbCircle
 10
265.1113809729
 20
538.9151396405
 30
0.0
 40
10.00000000000008
100
AcDbArc
 50
223.2712998831
 51
263.6754336723
  0
ARC
  5
11F
330
1F
100
AcDbEntity
  8
0
  6
Continuous
 62
     7
370
    25
100
AcDbCircle
 10
257.4661608659
 20
531.7178756106
 30
0.0
 40
0.4999999999999957
100
AcDbArc
 50
43.2712998831
 51
168.1942867554
  0
ARC
  5
120
330
1F
100
AcDbEntity
  8
0
  6
Continuous
 62
     7
370
    25
100
AcDbCircle
 10
233.1922905313
 20
536.7914774868
 30
0.0
 40
24.29843174518657
100
AcDbArc
 50
279.7028794413
 51
348.1942867554
  0
ARC
  5
121
330
1F
100
AcDbEntity
  8
0
  6
Continuous
 62
     7
370
    25
100
AcDbCircle
 10
237.3717913511
 20
512.3477873006
 30
0.0
 40
0.5
100
AcDbArc
 50
99.7028794413
 51
180.0
  0
LINE
  5
122
330
1F
100
AcDbEntity
  8
0
  6
Continuous
 62
     7
370
    25
100
AcDbLine
 10
236.8717914814
 20
505.9086446696
 30
0.0
 11
236.8717914814
 21
512.3477940493
 31
0.0
  0
ARC
  5
123
330
1F
100
AcDbEntity
  8
0
  6
Continuous
 62
     7
370
    25
100
AcDbCircle
 10
211.6561270617
 20
587.1249073667
 30
0.0
 40
0.5000000000000244
100
AcDbArc
 50
104.2831309959
 51
180.0
  0
LINE
  5
124
330
1F
100
AcDbEntity
  8
0
  6
Continuous
 62
     7
370
    25
100
AcDbLine
 10
211.1561269866
 20
561.014017933
 30
0.0
 11
211.1561269866
 21
587.1249054604
 31
0.0
  0
ARC
  5
125
330
1F
100
AcDbEntity
  8
0
  6
Continuous
 62
     7
370
    25
100
AcDbCircle
 10
211.6561270617
 20
561.0140075761
 30
0.0
 40
0.5
100
AcDbArc
 50
180.0
 51
270.0
  0
LINE
  5
126
330
1F
100
AcDbEntity
  8
0
  6
Continuous
 62
     7
370
    25
100
AcDbLine
 10
237.85770446
 20
560.5139945679
 30
0.0
 11
211.6561270685
 21
560.5139945679
 31
0.0
  0
ARC
  5
127
330
1F
100
AcDbEntity
  8
0
  6
Continuous
 62
     7
370
    25
100
AcDbCircle
 10
237.8577043855
 20
561.0140075761
 30
0.0
 40
0.500000000000009
100
AcDbArc
 50
270.0
 51
353.2018324493
  0
ARC
  5
128
330
1F
100
AcDbEntity
  8
0
  6
Continuous
 62
     7
370
    25
100
AcDbCircle
 10
253.2487284491
 20
559.1792383064
 30
0.0
 40
15.00000000000008
100
AcDbArc
 50
118.2456216076
 51
173.2018324493
  0
ARC
  5
129
330
1F
100
AcDbEntity
  8
0
  6
Continuous
 62
     7
370
    25
100
AcDbCircle
 10
245.9133170171
 20
572.8336053412
 30
0.0
 40
0.5000000000001137
100
AcDbArc
 50
298.2456216076
 51
0.0
  0
LINE
  5
12A
330
1F
100
AcDbEntity
  8
0
  6
Continuous
 62
     7
370
    25
100
AcDbLine
 10
246.4133160555
 20
578.7377570801
 30
0.0
 11
246.4133160555
 21
572.8336189919
 31
0.0
  0
ARC
  5
12B
330
1F
100
AcDbEntity
  8
0
  6
Continuous
 62
     7
370
    25
100
AcDbCircle
 10
245.9133170171
 20
578.7377583104
 30
0.0
 40
0.500000000000113
100
AcDbArc
 50
0.0
 51
79.2051980867
  0
ARC
  5
12C
330
1F
100
AcDbEntity
  8
0
  6
Continuous
 62
     7
370
    25
100
AcDbCircle
 10
250.1273914508
 20
600.8396038593
 30
0.0
 40
22.0000000000001
100
AcDbArc
 50
189.6940325345
 51
259.2051980867
  0
ARC
  5
12D
330
1F
100
AcDbEntity
  8
0
  6
Continuous
 62
     7
370
    25
100
AcDbCircle
 10
227.9486686755
 20
597.0509027552
 30
0.0
 40
0.5000000000000072
100
AcDbArc
 50
9.6940325345
 51
138.4193851935
  0
ARC
  5
12E
330
1F
100
AcDbEntity
  8
0
  6
Continuous
 62
     7
370
    25
100
AcDbCircle
 10
203.6379316577
 20
618.6202807168
 30
0.0
 40
32.00000000000001
100
AcDbArc
 50
284.2831309959
 51
318.4193851935
  0
ARC
  5
12F
330
1F
100
AcDbEntity
  8
0
  6
Continuous
 62
     7
370
    25
100
AcDbCircle
 10
254.8422024782
 20
542.7171706885
 30
0.0
 40
0.4999999999999847
100
AcDbArc
 50
192.662197466
 51
270.0
  0
LINE
  5
130
330
1F
100
AcDbEntity
  8
0
  6
Continuous
 62
     7
370
    25
100
AcDbLine
 10
263.954694792
 20
542.2171567612
 30
0.0
 11
254.8422025883
 21
542.2171567612
 31
0.0
  0
ARC
  5
131
330
1F
100
AcDbEntity
  8
0
  6
Continuous
 62
     7
370
    25
100
AcDbCircle
 10
263.9546959857
 20
542.7171706885
 30
0.0
 40
0.5
100
AcDbArc
 50
270.0
 51
0.0
  0
LINE
  5
132
330
1F
100
AcDbEntity
  8
0
  6
Continuous
 62
     7
370
    25
100
AcDbLine
 10
264.4546958053
 20
573.3115290337
 30
0.0
 11
264.4546958053
 21
542.7171801263
 31
0.0
  0
ARC
  5
133
330
1F
100
AcDbEntity
  8
0
  6
Continuous
 62
     7
370
    25
100
AcDbCircle
 10
263.9546959857
 20
573.3115323459
 30
0.0
 40
0.5
100
AcDbArc
 50
0.0
 51
90.0
  0
LINE
  5
134
330
1F
100
AcDbEntity
  8
0
  6
Continuous
 62
     7
370
    25
100
AcDbLine
 10
254.8422025883
 20
573.8115225964
 30
0.0
 11
263.954694792
 21
573.8115225964
 31
0.0
  0
ARC
  5
135
330
1F
100
AcDbEntity
  8
0
  6
Continuous
 62
     7
370
    25
100
AcDbCircle
 10
254.8422024782
 20
573.3115323459
 30
0.0
 40
0.5000000000000374
100
AcDbArc
 50
90.0
 51
167.337802534
  0
ARC
  5
136
330
1F
100
AcDbEntity
  8
0
  6
Continuous
 62
     7
370
    25
100
AcDbCircle
 10
239.7191720658
 20
576.7091714005
 30
0.0
 40
14.99999999999998
100
AcDbArc
 50
297.9309268487
 51
347.337802534
  0
ARC
  5
137
330
1F
100
AcDbEntity
  8
0
  6
Continuous
 62
     7
370
    25
100
AcDbCircle
 10
246.9794771707
 20
563.0147210725
 30
0.0
 40
0.5000000000001709
100
AcDbArc
 50
117.9309268487
 51
180.0
  0
LINE
  5
138
330
1F
100
AcDbEntity
  8
0
  6
Continuous
 62
     7
370
    25
100
AcDbLine
 10
246.4794772112
 20
553.0139719182
 30
0.0
 11
246.4794772112
 21
563.0147074395
 31
0.0
  0
ARC
  5
139
330
1F
100
AcDbEntity
  8
0
  6
Continuous
 62
     7
370
    25
100
AcDbCircle
 10
246.9794771707
 20
553.0139819618
 30
0.0
 40
0.5
100
AcDbArc
 50
180.0
 51
242.0690731513
  0
ARC
  5
13A
330
1F
100
AcDbEntity
  8
0
  6
Continuous
 62
     7
370
    25
100
AcDbCircle
 10
239.7191720658
 20
539.3195316339
 30
0.0
 40
15.00000000000001
100
AcDbArc
 50
12.662197466
 51
62.0690731513
  0
ARC
  5
13B
330
1F
100
AcDbEntity
  8
0
  6
Continuous
 62
     7
370
    25
100
AcDbCircle
 10
237.3717913511
 20
603.681713683
 30
0.0
 40
0.4999999999998895
100
AcDbArc
 50
180.0
 51
260.2971205587
  0
ARC
  5
13C
330
1F
100
AcDbEntity
  8
0
  6
Continuous
 62
     7
370
    25
100
AcDbCircle
 10
233.1922905313
 20
579.2380234968
 30
0.0
 40
24.29843174518656
100
AcDbArc
 50
11.8057132446
 51
80.2971205587
  0
ARC
  5
13D
330
1F
100
AcDbEntity
  8
0
  6
Continuous
 62
     7
370
    25
100
AcDbCircle
 10
257.4661608659
 20
584.3116253731
 30
0.0
 40
0.5000000000000736
100
AcDbArc
 50
191.8057132446
 51
316.7287001169
  0
ARC
  5
13E
330
1F
100
AcDbEntity
  8
0
  6
Continuous
 62
     7
370
    25
100
AcDbCircle
 10
265.1113809729
 20
577.1143613432
 30
0.0
 40
9.999999999999954
100
AcDbArc
 50
96.3245663277
 51
136.7287001169
  0
ARC
  5
13F
330
1F
100
AcDbEntity
  8
0
  6
Continuous
 62
     7
370
    25
100
AcDbCircle
 10
263.9546959857
 20
587.5504563907
 30
0.0
 40
0.5
100
AcDbArc
 50
276.3245663278
 51
0.0
  0
LINE
  5
140
330
1F
100
AcDbEntity
  8
0
  6
Continuous
 62
     7
370
    25
100
AcDbLine
 10
264.4546958053
 20
618.515840643
 30
0.0
 11
264.4546958053
 21
587.5504528218
 31
0.0
  0
ARC
  5
141
330
1F
100
AcDbEntity
  8
0
  6
Continuous
 62
     7
370
    25
100
AcDbCircle
 10
263.9546959857
 20
618.5158470356
 30
0.0
 40
0.5
100
AcDbArc
 50
0.0
 51
90.0
  0
LINE
  5
142
330
1F
100
AcDbEntity
  8
0
  6
Continuous
 62
     7
370
    25
100
AcDbLine
 10
242.0419263088
 20
619.0158342057
 30
0.0
 11
263.954694792
 21
619.0158342057
 31
0.0
  0
ARC
  5
143
330
1F
100
AcDbEntity
  8
0
  6
Continuous
 62
     7
370
    25
100
AcDbCircle
 10
242.0419272884
 20
618.5158470356
 30
0.0
 40
0.5000000000000135
100
AcDbArc
 50
90.0
 51
185.3304051873
  0
ARC
  5
144
330
1F
100
AcDbEntity
  8
0
  6
Continuous
 62
     7
370
    25
100
AcDbCircle
 10
233.5806016782
 20
617.7263845493
 30
0.0
 40
7.998075199656812
100
AcDbArc
 50
296.4952320155
 51
5.3304051872
  0
ARC
  5
145
330
1F
100
AcDbEntity
  8
0
  6
Continuous
 62
     7
370
    25
100
AcDbCircle
 10
237.3717913511
 20
610.1208495278
 30
0.0
 40
0.4999999999999182
100
AcDbArc
 50
116.4952320155
 51
180.0
  0
LINE
  5
146
330
1F
100
AcDbEntity
  8
0
  6
Continuous
 62
     7
370
    25
100
AcDbLine
 10
236.8717914814
 20
603.6817048722
 30
0.0
 11
236.8717914814
 21
610.1208542519
 31
0.0
  0
ARC
  5
147
330
1F
100
AcDbEntity
  8
0
  6
Continuous
 62
     7
370
    25
100
AcDbCircle
 10
205.6548145391
 20
528.904593617
 30
0.0
 40
0.5000000000000244
100
AcDbArc
 50
284.2831309959
 51
0.0
  0
LINE
  5
148
330
1F
100
AcDbEntity
  8
0
  6
Continuous
 62
     7
370
    25
100
AcDbLine
 10
206.154814632
 20
528.9046083623
 30
0.0
 11
206.154814632
 21
555.0154958897
 31
0.0
  0
ARC
  5
149
330
1F
100
AcDbEntity
  8
0
  6
Continuous
 62
     7
370
    25
100
AcDbCircle
 10
205.6548145391
 20
555.0154934075
 30
0.0
 40
0.5
100
AcDbArc
 50
0.0
 51
90.0
  0
LINE
  5
14A
330
1F
100
AcDbEntity
  8
0
  6
Continuous
 62
     7
370
    25
100
AcDbLine
 10
205.65481455
 20
555.5154894524
 30
0.0
 11
179.4532364601
 21
555.5154894524
 31
0.0
  0
ARC
  5
14B
330
1F
100
AcDbEntity
  8
0
  6
Continuous
 62
     7
370
    25
100
AcDbCircle
 10
179.4532372153
 20
555.0154934075
 30
0.0
 40
0.500000000000009
100
AcDbArc
 50
90.0
 51
173.2018324493
  0
ARC
  5
14C
330
1F
100
AcDbEntity
  8
0
  6
Continuous
 62
     7
370
    25
100
AcDbCircle
 10
164.0622131517
 20
556.8502626773
 30
0.0
 40
15.00000000000007
100
AcDbArc
 50
298.2456216076
 51
353.2018324493
  0
ARC
  5
14D
330
1F
100
AcDbEntity
  8
0
  6
Continuous
 62
     7
370
    25
100
AcDbCircle
 10
171.3976245837
 20
543.1958956424
 30
0.0
 40
0.5
100
AcDbArc
 50
118.2456216076
 51
180.0
  0
LINE
  5
14E
330
1F
100
AcDbEntity
  8
0
  6
Continuous
 62
     7
370
    25
100
AcDbLine
 10
170.8976248646
 20
543.1958948308
 30
0.0
 11
170.8976248646
 21
537.2917567425
 31
0.0
  0
ARC
  5
14F
330
1F
100
AcDbEntity
  8
0
  6
Continuous
 62
     7
370
    25
100
AcDbCircle
 10
171.3976245837
 20
537.2917426732
 30
0.0
 40
0.5
100
AcDbArc
 50
180.0
 51
259.2051980867
  0
ARC
  5
150
330
1F
100
AcDbEntity
  8
0
  6
Continuous
 62
     7
370
    25
100
AcDbCircle
 10
167.18355015
 20
515.1898971243
 30
0.0
 40
21.99999999999999
100
AcDbArc
 50
9.6940325345
 51
79.2051980867
  0
ARC
  5
151
330
1F
100
AcDbEntity
  8
0
  6
Continuous
 62
     7
370
    25
100
AcDbCircle
 10
189.3622729253
 20
518.9785982285
 30
0.0
 40
0.4999999999999893
100
AcDbArc
 50
189.6940325345
 51
318.4193851935
  0
ARC
  5
152
330
1F
100
AcDbEntity
  8
0
  6
Continuous
 62
     7
370
    25
100
AcDbCircle
 10
213.6730099431
 20
497.4092202668
 30
0.0
 40
32.00000000000006
100
AcDbArc
 50
104.2831309959
 51
138.4193851935
  0
ARC
  5
153
330
1F
100
AcDbEntity
  8
0
  6
Continuous
 62
     7
370
    25
100
AcDbCircle
 10
159.8447807349
 20
531.7178756106
 30
0.0
 40
0.49999999999994
100
AcDbArc
 50
11.8057132446
 51
136.7287001169
  0
ARC
  5
154
330
1F
100
AcDbEntity
  8
0
  6
Continuous
 62
     7
370
    25
100
AcDbCircle
 10
152.1995606279
 20
538.9151396405
 30
0.0
 40
10.00000000000011
100
AcDbArc
 50
273.7652373089
 51
316.7287001169
  0
LINE
  5
155
330
1F
100
AcDbEntity
  8
0
  6
Continuous
 62
     7
370
    25
100
AcDbLine
 10
152.8562451148
 20
528.9367352658
 30
0.0
 11
152.8562451148
 21
497.0136498147
 31
0.0
  0
LINE
  5
156
330
1F
100
AcDbEntity
  8
0
  6
Continuous
 62
     7
370
    25
100
AcDbLine
 10
152.8562451148
 20
497.0136498147
 30
0.0
 11
175.2690146112
 21
497.0136498147
 31
0.0
  0
ARC
  5
157
330
1F
100
AcDbEntity
  8
0
  6
Continuous
 62
     7
370
    25
100
AcDbCircle
 10
175.2690143124
 20
497.5136539481
 30
0.0
 40
0.5000000000000029
100
AcDbArc
 50
270.0
 51
5.3304051872
  0
ARC
  5
158
330
1F
100
AcDbEntity
  8
0
  6
Continuous
 62
     7
370
    25
100
AcDbCircle
 10
183.7303399226
 20
498.3031164343
 30
0.0
 40
7.998075199656807
100
AcDbArc
 50
116.4952320155
 51
185.3304051872
  0
ARC
  5
159
330
1F
100
AcDbEntity
  8
0
  6
Continuous
 62
     7
370
    25
100
AcDbCircle
 10
179.9391502498
 20
505.9086514559
 30
0.0
 40
0.5000000000001218
100
AcDbArc
 50
296.4952320155
 51
0.0
  0
LINE
  5
15A
330
1F
100
AcDbEntity
  8
0
  6
Continuous
 62
     7
370
    25
100
AcDbLine
 10
180.4391494387
 20
505.9086446696
 30
0.0
 11
180.4391494387
 21
512.3477940493
 31
0.0
  0
ARC
  5
15B
330
1F
100
AcDbEntity
  8
0
  6
Continuous
 62
     7
370
    25
100
AcDbCircle
 10
179.9391502498
 20
512.3477873006
 30
0.0
 40
0.5
100
AcDbArc
 50
0.0
 51
80.2971205587
  0
ARC
  5
15C
330
1F
100
AcDbEntity
  8
0
  6
Continuous
 62
     7
370
    25
100
AcDbCircle
 10
184.1186510695
 20
536.7914774868
 30
0.0
 40
24.29843174518656
100
AcDbArc
 50
191.8057132446
 51
260.2971205587
  0
ARC
  5
15D
330
1F
100
AcDbEntity
  8
0
  6
Continuous
 62
     7
370
    25
100
AcDbCircle
 10
171.3976245837
 20
572.8336053412
 30
0.0
 40
0.5
100
AcDbArc
 50
180.0
 51
241.7543783924
  0
ARC
  5
15E
330
1F
100
AcDbEntity
  8
0
  6
Continuous
 62
     7
370
    25
100
AcDbCircle
 10
164.0622131517
 20
559.1792383064
 30
0.0
 40
15.00000000000006
100
AcDbArc
 50
6.7981675507
 51
61.7543783924
  0
ARC
  5
15F
330
1F
100
AcDbEntity
  8
0
  6
Continuous
 62
     7
370
    25
100
AcDbCircle
 10
179.4532372153
 20
561.0140075761
 30
0.0
 40
0.500000000000009
100
AcDbArc
 50
186.7981675507
 51
270.0
  0
LINE
  5
160
330
1F
100
AcDbEntity
  8
0
  6
Continuous
 62
     7
370
    25
100
AcDbLine
 10
179.4532364601
 20
560.5139945679
 30
0.0
 11
205.65481455
 21
560.5139945679
 31
0.0
  0
ARC
  5
161
330
1F
100
AcDbEntity
  8
0
  6
Continuous
 62
     7
370
    25
100
AcDbCircle
 10
205.6548145391
 20
561.0140075761
 30
0.0
 40
0.5
100
AcDbArc
 50
270.0
 51
0.0
  0
LINE
  5
162
330
1F
100
AcDbEntity
  8
0
  6
Continuous
 62
     7
370
    25
100
AcDbLine
 10
206.154814632
 20
561.014017933
 30
0.0
 11
206.154814632
 21
587.1249054604
 31
0.0
  0
ARC
  5
163
330
1F
100
AcDbEntity
  8
0
  6
Continuous
 62
     7
370
    25
100
AcDbCircle
 10
205.6548145391
 20
587.1249073667
 30
0.0
 40
0.5000000000000174
100
AcDbArc
 50
0.0
 51
75.7168690041
  0
ARC
  5
164
330
1F
100
AcDbEntity
  8
0
  6
Continuous
 62
     7
370
    25
100
AcDbCircle
 10
213.6730099431
 20
618.6202807168
 30
0.0
 40
31.99999999999999
100
AcDbArc
 50
221.5806148065
 51
255.7168690041
  0
ARC
  5
165
330
1F
100
AcDbEntity
  8
0
  6
Continuous
 62
     7
370
    25
100
AcDbCircle
 10
189.3622729253
 20
597.0509027552
 30
0.0
 40
0.5000000000000284
100
AcDbArc
 50
41.5806148065
 51
170.3059674655
  0
ARC
  5
166
330
1F
100
AcDbEntity
  8
0
  6
Continuous
 62
     7
370
    25
100
AcDbCircle
 10
167.18355015
 20
600.8396038593
 30
0.0
 40
22.0000000000001
100
AcDbArc
 50
280.7948019133
 51
350.3059674655
  0
ARC
  5
167
330
1F
100
AcDbEntity
  8
0
  6
Continuous
 62
     7
370
    25
100
AcDbCircle
 10
171.3976245837
 20
578.7377583104
 30
0.0
 40
0.5000000000001077
100
AcDbArc
 50
100.7948019133
 51
180.0
  0
LINE
  5
168
330
1F
100
AcDbEntity
  8
0
  6
Continuous
 62
     7
370
    25
100
AcDbLine
 10
170.8976248646
 20
578.7377570801
 30
0.0
 11
170.8976248646
 21
572.8336189919
 31
0.0
  0
ARC
  5
169
330
1F
100
AcDbEntity
  8
0
  6
Continuous
 62
     7
370
    25
100
AcDbCircle
 10
153.3562456152
 20
573.3115323459
 30
0.0
 40
0.5
100
AcDbArc
 50
90.0
 51
180.0
  0
LINE
  5
16A
330
1F
100
AcDbEntity
  8
0
  6
Continuous
 62
     7
370
    25
100
AcDbLine
 10
152.8562451148
 20
573.3115290337
 30
0.0
 11
152.8562451148
 21
542.7171801263
 31
0.0
  0
ARC
  5
16B
330
1F
100
AcDbEntity
  8
0
  6
Continuous
 62
     7
370
    25
100
AcDbCircle
 10
153.3562456152
 20
542.7171706885
 30
0.0
 40
0.5
100
AcDbArc
 50
180.0
 51
270.0
  0
LINE
  5
16C
330
1F
100
AcDbEntity
  8
0
  6
Continuous
 62
     7
370
    25
100
AcDbLine
 10
153.3562461281
 20
542.2171567612
 30
0.0
 11
162.4687383318
 21
542.2171567612
 31
0.0
  0
ARC
  5
16D
330
1F
100
AcDbEntity
  8
0
  6
Continuous
 62
     7
370
    25
100
AcDbCircle
 10
162.4687391226
 20
542.7171706885
 30
0.0
 40
0.5000000000000124
100
AcDbArc
 50
270.0
 51
347.337802534
  0
ARC
  5
16E
330
1F
100
AcDbEntity
  8
0
  6
Continuous
 62
     7
370
    25
100
AcDbCircle
 10
177.591769535
 20
539.3195316339
 30
0.0
 40
15.00000000000001
100
AcDbArc
 50
117.9309268487
 51
167.337802534
  0
ARC
  5
16F
330
1F
100
AcDbEntity
  8
0
  6
Continuous
 62
     7
370
    25
100
AcDbCircle
 10
170.3314644301
 20
553.0139819618
 30
0.0
 40
0.5
100
AcDbArc
 50
297.9309268487
 51
0.0
  0
LINE
  5
170
330
1F
100
AcDbEntity
  8
0
  6
Continuous
 62
     7
370
    25
100
AcDbLine
 10
170.8314637089
 20
553.0139719182
 30
0.0
 11
170.8314637089
 21
563.0147074395
 31
0.0
  0
ARC
  5
171
330
1F
100
AcDbEntity
  8
0
  6
Continuous
 62
     7
370
    25
100
AcDbCircle
 10
170.3314644301
 20
563.0147210725
 30
0.0
 40
0.5000000000001309
100
AcDbArc
 50
0.0
 51
62.0690731514
  0
ARC
  5
172
330
1F
100
AcDbEntity
  8
0
  6
Continuous
 62
     7
370
    25
100
AcDbCircle
 10
177.591769535
 20
576.7091714005
 30
0.0
 40
14.99999999999998
100
AcDbArc
 50
192.662197466
 51
242.0690731513
  0
ARC
  5
173
330
1F
100
AcDbEntity
  8
0
  6
Continuous
 62
     7
370
    25
100
AcDbCircle
 10
162.4687391226
 20
573.3115323459
 30
0.0
 40
0.5000000000000374
100
AcDbArc
 50
12.662197466
 51
90.0
  0
LINE
  5
174
330
1F
100
AcDbEntity
  8
0
  6
Continuous
 62
     7
370
    25
100
AcDbLine
 10
162.4687383318
 20
573.8115225964
 30
0.0
 11
153.3562461281
 21
573.8115225964
 31
0.0
  0
ARC
  5
175
330
1F
100
AcDbEntity
  8
0
  6
Continuous
 62
     7
370
    25
100
AcDbCircle
 10
175.2690143124
 20
618.5158470356
 30
0.0
 40
0.5000000000000417
100
AcDbArc
 50
354.6695948127
 51
90.0
  0
LINE
  5
176
330
1F
100
AcDbEntity
  8
0
  6
Continuous
 62
     7
370
    25
100
AcDbLine
 10
175.2690146112
 20
619.0158342057
 30
0.0
 11
153.3562461281
 21
619.0158342057
 31
0.0
  0
ARC
  5
177
330
1F
100
AcDbEntity
  8
0
  6
Continuous
 62
     7
370
    25
100
AcDbCircle
 10
153.3562456152
 20
618.5158470356
 30
0.0
 40
0.5
100
AcDbArc
 50
90.0
 51
180.0
  0
LINE
  5
178
330
1F
100
AcDbEntity
  8
0
  6
Continuous
 62
     7
370
    25
100
AcDbLine
 10
152.8562451148
 20
618.515840643
 30
0.0
 11
152.8562451148
 21
587.5504528218
 31
0.0
  0
ARC
  5
179
330
1F
100
AcDbEntity
  8
0
  6
Continuous
 62
     7
370
    25
100
AcDbCircle
 10
153.3562456152
 20
587.5504563907
 30
0.0
 40
0.5
100
AcDbArc
 50
180.0
 51
263.6754336722
  0
ARC
  5
17A
330
1F
100
AcDbEntity
  8
0
  6
Continuous
 62
     7
370
    25
100
AcDbCircle
 10
152.1995606279
 20
577.1143613432
 30
0.0
 40
9.999999999999995
100
AcDbArc
 50
43.2712998831
 51
83.6754336723
  0
ARC
  5
17B
330
1F
100
AcDbEntity
  8
0
  6
Continuous
 62
     7
370
    25
100
AcDbCircle
 10
159.8447807349
 20
584.3116253731
 30
0.0
 40
0.5000000000000688
100
AcDbArc
 50
223.2712998831
 51
348.1942867554
  0
ARC
  5
17C
330
1F
100
AcDbEntity
  8
0
  6
Continuous
 62
     7
370
    25
100
AcDbCircle
 10
184.1186510695
 20
579.2380234968
 30
0.0
 40
24.29843174518657
100
AcDbArc
 50
99.7028794413
 51
168.1942867554
  0
ARC
  5
17D
330
1F
100
AcDbEntity
  8
0
  6
Continuous
 62
     7
370
    25
100
AcDbCircle
 10
179.9391502498
 20
603.681713683
 30
0.0
 40
0.5
100
AcDbArc
 50
279.7028794413
 51
0.0
  0
LINE
  5
17E
330
1F
100
AcDbEntity
  8
0
  6
Continuous
 62
     7
370
    25
100
AcDbLine
 10
180.4391494387
 20
603.6817048722
 30
0.0
 11
180.4391494387
 21
610.1208542519
 31
0.0
  0
ARC
  5
17F
330
1F
100
AcDbEntity
  8
0
  6
Continuous
 62
     7
370
    25
100
AcDbCircle
 10
179.9391502498
 20
610.1208495278
 30
0.0
 40
0.5000000000000582
100
AcDbArc
 50
0.0
 51
63.5047679845
  0
ARC
  5
180
330
1F
100
AcDbEntity
  8
0
  6
Continuous
 62
     7
370
    25
100
AcDbCircle
 10
183.7303399226
 20
617.7263845493
 30
0.0
 40
7.998075199656778
100
AcDbArc
 50
174.6695948128
 51
243.5047679845
  0
ARC
  5
181
330
1F
100
AcDbEntity
  8
0
  6
Continuous
 62
     7
370
    25
100
AcDbCircle
 10
196.6560022505
 20
618.5133612042
 30
0.0
 40
0.5
100
AcDbArc
 50
90.0
 51
179.9999999994
  0
LINE
  5
182
330
1F
100
AcDbEntity
  8
0
  6
Continuous
 62
     7
370
    25
100
AcDbLine
 10
196.156002059
 20
618.5133670502
 30
0.0
 11
196.156002059
 21
607.5173829728
 31
0.0
  0
ARC
  5
183
330
1F
100
AcDbEntity
  8
0
  6
Continuous
 62
     7
370
    25
100
AcDbCircle
 10
196.6560022505
 20
607.5173833574
 30
0.0
 40
0.5
100
AcDbArc
 50
179.9999999994
 51
270.0
  0
LINE
  5
184
330
1F
100
AcDbEntity
  8
0
  6
Continuous
 62
     7
370
    25
100
AcDbLine
 10
196.6560021409
 20
607.0173894101
 30
0.0
 11
220.6549397105
 21
607.0173894101
 31
0.0
  0
ARC
  5
185
330
1F
100
AcDbEntity
  8
0
  6
Continuous
 62
     7
370
    25
100
AcDbCircle
 10
220.6549393503
 20
607.5173833574
 30
0.0
 40
0.5
100
AcDbArc
 50
270.0
 51
0.0
  0
LINE
  5
186
330
1F
100
AcDbEntity
  8
0
  6
Continuous
 62
     7
370
    25
100
AcDbLine
 10
221.1549397924
 20
618.5133670502
 30
0.0
 11
221.1549397924
 21
607.5173829728
 31
0.0
  0
ARC
  5
187
330
1F
100
AcDbEntity
  8
0
  6
Continuous
 62
     7
370
    25
100
AcDbCircle
 10
220.6549393503
 20
618.5133612042
 30
0.0
 40
0.5
100
AcDbArc
 50
0.0
 51
90.0
  0
LINE
  5
188
330
1F
100
AcDbEntity
  8
0
  6
Continuous
 62
     7
370
    25
100
AcDbLine
 10
220.6549397105
 20
619.0133606129
 30
0.0
 11
196.6560021409
 21
619.0133606129
 31
0.0
  0
ARC
  5
189
330
1F
100
AcDbEntity
  8
0
  6
Continuous
 62
     7
370
    25
100
AcDbCircle
 10
196.6560022505
 20
508.5121176263
 30
0.0
 40
0.5
100
AcDbArc
 50
90.0
 51
180.0
  0
LINE
  5
18A
330
1F
100
AcDbEntity
  8
0
  6
Continuous
 62
     7
370
    25
100
AcDbLine
 10
196.156002059
 20
508.5121159487
 30
0.0
 11
196.156002059
 21
497.5161467725
 31
0.0
  0
ARC
  5
18B
330
1F
100
AcDbEntity
  8
0
  6
Continuous
 62
     7
370
    25
100
AcDbCircle
 10
196.6560022505
 20
497.5161397794
 30
0.0
 40
0.5
100
AcDbArc
 50
180.0
 51
270.0
  0
LINE
  5
18C
330
1F
100
AcDbEntity
  8
0
  6
Continuous
 62
     7
370
    25
100
AcDbLine
 10
196.6560021409
 20
497.0161383086
 30
0.0
 11
220.6549397105
 21
497.0161383086
 31
0.0
  0
ARC
  5
18D
330
1F
100
AcDbEntity
  8
0
  6
Continuous
 62
     7
370
    25
100
AcDbCircle
 10
220.6549393503
 20
497.5161397794
 30
0.0
 40
0.5
100
AcDbArc
 50
270.0
 51
0.0
  0
LINE
  5
18E
330
1F
100
AcDbEntity
  8
0
  6
Continuous
 62
     7
370
    25
100
AcDbLine
 10
221.1549397924
 20
508.5121159487
 30
0.0
 11
221.1549397924
 21
497.5161467725
 31
0.0
  0
ARC
  5
18F
330
1F
100
AcDbEntity
  8
0
  6
Continuous
 62
     7
370
    25
100
AcDbCircle
 10
220.6549393503
 20
508.5121176263
 30
0.0
 40
0.4999999999999716
100
AcDbArc
 50
0.0
 51
90.0
  0
LINE
  5
190
330
1F
100
AcDbEntity
  8
0
  6
Continuous
 62
     7
370
    25
100
AcDbLine
 10
220.6549397105
 20
509.0121244126
 30
0.0
 11
196.6560021409
 21
509.0121244126
 31
0.0
  0
LINE
  5
191
330
1F
100
AcDbEntity
  8
0
  6
Continuous
 62
     7
370
    25
100
AcDbLine
 10
149.355470612
 20
764.0183483296
 30
0.0
 11
267.955470308
 21
764.0183483296
 31
0.0
  0
ARC
  5
192
330
1F
100
AcDbEntity
  8
0
  6
Continuous
 62
     7
370
    25
100
AcDbCircle
 10
162.4687391226
 20
410.7157755503
 30
0.0
 40
0.5
100
AcDbArc
 50
270.0
 51
347.337802534
  0
ARC
  5
193
330
1F
100
AcDbEntity
  8
0
  6
Continuous
 62
     7
370
    25
100
AcDbCircle
 10
177.591769535
 20
407.3181364957
 30
0.0
 40
15.00000000000005
100
AcDbArc
 50
117.9309268487
 51
167.337802534
  0
ARC
  5
194
330
1F
100
AcDbEntity
  8
0
  6
Continuous
 62
     7
370
    25
100
AcDbCircle
 10
170.3314644301
 20
421.0125868236
 30
0.0
 40
0.5000000000001575
100
AcDbArc
 50
297.9309268487
 51
0.0
  0
LINE
  5
195
330
1F
100
AcDbEntity
  8
0
  6
Continuous
 62
     7
370
    25
100
AcDbLine
 10
170.8314637089
 20
431.0133223468
 30
0.0
 11
170.8314637089
 21
421.0125868254
 31
0.0
  0
ARC
  5
196
330
1F
100
AcDbEntity
  8
0
  6
Continuous
 62
     7
370
    25
100
AcDbCircle
 10
170.3314644301
 20
431.0133259343
 30
0.0
 40
0.5
100
AcDbArc
 50
0.0
 51
62.0690731513
  0
ARC
  5
197
330
1F
100
AcDbEntity
  8
0
  6
Continuous
 62
     7
370
    25
100
AcDbCircle
 10
177.591769535
 20
444.7077762623
 30
0.0
 40
15.0
100
AcDbArc
 50
192.662197466
 51
242.0690731513
  0
ARC
  5
198
330
1F
100
AcDbEntity
  8
0
  6
Continuous
 62
     7
370
    25
100
AcDbCircle
 10
162.4687391226
 20
441.3101372077
 30
0.0
 40
0.4999999999999972
100
AcDbArc
 50
12.662197466
 51
90.0
  0
LINE
  5
199
330
1F
100
AcDbEntity
  8
0
  6
Continuous
 62
     7
370
    25
100
AcDbLine
 10
153.3562461281
 20
441.8101375037
 30
0.0
 11
162.4687383318
 21
441.8101375037
 31
0.0
  0
ARC
  5
19A
330
1F
100
AcDbEntity
  8
0
  6
Continuous
 62
     7
370
    25
100
AcDbCircle
 10
153.3562456152
 20
441.3101372077
 30
0.0
 40
0.5
100
AcDbArc
 50
90.0
 51
180.0
  0
LINE
  5
19B
330
1F
100
AcDbEntity
  8
0
  6
Continuous
 62
     7
370
    25
100
AcDbLine
 10
152.8562451148
 20
410.7157801324
 30
0.0
 11
152.8562451148
 21
441.310143941
 31
0.0
  0
ARC
  5
19C
330
1F
100
AcDbEntity
  8
0
  6
Continuous
 62
     7
370
    25
100
AcDbCircle
 10
153.3562456152
 20
410.7157755503
 30
0.0
 40
0.5
100
AcDbArc
 50
180.0
 51
270.0
  0
LINE
  5
19D
330
1F
100
AcDbEntity
  8
0
  6
Continuous
 62
     7
370
    25
100
AcDbLine
 10
162.4687383318
 20
410.2157716685
 30
0.0
 11
153.3562461281
 21
410.2157716685
 31
0.0
  0
LINE
  5
19E
330
1F
100
AcDbEntity
  8
0
  6
Continuous
 62
     7
370
    25
100
AcDbLine
 10
205.65481455
 20
428.5118197137
 30
0.0
 11
179.4532364601
 21
428.5118197137
 31
0.0
  0
ARC
  5
19F
330
1F
100
AcDbEntity
  8
0
  6
Continuous
 62
     7
370
    25
100
AcDbCircle
 10
205.6548145391
 20
429.0118144886
 30
0.0
 40
0.5
100
AcDbArc
 50
270.0
 51
0.0
  0
LINE
  5
1A0
330
1F
100
AcDbEntity
  8
0
  6
Continuous
 62
     7
370
    25
100
AcDbLine
 10
206.154814632
 20
455.122715705
 30
0.0
 11
206.154814632
 21
429.0118132764
 31
0.0
  0
ARC
  5
1A1
330
1F
100
AcDbEntity
  8
0
  6
Continuous
 62
     7
370
    25
100
AcDbCircle
 10
205.6548145391
 20
455.1227142792
 30
0.0
 40
0.5000000000000284
100
AcDbArc
 50
0.0
 51
75.7168690041
  0
ARC
  5
1A2
330
1F
100
AcDbEntity
  8
0
  6
Continuous
 62
     7
370
    25
100
AcDbCircle
 10
213.6730099431
 20
486.6180876293
 30
0.0
 40
32.00000000000006
100
AcDbArc
 50
221.5806148065
 51
255.7168690041
  0
ARC
  5
1A3
330
1F
100
AcDbEntity
  8
0
  6
Continuous
 62
     7
370
    25
100
AcDbCircle
 10
189.3622729253
 20
465.0487096676
 30
0.0
 40
0.4999999999999434
100
AcDbArc
 50
41.5806148065
 51
170.3059674655
  0
ARC
  5
1A4
330
1F
100
AcDbEntity
  8
0
  6
Continuous
 62
     7
370
    25
100
AcDbCircle
 10
167.18355015
 20
468.8374107718
 30
0.0
 40
21.99999999999998
100
AcDbArc
 50
280.7948019133
 51
350.3059674655
  0
ARC
  5
1A5
330
1F
100
AcDbEntity
  8
0
  6
Continuous
 62
     7
370
    25
100
AcDbCircle
 10
171.3976245837
 20
446.7355652229
 30
0.0
 40
0.5
100
AcDbArc
 50
100.7948019133
 51
180.0
  0
LINE
  5
1A6
330
1F
100
AcDbEntity
  8
0
  6
Continuous
 62
     7
370
    25
100
AcDbLine
 10
170.8976248646
 20
440.8314143353
 30
0.0
 11
170.8976248646
 21
446.7355673247
 31
0.0
  0
ARC
  5
1A7
330
1F
100
AcDbEntity
  8
0
  6
Continuous
 62
     7
370
    25
100
AcDbCircle
 10
171.3976245837
 20
440.8314122537
 30
0.0
 40
0.4999999999999432
100
AcDbArc
 50
180.0
 51
241.7543783924
  0
ARC
  5
1A8
330
1F
100
AcDbEntity
  8
0
  6
Continuous
 62
     7
370
    25
100
AcDbCircle
 10
164.0622131517
 20
427.1770452188
 30
0.0
 40
15.0000000000001
100
AcDbArc
 50
6.7981675507
 51
61.7543783924
  0
ARC
  5
1A9
330
1F
100
AcDbEntity
  8
0
  6
Continuous
 62
     7
370
    25
100
AcDbCircle
 10
179.4532372153
 20
429.0118144886
 30
0.0
 40
0.4999999999999741
100
AcDbArc
 50
186.7981675507
 51
270.0
  0
ARC
  5
1AA
330
1F
100
AcDbEntity
  8
0
  6
Continuous
 62
     7
370
    25
100
AcDbCircle
 10
245.9133170171
 20
440.8314122537
 30
0.0
 40
0.5
100
AcDbArc
 50
298.2456216076
 51
0.0
  0
LINE
  5
1AB
330
1F
100
AcDbEntity
  8
0
  6
Continuous
 62
     7
370
    25
100
AcDbLine
 10
246.4133160555
 20
446.7355673247
 30
0.0
 11
246.4133160555
 21
440.8314143353
 31
0.0
  0
ARC
  5
1AC
330
1F
100
AcDbEntity
  8
0
  6
Continuous
 62
     7
370
    25
100
AcDbCircle
 10
245.9133170171
 20
446.7355652229
 30
0.0
 40
0.4999999999999147
100
AcDbArc
 50
0.0
 51
79.2051980867
  0
ARC
  5
1AD
330
1F
100
AcDbEntity
  8
0
  6
Continuous
 62
     7
370
    25
100
AcDbCircle
 10
250.1273914508
 20
468.8374107718
 30
0.0
 40
22.0
100
AcDbArc
 50
189.6940325345
 51
259.2051980867
  0
ARC
  5
1AE
330
1F
100
AcDbEntity
  8
0
  6
Continuous
 62
     7
370
    25
100
AcDbCircle
 10
227.9486686755
 20
465.0487096676
 30
0.0
 40
0.4999999999999238
100
AcDbArc
 50
9.6940325345
 51
138.4193851935
  0
ARC
  5
1AF
330
1F
100
AcDbEntity
  8
0
  6
Continuous
 62
     7
370
    25
100
AcDbCircle
 10
203.6379316577
 20
486.6180876293
 30
0.0
 40
32.00000000000005
100
AcDbArc
 50
284.2831309959
 51
318.4193851935
  0
ARC
  5
1B0
330
1F
100
AcDbEntity
  8
0
  6
Continuous
 62
     7
370
    25
100
AcDbCircle
 10
211.6561270617
 20
455.1227142792
 30
0.0
 40
0.5000000000000314
100
AcDbArc
 50
104.2831309959
 51
180.0
  0
LINE
  5
1B1
330
1F
100
AcDbEntity
  8
0
  6
Continuous
 62
     7
370
    25
100
AcDbLine
 10
211.1561269866
 20
429.0118132764
 30
0.0
 11
211.1561269866
 21
455.122715705
 31
0.0
  0
ARC
  5
1B2
330
1F
100
AcDbEntity
  8
0
  6
Continuous
 62
     7
370
    25
100
AcDbCircle
 10
211.6561270617
 20
429.0118144886
 30
0.0
 40
0.4999999999999432
100
AcDbArc
 50
180.0
 51
270.0
  0
LINE
  5
1B3
330
1F
100
AcDbEntity
  8
0
  6
Continuous
 62
     7
370
    25
100
AcDbLine
 10
237.85770446
 20
428.5118197137
 30
0.0
 11
211.6561270685
 21
428.5118197137
 31
0.0
  0
ARC
  5
1B4
330
1F
100
AcDbEntity
  8
0
  6
Continuous
 62
     7
370
    25
100
AcDbCircle
 10
237.8577043855
 20
429.0118144886
 30
0.0
 40
0.4999999999999458
100
AcDbArc
 50
270.0
 51
353.2018324493
  0
ARC
  5
1B5
330
1F
100
AcDbEntity
  8
0
  6
Continuous
 62
     7
370
    25
100
AcDbCircle
 10
253.2487284491
 20
427.1770452188
 30
0.0
 40
15.0000000000001
100
AcDbArc
 50
118.2456216076
 51
173.2018324493
  0
ARC
  5
1B6
330
1F
100
AcDbEntity
  8
0
  6
Continuous
 62
     7
370
    25
100
AcDbCircle
 10
254.8422024782
 20
441.3101372077
 30
0.0
 40
0.4999999999999972
100
AcDbArc
 50
90.0
 51
167.337802534
  0
ARC
  5
1B7
330
1F
100
AcDbEntity
  8
0
  6
Continuous
 62
     7
370
    25
100
AcDbCircle
 10
239.7191720658
 20
444.7077762623
 30
0.0
 40
15.0
100
AcDbArc
 50
297.9309268487
 51
347.337802534
  0
ARC
  5
1B8
330
1F
100
AcDbEntity
  8
0
  6
Continuous
 62
     7
370
    25
100
AcDbCircle
 10
246.9794771707
 20
431.0133259343
 30
0.0
 40
0.5
100
AcDbArc
 50
117.9309268487
 51
180.0
  0
LINE
  5
1B9
330
1F
100
AcDbEntity
  8
0
  6
Continuous
 62
     7
370
    25
100
AcDbLine
 10
246.4794772112
 20
421.0125868254
 30
0.0
 11
246.4794772112
 21
431.0133223468
 31
0.0
  0
ARC
  5
1BA
330
1F
100
AcDbEntity
  8
0
  6
Continuous
 62
     7
370
    25
100
AcDbCircle
 10
246.9794771707
 20
421.0125868236
 30
0.0
 40
0.5000000000001442
100
AcDbArc
 50
180.0
 51
242.0690731513
  0
ARC
  5
1BB
330
1F
100
AcDbEntity
  8
0
  6
Continuous
 62
     7
370
    25
100
AcDbCircle
 10
239.7191720658
 20
407.3181364957
 30
0.0
 40
15.00000000000002
100
AcDbArc
 50
12.662197466
 51
62.0690731513
  0
ARC
  5
1BC
330
1F
100
AcDbEntity
  8
0
  6
Continuous
 62
     7
370
    25
100
AcDbCircle
 10
254.8422024782
 20
410.7157755503
 30
0.0
 40
0.5
100
AcDbArc
 50
192.662197466
 51
270.0
  0
LINE
  5
1BD
330
1F
100
AcDbEntity
  8
0
  6
Continuous
 62
     7
370
    25
100
AcDbLine
 10
263.954694792
 20
410.2157716685
 30
0.0
 11
254.8422025883
 21
410.2157716685
 31
0.0
  0
ARC
  5
1BE
330
1F
100
AcDbEntity
  8
0
  6
Continuous
 62
     7
370
    25
100
AcDbCircle
 10
263.9546959857
 20
410.7157755503
 30
0.0
 40
0.5
100
AcDbArc
 50
270.0
 51
0.0
  0
LINE
  5
1BF
330
1F
100
AcDbEntity
  8
0
  6
Continuous
 62
     7
370
    25
100
AcDbLine
 10
264.4546958053
 20
441.310143941
 30
0.0
 11
264.4546958053
 21
410.7157801324
 31
0.0
  0
ARC
  5
1C0
330
1F
100
AcDbEntity
  8
0
  6
Continuous
 62
     7
370
    25
100
AcDbCircle
 10
263.9546959857
 20
441.3101372077
 30
0.0
 40
0.5
100
AcDbArc
 50
0.0
 51
90.0
  0
LINE
  5
1C1
330
1F
100
AcDbEntity
  8
0
  6
Continuous
 62
     7
370
    25
100
AcDbLine
 10
254.8422025883
 20
441.8101375037
 30
0.0
 11
263.954694792
 21
441.8101375037
 31
0.0
  0
ARC
  5
1C2
330
1F
100
AcDbEntity
  8
0
  6
Continuous
 62
     7
370
    25
100
AcDbCircle
 10
265.1113809729
 20
445.1121682557
 30
0.0
 40
10.00000000000003
100
AcDbArc
 50
96.3245663277
 51
136.7287001169
  0
ARC
  5
1C3
330
1F
100
AcDbEntity
  8
0
  6
Continuous
 62
     7
370
    25
100
AcDbCircle
 10
263.9546959857
 20
455.5482633031
 30
0.0
 40
0.5
100
AcDbArc
 50
276.3245663277
 51
0.0
  0
LINE
  5
1C4
330
1F
100
AcDbEntity
  8
0
  6
Continuous
 62
     7
370
    25
100
AcDbLine
 10
264.4546958053
 20
486.5136508876
 30
0.0
 11
264.4546958053
 21
455.5482630664
 31
0.0
  0
ARC
  5
1C5
330
1F
100
AcDbEntity
  8
0
  6
Continuous
 62
     7
370
    25
100
AcDbCircle
 10
263.9546959857
 20
486.5136539481
 30
0.0
 40
0.5
100
AcDbArc
 50
0.0
 51
90.0
  0
LINE
  5
1C6
330
1F
100
AcDbEntity
  8
0
  6
Continuous
 62
     7
370
    25
100
AcDbLine
 10
242.0419263088
 20
487.0136593514
 30
0.0
 11
263.954694792
 21
487.0136593514
 31
0.0
  0
ARC
  5
1C7
330
1F
100
AcDbEntity
  8
0
  6
Continuous
 62
     7
370
    25
100
AcDbCircle
 10
242.0419272884
 20
486.5136539481
 30
0.0
 40
0.4999999999999799
100
AcDbArc
 50
90.0
 51
185.3304051872
  0
ARC
  5
1C8
330
1F
100
AcDbEntity
  8
0
  6
Continuous
 62
     7
370
    25
100
AcDbCircle
 10
233.5806016782
 20
485.7241914618
 30
0.0
 40
7.998075199656807
100
AcDbArc
 50
296.4952320155
 51
5.3304051872
  0
ARC
  5
1C9
330
1F
100
AcDbEntity
  8
0
  6
Continuous
 62
     7
370
    25
100
AcDbCircle
 10
237.3717913511
 20
478.1186564403
 30
0.0
 40
0.5000000000000709
100
AcDbArc
 50
116.4952320155
 51
180.0
  0
LINE
  5
1CA
330
1F
100
AcDbEntity
  8
0
  6
Continuous
 62
     7
370
    25
100
AcDbLine
 10
236.8717914814
 20
471.6795151168
 30
0.0
 11
236.8717914814
 21
478.1186495953
 31
0.0
  0
ARC
  5
1CB
330
1F
100
AcDbEntity
  8
0
  6
Continuous
 62
     7
370
    25
100
AcDbCircle
 10
237.3717913511
 20
471.6795205955
 30
0.0
 40
0.4999999999999147
100
AcDbArc
 50
180.0
 51
260.2971205587
  0
ARC
  5
1CC
330
1F
100
AcDbEntity
  8
0
  6
Continuous
 62
     7
370
    25
100
AcDbCircle
 10
233.1922905313
 20
447.2358304093
 30
0.0
 40
24.29843174518667
100
AcDbArc
 50
11.8057132446
 51
80.2971205587
  0
ARC
  5
1CD
330
1F
100
AcDbEntity
  8
0
  6
Continuous
 62
     7
370
    25
100
AcDbCircle
 10
257.4661608659
 20
452.3094322855
 30
0.0
 40
0.4999999999999519
100
AcDbArc
 50
191.8057132446
 51
316.7287001169
  0
ARC
  5
1CE
330
1F
100
AcDbEntity
  8
0
  6
Continuous
 62
     7
370
    25
100
AcDbCircle
 10
220.6549393503
 20
486.5111681167
 30
0.0
 40
0.4999999999999716
100
AcDbArc
 50
0.0
 51
90.0
  0
LINE
  5
1CF
330
1F
100
AcDbEntity
  8
0
  6
Continuous
 62
     7
370
    25
100
AcDbLine
 10
196.6560021409
 20
487.0111708575
 30
0.0
 11
220.6549397105
 21
487.0111708575
 31
0.0
  0
ARC
  5
1D0
330
1F
100
AcDbEntity
  8
0
  6
Continuous
 62
     7
370
    25
100
AcDbCircle
 10
196.6560022505
 20
486.5111681167
 30
0.0
 40
0.5
100
AcDbArc
 50
90.0
 51
180.0
  0
LINE
  5
1D1
330
1F
100
AcDbEntity
  8
0
  6
Continuous
 62
     7
370
    25
100
AcDbLine
 10
196.156002059
 20
475.5151932173
 30
0.0
 11
196.156002059
 21
486.5111623936
 31
0.0
  0
ARC
  5
1D2
330
1F
100
AcDbEntity
  8
0
  6
Continuous
 62
     7
370
    25
100
AcDbCircle
 10
196.6560022505
 20
475.5151902698
 30
0.0
 40
0.4999999999999716
100
AcDbArc
 50
180.0
 51
270.0
  0
LINE
  5
1D3
330
1F
100
AcDbEntity
  8
0
  6
Continuous
 62
     7
370
    25
100
AcDbLine
 10
220.6549397105
 20
475.0151847535
 30
0.0
 11
196.6560021409
 21
475.0151847535
 31
0.0
  0
ARC
  5
1D4
330
1F
100
AcDbEntity
  8
0
  6
Continuous
 62
     7
370
    25
100
AcDbCircle
 10
220.6549393503
 20
475.5151902698
 30
0.0
 40
0.5
100
AcDbArc
 50
270.0
 51
0.0
  0
LINE
  5
1D5
330
1F
100
AcDbEntity
  8
0
  6
Continuous
 62
     7
370
    25
100
AcDbLine
 10
221.1549397924
 20
486.5111623936
 30
0.0
 11
221.1549397924
 21
475.5151932173
 31
0.0
  0
ARC
  5
1D6
330
1F
100
AcDbEntity
  8
0
  6
Continuous
 62
     7
370
    25
100
AcDbCircle
 10
152.1995606279
 20
445.1121682557
 30
0.0
 40
9.999999999999998
100
AcDbArc
 50
43.2712998831
 51
86.2347626911
  0
ARC
  5
1D7
330
1F
100
AcDbEntity
  8
0
  6
Continuous
 62
     7
370
    25
100
AcDbCircle
 10
159.8447807349
 20
452.3094322855
 30
0.0
 40
0.49999999999994
100
AcDbArc
 50
223.2712998831
 51
348.1942867554
  0
ARC
  5
1D8
330
1F
100
AcDbEntity
  8
0
  6
Continuous
 62
     7
370
    25
100
AcDbCircle
 10
184.1186510695
 20
447.2358304093
 30
0.0
 40
24.29843174518668
100
AcDbArc
 50
99.7028794413
 51
168.1942867554
  0
ARC
  5
1D9
330
1F
100
AcDbEntity
  8
0
  6
Continuous
 62
     7
370
    25
100
AcDbCircle
 10
179.9391502498
 20
471.6795205955
 30
0.0
 40
0.5
100
AcDbArc
 50
279.7028794413
 51
0.0
  0
LINE
  5
1DA
330
1F
100
AcDbEntity
  8
0
  6
Continuous
 62
     7
370
    25
100
AcDbLine
 10
180.4391494387
 20
478.1186495953
 30
0.0
 11
180.4391494387
 21
471.6795151168
 31
0.0
  0
ARC
  5
1DB
330
1F
100
AcDbEntity
  8
0
  6
Continuous
 62
     7
370
    25
100
AcDbCircle
 10
179.9391502498
 20
478.1186564403
 30
0.0
 40
0.5000000000000455
100
AcDbArc
 50
0.0
 51
63.5047679845
  0
ARC
  5
1DC
330
1F
100
AcDbEntity
  8
0
  6
Continuous
 62
     7
370
    25
100
AcDbCircle
 10
183.7303399226
 20
485.7241914618
 30
0.0
 40
7.998075199656807
100
AcDbArc
 50
174.6695948128
 51
243.5047679845
  0
ARC
  5
1DD
330
1F
100
AcDbEntity
  8
0
  6
Continuous
 62
     7
370
    25
100
AcDbCircle
 10
175.2690143124
 20
486.5136539481
 30
0.0
 40
0.5000000000000082
100
AcDbArc
 50
354.6695948128
 51
90.0
  0
LINE
  5
1DE
330
1F
100
AcDbEntity
  8
0
  6
Continuous
 62
     7
370
    25
100
AcDbLine
 10
152.8562451148
 20
487.0136593514
 30
0.0
 11
175.2690146112
 21
487.0136593514
 31
0.0
  0
LINE
  5
1DF
330
1F
100
AcDbEntity
  8
0
  6
Continuous
 62
     7
370
    25
100
AcDbLine
 10
152.8562451148
 20
455.0905888015
 30
0.0
 11
152.8562451148
 21
487.0136593514
 31
0.0
  0
ARC
  5
1E0
330
1F
100
AcDbEntity
  8
0
  6
Continuous
 62
     7
370
    25
100
AcDbCircle
 10
233.1922905313
 20
404.7892843993
 30
0.0
 40
24.29843174518662
100
AcDbArc
 50
279.7028794413
 51
348.1942867554
  0
ARC
  5
1E1
330
1F
100
AcDbEntity
  8
0
  6
Continuous
 62
     7
370
    25
100
AcDbCircle
 10
237.3717913511
 20
380.3455942131
 30
0.0
 40
0.5
100
AcDbArc
 50
99.7028794413
 51
180.0
  0
LINE
  5
1E2
330
1F
100
AcDbEntity
  8
0
  6
Continuous
 62
     7
370
    25
100
AcDbLine
 10
236.8717914814
 20
373.9064549142
 30
0.0
 11
236.8717914814
 21
380.3455968433
 31
0.0
  0
ARC
  5
1E3
330
1F
100
AcDbEntity
  8
0
  6
Continuous
 62
     7
370
    25
100
AcDbCircle
 10
237.3717913511
 20
373.9064583683
 30
0.0
 40
0.5000000000000709
100
AcDbArc
 50
180.0
 51
243.5047679845
  0
ARC
  5
1E4
330
1F
100
AcDbEntity
  8
0
  6
Continuous
 62
     7
370
    25
100
AcDbCircle
 10
233.5806016782
 20
366.3009233468
 30
0.0
 40
7.998075199656807
100
AcDbArc
 50
354.6695948128
 51
63.5047679845
  0
ARC
  5
1E5
330
1F
100
AcDbEntity
  8
0
  6
Continuous
 62
     7
370
    25
100
AcDbCircle
 10
242.0419272884
 20
365.5114608605
 30
0.0
 40
0.4999999999999799
100
AcDbArc
 50
174.6695948128
 51
270.0
  0
LINE
  5
1E6
330
1F
100
AcDbEntity
  8
0
  6
Continuous
 62
     7
370
    25
100
AcDbLine
 10
263.954694792
 20
365.0114600592
 30
0.0
 11
242.0419263088
 21
365.0114600592
 31
0.0
  0
ARC
  5
1E7
330
1F
100
AcDbEntity
  8
0
  6
Continuous
 62
     7
370
    25
100
AcDbCircle
 10
263.9546959857
 20
365.5114608605
 30
0.0
 40
0.5
100
AcDbArc
 50
270.0
 51
0.0
  0
LINE
  5
1E8
330
1F
100
AcDbEntity
  8
0
  6
Continuous
 62
     7
370
    25
100
AcDbLine
 10
264.4546958053
 20
396.4768563443
 30
0.0
 11
264.4546958053
 21
365.5114610725
 31
0.0
  0
ARC
  5
1E9
330
1F
100
AcDbEntity
  8
0
  6
Continuous
 62
     7
370
    25
100
AcDbCircle
 10
263.9546959857
 20
396.4768515054
 30
0.0
 40
0.5
100
AcDbArc
 50
0.0
 51
83.6754336723
  0
ARC
  5
1EA
330
1F
100
AcDbEntity
  8
0
  6
Continuous
 62
     7
370
    25
100
AcDbCircle
 10
265.1113809729
 20
406.9129465529
 30
0.0
 40
10.00000000000003
100
AcDbArc
 50
223.2712998831
 51
263.6754336723
  0
ARC
  5
1EB
330
1F
100
AcDbEntity
  8
0
  6
Continuous
 62
     7
370
    25
100
AcDbCircle
 10
257.4661608659
 20
399.715682523
 30
0.0
 40
0.49999999999994
100
AcDbArc
 50
43.2712998831
 51
168.1942867554
  0
ARC
  5
1EC
330
1F
100
AcDbEntity
  8
0
  6
Continuous
 62
     7
370
    25
100
AcDbCircle
 10
175.2690143124
 20
365.5114608605
 30
0.0
 40
0.5000000000000082
100
AcDbArc
 50
270.0
 51
5.3304051872
  0
ARC
  5
1ED
330
1F
100
AcDbEntity
  8
0
  6
Continuous
 62
     7
370
    25
100
AcDbCircle
 10
183.7303399226
 20
366.3009233468
 30
0.0
 40
7.998075199656778
100
AcDbArc
 50
116.4952320155
 51
185.3304051872
  0
ARC
  5
1EE
330
1F
100
AcDbEntity
  8
0
  6
Continuous
 62
     7
370
    25
100
AcDbCircle
 10
179.9391502498
 20
373.9064583683
 30
0.0
 40
0.5000000000000709
100
AcDbArc
 50
296.4952320155
 51
0.0
  0
LINE
  5
1EF
330
1F
100
AcDbEntity
  8
0
  6
Continuous
 62
     7
370
    25
100
AcDbLine
 10
180.4391494387
 20
380.3455968433
 30
0.0
 11
180.4391494387
 21
373.9064549142
 31
0.0
  0
ARC
  5
1F0
330
1F
100
AcDbEntity
  8
0
  6
Continuous
 62
     7
370
    25
100
AcDbCircle
 10
179.9391502498
 20
380.3455942131
 30
0.0
 40
0.5000000000000284
100
AcDbArc
 50
0.0
 51
80.2971205587
  0
ARC
  5
1F1
330
1F
100
AcDbEntity
  8
0
  6
Continuous
 62
     7
370
    25
100
AcDbCircle
 10
184.1186510695
 20
404.7892843993
 30
0.0
 40
24.29843174518662
100
AcDbArc
 50
191.8057132446
 51
260.2971205587
  0
ARC
  5
1F2
330
1F
100
AcDbEntity
  8
0
  6
Continuous
 62
     7
370
    25
100
AcDbCircle
 10
159.8447807349
 20
399.715682523
 30
0.0
 40
0.4999999999998898
100
AcDbArc
 50
11.8057132446
 51
136.7287001169
  0
ARC
  5
1F3
330
1F
100
AcDbEntity
  8
0
  6
Continuous
 62
     7
370
    25
100
AcDbCircle
 10
152.1995606279
 20
406.9129465529
 30
0.0
 40
10.00000000000003
100
AcDbArc
 50
276.3245663277
 51
316.7287001169
  0
ARC
  5
1F4
330
1F
100
AcDbEntity
  8
0
  6
Continuous
 62
     7
370
    25
100
AcDbCircle
 10
153.3562456152
 20
396.4768515054
 30
0.0
 40
0.5
100
AcDbArc
 50
96.3245663277
 51
180.0
  0
LINE
  5
1F5
330
1F
100
AcDbEntity
  8
0
  6
Continuous
 62
     7
370
    25
100
AcDbLine
 10
152.8562451148
 20
365.5114610725
 30
0.0
 11
152.8562451148
 21
396.4768563443
 31
0.0
  0
ARC
  5
1F6
330
1F
100
AcDbEntity
  8
0
  6
Continuous
 62
     7
370
    25
100
AcDbCircle
 10
153.3562456152
 20
365.5114608605
 30
0.0
 40
0.5
100
AcDbArc
 50
180.0
 51
270.0
  0
LINE
  5
1F7
330
1F
100
AcDbEntity
  8
0
  6
Continuous
 62
     7
370
    25
100
AcDbLine
 10
175.2690146112
 20
365.0114600592
 30
0.0
 11
153.3562461281
 21
365.0114600592
 31
0.0
  0
ARC
  5
1F8
330
1F
100
AcDbEntity
  8
0
  6
Continuous
 62
     7
370
    25
100
AcDbCircle
 10
250.1273914508
 20
383.1877040368
 30
0.0
 40
21.99999999999998
100
AcDbArc
 50
100.7948019133
 51
170.3059674655
  0
ARC
  5
1F9
330
1F
100
AcDbEntity
  8
0
  6
Continuous
 62
     7
370
    25
100
AcDbCircle
 10
245.9133170171
 20
405.2895495857
 30
0.0
 40
0.5
100
AcDbArc
 50
280.7948019133
 51
0.0
  0
LINE
  5
1FA
330
1F
100
AcDbEntity
  8
0
  6
Continuous
 62
     7
370
    25
100
AcDbLine
 10
246.4133160555
 20
411.1937050753
 30
0.0
 11
246.4133160555
 21
405.2895520859
 31
0.0
  0
ARC
  5
1FB
330
1F
100
AcDbEntity
  8
0
  6
Continuous
 62
     7
370
    25
100
AcDbCircle
 10
245.9133170171
 20
411.1937025549
 30
0.0
 40
0.4999999999999716
100
AcDbArc
 50
0.0
 51
61.7543783924
  0
ARC
  5
1FC
330
1F
100
AcDbEntity
  8
0
  6
Continuous
 62
     7
370
    25
100
AcDbCircle
 10
253.2487284491
 20
424.8480695897
 30
0.0
 40
15.0000000000001
100
AcDbArc
 50
186.7981675507
 51
241.7543783924
  0
ARC
  5
1FD
330
1F
100
AcDbEntity
  8
0
  6
Continuous
 62
     7
370
    25
100
AcDbCircle
 10
237.8577043855
 20
423.01330032
 30
0.0
 40
0.4999999999999458
100
AcDbArc
 50
6.7981675507
 51
90.0
  0
LINE
  5
1FE
330
1F
100
AcDbEntity
  8
0
  6
Continuous
 62
     7
370
    25
100
AcDbLine
 10
211.6561270685
 20
423.513299697
 30
0.0
 11
237.85770446
 21
423.513299697
 31
0.0
  0
ARC
  5
1FF
330
1F
100
AcDbEntity
  8
0
  6
Continuous
 62
     7
370
    25
100
AcDbCircle
 10
211.6561270617
 20
423.01330032
 30
0.0
 40
0.5
100
AcDbArc
 50
90.0
 51
180.0
  0
LINE
  5
200
330
1F
100
AcDbEntity
  8
0
  6
Continuous
 62
     7
370
    25
100
AcDbLine
 10
211.1561269866
 20
396.9024037057
 30
0.0
 11
211.1561269866
 21
423.0133061343
 31
0.0
  0
ARC
  5
201
330
1F
100
AcDbEntity
  8
0
  6
Continuous
 62
     7
370
    25
100
AcDbCircle
 10
211.6561270617
 20
396.9024005294
 30
0.0
 40
0.5000000000000284
100
AcDbArc
 50
180.0
 51
255.7168690041
  0
ARC
  5
202
330
1F
100
AcDbEntity
  8
0
  6
Continuous
 62
     7
370
    25
100
AcDbCircle
 10
203.6379316577
 20
365.4070271793
 30
0.0
 40
32.00000000000005
100
AcDbArc
 50
41.5806148065
 51
75.7168690041
  0
ARC
  5
203
330
1F
100
AcDbEntity
  8
0
  6
Continuous
 62
     7
370
    25
100
AcDbCircle
 10
227.9486686755
 20
386.976405141
 30
0.0
 40
0.4999999999999434
100
AcDbArc
 50
221.5806148065
 51
350.3059674655
  0
ARC
  5
204
330
1F
100
AcDbEntity
  8
0
  6
Continuous
 62
     7
370
    25
100
AcDbCircle
 10
213.6730099431
 20
365.4070271793
 30
0.0
 40
32.00000000000005
100
AcDbArc
 50
104.2831309959
 51
138.4193851935
  0
ARC
  5
205
330
1F
100
AcDbEntity
  8
0
  6
Continuous
 62
     7
370
    25
100
AcDbCircle
 10
205.6548145391
 20
396.9024005294
 30
0.0
 40
0.5000000000000244
100
AcDbArc
 50
284.2831309959
 51
0.0
  0
LINE
  5
206
330
1F
100
AcDbEntity
  8
0
  6
Continuous
 62
     7
370
    25
100
AcDbLine
 10
206.154814632
 20
423.0133061343
 30
0.0
 11
206.154814632
 21
396.9024037057
 31
0.0
  0
ARC
  5
207
330
1F
100
AcDbEntity
  8
0
  6
Continuous
 62
     7
370
    25
100
AcDbCircle
 10
205.6548145391
 20
423.01330032
 30
0.0
 40
0.5
100
AcDbArc
 50
0.0
 51
90.0
  0
LINE
  5
208
330
1F
100
AcDbEntity
  8
0
  6
Continuous
 62
     7
370
    25
100
AcDbLine
 10
179.4532364601
 20
423.513299697
 30
0.0
 11
205.65481455
 21
423.513299697
 31
0.0
  0
ARC
  5
209
330
1F
100
AcDbEntity
  8
0
  6
Continuous
 62
     7
370
    25
100
AcDbCircle
 10
179.4532372153
 20
423.01330032
 30
0.0
 40
0.4999999999999741
100
AcDbArc
 50
90.0
 51
173.2018324493
  0
ARC
  5
20A
330
1F
100
AcDbEntity
  8
0
  6
Continuous
 62
     7
370
    25
100
AcDbCircle
 10
164.0622131517
 20
424.8480695897
 30
0.0
 40
15.0000000000001
100
AcDbArc
 50
298.2456216076
 51
353.2018324493
  0
ARC
  5
20B
330
1F
100
AcDbEntity
  8
0
  6
Continuous
 62
     7
370
    25
100
AcDbCircle
 10
171.3976245837
 20
411.1937025549
 30
0.0
 40
0.4999999999999432
100
AcDbArc
 50
118.2456216076
 51
180.0
  0
LINE
  5
20C
330
1F
100
AcDbEntity
  8
0
  6
Continuous
 62
     7
370
    25
100
AcDbLine
 10
170.8976248646
 20
405.2895520859
 30
0.0
 11
170.8976248646
 21
411.1937050753
 31
0.0
  0
ARC
  5
20D
330
1F
100
AcDbEntity
  8
0
  6
Continuous
 62
     7
370
    25
100
AcDbCircle
 10
171.3976245837
 20
405.2895495857
 30
0.0
 40
0.4999999999999432
100
AcDbArc
 50
180.0
 51
259.2051980867
  0
ARC
  5
20E
330
1F
100
AcDbEntity
  8
0
  6
Continuous
 62
     7
370
    25
100
AcDbCircle
 10
167.18355015
 20
383.1877040368
 30
0.0
 40
21.99999999999998
100
AcDbArc
 50
9.6940325345
 51
79.2051980867
  0
ARC
  5
20F
330
1F
100
AcDbEntity
  8
0
  6
Continuous
 62
     7
370
    25
100
AcDbCircle
 10
189.3622729253
 20
386.976405141
 30
0.0
 40
0.4999999999999518
100
AcDbArc
 50
189.6940325345
 51
318.4193851935
  0
ARC
  5
210
330
1F
100
AcDbEntity
  8
0
  6
Continuous
 62
     7
370
    25
100
AcDbCircle
 10
220.6549393503
 20
376.5099245387
 30
0.0
 40
0.5
100
AcDbArc
 50
0.0
 51
90.0
  0
LINE
  5
211
330
1F
100
AcDbEntity
  8
0
  6
Continuous
 62
     7
370
    25
100
AcDbLine
 10
196.6560021409
 20
377.0099272066
 30
0.0
 11
220.6549397105
 21
377.0099272066
 31
0.0
  0
ARC
  5
212
330
1F
100
AcDbEntity
  8
0
  6
Continuous
 62
     7
370
    25
100
AcDbCircle
 10
196.6560022505
 20
376.5099245387
 30
0.0
 40
0.4999999999999716
100
AcDbArc
 50
90.0
 51
180.0
  0
LINE
  5
213
330
1F
100
AcDbEntity
  8
0
  6
Continuous
 62
     7
370
    25
100
AcDbLine
 10
196.156002059
 20
365.5139495664
 30
0.0
 11
196.156002059
 21
376.5099261933
 31
0.0
  0
ARC
  5
214
330
1F
100
AcDbEntity
  8
0
  6
Continuous
 62
     7
370
    25
100
AcDbCircle
 10
196.6560022505
 20
365.5139466919
 30
0.0
 40
0.5
100
AcDbArc
 50
180.0
 51
270.0
  0
LINE
  5
215
330
1F
100
AcDbEntity
  8
0
  6
Continuous
 62
     7
370
    25
100
AcDbLine
 10
220.6549397105
 20
365.0139485532
 30
0.0
 11
196.6560021409
 21
365.0139485532
 31
0.0
  0
ARC
  5
216
330
1F
100
AcDbEntity
  8
0
  6
Continuous
 62
     7
370
    25
100
AcDbCircle
 10
220.6549393503
 20
365.5139466919
 30
0.0
 40
0.5
100
AcDbArc
 50
270.0
 51
0.0
  0
LINE
  5
217
330
1F
100
AcDbEntity
  8
0
  6
Continuous
 62
     7
370
    25
100
AcDbLine
 10
221.1549397924
 20
376.5099261933
 30
0.0
 11
221.1549397924
 21
365.5139495664
 31
0.0
  0
LINE
  5
218
330
1F
100
AcDbEntity
  8
0
  6
Continuous
 62
     7
370
    25
100
AcDbLine
 10
268.4554713213
 20
271.0183615842
 30
0.0
 11
268.4554713213
 21
764.0183483296
 31
0.0
  0
LINE
  5
219
330
1F
100
AcDbEntity
  8
0
  6
Continuous
 62
     7
370
    25
100
AcDbLine
 10
292.3611509049
 20
767.5183330708
 30
0.0
 11
288.3987011754
 21
767.5183330708
 31
0.0
  0
LINE
  5
21A
330
1F
100
AcDbEntity
  8
0
  6
Continuous
 62
     7
370
    25
100
AcDbLine
 10
297.8987055266
 20
767.5183330708
 30
0.0
 11
292.3611509049
 21
767.5183330708
 31
0.0
  0
LINE
  5
21B
330
1F
100
AcDbEntity
  8
0
  6
Continuous
 62
     7
370
    25
100
AcDbLine
 10
292.7894400799
 20
769.7683488065
 30
0.0
 11
290.9818472707
 21
769.7683488065
 31
0.0
  0
LINE
  5
21C
330
1F
100
AcDbEntity
  8
0
  6
Continuous
 62
     7
370
    25
100
AcDbLine
 10
295.3155594313
 20
769.7683488065
 30
0.0
 11
292.7894400799
 21
769.7683488065
 31
0.0
  0
LINE
  5
21D
330
1F
100
AcDbEntity
  8
0
  6
Continuous
 62
     7
370
    25
100
AcDbLine
 10
123.3611511433
 20
767.5183330708
 30
0.0
 11
119.3987014138
 21
767.5183330708
 31
0.0
  0
LINE
  5
21E
330
1F
100
AcDbEntity
  8
0
  6
Continuous
 62
     7
370
    25
100
AcDbLine
 10
128.898705765
 20
767.5183330708
 30
0.0
 11
123.3611511433
 21
767.5183330708
 31
0.0
  0
LINE
  5
21F
330
1F
100
AcDbEntity
  8
0
  6
Continuous
 62
     7
370
    25
100
AcDbLine
 10
123.7894403183
 20
769.7683488065
 30
0.0
 11
121.9818475091
 21
769.7683488065
 31
0.0
  0
LINE
  5
220
330
1F
100
AcDbEntity
  8
0
  6
Continuous
 62
     7
370
    25
100
AcDbLine
 10
126.3155596697
 20
769.7683488065
 30
0.0
 11
123.7894403183
 21
769.7683488065
 31
0.0
  0
LINE
  5
221
330
1F
100
AcDbEntity
  8
0
  6
Continuous
 62
     7
370
    25
100
AcDbLine
 10
333.6484464252
 20
263.0183612042
 30
0.0
 11
333.6484464252
 21
271.0183615842
 31
0.0
  0
LINE
  5
222
330
1F
100
AcDbEntity
  8
0
  6
Continuous
 62
     7
370
    25
100
AcDbLine
 10
83.6484464252
 20
263.0183612042
 30
0.0
 11
333.6484464252
 21
263.0183612042
 31
0.0
  0
LINE
  5
223
330
1F
100
AcDbEntity
  8
0
  6
Continuous
 62
     7
370
    25
100
AcDbLine
 10
83.6484464252
 20
271.0183615842
 30
0.0
 11
83.6484464252
 21
263.0183612042
 31
0.0
  0
LINE
  5
224
330
1F
100
AcDbEntity
  8
0
  6
Continuous
 62
     7
370
    25
100
AcDbLine
 10
83.6484464252
 20
271.0183615842
 30
0.0
 11
333.6484464252
 21
271.0183615842
 31
0.0
  0
LINE
  5
225
330
1F
100
AcDbEntity
  8
0
  6
Continuous
 62
     7
370
    25
100
AcDbLine
 10
353.6484422529
 20
271.0183615842
 30
0.0
 11
353.6484422529
 21
263.0183612042
 31
0.0
  0
LINE
  5
226
330
1F
100
AcDbEntity
  8
0
  6
Continuous
 62
     7
370
    25
100
AcDbLine
 10
353.6484422529
 20
263.0183612042
 30
0.0
 11
333.6484464252
 21
263.0183612042
 31
0.0
  0
LINE
  5
227
330
1F
100
AcDbEntity
  8
0
  6
Continuous
 62
     7
370
    25
100
AcDbLine
 10
333.6484464252
 20
271.0183615842
 30
0.0
 11
353.6484422529
 21
271.0183615842
 31
0.0
  0
LINE
  5
228
330
1F
100
AcDbEntity
  8
0
  6
Continuous
 62
     7
370
    25
100
AcDbLine
 10
63.6484505975
 20
263.0183612042
 30
0.0
 11
63.6484505975
 21
271.0183615842
 31
0.0
  0
LINE
  5
229
330
1F
100
AcDbEntity
  8
0
  6
Continuous
 62
     7
370
    25
100
AcDbLine
 10
83.6484464252
 20
263.0183612042
 30
0.0
 11
63.6484505975
 21
263.0183612042
 31
0.0
  0
LINE
  5
22A
330
1F
100
AcDbEntity
  8
0
  6
Continuous
 62
     7
370
    25
100
AcDbLine
 10
63.6484505975
 20
271.0183615842
 30
0.0
 11
83.6484464252
 21
271.0183615842
 31
0.0
  0
LINE
  5
22B
330
1F
100
AcDbEntity
  8
0
  6
Continuous
 62
     7
370
    25
100
AcDbLine
 10
298.6484500015
 20
764.0183483296
 30
0.0
 11
298.6484500015
 21
271.0183615842
 31
0.0
  0
LINE
  5
22C
330
1F
100
AcDbEntity
  8
0
  6
Continuous
 62
     7
370
    25
100
AcDbLine
 10
296.6484459483
 20
764.0183483296
 30
0.0
 11
269.1484460974
 21
764.0183483296
 31
0.0
  0
LINE
  5
22D
330
1F
100
AcDbEntity
  8
0
  6
Continuous
 62
     7
370
    25
100
AcDbLine
 10
268.6484450841
 20
764.0183483296
 30
0.0
 11
268.6484450841
 21
271.0183615842
 31
0.0
  0
LINE
  5
22E
330
1F
100
AcDbEntity
  8
0
  6
Continuous
 62
     7
370
    25
100
AcDbLine
 10
148.662495836
 20
764.0183483296
 30
0.0
 11
148.662495836
 21
271.0183615842
 31
0.0
  0
LINE
  5
22F
330
1F
100
AcDbEntity
  8
0
  6
Continuous
 62
     7
370
    25
100
AcDbLine
 10
120.662498697
 20
764.0183483296
 30
0.0
 11
148.1624948227
 21
764.0183483296
 31
0.0
  0
LINE
  5
230
330
1F
100
AcDbEntity
  8
0
  6
Continuous
 62
     7
370
    25
100
AcDbLine
 10
118.6624946439
 20
764.0183483296
 30
0.0
 11
118.6624946439
 21
271.0183615842
 31
0.0
  0
LINE
  5
231
330
1F
100
AcDbEntity
  8
0
  6
Continuous
 62
     7
370
    25
100
AcDbLine
 10
120.662498697
 20
764.0183483296
 30
0.0
 11
118.6624946439
 21
764.0183483296
 31
0.0
  0
LINE
  5
232
330
1F
100
AcDbEntity
  8
0
  6
Continuous
 62
     8
370
    25
100
AcDbLine
 10
149.355470612
 20
764.0183483296
 30
0.0
 11
149.355470612
 21
271.0183615842
 31
0.0
  0
LINE
  5
233
330
1F
100
AcDbEntity
  8
0
  6
Continuous
 62
     8
370
    25
100
AcDbLine
 10
267.955470308
 20
764.0183483296
 30
0.0
 11
267.955470308
 21
271.0183615842
 31
0.0
  0
LINE
  5
234
330
1F
100
AcDbEntity
  8
0
  6
Continuous
 62
     8
370
    25
100
AcDbLine
 10
296.6484459483
 20
764.0183483296
 30
0.0
 11
296.6484459483
 21
271.0183615842
 31
0.0
  0
LINE
  5
235
330
1F
100
AcDbEntity
  8
0
  6
Continuous
 62
     8
370
    25
100
AcDbLine
 10
269.1484460974
 20
764.0183483296
 30
0.0
 11
269.1484460974
 21
271.0183615842
 31
0.0
  0
LINE
  5
236
330
1F
100
AcDbEntity
  8
0
  6
Continuous
 62
     8
370
    25
100
AcDbLine
 10
148.1624948227
 20
764.0183483296
 30
0.0
 11
148.1624948227
 21
271.0183615842
 31
0.0
  0
LINE
  5
237
330
1F
100
AcDbEntity
  8
0
  6
Continuous
 62
     8
370
    25
100
AcDbLine
 10
120.662498697
 20
764.0183483296
 30
0.0
 11
120.662498697
 21
271.0183615842
 31
0.0
  0
ARC
  5
238
330
1F
100
AcDbEntity
  8
0
  6
Continuous
 62
     7
370
    25
100
AcDbCircle
 10
296.6484464252
 20
17.2714831461
 30
0.0
 40
2.000000000000004
100
AcDbArc
 50
270.0
 51
0.0
  0
LINE
  5
239
330
1F
100
AcDbEntity
  8
0
  6
Continuous
 62
     7
370
    25
100
AcDbLine
 10
120.648446902
 20
15.2714795698
 30
0.0
 11
296.6484459483
 21
15.2714795698
 31
0.0
  0
ARC
  5
23A
330
1F
100
AcDbEntity
  8
0
  6
Continuous
 62
     7
370
    25
100
AcDbCircle
 10
120.6484464252
 20
17.2714831461
 30
0.0
 40
2.0
100
AcDbArc
 50
180.0
 51
270.0
  0
LINE
  5
23B
330
1F
100
AcDbEntity
  8
0
  6
Continuous
 62
     7
370
    25
100
AcDbLine
 10
118.6484428489
 20
193.2714826692
 30
0.0
 11
118.6484428489
 21
17.2714836229
 31
0.0
  0
ARC
  5
23C
330
1F
100
AcDbEntity
  8
0
  6
Continuous
 62
     7
370
    25
100
AcDbCircle
 10
120.6484464252
 20
193.2714831461
 30
0.0
 40
2.0
100
AcDbArc
 50
90.0
 51
180.0
  0
LINE
  5
23D
330
1F
100
AcDbEntity
  8
0
  6
Continuous
 62
     7
370
    25
100
AcDbLine
 10
296.6484459483
 20
195.2714867223
 30
0.0
 11
120.648446902
 21
195.2714867223
 31
0.0
  0
LINE
  5
23E
330
1F
100
AcDbEntity
  8
0
  6
Continuous
 62
     7
370
    25
100
AcDbLine
 10
298.6484500015
 20
17.2714836229
 30
0.0
 11
298.6484500015
 21
193.2714826692
 31
0.0
  0
ARC
  5
23F
330
1F
100
AcDbEntity
  8
0
  6
Continuous
 62
     7
370
    25
100
AcDbCircle
 10
296.6484464252
 20
193.2714831461
 30
0.0
 40
2.0
100
AcDbArc
 50
0.0
 51
90.0
  0
CIRCLE
  5
240
330
1F
100
AcDbEntity
  8
0
  6
Continuous
 62
     7
370
    25
100
AcDbCircle
 10
293.1487045556
 20
20.7714831461
 30
0.0
 40
4.750000000000007
  0
CIRCLE
  5
241
330
1F
100
AcDbEntity
  8
0
  6
Continuous
 62
     7
370
    25
100
AcDbCircle
 10
293.1487045556
 20
20.7714831461
 30
0.0
 40
2.166856000000002
  0
LINE
  5
242
330
1F
100
AcDbEntity
  8
0
  6
Continuous
 62
     7
370
    25
100
AcDbLine
 10
292.0459615433
 20
19.4358325828
 30
0.0
 11
293.754044398
 21
19.1486574043
 31
0.0
  0
LINE
  5
243
330
1F
100
AcDbEntity
  8
0
  6
Continuous
 62
     7
370
    25
100
AcDbLine
 10
294.2514451587
 20
22.1071339477
 30
0.0
 11
292.5433697545
 21
22.3943091263
 31
0.0
  0
LINE
  5
244
330
1F
100
AcDbEntity
  8
0
  6
Continuous
 62
     7
370
    25
100
AcDbLine
 10
291.4406242215
 20
21.0586584438
 30
0.0
 11
292.0459615433
 21
19.4358325828
 31
0.0
  0
LINE
  5
245
330
1F
100
AcDbEntity
  8
0
  6
Continuous
 62
     7
370
    25
100
AcDbLine
 10
292.5433697545
 20
22.3943091263
 30
0.0
 11
291.4406242215
 21
21.0586584438
 31
0.0
  0
LINE
  5
246
330
1F
100
AcDbEntity
  8
0
  6
Continuous
 62
     7
370
    25
100
AcDbLine
 10
293.754044398
 20
19.1486574043
 30
0.0
 11
294.8567824805
 21
20.4843080867
 31
0.0
  0
LINE
  5
247
330
1F
100
AcDbEntity
  8
0
  6
Continuous
 62
     7
370
    25
100
AcDbLine
 10
294.8567824805
 20
20.4843080867
 30
0.0
 11
294.2514451587
 21
22.1071339477
 31
0.0
  0
CIRCLE
  5
248
330
1F
100
AcDbEntity
  8
0
  6
Continuous
 62
     7
370
    25
100
AcDbCircle
 10
124.1487045556
 20
189.7714831461
 30
0.0
 40
2.166856000000009
  0
LINE
  5
249
330
1F
100
AcDbEntity
  8
0
  6
Continuous
 62
     7
370
    25
100
AcDbLine
 10
125.2514453971
 20
191.1071337093
 30
0.0
 11
123.543369993
 21
191.3943088878
 31
0.0
  0
LINE
  5
24A
330
1F
100
AcDbEntity
  8
0
  6
Continuous
 62
     7
370
    25
100
AcDbLine
 10
123.543369993
 20
191.3943088878
 30
0.0
 11
122.44062446
 21
190.0586582054
 31
0.0
  0
LINE
  5
24B
330
1F
100
AcDbEntity
  8
0
  6
Continuous
 62
     7
370
    25
100
AcDbLine
 10
124.7540446365
 20
188.1486571659
 30
0.0
 11
125.8567827189
 21
189.4843078483
 31
0.0
  0
LINE
  5
24C
330
1F
100
AcDbEntity
  8
0
  6
Continuous
 62
     7
370
    25
100
AcDbLine
 10
125.8567827189
 20
189.4843078483
 30
0.0
 11
125.2514453971
 21
191.1071337093
 31
0.0
  0
LINE
  5
24D
330
1F
100
AcDbEntity
  8
0
  6
Continuous
 62
     7
370
    25
100
AcDbLine
 10
122.44062446
 20
190.0586582054
 30
0.0
 11
123.0459617817
 21
188.4358323444
 31
0.0
  0
LINE
  5
24E
330
1F
100
AcDbEntity
  8
0
  6
Continuous
 62
     7
370
    25
100
AcDbLine
 10
123.0459617817
 20
188.4358323444
 30
0.0
 11
124.7540446365
 21
188.1486571659
 31
0.0
  0
CIRCLE
  5
24F
330
1F
100
AcDbEntity
  8
0
  6
Continuous
 62
     7
370
    25
100
AcDbCircle
 10
124.1487045556
 20
189.7714831461
 30
0.0
 40
4.750000000000019
  0
CIRCLE
  5
250
330
1F
100
AcDbEntity
  8
0
  6
Continuous
 62
     7
370
    25
100
AcDbCircle
 10
293.1487045556
 20
189.7714831461
 30
0.0
 40
2.166856000000009
  0
LINE
  5
251
330
1F
100
AcDbEntity
  8
0
  6
Continuous
 62
     7
370
    25
100
AcDbLine
 10
292.5433697545
 20
191.3943088878
 30
0.0
 11
291.4406242215
 21
190.0586582054
 31
0.0
  0
LINE
  5
252
330
1F
100
AcDbEntity
  8
0
  6
Continuous
 62
     7
370
    25
100
AcDbLine
 10
291.4406242215
 20
190.0586582054
 30
0.0
 11
292.0459615433
 21
188.4358323444
 31
0.0
  0
LINE
  5
253
330
1F
100
AcDbEntity
  8
0
  6
Continuous
 62
     7
370
    25
100
AcDbLine
 10
294.2514451587
 20
191.1071337093
 30
0.0
 11
292.5433697545
 21
191.3943088878
 31
0.0
  0
LINE
  5
254
330
1F
100
AcDbEntity
  8
0
  6
Continuous
 62
     7
370
    25
100
AcDbLine
 10
294.8567824805
 20
189.4843078483
 30
0.0
 11
294.2514451587
 21
191.1071337093
 31
0.0
  0
LINE
  5
255
330
1F
100
AcDbEntity
  8
0
  6
Continuous
 62
     7
370
    25
100
AcDbLine
 10
292.0459615433
 20
188.4358323444
 30
0.0
 11
293.754044398
 21
188.1486571659
 31
0.0
  0
LINE
  5
256
330
1F
100
AcDbEntity
  8
0
  6
Continuous
 62
     7
370
    25
100
AcDbLine
 10
293.754044398
 20
188.1486571659
 30
0.0
 11
294.8567824805
 21
189.4843078483
 31
0.0
  0
CIRCLE
  5
257
330
1F
100
AcDbEntity
  8
0
  6
Continuous
 62
     7
370
    25
100
AcDbCircle
 10
293.1487045556
 20
189.7714831461
 30
0.0
 40
4.750000000000028
  0
CIRCLE
  5
258
330
1F
100
AcDbEntity
  8
0
  6
Continuous
 62
     7
370
    25
100
AcDbCircle
 10
124.1487045556
 20
20.7714831461
 30
0.0
 40
4.750000000000004
  0
CIRCLE
  5
259
330
1F
100
AcDbEntity
  8
0
  6
Continuous
 62
     7
370
    25
100
AcDbCircle
 10
124.1487045556
 20
20.7714831461
 30
0.0
 40
2.166856000000008
  0
LINE
  5
25A
330
1F
100
AcDbEntity
  8
0
  6
Continuous
 62
     7
370
    25
100
AcDbLine
 10
123.0459617817
 20
19.4358325828
 30
0.0
 11
124.7540446365
 21
19.1486574043
 31
0.0
  0
LINE
  5
25B
330
1F
100
AcDbEntity
  8
0
  6
Continuous
 62
     7
370
    25
100
AcDbLine
 10
124.7540446365
 20
19.1486574043
 30
0.0
 11
125.8567827189
 21
20.4843080867
 31
0.0
  0
LINE
  5
25C
330
1F
100
AcDbEntity
  8
0
  6
Continuous
 62
     7
370
    25
100
AcDbLine
 10
122.44062446
 20
21.0586584438
 30
0.0
 11
123.0459617817
 21
19.4358325828
 31
0.0
  0
LINE
  5
25D
330
1F
100
AcDbEntity
  8
0
  6
Continuous
 62
     7
370
    25
100
AcDbLine
 10
123.543369993
 20
22.3943091263
 30
0.0
 11
122.44062446
 21
21.0586584438
 31
0.0
  0
LINE
  5
25E
330
1F
100
AcDbEntity
  8
0
  6
Continuous
 62
     7
370
    25
100
AcDbLine
 10
125.2514453971
 20
22.1071339477
 30
0.0
 11
123.543369993
 21
22.3943091263
 31
0.0
  0
LINE
  5
25F
330
1F
100
AcDbEntity
  8
0
  6
Continuous
 62
     7
370
    25
100
AcDbLine
 10
125.8567827189
 20
20.4843080867
 30
0.0
 11
125.2514453971
 21
22.1071339477
 31
0.0
  0
ARC
  5
260
330
1F
100
AcDbEntity
  8
0
  6
Continuous
 62
     7
370
    25
100
AcDbCircle
 10
325.516685244
 20
2.5397219649
 30
0.0
 40
6.000000000000096
100
AcDbArc
 50
318.2415710456
 51
138.2415710456
  0
ARC
  5
261
330
1F
100
AcDbEntity
  8
0
  6
Continuous
 62
     7
370
    25
100
AcDbCircle
 10
193.6484464252
 20
120.2714831461
 30
0.0
 40
170.7766952966501
100
AcDbArc
 50
311.7584289544
 51
318.2415710456
  0
ARC
  5
262
330
1F
100
AcDbEntity
  8
0
  6
Continuous
 62
     7
370
    25
100
AcDbCircle
 10
311.3802076063
 20
-11.5967556728
 30
0.0
 40
6.000000000000299
100
AcDbArc
 50
131.7584289544
 51
311.7584289544
  0
ARC
  5
263
330
1F
100
AcDbEntity
  8
0
  6
Continuous
 62
     7
370
    25
100
AcDbCircle
 10
193.6484464252
 20
120.2714831461
 30
0.0
 40
182.7766952966505
100
AcDbArc
 50
311.7584289544
 51
318.2415710456
  0
ARC
  5
264
330
1F
100
AcDbEntity
  8
0
  6
Continuous
 62
     7
370
    25
100
AcDbCircle
 10
311.3802076063
 20
222.1397219649
 30
0.0
 40
6.000000000000369
100
AcDbArc
 50
48.2415710456
 51
228.2415710457
  0
ARC
  5
265
330
1F
100
AcDbEntity
  8
0
  6
Continuous
 62
     7
370
    25
100
AcDbCircle
 10
193.6484464252
 20
90.2714831461
 30
0.0
 40
170.7766952966302
100
AcDbArc
 50
41.7584289544
 51
48.2415710456
  0
ARC
  5
266
330
1F
100
AcDbEntity
  8
0
  6
Continuous
 62
     7
370
    25
100
AcDbCircle
 10
325.516685244
 20
208.0032443272
 30
0.0
 40
6.00000000000002
100
AcDbArc
 50
221.7584289544
 51
41.7584289544
  0
ARC
  5
267
330
1F
100
AcDbEntity
  8
0
  6
Continuous
 62
     7
370
    25
100
AcDbCircle
 10
193.6484464252
 20
90.2714831461
 30
0.0
 40
182.7766952966301
100
AcDbArc
 50
41.7584289544
 51
48.2415710456
  0
LINE
  5
268
330
1F
100
AcDbEntity
  8
0
  6
Continuous
 62
     7
370
    25
100
AcDbLine
 10
333.6484464252
 20
250.2714789737
 30
0.0
 11
83.6484464252
 21
250.2714789737
 31
0.0
  0
ARC
  5
269
330
1F
100
AcDbEntity
  8
0
  6
Continuous
 62
     7
370
    25
100
AcDbCircle
 10
333.6484464252
 20
230.2714831461
 30
0.0
 40
20.0
100
AcDbArc
 50
0.0
 51
90.0
  0
LINE
  5
26A
330
1F
100
AcDbEntity
  8
0
  6
Continuous
 62
     7
370
    25
100
AcDbLine
 10
353.6484422529
 20
-19.7285168539
 30
0.0
 11
353.6484422529
 21
230.2714831461
 31
0.0
  0
ARC
  5
26B
330
1F
100
AcDbEntity
  8
0
  6
Continuous
 62
     7
370
    25
100
AcDbCircle
 10
333.6484464252
 20
-19.7285168539
 30
0.0
 40
20.00000000000005
100
AcDbArc
 50
270.0
 51
0.0
  0
LINE
  5
26C
330
1F
100
AcDbEntity
  8
0
  6
Continuous
 62
     7
370
    25
100
AcDbLine
 10
83.6484464252
 20
-39.7285126816
 30
0.0
 11
333.6484464252
 21
-39.7285126816
 31
0.0
  0
ARC
  5
26D
330
1F
100
AcDbEntity
  8
0
  6
Continuous
 62
     7
370
    25
100
AcDbCircle
 10
83.6484464252
 20
-19.7285168539
 30
0.0
 40
19.99999999999999
100
AcDbArc
 50
180.0
 51
270.0
  0
LINE
  5
26E
330
1F
100
AcDbEntity
  8
0
  6
Continuous
 62
     7
370
    25
100
AcDbLine
 10
63.6484505975
 20
230.2714831461
 30
0.0
 11
63.6484505975
 21
-19.7285168539
 31
0.0
  0
ARC
  5
26F
330
1F
100
AcDbEntity
  8
0
  6
Continuous
 62
     7
370
    25
100
AcDbCircle
 10
91.7802076063
 20
208.0032443272
 30
0.0
 40
6.000000000000243
100
AcDbArc
 50
138.2415710456
 51
318.2415710456
  0
ARC
  5
270
330
1F
100
AcDbEntity
  8
0
  6
Continuous
 62
     7
370
    25
100
AcDbCircle
 10
223.6484464252
 20
90.2714831461
 30
0.0
 40
170.7766952966368
100
AcDbArc
 50
131.7584289544
 51
138.2415710456
  0
ARC
  5
271
330
1F
100
AcDbEntity
  8
0
  6
Continuous
 62
     7
370
    25
100
AcDbCircle
 10
105.916685244
 20
222.1397219649
 30
0.0
 40
5.999999999999939
100
AcDbArc
 50
311.7584289544
 51
131.7584289544
  0
ARC
  5
272
330
1F
100
AcDbEntity
  8
0
  6
Continuous
 62
     7
370
    25
100
AcDbCircle
 10
223.6484464252
 20
90.2714831461
 30
0.0
 40
182.7766952966369
100
AcDbArc
 50
131.7584289544
 51
138.2415710456
  0
ARC
  5
273
330
1F
100
AcDbEntity
  8
0
  6
Continuous
 62
     7
370
    25
100
AcDbCircle
 10
223.6484464252
 20
120.2714831461
 30
0.0
 40
170.7766952966368
100
AcDbArc
 50
221.7584289544
 51
228.2415710456
  0
ARC
  5
274
330
1F
100
AcDbEntity
  8
0
  6
Continuous
 62
     7
370
    25
100
AcDbCircle
 10
91.7802076063
 20
2.5397219649
 30
0.0
 40
6.000000000000012
100
AcDbArc
 50
41.7584289544
 51
221.7584289544
  0
ARC
  5
275
330
1F
100
AcDbEntity
  8
0
  6
Continuous
 62
     7
370
    25
100
AcDbCircle
 10
223.6484464252
 20
120.2714831461
 30
0.0
 40
182.7766952966368
100
AcDbArc
 50
221.7584289544
 51
228.2415710456
  0
ARC
  5
276
330
1F
100
AcDbEntity
  8
0
  6
Continuous
 62
     7
370
    25
100
AcDbCircle
 10
105.916685244
 20
-11.5967556728
 30
0.0
 40
6.000000000000536
100
AcDbArc
 50
228.2415710456
 51
48.2415710456
  0
ARC
  5
277
330
1F
100
AcDbEntity
  8
0
  6
Continuous
 62
     7
370
    25
100
AcDbCircle
 10
120.6484464252
 20
17.2714831461
 30
0.0
 40
2.750000000000014
100
AcDbArc
 50
180.0
 51
270.0
  0
LINE
  5
278
330
1F
100
AcDbEntity
  8
0
  6
Continuous
 62
     7
370
    25
100
AcDbLine
 10
120.648446902
 20
14.5214817752
 30
0.0
 11
296.6484459483
 21
14.5214817752
 31
0.0
  0
ARC
  5
279
330
1F
100
AcDbEntity
  8
0
  6
Continuous
 62
     7
370
    25
100
AcDbCircle
 10
296.6484464252
 20
17.2714831461
 30
0.0
 40
2.750000000000057
100
AcDbArc
 50
270.0
 51
0.0
  0
LINE
  5
27A
330
1F
100
AcDbEntity
  8
0
  6
Continuous
 62
     7
370
    25
100
AcDbLine
 10
299.3984477961
 20
17.2714836229
 30
0.0
 11
299.3984477961
 21
193.2714826692
 31
0.0
  0
ARC
  5
27B
330
1F
100
AcDbEntity
  8
0
  6
Continuous
 62
     7
370
    25
100
AcDbCircle
 10
296.6484464252
 20
193.2714831461
 30
0.0
 40
2.750000000000057
100
AcDbArc
 50
0.0
 51
90.0
  0
LINE
  5
27C
330
1F
100
AcDbEntity
  8
0
  6
Continuous
 62
     7
370
    25
100
AcDbLine
 10
296.6484459483
 20
196.021484517
 30
0.0
 11
120.648446902
 21
196.021484517
 31
0.0
  0
ARC
  5
27D
330
1F
100
AcDbEntity
  8
0
  6
Continuous
 62
     7
370
    25
100
AcDbCircle
 10
120.6484464252
 20
193.2714831461
 30
0.0
 40
2.750000000000014
100
AcDbArc
 50
90.0
 51
180.0
  0
LINE
  5
27E
330
1F
100
AcDbEntity
  8
0
  6
Continuous
 62
     7
370
    25
100
AcDbLine
 10
117.8984450543
 20
193.2714826692
 30
0.0
 11
117.8984450543
 21
17.2714836229
 31
0.0
  0
ARC
  5
27F
330
1F
100
AcDbEntity
  8
0
  6
Continuous
 62
     7
370
    25
100
AcDbCircle
 10
83.6484464252
 20
230.2714831461
 30
0.0
 40
20.0
100
AcDbArc
 50
90.0
 51
180.0
  0
ENDSEC
  0
SECTION
  2
OBJECTS
  0
DICTIONARY
  5
C
330
0
100
AcDbDictionary
281
     1
  3
ACAD_GROUP
350
D
  3
ACAD_LAYOUT
350
1A
  3
ACAD_MLINESTYLE
350
17
  3
ACAD_PLOTSETTINGS
350
19
  3
ACAD_PLOTSTYLENAME
350
E
  3
ACAD_SCALELIST
350
47
  0
DICTIONARY
  5
D
102
{ACAD_REACTORS
330
C
102
}
330
C
100
AcDbDictionary
281
     1
  0
DICTIONARY
  5
1A
102
{ACAD_REACTORS
330
C
102
}
330
C
100
AcDbDictionary
281
     1
  3
Layout1
350
1E
  3
Layout2
350
26
  3
Model
350
22
  0
DICTIONARY
  5
17
102
{ACAD_REACTORS
330
C
102
}
330
C
100
AcDbDictionary
281
     1
  3
Standard
350
18
  0
DICTIONARY
  5
19
102
{ACAD_REACTORS
330
C
102
}
330
C
100
AcDbDictionary
281
     1
  0
ACDBDICTIONARYWDFLT
  5
E
102
{ACAD_REACTORS
330
C
102
}
330
C
100
AcDbDictionary
281
     1
  3
Normal
350
F
100
AcDbDictionaryWithDefault
340
F
  0
DICTIONARY
  5
47
102
{ACAD_REACTORS
330
C
102
}
330
C
100
AcDbDictionary
281
     1
  3
A0
350
48
  3
A1
350
49
  3
A2
350
4A
  3
A3
350
4B
  3
A4
350
4C
  3
A5
350
4D
  3
A6
350
4E
  3
A7
350
4F
  3
A8
350
50
  3
A9
350
51
  3
B0
350
52
  3
B1
350
53
  3
B2
350
54
  3
B3
350
55
  3
B4
350
56
  3
B5
350
57
  3
B6
350
58
  3
B7
350
59
  3
B8
350
5A
  3
B9
350
5B
  3
C0
350
5C
  3
C1
350
5D
  3
C2
350
5E
  3
C3
350
5F
  3
C4
350
60
  3
C5
350
61
  3
C6
350
62
  3
C7
350
63
  3
C8
350
64
  3
C9
350
65
  3
D0
350
66
  3
D1
350
67
  3
D2
350
68
  0
LAYOUT
  5
1E
102
{ACAD_REACTORS
330
1A
102
}
330
1A
100
AcDbPlotSettings
  1

  2
none_device
  4

  6

 40
0.0
 41
0.0
 42
0.0
 43
0.0
 44
0.0
 45
0.0
 46
0.0
 47
0.0
 48
0.0
 49
0.0
140
0.0
141
0.0
142
1.0
143
1.0
 70
   688
 72
     1
 73
     0
 74
     5
  7

 75
    16
147
1.0
148
0.0
149
0.0
100
AcDbLayout
  1
Layout1
 70
     1
 71
     1
 10
0.0
 20
0.0
 11
420.0
 21
297.0
 12
0.0
 22
0.0
 32
0.0
 14
1.0000000000E+20
 24
1.0000000000E+20
 34
1.0000000000E+20
 15
-1.0000000000E+20
 25
-1.0000000000E+20
 35
-1.0000000000E+20
146
0.0
 13
0.0
 23
0.0
 33
0.0
 16
1.0
 26
0.0
 36
0.0
 17
0.0
 27
1.0
 37
0.0
 76
     0
330
1B
  0
LAYOUT
  5
26
102
{ACAD_REACTORS
330
1A
102
}
330
1A
100
AcDbPlotSettings
  1

  2
none_device
  4

  6

 40
0.0
 41
0.0
 42
0.0
 43
0.0
 44
0.0
 45
0.0
 46
0.0
 47
0.0
 48
0.0
 49
0.0
140
0.0
141
0.0
142
1.0
143
1.0
 70
   688
 72
     1
 73
     0
 74
     5
  7

 75
    16
147
1.0
148
0.0
149
0.0
100
AcDbLayout
  1
Layout2
 70
     1
 71
     2
 10
0.0
 20
0.0
 11
0.0
 21
0.0
 12
0.0
 22
0.0
 32
0.0
 14
0.0
 24
0.0
 34
0.0
 15
0.0
 25
0.0
 35
0.0
146
0.0
 13
0.0
 23
0.0
 33
0.0
 16
1.0
 26
0.0
 36
0.0
 17
0.0
 27
1.0
 37
0.0
 76
     0
330
23
  0
LAYOUT
  5
22
102
{ACAD_REACTORS
330
1A
102
}
330
1A
100
AcDbPlotSettings
  1

  2
none_device
  4
Letter_(8.50_x_11.00_Inches)
  6

 40
6.35
 41
6.35
 42
6.35000508
 43
6.35000508
 44
215.9
 45
279.4
 46
0.0
 47
0.0
 48
0.0
 49
0.0
140
0.0
141
0.0
142
1.0
143
1.0
 70
  1712
 72
     1
 73
     0
 74
     0
  7

 75
     0
147
1.0
148
0.0
149
0.0
100
AcDbLayout
  1
Model
 70
     1
 71
     0
 10
0.0
 20
0.0
 11
420.0
 21
297.0
 12
0.0
 22
0.0
 32
0.0
 14
0.0
 24
0.0
 34
0.0
 15
420.0
 25
297.0
 35
0.0
146
0.0
 13
0.0
 23
0.0
 33
0.0
 16
1.0
 26
0.0
 36
0.0
 17
0.0
 27
1.0
 37
0.0
 76
     0
330
1F
331
29
  0
MLINESTYLE
  5
18
102
{ACAD_REACTORS
330
17
102
}
330
17
100
AcDbMlineStyle
  2
Standard
 70
     0
  3

 62
   256
 51
90.0
 52
90.0
 71
     2
 49
0.5
 62
   256
  6
BYLAYER
 49
-0.5
 62
   256
  6
BYLAYER
  0
ACDBPLACEHOLDER
  5
F
102
{ACAD_REACTORS
330
E
102
}
330
E
  0
SCALE
  5
48
102
{ACAD_REACTORS
330
47
102
}
330
47
100
AcDbScale
 70
     0
300
1:1
140
1.0
141
1.0
290
     1
  0
SCALE
  5
49
102
{ACAD_REACTORS
330
47
102
}
330
47
100
AcDbScale
 70
     0
300
1:2
140
1.0
141
2.0
290
     0
  0
SCALE
  5
4A
102
{ACAD_REACTORS
330
47
102
}
330
47
100
AcDbScale
 70
     0
300
1:4
140
1.0
141
4.0
290
     0
  0
SCALE
  5
4B
102
{ACAD_REACTORS
330
47
102
}
330
47
100
AcDbScale
 70
     0
300
1:5
140
1.0
141
5.0
290
     0
  0
SCALE
  5
4C
102
{ACAD_REACTORS
330
47
102
}
330
47
100
AcDbScale
 70
     0
300
1:8
140
1.0
141
8.0
290
     0
  0
SCALE
  5
4D
102
{ACAD_REACTORS
330
47
102
}
330
47
100
AcDbScale
 70
     0
300
1:10
140
1.0
141
10.0
290
     0
  0
SCALE
  5
4E
102
{ACAD_REACTORS
330
47
102
}
330
47
100
AcDbScale
 70
     0
300
1:16
140
1.0
141
16.0
290
     0
  0
SCALE
  5
4F
102
{ACAD_REACTORS
330
47
102
}
330
47
100
AcDbScale
 70
     0
300
1:20
140
1.0
141
20.0
290
     0
  0
SCALE
  5
50
102
{ACAD_REACTORS
330
47
102
}
330
47
100
AcDbScale
 70
     0
300
1:30
140
1.0
141
30.0
290
     0
  0
SCALE
  5
51
102
{ACAD_REACTORS
330
47
102
}
330
47
100
AcDbScale
 70
     0
300
1:40
140
1.0
141
40.0
290
     0
  0
SCALE
  5
52
102
{ACAD_REACTORS
330
47
102
}
330
47
100
AcDbScale
 70
     0
300
1:50
140
1.0
141
50.0
290
     0
  0
SCALE
  5
53
102
{ACAD_REACTORS
330
47
102
}
330
47
100
AcDbScale
 70
     0
300
1:100
140
1.0
141
100.0
290
     0
  0
SCALE
  5
54
102
{ACAD_REACTORS
330
47
102
}
330
47
100
AcDbScale
 70
     0
300
2:1
140
2.0
141
1.0
290
     0
  0
SCALE
  5
55
102
{ACAD_REACTORS
330
47
102
}
330
47
100
AcDbScale
 70
     0
300
4:1
140
4.0
141
1.0
290
     0
  0
SCALE
  5
56
102
{ACAD_REACTORS
330
47
102
}
330
47
100
AcDbScale
 70
     0
300
8:1
140
8.0
141
1.0
290
     0
  0
SCALE
  5
57
102
{ACAD_REACTORS
330
47
102
}
330
47
100
AcDbScale
 70
     0
300
10:1
140
10.0
141
1.0
290
     0
  0
SCALE
  5
58
102
{ACAD_REACTORS
330
47
102
}
330
47
100
AcDbScale
 70
     0
300
100:1
140
100.0
141
1.0
290
     0
  0
SCALE
  5
59
102
{ACAD_REACTORS
330
47
102
}
330
47
100
AcDbScale
 70
     0
300
1/128" = 1'-0"
140
0.0078125
141
12.0
290
     0
  0
SCALE
  5
5A
102
{ACAD_REACTORS
330
47
102
}
330
47
100
AcDbScale
 70
     0
300
1/64" = 1'-0"
140
0.015625
141
12.0
290
     0
  0
SCALE
  5
5B
102
{ACAD_REACTORS
330
47
102
}
330
47
100
AcDbScale
 70
     0
300
1/32" = 1'-0"
140
0.03125
141
12.0
290
     0
  0
SCALE
  5
5C
102
{ACAD_REACTORS
330
47
102
}
330
47
100
AcDbScale
 70
     0
300
1/16" = 1'-0"
140
0.0625
141
12.0
290
     0
  0
SCALE
  5
5D
102
{ACAD_REACTORS
330
47
102
}
330
47
100
AcDbScale
 70
     0
300
3/32" = 1'-0"
140
0.09375
141
12.0
290
     0
  0
SCALE
  5
5E
102
{ACAD_REACTORS
330
47
102
}
330
47
100
AcDbScale
 70
     0
300
1/8" = 1'-0"
140
0.125
141
12.0
290
     0
  0
SCALE
  5
5F
102
{ACAD_REACTORS
330
47
102
}
330
47
100
AcDbScale
 70
     0
300
3/16" = 1'-0"
140
0.1875
141
12.0
290
     0
  0
SCALE
  5
60
102
{ACAD_REACTORS
330
47
102
}
330
47
100
AcDbScale
 70
     0
300
1/4" = 1'-0"
140
0.25
141
12.0
290
     0
  0
SCALE
  5
61
102
{ACAD_REACTORS
330
47
102
}
330
47
100
AcDbScale
 70
     0
300
3/8" = 1'-0"
140
0.375
141
12.0
290
     0
  0
SCALE
  5
62
102
{ACAD_REACTORS
330
47
102
}
330
47
100
AcDbScale
 70
     0
300
1/2" = 1'-0"
140
0.5
141
12.0
290
     0
  0
SCALE
  5
63
102
{ACAD_REACTORS
330
47
102
}
330
47
100
AcDbScale
 70
     0
300
3/4" = 1'-0"
140
0.75
141
12.0
290
     0
  0
SCALE
  5
64
102
{ACAD_REACTORS
330
47
102
}
330
47
100
AcDbScale
 70
     0
300
1" = 1'-0"
140
1.0
141
12.0
290
     0
  0
SCALE
  5
65
102
{ACAD_REACTORS
330
47
102
}
330
47
100
AcDbScale
 70
     0
300
1-1/2" = 1'-0"
140
1.5
141
12.0
290
     0
  0
SCALE
  5
66
102
{ACAD_REACTORS
330
47
102
}
330
47
100
AcDbScale
 70
     0
300
3" = 1'-0"
140
3.0
141
12.0
290
     0
  0
SCALE
  5
67
102
{ACAD_REACTORS
330
47
102
}
330
47
100
AcDbScale
 70
     0
300
6" = 1'-0"
140
6.0
141
12.0
290
     0
  0
SCALE
  5
68
102
{ACAD_REACTORS
330
47
102
}
330
47
100
AcDbScale
 70
     0
300
1'-0" = 1'-0"
140
12.0
141
12.0
290
     0
  0
ENDSEC
  0
EOF
