  0
SECTION
  2
HEADER
  9
$ACADVER
  1
AC1015
  9
$ACADMAINTVER
 70
     6
  9
$DWGCODEPAGE
  3
ANSI_1254
  9
$INSBASE
 10
0.0
 20
0.0
 30
0.0
  9
$EXTMIN
 10
0.0
 20
0.0
 30
0.0
  9
$EXTMAX
 10
2000.0
 20
2000.0
 30
0.0
  9
$LIMMIN
 10
0.0
 20
0.0
  9
$LIMMAX
 10
2000.0
 20
2000.0
  9
$ORTHOMODE
 70
     0
  9
$REGENMODE
 70
     1
  9
$FILLMODE
 70
     1
  9
$QTEXTMODE
 70
     0
  9
$MIRRTEXT
 70
     1
  9
$LTSCALE
 40
1.0
  9
$ATTMODE
 70
     1
  9
$TEXTSIZE
 40
4.9388888889
  9
$TRACEWID
 40
1.0
  9
$TEXTSTYLE
  7
Standard
  9
$CLAYER
  8
0
  9
$CELTYPE
  6
ByLayer
  9
$CECOLOR
 62
   256
  9
$CELTSCALE
 40
1.0
  9
$DISPSILH
 70
     0
  9
$DIMSCALE
 40
1.0
  9
$DIMASZ
 40
3.65
  9
$DIMEXO
 40
0.5
  9
$DIMDLI
 40
3.75
  9
$DIMRND
 40
0.0
  9
$DIMDLE
 40
0.0
  9
$DIMEXE
 40
1.0
  9
$DIMTP
 40
0.0
  9
$DIMTM
 40
0.0
  9
$DIMTXT
 40
4.2333333333
  9
$DIMCEN
 40
2.5
  9
$DIMTSZ
 40
0.0
  9
$DIMTOL
 70
     0
  9
$DIMLIM
 70
     0
  9
$DIMTIH
 70
     1
  9
$DIMTOH
 70
     1
  9
$DIMSE1
 70
     0
  9
$DIMSE2
 70
     0
  9
$DIMTAD
 70
     1
  9
$DIMZIN
 70
     0
  9
$DIMBLK
  1

  9
$DIMASO
 70
     1
  9
$DIMSHO
 70
     1
  9
$DIMPOST
  1

  9
$DIMAPOST
  1

  9
$DIMALT
 70
     0
  9
$DIMALTD
 70
     3
  9
$DIMALTF
 40
0.0393700787
  9
$DIMLFAC
 40
1.0
  9
$DIMTOFL
 70
     1
  9
$DIMTVP
 40
0.0
  9
$DIMTIX
 70
     0
  9
$DIMSOXD
 70
     0
  9
$DIMSAH
 70
     0
  9
$DIMBLK1
  1

  9
$DIMBLK2
  1

  9
$DIMSTYLE
  2
ISO-25
  9
$DIMCLRD
 70
     0
  9
$DIMCLRE
 70
     0
  9
$DIMCLRT
 70
     0
  9
$DIMTFAC
 40
1.0
  9
$DIMGAP
 40
1.524
  9
$DIMJUST
 70
     0
  9
$DIMSD1
 70
     0
  9
$DIMSD2
 70
     0
  9
$DIMTOLJ
 70
     0
  9
$DIMTZIN
 70
     0
  9
$DIMALTZ
 70
     0
  9
$DIMALTTZ
 70
     0
  9
$DIMUPT
 70
     0
  9
$DIMDEC
 70
     2
  9
$DIMTDEC
 70
     2
  9
$DIMALTU
 70
     2
  9
$DIMALTTD
 70
     3
  9
$DIMTXSTY
  7
Standard
  9
$DIMAUNIT
 70
     0
  9
$DIMADEC
 70
     2
  9
$DIMALTRND
 40
0.0
  9
$DIMAZIN
 70
     0
  9
$DIMDSEP
 70
    44
  9
$DIMATFIT
 70
     3
  9
$DIMFRAC
 70
     0
  9
$DIMLDRBLK
  1

  9
$DIMLUNIT
 70
     2
  9
$DIMLWD
 70
    -2
  9
$DIMLWE
 70
    -2
  9
$DIMTMOVE
 70
     0
  9
$LUNITS
 70
     2
  9
$LUPREC
 70
     2
  9
$SKETCHINC
 40
1.0
  9
$FILLETRAD
 40
10.0
  9
$AUNITS
 70
     0
  9
$AUPREC
 70
     2
  9
$MENU
  1
.
  9
$ELEVATION
 40
0.0
  9
$PELEVATION
 40
0.0
  9
$THICKNESS
 40
0.0
  9
$LIMCHECK
 70
     0
  9
$CHAMFERA
 40
0.0
  9
$CHAMFERB
 40
0.0
  9
$CHAMFERC
 40
0.0
  9
$CHAMFERD
 40
0.0
  9
$SKPOLY
 70
     0
  9
$TDCREATE
 40
2459101.354570127
  9
$TDUCREATE
 40
2459101.229570127
  9
$TDUPDATE
 40
2459101.354570671
  9
$TDUUPDATE
 40
2459101.229570671
  9
$TDINDWG
 40
0.0000000116
  9
$TDUSRTIMER
 40
0.0000000116
  9
$USRTIMER
 70
     1
  9
$ANGBASE
 50
0.0
  9
$ANGDIR
 70
     0
  9
$PDMODE
 70
     0
  9
$PDSIZE
 40
-1.0
  9
$PLINEWID
 40
0.0
  9
$SPLFRAME
 70
     0
  9
$SPLINETYPE
 70
     6
  9
$SPLINESEGS
 70
     8
  9
$HANDSEED
  5
179
  9
$SURFTAB1
 70
     6
  9
$SURFTAB2
 70
     6
  9
$SURFTYPE
 70
     6
  9
$SURFU
 70
     6
  9
$SURFV
 70
     6
  9
$UCSBASE
  2

  9
$UCSNAME
  2

  9
$UCSORG
 10
0.0
 20
0.0
 30
0.0
  9
$UCSXDIR
 10
1.0
 20
0.0
 30
0.0
  9
$UCSYDIR
 10
0.0
 20
1.0
 30
0.0
  9
$UCSORTHOREF
  2

  9
$UCSORTHOVIEW
 70
     0
  9
$UCSORGTOP
 10
0.0
 20
0.0
 30
0.0
  9
$UCSORGBOTTOM
 10
0.0
 20
0.0
 30
0.0
  9
$UCSORGLEFT
 10
0.0
 20
0.0
 30
0.0
  9
$UCSORGRIGHT
 10
0.0
 20
0.0
 30
0.0
  9
$UCSORGFRONT
 10
0.0
 20
0.0
 30
0.0
  9
$UCSORGBACK
 10
0.0
 20
0.0
 30
0.0
  9
$PUCSBASE
  2

  9
$PUCSNAME
  2

  9
$PUCSORG
 10
0.0
 20
0.0
 30
0.0
  9
$PUCSXDIR
 10
1.0
 20
0.0
 30
0.0
  9
$PUCSYDIR
 10
0.0
 20
1.0
 30
0.0
  9
$PUCSORTHOREF
  2

  9
$PUCSORTHOVIEW
 70
     0
  9
$PUCSORGTOP
 10
0.0
 20
0.0
 30
0.0
  9
$PUCSORGBOTTOM
 10
0.0
 20
0.0
 30
0.0
  9
$PUCSORGLEFT
 10
0.0
 20
0.0
 30
0.0
  9
$PUCSORGRIGHT
 10
0.0
 20
0.0
 30
0.0
  9
$PUCSORGFRONT
 10
0.0
 20
0.0
 30
0.0
  9
$PUCSORGBACK
 10
0.0
 20
0.0
 30
0.0
  9
$USERI1
 70
     0
  9
$USERI2
 70
     0
  9
$USERI3
 70
     0
  9
$USERI4
 70
     0
  9
$USERI5
 70
     0
  9
$USERR1
 40
0.0
  9
$USERR2
 40
0.0
  9
$USERR3
 40
0.0
  9
$USERR4
 40
0.0
  9
$USERR5
 40
0.0
  9
$WORLDVIEW
 70
     1
  9
$SHADEDGE
 70
     3
  9
$SHADEDIF
 70
    70
  9
$TILEMODE
 70
     1
  9
$MAXACTVP
 70
    64
  9
$PINSBASE
 10
0.0
 20
0.0
 30
0.0
  9
$PLIMCHECK
 70
     0
  9
$PEXTMIN
 10
1.0000000000E+20
 20
1.0000000000E+20
 30
1.0000000000E+20
  9
$PEXTMAX
 10
-1.0000000000E+20
 20
-1.0000000000E+20
 30
-1.0000000000E+20
  9
$PLIMMIN
 10
0.0
 20
0.0
  9
$PLIMMAX
 10
420.0
 20
297.0
  9
$UNITMODE
 70
     0
  9
$VISRETAIN
 70
     1
  9
$PLINEGEN
 70
     0
  9
$PSLTSCALE
 70
     1
  9
$TREEDEPTH
 70
  3020
  9
$CMLSTYLE
  2
Standard
  9
$CMLJUST
 70
     0
  9
$CMLSCALE
 40
20.0
  9
$PROXYGRAPHICS
 70
     1
  9
$MEASUREMENT
 70
     1
  9
$CELWEIGHT
370
    -1
  9
$ENDCAPS
280
     0
  9
$JOINSTYLE
280
     0
  9
$LWDISPLAY
290
     1
  9
$INSUNITS
 70
     4
  9
$HYPERLINKBASE
  1

  9
$STYLESHEET
  1

  9
$XEDIT
290
     1
  9
$CEPSNTYPE
380
     0
  9
$PSTYLEMODE
290
     1
  9
$FINGERPRINTGUID
  2
{3ee966f1-ce97-42dd-9e6a-eb86ae167b3f}
  9
$VERSIONGUID
  2
{FAEB1C32-E019-11D5-929B-00C0DF256EC4}
  9
$EXTNAMES
290
     1
  9
$PSVPSCALE
 40
0.0
  9
$OLESTARTUP
290
     0
  0
ENDSEC
  0
SECTION
  2
CLASSES
  0
CLASS
  1
ACDBDICTIONARYWDFLT
  2
AcDbDictionaryWithDefault
  3
ObjectDBX Classes
 90
        0
280
     0
281
     0
  0
CLASS
  1
VISUALSTYLE
  2
AcDbVisualStyle
  3
ObjectDBX Classes
 90
     4095
280
     0
281
     0
  0
CLASS
  1
MATERIAL
  2
AcDbMaterial
  3
ObjectDBX Classes
 90
     1153
280
     0
281
     0
  0
CLASS
  1
SCALE
  2
AcDbScale
  3
ObjectDBX Classes
 90
     1153
280
     0
281
     0
  0
CLASS
  1
TABLESTYLE
  2
AcDbTableStyle
  3
ObjectDBX Classes
 90
     4095
280
     0
281
     0
  0
CLASS
  1
MLEADERSTYLE
  2
AcDbMLeaderStyle
  3
ACDB_MLEADERSTYLE_CLASS
 90
     4095
280
     0
281
     0
  0
CLASS
  1
SUN
  2
AcDbSun
  3
SCENEOE
 90
     1153
280
     0
281
     0
  0
CLASS
  1
ACDBPLACEHOLDER
  2
AcDbPlaceHolder
  3
ObjectDBX Classes
 90
        0
280
     0
281
     0
  0
CLASS
  1
LAYOUT
  2
AcDbLayout
  3
ObjectDBX Classes
 90
        0
280
     0
281
     0
  0
ENDSEC
  0
SECTION
  2
TABLES
  0
TABLE
  2
VPORT
  5
8
330
0
100
AcDbSymbolTable
 70
     1
  0
VPORT
  5
29
330
8
100
AcDbSymbolTableRecord
100
AcDbViewportTableRecord
  2
*Active
 70
     0
 10
0.0
 20
0.0
 11
1.0
 21
1.0
 12
1000.0
 22
1000.0
 13
0.0
 23
0.0
 14
10.0
 24
10.0
 15
10.0
 25
10.0
 16
0.0
 26
0.0
 36
1.0
 17
0.0
 27
0.0
 37
0.0
 40
2000.0
 41
1.0
 42
50.0
 43
0.0
 44
0.0
 50
0.0
 51
0.0
 71
     0
 72
  2000
 73
     1
 74
     3
 75
     0
 76
     0
 77
     0
 78
     0
281
     0
 65
     1
110
0.0
120
0.0
130
0.0
111
1.0
121
0.0
131
0.0
112
0.0
122
1.0
132
0.0
 79
     0
146
0.0
  0
ENDTAB
  0
TABLE
  2
LTYPE
  5
5
330
0
100
AcDbSymbolTable
 70
     6
  0
LTYPE
  5
14
330
5
100
AcDbSymbolTableRecord
100
AcDbLinetypeTableRecord
  2
ByBlock
 70
     0
  3

 72
    65
 73
     0
 40
0.0
  0
LTYPE
  5
15
330
5
100
AcDbSymbolTableRecord
100
AcDbLinetypeTableRecord
  2
ByLayer
 70
     0
  3

 72
    65
 73
     0
 40
0.0
  0
LTYPE
  5
16
330
5
100
AcDbSymbolTableRecord
100
AcDbLinetypeTableRecord
  2
Continuous
 70
     0
  3
Solid line
 72
    65
 73
     0
 40
0.0
  0
LTYPE
  5
6E
330
5
100
AcDbSymbolTableRecord
100
AcDbLinetypeTableRecord
  2
HIDDEN
 70
     0
  3
Hidden __ __ __ __ __ __ __ __ __ __ __ __ __ __
 72
    65
 73
     2
 40
1.905
 49
1.27
 74
     0
 49
-0.635
 74
     0
  0
LTYPE
  5
6F
330
5
100
AcDbSymbolTableRecord
100
AcDbLinetypeTableRecord
  2
PHANTOM
 70
     0
  3
Phantom ______  __  __  ______  __  __  ______
 72
    65
 73
     6
 40
12.7
 49
6.35
 74
     0
 49
-1.27
 74
     0
 49
1.27
 74
     0
 49
-1.27
 74
     0
 49
1.27
 74
     0
 49
-1.27
 74
     0
  0
LTYPE
  5
70
330
5
100
AcDbSymbolTableRecord
100
AcDbLinetypeTableRecord
  2
CENTER
 70
     0
  3
Center ____ _ ____ _ ____ _ ____ _ ____ _ ____
 72
    65
 73
     4
 40
10.16
 49
6.35
 74
     0
 49
-1.27
 74
     0
 49
1.27
 74
     0
 49
-1.27
 74
     0
  0
LTYPE
  5
71
330
5
100
AcDbSymbolTableRecord
100
AcDbLinetypeTableRecord
  2
CENTERX2
 70
     0
  3
Center (2x) ________  __  ________  __  _____
 72
    65
 73
     4
 40
20.32
 49
12.7
 74
     0
 49
-2.54
 74
     0
 49
2.54
 74
     0
 49
-2.54
 74
     0
  0
LTYPE
  5
72
330
5
100
AcDbSymbolTableRecord
100
AcDbLinetypeTableRecord
  2
DOT2
 70
     0
  3
Dot (.5x) ........................................
 72
    65
 73
     2
 40
0.635
 49
0.0
 74
     0
 49
-0.635
 74
     0
  0
ENDTAB
  0
TABLE
  2
LAYER
  5
2
330
0
100
AcDbSymbolTable
 70
     5
  0
LAYER
  5
10
330
2
100
AcDbSymbolTableRecord
100
AcDbLayerTableRecord
  2
0
 70
     0
 62
     7
  6
Continuous
370
    -3
390
F
  0
LAYER
  5
73
330
2
100
AcDbSymbolTableRecord
100
AcDbLayerTableRecord
  2
FORMAT
 70
     0
 62
     7
  6
Continuous
370
    -3
390
F
  0
LAYER
  5
74
330
2
100
AcDbSymbolTableRecord
100
AcDbLayerTableRecord
  2
SLD-0
 70
     0
 62
   179
  6
Continuous
370
    -3
390
F
  0
LAYER
  5
75
330
2
100
AcDbSymbolTableRecord
100
AcDbLayerTableRecord
  2
AAA_EKSEN
 70
     0
 62
     1
  6
CENTER
370
    -3
390
F
  0
LAYER
  5
76
330
2
100
AcDbSymbolTableRecord
100
AcDbLayerTableRecord
  2
03
 70
     0
 62
     3
  6
HIDDEN
370
    -3
390
F
  0
ENDTAB
  0
TABLE
  2
STYLE
  5
3
330
0
100
AcDbSymbolTable
 70
     1
  0
STYLE
  5
11
330
3
100
AcDbSymbolTableRecord
100
AcDbTextStyleTableRecord
  2
Standard
 70
     0
 40
0.0
 41
1.0
 50
0.0
 71
     0
 42
4.9388888889
  3
txt
  4

  0
ENDTAB
  0
TABLE
  2
VIEW
  5
6
330
0
100
AcDbSymbolTable
 70
     0
  0
ENDTAB
  0
TABLE
  2
UCS
  5
7
330
0
100
AcDbSymbolTable
 70
     0
  0
ENDTAB
  0
TABLE
  2
APPID
  5
9
330
0
100
AcDbSymbolTable
 70
     1
  0
APPID
  5
12
330
9
100
AcDbSymbolTableRecord
100
AcDbRegAppTableRecord
  2
ACAD
 70
     0
  0
ENDTAB
  0
TABLE
  2
DIMSTYLE
  5
A
330
0
100
AcDbSymbolTable
 70
     1
100
AcDbDimStyleTable
  0
DIMSTYLE
105
27
330
A
100
AcDbSymbolTableRecord
100
AcDbDimStyleTableRecord
  2
ISO-25
 70
     0
 41
2.5
 42
0.625
 43
3.75
 44
1.25
 73
     0
 74
     0
 77
     1
 78
     8
140
2.5
141
2.5
143
0.0393700787
147
0.625
171
     3
172
     1
178
     0
271
     2
272
     2
274
     3
278
    44
283
     0
284
     8
340
11
  0
ENDTAB
  0
TABLE
  2
BLOCK_RECORD
  5
1
330
0
100
AcDbSymbolTable
 70
     1
  0
BLOCK_RECORD
  5
1F
330
1
100
AcDbSymbolTableRecord
100
AcDbBlockTableRecord
  2
*Model_Space
340
22
  0
BLOCK_RECORD
  5
1B
330
1
100
AcDbSymbolTableRecord
100
AcDbBlockTableRecord
  2
*Paper_Space
340
1E
  0
BLOCK_RECORD
  5
23
330
1
100
AcDbSymbolTableRecord
100
AcDbBlockTableRecord
  2
*Paper_Space0
340
26
  0
ENDTAB
  0
ENDSEC
  0
SECTION
  2
BLOCKS
  0
BLOCK
  5
20
330
1F
100
AcDbEntity
  8
0
100
AcDbBlockBegin
  2
*Model_Space
 70
     0
 10
0.0
 20
0.0
 30
0.0
  3
*Model_Space
  1

  0
ENDBLK
  5
21
330
1F
100
AcDbEntity
  8
0
100
AcDbBlockEnd
  0
BLOCK
  5
1C
330
1B
100
AcDbEntity
 67
     1
  8
0
100
AcDbBlockBegin
  2
*Paper_Space
 70
     0
 10
0.0
 20
0.0
 30
0.0
  3
*Paper_Space
  1

  0
ENDBLK
  5
1D
330
1B
100
AcDbEntity
 67
     1
  8
0
100
AcDbBlockEnd
  0
BLOCK
  5
24
330
23
100
AcDbEntity
  8
0
100
AcDbBlockBegin
  2
*Paper_Space0
 70
     0
 10
0.0
 20
0.0
 30
0.0
  3
*Paper_Space0
  1

  0
ENDBLK
  5
25
330
23
100
AcDbEntity
  8
0
100
AcDbBlockEnd
  0
ENDSEC
  0
SECTION
  2
ENTITIES
  0
LINE
  5
77
330
1F
100
AcDbEntity
  8
0
  6
Continuous
 62
     7
370
    25
100
AcDbLine
 10
982.8817202401
 20
1901.5910449861
 30
0.0
 11
982.8817202401
 21
1922.0910492777
 31
0.0
  0
LINE
  5
78
330
1F
100
AcDbEntity
  8
0
  6
Continuous
 62
     7
370
    25
100
AcDbLine
 10
972.881719998
 20
1922.0910492777
 30
0.0
 11
972.881719998
 21
1901.5910449861
 31
0.0
  0
LINE
  5
79
330
1F
100
AcDbEntity
  8
0
  6
Continuous
 62
     7
370
    25
100
AcDbLine
 10
880.8817216818
 20
1901.5910449861
 30
0.0
 11
880.8817216818
 21
1922.0910492777
 31
0.0
  0
LINE
  5
7A
330
1F
100
AcDbEntity
  8
0
  6
Continuous
 62
     7
370
    25
100
AcDbLine
 10
870.881723768
 20
1922.0910492777
 30
0.0
 11
870.881723768
 21
1901.5910449861
 31
0.0
  0
LINE
  5
7B
330
1F
100
AcDbEntity
  8
0
  6
Continuous
 62
     7
370
    25
100
AcDbLine
 10
880.8817216818
 20
1878.5910430788
 30
0.0
 11
880.8817216818
 21
1898.5910538076
 31
0.0
  0
LINE
  5
7C
330
1F
100
AcDbEntity
  8
0
  6
Continuous
 62
     7
370
    25
100
AcDbLine
 10
870.881723768
 20
1898.5910538076
 30
0.0
 11
870.881723768
 21
1878.5910430788
 31
0.0
  0
LINE
  5
7D
330
1F
100
AcDbEntity
  8
0
  6
Continuous
 62
     7
370
    25
100
AcDbLine
 10
982.8817202401
 20
1832.5910392641
 30
0.0
 11
982.8817202401
 21
1852.5910499929
 31
0.0
  0
LINE
  5
7E
330
1F
100
AcDbEntity
  8
0
  6
Continuous
 62
     7
370
    25
100
AcDbLine
 10
972.881719998
 20
1852.5910499929
 30
0.0
 11
972.881719998
 21
1832.5910392641
 31
0.0
  0
LINE
  5
7F
330
1F
100
AcDbEntity
  8
0
  6
Continuous
 62
     7
370
    25
100
AcDbLine
 10
880.8817216818
 20
1809.5910373568
 30
0.0
 11
880.8817216818
 21
1829.5910480856
 31
0.0
  0
LINE
  5
80
330
1F
100
AcDbEntity
  8
0
  6
Continuous
 62
     7
370
    25
100
AcDbLine
 10
870.881723768
 20
1829.5910480856
 30
0.0
 11
870.881723768
 21
1809.5910373568
 31
0.0
  0
LINE
  5
81
330
1F
100
AcDbEntity
  8
0
  6
Continuous
 62
     7
370
    25
100
AcDbLine
 10
982.8817202401
 20
1786.5910652517
 30
0.0
 11
982.8817202401
 21
1806.5910461782
 31
0.0
  0
LINE
  5
82
330
1F
100
AcDbEntity
  8
0
  6
Continuous
 62
     7
370
    25
100
AcDbLine
 10
972.881719998
 20
1806.5910461782
 30
0.0
 11
972.881719998
 21
1786.5910652517
 31
0.0
  0
LINE
  5
83
330
1F
100
AcDbEntity
  8
0
  6
Continuous
 62
     7
370
    25
100
AcDbLine
 10
982.8817202401
 20
1878.5910430788
 30
0.0
 11
982.8817202401
 21
1898.5910538076
 31
0.0
  0
LINE
  5
84
330
1F
100
AcDbEntity
  8
0
  6
Continuous
 62
     7
370
    25
100
AcDbLine
 10
972.881719998
 20
1898.5910538076
 30
0.0
 11
972.881719998
 21
1878.5910430788
 31
0.0
  0
LINE
  5
85
330
1F
100
AcDbEntity
  8
0
  6
Continuous
 62
     7
370
    25
100
AcDbLine
 10
880.8817216818
 20
1832.5910392641
 30
0.0
 11
880.8817216818
 21
1852.5910499929
 31
0.0
  0
LINE
  5
86
330
1F
100
AcDbEntity
  8
0
  6
Continuous
 62
     7
370
    25
100
AcDbLine
 10
870.881723768
 20
1852.5910499929
 30
0.0
 11
870.881723768
 21
1832.5910392641
 31
0.0
  0
LINE
  5
87
330
1F
100
AcDbEntity
  8
0
  6
Continuous
 62
     7
370
    25
100
AcDbLine
 10
880.8817216818
 20
1855.5910411714
 30
0.0
 11
880.8817216818
 21
1875.5910519003
 31
0.0
  0
LINE
  5
88
330
1F
100
AcDbEntity
  8
0
  6
Continuous
 62
     7
370
    25
100
AcDbLine
 10
870.881723768
 20
1875.5910519003
 30
0.0
 11
870.881723768
 21
1855.5910411714
 31
0.0
  0
LINE
  5
89
330
1F
100
AcDbEntity
  8
0
  6
Continuous
 62
     7
370
    25
100
AcDbLine
 10
982.8817202401
 20
1855.5910411714
 30
0.0
 11
982.8817202401
 21
1875.5910519003
 31
0.0
  0
LINE
  5
8A
330
1F
100
AcDbEntity
  8
0
  6
Continuous
 62
     7
370
    25
100
AcDbLine
 10
972.881719998
 20
1875.5910519003
 30
0.0
 11
972.881719998
 21
1855.5910411714
 31
0.0
  0
LINE
  5
8B
330
1F
100
AcDbEntity
  8
0
  6
Continuous
 62
     7
370
    25
100
AcDbLine
 10
880.8817216818
 20
1786.5910652517
 30
0.0
 11
880.8817216818
 21
1806.5910461782
 31
0.0
  0
LINE
  5
8C
330
1F
100
AcDbEntity
  8
0
  6
Continuous
 62
     7
370
    25
100
AcDbLine
 10
870.881723768
 20
1806.5910461782
 30
0.0
 11
870.881723768
 21
1786.5910652517
 31
0.0
  0
LINE
  5
8D
330
1F
100
AcDbEntity
  8
0
  6
Continuous
 62
     7
370
    25
100
AcDbLine
 10
982.8817202401
 20
1809.5910373568
 30
0.0
 11
982.8817202401
 21
1829.5910480856
 31
0.0
  0
LINE
  5
8E
330
1F
100
AcDbEntity
  8
0
  6
Continuous
 62
     7
370
    25
100
AcDbLine
 10
972.881719998
 20
1829.5910480856
 30
0.0
 11
972.881719998
 21
1809.5910373568
 31
0.0
  0
LINE
  5
8F
330
1F
100
AcDbEntity
  8
0
  6
Continuous
 62
     7
370
    25
100
AcDbLine
 10
984.381720486
 20
1124.8909953474
 30
0.0
 11
984.381720486
 21
1127.8910163282
 31
0.0
  0
LINE
  5
90
330
1F
100
AcDbEntity
  8
0
  6
Continuous
 62
     7
370
    25
100
AcDbLine
 10
869.3817207281
 20
1127.8910163282
 30
0.0
 11
869.3817207281
 21
1124.8909953474
 31
0.0
  0
LINE
  5
91
330
1F
100
AcDbEntity
  8
0
  6
Continuous
 62
     7
370
    25
100
AcDbLine
 10
869.3817207281
 20
1124.8909953474
 30
0.0
 11
984.381720486
 21
1124.8909953474
 31
0.0
  0
LINE
  5
92
330
1F
100
AcDbEntity
  8
0
  6
Continuous
 62
     7
370
    25
100
AcDbLine
 10
869.3817207281
 20
1127.8910163282
 30
0.0
 11
984.381720486
 21
1127.8910163282
 31
0.0
  0
LINE
  5
93
330
1F
100
AcDbEntity
  8
0
  6
Continuous
 62
     7
370
    25
100
AcDbLine
 10
986.8817204301
 20
1127.8910163282
 30
0.0
 11
986.8817204301
 21
1124.8909953474
 31
0.0
  0
LINE
  5
94
330
1F
100
AcDbEntity
  8
0
  6
Continuous
 62
     7
370
    25
100
AcDbLine
 10
986.8817204301
 20
1124.8909953474
 30
0.0
 11
984.381720486
 21
1124.8909953474
 31
0.0
  0
LINE
  5
95
330
1F
100
AcDbEntity
  8
0
  6
Continuous
 62
     7
370
    25
100
AcDbLine
 10
984.381720486
 20
1127.8910163282
 30
0.0
 11
986.8817204301
 21
1127.8910163282
 31
0.0
  0
LINE
  5
96
330
1F
100
AcDbEntity
  8
0
  6
Continuous
 62
     7
370
    25
100
AcDbLine
 10
866.8817231123
 20
1124.8909953474
 30
0.0
 11
866.8817231123
 21
1127.8910163282
 31
0.0
  0
LINE
  5
97
330
1F
100
AcDbEntity
  8
0
  6
Continuous
 62
     7
370
    25
100
AcDbLine
 10
869.3817207281
 20
1124.8909953474
 30
0.0
 11
866.8817231123
 21
1124.8909953474
 31
0.0
  0
LINE
  5
98
330
1F
100
AcDbEntity
  8
0
  6
Continuous
 62
     7
370
    25
100
AcDbLine
 10
866.8817231123
 20
1127.8910163282
 30
0.0
 11
869.3817207281
 21
1127.8910163282
 31
0.0
  0
LINE
  5
99
330
1F
100
AcDbEntity
  8
0
  6
Continuous
 62
     7
370
    25
100
AcDbLine
 10
984.8817203351
 20
1123.8910678266
 30
0.0
 11
984.8817203351
 21
1124.8909953474
 31
0.0
  0
LINE
  5
9A
330
1F
100
AcDbEntity
  8
0
  6
Continuous
 62
     7
370
    25
100
AcDbLine
 10
868.8817197149
 20
1124.8909953474
 30
0.0
 11
868.8817197149
 21
1123.8910678266
 31
0.0
  0
LINE
  5
9B
330
1F
100
AcDbEntity
  8
0
  6
Continuous
 62
     7
370
    25
100
AcDbLine
 10
984.8817203351
 20
1127.8910163282
 30
0.0
 11
984.8817203351
 21
1128.8910630583
 31
0.0
  0
LINE
  5
9C
330
1F
100
AcDbEntity
  8
0
  6
Continuous
 62
     7
370
    25
100
AcDbLine
 10
868.8817197149
 20
1128.8910630583
 30
0.0
 11
868.8817197149
 21
1127.8910163282
 31
0.0
  0
LINE
  5
9D
330
1F
100
AcDbEntity
  8
0
  6
Continuous
 62
     7
370
    25
100
AcDbLine
 10
985.8817203826
 20
1124.8909953474
 30
0.0
 11
985.8817203826
 21
1123.8910678266
 31
0.0
  0
LINE
  5
9E
330
1F
100
AcDbEntity
  8
0
  6
Continuous
 62
     7
370
    25
100
AcDbLine
 10
867.8817176883
 20
1123.8910678266
 30
0.0
 11
867.8817176883
 21
1124.8909953474
 31
0.0
  0
LINE
  5
9F
330
1F
100
AcDbEntity
  8
0
  6
Continuous
 62
     7
370
    25
100
AcDbLine
 10
985.8817203826
 20
1128.8910630583
 30
0.0
 11
985.8817203826
 21
1127.8910163282
 31
0.0
  0
LINE
  5
A0
330
1F
100
AcDbEntity
  8
0
  6
Continuous
 62
     7
370
    25
100
AcDbLine
 10
867.8817176883
 20
1127.8910163282
 30
0.0
 11
867.8817176883
 21
1128.8910630583
 31
0.0
  0
LINE
  5
A1
330
1F
100
AcDbEntity
  8
0
  6
Continuous
 62
     7
370
    25
100
AcDbLine
 10
984.381720486
 20
1679.8910621046
 30
0.0
 11
984.381720486
 21
1682.8910234808
 31
0.0
  0
LINE
  5
A2
330
1F
100
AcDbEntity
  8
0
  6
Continuous
 62
     7
370
    25
100
AcDbLine
 10
984.381720486
 20
1679.8910621046
 30
0.0
 11
869.3817207281
 21
1679.8910621046
 31
0.0
  0
LINE
  5
A3
330
1F
100
AcDbEntity
  8
0
  6
Continuous
 62
     7
370
    25
100
AcDbLine
 10
869.3817207281
 20
1682.8910234808
 30
0.0
 11
869.3817207281
 21
1679.8910621046
 31
0.0
  0
LINE
  5
A4
330
1F
100
AcDbEntity
  8
0
  6
Continuous
 62
     7
370
    25
100
AcDbLine
 10
984.381720486
 20
1682.8910234808
 30
0.0
 11
869.3817207281
 21
1682.8910234808
 31
0.0
  0
LINE
  5
A5
330
1F
100
AcDbEntity
  8
0
  6
Continuous
 62
     7
370
    25
100
AcDbLine
 10
984.381720486
 20
1682.8910234808
 30
0.0
 11
986.8817204301
 21
1682.8910234808
 31
0.0
  0
LINE
  5
A6
330
1F
100
AcDbEntity
  8
0
  6
Continuous
 62
     7
370
    25
100
AcDbLine
 10
986.8817204301
 20
1682.8910234808
 30
0.0
 11
986.8817204301
 21
1679.8910621046
 31
0.0
  0
LINE
  5
A7
330
1F
100
AcDbEntity
  8
0
  6
Continuous
 62
     7
370
    25
100
AcDbLine
 10
986.8817204301
 20
1679.8910621046
 30
0.0
 11
984.381720486
 21
1679.8910621046
 31
0.0
  0
LINE
  5
A8
330
1F
100
AcDbEntity
  8
0
  6
Continuous
 62
     7
370
    25
100
AcDbLine
 10
866.8817231123
 20
1679.8910621046
 30
0.0
 11
866.8817231123
 21
1682.8910234808
 31
0.0
  0
LINE
  5
A9
330
1F
100
AcDbEntity
  8
0
  6
Continuous
 62
     7
370
    25
100
AcDbLine
 10
866.8817231123
 20
1682.8910234808
 30
0.0
 11
869.3817207281
 21
1682.8910234808
 31
0.0
  0
LINE
  5
AA
330
1F
100
AcDbEntity
  8
0
  6
Continuous
 62
     7
370
    25
100
AcDbLine
 10
869.3817207281
 20
1679.8910621046
 30
0.0
 11
866.8817231123
 21
1679.8910621046
 31
0.0
  0
LINE
  5
AB
330
1F
100
AcDbEntity
  8
0
  6
Continuous
 62
     7
370
    25
100
AcDbLine
 10
984.8817203351
 20
1678.8910153746
 30
0.0
 11
984.8817203351
 21
1679.8910621046
 31
0.0
  0
LINE
  5
AC
330
1F
100
AcDbEntity
  8
0
  6
Continuous
 62
     7
370
    25
100
AcDbLine
 10
985.8817203826
 20
1679.8910621046
 30
0.0
 11
985.8817203826
 21
1678.8910153746
 31
0.0
  0
LINE
  5
AD
330
1F
100
AcDbEntity
  8
0
  6
Continuous
 62
     7
370
    25
100
AcDbLine
 10
868.8817197149
 20
1679.8910621046
 30
0.0
 11
868.8817197149
 21
1678.8910153746
 31
0.0
  0
LINE
  5
AE
330
1F
100
AcDbEntity
  8
0
  6
Continuous
 62
     7
370
    25
100
AcDbLine
 10
984.8817203351
 20
1682.8910234808
 30
0.0
 11
984.8817203351
 21
1683.8910106062
 31
0.0
  0
LINE
  5
AF
330
1F
100
AcDbEntity
  8
0
  6
Continuous
 62
     7
370
    25
100
AcDbLine
 10
868.8817197149
 20
1683.8910106062
 30
0.0
 11
868.8817197149
 21
1682.8910234808
 31
0.0
  0
LINE
  5
B0
330
1F
100
AcDbEntity
  8
0
  6
Continuous
 62
     7
370
    25
100
AcDbLine
 10
867.8817176883
 20
1678.8910153746
 30
0.0
 11
867.8817176883
 21
1679.8910621046
 31
0.0
  0
LINE
  5
B1
330
1F
100
AcDbEntity
  8
0
  6
Continuous
 62
     7
370
    25
100
AcDbLine
 10
985.8817203826
 20
1683.8910106062
 30
0.0
 11
985.8817203826
 21
1682.8910234808
 31
0.0
  0
LINE
  5
B2
330
1F
100
AcDbEntity
  8
0
  6
Continuous
 62
     7
370
    25
100
AcDbLine
 10
867.8817176883
 20
1682.8910234808
 30
0.0
 11
867.8817176883
 21
1683.8910106062
 31
0.0
  0
LINE
  5
B3
330
1F
100
AcDbEntity
  8
0
  6
Continuous
 62
     7
370
    25
100
AcDbLine
 10
1026.881719536
 20
938.8910058378
 30
0.0
 11
1026.881719536
 21
932.8910830854
 31
0.0
  0
LINE
  5
B4
330
1F
100
AcDbEntity
  8
0
  6
Continuous
 62
     7
370
    25
100
AcDbLine
 10
1016.8817197596
 20
932.8910830854
 30
0.0
 11
1016.8817197596
 21
938.8910058378
 31
0.0
  0
LINE
  5
B5
330
1F
100
AcDbEntity
  8
0
  6
Continuous
 62
     7
370
    25
100
AcDbLine
 10
1016.8817197596
 20
938.8910058378
 30
0.0
 11
1026.881719536
 21
938.8910058378
 31
0.0
  0
LINE
  5
B6
330
1F
100
AcDbEntity
  8
0
  6
Continuous
 62
     7
370
    25
100
AcDbLine
 10
1026.881719536
 20
932.8910830854
 30
0.0
 11
1016.8817197596
 21
932.8910830854
 31
0.0
  0
LINE
  5
B7
330
1F
100
AcDbEntity
  8
0
  6
Continuous
 62
     7
370
    25
100
AcDbLine
 10
836.8817144696
 20
938.8910058378
 30
0.0
 11
836.8817144696
 21
932.8910830854
 31
0.0
  0
LINE
  5
B8
330
1F
100
AcDbEntity
  8
0
  6
Continuous
 62
     7
370
    25
100
AcDbLine
 10
826.8817240064
 20
932.8910830854
 30
0.0
 11
826.8817240064
 21
938.8910058378
 31
0.0
  0
LINE
  5
B9
330
1F
100
AcDbEntity
  8
0
  6
Continuous
 62
     7
370
    25
100
AcDbLine
 10
826.8817240064
 20
938.8910058378
 30
0.0
 11
836.8817144696
 21
938.8910058378
 31
0.0
  0
LINE
  5
BA
330
1F
100
AcDbEntity
  8
0
  6
Continuous
 62
     7
370
    25
100
AcDbLine
 10
836.8817144696
 20
932.8910830854
 30
0.0
 11
826.8817240064
 21
932.8910830854
 31
0.0
  0
LINE
  5
BB
330
1F
100
AcDbEntity
  8
0
  6
Continuous
 62
     7
370
    25
100
AcDbLine
 10
836.8817144696
 20
938.8910058378
 30
0.0
 11
1016.8817197596
 21
938.8910058378
 31
0.0
  0
LINE
  5
BC
330
1F
100
AcDbEntity
  8
0
  6
Continuous
 62
     7
370
    25
100
AcDbLine
 10
836.8817144696
 20
932.8910830854
 30
0.0
 11
1016.8817197596
 21
932.8910830854
 31
0.0
  0
LINE
  5
BD
330
1F
100
AcDbEntity
  8
0
  6
Continuous
 62
     7
370
    25
100
AcDbLine
 10
866.8817231123
 20
938.8910058378
 30
0.0
 11
866.8817231123
 21
1123.8910678266
 31
0.0
  0
LINE
  5
BE
330
1F
100
AcDbEntity
  8
0
  6
Continuous
 62
     7
370
    25
100
AcDbLine
 10
866.8817231123
 20
1123.8910678266
 30
0.0
 11
869.8817217414
 21
1123.8910678266
 31
0.0
  0
LINE
  5
BF
330
1F
100
AcDbEntity
  8
0
  6
Continuous
 62
     7
370
    25
100
AcDbLine
 10
986.8817204301
 20
1123.8910678266
 30
0.0
 11
986.8817204301
 21
938.8910058378
 31
0.0
  0
LINE
  5
C0
330
1F
100
AcDbEntity
  8
0
  6
Continuous
 62
     7
370
    25
100
AcDbLine
 10
983.881720404
 20
1123.8910678266
 30
0.0
 11
986.8817204301
 21
1123.8910678266
 31
0.0
  0
LINE
  5
C1
330
1F
100
AcDbEntity
  8
0
  6
Continuous
 62
     7
370
    25
100
AcDbLine
 10
869.8817217414
 20
1123.8910678266
 30
0.0
 11
983.881720404
 21
1123.8910678266
 31
0.0
  0
CIRCLE
  5
C2
330
1F
100
AcDbEntity
  8
0
  6
Continuous
 62
     7
370
    25
100
AcDbCircle
 10
926.9567673638
 20
1773.8910394265
 30
0.0
 40
3.999999999999993
  0
LINE
  5
C3
330
1F
100
AcDbEntity
  8
0
  6
Continuous
 62
     7
370
    25
100
AcDbLine
 10
926.3188266818
 20
1775.501323068
 30
0.0
 11
925.2432459657
 21
1774.143708074
 31
0.0
  0
LINE
  5
C4
330
1F
100
AcDbEntity
  8
0
  6
Continuous
 62
     7
370
    25
100
AcDbLine
 10
925.2432459657
 20
1774.143708074
 30
0.0
 11
925.8811870281
 21
1772.5334289907
 31
0.0
  0
LINE
  5
C5
330
1F
100
AcDbEntity
  8
0
  6
Continuous
 62
     7
370
    25
100
AcDbLine
 10
925.8811870281
 20
1772.5334289907
 30
0.0
 11
927.5947088067
 21
1772.2807649015
 31
0.0
  0
LINE
  5
C6
330
1F
100
AcDbEntity
  8
0
  6
Continuous
 62
     7
370
    25
100
AcDbLine
 10
927.5947088067
 20
1772.2807649015
 30
0.0
 11
928.6702895229
 21
1773.6383798956
 31
0.0
  0
LINE
  5
C7
330
1F
100
AcDbEntity
  8
0
  6
Continuous
 62
     7
370
    25
100
AcDbLine
 10
928.6702895229
 20
1773.6383798956
 30
0.0
 11
928.0323484604
 21
1775.2486589788
 31
0.0
  0
LINE
  5
C8
330
1F
100
AcDbEntity
  8
0
  6
Continuous
 62
     7
370
    25
100
AcDbLine
 10
928.0323484604
 20
1775.2486589788
 30
0.0
 11
926.3188266818
 21
1775.501323068
 31
0.0
  0
LINE
  5
C9
330
1F
100
AcDbEntity
  8
0
  6
Continuous
 62
     7
370
    25
100
AcDbLine
 10
986.8817204301
 20
1832.5910392641
 30
0.0
 11
986.8817204301
 21
1829.5910480856
 31
0.0
  0
LINE
  5
CA
330
1F
100
AcDbEntity
  8
0
  6
Continuous
 62
     7
370
    25
100
AcDbLine
 10
986.8817204301
 20
1829.5910480856
 30
0.0
 11
983.881720404
 21
1829.5910480856
 31
0.0
  0
LINE
  5
CB
330
1F
100
AcDbEntity
  8
0
  6
Continuous
 62
     7
370
    25
100
AcDbLine
 10
983.881720404
 20
1829.5910480856
 30
0.0
 11
983.881720404
 21
1832.5910392641
 31
0.0
  0
LINE
  5
CC
330
1F
100
AcDbEntity
  8
0
  6
Continuous
 62
     7
370
    25
100
AcDbLine
 10
983.881720404
 20
1832.5910392641
 30
0.0
 11
986.8817204301
 21
1832.5910392641
 31
0.0
  0
LINE
  5
CD
330
1F
100
AcDbEntity
  8
0
  6
Continuous
 62
     7
370
    25
100
AcDbLine
 10
869.8817217414
 20
1832.5910392641
 30
0.0
 11
869.8817217414
 21
1829.5910480856
 31
0.0
  0
LINE
  5
CE
330
1F
100
AcDbEntity
  8
0
  6
Continuous
 62
     7
370
    25
100
AcDbLine
 10
866.8817231123
 20
1829.5910480856
 30
0.0
 11
866.8817231123
 21
1832.5910392641
 31
0.0
  0
LINE
  5
CF
330
1F
100
AcDbEntity
  8
0
  6
Continuous
 62
     7
370
    25
100
AcDbLine
 10
869.8817217414
 20
1829.5910480856
 30
0.0
 11
866.8817231123
 21
1829.5910480856
 31
0.0
  0
LINE
  5
D0
330
1F
100
AcDbEntity
  8
0
  6
Continuous
 62
     7
370
    25
100
AcDbLine
 10
866.8817231123
 20
1832.5910392641
 30
0.0
 11
869.8817217414
 21
1832.5910392641
 31
0.0
  0
LINE
  5
D1
330
1F
100
AcDbEntity
  8
0
  6
Continuous
 62
     7
370
    25
100
AcDbLine
 10
869.8817217414
 20
1829.5910480856
 30
0.0
 11
983.881720404
 21
1829.5910480856
 31
0.0
  0
LINE
  5
D2
330
1F
100
AcDbEntity
  8
0
  6
Continuous
 62
     7
370
    25
100
AcDbLine
 10
869.8817217414
 20
1832.5910392641
 30
0.0
 11
983.881720404
 21
1832.5910392641
 31
0.0
  0
LINE
  5
D3
330
1F
100
AcDbEntity
  8
0
  6
Continuous
 62
     7
370
    25
100
AcDbLine
 10
986.8817204301
 20
1809.5910373568
 30
0.0
 11
986.8817204301
 21
1806.5910461782
 31
0.0
  0
LINE
  5
D4
330
1F
100
AcDbEntity
  8
0
  6
Continuous
 62
     7
370
    25
100
AcDbLine
 10
983.881720404
 20
1806.5910461782
 30
0.0
 11
983.881720404
 21
1809.5910373568
 31
0.0
  0
LINE
  5
D5
330
1F
100
AcDbEntity
  8
0
  6
Continuous
 62
     7
370
    25
100
AcDbLine
 10
983.881720404
 20
1809.5910373568
 30
0.0
 11
986.8817204301
 21
1809.5910373568
 31
0.0
  0
LINE
  5
D6
330
1F
100
AcDbEntity
  8
0
  6
Continuous
 62
     7
370
    25
100
AcDbLine
 10
986.8817204301
 20
1806.5910461782
 30
0.0
 11
983.881720404
 21
1806.5910461782
 31
0.0
  0
LINE
  5
D7
330
1F
100
AcDbEntity
  8
0
  6
Continuous
 62
     7
370
    25
100
AcDbLine
 10
869.8817217414
 20
1809.5910373568
 30
0.0
 11
869.8817217414
 21
1806.5910461782
 31
0.0
  0
LINE
  5
D8
330
1F
100
AcDbEntity
  8
0
  6
Continuous
 62
     7
370
    25
100
AcDbLine
 10
866.8817231123
 20
1806.5910461782
 30
0.0
 11
866.8817231123
 21
1809.5910373568
 31
0.0
  0
LINE
  5
D9
330
1F
100
AcDbEntity
  8
0
  6
Continuous
 62
     7
370
    25
100
AcDbLine
 10
866.8817231123
 20
1809.5910373568
 30
0.0
 11
869.8817217414
 21
1809.5910373568
 31
0.0
  0
LINE
  5
DA
330
1F
100
AcDbEntity
  8
0
  6
Continuous
 62
     7
370
    25
100
AcDbLine
 10
869.8817217414
 20
1806.5910461782
 30
0.0
 11
866.8817231123
 21
1806.5910461782
 31
0.0
  0
LINE
  5
DB
330
1F
100
AcDbEntity
  8
0
  6
Continuous
 62
     7
370
    25
100
AcDbLine
 10
869.8817217414
 20
1809.5910373568
 30
0.0
 11
983.881720404
 21
1809.5910373568
 31
0.0
  0
LINE
  5
DC
330
1F
100
AcDbEntity
  8
0
  6
Continuous
 62
     7
370
    25
100
AcDbLine
 10
869.8817217414
 20
1806.5910461782
 30
0.0
 11
983.881720404
 21
1806.5910461782
 31
0.0
  0
LINE
  5
DD
330
1F
100
AcDbEntity
  8
0
  6
Continuous
 62
     7
370
    25
100
AcDbLine
 10
986.8817204301
 20
1855.5910411714
 30
0.0
 11
986.8817204301
 21
1852.5910499929
 31
0.0
  0
LINE
  5
DE
330
1F
100
AcDbEntity
  8
0
  6
Continuous
 62
     7
370
    25
100
AcDbLine
 10
986.8817204301
 20
1852.5910499929
 30
0.0
 11
983.881720404
 21
1852.5910499929
 31
0.0
  0
LINE
  5
DF
330
1F
100
AcDbEntity
  8
0
  6
Continuous
 62
     7
370
    25
100
AcDbLine
 10
983.881720404
 20
1852.5910499929
 30
0.0
 11
983.881720404
 21
1855.5910411714
 31
0.0
  0
LINE
  5
E0
330
1F
100
AcDbEntity
  8
0
  6
Continuous
 62
     7
370
    25
100
AcDbLine
 10
983.881720404
 20
1855.5910411714
 30
0.0
 11
986.8817204301
 21
1855.5910411714
 31
0.0
  0
LINE
  5
E1
330
1F
100
AcDbEntity
  8
0
  6
Continuous
 62
     7
370
    25
100
AcDbLine
 10
869.8817217414
 20
1855.5910411714
 30
0.0
 11
869.8817217414
 21
1852.5910499929
 31
0.0
  0
LINE
  5
E2
330
1F
100
AcDbEntity
  8
0
  6
Continuous
 62
     7
370
    25
100
AcDbLine
 10
866.8817231123
 20
1852.5910499929
 30
0.0
 11
866.8817231123
 21
1855.5910411714
 31
0.0
  0
LINE
  5
E3
330
1F
100
AcDbEntity
  8
0
  6
Continuous
 62
     7
370
    25
100
AcDbLine
 10
869.8817217414
 20
1852.5910499929
 30
0.0
 11
866.8817231123
 21
1852.5910499929
 31
0.0
  0
LINE
  5
E4
330
1F
100
AcDbEntity
  8
0
  6
Continuous
 62
     7
370
    25
100
AcDbLine
 10
866.8817231123
 20
1855.5910411714
 30
0.0
 11
869.8817217414
 21
1855.5910411714
 31
0.0
  0
LINE
  5
E5
330
1F
100
AcDbEntity
  8
0
  6
Continuous
 62
     7
370
    25
100
AcDbLine
 10
869.8817217414
 20
1852.5910499929
 30
0.0
 11
983.881720404
 21
1852.5910499929
 31
0.0
  0
LINE
  5
E6
330
1F
100
AcDbEntity
  8
0
  6
Continuous
 62
     7
370
    25
100
AcDbLine
 10
869.8817217414
 20
1855.5910411714
 30
0.0
 11
983.881720404
 21
1855.5910411714
 31
0.0
  0
LINE
  5
E7
330
1F
100
AcDbEntity
  8
0
  6
Continuous
 62
     7
370
    25
100
AcDbLine
 10
986.8817204301
 20
1901.5910449861
 30
0.0
 11
986.8817204301
 21
1898.5910538076
 31
0.0
  0
LINE
  5
E8
330
1F
100
AcDbEntity
  8
0
  6
Continuous
 62
     7
370
    25
100
AcDbLine
 10
983.881720404
 20
1898.5910538076
 30
0.0
 11
983.881720404
 21
1901.5910449861
 31
0.0
  0
LINE
  5
E9
330
1F
100
AcDbEntity
  8
0
  6
Continuous
 62
     7
370
    25
100
AcDbLine
 10
986.8817204301
 20
1898.5910538076
 30
0.0
 11
983.881720404
 21
1898.5910538076
 31
0.0
  0
LINE
  5
EA
330
1F
100
AcDbEntity
  8
0
  6
Continuous
 62
     7
370
    25
100
AcDbLine
 10
983.881720404
 20
1901.5910449861
 30
0.0
 11
986.8817204301
 21
1901.5910449861
 31
0.0
  0
LINE
  5
EB
330
1F
100
AcDbEntity
  8
0
  6
Continuous
 62
     7
370
    25
100
AcDbLine
 10
869.8817217414
 20
1901.5910449861
 30
0.0
 11
869.8817217414
 21
1898.5910538076
 31
0.0
  0
LINE
  5
EC
330
1F
100
AcDbEntity
  8
0
  6
Continuous
 62
     7
370
    25
100
AcDbLine
 10
866.8817231123
 20
1898.5910538076
 30
0.0
 11
866.8817231123
 21
1901.5910449861
 31
0.0
  0
LINE
  5
ED
330
1F
100
AcDbEntity
  8
0
  6
Continuous
 62
     7
370
    25
100
AcDbLine
 10
869.8817217414
 20
1898.5910538076
 30
0.0
 11
866.8817231123
 21
1898.5910538076
 31
0.0
  0
LINE
  5
EE
330
1F
100
AcDbEntity
  8
0
  6
Continuous
 62
     7
370
    25
100
AcDbLine
 10
866.8817231123
 20
1901.5910449861
 30
0.0
 11
869.8817217414
 21
1901.5910449861
 31
0.0
  0
LINE
  5
EF
330
1F
100
AcDbEntity
  8
0
  6
Continuous
 62
     7
370
    25
100
AcDbLine
 10
869.8817217414
 20
1898.5910538076
 30
0.0
 11
983.881720404
 21
1898.5910538076
 31
0.0
  0
LINE
  5
F0
330
1F
100
AcDbEntity
  8
0
  6
Continuous
 62
     7
370
    25
100
AcDbLine
 10
869.8817217414
 20
1901.5910449861
 30
0.0
 11
983.881720404
 21
1901.5910449861
 31
0.0
  0
LINE
  5
F1
330
1F
100
AcDbEntity
  8
0
  6
Continuous
 62
     7
370
    25
100
AcDbLine
 10
986.8817204301
 20
1878.5910430788
 30
0.0
 11
986.8817204301
 21
1875.5910519003
 31
0.0
  0
LINE
  5
F2
330
1F
100
AcDbEntity
  8
0
  6
Continuous
 62
     7
370
    25
100
AcDbLine
 10
983.881720404
 20
1875.5910519003
 30
0.0
 11
983.881720404
 21
1878.5910430788
 31
0.0
  0
LINE
  5
F3
330
1F
100
AcDbEntity
  8
0
  6
Continuous
 62
     7
370
    25
100
AcDbLine
 10
986.8817204301
 20
1875.5910519003
 30
0.0
 11
983.881720404
 21
1875.5910519003
 31
0.0
  0
LINE
  5
F4
330
1F
100
AcDbEntity
  8
0
  6
Continuous
 62
     7
370
    25
100
AcDbLine
 10
983.881720404
 20
1878.5910430788
 30
0.0
 11
986.8817204301
 21
1878.5910430788
 31
0.0
  0
LINE
  5
F5
330
1F
100
AcDbEntity
  8
0
  6
Continuous
 62
     7
370
    25
100
AcDbLine
 10
869.8817217414
 20
1878.5910430788
 30
0.0
 11
869.8817217414
 21
1875.5910519003
 31
0.0
  0
LINE
  5
F6
330
1F
100
AcDbEntity
  8
0
  6
Continuous
 62
     7
370
    25
100
AcDbLine
 10
869.8817217414
 20
1875.5910519003
 30
0.0
 11
983.881720404
 21
1875.5910519003
 31
0.0
  0
LINE
  5
F7
330
1F
100
AcDbEntity
  8
0
  6
Continuous
 62
     7
370
    25
100
AcDbLine
 10
869.8817217414
 20
1878.5910430788
 30
0.0
 11
983.881720404
 21
1878.5910430788
 31
0.0
  0
LINE
  5
F8
330
1F
100
AcDbEntity
  8
0
  6
Continuous
 62
     7
370
    25
100
AcDbLine
 10
866.8817231123
 20
1875.5910519003
 30
0.0
 11
866.8817231123
 21
1878.5910430788
 31
0.0
  0
LINE
  5
F9
330
1F
100
AcDbEntity
  8
0
  6
Continuous
 62
     7
370
    25
100
AcDbLine
 10
869.8817217414
 20
1875.5910519003
 30
0.0
 11
866.8817231123
 21
1875.5910519003
 31
0.0
  0
LINE
  5
FA
330
1F
100
AcDbEntity
  8
0
  6
Continuous
 62
     7
370
    25
100
AcDbLine
 10
866.8817231123
 20
1878.5910430788
 30
0.0
 11
869.8817217414
 21
1878.5910430788
 31
0.0
  0
LINE
  5
FB
330
1F
100
AcDbEntity
  8
0
  6
Continuous
 62
     7
370
    25
100
AcDbLine
 10
869.8817217414
 20
1786.5910652517
 30
0.0
 11
869.8817217414
 21
1783.891034448
 31
0.0
  0
LINE
  5
FC
330
1F
100
AcDbEntity
  8
0
  6
Continuous
 62
     7
370
    25
100
AcDbLine
 10
869.8817217414
 20
1783.891034448
 30
0.0
 11
866.8817231123
 21
1783.891034448
 31
0.0
  0
LINE
  5
FD
330
1F
100
AcDbEntity
  8
0
  6
Continuous
 62
     7
370
    25
100
AcDbLine
 10
866.8817231123
 20
1783.891034448
 30
0.0
 11
866.8817231123
 21
1786.5910652517
 31
0.0
  0
LINE
  5
FE
330
1F
100
AcDbEntity
  8
0
  6
Continuous
 62
     7
370
    25
100
AcDbLine
 10
866.8817231123
 20
1786.5910652517
 30
0.0
 11
869.8817217414
 21
1786.5910652517
 31
0.0
  0
LINE
  5
FF
330
1F
100
AcDbEntity
  8
0
  6
Continuous
 62
     7
370
    25
100
AcDbLine
 10
983.881720404
 20
1783.891034448
 30
0.0
 11
983.881720404
 21
1786.5910652517
 31
0.0
  0
LINE
  5
100
330
1F
100
AcDbEntity
  8
0
  6
Continuous
 62
     7
370
    25
100
AcDbLine
 10
869.8817217414
 20
1783.891034448
 30
0.0
 11
983.881720404
 21
1783.891034448
 31
0.0
  0
LINE
  5
101
330
1F
100
AcDbEntity
  8
0
  6
Continuous
 62
     7
370
    25
100
AcDbLine
 10
983.881720404
 20
1786.5910652517
 30
0.0
 11
869.8817217414
 21
1786.5910652517
 31
0.0
  0
LINE
  5
102
330
1F
100
AcDbEntity
  8
0
  6
Continuous
 62
     7
370
    25
100
AcDbLine
 10
986.8817204301
 20
1786.5910652517
 30
0.0
 11
986.8817204301
 21
1783.891034448
 31
0.0
  0
LINE
  5
103
330
1F
100
AcDbEntity
  8
0
  6
Continuous
 62
     7
370
    25
100
AcDbLine
 10
986.8817204301
 20
1783.891034448
 30
0.0
 11
983.881720404
 21
1783.891034448
 31
0.0
  0
LINE
  5
104
330
1F
100
AcDbEntity
  8
0
  6
Continuous
 62
     7
370
    25
100
AcDbLine
 10
983.881720404
 20
1786.5910652517
 30
0.0
 11
986.8817204301
 21
1786.5910652517
 31
0.0
  0
LINE
  5
105
330
1F
100
AcDbEntity
  8
0
  6
Continuous
 62
     7
370
    25
100
AcDbLine
 10
866.8837347691
 20
1922.0910492777
 30
0.0
 11
866.8837347691
 21
1941.0910430788
 31
0.0
  0
SPLINE
  5
106
330
1F
100
AcDbEntity
  8
0
  6
Continuous
 62
     7
370
    25
100
AcDbSpline
210
0.0
220
0.0
230
1.0
 70
     8
 71
     3
 72
    13
 73
     9
 74
     0
 42
0.000000001
 43
0.00000001
 40
0.0
 40
0.0
 40
0.0
 40
0.0
 40
0.0000127156463495
 40
0.2038945176903572
 40
0.413059983814241
 40
0.6261664651420529
 40
0.8471695128536
 40
1.0
 40
1.0
 40
1.0
 40
1.0
 10
869.8819005553443
 20
1941.091043078796
 30
0.0
 10
869.8818806871317
 20
1941.091043078796
 30
0.0
 10
869.563295258957
 20
1941.091043078567
 30
0.0
 10
868.9143313624575
 20
1941.091043078906
 30
0.0
 10
868.0307857572567
 20
1941.091043078766
 30
0.0
 10
867.3342560991383
 20
1941.091043078805
 30
0.0
 10
866.9447864664241
 20
1941.091043078795
 30
0.0
 10
866.9014511124329
 20
1941.091043078796
 30
0.0
 10
866.8837347690779
 20
1941.091043078796
 30
0.0
  0
LINE
  5
107
330
1F
100
AcDbEntity
  8
0
  6
Continuous
 62
     7
370
    25
100
AcDbLine
 10
869.8819005553
 20
1941.0910430788
 30
0.0
 11
869.8819005553
 21
1922.0910492777
 31
0.0
  0
SPLINE
  5
108
330
1F
100
AcDbEntity
  8
0
  6
Continuous
 62
     7
370
    25
100
AcDbSpline
210
0.0
220
0.0
230
1.0
 70
    24
 71
     3
 72
    12
 73
     8
 74
     0
 42
0.000000001
 43
0.00000001
 40
0.0
 40
0.0
 40
0.0
 40
0.0
 40
0.2157303659157341
 40
0.4312574387678214
 40
0.6488646813236139
 40
0.8594650814366398
 40
1.0
 40
1.0
 40
1.0
 40
1.0
 10
869.8819005553443
 20
1922.091049277679
 30
0.0
 10
869.5436324722615
 20
1922.091049277679
 30
0.0
 10
868.8674150723235
 20
1922.091049277679
 30
0.0
 10
867.9614762459533
 20
1922.091049277679
 30
0.0
 10
867.2895797256077
 20
1922.09104927768
 30
0.0
 10
866.936254066361
 20
1922.091049277679
 30
0.0
 10
866.8987464468402
 20
1922.091049277679
 30
0.0
 10
866.8837347690779
 20
1922.091049277679
 30
0.0
  0
LINE
  5
109
330
1F
100
AcDbEntity
  8
0
  6
Continuous
 62
     7
370
    25
100
AcDbLine
 10
983.8815367007
 20
1922.0910492777
 30
0.0
 11
983.8815367007
 21
1941.0910430788
 31
0.0
  0
SPLINE
  5
10A
330
1F
100
AcDbEntity
  8
0
  6
Continuous
 62
     7
370
    25
100
AcDbSpline
210
0.0
220
0.0
230
1.0
 70
     8
 71
     3
 72
    13
 73
     9
 74
     0
 42
0.000000001
 43
0.00000001
 40
0.0
 40
0.0
 40
0.0
 40
0.0
 40
0.0000128149809034
 40
0.2038944166437134
 40
0.4130604596463577
 40
0.6261663410587112
 40
0.847169485792374
 40
1.0
 40
1.0
 40
1.0
 40
1.0
 10
986.8797091389634
 20
1941.091043078796
 30
0.0
 10
986.8797091388068
 20
1941.091043078796
 30
0.0
 10
986.8797066438764
 20
1941.091043078687
 30
0.0
 10
986.7711361800019
 20
1941.091043078848
 30
0.0
 10
986.3112563950508
 20
1941.091043078782
 30
0.0
 10
985.5637129938344
 20
1941.0910430788
 30
0.0
 10
984.7057033517362
 20
1941.091043078796
 30
0.0
 10
984.120698237548
 20
1941.091043078796
 30
0.0
 10
983.8815367006529
 20
1941.091043078796
 30
0.0
  0
LINE
  5
10B
330
1F
100
AcDbEntity
  8
0
  6
Continuous
 62
     7
370
    25
100
AcDbLine
 10
986.879709139
 20
1941.0910430788
 30
0.0
 11
986.879709139
 21
1922.0910492777
 31
0.0
  0
SPLINE
  5
10C
330
1F
100
AcDbEntity
  8
0
  6
Continuous
 62
     7
370
    25
100
AcDbSpline
210
0.0
220
0.0
230
1.0
 70
    24
 71
     3
 72
    12
 73
     8
 74
     0
 42
0.000000001
 43
0.00000001
 40
0.0
 40
0.0
 40
0.0
 40
0.0
 40
0.2157314080757681
 40
0.4312579249646881
 40
0.6488649023682411
 40
0.8594652089719399
 40
1.0
 40
1.0
 40
1.0
 40
1.0
 10
986.8797091389634
 20
1922.091049277679
 30
0.0
 10
986.8450423746867
 20
1922.091049277679
 30
0.0
 10
986.7757417709379
 20
1922.091049277679
 30
0.0
 10
986.2572789270034
 20
1922.091049277679
 30
0.0
 10
985.490707575261
 20
1922.091049277679
 30
0.0
 10
984.6505452300208
 20
1922.091049277679
 30
0.0
 10
984.1013436391419
 20
1922.091049277679
 30
0.0
 10
983.8815367006529
 20
1922.091049277679
 30
0.0
  0
SPLINE
  5
10D
330
1F
100
AcDbEntity
  8
0
  6
Continuous
 62
     7
370
    25
100
AcDbSpline
210
0.0
220
0.0
230
1.0
 70
    24
 71
     3
 72
    12
 73
     8
 74
     0
 42
0.000000001
 43
0.00000001
 40
0.0
 40
0.0
 40
0.0
 40
0.0
 40
0.1519472044182136
 40
0.3749256264905611
 40
0.5858640094484872
 40
0.7965579839839977
 40
1.0
 40
1.0
 40
1.0
 40
1.0
 10
983.8815367006529
 20
1942.091030204193
 30
0.0
 10
984.0399029982656
 20
1942.091030204193
 30
0.0
 10
984.4306675639892
 20
1942.091030204193
 30
0.0
 10
985.0024746284441
 20
1942.091030204193
 30
0.0
 10
985.4984080225162
 20
1942.091030204193
 30
0.0
 10
985.8161314558118
 20
1942.091030204193
 30
0.0
 10
985.8587654684719
 20
1942.091030204193
 30
0.0
 10
985.8797091915104
 20
1942.091030204193
 30
0.0
  0
ARC
  5
10E
330
1F
100
AcDbEntity
  8
0
  6
Continuous
 62
     7
370
    25
100
AcDbCircle
 10
985.8797091389
 20
1941.0910394265
 30
0.0
 40
1.0
100
AcDbArc
 50
0.0000000008
 51
90.0
  0
LINE
  5
10F
330
1F
100
AcDbEntity
  8
0
  6
Continuous
 62
     7
370
    25
100
AcDbLine
 10
983.8815367007
 20
1942.0910302042
 30
0.0
 11
983.8815367007
 21
1941.0910430788
 31
0.0
  0
SPLINE
  5
110
330
1F
100
AcDbEntity
  8
0
  6
Continuous
 62
     7
370
    25
100
AcDbSpline
210
0.0
220
0.0
230
1.0
 70
    24
 71
     3
 72
    12
 73
     8
 74
     0
 42
0.000000001
 43
0.00000001
 40
0.0
 40
0.0
 40
0.0
 40
0.0
 40
0.1519473165711923
 40
0.374925909416601
 40
0.5858638108400089
 40
0.7965579562777259
 40
1.0
 40
1.0
 40
1.0
 40
1.0
 10
867.8837293450553
 20
1942.091030204193
 30
0.0
 10
867.8956491064386
 20
1942.091030204193
 30
0.0
 10
867.9250607964738
 20
1942.091030204193
 30
0.0
 10
868.1839168376648
 20
1942.091030204193
 30
0.0
 10
868.648438081014
 20
1942.091030204193
 30
0.0
 10
869.237141967947
 20
1942.091030204193
 30
0.0
 10
869.6695047846653
 20
1942.091030204193
 30
0.0
 10
869.8819005553443
 20
1942.091030204193
 30
0.0
  0
LINE
  5
111
330
1F
100
AcDbEntity
  8
0
  6
Continuous
 62
     7
370
    25
100
AcDbLine
 10
869.8819005553
 20
1942.0910302042
 30
0.0
 11
869.8819005553
 21
1941.0910430788
 31
0.0
  0
ARC
  5
112
330
1F
100
AcDbEntity
  8
0
  6
Continuous
 62
     7
370
    25
100
AcDbCircle
 10
867.8837317213
 20
1941.0910394265
 30
0.0
 40
1.0
100
AcDbArc
 50
90.0
 51
180.0
  0
LINE
  5
113
330
1F
100
AcDbEntity
  8
0
  6
Continuous
 62
     7
370
    25
100
AcDbLine
 10
869.8819005553
 20
1942.0910302042
 30
0.0
 11
983.8815367007
 21
1942.0910302042
 31
0.0
  0
LINE
  5
114
330
1F
100
AcDbEntity
  8
0
  6
Continuous
 62
     7
370
    25
100
AcDbLine
 10
983.8815367007
 20
1941.0910430788
 30
0.0
 11
869.8819005553
 21
1941.0910430788
 31
0.0
  0
LINE
  5
115
330
1F
100
AcDbEntity
  8
0
  6
Continuous
 62
     7
370
    25
100
AcDbLine
 10
983.8815367007
 20
1922.0910492777
 30
0.0
 11
869.8819005553
 21
1922.0910492777
 31
0.0
  0
LINE
  5
116
330
1F
100
AcDbEntity
  8
0
  6
Continuous
 62
     7
370
    25
100
AcDbLine
 10
986.8817204301
 20
1783.891034448
 30
0.0
 11
986.8817204301
 21
1683.8910106062
 31
0.0
  0
LINE
  5
117
330
1F
100
AcDbEntity
  8
0
  6
Continuous
 62
     7
370
    25
100
AcDbLine
 10
986.8817204301
 20
1683.8910106062
 30
0.0
 11
983.881720404
 21
1683.8910106062
 31
0.0
  0
LINE
  5
118
330
1F
100
AcDbEntity
  8
0
  6
Continuous
 62
     7
370
    25
100
AcDbLine
 10
983.881720404
 20
1683.8910106062
 30
0.0
 11
983.881720404
 21
1783.891034448
 31
0.0
  0
LINE
  5
119
330
1F
100
AcDbEntity
  8
0
  6
Continuous
 62
     7
370
    25
100
AcDbLine
 10
869.8817217414
 20
1783.891034448
 30
0.0
 11
869.8817217414
 21
1683.8910106062
 31
0.0
  0
CIRCLE
  5
11A
330
1F
100
AcDbEntity
  8
0
  6
Continuous
 62
     7
370
    25
100
AcDbCircle
 10
926.9567673638
 20
1773.8910394265
 30
0.0
 40
4.480000000000018
  0
LINE
  5
11B
330
1F
100
AcDbEntity
  8
0
  6
Continuous
 62
     7
370
    25
100
AcDbLine
 10
869.8817217414
 20
1683.8910106062
 30
0.0
 11
983.881720404
 21
1683.8910106062
 31
0.0
  0
LINE
  5
11C
330
1F
100
AcDbEntity
  8
0
  6
Continuous
 62
     7
370
    25
100
AcDbLine
 10
866.8817231123
 20
1683.8910106062
 30
0.0
 11
866.8817231123
 21
1783.891034448
 31
0.0
  0
LINE
  5
11D
330
1F
100
AcDbEntity
  8
0
  6
Continuous
 62
     7
370
    25
100
AcDbLine
 10
869.8817217414
 20
1683.8910106062
 30
0.0
 11
866.8817231123
 21
1683.8910106062
 31
0.0
  0
LINE
  5
11E
330
1F
100
AcDbEntity
  8
0
  6
Continuous
 62
     7
370
    25
100
AcDbLine
 10
869.8817217414
 20
1678.8910153746
 30
0.0
 11
869.8817217414
 21
1128.8910630583
 31
0.0
  0
LINE
  5
11F
330
1F
100
AcDbEntity
  8
0
  6
Continuous
 62
     7
370
    25
100
AcDbLine
 10
869.8817217414
 20
1128.8910630583
 30
0.0
 11
866.8817231123
 21
1128.8910630583
 31
0.0
  0
LINE
  5
120
330
1F
100
AcDbEntity
  8
0
  6
Continuous
 62
     7
370
    25
100
AcDbLine
 10
866.8817231123
 20
1128.8910630583
 30
0.0
 11
866.8817231123
 21
1678.8910153746
 31
0.0
  0
LINE
  5
121
330
1F
100
AcDbEntity
  8
0
  6
Continuous
 62
     7
370
    25
100
AcDbLine
 10
866.8817231123
 20
1678.8910153746
 30
0.0
 11
869.8817217414
 21
1678.8910153746
 31
0.0
  0
LINE
  5
122
330
1F
100
AcDbEntity
  8
0
  6
Continuous
 62
     7
370
    25
100
AcDbLine
 10
986.8817204301
 20
1678.8910153746
 30
0.0
 11
986.8817204301
 21
1128.8910630583
 31
0.0
  0
LINE
  5
123
330
1F
100
AcDbEntity
  8
0
  6
Continuous
 62
     7
370
    25
100
AcDbLine
 10
983.881720404
 20
1128.8910630583
 30
0.0
 11
983.881720404
 21
1678.8910153746
 31
0.0
  0
LINE
  5
124
330
1F
100
AcDbEntity
  8
0
  6
Continuous
 62
     7
370
    25
100
AcDbLine
 10
983.881720404
 20
1678.8910153746
 30
0.0
 11
986.8817204301
 21
1678.8910153746
 31
0.0
  0
LINE
  5
125
330
1F
100
AcDbEntity
  8
0
  6
Continuous
 62
     7
370
    25
100
AcDbLine
 10
986.8817204301
 20
1128.8910630583
 30
0.0
 11
983.881720404
 21
1128.8910630583
 31
0.0
  0
LINE
  5
126
330
1F
100
AcDbEntity
  8
0
  6
Continuous
 62
     7
370
    25
100
AcDbLine
 10
869.8817217414
 20
1678.8910153746
 30
0.0
 11
983.881720404
 21
1678.8910153746
 31
0.0
  0
LINE
  5
127
330
1F
100
AcDbEntity
  8
0
  6
Continuous
 62
     7
370
    25
100
AcDbLine
 10
869.8817217414
 20
1128.8910630583
 30
0.0
 11
983.881720404
 21
1128.8910630583
 31
0.0
  0
LINE
  5
128
330
1F
100
AcDbEntity
  8
0
  6
Continuous
 62
     8
370
    25
100
AcDbLine
 10
869.8817217414
 20
1123.8910678266
 30
0.0
 11
869.8817217414
 21
938.8910058378
 31
0.0
  0
LINE
  5
129
330
1F
100
AcDbEntity
  8
0
  6
Continuous
 62
     8
370
    25
100
AcDbLine
 10
983.881720404
 20
938.8910058378
 30
0.0
 11
983.881720404
 21
1123.8910678266
 31
0.0
  0
LINE
  5
12A
330
1F
100
AcDbEntity
  8
0
  6
Continuous
 62
     8
370
    25
100
AcDbLine
 10
883.3817192976
 20
1922.0910492777
 30
0.0
 11
883.3817192976
 21
1901.5910449861
 31
0.0
  0
LINE
  5
12B
330
1F
100
AcDbEntity
  8
0
  6
Continuous
 62
     8
370
    25
100
AcDbLine
 10
883.3817192976
 20
1898.5910538076
 30
0.0
 11
883.3817192976
 21
1878.5910430788
 31
0.0
  0
LINE
  5
12C
330
1F
100
AcDbEntity
  8
0
  6
Continuous
 62
     8
370
    25
100
AcDbLine
 10
883.3817192976
 20
1875.5910519003
 30
0.0
 11
883.3817192976
 21
1855.5910411714
 31
0.0
  0
LINE
  5
12D
330
1F
100
AcDbEntity
  8
0
  6
Continuous
 62
     8
370
    25
100
AcDbLine
 10
883.3817192976
 20
1852.5910499929
 30
0.0
 11
883.3817192976
 21
1832.5910392641
 31
0.0
  0
LINE
  5
12E
330
1F
100
AcDbEntity
  8
0
  6
Continuous
 62
     8
370
    25
100
AcDbLine
 10
883.3817192976
 20
1829.5910480856
 30
0.0
 11
883.3817192976
 21
1809.5910373568
 31
0.0
  0
LINE
  5
12F
330
1F
100
AcDbEntity
  8
0
  6
Continuous
 62
     8
370
    25
100
AcDbLine
 10
883.3817192976
 20
1806.5910461782
 30
0.0
 11
883.3817192976
 21
1786.5910652517
 31
0.0
  0
LINE
  5
130
330
1F
100
AcDbEntity
  8
0
  6
Continuous
 62
     8
370
    25
100
AcDbLine
 10
970.3817205195
 20
1786.5910652517
 30
0.0
 11
970.3817205195
 21
1806.5910461782
 31
0.0
  0
LINE
  5
131
330
1F
100
AcDbEntity
  8
0
  6
Continuous
 62
     8
370
    25
100
AcDbLine
 10
970.3817205195
 20
1809.5910373568
 30
0.0
 11
970.3817205195
 21
1829.5910480856
 31
0.0
  0
LINE
  5
132
330
1F
100
AcDbEntity
  8
0
  6
Continuous
 62
     8
370
    25
100
AcDbLine
 10
970.3817205195
 20
1832.5910392641
 30
0.0
 11
970.3817205195
 21
1852.5910499929
 31
0.0
  0
LINE
  5
133
330
1F
100
AcDbEntity
  8
0
  6
Continuous
 62
     8
370
    25
100
AcDbLine
 10
970.3817205195
 20
1855.5910411714
 30
0.0
 11
970.3817205195
 21
1875.5910519003
 31
0.0
  0
LINE
  5
134
330
1F
100
AcDbEntity
  8
0
  6
Continuous
 62
     8
370
    25
100
AcDbLine
 10
970.3817205195
 20
1878.5910430788
 30
0.0
 11
970.3817205195
 21
1898.5910538076
 31
0.0
  0
LINE
  5
135
330
1F
100
AcDbEntity
  8
0
  6
Continuous
 62
     8
370
    25
100
AcDbLine
 10
970.3817205195
 20
1901.5910449861
 30
0.0
 11
970.3817205195
 21
1922.0910492777
 31
0.0
  0
ARC
  5
136
330
1F
100
AcDbEntity
  8
0
  6
Continuous
 62
     7
370
    25
100
AcDbCircle
 10
869.3817204301
 20
858.8620071685
 30
0.0
 40
2.5
100
AcDbArc
 50
90.0
 51
180.0
  0
ARC
  5
137
330
1F
100
AcDbEntity
  8
0
  6
Continuous
 62
     7
370
    25
100
AcDbCircle
 10
984.3817204301
 20
858.8620071685
 30
0.0
 40
2.5
100
AcDbArc
 50
0.0
 51
90.0
  0
ARC
  5
138
330
1F
100
AcDbEntity
  8
0
  6
Continuous
 62
     7
370
    25
100
AcDbCircle
 10
984.3817204301
 20
743.8620071685
 30
0.0
 40
2.5
100
AcDbArc
 50
270.0
 51
0.0
  0
ARC
  5
139
330
1F
100
AcDbEntity
  8
0
  6
Continuous
 62
     7
370
    25
100
AcDbCircle
 10
869.3817204301
 20
743.8620071685
 30
0.0
 40
2.5
100
AcDbArc
 50
180.0
 51
270.0
  0
ARC
  5
13A
330
1F
100
AcDbEntity
  8
0
  6
Continuous
 62
     7
370
    25
100
AcDbCircle
 10
856.2444572711
 20
722.2394626352
 30
0.0
 40
6.000000000000012
100
AcDbArc
 50
228.2428698394
 51
48.2428698394
  0
ARC
  5
13B
330
1F
100
AcDbEntity
  8
0
  6
Continuous
 62
     7
370
    25
100
AcDbCircle
 10
926.8817204301
 20
801.3620071685
 30
0.0
 40
100.0660171779823
100
AcDbArc
 50
221.7571301606
 51
228.2428698394
  0
ARC
  5
13C
330
1F
100
AcDbEntity
  8
0
  6
Continuous
 62
     7
370
    25
100
AcDbCircle
 10
847.7591758969
 20
730.7247440095
 30
0.0
 40
5.999999999999935
100
AcDbArc
 50
41.7571301606
 51
221.7571301606
  0
ARC
  5
13D
330
1F
100
AcDbEntity
  8
0
  6
Continuous
 62
     7
370
    25
100
AcDbCircle
 10
926.8817204301
 20
801.3620071685
 30
0.0
 40
112.0660171779822
100
AcDbArc
 50
221.7571301606
 51
228.2428698394
  0
ARC
  5
13E
330
1F
100
AcDbEntity
  8
0
  6
Continuous
 62
     7
370
    25
100
AcDbCircle
 10
1006.0042649633
 20
730.7247440095
 30
0.0
 40
6.000000000000097
100
AcDbArc
 50
318.2428698394
 51
138.2428698394
  0
ARC
  5
13F
330
1F
100
AcDbEntity
  8
0
  6
Continuous
 62
     7
370
    25
100
AcDbCircle
 10
926.8817204301
 20
801.3620071685
 30
0.0
 40
100.0660171779821
100
AcDbArc
 50
311.7571301606
 51
318.2428698394
  0
ARC
  5
140
330
1F
100
AcDbEntity
  8
0
  6
Continuous
 62
     7
370
    25
100
AcDbCircle
 10
997.5189835891
 20
722.2394626352
 30
0.0
 40
6.00000000000002
100
AcDbArc
 50
131.7571301606
 51
311.7571301606
  0
ARC
  5
141
330
1F
100
AcDbEntity
  8
0
  6
Continuous
 62
     7
370
    25
100
AcDbCircle
 10
926.8817204301
 20
801.3620071685
 30
0.0
 40
112.0660171779821
100
AcDbArc
 50
311.7571301606
 51
318.2428698394
  0
ARC
  5
142
330
1F
100
AcDbEntity
  8
0
  6
Continuous
 62
     7
370
    25
100
AcDbCircle
 10
997.5189835891
 20
880.4845517017
 30
0.0
 40
6.000000000000097
100
AcDbArc
 50
48.2428698394
 51
228.2428698394
  0
ARC
  5
143
330
1F
100
AcDbEntity
  8
0
  6
Continuous
 62
     7
370
    25
100
AcDbCircle
 10
926.8817204301
 20
801.3620071685
 30
0.0
 40
100.0660171779822
100
AcDbArc
 50
41.7571301606
 51
48.2428698394
  0
ARC
  5
144
330
1F
100
AcDbEntity
  8
0
  6
Continuous
 62
     7
370
    25
100
AcDbCircle
 10
1006.0042649633
 20
871.9992703274
 30
0.0
 40
6.000000000000097
100
AcDbArc
 50
221.7571301606
 51
41.7571301606
  0
ARC
  5
145
330
1F
100
AcDbEntity
  8
0
  6
Continuous
 62
     7
370
    25
100
AcDbCircle
 10
926.8817204301
 20
801.3620071685
 30
0.0
 40
112.0660171779822
100
AcDbArc
 50
41.7571301606
 51
48.2428698394
  0
ARC
  5
146
330
1F
100
AcDbEntity
  8
0
  6
Continuous
 62
     7
370
    25
100
AcDbCircle
 10
847.7591758969
 20
871.9992703274
 30
0.0
 40
6.00000000000002
100
AcDbArc
 50
138.2428698394
 51
318.2428698394
  0
ARC
  5
147
330
1F
100
AcDbEntity
  8
0
  6
Continuous
 62
     7
370
    25
100
AcDbCircle
 10
926.8817204301
 20
801.3620071685
 30
0.0
 40
100.0660171779821
100
AcDbArc
 50
131.7571301606
 51
138.2428698394
  0
ARC
  5
148
330
1F
100
AcDbEntity
  8
0
  6
Continuous
 62
     7
370
    25
100
AcDbCircle
 10
856.2444572711
 20
880.4845517017
 30
0.0
 40
6.000000000000097
100
AcDbArc
 50
311.7571301606
 51
131.7571301606
  0
ARC
  5
149
330
1F
100
AcDbEntity
  8
0
  6
Continuous
 62
     7
370
    25
100
AcDbCircle
 10
926.8817204301
 20
801.3620071685
 30
0.0
 40
112.0660171779822
100
AcDbArc
 50
131.7571301606
 51
138.2428698394
  0
ARC
  5
14A
330
1F
100
AcDbEntity
  8
0
  6
Continuous
 62
     7
370
    25
100
AcDbCircle
 10
869.8817204301
 20
858.3620071685
 30
0.0
 40
3.25
100
AcDbArc
 50
90.0
 51
180.0
  0
LINE
  5
14B
330
1F
100
AcDbEntity
  8
0
  6
Continuous
 62
     7
370
    25
100
AcDbLine
 10
866.6317188804
 20
858.3620058572
 30
0.0
 11
866.6317188804
 21
744.3620071945
 31
0.0
  0
ARC
  5
14C
330
1F
100
AcDbEntity
  8
0
  6
Continuous
 62
     7
370
    25
100
AcDbCircle
 10
869.8817204301
 20
744.3620071685
 30
0.0
 40
3.250000000000114
100
AcDbArc
 50
180.0
 51
270.0
  0
LINE
  5
14D
330
1F
100
AcDbEntity
  8
0
  6
Continuous
 62
     7
370
    25
100
AcDbLine
 10
869.8817217414
 20
741.1120071566
 30
0.0
 11
983.881720404
 21
741.1120071566
 31
0.0
  0
ARC
  5
14E
330
1F
100
AcDbEntity
  8
0
  6
Continuous
 62
     7
370
    25
100
AcDbCircle
 10
983.8817204301
 20
744.3620071685
 30
0.0
 40
3.250000000000114
100
AcDbArc
 50
270.0
 51
0.0
  0
LINE
  5
14F
330
1F
100
AcDbEntity
  8
0
  6
Continuous
 62
     7
370
    25
100
AcDbLine
 10
987.131720442
 20
744.3620071945
 30
0.0
 11
987.131720442
 21
858.3620058572
 31
0.0
  0
ARC
  5
150
330
1F
100
AcDbEntity
  8
0
  6
Continuous
 62
     7
370
    25
100
AcDbCircle
 10
983.8817204301
 20
858.3620071685
 30
0.0
 40
3.25
100
AcDbArc
 50
0.0
 51
90.0
  0
LINE
  5
151
330
1F
100
AcDbEntity
  8
0
  6
Continuous
 62
     7
370
    25
100
AcDbLine
 10
983.881720404
 20
861.6120087182
 30
0.0
 11
869.8817217414
 21
861.6120087182
 31
0.0
  0
ARC
  5
152
330
1F
100
AcDbEntity
  8
0
  6
Continuous
 62
     7
370
    25
100
AcDbCircle
 10
836.8817204301
 20
891.3620071685
 30
0.0
 40
10.00000000000011
100
AcDbArc
 50
90.0
 51
180.0
  0
LINE
  5
153
330
1F
100
AcDbEntity
  8
0
  6
Continuous
 62
     7
370
    25
100
AcDbLine
 10
1016.8817197596
 20
901.3620035922
 30
0.0
 11
836.8817144696
 21
901.3620035922
 31
0.0
  0
ARC
  5
154
330
1F
100
AcDbEntity
  8
0
  6
Continuous
 62
     7
370
    25
100
AcDbCircle
 10
1016.8817204301
 20
891.3620071685
 30
0.0
 40
10.00000000000011
100
AcDbArc
 50
0.0
 51
90.0
  0
LINE
  5
155
330
1F
100
AcDbEntity
  8
0
  6
Continuous
 62
     7
370
    25
100
AcDbLine
 10
1026.881719536
 20
711.362007839
 30
0.0
 11
1026.881719536
 21
891.3620131289
 31
0.0
  0
ARC
  5
156
330
1F
100
AcDbEntity
  8
0
  6
Continuous
 62
     7
370
    25
100
AcDbCircle
 10
1016.8817204301
 20
711.3620071685
 30
0.0
 40
10.0
100
AcDbArc
 50
270.0
 51
0.0
  0
LINE
  5
157
330
1F
100
AcDbEntity
  8
0
  6
Continuous
 62
     7
370
    25
100
AcDbLine
 10
836.8817144696
 20
701.3620080625
 30
0.0
 11
1016.8817197596
 21
701.3620080625
 31
0.0
  0
ARC
  5
158
330
1F
100
AcDbEntity
  8
0
  6
Continuous
 62
     7
370
    25
100
AcDbCircle
 10
836.8817204301
 20
711.3620071685
 30
0.0
 40
10.0
100
AcDbArc
 50
180.0
 51
270.0
  0
LINE
  5
159
330
1F
100
AcDbEntity
  8
0
  6
Continuous
 62
     7
370
    25
100
AcDbLine
 10
826.8817240064
 20
891.3620131289
 30
0.0
 11
826.8817240064
 21
711.362007839
 31
0.0
  0
LINE
  5
15A
330
1F
100
AcDbEntity
  8
0
  6
Continuous
 62
     7
370
    25
100
AcDbLine
 10
986.8817204301
 20
744.3620071945
 30
0.0
 11
986.8817204301
 21
858.3620058572
 31
0.0
  0
LINE
  5
15B
330
1F
100
AcDbEntity
  8
0
  6
Continuous
 62
     7
370
    25
100
AcDbLine
 10
986.8803031448
 20
744.2698025344
 30
0.0
 11
986.8817204301
 21
744.3620071945
 31
0.0
  0
LINE
  5
15C
330
1F
100
AcDbEntity
  8
0
  6
Continuous
 62
     7
370
    25
100
AcDbLine
 10
869.8817217414
 20
741.3620071685
 30
0.0
 11
983.881720404
 21
741.3620071685
 31
0.0
  0
LINE
  5
15D
330
1F
100
AcDbEntity
  8
0
  6
Continuous
 62
     7
370
    25
100
AcDbLine
 10
869.7895133559
 20
741.3634244537
 30
0.0
 11
869.8817217414
 21
741.3620071685
 31
0.0
  0
LINE
  5
15E
330
1F
100
AcDbEntity
  8
0
  6
Continuous
 62
     7
370
    25
100
AcDbLine
 10
866.8817231123
 20
858.3620058572
 30
0.0
 11
866.8817231123
 21
744.3620071945
 31
0.0
  0
LINE
  5
15F
330
1F
100
AcDbEntity
  8
0
  6
Continuous
 62
     7
370
    25
100
AcDbLine
 10
983.881720404
 20
861.3620044862
 30
0.0
 11
869.8817217414
 21
861.3620044862
 31
0.0
  0
LINE
  5
160
330
1F
100
AcDbEntity
  8
0
  6
Continuous
 62
     7
370
    25
100
AcDbLine
 10
866.8831387226
 20
858.4542142426
 30
0.0
 11
866.8817231123
 21
858.3620058572
 31
0.0
  0
SPLINE
  5
161
330
1F
100
AcDbEntity
  8
0
  6
Continuous
 62
     7
370
    25
100
AcDbSpline
210
0.0
220
0.0
230
1.0
 70
     8
 71
     3
 72
    12
 73
     8
 74
     0
 42
0.000000001
 43
0.00000001
 40
0.0
 40
0.0
 40
0.0
 40
0.0
 40
0.1519468949237164
 40
0.374924291211166
 40
0.5858636701977921
 40
0.7965574322031609
 40
1.0
 40
1.0
 40
1.0
 40
1.0
 10
985.8797091915104
 20
858.3618270432196
 30
0.0
 10
985.8677898780529
 20
858.5201928904098
 30
0.0
 10
985.8383793385875
 20
858.9109557489708
 30
0.0
 10
985.5795207723598
 20
859.482759319412
 30
0.0
 10
985.1150014348004
 20
859.9786963810033
 30
0.0
 10
984.5262939324786
 20
860.2964130861479
 30
0.0
 10
984.093932343312
 20
860.3390520557483
 30
0.0
 10
983.8815367006529
 20
860.3599982535086
 30
0.0
  0
LINE
  5
162
330
1F
100
AcDbEntity
  8
0
  6
Continuous
 62
     7
370
    25
100
AcDbLine
 10
983.8815367007
 20
861.3599928295
 30
0.0
 11
983.8815367007
 21
860.3599982535
 31
0.0
  0
SPLINE
  5
163
330
1F
100
AcDbEntity
  8
0
  6
Continuous
 62
     7
370
    25
100
AcDbSpline
210
0.0
220
0.0
230
1.0
 70
     8
 71
     3
 72
    13
 73
     9
 74
     0
 42
0.000000001
 43
0.00000001
 40
0.0
 40
0.0
 40
0.0
 40
0.0
 40
0.0000128149927555
 40
0.2038945790715135
 40
0.4130603298079244
 40
0.6261672503092445
 40
0.8471693937342772
 40
1.0
 40
1.0
 40
1.0
 40
1.0
 10
983.8815367006529
 20
861.3599928294859
 30
0.0
 10
983.881556724086
 20
861.3599928295565
 30
0.0
 10
984.2001421130699
 20
861.3599939524543
 30
0.0
 10
984.8491048521045
 20
861.2514177372653
 30
0.0
 10
985.7326582469098
 20
860.7915473532655
 30
0.0
 10
986.4291770601402
 20
860.0439976927097
 30
0.0
 10
986.8186534202296
 20
859.1859921726585
 30
0.0
 10
986.8619915924425
 20
858.600988653707
 30
0.0
 10
986.8797091389634
 20
858.3618270432196
 30
0.0
  0
LINE
  5
164
330
1F
100
AcDbEntity
  8
0
  6
Continuous
 62
     7
370
    25
100
AcDbLine
 10
985.8797091915
 20
858.3618270432
 30
0.0
 11
986.879709139
 21
858.3618270432
 31
0.0
  0
SPLINE
  5
165
330
1F
100
AcDbEntity
  8
0
  6
Continuous
 62
     7
370
    25
100
AcDbSpline
210
0.0
220
0.0
230
1.0
 70
     8
 71
     3
 72
    13
 73
     9
 74
     0
 42
0.000000001
 43
0.00000001
 40
0.0
 40
0.0
 40
0.0
 40
0.0
 40
0.0000127156581098
 40
0.2038946801193004
 40
0.4130598539756672
 40
0.6261673743925732
 40
0.847169420794799
 40
1.0
 40
1.0
 40
1.0
 40
1.0
 10
866.8837347690779
 20
858.3618270432196
 30
0.0
 10
866.8837347690085
 20
858.3618469114323
 30
0.0
 10
866.883733654786
 20
858.680432298793
 30
0.0
 10
866.9923087184412
 20
859.329394542216
 30
0.0
 10
867.4521826188231
 20
860.2129454041461
 30
0.0
 10
868.1997279302379
 20
860.9094676038347
 30
0.0
 10
869.0577357159415
 20
861.2989421131342
 30
0.0
 10
869.6427390027325
 20
861.3422767326414
 30
0.0
 10
869.8819005553443
 20
861.3599928294859
 30
0.0
  0
LINE
  5
166
330
1F
100
AcDbEntity
  8
0
  6
Continuous
 62
     7
370
    25
100
AcDbLine
 10
869.8819005553
 20
861.3599928295
 30
0.0
 11
869.8819005553
 21
860.3599982535
 31
0.0
  0
SPLINE
  5
167
330
1F
100
AcDbEntity
  8
0
  6
Continuous
 62
     7
370
    25
100
AcDbSpline
210
0.0
220
0.0
230
1.0
 70
     8
 71
     3
 72
    12
 73
     8
 74
     0
 42
0.000000001
 43
0.00000001
 40
0.0
 40
0.0
 40
0.0
 40
0.0
 40
0.1519470070764087
 40
0.3749245741363976
 40
0.5858634715897362
 40
0.7965574044970278
 40
1.0
 40
1.0
 40
1.0
 40
1.0
 10
869.8819005553443
 20
860.3599982535086
 30
0.0
 10
869.723534682356
 20
860.3480786126013
 30
0.0
 10
869.3327717536856
 20
860.3186672646781
 30
0.0
 10
868.7609694366241
 20
860.0598081966598
 30
0.0
 10
868.2650302964886
 20
859.5952917589689
 30
0.0
 10
867.9473147275025
 20
859.0065840258197
 30
0.0
 10
867.904675608846
 20
858.5742225548712
 30
0.0
 10
867.8837293450553
 20
858.3618270432196
 30
0.0
  0
LINE
  5
168
330
1F
100
AcDbEntity
  8
0
  6
Continuous
 62
     7
370
    25
100
AcDbLine
 10
866.8837347691
 20
858.3618270432
 30
0.0
 11
867.8837293451
 21
858.3618270432
 31
0.0
  0
LINE
  5
169
330
1F
100
AcDbEntity
  8
0
  6
Continuous
 62
     7
370
    25
100
AcDbLine
 10
869.8819005553
 20
861.3599928295
 30
0.0
 11
983.8815367007
 21
861.3599928295
 31
0.0
  0
LINE
  5
16A
330
1F
100
AcDbEntity
  8
0
  6
Continuous
 62
     7
370
    25
100
AcDbLine
 10
983.8815367007
 20
860.3599982535
 30
0.0
 11
869.8819005553
 21
860.3599982535
 31
0.0
  0
SPLINE
  5
16B
330
1F
100
AcDbEntity
  8
0
  6
Continuous
 62
     7
370
    25
100
AcDbSpline
210
0.0
220
0.0
230
1.0
 70
     8
 71
     3
 72
    12
 73
     8
 74
     0
 42
0.000000001
 43
0.00000001
 40
0.0
 40
0.0
 40
0.0
 40
0.0
 40
0.1519472044182136
 40
0.3749256264905611
 40
0.5858640094484872
 40
0.7965579839839977
 40
1.0
 40
1.0
 40
1.0
 40
1.0
 10
983.8815367006529
 20
742.3640184070534
 30
0.0
 10
984.0399029982656
 20
742.3759378409871
 30
0.0
 10
984.4306675639892
 20
742.4053487225633
 30
0.0
 10
985.0024746284441
 20
742.6642042619624
 30
0.0
 10
985.4984080225162
 20
743.1287284051824
 30
0.0
 10
985.8161314558118
 20
743.7174320612886
 30
0.0
 10
985.8587654684719
 20
744.1497949962246
 30
0.0
 10
985.8797091915104
 20
744.362190897911
 30
0.0
  0
LINE
  5
16C
330
1F
100
AcDbEntity
  8
0
  6
Continuous
 62
     7
370
    25
100
AcDbLine
 10
869.8819005553
 20
742.3640184071
 30
0.0
 11
983.8815367007
 21
742.3640184071
 31
0.0
  0
SPLINE
  5
16D
330
1F
100
AcDbEntity
  8
0
  6
Continuous
 62
     7
370
    25
100
AcDbSpline
210
0.0
220
0.0
230
1.0
 70
     8
 71
     3
 72
    12
 73
     8
 74
     0
 42
0.000000001
 43
0.00000001
 40
0.0
 40
0.0
 40
0.0
 40
0.0
 40
0.1519473165711923
 40
0.374925909416601
 40
0.5858638108400089
 40
0.7965579562777259
 40
1.0
 40
1.0
 40
1.0
 40
1.0
 10
867.8837293450553
 20
744.362190897911
 30
0.0
 10
867.8956491064386
 20
744.2038245745002
 30
0.0
 10
867.9250607964738
 20
743.813059938667
 30
0.0
 10
868.1839168376648
 20
743.2412541275988
 30
0.0
 10
868.648438081014
 20
742.7453186549681
 30
0.0
 10
869.237141967947
 20
742.4275963578378
 30
0.0
 10
869.6695047846653
 20
742.3849621961227
 30
0.0
 10
869.8819005553443
 20
742.3640184070534
 30
0.0
  0
LINE
  5
16E
330
1F
100
AcDbEntity
  8
0
  6
Continuous
 62
     7
370
    25
100
AcDbLine
 10
867.8837293451
 20
858.3618270432
 30
0.0
 11
867.8837293451
 21
744.3621908979
 31
0.0
  0
LINE
  5
16F
330
1F
100
AcDbEntity
  8
0
  6
Continuous
 62
     7
370
    25
100
AcDbLine
 10
985.8797091915
 20
744.3621908979
 30
0.0
 11
985.8797091915
 21
858.3618270432
 31
0.0
  0
LINE
  5
170
330
1F
100
AcDbEntity
  8
0
  6
Continuous
 62
     7
370
    25
100
AcDbLine
 10
986.879709139
 20
858.3618270432
 30
0.0
 11
986.879709139
 21
744.3621908979
 31
0.0
  0
LINE
  5
171
330
1F
100
AcDbEntity
  8
0
  6
Continuous
 62
     7
370
    25
100
AcDbLine
 10
985.8797091915
 20
744.3621908979
 30
0.0
 11
986.879709139
 21
744.3621908979
 31
0.0
  0
LINE
  5
172
330
1F
100
AcDbEntity
  8
0
  6
Continuous
 62
     7
370
    25
100
AcDbLine
 10
866.8837347691
 20
744.3621908979
 30
0.0
 11
866.8837347691
 21
858.3618270432
 31
0.0
  0
LINE
  5
173
330
1F
100
AcDbEntity
  8
0
  6
Continuous
 62
     7
370
    25
100
AcDbLine
 10
866.8837347691
 20
744.3621908979
 30
0.0
 11
867.8837293451
 21
744.3621908979
 31
0.0
  0
SPLINE
  5
174
330
1F
100
AcDbEntity
  8
0
  6
Continuous
 62
     7
370
    25
100
AcDbSpline
210
0.0
220
0.0
230
1.0
 70
     8
 71
     3
 72
    13
 73
     9
 74
     0
 42
0.000000001
 43
0.00000001
 40
0.0
 40
0.0
 40
0.0
 40
0.0
 40
0.0000128149809034
 40
0.2038944166437134
 40
0.4130604596463577
 40
0.6261663410587112
 40
0.847169485792374
 40
1.0
 40
1.0
 40
1.0
 40
1.0
 10
986.8797091389634
 20
744.362190897911
 30
0.0
 10
986.8797091388068
 20
744.362170874478
 30
0.0
 10
986.8797066438764
 20
744.0435854446428
 30
0.0
 10
986.7711361800019
 20
743.3946210525933
 30
0.0
 10
986.3112563950508
 20
742.5110729144891
 30
0.0
 10
985.5637129938344
 20
741.8145466428341
 30
0.0
 10
984.7057033517362
 20
741.4250751593394
 30
0.0
 10
984.120698237548
 20
741.3817362526319
 30
0.0
 10
983.8815367006529
 20
741.3640184596004
 30
0.0
  0
LINE
  5
175
330
1F
100
AcDbEntity
  8
0
  6
Continuous
 62
     7
370
    25
100
AcDbLine
 10
983.8815367007
 20
742.3640184071
 30
0.0
 11
983.8815367007
 21
741.3640184596
 31
0.0
  0
LINE
  5
176
330
1F
100
AcDbEntity
  8
0
  6
Continuous
 62
     7
370
    25
100
AcDbLine
 10
869.8819005553
 20
742.3640184071
 30
0.0
 11
869.8819005553
 21
741.3640184596
 31
0.0
  0
SPLINE
  5
177
330
1F
100
AcDbEntity
  8
0
  6
Continuous
 62
     7
370
    25
100
AcDbSpline
210
0.0
220
0.0
230
1.0
 70
     8
 71
     3
 72
    13
 73
     9
 74
     0
 42
0.000000001
 43
0.00000001
 40
0.0
 40
0.0
 40
0.0
 40
0.0
 40
0.0000127156463495
 40
0.2038945176903572
 40
0.413059983814241
 40
0.6261664651420529
 40
0.8471695128536
 40
1.0
 40
1.0
 40
1.0
 40
1.0
 10
869.8819005553443
 20
741.3640184596004
 30
0.0
 10
869.8818806871317
 20
741.3640184597583
 30
0.0
 10
869.563295258957
 20
741.364020991666
 30
0.0
 10
868.9143313624575
 20
741.4725902622284
 30
0.0
 10
868.0307857572567
 20
741.9324735807662
 30
0.0
 10
867.3342560991383
 20
742.6800126280532
 30
0.0
 10
866.9447864664241
 20
743.5380245370336
 30
0.0
 10
866.9014511124329
 20
744.1230294189415
 30
0.0
 10
866.8837347690779
 20
744.362190897911
 30
0.0
  0
LINE
  5
178
330
1F
100
AcDbEntity
  8
0
  6
Continuous
 62
     7
370
    25
100
AcDbLine
 10
983.8815367007
 20
741.3640184596
 30
0.0
 11
869.8819005553
 21
741.3640184596
 31
0.0
  0
ENDSEC
  0
SECTION
  2
OBJECTS
  0
DICTIONARY
  5
C
330
0
100
AcDbDictionary
281
     1
  3
ACAD_GROUP
350
D
  3
ACAD_LAYOUT
350
1A
  3
ACAD_MLINESTYLE
350
17
  3
ACAD_PLOTSETTINGS
350
19
  3
ACAD_PLOTSTYLENAME
350
E
  3
ACAD_SCALELIST
350
47
  0
DICTIONARY
  5
D
102
{ACAD_REACTORS
330
C
102
}
330
C
100
AcDbDictionary
281
     1
  0
DICTIONARY
  5
1A
102
{ACAD_REACTORS
330
C
102
}
330
C
100
AcDbDictionary
281
     1
  3
Layout1
350
1E
  3
Layout2
350
26
  3
Model
350
22
  0
DICTIONARY
  5
17
102
{ACAD_REACTORS
330
C
102
}
330
C
100
AcDbDictionary
281
     1
  3
Standard
350
18
  0
DICTIONARY
  5
19
102
{ACAD_REACTORS
330
C
102
}
330
C
100
AcDbDictionary
281
     1
  0
ACDBDICTIONARYWDFLT
  5
E
102
{ACAD_REACTORS
330
C
102
}
330
C
100
AcDbDictionary
281
     1
  3
Normal
350
F
100
AcDbDictionaryWithDefault
340
F
  0
DICTIONARY
  5
47
102
{ACAD_REACTORS
330
C
102
}
330
C
100
AcDbDictionary
281
     1
  3
A0
350
48
  3
A1
350
49
  3
A2
350
4A
  3
A3
350
4B
  3
A4
350
4C
  3
A5
350
4D
  3
A6
350
4E
  3
A7
350
4F
  3
A8
350
50
  3
A9
350
51
  3
B0
350
52
  3
B1
350
53
  3
B2
350
54
  3
B3
350
55
  3
B4
350
56
  3
B5
350
57
  3
B6
350
58
  3
B7
350
59
  3
B8
350
5A
  3
B9
350
5B
  3
C0
350
5C
  3
C1
350
5D
  3
C2
350
5E
  3
C3
350
5F
  3
C4
350
60
  3
C5
350
61
  3
C6
350
62
  3
C7
350
63
  3
C8
350
64
  3
C9
350
65
  3
D0
350
66
  3
D1
350
67
  3
D2
350
68
  0
LAYOUT
  5
1E
102
{ACAD_REACTORS
330
1A
102
}
330
1A
100
AcDbPlotSettings
  1

  2
none_device
  4

  6

 40
0.0
 41
0.0
 42
0.0
 43
0.0
 44
0.0
 45
0.0
 46
0.0
 47
0.0
 48
0.0
 49
0.0
140
0.0
141
0.0
142
1.0
143
1.0
 70
   688
 72
     1
 73
     0
 74
     5
  7

 75
    16
147
1.0
148
0.0
149
0.0
100
AcDbLayout
  1
Layout1
 70
     1
 71
     1
 10
0.0
 20
0.0
 11
420.0
 21
297.0
 12
0.0
 22
0.0
 32
0.0
 14
1.0000000000E+20
 24
1.0000000000E+20
 34
1.0000000000E+20
 15
-1.0000000000E+20
 25
-1.0000000000E+20
 35
-1.0000000000E+20
146
0.0
 13
0.0
 23
0.0
 33
0.0
 16
1.0
 26
0.0
 36
0.0
 17
0.0
 27
1.0
 37
0.0
 76
     0
330
1B
  0
LAYOUT
  5
26
102
{ACAD_REACTORS
330
1A
102
}
330
1A
100
AcDbPlotSettings
  1

  2
none_device
  4

  6

 40
0.0
 41
0.0
 42
0.0
 43
0.0
 44
0.0
 45
0.0
 46
0.0
 47
0.0
 48
0.0
 49
0.0
140
0.0
141
0.0
142
1.0
143
1.0
 70
   688
 72
     1
 73
     0
 74
     5
  7

 75
    16
147
1.0
148
0.0
149
0.0
100
AcDbLayout
  1
Layout2
 70
     1
 71
     2
 10
0.0
 20
0.0
 11
0.0
 21
0.0
 12
0.0
 22
0.0
 32
0.0
 14
0.0
 24
0.0
 34
0.0
 15
0.0
 25
0.0
 35
0.0
146
0.0
 13
0.0
 23
0.0
 33
0.0
 16
1.0
 26
0.0
 36
0.0
 17
0.0
 27
1.0
 37
0.0
 76
     0
330
23
  0
LAYOUT
  5
22
102
{ACAD_REACTORS
330
1A
102
}
330
1A
100
AcDbPlotSettings
  1

  2
none_device
  4
Letter_(8.50_x_11.00_Inches)
  6

 40
6.35
 41
6.35
 42
6.35000508
 43
6.35000508
 44
215.9
 45
279.4
 46
0.0
 47
0.0
 48
0.0
 49
0.0
140
0.0
141
0.0
142
1.0
143
1.0
 70
  1712
 72
     1
 73
     0
 74
     0
  7

 75
     0
147
1.0
148
0.0
149
0.0
100
AcDbLayout
  1
Model
 70
     1
 71
     0
 10
0.0
 20
0.0
 11
2000.0
 21
2000.0
 12
0.0
 22
0.0
 32
0.0
 14
0.0
 24
0.0
 34
0.0
 15
2000.0
 25
2000.0
 35
0.0
146
0.0
 13
0.0
 23
0.0
 33
0.0
 16
1.0
 26
0.0
 36
0.0
 17
0.0
 27
1.0
 37
0.0
 76
     0
330
1F
331
29
  0
MLINESTYLE
  5
18
102
{ACAD_REACTORS
330
17
102
}
330
17
100
AcDbMlineStyle
  2
Standard
 70
     0
  3

 62
   256
 51
90.0
 52
90.0
 71
     2
 49
0.5
 62
   256
  6
BYLAYER
 49
-0.5
 62
   256
  6
BYLAYER
  0
ACDBPLACEHOLDER
  5
F
102
{ACAD_REACTORS
330
E
102
}
330
E
  0
SCALE
  5
48
102
{ACAD_REACTORS
330
47
102
}
330
47
100
AcDbScale
 70
     0
300
1:1
140
1.0
141
1.0
290
     1
  0
SCALE
  5
49
102
{ACAD_REACTORS
330
47
102
}
330
47
100
AcDbScale
 70
     0
300
1:2
140
1.0
141
2.0
290
     0
  0
SCALE
  5
4A
102
{ACAD_REACTORS
330
47
102
}
330
47
100
AcDbScale
 70
     0
300
1:4
140
1.0
141
4.0
290
     0
  0
SCALE
  5
4B
102
{ACAD_REACTORS
330
47
102
}
330
47
100
AcDbScale
 70
     0
300
1:5
140
1.0
141
5.0
290
     0
  0
SCALE
  5
4C
102
{ACAD_REACTORS
330
47
102
}
330
47
100
AcDbScale
 70
     0
300
1:8
140
1.0
141
8.0
290
     0
  0
SCALE
  5
4D
102
{ACAD_REACTORS
330
47
102
}
330
47
100
AcDbScale
 70
     0
300
1:10
140
1.0
141
10.0
290
     0
  0
SCALE
  5
4E
102
{ACAD_REACTORS
330
47
102
}
330
47
100
AcDbScale
 70
     0
300
1:16
140
1.0
141
16.0
290
     0
  0
SCALE
  5
4F
102
{ACAD_REACTORS
330
47
102
}
330
47
100
AcDbScale
 70
     0
300
1:20
140
1.0
141
20.0
290
     0
  0
SCALE
  5
50
102
{ACAD_REACTORS
330
47
102
}
330
47
100
AcDbScale
 70
     0
300
1:30
140
1.0
141
30.0
290
     0
  0
SCALE
  5
51
102
{ACAD_REACTORS
330
47
102
}
330
47
100
AcDbScale
 70
     0
300
1:40
140
1.0
141
40.0
290
     0
  0
SCALE
  5
52
102
{ACAD_REACTORS
330
47
102
}
330
47
100
AcDbScale
 70
     0
300
1:50
140
1.0
141
50.0
290
     0
  0
SCALE
  5
53
102
{ACAD_REACTORS
330
47
102
}
330
47
100
AcDbScale
 70
     0
300
1:100
140
1.0
141
100.0
290
     0
  0
SCALE
  5
54
102
{ACAD_REACTORS
330
47
102
}
330
47
100
AcDbScale
 70
     0
300
2:1
140
2.0
141
1.0
290
     0
  0
SCALE
  5
55
102
{ACAD_REACTORS
330
47
102
}
330
47
100
AcDbScale
 70
     0
300
4:1
140
4.0
141
1.0
290
     0
  0
SCALE
  5
56
102
{ACAD_REACTORS
330
47
102
}
330
47
100
AcDbScale
 70
     0
300
8:1
140
8.0
141
1.0
290
     0
  0
SCALE
  5
57
102
{ACAD_REACTORS
330
47
102
}
330
47
100
AcDbScale
 70
     0
300
10:1
140
10.0
141
1.0
290
     0
  0
SCALE
  5
58
102
{ACAD_REACTORS
330
47
102
}
330
47
100
AcDbScale
 70
     0
300
100:1
140
100.0
141
1.0
290
     0
  0
SCALE
  5
59
102
{ACAD_REACTORS
330
47
102
}
330
47
100
AcDbScale
 70
     0
300
1/128" = 1'-0"
140
0.0078125
141
12.0
290
     0
  0
SCALE
  5
5A
102
{ACAD_REACTORS
330
47
102
}
330
47
100
AcDbScale
 70
     0
300
1/64" = 1'-0"
140
0.015625
141
12.0
290
     0
  0
SCALE
  5
5B
102
{ACAD_REACTORS
330
47
102
}
330
47
100
AcDbScale
 70
     0
300
1/32" = 1'-0"
140
0.03125
141
12.0
290
     0
  0
SCALE
  5
5C
102
{ACAD_REACTORS
330
47
102
}
330
47
100
AcDbScale
 70
     0
300
1/16" = 1'-0"
140
0.0625
141
12.0
290
     0
  0
SCALE
  5
5D
102
{ACAD_REACTORS
330
47
102
}
330
47
100
AcDbScale
 70
     0
300
3/32" = 1'-0"
140
0.09375
141
12.0
290
     0
  0
SCALE
  5
5E
102
{ACAD_REACTORS
330
47
102
}
330
47
100
AcDbScale
 70
     0
300
1/8" = 1'-0"
140
0.125
141
12.0
290
     0
  0
SCALE
  5
5F
102
{ACAD_REACTORS
330
47
102
}
330
47
100
AcDbScale
 70
     0
300
3/16" = 1'-0"
140
0.1875
141
12.0
290
     0
  0
SCALE
  5
60
102
{ACAD_REACTORS
330
47
102
}
330
47
100
AcDbScale
 70
     0
300
1/4" = 1'-0"
140
0.25
141
12.0
290
     0
  0
SCALE
  5
61
102
{ACAD_REACTORS
330
47
102
}
330
47
100
AcDbScale
 70
     0
300
3/8" = 1'-0"
140
0.375
141
12.0
290
     0
  0
SCALE
  5
62
102
{ACAD_REACTORS
330
47
102
}
330
47
100
AcDbScale
 70
     0
300
1/2" = 1'-0"
140
0.5
141
12.0
290
     0
  0
SCALE
  5
63
102
{ACAD_REACTORS
330
47
102
}
330
47
100
AcDbScale
 70
     0
300
3/4" = 1'-0"
140
0.75
141
12.0
290
     0
  0
SCALE
  5
64
102
{ACAD_REACTORS
330
47
102
}
330
47
100
AcDbScale
 70
     0
300
1" = 1'-0"
140
1.0
141
12.0
290
     0
  0
SCALE
  5
65
102
{ACAD_REACTORS
330
47
102
}
330
47
100
AcDbScale
 70
     0
300
1-1/2" = 1'-0"
140
1.5
141
12.0
290
     0
  0
SCALE
  5
66
102
{ACAD_REACTORS
330
47
102
}
330
47
100
AcDbScale
 70
     0
300
3" = 1'-0"
140
3.0
141
12.0
290
     0
  0
SCALE
  5
67
102
{ACAD_REACTORS
330
47
102
}
330
47
100
AcDbScale
 70
     0
300
6" = 1'-0"
140
6.0
141
12.0
290
     0
  0
SCALE
  5
68
102
{ACAD_REACTORS
330
47
102
}
330
47
100
AcDbScale
 70
     0
300
1'-0" = 1'-0"
140
12.0
141
12.0
290
     0
  0
ENDSEC
  0
EOF
