  0
SECTION
  2
HEADER
  9
$ACADVER
  1
AC1015
  9
$ACADMAINTVER
 70
     6
  9
$DWGCODEPAGE
  3
ANSI_1254
  9
$INSBASE
 10
0.0
 20
0.0
 30
0.0
  9
$EXTMIN
 10
0.0
 20
0.0
 30
0.0
  9
$EXTMAX
 10
1189.0
 20
841.0
 30
0.0
  9
$LIMMIN
 10
0.0
 20
0.0
  9
$LIMMAX
 10
1189.0
 20
841.0
  9
$ORTHOMODE
 70
     0
  9
$REGENMODE
 70
     1
  9
$FILLMODE
 70
     1
  9
$QTEXTMODE
 70
     0
  9
$MIRRTEXT
 70
     1
  9
$LTSCALE
 40
1.0
  9
$ATTMODE
 70
     1
  9
$TEXTSIZE
 40
4.9388888889
  9
$TRACEWID
 40
1.0
  9
$TEXTSTYLE
  7
Standard
  9
$CLAYER
  8
0
  9
$CELTYPE
  6
ByLayer
  9
$CECOLOR
 62
   256
  9
$CELTSCALE
 40
1.0
  9
$DISPSILH
 70
     0
  9
$DIMSCALE
 40
1.0
  9
$DIMASZ
 40
3.65
  9
$DIMEXO
 40
0.5
  9
$DIMDLI
 40
3.75
  9
$DIMRND
 40
0.0
  9
$DIMDLE
 40
0.0
  9
$DIMEXE
 40
1.0
  9
$DIMTP
 40
0.0
  9
$DIMTM
 40
0.0
  9
$DIMTXT
 40
4.2333333333
  9
$DIMCEN
 40
2.5
  9
$DIMTSZ
 40
0.0
  9
$DIMTOL
 70
     0
  9
$DIMLIM
 70
     0
  9
$DIMTIH
 70
     1
  9
$DIMTOH
 70
     1
  9
$DIMSE1
 70
     0
  9
$DIMSE2
 70
     0
  9
$DIMTAD
 70
     1
  9
$DIMZIN
 70
     0
  9
$DIMBLK
  1

  9
$DIMASO
 70
     1
  9
$DIMSHO
 70
     1
  9
$DIMPOST
  1

  9
$DIMAPOST
  1

  9
$DIMALT
 70
     0
  9
$DIMALTD
 70
     3
  9
$DIMALTF
 40
0.0393700787
  9
$DIMLFAC
 40
1.0
  9
$DIMTOFL
 70
     1
  9
$DIMTVP
 40
0.0
  9
$DIMTIX
 70
     0
  9
$DIMSOXD
 70
     0
  9
$DIMSAH
 70
     0
  9
$DIMBLK1
  1

  9
$DIMBLK2
  1

  9
$DIMSTYLE
  2
ISO-25
  9
$DIMCLRD
 70
     0
  9
$DIMCLRE
 70
     0
  9
$DIMCLRT
 70
     0
  9
$DIMTFAC
 40
1.0
  9
$DIMGAP
 40
1.524
  9
$DIMJUST
 70
     0
  9
$DIMSD1
 70
     0
  9
$DIMSD2
 70
     0
  9
$DIMTOLJ
 70
     0
  9
$DIMTZIN
 70
     0
  9
$DIMALTZ
 70
     0
  9
$DIMALTTZ
 70
     0
  9
$DIMUPT
 70
     0
  9
$DIMDEC
 70
     2
  9
$DIMTDEC
 70
     2
  9
$DIMALTU
 70
     2
  9
$DIMALTTD
 70
     3
  9
$DIMTXSTY
  7
Standard
  9
$DIMAUNIT
 70
     0
  9
$DIMADEC
 70
     2
  9
$DIMALTRND
 40
0.0
  9
$DIMAZIN
 70
     0
  9
$DIMDSEP
 70
    44
  9
$DIMATFIT
 70
     3
  9
$DIMFRAC
 70
     0
  9
$DIMLDRBLK
  1

  9
$DIMLUNIT
 70
     2
  9
$DIMLWD
 70
    -2
  9
$DIMLWE
 70
    -2
  9
$DIMTMOVE
 70
     0
  9
$LUNITS
 70
     2
  9
$LUPREC
 70
     2
  9
$SKETCHINC
 40
1.0
  9
$FILLETRAD
 40
10.0
  9
$AUNITS
 70
     0
  9
$AUPREC
 70
     2
  9
$MENU
  1
.
  9
$ELEVATION
 40
0.0
  9
$PELEVATION
 40
0.0
  9
$THICKNESS
 40
0.0
  9
$LIMCHECK
 70
     0
  9
$CHAMFERA
 40
0.0
  9
$CHAMFERB
 40
0.0
  9
$CHAMFERC
 40
0.0
  9
$CHAMFERD
 40
0.0
  9
$SKPOLY
 70
     0
  9
$TDCREATE
 40
2459103.433213148
  9
$TDUCREATE
 40
2459103.308213148
  9
$TDUPDATE
 40
2459103.433214283
  9
$TDUUPDATE
 40
2459103.308214283
  9
$TDINDWG
 40
0.0000000116
  9
$TDUSRTIMER
 40
0.0000000116
  9
$USRTIMER
 70
     1
  9
$ANGBASE
 50
0.0
  9
$ANGDIR
 70
     0
  9
$PDMODE
 70
     0
  9
$PDSIZE
 40
-1.0
  9
$PLINEWID
 40
0.0
  9
$SPLFRAME
 70
     0
  9
$SPLINETYPE
 70
     6
  9
$SPLINESEGS
 70
     8
  9
$HANDSEED
  5
37D
  9
$SURFTAB1
 70
     6
  9
$SURFTAB2
 70
     6
  9
$SURFTYPE
 70
     6
  9
$SURFU
 70
     6
  9
$SURFV
 70
     6
  9
$UCSBASE
  2

  9
$UCSNAME
  2

  9
$UCSORG
 10
0.0
 20
0.0
 30
0.0
  9
$UCSXDIR
 10
1.0
 20
0.0
 30
0.0
  9
$UCSYDIR
 10
0.0
 20
1.0
 30
0.0
  9
$UCSORTHOREF
  2

  9
$UCSORTHOVIEW
 70
     0
  9
$UCSORGTOP
 10
0.0
 20
0.0
 30
0.0
  9
$UCSORGBOTTOM
 10
0.0
 20
0.0
 30
0.0
  9
$UCSORGLEFT
 10
0.0
 20
0.0
 30
0.0
  9
$UCSORGRIGHT
 10
0.0
 20
0.0
 30
0.0
  9
$UCSORGFRONT
 10
0.0
 20
0.0
 30
0.0
  9
$UCSORGBACK
 10
0.0
 20
0.0
 30
0.0
  9
$PUCSBASE
  2

  9
$PUCSNAME
  2

  9
$PUCSORG
 10
0.0
 20
0.0
 30
0.0
  9
$PUCSXDIR
 10
1.0
 20
0.0
 30
0.0
  9
$PUCSYDIR
 10
0.0
 20
1.0
 30
0.0
  9
$PUCSORTHOREF
  2

  9
$PUCSORTHOVIEW
 70
     0
  9
$PUCSORGTOP
 10
0.0
 20
0.0
 30
0.0
  9
$PUCSORGBOTTOM
 10
0.0
 20
0.0
 30
0.0
  9
$PUCSORGLEFT
 10
0.0
 20
0.0
 30
0.0
  9
$PUCSORGRIGHT
 10
0.0
 20
0.0
 30
0.0
  9
$PUCSORGFRONT
 10
0.0
 20
0.0
 30
0.0
  9
$PUCSORGBACK
 10
0.0
 20
0.0
 30
0.0
  9
$USERI1
 70
     0
  9
$USERI2
 70
     0
  9
$USERI3
 70
     0
  9
$USERI4
 70
     0
  9
$USERI5
 70
     0
  9
$USERR1
 40
0.0
  9
$USERR2
 40
0.0
  9
$USERR3
 40
0.0
  9
$USERR4
 40
0.0
  9
$USERR5
 40
0.0
  9
$WORLDVIEW
 70
     1
  9
$SHADEDGE
 70
     3
  9
$SHADEDIF
 70
    70
  9
$TILEMODE
 70
     1
  9
$MAXACTVP
 70
    64
  9
$PINSBASE
 10
0.0
 20
0.0
 30
0.0
  9
$PLIMCHECK
 70
     0
  9
$PEXTMIN
 10
1.0000000000E+20
 20
1.0000000000E+20
 30
1.0000000000E+20
  9
$PEXTMAX
 10
-1.0000000000E+20
 20
-1.0000000000E+20
 30
-1.0000000000E+20
  9
$PLIMMIN
 10
0.0
 20
0.0
  9
$PLIMMAX
 10
420.0
 20
297.0
  9
$UNITMODE
 70
     0
  9
$VISRETAIN
 70
     1
  9
$PLINEGEN
 70
     0
  9
$PSLTSCALE
 70
     1
  9
$TREEDEPTH
 70
  3020
  9
$CMLSTYLE
  2
Standard
  9
$CMLJUST
 70
     0
  9
$CMLSCALE
 40
20.0
  9
$PROXYGRAPHICS
 70
     1
  9
$MEASUREMENT
 70
     1
  9
$CELWEIGHT
370
    -1
  9
$ENDCAPS
280
     0
  9
$JOINSTYLE
280
     0
  9
$LWDISPLAY
290
     1
  9
$INSUNITS
 70
     4
  9
$HYPERLINKBASE
  1

  9
$STYLESHEET
  1

  9
$XEDIT
290
     1
  9
$CEPSNTYPE
380
     0
  9
$PSTYLEMODE
290
     1
  9
$FINGERPRINTGUID
  2
{694143a5-0318-48e4-9f4f-7c8ff45c1a9f}
  9
$VERSIONGUID
  2
{FAEB1C32-E019-11D5-929B-00C0DF256EC4}
  9
$EXTNAMES
290
     1
  9
$PSVPSCALE
 40
0.0
  9
$OLESTARTUP
290
     0
  0
ENDSEC
  0
SECTION
  2
CLASSES
  0
CLASS
  1
ACDBDICTIONARYWDFLT
  2
AcDbDictionaryWithDefault
  3
ObjectDBX Classes
 90
        0
280
     0
281
     0
  0
CLASS
  1
VISUALSTYLE
  2
AcDbVisualStyle
  3
ObjectDBX Classes
 90
     4095
280
     0
281
     0
  0
CLASS
  1
MATERIAL
  2
AcDbMaterial
  3
ObjectDBX Classes
 90
     1153
280
     0
281
     0
  0
CLASS
  1
SCALE
  2
AcDbScale
  3
ObjectDBX Classes
 90
     1153
280
     0
281
     0
  0
CLASS
  1
TABLESTYLE
  2
AcDbTableStyle
  3
ObjectDBX Classes
 90
     4095
280
     0
281
     0
  0
CLASS
  1
MLEADERSTYLE
  2
AcDbMLeaderStyle
  3
ACDB_MLEADERSTYLE_CLASS
 90
     4095
280
     0
281
     0
  0
CLASS
  1
SUN
  2
AcDbSun
  3
SCENEOE
 90
     1153
280
     0
281
     0
  0
CLASS
  1
ACDBPLACEHOLDER
  2
AcDbPlaceHolder
  3
ObjectDBX Classes
 90
        0
280
     0
281
     0
  0
CLASS
  1
LAYOUT
  2
AcDbLayout
  3
ObjectDBX Classes
 90
        0
280
     0
281
     0
  0
ENDSEC
  0
SECTION
  2
TABLES
  0
TABLE
  2
VPORT
  5
8
330
0
100
AcDbSymbolTable
 70
     1
  0
VPORT
  5
29
330
8
100
AcDbSymbolTableRecord
100
AcDbViewportTableRecord
  2
*Active
 70
     0
 10
0.0
 20
0.0
 11
1.0
 21
1.0
 12
594.5
 22
420.5
 13
0.0
 23
0.0
 14
10.0
 24
10.0
 15
10.0
 25
10.0
 16
0.0
 26
0.0
 36
1.0
 17
0.0
 27
0.0
 37
0.0
 40
841.0
 41
1.4137931034
 42
50.0
 43
0.0
 44
0.0
 50
0.0
 51
0.0
 71
     0
 72
  2000
 73
     1
 74
     3
 75
     0
 76
     0
 77
     0
 78
     0
281
     0
 65
     1
110
0.0
120
0.0
130
0.0
111
1.0
121
0.0
131
0.0
112
0.0
122
1.0
132
0.0
 79
     0
146
0.0
  0
ENDTAB
  0
TABLE
  2
LTYPE
  5
5
330
0
100
AcDbSymbolTable
 70
     6
  0
LTYPE
  5
14
330
5
100
AcDbSymbolTableRecord
100
AcDbLinetypeTableRecord
  2
ByBlock
 70
     0
  3

 72
    65
 73
     0
 40
0.0
  0
LTYPE
  5
15
330
5
100
AcDbSymbolTableRecord
100
AcDbLinetypeTableRecord
  2
ByLayer
 70
     0
  3

 72
    65
 73
     0
 40
0.0
  0
LTYPE
  5
16
330
5
100
AcDbSymbolTableRecord
100
AcDbLinetypeTableRecord
  2
Continuous
 70
     0
  3
Solid line
 72
    65
 73
     0
 40
0.0
  0
LTYPE
  5
6E
330
5
100
AcDbSymbolTableRecord
100
AcDbLinetypeTableRecord
  2
HIDDEN
 70
     0
  3
Hidden __ __ __ __ __ __ __ __ __ __ __ __ __ __
 72
    65
 73
     2
 40
1.905
 49
1.27
 74
     0
 49
-0.635
 74
     0
  0
LTYPE
  5
6F
330
5
100
AcDbSymbolTableRecord
100
AcDbLinetypeTableRecord
  2
PHANTOM
 70
     0
  3
Phantom ______  __  __  ______  __  __  ______
 72
    65
 73
     6
 40
12.7
 49
6.35
 74
     0
 49
-1.27
 74
     0
 49
1.27
 74
     0
 49
-1.27
 74
     0
 49
1.27
 74
     0
 49
-1.27
 74
     0
  0
LTYPE
  5
70
330
5
100
AcDbSymbolTableRecord
100
AcDbLinetypeTableRecord
  2
CENTER
 70
     0
  3
Center ____ _ ____ _ ____ _ ____ _ ____ _ ____
 72
    65
 73
     4
 40
10.16
 49
6.35
 74
     0
 49
-1.27
 74
     0
 49
1.27
 74
     0
 49
-1.27
 74
     0
  0
LTYPE
  5
71
330
5
100
AcDbSymbolTableRecord
100
AcDbLinetypeTableRecord
  2
CENTERX2
 70
     0
  3
Center (2x) ________  __  ________  __  _____
 72
    65
 73
     4
 40
20.32
 49
12.7
 74
     0
 49
-2.54
 74
     0
 49
2.54
 74
     0
 49
-2.54
 74
     0
  0
LTYPE
  5
72
330
5
100
AcDbSymbolTableRecord
100
AcDbLinetypeTableRecord
  2
DOT2
 70
     0
  3
Dot (.5x) ........................................
 72
    65
 73
     2
 40
0.635
 49
0.0
 74
     0
 49
-0.635
 74
     0
  0
ENDTAB
  0
TABLE
  2
LAYER
  5
2
330
0
100
AcDbSymbolTable
 70
     5
  0
LAYER
  5
10
330
2
100
AcDbSymbolTableRecord
100
AcDbLayerTableRecord
  2
0
 70
     0
 62
     7
  6
Continuous
370
    -3
390
F
  0
LAYER
  5
73
330
2
100
AcDbSymbolTableRecord
100
AcDbLayerTableRecord
  2
FORMAT
 70
     0
 62
     7
  6
Continuous
370
    -3
390
F
  0
LAYER
  5
74
330
2
100
AcDbSymbolTableRecord
100
AcDbLayerTableRecord
  2
SLD-0
 70
     0
 62
   179
  6
Continuous
370
    -3
390
F
  0
LAYER
  5
75
330
2
100
AcDbSymbolTableRecord
100
AcDbLayerTableRecord
  2
AAA_EKSEN
 70
     0
 62
     1
  6
CENTER
370
    -3
390
F
  0
LAYER
  5
76
330
2
100
AcDbSymbolTableRecord
100
AcDbLayerTableRecord
  2
03
 70
     0
 62
     3
  6
HIDDEN
370
    -3
390
F
  0
ENDTAB
  0
TABLE
  2
STYLE
  5
3
330
0
100
AcDbSymbolTable
 70
     1
  0
STYLE
  5
11
330
3
100
AcDbSymbolTableRecord
100
AcDbTextStyleTableRecord
  2
Standard
 70
     0
 40
0.0
 41
1.0
 50
0.0
 71
     0
 42
4.9388888889
  3
txt
  4

  0
ENDTAB
  0
TABLE
  2
VIEW
  5
6
330
0
100
AcDbSymbolTable
 70
     0
  0
ENDTAB
  0
TABLE
  2
UCS
  5
7
330
0
100
AcDbSymbolTable
 70
     0
  0
ENDTAB
  0
TABLE
  2
APPID
  5
9
330
0
100
AcDbSymbolTable
 70
     1
  0
APPID
  5
12
330
9
100
AcDbSymbolTableRecord
100
AcDbRegAppTableRecord
  2
ACAD
 70
     0
  0
ENDTAB
  0
TABLE
  2
DIMSTYLE
  5
A
330
0
100
AcDbSymbolTable
 70
     1
100
AcDbDimStyleTable
  0
DIMSTYLE
105
27
330
A
100
AcDbSymbolTableRecord
100
AcDbDimStyleTableRecord
  2
ISO-25
 70
     0
 41
2.5
 42
0.625
 43
3.75
 44
1.25
 73
     0
 74
     0
 77
     1
 78
     8
140
2.5
141
2.5
143
0.0393700787
147
0.625
171
     3
172
     1
178
     0
271
     2
272
     2
274
     3
278
    44
283
     0
284
     8
340
11
  0
ENDTAB
  0
TABLE
  2
BLOCK_RECORD
  5
1
330
0
100
AcDbSymbolTable
 70
     1
  0
BLOCK_RECORD
  5
1F
330
1
100
AcDbSymbolTableRecord
100
AcDbBlockTableRecord
  2
*Model_Space
340
22
  0
BLOCK_RECORD
  5
1B
330
1
100
AcDbSymbolTableRecord
100
AcDbBlockTableRecord
  2
*Paper_Space
340
1E
  0
BLOCK_RECORD
  5
23
330
1
100
AcDbSymbolTableRecord
100
AcDbBlockTableRecord
  2
*Paper_Space0
340
26
  0
ENDTAB
  0
ENDSEC
  0
SECTION
  2
BLOCKS
  0
BLOCK
  5
20
330
1F
100
AcDbEntity
  8
0
100
AcDbBlockBegin
  2
*Model_Space
 70
     0
 10
0.0
 20
0.0
 30
0.0
  3
*Model_Space
  1

  0
ENDBLK
  5
21
330
1F
100
AcDbEntity
  8
0
100
AcDbBlockEnd
  0
BLOCK
  5
1C
330
1B
100
AcDbEntity
 67
     1
  8
0
100
AcDbBlockBegin
  2
*Paper_Space
 70
     0
 10
0.0
 20
0.0
 30
0.0
  3
*Paper_Space
  1

  0
ENDBLK
  5
1D
330
1B
100
AcDbEntity
 67
     1
  8
0
100
AcDbBlockEnd
  0
BLOCK
  5
24
330
23
100
AcDbEntity
  8
0
100
AcDbBlockBegin
  2
*Paper_Space0
 70
     0
 10
0.0
 20
0.0
 30
0.0
  3
*Paper_Space0
  1

  0
ENDBLK
  5
25
330
23
100
AcDbEntity
  8
0
100
AcDbBlockEnd
  0
ENDSEC
  0
SECTION
  2
ENTITIES
  0
ARC
  5
77
330
1F
100
AcDbEntity
  8
0
  6
Continuous
 62
     7
370
    25
100
AcDbCircle
 10
1219.6219154362
 20
2812.6522575528
 30
0.0
 40
1.000000000000531
100
AcDbArc
 50
182.0
 51
269.8986443956
  0
LINE
  5
78
330
1F
100
AcDbEntity
  8
0
  6
Continuous
 62
     7
370
    25
100
AcDbLine
 10
1219.8446842807
 20
2805.273279037
 30
0.0
 11
1356.6492947715
 21
2805.273279037
 31
0.0
  0
ARC
  5
79
330
1F
100
AcDbEntity
  8
0
  6
Continuous
 62
     7
370
    25
100
AcDbCircle
 10
1356.6493103289
 20
2806.2730865673
 30
0.0
 40
1.000000000000835
100
AcDbArc
 50
270.4301672806
 51
358.0
  0
ARC
  5
7A
330
1F
100
AcDbEntity
  8
0
  6
Continuous
 62
     7
370
    25
100
AcDbCircle
 10
1219.8446809958
 20
2806.2730865673
 30
0.0
 40
1.000000000000414
100
AcDbArc
 50
182.0
 51
269.3707486218
  0
ARC
  5
7B
330
1F
100
AcDbEntity
  8
0
  6
Continuous
 62
     7
370
    25
100
AcDbCircle
 10
1374.6219154362
 20
2812.6522575528
 30
0.0
 40
1.000000000000531
100
AcDbArc
 50
182.0
 51
269.8986443956
  0
LINE
  5
7C
330
1F
100
AcDbEntity
  8
0
  6
Continuous
 62
     7
370
    25
100
AcDbLine
 10
1374.8446854728
 20
2805.273279037
 30
0.0
 11
1511.6493257659
 21
2805.273279037
 31
0.0
  0
ARC
  5
7D
330
1F
100
AcDbEntity
  8
0
  6
Continuous
 62
     7
370
    25
100
AcDbCircle
 10
1511.6493103289
 20
2806.2730865673
 30
0.0
 40
1.00000000000038
100
AcDbArc
 50
270.4301672806
 51
358.0
  0
ARC
  5
7E
330
1F
100
AcDbEntity
  8
0
  6
Continuous
 62
     7
370
    25
100
AcDbCircle
 10
1374.8446809958
 20
2806.2730865673
 30
0.0
 40
1.000000000000414
100
AcDbArc
 50
182.0
 51
269.3707486218
  0
ARC
  5
7F
330
1F
100
AcDbEntity
  8
0
  6
Continuous
 62
     7
370
    25
100
AcDbCircle
 10
571.5022337675
 20
-1413.9677060932
 30
0.0
 40
0.4999999999998863
100
AcDbArc
 50
270.0
 51
0.0
  0
ARC
  5
80
330
1F
100
AcDbEntity
  8
0
  6
Continuous
 62
     7
370
    25
100
AcDbCircle
 10
571.5022337675
 20
-1404.9677060932
 30
0.0
 40
0.5000000000002274
100
AcDbArc
 50
0.0
 51
90.0
  0
LINE
  5
81
330
1F
100
AcDbEntity
  8
0
  6
Continuous
 62
     7
370
    25
100
AcDbLine
 10
571.0022303241
 20
-1401.467696343
 30
0.0
 11
569.0022411721
 21
-1401.467696343
 31
0.0
  0
LINE
  5
82
330
1F
100
AcDbEntity
  8
0
  6
Continuous
 62
     7
370
    25
100
AcDbLine
 10
569.0022411721
 20
-1417.4677287679
 30
0.0
 11
571.0022303241
 21
-1417.4677287679
 31
0.0
  0
LINE
  5
83
330
1F
100
AcDbEntity
  8
0
  6
Continuous
 62
     7
370
    25
100
AcDbLine
 10
571.0022303241
 20
-1417.4677287679
 30
0.0
 11
571.5022387879
 21
-1416.9677054029
 31
0.0
  0
LINE
  5
84
330
1F
100
AcDbEntity
  8
0
  6
Continuous
 62
     7
370
    25
100
AcDbLine
 10
571.5022387879
 20
-1401.967719708
 30
0.0
 11
571.0022303241
 21
-1401.467696343
 31
0.0
  0
LINE
  5
85
330
1F
100
AcDbEntity
  8
0
  6
Continuous
 62
     7
370
    25
100
AcDbLine
 10
483.2510503905
 20
2943.532213058
 30
0.0
 11
483.2510503905
 21
2945.5320680995
 31
0.0
  0
LINE
  5
86
330
1F
100
AcDbEntity
  8
0
  6
Continuous
 62
     7
370
    25
100
AcDbLine
 10
470.7510623115
 20
2945.5320680995
 30
0.0
 11
470.7510623115
 21
2943.532213058
 31
0.0
  0
LINE
  5
87
330
1F
100
AcDbEntity
  8
0
  6
Continuous
 62
     7
370
    25
100
AcDbLine
 10
553.2522353309
 20
2945.5320680995
 30
0.0
 11
553.2522353309
 21
2943.532213058
 31
0.0
  0
LINE
  5
88
330
1F
100
AcDbEntity
  8
0
  6
Continuous
 62
     7
370
    25
100
AcDbLine
 10
565.7522383111
 20
2943.532213058
 30
0.0
 11
565.7522383111
 21
2945.5320680995
 31
0.0
  0
ARC
  5
89
330
1F
100
AcDbEntity
  8
0
  6
Continuous
 62
     7
370
    25
100
AcDbCircle
 10
478.1814955352
 20
2944.8510949492
 30
0.0
 40
4.33073602971945
100
AcDbArc
 50
20.0
 51
66.8223913264
  0
ARC
  5
8A
330
1F
100
AcDbEntity
  8
0
  6
Continuous
 62
     7
370
    25
100
AcDbCircle
 10
475.8206169146
 20
2944.8510949492
 30
0.0
 40
4.330736029719428
100
AcDbArc
 50
113.1776086736
 51
160.0
  0
LINE
  5
8B
330
1F
100
AcDbEntity
  8
0
  6
Continuous
 62
     7
370
    25
100
AcDbLine
 10
482.2510632651
 20
2945.5320680995
 30
0.0
 11
482.2510632651
 21
2946.3322008509
 31
0.0
  0
LINE
  5
8C
330
1F
100
AcDbEntity
  8
0
  6
Continuous
 62
     7
370
    25
100
AcDbLine
 10
471.7510494368
 20
2946.3322008509
 30
0.0
 11
471.7510494368
 21
2945.5320680995
 31
0.0
  0
ARC
  5
8D
330
1F
100
AcDbEntity
  8
0
  6
Continuous
 62
     7
370
    25
100
AcDbCircle
 10
560.6826730778
 20
2944.8510949492
 30
0.0
 40
4.330736029719428
100
AcDbArc
 50
20.0
 51
66.8223913264
  0
ARC
  5
8E
330
1F
100
AcDbEntity
  8
0
  6
Continuous
 62
     7
370
    25
100
AcDbCircle
 10
558.3217944572
 20
2944.8510949492
 30
0.0
 40
4.330736029719428
100
AcDbArc
 50
113.1776086736
 51
160.0
  0
LINE
  5
8F
330
1F
100
AcDbEntity
  8
0
  6
Continuous
 62
     7
370
    25
100
AcDbLine
 10
564.7522362845
 20
2945.5320680995
 30
0.0
 11
564.7522362845
 21
2946.3322008509
 31
0.0
  0
LINE
  5
90
330
1F
100
AcDbEntity
  8
0
  6
Continuous
 62
     7
370
    25
100
AcDbLine
 10
554.2522373574
 20
2946.3322008509
 30
0.0
 11
554.2522373574
 21
2945.5320680995
 31
0.0
  0
LINE
  5
91
330
1F
100
AcDbEntity
  8
0
  6
Continuous
 62
     7
370
    25
100
AcDbLine
 10
1564.0022310393
 20
2941.5323580165
 30
0.0
 11
567.002237119
 21
2941.5323580165
 31
0.0
  0
LINE
  5
92
330
1F
100
AcDbEntity
  8
0
  6
Continuous
 62
     7
370
    25
100
AcDbLine
 10
567.002237119
 20
2825.5321825404
 30
0.0
 11
1564.0022310393
 21
2825.5321825404
 31
0.0
  0
LINE
  5
93
330
1F
100
AcDbEntity
  8
0
  6
Continuous
 62
     7
370
    25
100
AcDbLine
 10
567.002237119
 20
2941.5323580165
 30
0.0
 11
567.002237119
 21
2825.5321825404
 31
0.0
  0
LINE
  5
94
330
1F
100
AcDbEntity
  8
0
  6
Continuous
 62
     7
370
    25
100
AcDbLine
 10
567.002237119
 20
2943.532213058
 30
0.0
 11
1564.0022310393
 21
2943.532213058
 31
0.0
  0
LINE
  5
95
330
1F
100
AcDbEntity
  8
0
  6
Continuous
 62
     7
370
    25
100
AcDbLine
 10
567.002237119
 20
2941.5323580165
 30
0.0
 11
567.002237119
 21
2943.532213058
 31
0.0
  0
LINE
  5
96
330
1F
100
AcDbEntity
  8
0
  6
Continuous
 62
     7
370
    25
100
AcDbLine
 10
1564.0022310393
 20
2823.5323274989
 30
0.0
 11
567.002237119
 21
2823.5323274989
 31
0.0
  0
LINE
  5
97
330
1F
100
AcDbEntity
  8
0
  6
Continuous
 62
     7
370
    25
100
AcDbLine
 10
567.002237119
 20
2823.5323274989
 30
0.0
 11
567.002237119
 21
2825.5321825404
 31
0.0
  0
CIRCLE
  5
98
330
1F
100
AcDbEntity
  8
0
  6
Continuous
 62
     7
370
    25
100
AcDbCircle
 10
987.0022337675
 20
2883.5322939068
 30
0.0
 40
4.500000000000057
  0
CIRCLE
  5
99
330
1F
100
AcDbEntity
  8
0
  6
Continuous
 62
     7
370
    25
100
AcDbCircle
 10
987.0022337675
 20
2883.5322939068
 30
0.0
 40
3.799999999999977
  0
CIRCLE
  5
9A
330
1F
100
AcDbEntity
  8
0
  6
Continuous
 62
     7
370
    25
100
AcDbCircle
 10
987.0022337675
 20
2883.5322939068
 30
0.0
 40
1.807812999999641
  0
LINE
  5
9B
330
1F
100
AcDbEntity
  8
0
  6
Continuous
 62
     7
370
    25
100
AcDbLine
 10
986.120507397
 20
2882.3897684474
 30
0.0
 11
987.5510188716
 21
2882.1971262354
 31
0.0
  0
LINE
  5
9C
330
1F
100
AcDbEntity
  8
0
  6
Continuous
 62
     7
370
    25
100
AcDbLine
 10
988.4327503817
 20
2883.3401049037
 30
0.0
 11
987.8839704173
 21
2884.6752489466
 31
0.0
  0
LINE
  5
9D
330
1F
100
AcDbEntity
  8
0
  6
Continuous
 62
     7
370
    25
100
AcDbLine
 10
987.8839704173
 20
2884.6752489466
 30
0.0
 11
986.4534440415
 21
2884.8674143214
 31
0.0
  0
LINE
  5
9E
330
1F
100
AcDbEntity
  8
0
  6
Continuous
 62
     7
370
    25
100
AcDbLine
 10
985.5717125314
 20
2883.7244356532
 30
0.0
 11
986.120507397
 21
2882.3897684474
 31
0.0
  0
LINE
  5
9F
330
1F
100
AcDbEntity
  8
0
  6
Continuous
 62
     7
370
    25
100
AcDbLine
 10
987.5510188716
 20
2882.1971262354
 30
0.0
 11
988.4327503817
 21
2883.3401049037
 31
0.0
  0
LINE
  5
A0
330
1F
100
AcDbEntity
  8
0
  6
Continuous
 62
     7
370
    25
100
AcDbLine
 10
986.4534440415
 20
2884.8674143214
 30
0.0
 11
985.5717125314
 21
2883.7244356532
 31
0.0
  0
CIRCLE
  5
A1
330
1F
100
AcDbEntity
  8
0
  6
Continuous
 62
     7
370
    25
100
AcDbCircle
 10
1478.2522337675
 20
2883.5322939068
 30
0.0
 40
5.249999999999854
  0
CIRCLE
  5
A2
330
1F
100
AcDbEntity
  8
0
  6
Continuous
 62
     7
370
    25
100
AcDbCircle
 10
1478.2522337675
 20
2883.5322939068
 30
0.0
 40
2.884942000000128
  0
LINE
  5
A3
330
1F
100
AcDbEntity
  8
0
  6
Continuous
 62
     7
370
    25
100
AcDbLine
 10
1480.3564104217
 20
2882.5805033106
 30
0.0
 11
1480.1285418647
 21
2884.8788584132
 31
0.0
  0
LINE
  5
A4
330
1F
100
AcDbEntity
  8
0
  6
Continuous
 62
     7
370
    25
100
AcDbLine
 10
1480.1285418647
 20
2884.8788584132
 30
0.0
 11
1478.0243786948
 21
2885.830625381
 31
0.0
  0
LINE
  5
A5
330
1F
100
AcDbEntity
  8
0
  6
Continuous
 62
     7
370
    25
100
AcDbLine
 10
1478.0243786948
 20
2885.830625381
 30
0.0
 11
1476.1480840819
 21
2884.4840372462
 31
0.0
  0
LINE
  5
A6
330
1F
100
AcDbEntity
  8
0
  6
Continuous
 62
     7
370
    25
100
AcDbLine
 10
1476.1480840819
 20
2884.4840372462
 30
0.0
 11
1476.3759526389
 21
2882.1856821436
 31
0.0
  0
LINE
  5
A7
330
1F
100
AcDbEntity
  8
0
  6
Continuous
 62
     7
370
    25
100
AcDbLine
 10
1476.3759526389
 20
2882.1856821436
 30
0.0
 11
1478.4801158088
 21
2881.234392013
 31
0.0
  0
LINE
  5
A8
330
1F
100
AcDbEntity
  8
0
  6
Continuous
 62
     7
370
    25
100
AcDbLine
 10
1478.4801158088
 20
2881.234392013
 30
0.0
 11
1480.3564104217
 21
2882.5805033106
 31
0.0
  0
CIRCLE
  5
A9
330
1F
100
AcDbEntity
  8
0
  6
Continuous
 62
     7
370
    25
100
AcDbCircle
 10
1408.2522337675
 20
2883.5322939068
 30
0.0
 40
5.249999999999722
  0
CIRCLE
  5
AA
330
1F
100
AcDbEntity
  8
0
  6
Continuous
 62
     7
370
    25
100
AcDbCircle
 10
1408.2522337675
 20
2883.5322939068
 30
0.0
 40
2.884941999999996
  0
LINE
  5
AB
330
1F
100
AcDbEntity
  8
0
  6
Continuous
 62
     7
370
    25
100
AcDbLine
 10
1410.1285490172
 20
2884.8788584132
 30
0.0
 11
1408.0243858474
 21
2885.830625381
 31
0.0
  0
LINE
  5
AC
330
1F
100
AcDbEntity
  8
0
  6
Continuous
 62
     7
370
    25
100
AcDbLine
 10
1408.0243858474
 20
2885.830625381
 30
0.0
 11
1406.1480316298
 21
2884.4840372462
 31
0.0
  0
LINE
  5
AD
330
1F
100
AcDbEntity
  8
0
  6
Continuous
 62
     7
370
    25
100
AcDbLine
 10
1406.1480316298
 20
2884.4840372462
 30
0.0
 11
1406.3759597915
 21
2882.1856821436
 31
0.0
  0
LINE
  5
AE
330
1F
100
AcDbEntity
  8
0
  6
Continuous
 62
     7
370
    25
100
AcDbLine
 10
1406.3759597915
 20
2882.1856821436
 30
0.0
 11
1408.4801229613
 21
2881.234392013
 31
0.0
  0
LINE
  5
AF
330
1F
100
AcDbEntity
  8
0
  6
Continuous
 62
     7
370
    25
100
AcDbLine
 10
1410.3564175742
 20
2882.5805033106
 30
0.0
 11
1410.1285490172
 21
2884.8788584132
 31
0.0
  0
LINE
  5
B0
330
1F
100
AcDbEntity
  8
0
  6
Continuous
 62
     7
370
    25
100
AcDbLine
 10
1408.4801229613
 20
2881.234392013
 30
0.0
 11
1410.3564175742
 21
2882.5805033106
 31
0.0
  0
CIRCLE
  5
B1
330
1F
100
AcDbEntity
  8
0
  6
Continuous
 62
     7
370
    25
100
AcDbCircle
 10
1323.2522337675
 20
2883.5322939068
 30
0.0
 40
5.249999999999854
  0
CIRCLE
  5
B2
330
1F
100
AcDbEntity
  8
0
  6
Continuous
 62
     7
370
    25
100
AcDbCircle
 10
1323.2522337675
 20
2883.5322939068
 30
0.0
 40
2.884942000000128
  0
LINE
  5
B3
330
1F
100
AcDbEntity
  8
0
  6
Continuous
 62
     7
370
    25
100
AcDbLine
 10
1325.1285108703
 20
2884.8788584132
 30
0.0
 11
1323.0243477004
 21
2885.830625381
 31
0.0
  0
LINE
  5
B4
330
1F
100
AcDbEntity
  8
0
  6
Continuous
 62
     7
370
    25
100
AcDbLine
 10
1323.0243477004
 20
2885.830625381
 30
0.0
 11
1321.1480530875
 21
2884.4840372462
 31
0.0
  0
LINE
  5
B5
330
1F
100
AcDbEntity
  8
0
  6
Continuous
 62
     7
370
    25
100
AcDbLine
 10
1321.1480530875
 20
2884.4840372462
 30
0.0
 11
1321.3759216445
 21
2882.1856821436
 31
0.0
  0
LINE
  5
B6
330
1F
100
AcDbEntity
  8
0
  6
Continuous
 62
     7
370
    25
100
AcDbLine
 10
1321.3759216445
 20
2882.1856821436
 30
0.0
 11
1323.4800848144
 21
2881.234392013
 31
0.0
  0
LINE
  5
B7
330
1F
100
AcDbEntity
  8
0
  6
Continuous
 62
     7
370
    25
100
AcDbLine
 10
1323.4800848144
 20
2881.234392013
 30
0.0
 11
1325.3564390319
 21
2882.5805033106
 31
0.0
  0
LINE
  5
B8
330
1F
100
AcDbEntity
  8
0
  6
Continuous
 62
     7
370
    25
100
AcDbLine
 10
1325.3564390319
 20
2882.5805033106
 30
0.0
 11
1325.1285108703
 21
2884.8788584132
 31
0.0
  0
CIRCLE
  5
B9
330
1F
100
AcDbEntity
  8
0
  6
Continuous
 62
     7
370
    25
100
AcDbCircle
 10
1253.2522337675
 20
2883.5322939068
 30
0.0
 40
5.249999999999722
  0
CIRCLE
  5
BA
330
1F
100
AcDbEntity
  8
0
  6
Continuous
 62
     7
370
    25
100
AcDbCircle
 10
1253.2522337675
 20
2883.5322939068
 30
0.0
 40
2.884941999999863
  0
LINE
  5
BB
330
1F
100
AcDbEntity
  8
0
  6
Continuous
 62
     7
370
    25
100
AcDbLine
 10
1255.3564163821
 20
2882.5805033106
 30
0.0
 11
1255.1285478251
 21
2884.8788584132
 31
0.0
  0
LINE
  5
BC
330
1F
100
AcDbEntity
  8
0
  6
Continuous
 62
     7
370
    25
100
AcDbLine
 10
1255.1285478251
 20
2884.8788584132
 30
0.0
 11
1253.024354853
 21
2885.830625381
 31
0.0
  0
LINE
  5
BD
330
1F
100
AcDbEntity
  8
0
  6
Continuous
 62
     7
370
    25
100
AcDbLine
 10
1253.024354853
 20
2885.830625381
 30
0.0
 11
1251.1480602401
 21
2884.4840372462
 31
0.0
  0
LINE
  5
BE
330
1F
100
AcDbEntity
  8
0
  6
Continuous
 62
     7
370
    25
100
AcDbLine
 10
1251.1480602401
 20
2884.4840372462
 30
0.0
 11
1251.375928797
 21
2882.1856821436
 31
0.0
  0
LINE
  5
BF
330
1F
100
AcDbEntity
  8
0
  6
Continuous
 62
     7
370
    25
100
AcDbLine
 10
1251.375928797
 20
2882.1856821436
 30
0.0
 11
1253.4801217692
 21
2881.234392013
 31
0.0
  0
LINE
  5
C0
330
1F
100
AcDbEntity
  8
0
  6
Continuous
 62
     7
370
    25
100
AcDbLine
 10
1253.4801217692
 20
2881.234392013
 30
0.0
 11
1255.3564163821
 21
2882.5805033106
 31
0.0
  0
LINE
  5
C1
330
1F
100
AcDbEntity
  8
0
  6
Continuous
 62
     7
370
    25
100
AcDbLine
 10
1513.2413658278
 20
2823.5323274989
 30
0.0
 11
1513.2522138732
 21
2823.2209528346
 31
0.0
  0
SPLINE
  5
C2
330
1F
100
AcDbEntity
  8
0
  6
Continuous
 62
     7
370
    25
100
AcDbSpline
210
0.0
220
0.0
230
1.0
 70
    24
 71
     3
 72
    12
 73
     8
 74
     0
 42
0.000000001
 43
0.00000001
 40
0.0
 40
0.0
 40
0.0
 40
0.0
 40
0.2321086699863971
 40
0.4645557683761296
 40
0.6877785371078644
 40
0.8979150697939035
 40
1.0
 40
1.0
 40
1.0
 40
1.0
 10
1513.252213873189
 20
2823.220952834567
 30
0.0
 10
1513.24040097581
 20
2823.220952834568
 30
0.0
 10
1513.216757957137
 20
2823.220952834568
 30
0.0
 10
1513.02924310901
 20
2823.220952834567
 30
0.0
 10
1512.757027651345
 20
2823.220952834568
 30
0.0
 10
1512.483322111329
 20
2823.220952834568
 30
0.0
 10
1512.317343644599
 20
2823.220952834567
 30
0.0
 10
1512.263074793141
 20
2823.220952834567
 30
0.0
  0
LINE
  5
C3
330
1F
100
AcDbEntity
  8
0
  6
Continuous
 62
     7
370
    25
100
AcDbLine
 10
1373.2522281783
 20
2823.2209528346
 30
0.0
 11
1373.2630762237
 21
2823.5323274989
 31
0.0
  0
SPLINE
  5
C4
330
1F
100
AcDbEntity
  8
0
  6
Continuous
 62
     7
370
    25
100
AcDbSpline
210
0.0
220
0.0
230
1.0
 70
    24
 71
     3
 72
    12
 73
     8
 74
     0
 42
0.000000001
 43
0.00000001
 40
0.0
 40
0.0
 40
0.0
 40
0.0
 40
0.2005051715637882
 40
0.4008634880912536
 40
0.6045991115148467
 40
0.818294514162321
 40
0.9999999999999999
 40
0.9999999999999999
 40
0.9999999999999999
 40
0.9999999999999999
 10
1374.241426862996
 20
2823.220952834567
 30
0.0
 10
1374.134342687589
 20
2823.220952834567
 30
0.0
 10
1373.920252767921
 20
2823.220952834567
 30
0.0
 10
1373.633905468974
 20
2823.220952834568
 30
0.0
 10
1373.41124985291
 20
2823.220952834566
 30
0.0
 10
1373.275344842163
 20
2823.220952834567
 30
0.0
 10
1373.259506601874
 20
2823.220952834567
 30
0.0
 10
1373.252228178303
 20
2823.220952834567
 30
0.0
  0
LINE
  5
C5
330
1F
100
AcDbEntity
  8
0
  6
Continuous
 62
     7
370
    25
100
AcDbLine
 10
1512.2630747931
 20
2823.2209528346
 30
0.0
 11
1374.241426863
 21
2823.2209528346
 31
0.0
  0
LINE
  5
C6
330
1F
100
AcDbEntity
  8
0
  6
Continuous
 62
     7
370
    25
100
AcDbLine
 10
1358.2413944381
 20
2823.5323274989
 30
0.0
 11
1358.2522424834
 21
2823.2209528346
 31
0.0
  0
SPLINE
  5
C7
330
1F
100
AcDbEntity
  8
0
  6
Continuous
 62
     7
370
    25
100
AcDbSpline
210
0.0
220
0.0
230
1.0
 70
    24
 71
     3
 72
    12
 73
     8
 74
     0
 42
0.000000001
 43
0.00000001
 40
0.0
 40
0.0
 40
0.0
 40
0.0
 40
0.2321105501257699
 40
0.4645351290005424
 40
0.6877822024608855
 40
0.8978797103561619
 40
1.0
 40
1.0
 40
1.0
 40
1.0
 10
1358.252242483418
 20
2823.220952834567
 30
0.0
 10
1358.240399294421
 20
2823.220952834567
 30
0.0
 10
1358.216696893452
 20
2823.220952834568
 30
0.0
 10
1358.029286259932
 20
2823.220952834568
 30
0.0
 10
1357.75700871129
 20
2823.220952834568
 30
0.0
 10
1357.483315763296
 20
2823.220952834566
 30
0.0
 10
1357.317333369292
 20
2823.220952834568
 30
0.0
 10
1357.263043798726
 20
2823.220952834567
 30
0.0
  0
LINE
  5
C8
330
1F
100
AcDbEntity
  8
0
  6
Continuous
 62
     7
370
    25
100
AcDbLine
 10
1218.2522269862
 20
2823.2209528346
 30
0.0
 11
1218.2631048339
 21
2823.5323274989
 31
0.0
  0
SPLINE
  5
C9
330
1F
100
AcDbEntity
  8
0
  6
Continuous
 62
     7
370
    25
100
AcDbSpline
210
0.0
220
0.0
230
1.0
 70
    24
 71
     3
 72
    12
 73
     8
 74
     0
 42
0.000000001
 43
0.00000001
 40
0.0
 40
0.0
 40
0.0
 40
0.0
 40
0.2004734844682003
 40
0.4008532862599713
 40
0.6045941388807679
 40
0.8182874360078377
 40
1.0
 40
1.0
 40
1.0
 40
1.0
 10
1219.24139586858
 20
2823.220952834567
 30
0.0
 10
1219.134332917455
 20
2823.220952834567
 30
0.0
 10
1218.920257046479
 20
2823.220952834569
 30
0.0
 10
1218.633911166979
 20
2823.220952834566
 30
0.0
 10
1218.411240348795
 20
2823.220952834567
 30
0.0
 10
1218.275388766667
 20
2823.220952834568
 30
0.0
 10
1218.259519746812
 20
2823.220952834568
 30
0.0
 10
1218.25222698621
 20
2823.220952834567
 30
0.0
  0
LINE
  5
CA
330
1F
100
AcDbEntity
  8
0
  6
Continuous
 62
     7
370
    25
100
AcDbLine
 10
1357.2630437987
 20
2823.2209528346
 30
0.0
 11
1219.2413958686
 21
2823.2209528346
 31
0.0
  0
LWPOLYLINE
  5
CB
330
1F
100
AcDbEntity
  8
0
  6
Continuous
 62
     7
370
    25
100
AcDbPolyline
 90
        9
 70
   128
 43
0.0
 10
1358.2417520659
 20
2823.2209528346
 10
1358.1688555854
 20
2821.133359756
 10
1358.0989393371
 20
2819.1315973658
 10
1358.03468553
 20
2817.2919596095
 10
1357.9785379546
 20
2815.684064712
 10
1357.9326423781
 20
2814.3689478297
 10
1357.8987273353
 20
2813.3976305384
 10
1357.8780445235
 20
2812.8063524623
 10
1357.8714880126
 20
2812.6175249476
  0
LWPOLYLINE
  5
CC
330
1F
100
AcDbEntity
  8
0
  6
Continuous
 62
     7
370
    25
100
AcDbPolyline
 90
       10
 70
   128
 43
0.0
 10
1356.8720969336
 20
2811.6524065394
 10
1356.8772229331
 20
2811.8135774989
 10
1356.8934950011
 20
2812.3228395838
 10
1356.9204363006
 20
2813.1654108424
 10
1356.9572123664
 20
2814.3164957423
 10
1357.0026907103
 20
2815.7403314967
 10
1357.0555600303
 20
2817.3954332728
 10
1357.1142706054
 20
2819.2307794947
 10
1357.176915087
 20
2821.1924875636
 10
1357.2417649405
 20
2823.2209528346
  0
SPLINE
  5
CD
330
1F
100
AcDbEntity
  8
0
  6
Continuous
 62
     7
370
    25
100
AcDbSpline
210
0.0
220
0.0
230
1.0
 70
    24
 71
     3
 72
    12
 73
     8
 74
     0
 42
0.000000001
 43
0.00000001
 40
0.0
 40
0.0
 40
0.0
 40
0.0
 40
0.214840848155954
 40
0.42966726378702
 40
0.6444157058242399
 40
0.8590490640156927
 40
1.0
 40
1.0
 40
1.0
 40
1.0
 10
1357.241764940541
 20
2823.220952834568
 30
0.0
 10
1357.354243495193
 20
2823.220952834568
 30
0.0
 10
1357.579193048442
 20
2823.220952834567
 30
0.0
 10
1357.878946734342
 20
2823.220952834567
 30
0.0
 10
1358.10506801725
 20
2823.220952834567
 30
0.0
 10
1358.22470591346
 20
2823.220952834568
 30
0.0
 10
1358.236913192479
 20
2823.220952834567
 30
0.0
 10
1358.241752065938
 20
2823.220952834567
 30
0.0
  0
LWPOLYLINE
  5
CE
330
1F
100
AcDbEntity
  8
0
  6
Continuous
 62
     7
370
    25
100
AcDbPolyline
 90
       10
 70
   128
 43
0.0
 10
1219.2522439139
 20
2823.2209528346
 10
1219.3170639651
 20
2821.1924875636
 10
1219.3797382491
 20
2819.2307794947
 10
1219.4384190219
 20
2817.3954332728
 10
1219.4912883418
 20
2815.7403314967
 10
1219.5367964881
 20
2814.3164957423
 10
1219.5735427516
 20
2813.1654108424
 10
1219.600484051
 20
2812.3228395838
 10
1219.6167561191
 20
2811.8135774989
 10
1219.6219119208
 20
2811.6524065394
  0
LWPOLYLINE
  5
CF
330
1F
100
AcDbEntity
  8
0
  6
Continuous
 62
     7
370
    25
100
AcDbPolyline
 90
        9
 70
   128
 43
0.0
 10
1218.6225208419
 20
2812.6175249476
 10
1218.6159345286
 20
2812.8063524623
 10
1218.5952815192
 20
2813.3976305384
 10
1218.561336674
 20
2814.3689478297
 10
1218.5154410975
 20
2815.684064712
 10
1218.4592935222
 20
2817.2919596095
 10
1218.3950397151
 20
2819.1315973658
 10
1218.3251234668
 20
2821.133359756
 10
1218.2522269862
 20
2823.2209528346
  0
SPLINE
  5
D0
330
1F
100
AcDbEntity
  8
0
  6
Continuous
 62
     7
370
    25
100
AcDbSpline
210
0.0
220
0.0
230
1.0
 70
    24
 71
     3
 72
    12
 73
     8
 74
     0
 42
0.000000001
 43
0.00000001
 40
0.0
 40
0.0
 40
0.0
 40
0.0
 40
0.2145979575274906
 40
0.4291969662352285
 40
0.6437800384194223
 40
0.8584365240691707
 40
0.9999999999999999
 40
0.9999999999999999
 40
0.9999999999999999
 40
0.9999999999999999
 10
1218.25222698621
 20
2823.220952834567
 30
0.0
 10
1218.263269972359
 20
2823.220952834567
 30
0.0
 10
1218.285355998747
 20
2823.220952834567
 30
0.0
 10
1218.457666180524
 20
2823.220952834567
 30
0.0
 10
1218.711258284177
 20
2823.220952834567
 30
0.0
 10
1218.992448084927
 20
2823.220952834567
 30
0.0
 10
1219.178361181371
 20
2823.220952834568
 30
0.0
 10
1219.25224391393
 20
2823.220952834567
 30
0.0
  0
LINE
  5
D1
330
1F
100
AcDbEntity
  8
0
  6
Continuous
 62
     7
370
    25
100
AcDbLine
 10
1335.2850231307
 20
2811.6524065394
 30
0.0
 11
1341.2090095656
 21
2811.6524065394
 31
0.0
  0
LINE
  5
D2
330
1F
100
AcDbEntity
  8
0
  6
Continuous
 62
     7
370
    25
100
AcDbLine
 10
1335.2850231307
 20
2811.6524065394
 30
0.0
 11
1331.2089594977
 21
2811.6524065394
 31
0.0
  0
LINE
  5
D3
330
1F
100
AcDbEntity
  8
0
  6
Continuous
 62
     7
370
    25
100
AcDbLine
 10
1325.2850326674
 20
2811.6524065394
 30
0.0
 11
1331.2089594977
 21
2811.6524065394
 31
0.0
  0
LINE
  5
D4
330
1F
100
AcDbEntity
  8
0
  6
Continuous
 62
     7
370
    25
100
AcDbLine
 10
1325.2850326674
 20
2811.6524065394
 30
0.0
 11
1321.2089690345
 21
2811.6524065394
 31
0.0
  0
LINE
  5
D5
330
1F
100
AcDbEntity
  8
0
  6
Continuous
 62
     7
370
    25
100
AcDbLine
 10
1315.2849825995
 20
2811.6524065394
 30
0.0
 11
1321.2089690345
 21
2811.6524065394
 31
0.0
  0
LINE
  5
D6
330
1F
100
AcDbEntity
  8
0
  6
Continuous
 62
     7
370
    25
100
AcDbLine
 10
1315.2849825995
 20
2811.6524065394
 30
0.0
 11
1311.2089785712
 21
2811.6524065394
 31
0.0
  0
LINE
  5
D7
330
1F
100
AcDbEntity
  8
0
  6
Continuous
 62
     7
370
    25
100
AcDbLine
 10
1305.2849921363
 20
2811.6524065394
 30
0.0
 11
1311.2089785712
 21
2811.6524065394
 31
0.0
  0
LINE
  5
D8
330
1F
100
AcDbEntity
  8
0
  6
Continuous
 62
     7
370
    25
100
AcDbLine
 10
1305.2849921363
 20
2811.6524065394
 30
0.0
 11
1301.208988108
 21
2811.6524065394
 31
0.0
  0
LINE
  5
D9
330
1F
100
AcDbEntity
  8
0
  6
Continuous
 62
     7
370
    25
100
AcDbLine
 10
1301.208988108
 20
2811.6524065394
 30
0.0
 11
1295.285001673
 21
2811.6524065394
 31
0.0
  0
LINE
  5
DA
330
1F
100
AcDbEntity
  8
0
  6
Continuous
 62
     7
370
    25
100
AcDbLine
 10
1295.285001673
 20
2811.6524065394
 30
0.0
 11
1291.2089976447
 21
2811.6524065394
 31
0.0
  0
LINE
  5
DB
330
1F
100
AcDbEntity
  8
0
  6
Continuous
 62
     7
370
    25
100
AcDbLine
 10
1291.2089976447
 20
2811.6524065394
 30
0.0
 11
1285.2850112098
 21
2811.6524065394
 31
0.0
  0
LINE
  5
DC
330
1F
100
AcDbEntity
  8
0
  6
Continuous
 62
     7
370
    25
100
AcDbLine
 10
1285.2850112098
 20
2811.6524065394
 30
0.0
 11
1281.2090071814
 21
2811.6524065394
 31
0.0
  0
LINE
  5
DD
330
1F
100
AcDbEntity
  8
0
  6
Continuous
 62
     7
370
    25
100
AcDbLine
 10
1281.2090071814
 20
2811.6524065394
 30
0.0
 11
1275.2850207465
 21
2811.6524065394
 31
0.0
  0
LINE
  5
DE
330
1F
100
AcDbEntity
  8
0
  6
Continuous
 62
     7
370
    25
100
AcDbLine
 10
1275.2850207465
 20
2811.6524065394
 30
0.0
 11
1271.2089571135
 21
2811.6524065394
 31
0.0
  0
LINE
  5
DF
330
1F
100
AcDbEntity
  8
0
  6
Continuous
 62
     7
370
    25
100
AcDbLine
 10
1271.2089571135
 20
2811.6524065394
 30
0.0
 11
1265.2850302833
 21
2811.6524065394
 31
0.0
  0
LINE
  5
E0
330
1F
100
AcDbEntity
  8
0
  6
Continuous
 62
     7
370
    25
100
AcDbLine
 10
1265.2850302833
 20
2811.6524065394
 30
0.0
 11
1261.2089666503
 21
2811.6524065394
 31
0.0
  0
LINE
  5
E1
330
1F
100
AcDbEntity
  8
0
  6
Continuous
 62
     7
370
    25
100
AcDbLine
 10
1261.2089666503
 20
2811.6524065394
 30
0.0
 11
1255.2850100177
 21
2811.6524065394
 31
0.0
  0
LINE
  5
E2
330
1F
100
AcDbEntity
  8
0
  6
Continuous
 62
     7
370
    25
100
AcDbLine
 10
1255.2850100177
 20
2811.6524065394
 30
0.0
 11
1251.208976187
 21
2811.6524065394
 31
0.0
  0
LINE
  5
E3
330
1F
100
AcDbEntity
  8
0
  6
Continuous
 62
     7
370
    25
100
AcDbLine
 10
1251.208976187
 20
2811.6524065394
 30
0.0
 11
1245.2850195544
 21
2811.6524065394
 31
0.0
  0
LINE
  5
E4
330
1F
100
AcDbEntity
  8
0
  6
Continuous
 62
     7
370
    25
100
AcDbLine
 10
1245.2850195544
 20
2811.6524065394
 30
0.0
 11
1241.2089857238
 21
2811.6524065394
 31
0.0
  0
LINE
  5
E5
330
1F
100
AcDbEntity
  8
0
  6
Continuous
 62
     7
370
    25
100
AcDbLine
 10
1241.2089857238
 20
2811.6524065394
 30
0.0
 11
1235.2849992888
 21
2811.6524065394
 31
0.0
  0
LINE
  5
E6
330
1F
100
AcDbEntity
  8
0
  6
Continuous
 62
     7
370
    25
100
AcDbLine
 10
1235.2849992888
 20
2811.6524065394
 30
0.0
 11
1219.6219119208
 21
2811.6524065394
 31
0.0
  0
LINE
  5
E7
330
1F
100
AcDbEntity
  8
0
  6
Continuous
 62
     7
370
    25
100
AcDbLine
 10
1356.8720969336
 20
2811.6524065394
 30
0.0
 11
1341.2090095656
 21
2811.6524065394
 31
0.0
  0
LINE
  5
E8
330
1F
100
AcDbEntity
  8
0
  6
Continuous
 62
     7
370
    25
100
AcDbLine
 10
1219.8436710017
 20
2805.3505266566
 30
0.0
 11
1356.6503080504
 21
2805.3505266566
 31
0.0
  0
ARC
  5
E9
330
1F
100
AcDbEntity
  8
0
  6
Continuous
 62
     7
370
    25
100
AcDbCircle
 10
1356.6767705062
 20
2806.3248115929
 30
0.0
 40
0.9746442421316114
100
AcDbArc
 50
268.4441775673
 51
356.599923282
  0
LWPOLYLINE
  5
EA
330
1F
100
AcDbEntity
  8
0
  6
Continuous
 62
     7
370
    25
100
AcDbPolyline
 90
        7
 70
   128
 43
0.0
 10
1357.8714880126
 20
2812.6175249476
 10
1357.8668388503
 20
2812.4854410548
 10
1357.8491958754
 20
2811.9795168299
 10
1357.818559088
 20
2811.1021364588
 10
1357.7749880927
 20
2809.854730453
 10
1357.7186617034
 20
2808.2415903468
 10
1357.6496991294
 20
2806.2670076747
  0
ARC
  5
EB
330
1F
100
AcDbEntity
  8
0
  6
Continuous
 62
     7
370
    25
100
AcDbCircle
 10
1219.8172374926
 20
2806.3248431583
 30
0.0
 40
0.97467501037973
100
AcDbArc
 50
183.4018280864
 51
271.5540710642
  0
LWPOLYLINE
  5
EC
330
1F
100
AcDbEntity
  8
0
  6
Continuous
 62
     7
370
    25
100
AcDbPolyline
 90
        7
 70
   128
 43
0.0
 10
1218.8442799228
 20
2806.2670076747
 10
1218.7753173488
 20
2808.2415903468
 10
1218.7189909594
 20
2809.854730453
 10
1218.6754497664
 20
2811.1021364588
 10
1218.6447831767
 20
2811.9795168299
 10
1218.6271402018
 20
2812.4854410548
 10
1218.6225208419
 20
2812.6175249476
  0
LWPOLYLINE
  5
ED
330
1F
100
AcDbEntity
  8
0
  6
Continuous
 62
     7
370
    25
100
AcDbPolyline
 90
        3
 70
   128
 43
0.0
 10
1357.6496991294
 20
2806.2670076747
 10
1357.6488646644
 20
2806.2426889796
 10
1357.6486858504
 20
2806.2383974452
  0
LWPOLYLINE
  5
EE
330
1F
100
AcDbEntity
  8
0
  6
Continuous
 62
     7
370
    25
100
AcDbPolyline
 90
        3
 70
   128
 43
0.0
 10
1218.8452932017
 20
2806.2383974452
 10
1218.8451143878
 20
2806.2426889796
 10
1218.8442799228
 20
2806.2670076747
  0
LWPOLYLINE
  5
EF
330
1F
100
AcDbEntity
  8
0
  6
Continuous
 62
     7
370
    25
100
AcDbPolyline
 90
        9
 70
   128
 43
0.0
 10
1513.2417830604
 20
2823.2209528346
 10
1513.1688865798
 20
2821.133359756
 10
1513.0989703315
 20
2819.1315973658
 10
1513.0347165244
 20
2817.2919596095
 10
1512.978568949
 20
2815.684064712
 10
1512.9326137679
 20
2814.3689478297
 10
1512.898698725
 20
2813.3976305384
 10
1512.8780755179
 20
2812.8063524623
 10
1512.8714594024
 20
2812.6175249476
  0
LWPOLYLINE
  5
F0
330
1F
100
AcDbEntity
  8
0
  6
Continuous
 62
     7
370
    25
100
AcDbPolyline
 90
       10
 70
   128
 43
0.0
 10
1511.8720683234
 20
2811.6524065394
 10
1511.8772539275
 20
2811.8135774989
 10
1511.8935259955
 20
2812.3228395838
 10
1511.9204076903
 20
2813.1654108424
 10
1511.9571837562
 20
2814.3164957423
 10
1512.0027217048
 20
2815.7403314967
 10
1512.0555910247
 20
2817.3954332728
 10
1512.1142419951
 20
2819.2307794947
 10
1512.1769460814
 20
2821.1924875636
 10
1512.2417363303
 20
2823.2209528346
  0
SPLINE
  5
F1
330
1F
100
AcDbEntity
  8
0
  6
Continuous
 62
     7
370
    25
100
AcDbSpline
210
0.0
220
0.0
230
1.0
 70
    24
 71
     3
 72
    12
 73
     8
 74
     0
 42
0.000000001
 43
0.00000001
 40
0.0
 40
0.0
 40
0.0
 40
0.0
 40
0.2148336853214257
 40
0.42968627878836
 40
0.644427561071889
 40
0.8590537633465682
 40
1.0
 40
1.0
 40
1.0
 40
1.0
 10
1512.241736330311
 20
2823.220952834567
 30
0.0
 10
1512.354213068995
 20
2823.220952834568
 30
0.0
 10
1512.57917644577
 20
2823.220952834568
 30
0.0
 10
1512.878969958587
 20
2823.220952834565
 30
0.0
 10
1513.10509794908
 20
2823.220952834567
 30
0.0
 10
1513.224737070239
 20
2823.220952834568
 30
0.0
 10
1513.236944232984
 20
2823.220952834567
 30
0.0
 10
1513.241783060353
 20
2823.220952834567
 30
0.0
  0
LWPOLYLINE
  5
F2
330
1F
100
AcDbEntity
  8
0
  6
Continuous
 62
     7
370
    25
100
AcDbPolyline
 90
       10
 70
   128
 43
0.0
 10
1374.2522749083
 20
2823.2209528346
 10
1374.3170651572
 20
2821.1924875636
 10
1374.3797692435
 20
2819.2307794947
 10
1374.438420214
 20
2817.3954332728
 10
1374.4912895339
 20
2815.7403314967
 10
1374.5367678779
 20
2814.3164957423
 10
1374.5735439437
 20
2813.1654108424
 10
1374.6004852431
 20
2812.3228395838
 10
1374.6167573111
 20
2811.8135774989
 10
1374.6218833106
 20
2811.6524065394
  0
LWPOLYLINE
  5
F3
330
1F
100
AcDbEntity
  8
0
  6
Continuous
 62
     7
370
    25
100
AcDbPolyline
 90
        9
 70
   128
 43
0.0
 10
1373.6224922316
 20
2812.6175249476
 10
1373.6159357207
 20
2812.8063524623
 10
1373.595252909
 20
2813.3976305384
 10
1373.5613378661
 20
2814.3689478297
 10
1373.5154422896
 20
2815.684064712
 10
1373.4592947143
 20
2817.2919596095
 10
1373.3950409072
 20
2819.1315973658
 10
1373.3251246589
 20
2821.133359756
 10
1373.2522281783
 20
2823.2209528346
  0
SPLINE
  5
F4
330
1F
100
AcDbEntity
  8
0
  6
Continuous
 62
     7
370
    25
100
AcDbSpline
210
0.0
220
0.0
230
1.0
 70
    24
 71
     3
 72
    12
 73
     8
 74
     0
 42
0.000000001
 43
0.00000001
 40
0.0
 40
0.0
 40
0.0
 40
0.0
 40
0.2145949026629905
 40
0.4291908564912644
 40
0.6437851093144458
 40
0.8584385392665292
 40
1.0
 40
1.0
 40
1.0
 40
1.0
 10
1373.252228178303
 20
2823.220952834567
 30
0.0
 10
1373.263271520384
 20
2823.220952834568
 30
0.0
 10
1373.28535825864
 20
2823.220952834567
 30
0.0
 10
1373.457666911593
 20
2823.220952834567
 30
0.0
 10
1373.711287607788
 20
2823.220952834568
 30
0.0
 10
1373.992478258752
 20
2823.220952834567
 30
0.0
 10
1374.17839194242
 20
2823.220952834569
 30
0.0
 10
1374.252274908345
 20
2823.220952834568
 30
0.0
  0
LINE
  5
F5
330
1F
100
AcDbEntity
  8
0
  6
Continuous
 62
     7
370
    25
100
AcDbLine
 10
1490.2849945205
 20
2811.6524065394
 30
0.0
 11
1496.2089809554
 21
2811.6524065394
 31
0.0
  0
LINE
  5
F6
330
1F
100
AcDbEntity
  8
0
  6
Continuous
 62
     7
370
    25
100
AcDbLine
 10
1490.2849945205
 20
2811.6524065394
 30
0.0
 11
1486.2089904921
 21
2811.6524065394
 31
0.0
  0
LINE
  5
F7
330
1F
100
AcDbEntity
  8
0
  6
Continuous
 62
     7
370
    25
100
AcDbLine
 10
1480.2850040572
 20
2811.6524065394
 30
0.0
 11
1486.2089904921
 21
2811.6524065394
 31
0.0
  0
LINE
  5
F8
330
1F
100
AcDbEntity
  8
0
  6
Continuous
 62
     7
370
    25
100
AcDbLine
 10
1480.2850040572
 20
2811.6524065394
 30
0.0
 11
1476.2090000289
 21
2811.6524065394
 31
0.0
  0
LINE
  5
F9
330
1F
100
AcDbEntity
  8
0
  6
Continuous
 62
     7
370
    25
100
AcDbLine
 10
1470.285013594
 20
2811.6524065394
 30
0.0
 11
1476.2090000289
 21
2811.6524065394
 31
0.0
  0
LINE
  5
FA
330
1F
100
AcDbEntity
  8
0
  6
Continuous
 62
     7
370
    25
100
AcDbLine
 10
1470.285013594
 20
2811.6524065394
 30
0.0
 11
1466.2090095656
 21
2811.6524065394
 31
0.0
  0
LINE
  5
FB
330
1F
100
AcDbEntity
  8
0
  6
Continuous
 62
     7
370
    25
100
AcDbLine
 10
1460.2850231307
 20
2811.6524065394
 30
0.0
 11
1466.2090095656
 21
2811.6524065394
 31
0.0
  0
LINE
  5
FC
330
1F
100
AcDbEntity
  8
0
  6
Continuous
 62
     7
370
    25
100
AcDbLine
 10
1460.2850231307
 20
2811.6524065394
 30
0.0
 11
1456.2089594977
 21
2811.6524065394
 31
0.0
  0
LINE
  5
FD
330
1F
100
AcDbEntity
  8
0
  6
Continuous
 62
     7
370
    25
100
AcDbLine
 10
1456.2089594977
 20
2811.6524065394
 30
0.0
 11
1450.2850326674
 21
2811.6524065394
 31
0.0
  0
LINE
  5
FE
330
1F
100
AcDbEntity
  8
0
  6
Continuous
 62
     7
370
    25
100
AcDbLine
 10
1450.2850326674
 20
2811.6524065394
 30
0.0
 11
1446.2089690345
 21
2811.6524065394
 31
0.0
  0
LINE
  5
FF
330
1F
100
AcDbEntity
  8
0
  6
Continuous
 62
     7
370
    25
100
AcDbLine
 10
1446.2089690345
 20
2811.6524065394
 30
0.0
 11
1440.2849825995
 21
2811.6524065394
 31
0.0
  0
LINE
  5
100
330
1F
100
AcDbEntity
  8
0
  6
Continuous
 62
     7
370
    25
100
AcDbLine
 10
1440.2849825995
 20
2811.6524065394
 30
0.0
 11
1436.2089785712
 21
2811.6524065394
 31
0.0
  0
LINE
  5
101
330
1F
100
AcDbEntity
  8
0
  6
Continuous
 62
     7
370
    25
100
AcDbLine
 10
1436.2089785712
 20
2811.6524065394
 30
0.0
 11
1430.2849921363
 21
2811.6524065394
 31
0.0
  0
LINE
  5
102
330
1F
100
AcDbEntity
  8
0
  6
Continuous
 62
     7
370
    25
100
AcDbLine
 10
1430.2849921363
 20
2811.6524065394
 30
0.0
 11
1426.208988108
 21
2811.6524065394
 31
0.0
  0
LINE
  5
103
330
1F
100
AcDbEntity
  8
0
  6
Continuous
 62
     7
370
    25
100
AcDbLine
 10
1426.208988108
 20
2811.6524065394
 30
0.0
 11
1420.285001673
 21
2811.6524065394
 31
0.0
  0
LINE
  5
104
330
1F
100
AcDbEntity
  8
0
  6
Continuous
 62
     7
370
    25
100
AcDbLine
 10
1420.285001673
 20
2811.6524065394
 30
0.0
 11
1416.2089976447
 21
2811.6524065394
 31
0.0
  0
LINE
  5
105
330
1F
100
AcDbEntity
  8
0
  6
Continuous
 62
     7
370
    25
100
AcDbLine
 10
1416.2089976447
 20
2811.6524065394
 30
0.0
 11
1410.2850112098
 21
2811.6524065394
 31
0.0
  0
LINE
  5
106
330
1F
100
AcDbEntity
  8
0
  6
Continuous
 62
     7
370
    25
100
AcDbLine
 10
1410.2850112098
 20
2811.6524065394
 30
0.0
 11
1406.2090071814
 21
2811.6524065394
 31
0.0
  0
LINE
  5
107
330
1F
100
AcDbEntity
  8
0
  6
Continuous
 62
     7
370
    25
100
AcDbLine
 10
1406.2090071814
 20
2811.6524065394
 30
0.0
 11
1400.2850207465
 21
2811.6524065394
 31
0.0
  0
LINE
  5
108
330
1F
100
AcDbEntity
  8
0
  6
Continuous
 62
     7
370
    25
100
AcDbLine
 10
1400.2850207465
 20
2811.6524065394
 30
0.0
 11
1396.2089571135
 21
2811.6524065394
 31
0.0
  0
LINE
  5
109
330
1F
100
AcDbEntity
  8
0
  6
Continuous
 62
     7
370
    25
100
AcDbLine
 10
1396.2089571135
 20
2811.6524065394
 30
0.0
 11
1390.2850302833
 21
2811.6524065394
 31
0.0
  0
LINE
  5
10A
330
1F
100
AcDbEntity
  8
0
  6
Continuous
 62
     7
370
    25
100
AcDbLine
 10
1390.2850302833
 20
2811.6524065394
 30
0.0
 11
1374.6218833106
 21
2811.6524065394
 31
0.0
  0
LINE
  5
10B
330
1F
100
AcDbEntity
  8
0
  6
Continuous
 62
     7
370
    25
100
AcDbLine
 10
1511.8720683234
 20
2811.6524065394
 30
0.0
 11
1496.2089809554
 21
2811.6524065394
 31
0.0
  0
LINE
  5
10C
330
1F
100
AcDbEntity
  8
0
  6
Continuous
 62
     7
370
    25
100
AcDbLine
 10
1374.8436721938
 20
2805.3505266566
 30
0.0
 11
1511.6503390448
 21
2805.3505266566
 31
0.0
  0
ARC
  5
10D
330
1F
100
AcDbEntity
  8
0
  6
Continuous
 62
     7
370
    25
100
AcDbCircle
 10
1511.6767436025
 20
2806.3248747288
 30
0.0
 40
0.9747057845958842
100
AcDbArc
 50
268.4476804815
 51
356.5964203679
  0
LWPOLYLINE
  5
10E
330
1F
100
AcDbEntity
  8
0
  6
Continuous
 62
     7
370
    25
100
AcDbPolyline
 90
        7
 70
   128
 43
0.0
 10
1512.8714594024
 20
2812.6175249476
 10
1512.8668698447
 20
2812.4854410548
 10
1512.8492268699
 20
2811.9795168299
 10
1512.8185304778
 20
2811.1021364588
 10
1512.7750190871
 20
2809.854730453
 10
1512.7186926978
 20
2808.2415903468
 10
1512.6497301238
 20
2806.2670076747
  0
ARC
  5
10F
330
1F
100
AcDbEntity
  8
0
  6
Continuous
 62
     7
370
    25
100
AcDbCircle
 10
1374.817209738
 20
2806.3248115929
 30
0.0
 40
0.9746442421316114
100
AcDbArc
 50
183.400076718
 51
271.5558224327
  0
LWPOLYLINE
  5
110
330
1F
100
AcDbEntity
  8
0
  6
Continuous
 62
     7
370
    25
100
AcDbPolyline
 90
        7
 70
   128
 43
0.0
 10
1373.8442811149
 20
2806.2670076747
 10
1373.7753185409
 20
2808.2415903468
 10
1373.7189921515
 20
2809.854730453
 10
1373.6754211562
 20
2811.1021364588
 10
1373.6447843688
 20
2811.9795168299
 10
1373.6271413939
 20
2812.4854410548
 10
1373.6225518363
 20
2812.6175249476
  0
LWPOLYLINE
  5
111
330
1F
100
AcDbEntity
  8
0
  6
Continuous
 62
     7
370
    25
100
AcDbPolyline
 90
        3
 70
   128
 43
0.0
 10
1512.6497301238
 20
2806.2670076747
 10
1512.6488360541
 20
2806.2426889796
 10
1512.6487168448
 20
2806.2383974452
  0
LWPOLYLINE
  5
112
330
1F
100
AcDbEntity
  8
0
  6
Continuous
 62
     7
370
    25
100
AcDbPolyline
 90
        3
 70
   128
 43
0.0
 10
1373.8452943938
 20
2806.2383974452
 10
1373.8451155799
 20
2806.2426889796
 10
1373.8442811149
 20
2806.2670076747
  0
LINE
  5
113
330
1F
100
AcDbEntity
  8
0
  6
Continuous
 62
     7
370
    25
100
AcDbLine
 10
1567.0022520202
 20
2822.5323999781
 30
0.0
 11
1564.0022310393
 21
2822.5323999781
 31
0.0
  0
LINE
  5
114
330
1F
100
AcDbEntity
  8
0
  6
Continuous
 62
     7
370
    25
100
AcDbLine
 10
1564.0022310393
 20
2822.5323999781
 30
0.0
 11
1564.0022310393
 21
2824.5322550196
 31
0.0
  0
LINE
  5
115
330
1F
100
AcDbEntity
  8
0
  6
Continuous
 62
     7
370
    25
100
AcDbLine
 10
1564.0022310393
 20
2824.5322550196
 30
0.0
 11
1567.0022520202
 21
2824.5322550196
 31
0.0
  0
LINE
  5
116
330
1F
100
AcDbEntity
  8
0
  6
Continuous
 62
     7
370
    25
100
AcDbLine
 10
1567.0022520202
 20
2824.5322550196
 30
0.0
 11
1567.0022520202
 21
2822.5323999781
 31
0.0
  0
LINE
  5
117
330
1F
100
AcDbEntity
  8
0
  6
Continuous
 62
     7
370
    25
100
AcDbLine
 10
1564.0022310393
 20
2942.5322855372
 30
0.0
 11
1564.0022310393
 21
2824.5322550196
 31
0.0
  0
LINE
  5
118
330
1F
100
AcDbEntity
  8
0
  6
Continuous
 62
     7
370
    25
100
AcDbLine
 10
1567.0022520202
 20
2942.5322855372
 30
0.0
 11
1564.0022310393
 21
2942.5322855372
 31
0.0
  0
LINE
  5
119
330
1F
100
AcDbEntity
  8
0
  6
Continuous
 62
     7
370
    25
100
AcDbLine
 10
1567.0022520202
 20
2942.5322855372
 30
0.0
 11
1567.0022520202
 21
2824.5322550196
 31
0.0
  0
LINE
  5
11A
330
1F
100
AcDbEntity
  8
0
  6
Continuous
 62
     7
370
    25
100
AcDbLine
 10
1564.0022310393
 20
2944.5321405787
 30
0.0
 11
1567.0022520202
 21
2944.5321405787
 31
0.0
  0
LINE
  5
11B
330
1F
100
AcDbEntity
  8
0
  6
Continuous
 62
     7
370
    25
100
AcDbLine
 10
1567.0022520202
 20
2944.5321405787
 30
0.0
 11
1567.0022520202
 21
2942.5322855372
 31
0.0
  0
LINE
  5
11C
330
1F
100
AcDbEntity
  8
0
  6
Continuous
 62
     7
370
    25
100
AcDbLine
 10
1564.0022310393
 20
2942.5322855372
 30
0.0
 11
1564.0022310393
 21
2944.5321405787
 31
0.0
  0
LINE
  5
11D
330
1F
100
AcDbEntity
  8
0
  6
Continuous
 62
     7
370
    25
100
AcDbLine
 10
572.0022323506
 20
-1404.9676810842
 30
0.0
 11
572.0022323506
 21
-1413.9676844221
 31
0.0
  0
LINE
  5
11E
330
1F
100
AcDbEntity
  8
0
  6
Continuous
 62
     7
370
    25
100
AcDbLine
 10
570.0022282975
 20
-1325.9676848989
 30
0.0
 11
569.0022411721
 21
-1325.9676848989
 31
0.0
  0
LINE
  5
11F
330
1F
100
AcDbEntity
  8
0
  6
Continuous
 62
     7
370
    25
100
AcDbLine
 10
570.0022282975
 20
-1325.9676848989
 30
0.0
 11
570.0022282975
 21
-1347.9676996808
 31
0.0
  0
LINE
  5
120
330
1F
100
AcDbEntity
  8
0
  6
Continuous
 62
     7
370
    25
100
AcDbLine
 10
569.0022411721
 20
-1347.9676996808
 30
0.0
 11
570.0022282975
 21
-1347.9676996808
 31
0.0
  0
LINE
  5
121
330
1F
100
AcDbEntity
  8
0
  6
Continuous
 62
     7
370
    25
100
AcDbLine
 10
569.0022411721
 20
-1320.9676896673
 30
0.0
 11
570.0022282975
 21
-1320.9676896673
 31
0.0
  0
LINE
  5
122
330
1F
100
AcDbEntity
  8
0
  6
Continuous
 62
     7
370
    25
100
AcDbLine
 10
570.0022282975
 20
-1320.9676896673
 30
0.0
 11
570.0022282975
 21
-1325.9676848989
 31
0.0
  0
LINE
  5
123
330
1F
100
AcDbEntity
  8
0
  6
Continuous
 62
     7
370
    25
100
AcDbLine
 10
570.0022282975
 20
-1352.9676949125
 30
0.0
 11
569.0022411721
 21
-1352.9676949125
 31
0.0
  0
LINE
  5
124
330
1F
100
AcDbEntity
  8
0
  6
Continuous
 62
     7
370
    25
100
AcDbLine
 10
570.0022282975
 20
-1347.9676996808
 30
0.0
 11
570.0022282975
 21
-1352.9676949125
 31
0.0
  0
LINE
  5
125
330
1F
100
AcDbEntity
  8
0
  6
Continuous
 62
     7
370
    25
100
AcDbLine
 10
571.0022303241
 20
-1417.4677287679
 30
0.0
 11
571.0022303241
 21
-1401.467696343
 31
0.0
  0
LINE
  5
126
330
1F
100
AcDbEntity
  8
0
  6
Continuous
 62
     7
370
    25
100
AcDbLine
 10
571.5022387879
 20
-1401.967719708
 30
0.0
 11
571.5022387879
 21
-1416.9677054029
 31
0.0
  0
LINE
  5
127
330
1F
100
AcDbEntity
  8
0
  6
Continuous
 62
     7
370
    25
100
AcDbLine
 10
569.0022411721
 20
-1566.967681561
 30
0.0
 11
567.002237119
 21
-1566.967681561
 31
0.0
  0
LINE
  5
128
330
1F
100
AcDbEntity
  8
0
  6
Continuous
 62
     7
370
    25
100
AcDbLine
 10
567.002237119
 20
-1561.9676863294
 30
0.0
 11
569.0022411721
 21
-1561.9676863294
 31
0.0
  0
LINE
  5
129
330
1F
100
AcDbEntity
  8
0
  6
Continuous
 62
     7
370
    25
100
AcDbLine
 10
569.0022411721
 20
-1561.9676863294
 30
0.0
 11
569.0022411721
 21
-1566.967681561
 31
0.0
  0
LINE
  5
12A
330
1F
100
AcDbEntity
  8
0
  6
Continuous
 62
     7
370
    25
100
AcDbLine
 10
569.0022411721
 20
-1256.9676791768
 30
0.0
 11
567.002237119
 21
-1256.9676791768
 31
0.0
  0
LINE
  5
12B
330
1F
100
AcDbEntity
  8
0
  6
Continuous
 62
     7
370
    25
100
AcDbLine
 10
569.0022411721
 20
-1256.9676791768
 30
0.0
 11
569.0022411721
 21
-1561.9676863294
 31
0.0
  0
LINE
  5
12C
330
1F
100
AcDbEntity
  8
0
  6
Continuous
 62
     7
370
    25
100
AcDbLine
 10
567.002237119
 20
-1251.9676839452
 30
0.0
 11
569.0022411721
 21
-1251.9676839452
 31
0.0
  0
LINE
  5
12D
330
1F
100
AcDbEntity
  8
0
  6
Continuous
 62
     7
370
    25
100
AcDbLine
 10
569.0022411721
 20
-1251.9676839452
 30
0.0
 11
569.0022411721
 21
-1256.9676791768
 31
0.0
  0
LINE
  5
12E
330
1F
100
AcDbEntity
  8
0
  6
Continuous
 62
     7
370
    25
100
AcDbLine
 10
478.8346144336
 20
2945.5320680995
 30
0.0
 11
483.2510503905
 21
2945.5320680995
 31
0.0
  0
LINE
  5
12F
330
1F
100
AcDbEntity
  8
0
  6
Continuous
 62
     7
370
    25
100
AcDbLine
 10
470.7510623115
 20
2945.5320680995
 30
0.0
 11
478.8346144336
 21
2945.5320680995
 31
0.0
  0
LINE
  5
130
330
1F
100
AcDbEntity
  8
0
  6
Continuous
 62
     7
370
    25
100
AcDbLine
 10
565.7522383111
 20
2945.5320680995
 30
0.0
 11
553.2522353309
 21
2945.5320680995
 31
0.0
  0
CIRCLE
  5
131
330
1F
100
AcDbEntity
  8
0
  6
Continuous
 62
     7
370
    25
100
AcDbCircle
 10
1478.2522337675
 20
2883.5322939068
 30
0.0
 40
6.250000000000042
  0
CIRCLE
  5
132
330
1F
100
AcDbEntity
  8
0
  6
Continuous
 62
     7
370
    25
100
AcDbCircle
 10
1323.2522337675
 20
2883.5322939068
 30
0.0
 40
6.249999999999817
  0
CIRCLE
  5
133
330
1F
100
AcDbEntity
  8
0
  6
Continuous
 62
     7
370
    25
100
AcDbCircle
 10
1408.2522337675
 20
2883.5322939068
 30
0.0
 40
6.250000000000042
  0
CIRCLE
  5
134
330
1F
100
AcDbEntity
  8
0
  6
Continuous
 62
     7
370
    25
100
AcDbCircle
 10
1253.2522337675
 20
2883.5322939068
 30
0.0
 40
6.250000000000042
  0
LINE
  5
135
330
1F
100
AcDbEntity
  8
0
  6
Continuous
 62
     7
370
    25
100
AcDbLine
 10
472.4427017348
 20
2946.3322008509
 30
0.0
 11
471.7510494368
 21
2946.3322008509
 31
0.0
  0
LINE
  5
136
330
1F
100
AcDbEntity
  8
0
  6
Continuous
 62
     7
370
    25
100
AcDbLine
 10
482.2510632651
 20
2946.3322008509
 30
0.0
 11
472.4427017348
 21
2946.3322008509
 31
0.0
  0
LINE
  5
137
330
1F
100
AcDbEntity
  8
0
  6
Continuous
 62
     7
370
    25
100
AcDbLine
 10
474.4961711543
 20
2948.8322580714
 30
0.0
 11
474.1161021369
 21
2948.8322580714
 31
0.0
  0
LINE
  5
138
330
1F
100
AcDbEntity
  8
0
  6
Continuous
 62
     7
370
    25
100
AcDbLine
 10
479.8860105651
 20
2948.8322580714
 30
0.0
 11
474.4961711543
 21
2948.8322580714
 31
0.0
  0
LINE
  5
139
330
1F
100
AcDbEntity
  8
0
  6
Continuous
 62
     7
370
    25
100
AcDbLine
 10
562.000081219
 20
2946.3322008509
 30
0.0
 11
554.2522373574
 21
2946.3322008509
 31
0.0
  0
LINE
  5
13A
330
1F
100
AcDbEntity
  8
0
  6
Continuous
 62
     7
370
    25
100
AcDbLine
 10
564.7522362845
 20
2946.3322008509
 30
0.0
 11
562.000081219
 21
2946.3322008509
 31
0.0
  0
LINE
  5
13B
330
1F
100
AcDbEntity
  8
0
  6
Continuous
 62
     7
370
    25
100
AcDbLine
 10
560.8748349326
 20
2948.8322580714
 30
0.0
 11
556.6172900575
 21
2948.8322580714
 31
0.0
  0
LINE
  5
13C
330
1F
100
AcDbEntity
  8
0
  6
Continuous
 62
     7
370
    25
100
AcDbLine
 10
562.3871686833
 20
2948.8322580714
 30
0.0
 11
560.8748349326
 21
2948.8322580714
 31
0.0
  0
LINE
  5
13D
330
1F
100
AcDbEntity
  8
0
  6
Continuous
 62
     7
370
    25
100
AcDbLine
 10
507.84809915
 20
-1346.3615929227
 30
0.0
 11
510.8477327006
 21
-1343.6531578641
 31
0.0
  0
LINE
  5
13E
330
1F
100
AcDbEntity
  8
0
  6
Continuous
 62
     7
370
    25
100
AcDbLine
 10
504.0027352946
 20
-1345.1180612188
 30
0.0
 11
507.84809915
 21
-1346.3615929227
 31
0.0
  0
LINE
  5
13F
330
1F
100
AcDbEntity
  8
0
  6
Continuous
 62
     7
370
    25
100
AcDbLine
 10
503.1569751876
 20
-1341.1660944562
 30
0.0
 11
504.0027352946
 21
-1345.1180612188
 31
0.0
  0
LINE
  5
140
330
1F
100
AcDbEntity
  8
0
  6
Continuous
 62
     7
370
    25
100
AcDbLine
 10
510.0020023959
 20
-1339.7011911016
 30
0.0
 11
506.1566385405
 21
-1338.4576593976
 31
0.0
  0
LINE
  5
141
330
1F
100
AcDbEntity
  8
0
  6
Continuous
 62
     7
370
    25
100
AcDbLine
 10
506.1566385405
 20
-1338.4576593976
 30
0.0
 11
503.1569751876
 21
-1341.1660944562
 31
0.0
  0
CIRCLE
  5
142
330
1F
100
AcDbEntity
  8
0
  6
Continuous
 62
     7
370
    25
100
AcDbCircle
 10
507.0023633091
 20
-1342.4096342434
 30
0.0
 40
7.999999999999829
  0
LINE
  5
143
330
1F
100
AcDbEntity
  8
0
  6
Continuous
 62
     7
370
    25
100
AcDbLine
 10
510.8477327006
 20
-1343.6531578641
 30
0.0
 11
510.0020023959
 21
-1339.7011911016
 31
0.0
  0
LINE
  5
144
330
1F
100
AcDbEntity
  8
0
  6
Continuous
 62
     7
370
    25
100
AcDbLine
 10
510.0020023959
 20
-1957.2012280565
 30
0.0
 11
506.1566385405
 21
-1955.9576665502
 31
0.0
  0
LINE
  5
145
330
1F
100
AcDbEntity
  8
0
  6
Continuous
 62
     7
370
    25
100
AcDbLine
 10
506.1566385405
 20
-1955.9576665502
 30
0.0
 11
503.1569751876
 21
-1958.6660718065
 31
0.0
  0
LINE
  5
146
330
1F
100
AcDbEntity
  8
0
  6
Continuous
 62
     7
370
    25
100
AcDbLine
 10
510.8477327006
 20
-1961.153194819
 30
0.0
 11
510.0020023959
 21
-1957.2012280565
 31
0.0
  0
LINE
  5
147
330
1F
100
AcDbEntity
  8
0
  6
Continuous
 62
     7
370
    25
100
AcDbLine
 10
503.1569751876
 20
-1958.6660718065
 30
0.0
 11
504.0027352946
 21
-1962.618038569
 31
0.0
  0
CIRCLE
  5
148
330
1F
100
AcDbEntity
  8
0
  6
Continuous
 62
     7
370
    25
100
AcDbCircle
 10
507.0023633091
 20
-1959.9096342434
 30
0.0
 40
7.999999999999952
  0
LINE
  5
149
330
1F
100
AcDbEntity
  8
0
  6
Continuous
 62
     7
370
    25
100
AcDbLine
 10
507.84809915
 20
-1963.8616000753
 30
0.0
 11
510.8477327006
 21
-1961.153194819
 31
0.0
  0
LINE
  5
14A
330
1F
100
AcDbEntity
  8
0
  6
Continuous
 62
     7
370
    25
100
AcDbLine
 10
504.0027352946
 20
-1962.618038569
 30
0.0
 11
507.84809915
 21
-1963.8616000753
 31
0.0
  0
LINE
  5
14B
330
1F
100
AcDbEntity
  8
0
  6
Continuous
 62
     7
370
    25
100
AcDbLine
 10
342.0022281783
 20
-2074.4677042108
 30
0.0
 11
342.0022281783
 21
-2059.4677036148
 31
0.0
  0
LINE
  5
14C
330
1F
100
AcDbEntity
  8
0
  6
Continuous
 62
     7
370
    25
100
AcDbLine
 10
342.0022281783
 20
-2059.4677036148
 30
0.0
 11
367.0022341388
 21
-2059.4677036148
 31
0.0
  0
LINE
  5
14D
330
1F
100
AcDbEntity
  8
0
  6
Continuous
 62
     7
370
    25
100
AcDbLine
 10
367.0022341388
 20
-2059.4677036148
 30
0.0
 11
367.0022341388
 21
-2074.4677042108
 31
0.0
  0
LINE
  5
14E
330
1F
100
AcDbEntity
  8
0
  6
Continuous
 62
     7
370
    25
100
AcDbLine
 10
367.0022341388
 20
-2074.4677042108
 30
0.0
 11
342.0022281783
 21
-2074.4677042108
 31
0.0
  0
LINE
  5
14F
330
1F
100
AcDbEntity
  8
0
  6
Continuous
 62
     7
370
    25
100
AcDbLine
 10
647.0022353309
 20
-2074.4677042108
 30
0.0
 11
647.0022353309
 21
-2059.4677036148
 31
0.0
  0
LINE
  5
150
330
1F
100
AcDbEntity
  8
0
  6
Continuous
 62
     7
370
    25
100
AcDbLine
 10
647.0022353309
 20
-2059.4677036148
 30
0.0
 11
672.0022338407
 21
-2059.4677036148
 31
0.0
  0
LINE
  5
151
330
1F
100
AcDbEntity
  8
0
  6
Continuous
 62
     7
370
    25
100
AcDbLine
 10
672.0022338407
 20
-2059.4677036148
 30
0.0
 11
672.0022338407
 21
-2074.4677042108
 31
0.0
  0
LINE
  5
152
330
1F
100
AcDbEntity
  8
0
  6
Continuous
 62
     7
370
    25
100
AcDbLine
 10
672.0022338407
 20
-2074.4677042108
 30
0.0
 11
647.0022353309
 21
-2074.4677042108
 31
0.0
  0
LINE
  5
153
330
1F
100
AcDbEntity
  8
0
  6
Continuous
 62
     7
370
    25
100
AcDbLine
 10
367.0022341388
 20
-2059.4677036148
 30
0.0
 11
647.0022353309
 21
-2059.4677036148
 31
0.0
  0
LINE
  5
154
330
1F
100
AcDbEntity
  8
0
  6
Continuous
 62
     7
370
    25
100
AcDbLine
 10
367.0022341388
 20
-2074.4677042108
 30
0.0
 11
647.0022353309
 21
-2074.4677042108
 31
0.0
  0
CIRCLE
  5
155
330
1F
100
AcDbEntity
  8
0
  6
Continuous
 62
     7
370
    25
100
AcDbCircle
 10
507.0022337675
 20
2843.0322939068
 30
0.0
 40
8.000000000000195
  0
LINE
  5
156
330
1F
100
AcDbEntity
  8
0
  6
Continuous
 62
     7
370
    25
100
AcDbLine
 10
510.4285034316
 20
2840.8887232203
 30
0.0
 11
510.5715694802
 21
2844.9280107874
 31
0.0
  0
LINE
  5
157
330
1F
100
AcDbEntity
  8
0
  6
Continuous
 62
     7
370
    25
100
AcDbLine
 10
510.5715694802
 20
2844.9280107874
 30
0.0
 11
507.1453007834
 21
2847.0713938136
 31
0.0
  0
LINE
  5
158
330
1F
100
AcDbEntity
  8
0
  6
Continuous
 62
     7
370
    25
100
AcDbLine
 10
507.1453007834
 20
2847.0713938136
 30
0.0
 11
503.575966038
 21
2845.1754892726
 31
0.0
  0
LINE
  5
159
330
1F
100
AcDbEntity
  8
0
  6
Continuous
 62
     7
370
    25
100
AcDbLine
 10
503.575966038
 20
2845.1754892726
 30
0.0
 11
503.4328850882
 21
2841.1366785426
 31
0.0
  0
LINE
  5
15A
330
1F
100
AcDbEntity
  8
0
  6
Continuous
 62
     7
370
    25
100
AcDbLine
 10
503.4328850882
 20
2841.1366785426
 30
0.0
 11
506.8591686862
 21
2838.9932955165
 31
0.0
  0
LINE
  5
15B
330
1F
100
AcDbEntity
  8
0
  6
Continuous
 62
     7
370
    25
100
AcDbLine
 10
506.8591686862
 20
2838.9932955165
 30
0.0
 11
510.4285034316
 21
2840.8887232203
 31
0.0
  0
LINE
  5
15C
330
1F
100
AcDbEntity
  8
0
  6
Continuous
 62
     7
370
    25
100
AcDbLine
 10
510.4285034316
 20
2915.8890093226
 30
0.0
 11
510.5715694802
 21
2919.9278200526
 31
0.0
  0
LINE
  5
15D
330
1F
100
AcDbEntity
  8
0
  6
Continuous
 62
     7
370
    25
100
AcDbLine
 10
510.5715694802
 20
2919.9278200526
 30
0.0
 11
507.1453007834
 21
2922.0712030787
 31
0.0
  0
LINE
  5
15E
330
1F
100
AcDbEntity
  8
0
  6
Continuous
 62
     7
370
    25
100
AcDbLine
 10
507.1453007834
 20
2922.0712030787
 30
0.0
 11
503.575966038
 21
2920.1757753749
 31
0.0
  0
LINE
  5
15F
330
1F
100
AcDbEntity
  8
0
  6
Continuous
 62
     7
370
    25
100
AcDbLine
 10
503.575966038
 20
2920.1757753749
 30
0.0
 11
503.4328850882
 21
2916.1369646449
 31
0.0
  0
LINE
  5
160
330
1F
100
AcDbEntity
  8
0
  6
Continuous
 62
     7
370
    25
100
AcDbLine
 10
503.4328850882
 20
2916.1369646449
 30
0.0
 11
506.8591686862
 21
2913.9935816187
 31
0.0
  0
LINE
  5
161
330
1F
100
AcDbEntity
  8
0
  6
Continuous
 62
     7
370
    25
100
AcDbLine
 10
506.8591686862
 20
2913.9935816187
 30
0.0
 11
510.4285034316
 21
2915.8890093226
 31
0.0
  0
CIRCLE
  5
162
330
1F
100
AcDbEntity
  8
0
  6
Continuous
 62
     7
370
    25
100
AcDbCircle
 10
507.0022337675
 20
2918.0322939068
 30
0.0
 40
7.999999999999955
  0
LINE
  5
163
330
1F
100
AcDbEntity
  8
0
  6
Continuous
 62
     7
370
    25
100
AcDbLine
 10
447.0022472518
 20
2943.532213058
 30
0.0
 11
447.0022472518
 21
2940.5324304957
 31
0.0
  0
LINE
  5
164
330
1F
100
AcDbEntity
  8
0
  6
Continuous
 62
     7
370
    25
100
AcDbLine
 10
449.0022215026
 20
2943.532213058
 30
0.0
 11
447.0022472518
 21
2943.532213058
 31
0.0
  0
LINE
  5
165
330
1F
100
AcDbEntity
  8
0
  6
Continuous
 62
     7
370
    25
100
AcDbLine
 10
449.0022215026
 20
2943.532213058
 30
0.0
 11
449.0022215026
 21
2940.5324304957
 31
0.0
  0
LINE
  5
166
330
1F
100
AcDbEntity
  8
0
  6
Continuous
 62
     7
370
    25
100
AcDbLine
 10
449.0022215026
 20
2940.5324304957
 30
0.0
 11
447.0022472518
 21
2940.5324304957
 31
0.0
  0
LINE
  5
167
330
1F
100
AcDbEntity
  8
0
  6
Continuous
 62
     7
370
    25
100
AcDbLine
 10
565.0022330659
 20
2943.532213058
 30
0.0
 11
565.0022330659
 21
2940.5324304957
 31
0.0
  0
LINE
  5
168
330
1F
100
AcDbEntity
  8
0
  6
Continuous
 62
     7
370
    25
100
AcDbLine
 10
565.0022330659
 20
2940.5324304957
 30
0.0
 11
567.002237119
 21
2940.5324304957
 31
0.0
  0
LINE
  5
169
330
1F
100
AcDbEntity
  8
0
  6
Continuous
 62
     7
370
    25
100
AcDbLine
 10
565.0022330659
 20
2943.532213058
 30
0.0
 11
567.002237119
 21
2943.532213058
 31
0.0
  0
LINE
  5
16A
330
1F
100
AcDbEntity
  8
0
  6
Continuous
 62
     7
370
    25
100
AcDbLine
 10
449.0022215026
 20
2940.5324304957
 30
0.0
 11
565.0022330659
 21
2940.5324304957
 31
0.0
  0
LINE
  5
16B
330
1F
100
AcDbEntity
  8
0
  6
Continuous
 62
     7
370
    25
100
AcDbLine
 10
449.0022215026
 20
2943.532213058
 30
0.0
 11
565.0022330659
 21
2943.532213058
 31
0.0
  0
LINE
  5
16C
330
1F
100
AcDbEntity
  8
0
  6
Continuous
 62
     7
370
    25
100
AcDbLine
 10
565.0022330659
 20
-2059.4677036148
 30
0.0
 11
565.0022330659
 21
2940.5324304957
 31
0.0
  0
LINE
  5
16D
330
1F
100
AcDbEntity
  8
0
  6
Continuous
 62
     7
370
    25
100
AcDbLine
 10
449.0022215026
 20
2940.5324304957
 30
0.0
 11
449.0022215026
 21
-2059.4677036148
 31
0.0
  0
CIRCLE
  5
16E
330
1F
100
AcDbEntity
  8
0
  6
Continuous
 62
     7
370
    25
100
AcDbCircle
 10
507.0024928507
 20
-1342.4677060932
 30
0.0
 40
8.649999999999864
  0
CIRCLE
  5
16F
330
1F
100
AcDbEntity
  8
0
  6
Continuous
 62
     7
370
    25
100
AcDbCircle
 10
507.0023633091
 20
-1959.9096342434
 30
0.0
 40
8.649999999999864
  0
CIRCLE
  5
170
330
1F
100
AcDbEntity
  8
0
  6
Continuous
 62
     7
370
    25
100
AcDbCircle
 10
507.0022337675
 20
2843.0322939068
 30
0.0
 40
8.650000000000546
  0
CIRCLE
  5
171
330
1F
100
AcDbEntity
  8
0
  6
Continuous
 62
     7
370
    25
100
AcDbCircle
 10
507.0022337675
 20
2918.0322939068
 30
0.0
 40
8.650000000000091
  0
LINE
  5
172
330
1F
100
AcDbEntity
  8
0
  6
Continuous
 62
     7
370
    25
100
AcDbLine
 10
447.0022472518
 20
-2059.4677036148
 30
0.0
 11
447.0022472518
 21
2940.5324304957
 31
0.0
  0
LINE
  5
173
330
1F
100
AcDbEntity
  8
0
  6
Continuous
 62
     7
370
    25
100
AcDbLine
 10
567.002237119
 20
2823.5323274989
 30
0.0
 11
567.002237119
 21
-2059.4677036148
 31
0.0
  0
LINE
  5
174
330
1F
100
AcDbEntity
  8
0
  6
Continuous
 62
     8
370
    25
100
AcDbLine
 10
1512.2630747931
 20
2823.2209528346
 30
0.0
 11
1512.2525843757
 21
2823.5323274989
 31
0.0
  0
LINE
  5
175
330
1F
100
AcDbEntity
  8
0
  6
Continuous
 62
     8
370
    25
100
AcDbLine
 10
1374.2518576758
 20
2823.5323274989
 30
0.0
 11
1374.241426863
 21
2823.2209528346
 31
0.0
  0
LINE
  5
176
330
1F
100
AcDbEntity
  8
0
  6
Continuous
 62
     8
370
    25
100
AcDbLine
 10
1357.2630437987
 20
2823.2209528346
 30
0.0
 11
1357.2526129859
 21
2823.5323274989
 31
0.0
  0
LINE
  5
177
330
1F
100
AcDbEntity
  8
0
  6
Continuous
 62
     8
370
    25
100
AcDbLine
 10
1219.2518862861
 20
2823.5323274989
 30
0.0
 11
1219.2413958686
 21
2823.2209528346
 31
0.0
  0
LWPOLYLINE
  5
178
330
1F
100
AcDbEntity
  8
0
  6
Continuous
 62
     8
370
    25
100
AcDbPolyline
 90
        7
 70
   128
 43
0.0
 10
1219.6219119208
 20
2811.6524065394
 10
1219.6265312808
 20
2811.5212763209
 10
1219.6441742557
 20
2811.0196436305
 10
1219.6748408454
 20
2810.1484621424
 10
1219.7183820384
 20
2808.9105928797
 10
1219.7747084277
 20
2807.3098505396
 10
1219.8436710017
 20
2805.3505266566
  0
LWPOLYLINE
  5
179
330
1F
100
AcDbEntity
  8
0
  6
Continuous
 62
     8
370
    25
100
AcDbPolyline
 90
        7
 70
   128
 43
0.0
 10
1356.6503080504
 20
2805.3505266566
 10
1356.7192706244
 20
2807.3098505396
 10
1356.7755970138
 20
2808.9105928797
 10
1356.8191680091
 20
2810.1484621424
 10
1356.8498047965
 20
2811.0196436305
 10
1356.8674477714
 20
2811.5212763209
 10
1356.8720969336
 20
2811.6524065394
  0
LWPOLYLINE
  5
17A
330
1F
100
AcDbEntity
  8
0
  6
Continuous
 62
     8
370
    25
100
AcDbPolyline
 90
        3
 70
   128
 43
0.0
 10
1219.8436710017
 20
2805.3505266566
 10
1219.8445054667
 20
2805.2851999659
 10
1219.8446842807
 20
2805.273279037
  0
LWPOLYLINE
  5
17B
330
1F
100
AcDbEntity
  8
0
  6
Continuous
 62
     8
370
    25
100
AcDbPolyline
 90
        3
 70
   128
 43
0.0
 10
1356.6492947715
 20
2805.273279037
 10
1356.6494735854
 20
2805.2851999659
 10
1356.6503080504
 20
2805.3505266566
  0
LWPOLYLINE
  5
17C
330
1F
100
AcDbEntity
  8
0
  6
Continuous
 62
     8
370
    25
100
AcDbPolyline
 90
        7
 70
   128
 43
0.0
 10
1374.6218833106
 20
2811.6524065394
 10
1374.6265324729
 20
2811.5212763209
 10
1374.6441754477
 20
2811.0196436305
 10
1374.6748122352
 20
2810.1484621424
 10
1374.7183832305
 20
2808.9105928797
 10
1374.7747096198
 20
2807.3098505396
 10
1374.8436721938
 20
2805.3505266566
  0
LWPOLYLINE
  5
17D
330
1F
100
AcDbEntity
  8
0
  6
Continuous
 62
     8
370
    25
100
AcDbPolyline
 90
        7
 70
   128
 43
0.0
 10
1511.6503390448
 20
2805.3505266566
 10
1511.7193016189
 20
2807.3098505396
 10
1511.7756280082
 20
2808.9105928797
 10
1511.8191393989
 20
2810.1484621424
 10
1511.8498357909
 20
2811.0196436305
 10
1511.8674787658
 20
2811.5212763209
 10
1511.8720683234
 20
2811.6524065394
  0
LWPOLYLINE
  5
17E
330
1F
100
AcDbEntity
  8
0
  6
Continuous
 62
     8
370
    25
100
AcDbPolyline
 90
        3
 70
   128
 43
0.0
 10
1374.8436721938
 20
2805.3505266566
 10
1374.8445066588
 20
2805.2851999659
 10
1374.8446854728
 20
2805.273279037
  0
LWPOLYLINE
  5
17F
330
1F
100
AcDbEntity
  8
0
  6
Continuous
 62
     8
370
    25
100
AcDbPolyline
 90
        3
 70
   128
 43
0.0
 10
1511.6493257659
 20
2805.273279037
 10
1511.6494449752
 20
2805.2851999659
 10
1511.6503390448
 20
2805.3505266566
  0
LINE
  5
180
330
1F
100
AcDbEntity
  8
0
  6
Continuous
 62
     7
370
    25
100
AcDbLine
 10
5.9806078894
 20
2888.7822473902
 30
0.0
 11
5.1806017978
 21
2888.7822473902
 31
0.0
  0
LINE
  5
181
330
1F
100
AcDbEntity
  8
0
  6
Continuous
 62
     7
370
    25
100
AcDbLine
 10
5.1806017978
 20
2878.2822931666
 30
0.0
 11
5.9806078894
 21
2878.2822931666
 31
0.0
  0
ARC
  5
182
330
1F
100
AcDbEntity
  8
0
  6
Continuous
 62
     7
370
    25
100
AcDbCircle
 10
6.6618040014
 20
2884.7127332171
 30
0.0
 40
4.330736029718824
100
AcDbArc
 50
110.0
 51
156.8223913264
  0
ARC
  5
183
330
1F
100
AcDbEntity
  8
0
  6
Continuous
 62
     7
370
    25
100
AcDbCircle
 10
6.6618040014
 20
2882.3518545965
 30
0.0
 40
4.330736029719241
100
AcDbArc
 50
203.1776086736
 51
250.0
  0
LINE
  5
184
330
1F
100
AcDbEntity
  8
0
  6
Continuous
 62
     7
370
    25
100
AcDbLine
 10
195.9806055053
 20
2878.2822931666
 30
0.0
 11
196.7806041463
 21
2878.2822931666
 31
0.0
  0
LINE
  5
185
330
1F
100
AcDbEntity
  8
0
  6
Continuous
 62
     7
370
    25
100
AcDbLine
 10
196.7806041463
 20
2888.7822473902
 30
0.0
 11
195.9806055053
 21
2888.7822473902
 31
0.0
  0
ARC
  5
186
330
1F
100
AcDbEntity
  8
0
  6
Continuous
 62
     7
370
    25
100
AcDbCircle
 10
195.2994060862
 20
2882.3518545965
 30
0.0
 40
4.330736029719253
100
AcDbArc
 50
290.0
 51
336.8223913264
  0
ARC
  5
187
330
1F
100
AcDbEntity
  8
0
  6
Continuous
 62
     7
370
    25
100
AcDbCircle
 10
195.2994060862
 20
2884.7127332171
 30
0.0
 40
4.330736029718838
100
AcDbArc
 50
23.1776086736
 51
70.0
  0
LINE
  5
188
330
1F
100
AcDbEntity
  8
0
  6
Continuous
 62
     7
370
    25
100
AcDbLine
 10
8.2306087239
 20
2945.5320680995
 30
0.0
 11
8.2306087239
 21
2944.3862284083
 31
0.0
  0
LINE
  5
189
330
1F
100
AcDbEntity
  8
0
  6
Continuous
 62
     7
370
    25
100
AcDbLine
 10
9.2306032999
 20
2945.5320680995
 30
0.0
 11
9.2306032999
 21
2944.5321405787
 31
0.0
  0
LINE
  5
18A
330
1F
100
AcDbEntity
  8
0
  6
Continuous
 62
     7
370
    25
100
AcDbLine
 10
21.7306062801
 20
2944.5321405787
 30
0.0
 11
21.7306062801
 21
2945.5320680995
 31
0.0
  0
LINE
  5
18B
330
1F
100
AcDbEntity
  8
0
  6
Continuous
 62
     7
370
    25
100
AcDbLine
 10
6.9806024654
 20
2889.782174911
 30
0.0
 11
5.9806078894
 21
2889.782174911
 31
0.0
  0
LINE
  5
18C
330
1F
100
AcDbEntity
  8
0
  6
Continuous
 62
     7
370
    25
100
AcDbLine
 10
5.9806078894
 20
2877.2823656458
 30
0.0
 11
6.9806024654
 21
2877.2823656458
 31
0.0
  0
LINE
  5
18D
330
1F
100
AcDbEntity
  8
0
  6
Continuous
 62
     7
370
    25
100
AcDbLine
 10
194.9806034787
 20
2877.2823656458
 30
0.0
 11
195.9806055053
 21
2877.2823656458
 31
0.0
  0
LINE
  5
18E
330
1F
100
AcDbEntity
  8
0
  6
Continuous
 62
     7
370
    25
100
AcDbLine
 10
195.9806055053
 20
2889.782174911
 30
0.0
 11
194.9806034787
 21
2889.782174911
 31
0.0
  0
LINE
  5
18F
330
1F
100
AcDbEntity
  8
0
  6
Continuous
 62
     7
370
    25
100
AcDbLine
 10
192.7306026442
 20
2944.5321405787
 30
0.0
 11
192.7306026442
 21
2945.5320680995
 31
0.0
  0
LINE
  5
190
330
1F
100
AcDbEntity
  8
0
  6
Continuous
 62
     7
370
    25
100
AcDbLine
 10
180.2306071146
 20
2945.5320680995
 30
0.0
 11
180.2306071146
 21
2944.5321405787
 31
0.0
  0
LINE
  5
191
330
1F
100
AcDbEntity
  8
0
  6
Continuous
 62
     7
370
    25
100
AcDbLine
 10
193.7306046708
 20
2944.3862284083
 30
0.0
 11
193.7306046708
 21
2945.5320680995
 31
0.0
  0
ARC
  5
192
330
1F
100
AcDbEntity
  8
0
  6
Continuous
 62
     7
370
    25
100
AcDbCircle
 10
13.3001657335
 20
2944.8510949492
 30
0.0
 40
4.330736029719444
100
AcDbArc
 50
113.1776086736
 51
160.0
  0
LINE
  5
193
330
1F
100
AcDbEntity
  8
0
  6
Continuous
 62
     7
370
    25
100
AcDbLine
 10
9.2306032999
 20
2946.3322008509
 30
0.0
 11
9.2306032999
 21
2945.5320680995
 31
0.0
  0
ARC
  5
194
330
1F
100
AcDbEntity
  8
0
  6
Continuous
 62
     7
370
    25
100
AcDbCircle
 10
188.6610443541
 20
2944.8510949492
 30
0.0
 40
4.33073602971945
100
AcDbArc
 50
20.0
 51
66.8223913264
  0
LINE
  5
195
330
1F
100
AcDbEntity
  8
0
  6
Continuous
 62
     7
370
    25
100
AcDbLine
 10
192.7306026442
 20
2945.5320680995
 30
0.0
 11
192.7306026442
 21
2946.3322008509
 31
0.0
  0
ARC
  5
196
330
1F
100
AcDbEntity
  8
0
  6
Continuous
 62
     7
370
    25
100
AcDbCircle
 10
187.6610443541
 20
2944.8510949492
 30
0.0
 40
4.330736029719438
100
AcDbArc
 50
20.0
 51
66.8223913264
  0
ARC
  5
197
330
1F
100
AcDbEntity
  8
0
  6
Continuous
 62
     7
370
    25
100
AcDbCircle
 10
185.3001657335
 20
2944.8510949492
 30
0.0
 40
4.330736029719438
100
AcDbArc
 50
113.1776086736
 51
160.0
  0
LINE
  5
198
330
1F
100
AcDbEntity
  8
0
  6
Continuous
 62
     7
370
    25
100
AcDbLine
 10
191.7306080683
 20
2945.5320680995
 30
0.0
 11
191.7306080683
 21
2946.3322008509
 31
0.0
  0
LINE
  5
199
330
1F
100
AcDbEntity
  8
0
  6
Continuous
 62
     7
370
    25
100
AcDbLine
 10
181.2306016906
 20
2946.3322008509
 30
0.0
 11
181.2306016906
 21
2945.5320680995
 31
0.0
  0
LINE
  5
19A
330
1F
100
AcDbEntity
  8
0
  6
Continuous
 62
     7
370
    25
100
AcDbLine
 10
20.7306042536
 20
2945.5320680995
 30
0.0
 11
20.7306042536
 21
2946.3322008509
 31
0.0
  0
LINE
  5
19B
330
1F
100
AcDbEntity
  8
0
  6
Continuous
 62
     7
370
    25
100
AcDbLine
 10
10.2306053264
 20
2946.3322008509
 30
0.0
 11
10.2306053264
 21
2945.5320680995
 31
0.0
  0
ARC
  5
19C
330
1F
100
AcDbEntity
  8
0
  6
Continuous
 62
     7
370
    25
100
AcDbCircle
 10
16.6610443541
 20
2944.8510949492
 30
0.0
 40
4.330736029719443
100
AcDbArc
 50
20.0
 51
66.8223913264
  0
ARC
  5
19D
330
1F
100
AcDbEntity
  8
0
  6
Continuous
 62
     7
370
    25
100
AcDbCircle
 10
14.3001657335
 20
2944.8510949492
 30
0.0
 40
4.330736029719444
100
AcDbArc
 50
113.1776086736
 51
160.0
  0
LINE
  5
19E
330
1F
100
AcDbEntity
  8
0
  6
Continuous
 62
     7
370
    25
100
AcDbLine
 10
5.1806017978
 20
2888.7822473902
 30
0.0
 11
5.1806017978
 21
2878.2822931666
 31
0.0
  0
LINE
  5
19F
330
1F
100
AcDbEntity
  8
0
  6
Continuous
 62
     7
370
    25
100
AcDbLine
 10
2.680604182
 20
2886.4171350855
 30
0.0
 11
2.680604182
 21
2880.6474054713
 31
0.0
  0
LINE
  5
1A0
330
1F
100
AcDbEntity
  8
0
  6
Continuous
 62
     7
370
    25
100
AcDbLine
 10
196.7806041463
 20
2886.3236750025
 30
0.0
 11
196.7806041463
 21
2888.7822473902
 31
0.0
  0
LINE
  5
1A1
330
1F
100
AcDbEntity
  8
0
  6
Continuous
 62
     7
370
    25
100
AcDbLine
 10
196.7806041463
 20
2878.2822931666
 30
0.0
 11
196.7806041463
 21
2886.3236750025
 31
0.0
  0
LINE
  5
1A2
330
1F
100
AcDbEntity
  8
0
  6
Continuous
 62
     7
370
    25
100
AcDbLine
 10
199.2806017621
 20
2885.0662554164
 30
0.0
 11
199.2806017621
 21
2886.4171350855
 31
0.0
  0
LINE
  5
1A3
330
1F
100
AcDbEntity
  8
0
  6
Continuous
 62
     7
370
    25
100
AcDbLine
 10
199.2806017621
 20
2880.6474054713
 30
0.0
 11
199.2806017621
 21
2885.0662554164
 31
0.0
  0
LWPOLYLINE
  5
1A4
330
1F
100
AcDbEntity
  8
0
  6
Continuous
 62
     7
370
    25
100
AcDbPolyline
 90
        9
 70
   128
 43
0.0
 10
28.1781152113
 20
2811.6524065394
 10
28.1779140456
 20
2811.6710031886
 10
28.177444659
 20
2811.7253626246
 10
28.1767070515
 20
2811.814054336
 10
28.1757310255
 20
2811.9332636256
 10
28.1745612843
 20
2812.079175796
 10
28.173235081
 20
2812.2460688014
 10
28.1718045695
 20
2812.4277437586
 10
28.1703144534
 20
2812.6175249476
  0
ARC
  5
1A5
330
1F
100
AcDbEntity
  8
0
  6
Continuous
 62
     7
370
    25
100
AcDbCircle
 10
28.0863173776
 20
2823.4215935812
 30
0.0
 40
11.76933602837798
100
AcDbArc
 50
184.9654244949
 51
270.4468812266
  0
ARC
  5
1A6
330
1F
100
AcDbEntity
  8
0
  6
Continuous
 62
     7
370
    25
100
AcDbCircle
 10
173.8748641343
 20
2823.4215935812
 30
0.0
 40
11.76933602837798
100
AcDbArc
 50
269.5531187734
 51
355.0361829939
  0
LWPOLYLINE
  5
1A7
330
1F
100
AcDbEntity
  8
0
  6
Continuous
 62
     7
370
    25
100
AcDbPolyline
 90
        9
 70
   128
 43
0.0
 10
173.7830683811
 20
2811.6524065394
 10
173.7832620962
 20
2811.6710031886
 10
173.7837389334
 20
2811.7253626246
 10
173.7844765408
 20
2811.814054336
 10
173.7854451163
 20
2811.9332636256
 10
173.7866148575
 20
2812.079175796
 10
173.7879485114
 20
2812.2460688014
 10
173.7893790229
 20
2812.4277437586
 10
173.790869139
 20
2812.6175249476
  0
ARC
  5
1A8
330
1F
100
AcDbEntity
  8
0
  6
Continuous
 62
     7
370
    25
100
AcDbCircle
 10
172.7655789879
 20
2681.1653059715
 30
0.0
 40
131.456378068293
100
AcDbArc
 50
89.5531187734
 51
107.8876148317
  0
ARC
  5
1A9
330
1F
100
AcDbEntity
  8
0
  6
Continuous
 62
     7
370
    25
100
AcDbCircle
 10
132.2043420149
 20
2806.8381870706
 30
0.0
 40
0.6000000000009074
100
AcDbArc
 50
255.5949749034
 51
287.8876148317
  0
LINE
  5
1AA
330
1F
100
AcDbEntity
  8
0
  6
Continuous
 62
     7
370
    25
100
AcDbLine
 10
108.7340389018
 20
2812.2470224757
 30
0.0
 11
132.0550766064
 21
2806.2569940943
 31
0.0
  0
ARC
  5
1AB
330
1F
100
AcDbEntity
  8
0
  6
Continuous
 62
     7
370
    25
100
AcDbCircle
 10
106.0721481566
 20
2801.8834489985
 30
0.0
 40
10.69999999999982
100
AcDbArc
 50
75.5949749034
 51
90.0
  0
LINE
  5
1AC
330
1F
100
AcDbEntity
  8
0
  6
Continuous
 62
     7
370
    25
100
AcDbLine
 10
95.8890335856
 20
2812.5836695094
 30
0.0
 11
106.0721481441
 21
2812.5836695094
 31
0.0
  0
ARC
  5
1AD
330
1F
100
AcDbEntity
  8
0
  6
Continuous
 62
     7
370
    25
100
AcDbCircle
 10
95.8890333552
 20
2801.8834489985
 30
0.0
 40
10.69999999999982
100
AcDbArc
 50
90.0
 51
104.4050250966
  0
LINE
  5
1AE
330
1F
100
AcDbEntity
  8
0
  6
Continuous
 62
     7
370
    25
100
AcDbLine
 10
69.9061051233
 20
2806.2569940943
 30
0.0
 11
93.2271432354
 21
2812.2470224757
 31
0.0
  0
ARC
  5
1AF
330
1F
100
AcDbEntity
  8
0
  6
Continuous
 62
     7
370
    25
100
AcDbCircle
 10
69.7568394969
 20
2806.8381870706
 30
0.0
 40
0.6000000000000979
100
AcDbArc
 50
252.1123851683
 51
284.4050250966
  0
ARC
  5
1B0
330
1F
100
AcDbEntity
  8
0
  6
Continuous
 62
     7
370
    25
100
AcDbCircle
 10
29.195602524
 20
2681.1653059715
 30
0.0
 40
131.4563780682929
100
AcDbArc
 50
72.1123851683
 51
90.4468812266
  0
ARC
  5
1B1
330
1F
100
AcDbEntity
  8
0
  6
Continuous
 62
     7
370
    25
100
AcDbCircle
 10
172.7655789879
 20
2681.2002054682
 30
0.0
 40
130.4563780682939
100
AcDbArc
 50
89.5531187734
 51
107.8876148317
  0
ARC
  5
1B2
330
1F
100
AcDbEntity
  8
0
  6
Continuous
 62
     7
370
    25
100
AcDbCircle
 10
153.7482859945
 20
2812.9158323998
 30
0.0
 40
22.37055439579886
100
AcDbArc
 50
197.2902998856
 51
199.7661147276
  0
ARC
  5
1B3
330
1F
100
AcDbEntity
  8
0
  6
Continuous
 62
     7
370
    25
100
AcDbCircle
 10
29.195602524
 20
2681.2002054682
 30
0.0
 40
130.4563780682937
100
AcDbArc
 50
72.1123851683
 51
90.4468812266
  0
ARC
  5
1B4
330
1F
100
AcDbEntity
  8
0
  6
Continuous
 62
     7
370
    25
100
AcDbCircle
 10
48.2041578609
 20
2812.9187180311
 30
0.0
 40
22.37975506389505
100
AcDbArc
 50
340.2344997212
 51
342.7092950429
  0
LINE
  5
1B5
330
1F
100
AcDbEntity
  8
0
  6
Continuous
 62
     7
370
    25
100
AcDbLine
 10
106.0721481441
 20
2811.6185511012
 30
0.0
 11
95.8890335856
 21
2811.6185511012
 31
0.0
  0
LINE
  5
1B6
330
1F
100
AcDbEntity
  8
0
  6
Continuous
 62
     7
370
    25
100
AcDbLine
 10
95.8890335856
 20
2811.6185511012
 30
0.0
 11
95.8890335856
 21
2812.5836695094
 31
0.0
  0
LINE
  5
1B7
330
1F
100
AcDbEntity
  8
0
  6
Continuous
 62
     7
370
    25
100
AcDbLine
 10
106.0721481441
 20
2811.6185511012
 30
0.0
 11
106.0721481441
 21
2812.5836695094
 31
0.0
  0
ARC
  5
1B8
330
1F
100
AcDbEntity
  8
0
  6
Continuous
 62
     7
370
    25
100
AcDbCircle
 10
95.8890333552
 20
2801.9183484952
 30
0.0
 40
9.700000000000728
100
AcDbArc
 50
90.0
 51
104.4050250966
  0
ARC
  5
1B9
330
1F
100
AcDbEntity
  8
0
  6
Continuous
 62
     7
370
    25
100
AcDbCircle
 10
119.6481304521
 20
2818.7870575102
 30
0.0
 40
27.21838760395299
100
AcDbArc
 50
193.9030686397
 51
195.9371119645
  0
ARC
  5
1BA
330
1F
100
AcDbEntity
  8
0
  6
Continuous
 62
     7
370
    25
100
AcDbCircle
 10
106.0721481566
 20
2801.9183484952
 30
0.0
 40
9.700000000000728
100
AcDbArc
 50
75.5949749034
 51
90.0
  0
ARC
  5
1BB
330
1F
100
AcDbEntity
  8
0
  6
Continuous
 62
     7
370
    25
100
AcDbCircle
 10
82.3087464523
 20
2818.7882030288
 30
0.0
 40
27.22284195436722
100
AcDbArc
 50
344.0630578147
 51
346.0967682517
  0
LINE
  5
1BC
330
1F
100
AcDbEntity
  8
0
  6
Continuous
 62
     7
370
    25
100
AcDbLine
 10
131.8063017203
 20
2805.3233469386
 30
0.0
 11
108.4852640739
 21
2811.3133753199
 31
0.0
  0
ARC
  5
1BD
330
1F
100
AcDbEntity
  8
0
  6
Continuous
 62
     7
370
    25
100
AcDbCircle
 10
104.7733366395
 20
2813.0263809414
 30
0.0
 40
28.10903651685465
100
AcDbArc
 50
344.0951161024
 51
346.0647032935
  0
LINE
  5
1BE
330
1F
100
AcDbEntity
  8
0
  6
Continuous
 62
     7
370
    25
100
AcDbLine
 10
93.4759181215
 20
2811.3133753199
 30
0.0
 11
70.1548800094
 21
2805.3233469386
 31
0.0
  0
ARC
  5
1BF
330
1F
100
AcDbEntity
  8
0
  6
Continuous
 62
     7
370
    25
100
AcDbCircle
 10
97.1807699224
 20
2813.0244957281
 30
0.0
 40
28.10171557515909
100
AcDbArc
 50
193.9350401269
 51
195.9051404772
  0
ARC
  5
1C0
330
1F
100
AcDbEntity
  8
0
  6
Continuous
 62
     7
370
    25
100
AcDbCircle
 10
132.2043420149
 20
2806.8730865673
 30
0.0
 40
1.59999999999989
100
AcDbArc
 50
255.5949749034
 51
287.8876148318
  0
ARC
  5
1C1
330
1F
100
AcDbEntity
  8
0
  6
Continuous
 62
     7
370
    25
100
AcDbCircle
 10
69.7568394969
 20
2806.8730865673
 30
0.0
 40
1.599999999999922
100
AcDbArc
 50
252.1123851683
 51
284.4050250966
  0
ARC
  5
1C2
330
1F
100
AcDbEntity
  8
0
  6
Continuous
 62
     7
370
    25
100
AcDbCircle
 10
8.9806050438
 20
2824.5322939068
 30
0.0
 40
2.000000000000002
100
AcDbArc
 50
180.0
 51
270.0
  0
LINE
  5
1C3
330
1F
100
AcDbEntity
  8
0
  6
Continuous
 62
     7
370
    25
100
AcDbLine
 10
6.9806024654
 20
2942.5322855372
 30
0.0
 11
6.9806024654
 21
2824.5322550196
 31
0.0
  0
ARC
  5
1C4
330
1F
100
AcDbEntity
  8
0
  6
Continuous
 62
     7
370
    25
100
AcDbCircle
 10
8.9806050438
 20
2942.5322939068
 30
0.0
 40
2.000000000000002
100
AcDbArc
 50
90.0
 51
180.0
  0
LINE
  5
1C5
330
1F
100
AcDbEntity
  8
0
  6
Continuous
 62
     7
370
    25
100
AcDbLine
 10
192.9806068762
 20
2944.5321405787
 30
0.0
 11
8.9806065185
 21
2944.5321405787
 31
0.0
  0
ARC
  5
1C6
330
1F
100
AcDbEntity
  8
0
  6
Continuous
 62
     7
370
    25
100
AcDbCircle
 10
192.9806050438
 20
2942.5322939068
 30
0.0
 40
2.0
100
AcDbArc
 50
0.0
 51
90.0
  0
ARC
  5
1C7
330
1F
100
AcDbEntity
  8
0
  6
Continuous
 62
     7
370
    25
100
AcDbCircle
 10
192.9806050438
 20
2824.5322939068
 30
0.0
 40
2.0
100
AcDbArc
 50
270.0
 51
0.0
  0
LINE
  5
1C8
330
1F
100
AcDbEntity
  8
0
  6
Continuous
 62
     7
370
    25
100
AcDbLine
 10
8.9806065185
 20
2822.5323999781
 30
0.0
 11
192.9806068762
 21
2822.5323999781
 31
0.0
  0
LINE
  5
1C9
330
1F
100
AcDbEntity
  8
0
  6
Continuous
 62
     7
370
    25
100
AcDbLine
 10
194.9806034787
 20
2824.5322550196
 30
0.0
 11
194.9806034787
 21
2942.5322855372
 31
0.0
  0
CIRCLE
  5
1CA
330
1F
100
AcDbEntity
  8
0
  6
Continuous
 62
     7
370
    25
100
AcDbCircle
 10
100.9806050438
 20
-1409.4677060932
 30
0.0
 40
4.499999999999773
  0
CIRCLE
  5
1CB
330
1F
100
AcDbEntity
  8
0
  6
Continuous
 62
     7
370
    25
100
AcDbCircle
 10
100.9806050438
 20
-1409.4677060932
 30
0.0
 40
5.0
  0
LINE
  5
1CC
330
1F
100
AcDbEntity
  8
0
  6
Continuous
 62
     7
370
    25
100
AcDbLine
 10
103.4806038475
 20
-1408.0243264776
 30
0.0
 11
103.4806038475
 21
-1410.9110986333
 31
0.0
  0
LINE
  5
1CD
330
1F
100
AcDbEntity
  8
0
  6
Continuous
 62
     7
370
    25
100
AcDbLine
 10
100.9806048347
 20
-1406.5809403997
 30
0.0
 11
103.4806038475
 21
-1408.0243264776
 31
0.0
  0
LINE
  5
1CE
330
1F
100
AcDbEntity
  8
0
  6
Continuous
 62
     7
370
    25
100
AcDbLine
 10
98.4806062876
 20
-1408.0243264776
 30
0.0
 11
100.9806048347
 21
-1406.5809403997
 31
0.0
  0
LINE
  5
1CF
330
1F
100
AcDbEntity
  8
0
  6
Continuous
 62
     7
370
    25
100
AcDbLine
 10
98.4806062876
 20
-1410.9110986333
 30
0.0
 11
98.4806062876
 21
-1408.0243264776
 31
0.0
  0
LINE
  5
1D0
330
1F
100
AcDbEntity
  8
0
  6
Continuous
 62
     7
370
    25
100
AcDbLine
 10
100.9806048347
 20
-1412.3544847112
 30
0.0
 11
98.4806062876
 21
-1410.9110986333
 31
0.0
  0
LINE
  5
1D1
330
1F
100
AcDbEntity
  8
0
  6
Continuous
 62
     7
370
    25
100
AcDbLine
 10
103.4806038475
 20
-1410.9110986333
 30
0.0
 11
100.9806048347
 21
-1412.3544847112
 31
0.0
  0
LINE
  5
1D2
330
1F
100
AcDbEntity
  8
0
  6
Continuous
 62
     7
370
    25
100
AcDbLine
 10
126.6216308101
 20
-1341.1081587415
 30
0.0
 11
126.6216308101
 21
-1341.9677173238
 31
0.0
  0
SPLINE
  5
1D3
330
1F
100
AcDbEntity
  8
0
  6
Continuous
 62
     7
370
    25
100
AcDbSpline
210
0.0
220
0.0
230
1.0
 70
     8
 71
     3
 72
     9
 73
     5
 74
     0
 42
0.000000001
 43
0.00000001
 40
0.0
 40
0.0
 40
0.0
 40
0.0
 40
0.5596457523077721
 40
0.9999999999999999
 40
0.9999999999999999
 40
0.9999999999999999
 40
0.9999999999999999
 10
126.6777206434301
 20
-1340.230301533261
 30
0.0
 10
126.6570385927119
 20
-1340.39346463742
 30
0.0
 10
126.6200829817152
 20
-1340.685011751796
 30
0.0
 10
126.6211575981428
 20
-1340.978791556587
 30
0.0
 10
126.6216308100513
 20
-1341.108158741513
 30
0.0
  0
SPLINE
  5
1D4
330
1F
100
AcDbEntity
  8
0
  6
Continuous
 62
     7
370
    25
100
AcDbSpline
210
0.0
220
0.0
230
1.0
 70
     8
 71
     3
 72
    10
 73
     6
 74
     0
 42
0.000000001
 43
0.00000001
 40
0.0
 40
0.0
 40
0.0
 40
0.0
 40
0.2783279391922296
 40
0.558785858091445
 40
0.9999999999999999
 40
0.9999999999999999
 40
0.9999999999999999
 40
0.9999999999999999
 10
127.1860346420101
 20
-1339.679256592313
 30
0.0
 10
127.1120722571512
 20
-1339.695332023171
 30
0.0
 10
126.9635814703126
 20
-1339.727605906464
 30
0.0
 10
126.7731070367139
 20
-1339.933649495136
 30
0.0
 10
126.7139114809894
 20
-1340.117747893755
 30
0.0
 10
126.6777206434301
 20
-1340.230301533261
 30
0.0
  0
SPLINE
  5
1D5
330
1F
100
AcDbEntity
  8
0
  6
Continuous
 62
     7
370
    25
100
AcDbSpline
210
0.0
220
0.0
230
1.0
 70
     8
 71
     3
 72
     9
 73
     5
 74
     0
 42
0.000000001
 43
0.00000001
 40
0.0
 40
0.0
 40
0.0
 40
0.0
 40
0.5604030538294962
 40
1.0
 40
1.0
 40
1.0
 40
1.0
 10
127.3465909285835
 20
-1339.724794540921
 30
0.0
 10
127.3178936601606
 20
-1339.71147803426
 30
0.0
 10
127.2666853945618
 20
-1339.687715660785
 30
0.0
 10
127.2106622467173
 20
-1339.681839662996
 30
0.0
 10
127.1860346420101
 20
-1339.679256592313
 30
0.0
  0
LINE
  5
1D6
330
1F
100
AcDbEntity
  8
0
  6
Continuous
 62
     7
370
    25
100
AcDbLine
 10
127.5190662815
 20
-1339.4527589422
 30
0.0
 11
127.3465909286
 21
-1339.7247945409
 31
0.0
  0
SPLINE
  5
1D7
330
1F
100
AcDbEntity
  8
0
  6
Continuous
 62
     7
370
    25
100
AcDbSpline
210
0.0
220
0.0
230
1.0
 70
     8
 71
     3
 72
     9
 73
     5
 74
     0
 42
0.000000001
 43
0.00000001
 40
0.0
 40
0.0
 40
0.0
 40
0.0
 40
0.5592830389087571
 40
1.0
 40
1.0
 40
1.0
 40
1.0
 10
127.2456299735597
 20
-1339.365140114346
 30
0.0
 10
127.2999350003235
 20
-1339.371630052353
 30
0.0
 10
127.3970325752291
 20
-1339.383234083864
 30
0.0
 10
127.4817360315869
 20
-1339.43149120874
 30
0.0
 10
127.5190662814668
 20
-1339.452758942166
 30
0.0
  0
SPLINE
  5
1D8
330
1F
100
AcDbEntity
  8
0
  6
Continuous
 62
     7
370
    25
100
AcDbSpline
210
0.0
220
0.0
230
1.0
 70
     8
 71
     3
 72
    10
 73
     6
 74
     0
 42
0.000000001
 43
0.00000001
 40
0.0
 40
0.0
 40
0.0
 40
0.0
 40
0.5588109584386417
 40
0.7794841776110407
 40
1.0
 40
1.0
 40
1.0
 40
1.0
 10
126.6216308100513
 20
-1339.786544952908
 30
0.0
 10
126.7094933489438
 20
-1339.666391248251
 30
0.0
 10
126.8320526113154
 20
-1339.498789109733
 30
0.0
 10
127.0724798239118
 20
-1339.380710511503
 30
0.0
 10
127.1879269858283
 20
-1339.370329012178
 30
0.0
 10
127.2456299735597
 20
-1339.365140114346
 30
0.0
  0
LINE
  5
1D9
330
1F
100
AcDbEntity
  8
0
  6
Continuous
 62
     7
370
    25
100
AcDbLine
 10
126.6216308101
 20
-1339.4100224119
 30
0.0
 11
126.6216308101
 21
-1339.7865449529
 31
0.0
  0
LINE
  5
1DA
330
1F
100
AcDbEntity
  8
0
  6
Continuous
 62
     7
370
    25
100
AcDbLine
 10
126.3075273706
 20
-1339.4100224119
 30
0.0
 11
126.6216308101
 21
-1339.4100224119
 31
0.0
  0
LINE
  5
1DB
330
1F
100
AcDbEntity
  8
0
  6
Continuous
 62
     7
370
    25
100
AcDbLine
 10
126.3075273706
 20
-1341.9677173238
 30
0.0
 11
126.3075273706
 21
-1339.4100224119
 31
0.0
  0
LINE
  5
1DC
330
1F
100
AcDbEntity
  8
0
  6
Continuous
 62
     7
370
    25
100
AcDbLine
 10
126.6216308101
 20
-1341.9677173238
 30
0.0
 11
126.3075273706
 21
-1341.9677173238
 31
0.0
  0
LINE
  5
1DD
330
1F
100
AcDbEntity
  8
0
  6
Continuous
 62
     7
370
    25
100
AcDbLine
 10
124.6472716554
 20
-1339.7241388898
 30
0.0
 11
124.6472716554
 21
-1339.4100224119
 31
0.0
  0
LINE
  5
1DE
330
1F
100
AcDbEntity
  8
0
  6
Continuous
 62
     7
370
    25
100
AcDbLine
 10
125.0959893911
 20
-1339.7241388898
 30
0.0
 11
124.6472716554
 21
-1339.7241388898
 31
0.0
  0
LINE
  5
1DF
330
1F
100
AcDbEntity
  8
0
  6
Continuous
 62
     7
370
    25
100
AcDbLine
 10
125.0959893911
 20
-1341.9677173238
 30
0.0
 11
125.0959893911
 21
-1339.7241388898
 31
0.0
  0
LINE
  5
1E0
330
1F
100
AcDbEntity
  8
0
  6
Continuous
 62
     7
370
    25
100
AcDbLine
 10
125.4100918992
 20
-1341.9677173238
 30
0.0
 11
125.0959893911
 21
-1341.9677173238
 31
0.0
  0
LINE
  5
1E1
330
1F
100
AcDbEntity
  8
0
  6
Continuous
 62
     7
370
    25
100
AcDbLine
 10
125.4100918992
 20
-1339.7241388898
 30
0.0
 11
125.4100918992
 21
-1341.9677173238
 31
0.0
  0
LINE
  5
1E2
330
1F
100
AcDbEntity
  8
0
  6
Continuous
 62
     7
370
    25
100
AcDbLine
 10
125.8588105662
 20
-1339.7241388898
 30
0.0
 11
125.4100918992
 21
-1339.7241388898
 31
0.0
  0
LINE
  5
1E3
330
1F
100
AcDbEntity
  8
0
  6
Continuous
 62
     7
370
    25
100
AcDbLine
 10
125.8588105662
 20
-1339.4100224119
 30
0.0
 11
125.8588105662
 21
-1339.7241388898
 31
0.0
  0
LINE
  5
1E4
330
1F
100
AcDbEntity
  8
0
  6
Continuous
 62
     7
370
    25
100
AcDbLine
 10
125.4100918992
 20
-1339.4100224119
 30
0.0
 11
125.8588105662
 21
-1339.4100224119
 31
0.0
  0
LINE
  5
1E5
330
1F
100
AcDbEntity
  8
0
  6
Continuous
 62
     7
370
    25
100
AcDbLine
 10
125.4100918992
 20
-1338.3779679876
 30
0.0
 11
125.4100918992
 21
-1339.4100224119
 31
0.0
  0
LINE
  5
1E6
330
1F
100
AcDbEntity
  8
0
  6
Continuous
 62
     7
370
    25
100
AcDbLine
 10
125.0959893911
 20
-1338.3779679876
 30
0.0
 11
125.4100918992
 21
-1338.3779679876
 31
0.0
  0
LINE
  5
1E7
330
1F
100
AcDbEntity
  8
0
  6
Continuous
 62
     7
370
    25
100
AcDbLine
 10
125.0959893911
 20
-1339.4100224119
 30
0.0
 11
125.0959893911
 21
-1338.3779679876
 31
0.0
  0
LINE
  5
1E8
330
1F
100
AcDbEntity
  8
0
  6
Continuous
 62
     7
370
    25
100
AcDbLine
 10
124.6472716554
 20
-1339.4100224119
 30
0.0
 11
125.0959893911
 21
-1339.4100224119
 31
0.0
  0
SPLINE
  5
1E9
330
1F
100
AcDbEntity
  8
0
  6
Continuous
 62
     7
370
    25
100
AcDbSpline
210
0.0
220
0.0
230
1.0
 70
     8
 71
     3
 72
    11
 73
     7
 74
     0
 42
0.000000001
 43
0.00000001
 40
0.0
 40
0.0
 40
0.0
 40
0.0
 40
0.279451593881041
 40
0.5593596640984168
 40
0.7796703497005723
 40
1.0
 40
1.0
 40
1.0
 40
1.0
 10
124.1088098137072
 20
-1341.720894489804
 30
0.0
 10
124.103724933489
 20
-1341.763881611715
 30
0.0
 10
124.0935468670433
 20
-1341.849926073792
 30
0.0
 10
124.0138663483635
 20
-1341.944691333024
 30
0.0
 10
123.9184571965645
 20
-1342.00341936682
 30
0.0
 10
123.8509158996401
 20
-1342.009539448696
 30
0.0
 10
123.8171437977246
 20
-1342.012599621335
 30
0.0
  0
SPLINE
  5
1EA
330
1F
100
AcDbEntity
  8
0
  6
Continuous
 62
     7
370
    25
100
AcDbSpline
210
0.0
220
0.0
230
1.0
 70
     8
 71
     3
 72
    11
 73
     7
 74
     0
 42
0.000000001
 43
0.00000001
 40
0.0
 40
0.0
 40
0.0
 40
0.0
 40
0.2796198712742329
 40
0.5592050216586586
 40
0.77947376738954
 40
0.9999999999999999
 40
0.9999999999999999
 40
0.9999999999999999
 40
0.9999999999999999
 10
123.8171437977246
 20
-1341.429248962918
 30
0.0
 10
123.8602843320729
 20
-1341.434149093594
 30
0.0
 10
123.9465600439337
 20
-1341.443948746486
 30
0.0
 10
124.0408936452845
 20
-1341.524188742108
 30
0.0
 10
124.1007662515945
 20
-1341.619139306167
 30
0.0
 10
124.1061275824101
 20
-1341.686962889056
 30
0.0
 10
124.1088098137072
 20
-1341.720894489804
 30
0.0
  0
SPLINE
  5
1EB
330
1F
100
AcDbEntity
  8
0
  6
Continuous
 62
     7
370
    25
100
AcDbSpline
210
0.0
220
0.0
230
1.0
 70
     8
 71
     3
 72
    11
 73
     7
 74
     0
 42
0.000000001
 43
0.00000001
 40
0.0
 40
0.0
 40
0.0
 40
0.0
 40
0.279538181945317
 40
0.5592820985643898
 40
0.7795298187262306
 40
1.0
 40
1.0
 40
1.0
 40
1.0
 10
123.5254768504194
 20
-1341.720894489804
 30
0.0
 10
123.5305928132218
 20
-1341.677898816112
 30
0.0
 10
123.5408285040759
 20
-1341.591875824746
 30
0.0
 10
123.6199914626063
 20
-1341.496599900028
 30
0.0
 10
123.7157363444862
 20
-1341.438185699013
 30
0.0
 10
123.7833299402419
 20
-1341.432228877224
 30
0.0
 10
123.8171437977246
 20
-1341.429248962918
 30
0.0
  0
SPLINE
  5
1EC
330
1F
100
AcDbEntity
  8
0
  6
Continuous
 62
     7
370
    25
100
AcDbSpline
210
0.0
220
0.0
230
1.0
 70
     8
 71
     3
 72
    11
 73
     7
 74
     0
 42
0.000000001
 43
0.00000001
 40
0.0
 40
0.0
 40
0.0
 40
0.0
 40
0.2795908534620018
 40
0.5591216580054372
 40
0.7795691873501193
 40
1.0
 40
1.0
 40
1.0
 40
1.0
 10
123.8171437977246
 20
-1342.012599621335
 30
0.0
 10
123.7742335947447
 20
-1342.007286903568
 30
0.0
 10
123.688422404792
 20
-1341.996662609068
 30
0.0
 10
123.5934936205565
 20
-1341.917505823021
 30
0.0
 10
123.5349048520131
 20
-1341.822117186613
 30
0.0
 10
123.5286194381764
 20
-1341.754634535832
 30
0.0
 10
123.5254768504194
 20
-1341.720894489804
 30
0.0
  0
LINE
  5
1ED
330
1F
100
AcDbEntity
  8
0
  6
Continuous
 62
     7
370
    25
100
AcDbLine
 10
119.2626560329
 20
-1340.8914958578
 30
0.0
 11
119.2626560329
 21
-1341.9677173238
 31
0.0
  0
SPLINE
  5
1EE
330
1F
100
AcDbEntity
  8
0
  6
Continuous
 62
     7
370
    25
100
AcDbSpline
210
0.0
220
0.0
230
1.0
 70
     8
 71
     3
 72
    11
 73
     7
 74
     0
 42
0.000000001
 43
0.00000001
 40
0.0
 40
0.0
 40
0.0
 40
0.0
 40
0.1865364377527526
 40
0.3733470172974126
 40
0.560114221064338
 40
1.0
 40
1.0
 40
1.0
 40
1.0
 10
120.0899796782426
 20
-1339.679256592313
 30
0.0
 10
119.9868906152375
 20
-1339.692279647245
 30
0.0
 10
119.7805609852061
 20
-1339.718344896339
 30
0.0
 10
119.5210085880369
 20
-1339.90450607667
 30
0.0
 10
119.2682160331509
 20
-1340.286826357798
 30
0.0
 10
119.2649492125972
 20
-1340.642104533638
 30
0.0
 10
119.2626560328892
 20
-1340.891495857755
 30
0.0
  0
SPLINE
  5
1EF
330
1F
100
AcDbEntity
  8
0
  6
Continuous
 62
     7
370
    25
100
AcDbSpline
210
0.0
220
0.0
230
1.0
 70
     8
 71
     3
 72
    11
 73
     7
 74
     0
 42
0.000000001
 43
0.00000001
 40
0.0
 40
0.0
 40
0.0
 40
0.0
 40
0.5005335179786422
 40
0.6258912304373581
 40
0.7513706554631252
 40
1.0
 40
1.0
 40
1.0
 40
1.0
 10
120.6985533459476
 20
-1340.66714397482
 30
0.0
 10
120.7081199138957
 20
-1340.437342978945
 30
0.0
 10
120.7200824114489
 20
-1340.149988740122
 30
0.0
 10
120.5448123822561
 20
-1339.861332293132
 30
0.0
 10
120.3701478962883
 20
-1339.716254116694
 30
0.0
 10
120.2018373577962
 20
-1339.694027922392
 30
0.0
 10
120.0899796782426
 20
-1339.679256592313
 30
0.0
  0
LINE
  5
1F0
330
1F
100
AcDbEntity
  8
0
  6
Continuous
 62
     7
370
    25
100
AcDbLine
 10
120.6985533459
 20
-1341.9677173238
 30
0.0
 11
120.6985533459
 21
-1340.6671439748
 31
0.0
  0
LINE
  5
1F1
330
1F
100
AcDbEntity
  8
0
  6
Continuous
 62
     7
370
    25
100
AcDbLine
 10
121.0126567854
 20
-1341.9677173238
 30
0.0
 11
120.6985533459
 21
-1341.9677173238
 31
0.0
  0
LINE
  5
1F2
330
1F
100
AcDbEntity
  8
0
  6
Continuous
 62
     7
370
    25
100
AcDbLine
 10
121.0126567854
 20
-1340.9727965932
 30
0.0
 11
121.0126567854
 21
-1341.9677173238
 31
0.0
  0
SPLINE
  5
1F3
330
1F
100
AcDbEntity
  8
0
  6
Continuous
 62
     7
370
    25
100
AcDbSpline
210
0.0
220
0.0
230
1.0
 70
     8
 71
     3
 72
    12
 73
     8
 74
     0
 42
0.000000001
 43
0.00000001
 40
0.0
 40
0.0
 40
0.0
 40
0.0
 40
0.1253158166480626
 40
0.2506584877849647
 40
0.3760827801459859
 40
0.5015234954638446
 40
1.0
 40
1.0
 40
1.0
 40
1.0
 10
121.8420833571247
 20
-1339.679256592313
 30
0.0
 10
121.7693381815536
 20
-1339.684879138093
 30
0.0
 10
121.6238322415214
 20
-1339.696125434535
 30
0.0
 10
121.4239703820627
 20
-1339.792074688921
 30
0.0
 10
121.2546764140876
 20
-1339.931211721481
 30
0.0
 10
121.0079557955678
 20
-1340.297378414238
 30
0.0
 10
121.0105689859676
 20
-1340.672830471138
 30
0.0
 10
121.0126567853979
 20
-1340.972796593228
 30
0.0
  0
SPLINE
  5
1F4
330
1F
100
AcDbEntity
  8
0
  6
Continuous
 62
     7
370
    25
100
AcDbSpline
210
0.0
220
0.0
230
1.0
 70
     8
 71
     3
 72
    11
 73
     7
 74
     0
 42
0.000000001
 43
0.00000001
 40
0.0
 40
0.0
 40
0.0
 40
0.0
 40
0.4994726970820327
 40
0.6249416688367843
 40
0.75056006077207
 40
1.0
 40
1.0
 40
1.0
 40
1.0
 10
122.4485540984563
 20
-1340.58089605383
 30
0.0
 10
122.4557909666941
 20
-1340.362960407745
 30
0.0
 10
122.4648457569561
 20
-1340.090278703301
 30
0.0
 10
122.2766571162893
 20
-1339.834628066205
 30
0.0
 10
122.105655478896
 20
-1339.708606824147
 30
0.0
 10
121.9473605326654
 20
-1339.690979795389
 30
0.0
 10
121.8420833571247
 20
-1339.679256592313
 30
0.0
  0
LINE
  5
1F5
330
1F
100
AcDbEntity
  8
0
  6
Continuous
 62
     7
370
    25
100
AcDbLine
 10
122.4485540985
 20
-1341.9677173238
 30
0.0
 11
122.4485540985
 21
-1340.5808960538
 31
0.0
  0
LINE
  5
1F6
330
1F
100
AcDbEntity
  8
0
  6
Continuous
 62
     7
370
    25
100
AcDbLine
 10
122.7626566066
 20
-1341.9677173238
 30
0.0
 11
122.4485540985
 21
-1341.9677173238
 31
0.0
  0
LINE
  5
1F7
330
1F
100
AcDbEntity
  8
0
  6
Continuous
 62
     7
370
    25
100
AcDbLine
 10
122.7626566066
 20
-1340.5822669607
 30
0.0
 11
122.7626566066
 21
-1341.9677173238
 31
0.0
  0
SPLINE
  5
1F8
330
1F
100
AcDbEntity
  8
0
  6
Continuous
 62
     7
370
    25
100
AcDbSpline
210
0.0
220
0.0
230
1.0
 70
     8
 71
     3
 72
    11
 73
     7
 74
     0
 42
0.000000001
 43
0.00000001
 40
0.0
 40
0.0
 40
0.0
 40
0.0
 40
0.1868875420996407
 40
0.3735890657153582
 40
0.560272277510924
 40
0.9999999999999999
 40
0.9999999999999999
 40
0.9999999999999999
 40
0.9999999999999999
 10
121.8967706187061
 20
-1339.365140114346
 30
0.0
 10
122.0029068228488
 20
-1339.374817499287
 30
0.0
 10
122.215073588481
 20
-1339.394162636784
 30
0.0
 10
122.4910792934572
 20
-1339.57174207955
 30
0.0
 10
122.7544985791253
 20
-1339.962723492695
 30
0.0
 10
122.7592918370846
 20
-1340.326736935161
 30
0.0
 10
122.7626566065839
 20
-1340.58226696066
 30
0.0
  0
SPLINE
  5
1F9
330
1F
100
AcDbEntity
  8
0
  6
Continuous
 62
     7
370
    25
100
AcDbSpline
210
0.0
220
0.0
230
1.0
 70
     8
 71
     3
 72
    10
 73
     6
 74
     0
 42
0.000000001
 43
0.00000001
 40
0.0
 40
0.0
 40
0.0
 40
0.0
 40
0.2812601703579303
 40
0.562083763878314
 40
1.0
 40
1.0
 40
1.0
 40
1.0
 10
120.9586698783926
 20
-1339.982823048154
 30
0.0
 10
121.0167550794625
 20
-1339.889220540254
 30
0.0
 10
121.1328353207616
 20
-1339.702160815868
 30
0.0
 10
121.4402774703258
 20
-1339.439314597759
 30
0.0
 10
121.7239398462136
 20
-1339.393222974545
 30
0.0
 10
121.8967706187061
 20
-1339.365140114346
 30
0.0
  0
SPLINE
  5
1FA
330
1F
100
AcDbEntity
  8
0
  6
Continuous
 62
     7
370
    25
100
AcDbSpline
210
0.0
220
0.0
230
1.0
 70
     8
 71
     3
 72
    10
 73
     6
 74
     0
 42
0.000000001
 43
0.00000001
 40
0.0
 40
0.0
 40
0.0
 40
0.0
 40
0.2808136275785158
 40
0.5615130053763964
 40
1.0
 40
1.0
 40
1.0
 40
1.0
 10
120.1446678711466
 20
-1339.365140114346
 30
0.0
 10
120.2468541435626
 20
-1339.375643171927
 30
0.0
 10
120.4511851136346
 20
-1339.396645013891
 30
0.0
 10
120.7853619634956
 20
-1339.584024582156
 30
0.0
 10
120.8930267799929
 20
-1339.83177185721
 30
0.0
 10
120.9586698783926
 20
-1339.982823048154
 30
0.0
  0
SPLINE
  5
1FB
330
1F
100
AcDbEntity
  8
0
  6
Continuous
 62
     7
370
    25
100
AcDbSpline
210
0.0
220
0.0
230
1.0
 70
     8
 71
     3
 72
     9
 73
     5
 74
     0
 42
0.000000001
 43
0.00000001
 40
0.0
 40
0.0
 40
0.0
 40
0.0
 40
0.5597354287968993
 40
1.0
 40
1.0
 40
1.0
 40
1.0
 10
119.6174238099149
 20
-1339.494839821378
 30
0.0
 10
119.7117945451594
 20
-1339.453286174912
 30
0.0
 10
119.8803933695136
 20
-1339.379048161152
 30
0.0
 10
120.0638836163175
 20
-1339.36939156952
 30
0.0
 10
120.1446678711466
 20
-1339.365140114346
 30
0.0
  0
SPLINE
  5
1FC
330
1F
100
AcDbEntity
  8
0
  6
Continuous
 62
     7
370
    25
100
AcDbSpline
210
0.0
220
0.0
230
1.0
 70
     8
 71
     3
 72
     9
 73
     5
 74
     0
 42
0.000000001
 43
0.00000001
 40
0.0
 40
0.0
 40
0.0
 40
0.0
 40
0.5601512662615792
 40
1.0
 40
1.0
 40
1.0
 40
1.0
 10
119.2626560328892
 20
-1339.854553852597
 30
0.0
 10
119.3193533771278
 20
-1339.777747516317
 30
0.0
 10
119.4205712938825
 20
-1339.640630382239
 30
0.0
 10
119.5572887916445
 20
-1339.539376300858
 30
0.0
 10
119.6174238099149
 20
-1339.494839821378
 30
0.0
  0
LINE
  5
1FD
330
1F
100
AcDbEntity
  8
0
  6
Continuous
 62
     7
370
    25
100
AcDbLine
 10
119.2626560329
 20
-1339.4100224119
 30
0.0
 11
119.2626560329
 21
-1339.8545538526
 31
0.0
  0
LINE
  5
1FE
330
1F
100
AcDbEntity
  8
0
  6
Continuous
 62
     7
370
    25
100
AcDbLine
 10
118.9485535248
 20
-1339.4100224119
 30
0.0
 11
119.2626560329
 21
-1339.4100224119
 31
0.0
  0
LINE
  5
1FF
330
1F
100
AcDbEntity
  8
0
  6
Continuous
 62
     7
370
    25
100
AcDbLine
 10
118.9485535248
 20
-1341.9677173238
 30
0.0
 11
118.9485535248
 21
-1339.4100224119
 31
0.0
  0
LINE
  5
200
330
1F
100
AcDbEntity
  8
0
  6
Continuous
 62
     7
370
    25
100
AcDbLine
 10
119.2626560329
 20
-1341.9677173238
 30
0.0
 11
118.9485535248
 21
-1341.9677173238
 31
0.0
  0
SPLINE
  5
201
330
1F
100
AcDbEntity
  8
0
  6
Continuous
 62
     7
370
    25
100
AcDbSpline
210
0.0
220
0.0
230
1.0
 70
     8
 71
     3
 72
    11
 73
     7
 74
     0
 42
0.000000001
 43
0.00000001
 40
0.0
 40
0.0
 40
0.0
 40
0.0
 40
0.2797815837260289
 40
0.559178109276669
 40
0.7795823906250966
 40
0.9999999999999999
 40
0.9999999999999999
 40
0.9999999999999999
 40
0.9999999999999999
 10
116.9980329683415
 20
-1342.012599621335
 30
0.0
 10
116.8019872055077
 20
-1341.992790024929
 30
0.0
 10
116.4101654939671
 20
-1341.953198095697
 30
0.0
 10
115.9791721199489
 20
-1341.589980801161
 30
0.0
 10
115.7151625034013
 20
-1341.155885458722
 30
0.0
 10
115.6869962851598
 20
-1340.849213852662
 30
0.0
 10
115.6729127502433
 20
-1340.695873413602
 30
0.0
  0
SPLINE
  5
202
330
1F
100
AcDbEntity
  8
0
  6
Continuous
 62
     7
370
    25
100
AcDbSpline
210
0.0
220
0.0
230
1.0
 70
     8
 71
     3
 72
    11
 73
     7
 74
     0
 42
0.000000001
 43
0.00000001
 40
0.0
 40
0.0
 40
0.0
 40
0.0
 40
0.2795303131804096
 40
0.5593752351390869
 40
0.7795066962495495
 40
1.0
 40
1.0
 40
1.0
 40
1.0
 10
118.3203485085062
 20
-1340.695873413602
 30
0.0
 10
118.2963346379572
 20
-1340.890345171532
 30
0.0
 10
118.2482798694705
 20
-1341.279507563556
 30
0.0
 10
117.8955595465998
 20
-1341.716349621333
 30
0.0
 10
117.4580325455222
 20
-1341.977491880693
 30
0.0
 10
117.1514500829416
 20
-1342.000890636073
 30
0.0
 10
116.9980329683415
 20
-1342.012599621335
 30
0.0
  0
SPLINE
  5
203
330
1F
100
AcDbEntity
  8
0
  6
Continuous
 62
     7
370
    25
100
AcDbSpline
210
0.0
220
0.0
230
1.0
 70
     8
 71
     3
 72
     9
 73
     5
 74
     0
 42
0.000000001
 43
0.00000001
 40
0.0
 40
0.0
 40
0.0
 40
0.0
 40
0.5591891192963335
 40
1.0
 40
1.0
 40
1.0
 40
1.0
 10
117.96978751555
 20
-1339.786544952908
 30
0.0
 10
118.0828311575987
 20
-1339.938896621584
 30
0.0
 10
118.2849875267907
 20
-1340.211347682269
 30
0.0
 10
118.3095299439733
 20
-1340.547634517565
 30
0.0
 10
118.3203485085062
 20
-1340.695873413602
 30
0.0
  0
SPLINE
  5
204
330
1F
100
AcDbEntity
  8
0
  6
Continuous
 62
     7
370
    25
100
AcDbSpline
210
0.0
220
0.0
230
1.0
 70
     8
 71
     3
 72
     9
 73
     5
 74
     0
 42
0.000000001
 43
0.00000001
 40
0.0
 40
0.0
 40
0.0
 40
0.0
 40
0.5591608504445613
 40
1.0
 40
1.0
 40
1.0
 40
1.0
 10
116.9980329683415
 20
-1339.365140114346
 30
0.0
 10
117.2056124729637
 20
-1339.386790730543
 30
0.0
 10
117.5768464469753
 20
-1339.425510566131
 30
0.0
 10
117.8495632652933
 20
-1339.676082871089
 30
0.0
 10
117.96978751555
 20
-1339.786544952908
 30
0.0
  0
SPLINE
  5
205
330
1F
100
AcDbEntity
  8
0
  6
Continuous
 62
     7
370
    25
100
AcDbSpline
210
0.0
220
0.0
230
1.0
 70
     8
 71
     3
 72
     9
 73
     5
 74
     0
 42
0.000000001
 43
0.00000001
 40
0.0
 40
0.0
 40
0.0
 40
0.0
 40
0.5588891449857749
 40
1.0
 40
1.0
 40
1.0
 40
1.0
 10
116.0234737431995
 20
-1339.788631115475
 30
0.0
 10
116.1815158166804
 20
-1339.65154187063
 30
0.0
 10
116.4642947450222
 20
-1339.406253075748
 30
0.0
 10
116.8346605787554
 20
-1339.377724415889
 30
0.0
 10
116.9980329683415
 20
-1339.365140114346
 30
0.0
  0
SPLINE
  5
206
330
1F
100
AcDbEntity
  8
0
  6
Continuous
 62
     7
370
    25
100
AcDbSpline
210
0.0
220
0.0
230
1.0
 70
     8
 71
     3
 72
     9
 73
     5
 74
     0
 42
0.000000001
 43
0.00000001
 40
0.0
 40
0.0
 40
0.0
 40
0.0
 40
0.5593082813641793
 40
1.0
 40
1.0
 40
1.0
 40
1.0
 10
115.6729127502433
 20
-1340.695873413602
 30
0.0
 10
115.691432284323
 20
-1340.507382409774
 30
0.0
 10
115.7245437806065
 20
-1340.170375056034
 30
0.0
 10
115.9320343621974
 20
-1339.905402379631
 30
0.0
 10
116.0234737431995
 20
-1339.788631115475
 30
0.0
  0
LINE
  5
207
330
1F
100
AcDbEntity
  8
0
  6
Continuous
 62
     7
370
    25
100
AcDbLine
 10
103.1536821498
 20
-1339.4100224119
 30
0.0
 11
103.1536821498
 21
-1341.9677173238
 31
0.0
  0
LINE
  5
208
330
1F
100
AcDbEntity
  8
0
  6
Continuous
 62
     7
370
    25
100
AcDbLine
 10
102.5254766679
 20
-1339.4100224119
 30
0.0
 11
103.1536821498
 21
-1339.4100224119
 31
0.0
  0
LINE
  5
209
330
1F
100
AcDbEntity
  8
0
  6
Continuous
 62
     7
370
    25
100
AcDbLine
 10
102.5254766679
 20
-1341.9677173238
 30
0.0
 11
102.5254766679
 21
-1339.4100224119
 31
0.0
  0
LINE
  5
20A
330
1F
100
AcDbEntity
  8
0
  6
Continuous
 62
     7
370
    25
100
AcDbLine
 10
103.1536821498
 20
-1341.9677173238
 30
0.0
 11
102.5254766679
 21
-1341.9677173238
 31
0.0
  0
SPLINE
  5
20B
330
1F
100
AcDbEntity
  8
0
  6
Continuous
 62
     7
370
    25
100
AcDbSpline
210
0.0
220
0.0
230
1.0
 70
     8
 71
     3
 72
    11
 73
     7
 74
     0
 42
0.000000001
 43
0.00000001
 40
0.0
 40
0.0
 40
0.0
 40
0.0
 40
0.2798941664271746
 40
0.5595644096902928
 40
0.7798055371967896
 40
0.9999999999999999
 40
0.9999999999999999
 40
0.9999999999999999
 40
0.9999999999999999
 10
103.2434253244094
 20
-1338.761464272061
 30
0.0
 10
103.2369869399974
 20
-1338.8223316339
 30
0.0
 10
103.2241153220611
 20
-1338.944017661986
 30
0.0
 10
103.117122946767
 20
-1339.081211120357
 30
0.0
 10
102.9866183804537
 20
-1339.171997718239
 30
0.0
 10
102.8909261738081
 20
-1339.181113247298
 30
0.0
 10
102.84308513984
 20
-1339.185670528928
 30
0.0
  0
SPLINE
  5
20C
330
1F
100
AcDbEntity
  8
0
  6
Continuous
 62
     7
370
    25
100
AcDbSpline
210
0.0
220
0.0
230
1.0
 70
     8
 71
     3
 72
    11
 73
     7
 74
     0
 42
0.000000001
 43
0.00000001
 40
0.0
 40
0.0
 40
0.0
 40
0.0
 40
0.2791954324877156
 40
0.5588671931932876
 40
0.7793236703092731
 40
1.0
 40
1.0
 40
1.0
 40
1.0
 10
102.8381770698718
 20
-1338.33308569006
 30
0.0
 10
102.8995780289573
 20
-1338.341328506053
 30
0.0
 10
103.0224847017409
 20
-1338.357828200898
 30
0.0
 10
103.1527220186902
 20
-1338.478124566415
 30
0.0
 10
103.2325216179564
 20
-1338.616392326637
 30
0.0
 10
103.2397895481902
 20
-1338.71309089265
 30
0.0
 10
103.2434253244094
 20
-1338.761464272061
 30
0.0
  0
SPLINE
  5
20D
330
1F
100
AcDbEntity
  8
0
  6
Continuous
 62
     7
370
    25
100
AcDbSpline
210
0.0
220
0.0
230
1.0
 70
     8
 71
     3
 72
    11
 73
     7
 74
     0
 42
0.000000001
 43
0.00000001
 40
0.0
 40
0.0
 40
0.0
 40
0.0
 40
0.2797302834352455
 40
0.5596303621375275
 40
0.7798169164119535
 40
1.0
 40
1.0
 40
1.0
 40
1.0
 10
102.4357330276064
 20
-1338.752344761411
 30
0.0
 10
102.4423502881655
 20
-1338.691749712508
 30
0.0
 10
102.4555888259368
 20
-1338.570522833727
 30
0.0
 10
102.5628162182552
 20
-1338.43346183778
 30
0.0
 10
102.6954049627819
 20
-1338.346890263945
 30
0.0
 10
102.7905866175603
 20
-1338.337687190511
 30
0.0
 10
102.8381770698718
 20
-1338.33308569006
 30
0.0
  0
SPLINE
  5
20E
330
1F
100
AcDbEntity
  8
0
  6
Continuous
 62
     7
370
    25
100
AcDbSpline
210
0.0
220
0.0
230
1.0
 70
     8
 71
     3
 72
    11
 73
     7
 74
     0
 42
0.000000001
 43
0.00000001
 40
0.0
 40
0.0
 40
0.0
 40
0.0
 40
0.2792977076486441
 40
0.5589398019896165
 40
0.7793956028013567
 40
1.0
 40
1.0
 40
1.0
 40
1.0
 10
102.84308513984
 20
-1339.185670528928
 30
0.0
 10
102.7810679849485
 20
-1339.177521605754
 30
0.0
 10
102.6569572052116
 20
-1339.161213711416
 30
0.0
 10
102.525275470396
 20
-1339.039329381811
 30
0.0
 10
102.4474978854871
 20
-1338.898460384932
 30
0.0
 10
102.4396555276157
 20
-1338.801060907448
 30
0.0
 10
102.4357330276064
 20
-1338.752344761411
 30
0.0
  0
LINE
  5
20F
330
1F
100
AcDbEntity
  8
0
  6
Continuous
 62
     7
370
    25
100
AcDbLine
 10
101.9870152919
 20
-1338.3779679876
 30
0.0
 11
101.9870152919
 21
-1341.9677173238
 31
0.0
  0
LINE
  5
210
330
1F
100
AcDbEntity
  8
0
  6
Continuous
 62
     7
370
    25
100
AcDbLine
 10
101.3588102756
 20
-1338.3779679876
 30
0.0
 11
101.9870152919
 21
-1338.3779679876
 31
0.0
  0
LINE
  5
211
330
1F
100
AcDbEntity
  8
0
  6
Continuous
 62
     7
370
    25
100
AcDbLine
 10
101.3588102756
 20
-1341.9677173238
 30
0.0
 11
101.3588102756
 21
-1338.3779679876
 31
0.0
  0
LINE
  5
212
330
1F
100
AcDbEntity
  8
0
  6
Continuous
 62
     7
370
    25
100
AcDbLine
 10
101.9870152919
 20
-1341.9677173238
 30
0.0
 11
101.3588102756
 21
-1341.9677173238
 31
0.0
  0
LINE
  5
213
330
1F
100
AcDbEntity
  8
0
  6
Continuous
 62
     7
370
    25
100
AcDbLine
 10
99.1152206658
 20
-1340.9496699911
 30
0.0
 11
99.1152206658
 21
-1341.9677173238
 31
0.0
  0
SPLINE
  5
214
330
1F
100
AcDbEntity
  8
0
  6
Continuous
 62
     7
370
    25
100
AcDbSpline
210
0.0
220
0.0
230
1.0
 70
     8
 71
     3
 72
     9
 73
     5
 74
     0
 42
0.000000001
 43
0.00000001
 40
0.0
 40
0.0
 40
0.0
 40
0.0
 40
0.5597245600188036
 40
1.0
 40
1.0
 40
1.0
 40
1.0
 10
99.14466722294604
 20
-1340.435043488065
 30
0.0
 10
99.13381996900736
 20
-1340.530778363878
 30
0.0
 10
99.11444034068029
 20
-1340.701817626135
 30
0.0
 10
99.11498212947978
 20
-1340.873904407621
 30
0.0
 10
99.11522066578185
 20
-1340.949669991055
 30
0.0
  0
SPLINE
  5
215
330
1F
100
AcDbEntity
  8
0
  6
Continuous
 62
     7
370
    25
100
AcDbSpline
210
0.0
220
0.0
230
1.0
 70
     8
 71
     3
 72
    10
 73
     6
 74
     0
 42
0.000000001
 43
0.00000001
 40
0.0
 40
0.0
 40
0.0
 40
0.0
 40
0.2804048938505088
 40
0.5608008564312599
 40
1.0
 40
1.0
 40
1.0
 40
1.0
 10
99.69364555910145
 20
-1339.948490772763
 30
0.0
 10
99.61926329300513
 20
-1339.956644829824
 30
0.0
 10
99.47050112998684
 20
-1339.972952684229
 30
0.0
 10
99.2499254662349
 20
-1340.14257586723
 30
0.0
 10
99.18456156166688
 20
-1340.324194190509
 30
0.0
 10
99.14466722294604
 20
-1340.435043488065
 30
0.0
  0
SPLINE
  5
216
330
1F
100
AcDbEntity
  8
0
  6
Continuous
 62
     7
370
    25
100
AcDbSpline
210
0.0
220
0.0
230
1.0
 70
     8
 71
     3
 72
    12
 73
     8
 74
     0
 42
0.000000001
 43
0.00000001
 40
0.0
 40
0.0
 40
0.0
 40
0.0
 40
0.5005298764194559
 40
0.6255214138645281
 40
0.7502736275728246
 40
0.8750074307461646
 40
1.0
 40
1.0
 40
1.0
 40
1.0
 10
100.1472713647774
 20
-1340.857103977719
 30
0.0
 10
100.1533529774584
 20
-1340.661868683741
 30
0.0
 10
100.1609532809407
 20
-1340.41787953768
 30
0.0
 10
100.067322764514
 20
-1340.13980256746
 30
0.0
 10
99.97096630425469
 20
-1340.027344305126
 30
0.0
 10
99.8390474057166
 20
-1339.958234849012
 30
0.0
 10
99.74214631089465
 20
-1339.951741041137
 30
0.0
 10
99.69364555910145
 20
-1339.948490772763
 30
0.0
  0
LINE
  5
217
330
1F
100
AcDbEntity
  8
0
  6
Continuous
 62
     7
370
    25
100
AcDbLine
 10
100.1472713648
 20
-1341.9677173238
 30
0.0
 11
100.1472713648
 21
-1340.8571039777
 31
0.0
  0
LINE
  5
218
330
1F
100
AcDbEntity
  8
0
  6
Continuous
 62
     7
370
    25
100
AcDbLine
 10
100.775476381
 20
-1341.9677173238
 30
0.0
 11
100.1472713648
 21
-1341.9677173238
 31
0.0
  0
LINE
  5
219
330
1F
100
AcDbEntity
  8
0
  6
Continuous
 62
     7
370
    25
100
AcDbLine
 10
100.775476381
 20
-1340.2906214338
 30
0.0
 11
100.775476381
 21
-1341.9677173238
 31
0.0
  0
SPLINE
  5
21A
330
1F
100
AcDbEntity
  8
0
  6
Continuous
 62
     7
370
    25
100
AcDbSpline
210
0.0
220
0.0
230
1.0
 70
     8
 71
     3
 72
     9
 73
     5
 74
     0
 42
0.000000001
 43
0.00000001
 40
0.0
 40
0.0
 40
0.0
 40
0.0
 40
0.5575962774921689
 40
0.9999999999999999
 40
0.9999999999999999
 40
0.9999999999999999
 40
0.9999999999999999
 10
100.5476124806694
 20
-1339.628771458188
 30
0.0
 10
100.62524699888
 20
-1339.740529735232
 30
0.0
 10
100.7644776956125
 20
-1339.940958399403
 30
0.0
 10
100.7721029431411
 20
-1340.183375296222
 30
0.0
 10
100.7754763810328
 20
-1340.290621433774
 30
0.0
  0
SPLINE
  5
21B
330
1F
100
AcDbEntity
  8
0
  6
Continuous
 62
     7
370
    25
100
AcDbSpline
210
0.0
220
0.0
230
1.0
 70
     8
 71
     3
 72
     9
 73
     5
 74
     0
 42
0.000000001
 43
0.00000001
 40
0.0
 40
0.0
 40
0.0
 40
0.0
 40
0.5593236147204654
 40
1.0
 40
1.0
 40
1.0
 40
1.0
 10
99.88925869002854
 20
-1339.365140114346
 30
0.0
 10
100.0272463438444
 20
-1339.378733203005
 30
0.0
 10
100.2739508458254
 20
-1339.403035929192
 30
0.0
 10
100.4639044243252
 20
-1339.559723115366
 30
0.0
 10
100.5476124806694
 20
-1339.628771458188
 30
0.0
  0
SPLINE
  5
21C
330
1F
100
AcDbEntity
  8
0
  6
Continuous
 62
     7
370
    25
100
AcDbSpline
210
0.0
220
0.0
230
1.0
 70
     8
 71
     3
 72
     9
 73
     5
 74
     0
 42
0.000000001
 43
0.00000001
 40
0.0
 40
0.0
 40
0.0
 40
0.0
 40
0.5603787739813088
 40
1.0
 40
1.0
 40
1.0
 40
1.0
 10
99.11522066578185
 20
-1339.680627499142
 30
0.0
 10
99.24511703710671
 20
-1339.583247715085
 30
0.0
 10
99.47691805698116
 20
-1339.409472781811
 30
0.0
 10
99.76334105880625
 20
-1339.378678107029
 30
0.0
 10
99.88925869002854
 20
-1339.365140114346
 30
0.0
  0
LINE
  5
21D
330
1F
100
AcDbEntity
  8
0
  6
Continuous
 62
     7
370
    25
100
AcDbLine
 10
99.1152206658
 20
-1339.4100224119
 30
0.0
 11
99.1152206658
 21
-1339.6806274991
 31
0.0
  0
LINE
  5
21E
330
1F
100
AcDbEntity
  8
0
  6
Continuous
 62
     7
370
    25
100
AcDbLine
 10
98.4870156495
 20
-1339.4100224119
 30
0.0
 11
99.1152206658
 21
-1339.4100224119
 31
0.0
  0
LINE
  5
21F
330
1F
100
AcDbEntity
  8
0
  6
Continuous
 62
     7
370
    25
100
AcDbLine
 10
98.4870156495
 20
-1341.9677173238
 30
0.0
 11
98.4870156495
 21
-1339.4100224119
 31
0.0
  0
LINE
  5
220
330
1F
100
AcDbEntity
  8
0
  6
Continuous
 62
     7
370
    25
100
AcDbLine
 10
99.1152206658
 20
-1341.9677173238
 30
0.0
 11
98.4870156495
 21
-1341.9677173238
 31
0.0
  0
SPLINE
  5
221
330
1F
100
AcDbEntity
  8
0
  6
Continuous
 62
     7
370
    25
100
AcDbSpline
210
0.0
220
0.0
230
1.0
 70
     8
 71
     3
 72
    11
 73
     7
 74
     0
 42
0.000000001
 43
0.00000001
 40
0.0
 40
0.0
 40
0.0
 40
0.0
 40
0.2795297885442202
 40
0.5592713151259983
 40
0.7795732244209892
 40
1.0
 40
1.0
 40
1.0
 40
1.0
 10
96.6122158093742
 20
-1342.012599621335
 30
0.0
 10
96.41792868405508
 20
-1341.989627592992
 30
0.0
 10
96.02920726493491
 20
-1341.94366613547
 30
0.0
 10
95.60197006045992
 20
-1341.582009173706
 30
0.0
 10
95.34025042495132
 20
-1341.148914702203
 30
0.0
 10
95.31416432784201
 20
-1340.843657617477
 30
0.0
 10
95.30111758395945
 20
-1340.69098583273
 30
0.0
  0
SPLINE
  5
222
330
1F
100
AcDbEntity
  8
0
  6
Continuous
 62
     7
370
    25
100
AcDbSpline
210
0.0
220
0.0
230
1.0
 70
     8
 71
     3
 72
    11
 73
     7
 74
     0
 42
0.000000001
 43
0.00000001
 40
0.0
 40
0.0
 40
0.0
 40
0.0
 40
0.2795777626263263
 40
0.5591147524859418
 40
0.7795161786422709
 40
1.0
 40
1.0
 40
1.0
 40
1.0
 10
97.94855380788361
 20
-1340.686753902951
 30
0.0
 10
97.92349028797378
 20
-1340.882421991874
 30
0.0
 10
97.87336690334124
 20
-1341.273729634082
 30
0.0
 10
97.51820193293156
 20
-1341.714831625405
 30
0.0
 10
97.07448563332561
 20
-1341.971476934712
 30
0.0
 10
96.76632494764557
 20
-1341.998890351401
 30
0.0
 10
96.6122158093742
 20
-1342.012599621335
 30
0.0
  0
SPLINE
  5
223
330
1F
100
AcDbEntity
  8
0
  6
Continuous
 62
     7
370
    25
100
AcDbSpline
210
0.0
220
0.0
230
1.0
 70
     8
 71
     3
 72
    11
 73
     7
 74
     0
 42
0.000000001
 43
0.00000001
 40
0.0
 40
0.0
 40
0.0
 40
0.0
 40
0.2796494735725505
 40
0.55926608310697
 40
0.7796537632819884
 40
1.0
 40
1.0
 40
1.0
 40
1.0
 10
96.60941159710204
 20
-1339.365140114346
 30
0.0
 10
96.80462338020894
 20
-1339.389854870379
 30
0.0
 10
97.19502400539088
 20
-1339.439281477998
 30
0.0
 10
97.63858625995474
 20
-1339.787698561569
 30
0.0
 10
97.90283240903666
 20
-1340.225919977418
 30
0.0
 10
97.93331429703402
 20
-1340.533152224412
 30
0.0
 10
97.94855380788361
 20
-1340.686753902951
 30
0.0
  0
SPLINE
  5
224
330
1F
100
AcDbEntity
  8
0
  6
Continuous
 62
     7
370
    25
100
AcDbSpline
210
0.0
220
0.0
230
1.0
 70
     8
 71
     3
 72
     9
 73
     5
 74
     0
 42
0.000000001
 43
0.00000001
 40
0.0
 40
0.0
 40
0.0
 40
0.0
 40
0.5593738420090526
 40
1.0
 40
1.0
 40
1.0
 40
1.0
 10
95.73511204108512
 20
-1339.707986031094
 30
0.0
 10
95.88145922616631
 20
-1339.598507725549
 30
0.0
 10
96.14308602043249
 20
-1339.402791913825
 30
0.0
 10
96.46678247289721
 20
-1339.376656195499
 30
0.0
 10
96.60941159710204
 20
-1339.365140114346
 30
0.0
  0
SPLINE
  5
225
330
1F
100
AcDbEntity
  8
0
  6
Continuous
 62
     7
370
    25
100
AcDbSpline
210
0.0
220
0.0
230
1.0
 70
     8
 71
     3
 72
     9
 73
     5
 74
     0
 42
0.000000001
 43
0.00000001
 40
0.0
 40
0.0
 40
0.0
 40
0.0
 40
0.5590733282391092
 40
1.0
 40
1.0
 40
1.0
 40
1.0
 10
95.30111758395945
 20
-1340.69098583273
 30
0.0
 10
95.32430290296611
 20
-1340.480501509777
 30
0.0
 10
95.36577388331081
 20
-1340.104013646162
 30
0.0
 10
95.62209376759955
 20
-1339.82917133612
 30
0.0
 10
95.73511204108512
 20
-1339.707986031094
 30
0.0
  0
LINE
  5
226
330
1F
100
AcDbEntity
  8
0
  6
Continuous
 62
     7
370
    25
100
AcDbLine
 10
88.3459903522
 20
-1340.8417259794
 30
0.0
 11
88.3459903522
 21
-1341.9677173238
 31
0.0
  0
SPLINE
  5
227
330
1F
100
AcDbEntity
  8
0
  6
Continuous
 62
     7
370
    25
100
AcDbSpline
210
0.0
220
0.0
230
1.0
 70
     8
 71
     3
 72
    12
 73
     8
 74
     0
 42
0.000000001
 43
0.00000001
 40
0.0
 40
0.0
 40
0.0
 40
0.0
 40
0.1252952305651923
 40
0.2506192421474682
 40
0.3760310906969076
 40
0.5014653510769976
 40
0.9999999999999999
 40
0.9999999999999999
 40
0.9999999999999999
 40
0.9999999999999999
 10
88.91530039146458
 20
-1339.948490772763
 30
0.0
 10
88.8652986783812
 20
-1339.952419174263
 30
0.0
 10
88.76528376654049
 20
-1339.960276879639
 30
0.0
 10
88.62762528873557
 20
-1340.02619468521
 30
0.0
 10
88.5131947788961
 20
-1340.124567455539
 30
0.0
 10
88.34830535661777
 20
-1340.37896989622
 30
0.0
 10
88.34701850921157
 20
-1340.636203297716
 30
0.0
 10
88.34599035218274
 20
-1340.841725979367
 30
0.0
  0
SPLINE
  5
228
330
1F
100
AcDbEntity
  8
0
  6
Continuous
 62
     7
370
    25
100
AcDbSpline
210
0.0
220
0.0
230
1.0
 70
     8
 71
     3
 72
    12
 73
     8
 74
     0
 42
0.000000001
 43
0.00000001
 40
0.0
 40
0.0
 40
0.0
 40
0.0
 40
0.4994273398224961
 40
0.6246831505286102
 40
0.7496692110952261
 40
0.874724737297915
 40
1.0
 40
1.0
 40
1.0
 40
1.0
 10
89.37804105117833
 20
-1340.741470966855
 30
0.0
 10
89.37847835723164
 20
-1340.564161147965
 30
0.0
 10
89.37902533914743
 20
-1340.342382227485
 30
0.0
 10
89.26157116526633
 20
-1340.106030819931
 30
0.0
 10
89.16731479440017
 20
-1340.012807455614
 30
0.0
 10
89.04623672448568
 20
-1339.956337101501
 30
0.0
 10
88.95897136919857
 20
-1339.951107745758
 30
0.0
 10
88.91530039146458
 20
-1339.948490772763
 30
0.0
  0
LINE
  5
229
330
1F
100
AcDbEntity
  8
0
  6
Continuous
 62
     7
370
    25
100
AcDbLine
 10
89.3780410512
 20
-1341.9677173238
 30
0.0
 11
89.3780410512
 21
-1340.7414709669
 31
0.0
  0
LINE
  5
22A
330
1F
100
AcDbEntity
  8
0
  6
Continuous
 62
     7
370
    25
100
AcDbLine
 10
90.0062460674
 20
-1341.9677173238
 30
0.0
 11
89.3780410512
 21
-1341.9677173238
 31
0.0
  0
LINE
  5
22B
330
1F
100
AcDbEntity
  8
0
  6
Continuous
 62
     7
370
    25
100
AcDbLine
 10
90.0062460674
 20
-1340.8255731206
 30
0.0
 11
90.0062460674
 21
-1341.9677173238
 31
0.0
  0
SPLINE
  5
22C
330
1F
100
AcDbEntity
  8
0
  6
Continuous
 62
     7
370
    25
100
AcDbSpline
210
0.0
220
0.0
230
1.0
 70
     8
 71
     3
 72
    11
 73
     7
 74
     0
 42
0.000000001
 43
0.00000001
 40
0.0
 40
0.0
 40
0.0
 40
0.0
 40
0.2489998876606729
 40
0.3747350705735239
 40
0.5005224172600738
 40
1.0
 40
1.0
 40
1.0
 40
1.0
 10
90.585372246652
 20
-1339.948490772763
 30
0.0
 10
90.48557369659075
 20
-1339.963386445265
 30
0.0
 10
90.33538079067544
 20
-1339.985803848496
 30
0.0
 10
90.1796528886706
 20
-1340.114968667486
 30
0.0
 10
90.0080905964202
 20
-1340.362319961072
 30
0.0
 10
90.00706518902776
 20
-1340.619850863466
 30
0.0
 10
90.00624606743371
 20
-1340.825573120633
 30
0.0
  0
SPLINE
  5
22D
330
1F
100
AcDbEntity
  8
0
  6
Continuous
 62
     7
370
    25
100
AcDbSpline
210
0.0
220
0.0
230
1.0
 70
     8
 71
     3
 72
    12
 73
     8
 74
     0
 42
0.000000001
 43
0.00000001
 40
0.0
 40
0.0
 40
0.0
 40
0.0
 40
0.4996635022914337
 40
0.6247537759178249
 40
0.7497706071361365
 40
0.874751424089316
 40
1.0
 40
1.0
 40
1.0
 40
1.0
 10
91.0382967664293
 20
-1340.683237228909
 30
0.0
 10
91.03749330232763
 20
-1340.515396270869
 30
0.0
 10
91.03648869176666
 20
-1340.30553649162
 30
0.0
 10
90.92088369309448
 20
-1340.08362105989
 30
0.0
 10
90.82596099710715
 20
-1340.00092492399
 30
0.0
 10
90.7088369616325
 20
-1339.955556552011
 30
0.0
 10
90.62655649982402
 20
-1339.950847712083
 30
0.0
 10
90.585372246652
 20
-1339.948490772763
 30
0.0
  0
LINE
  5
22E
330
1F
100
AcDbEntity
  8
0
  6
Continuous
 62
     7
370
    25
100
AcDbLine
 10
91.0382967664
 20
-1341.9677173238
 30
0.0
 11
91.0382967664
 21
-1340.6832372289
 31
0.0
  0
LINE
  5
22F
330
1F
100
AcDbEntity
  8
0
  6
Continuous
 62
     7
370
    25
100
AcDbLine
 10
91.6665017827
 20
-1341.9677173238
 30
0.0
 11
91.0382967664
 21
-1341.9677173238
 31
0.0
  0
LINE
  5
230
330
1F
100
AcDbEntity
  8
0
  6
Continuous
 62
     7
370
    25
100
AcDbLine
 10
91.6665017827
 20
-1340.4799257856
 30
0.0
 11
91.6665017827
 21
-1341.9677173238
 31
0.0
  0
SPLINE
  5
231
330
1F
100
AcDbEntity
  8
0
  6
Continuous
 62
     7
370
    25
100
AcDbSpline
210
0.0
220
0.0
230
1.0
 70
     8
 71
     3
 72
    11
 73
     7
 74
     0
 42
0.000000001
 43
0.00000001
 40
0.0
 40
0.0
 40
0.0
 40
0.0
 40
0.1873273312149786
 40
0.3743861186565396
 40
0.5610806299515463
 40
1.0
 40
1.0
 40
1.0
 40
1.0
 10
90.78659380212342
 20
-1339.365140114346
 30
0.0
 10
90.88841055929379
 20
-1339.372739914953
 30
0.0
 10
91.0918981138539
 20
-1339.387928621446
 30
0.0
 10
91.36802062829261
 20
-1339.531820749441
 30
0.0
 10
91.66676819927778
 20
-1339.876308364708
 30
0.0
 10
91.66661162932692
 20
-1340.231047342588
 30
0.0
 10
91.66650178268468
 20
-1340.47992578558
 30
0.0
  0
SPLINE
  5
232
330
1F
100
AcDbEntity
  8
0
  6
Continuous
 62
     7
370
    25
100
AcDbSpline
210
0.0
220
0.0
230
1.0
 70
     8
 71
     3
 72
     9
 73
     5
 74
     0
 42
0.000000001
 43
0.00000001
 40
0.0
 40
0.0
 40
0.0
 40
0.0
 40
0.5587393459168689
 40
1.0
 40
1.0
 40
1.0
 40
1.0
 10
89.91439903512513
 20
-1339.820877228299
 30
0.0
 10
90.04763975144104
 20
-1339.675812325608
 30
0.0
 10
90.28610643056358
 20
-1339.416183388159
 30
0.0
 10
90.63336309794151
 20
-1339.380767675069
 30
0.0
 10
90.78659380212342
 20
-1339.365140114346
 30
0.0
  0
SPLINE
  5
233
330
1F
100
AcDbEntity
  8
0
  6
Continuous
 62
     7
370
    25
100
AcDbSpline
210
0.0
220
0.0
230
1.0
 70
     8
 71
     3
 72
    10
 73
     6
 74
     0
 42
0.000000001
 43
0.00000001
 40
0.0
 40
0.0
 40
0.0
 40
0.0
 40
0.2807563046454352
 40
0.5613443286580643
 40
1.0
 40
1.0
 40
1.0
 40
1.0
 10
89.16139493122613
 20
-1339.365140114346
 30
0.0
 10
89.24784701261213
 20
-1339.371732549806
 30
0.0
 10
89.4206993574526
 20
-1339.384913469328
 30
0.0
 10
89.70774861808059
 20
-1339.52308369557
 30
0.0
 10
89.83611211311016
 20
-1339.708061878556
 30
0.0
 10
89.91439903512513
 20
-1339.820877228299
 30
0.0
  0
SPLINE
  5
234
330
1F
100
AcDbEntity
  8
0
  6
Continuous
 62
     7
370
    25
100
AcDbSpline
210
0.0
220
0.0
230
1.0
 70
     8
 71
     3
 72
     9
 73
     5
 74
     0
 42
0.000000001
 43
0.00000001
 40
0.0
 40
0.0
 40
0.0
 40
0.0
 40
0.5589875818084757
 40
1.0
 40
1.0
 40
1.0
 40
1.0
 10
88.34599035218274
 20
-1339.71567503027
 30
0.0
 10
88.47885155117746
 20
-1339.602689882307
 30
0.0
 10
88.71653339477922
 20
-1339.400565270527
 30
0.0
 10
89.02524796991466
 20
-1339.375981751513
 30
0.0
 10
89.16139493122613
 20
-1339.365140114346
 30
0.0
  0
LINE
  5
235
330
1F
100
AcDbEntity
  8
0
  6
Continuous
 62
     7
370
    25
100
AcDbLine
 10
88.3459903522
 20
-1339.4100224119
 30
0.0
 11
88.3459903522
 21
-1339.7156750303
 31
0.0
  0
LINE
  5
236
330
1F
100
AcDbEntity
  8
0
  6
Continuous
 62
     7
370
    25
100
AcDbLine
 10
87.7177853359
 20
-1339.4100224119
 30
0.0
 11
88.3459903522
 21
-1339.4100224119
 31
0.0
  0
LINE
  5
237
330
1F
100
AcDbEntity
  8
0
  6
Continuous
 62
     7
370
    25
100
AcDbLine
 10
87.7177853359
 20
-1341.9677173238
 30
0.0
 11
87.7177853359
 21
-1339.4100224119
 31
0.0
  0
LINE
  5
238
330
1F
100
AcDbEntity
  8
0
  6
Continuous
 62
     7
370
    25
100
AcDbLine
 10
88.3459903522
 20
-1341.9677173238
 30
0.0
 11
87.7177853359
 21
-1341.9677173238
 31
0.0
  0
SPLINE
  5
239
330
1F
100
AcDbEntity
  8
0
  6
Continuous
 62
     7
370
    25
100
AcDbSpline
210
0.0
220
0.0
230
1.0
 70
     8
 71
     3
 72
    11
 73
     7
 74
     0
 42
0.000000001
 43
0.00000001
 40
0.0
 40
0.0
 40
0.0
 40
0.0
 40
0.2795466885844167
 40
0.5592580191296371
 40
0.7795806866370658
 40
1.0
 40
1.0
 40
1.0
 40
1.0
 10
87.08958031967198
 20
-1341.629758987943
 30
0.0
 10
87.08288554399974
 20
-1341.686096361367
 30
0.0
 10
87.06949204969676
 20
-1341.798804288703
 30
0.0
 10
86.96534557658555
 20
-1341.922808737629
 30
0.0
 10
86.84111695769481
 20
-1342.001167268078
 30
0.0
 10
86.75249102059976
 20
-1342.008788279871
 30
0.0
 10
86.70816833510911
 20
-1342.012599621335
 30
0.0
  0
SPLINE
  5
23A
330
1F
100
AcDbEntity
  8
0
  6
Continuous
 62
     7
370
    25
100
AcDbSpline
210
0.0
220
0.0
230
1.0
 70
     8
 71
     3
 72
    11
 73
     7
 74
     0
 42
0.000000001
 43
0.00000001
 40
0.0
 40
0.0
 40
0.0
 40
0.0
 40
0.2795279780615478
 40
0.5594170791371421
 40
0.7796998413368187
 40
1.0
 40
1.0
 40
1.0
 40
1.0
 10
86.70816833510911
 20
-1341.249779377499
 30
0.0
 10
86.7643911571453
 20
-1341.256181246469
 30
0.0
 10
86.87690943564618
 20
-1341.268993255003
 30
0.0
 10
87.00080231990462
 20
-1341.372955416533
 30
0.0
 10
87.07814420822254
 20
-1341.497291381644
 30
0.0
 10
87.0857681821777
 20
-1341.585601956859
 30
0.0
 10
87.08958031967198
 20
-1341.629758987943
 30
0.0
  0
SPLINE
  5
23B
330
1F
100
AcDbEntity
  8
0
  6
Continuous
 62
     7
370
    25
100
AcDbSpline
210
0.0
220
0.0
230
1.0
 70
     8
 71
     3
 72
    11
 73
     7
 74
     0
 42
0.000000001
 43
0.00000001
 40
0.0
 40
0.0
 40
0.0
 40
0.0
 40
0.2796100746953312
 40
0.5591091666859047
 40
0.7794816114183194
 40
1.0
 40
1.0
 40
1.0
 40
1.0
 10
86.32675821319138
 20
-1341.629758987943
 30
0.0
 10
86.33332209039611
 20
-1341.57351737077
 30
0.0
 10
86.34644723947436
 20
-1341.461056459821
 30
0.0
 10
86.45102023262689
 20
-1341.337738722262
 30
0.0
 10
86.57550808226534
 20
-1341.260648035892
 30
0.0
 10
86.66393849340523
 20
-1341.253403063042
 30
0.0
 10
86.70816833510911
 20
-1341.249779377499
 30
0.0
  0
SPLINE
  5
23C
330
1F
100
AcDbEntity
  8
0
  6
Continuous
 62
     7
370
    25
100
AcDbSpline
210
0.0
220
0.0
230
1.0
 70
     8
 71
     3
 72
    11
 73
     7
 74
     0
 42
0.000000001
 43
0.00000001
 40
0.0
 40
0.0
 40
0.0
 40
0.0
 40
0.2795672146903956
 40
0.5594280231070425
 40
0.7796568582400735
 40
1.0
 40
1.0
 40
1.0
 40
1.0
 10
86.70816833510911
 20
-1342.012599621335
 30
0.0
 10
86.65183806405442
 20
-1342.005862902625
 30
0.0
 10
86.53911836545849
 20
-1341.992382390491
 30
0.0
 10
86.41461405293985
 20
-1341.888133653996
 30
0.0
 10
86.33873418173476
 20
-1341.762456811274
 30
0.0
 10
86.33075089312862
 20
-1341.67399924584
 30
0.0
 10
86.32675821319138
 20
-1341.629758987943
 30
0.0
  0
LINE
  5
23D
330
1F
100
AcDbEntity
  8
0
  6
Continuous
 62
     7
370
    25
100
AcDbLine
 10
84.1504771484
 20
-1340.5100857358
 30
0.0
 11
83.5776597483
 21
-1341.9677173238
 31
0.0
  0
LINE
  5
23E
330
1F
100
AcDbEntity
  8
0
  6
Continuous
 62
     7
370
    25
100
AcDbLine
 10
84.7275004013
 20
-1341.9677173238
 30
0.0
 11
84.1504771484
 21
-1340.5100857358
 31
0.0
  0
LINE
  5
23F
330
1F
100
AcDbEntity
  8
0
  6
Continuous
 62
     7
370
    25
100
AcDbLine
 10
85.1236347331
 20
-1341.9677173238
 30
0.0
 11
84.7275004013
 21
-1341.9677173238
 31
0.0
  0
LINE
  5
240
330
1F
100
AcDbEntity
  8
0
  6
Continuous
 62
     7
370
    25
100
AcDbLine
 10
86.0799633189
 20
-1339.4100224119
 30
0.0
 11
85.1236347331
 21
-1341.9677173238
 31
0.0
  0
LINE
  5
241
330
1F
100
AcDbEntity
  8
0
  6
Continuous
 62
     7
370
    25
100
AcDbLine
 10
85.451057948
 20
-1339.4100224119
 30
0.0
 11
86.0799633189
 21
-1339.4100224119
 31
0.0
  0
LINE
  5
242
330
1F
100
AcDbEntity
  8
0
  6
Continuous
 62
     7
370
    25
100
AcDbLine
 10
84.9132973923
 20
-1340.8486997228
 30
0.0
 11
85.451057948
 21
-1339.4100224119
 31
0.0
  0
LINE
  5
243
330
1F
100
AcDbEntity
  8
0
  6
Continuous
 62
     7
370
    25
100
AcDbLine
 10
84.343987353
 20
-1339.4100224119
 30
0.0
 11
84.9132973923
 21
-1340.8486997228
 31
0.0
  0
LINE
  5
244
330
1F
100
AcDbEntity
  8
0
  6
Continuous
 62
     7
370
    25
100
AcDbLine
 10
83.9590698703
 20
-1339.4100224119
 30
0.0
 11
84.343987353
 21
-1339.4100224119
 31
0.0
  0
LINE
  5
245
330
1F
100
AcDbEntity
  8
0
  6
Continuous
 62
     7
370
    25
100
AcDbLine
 10
83.3876569046
 20
-1340.8648525815
 30
0.0
 11
83.9590698703
 21
-1339.4100224119
 31
0.0
  0
LINE
  5
246
330
1F
100
AcDbEntity
  8
0
  6
Continuous
 62
     7
370
    25
100
AcDbLine
 10
82.8477934225
 20
-1339.4100224119
 30
0.0
 11
83.3876569046
 21
-1340.8648525815
 31
0.0
  0
LINE
  5
247
330
1F
100
AcDbEntity
  8
0
  6
Continuous
 62
     7
370
    25
100
AcDbLine
 10
82.2309896572
 20
-1339.4100224119
 30
0.0
 11
82.8477934225
 21
-1339.4100224119
 31
0.0
  0
LINE
  5
248
330
1F
100
AcDbEntity
  8
0
  6
Continuous
 62
     7
370
    25
100
AcDbLine
 10
83.1696082129
 20
-1341.9677173238
 30
0.0
 11
82.2309896572
 21
-1339.4100224119
 31
0.0
  0
LINE
  5
249
330
1F
100
AcDbEntity
  8
0
  6
Continuous
 62
     7
370
    25
100
AcDbLine
 10
83.5776597483
 20
-1341.9677173238
 30
0.0
 11
83.1696082129
 21
-1341.9677173238
 31
0.0
  0
LINE
  5
24A
330
1F
100
AcDbEntity
  8
0
  6
Continuous
 62
     7
370
    25
100
AcDbLine
 10
80.291502945
 20
-1340.5100857358
 30
0.0
 11
79.7186855449
 21
-1341.9677173238
 31
0.0
  0
LINE
  5
24B
330
1F
100
AcDbEntity
  8
0
  6
Continuous
 62
     7
370
    25
100
AcDbLine
 10
80.8685261978
 20
-1341.9677173238
 30
0.0
 11
80.291502945
 21
-1340.5100857358
 31
0.0
  0
LINE
  5
24C
330
1F
100
AcDbEntity
  8
0
  6
Continuous
 62
     7
370
    25
100
AcDbLine
 10
81.264658667
 20
-1341.9677173238
 30
0.0
 11
80.8685261978
 21
-1341.9677173238
 31
0.0
  0
LINE
  5
24D
330
1F
100
AcDbEntity
  8
0
  6
Continuous
 62
     7
370
    25
100
AcDbLine
 10
82.2209891154
 20
-1339.4100224119
 30
0.0
 11
81.264658667
 21
-1341.9677173238
 31
0.0
  0
LINE
  5
24E
330
1F
100
AcDbEntity
  8
0
  6
Continuous
 62
     7
370
    25
100
AcDbLine
 10
81.5920837446
 20
-1339.4100224119
 30
0.0
 11
82.2209891154
 21
-1339.4100224119
 31
0.0
  0
LINE
  5
24F
330
1F
100
AcDbEntity
  8
0
  6
Continuous
 62
     7
370
    25
100
AcDbLine
 10
81.0543231888
 20
-1340.8486997228
 30
0.0
 11
81.5920837446
 21
-1339.4100224119
 31
0.0
  0
LINE
  5
250
330
1F
100
AcDbEntity
  8
0
  6
Continuous
 62
     7
370
    25
100
AcDbLine
 10
80.4850112869
 20
-1339.4100224119
 30
0.0
 11
81.0543231888
 21
-1340.8486997228
 31
0.0
  0
LINE
  5
251
330
1F
100
AcDbEntity
  8
0
  6
Continuous
 62
     7
370
    25
100
AcDbLine
 10
80.1000956668
 20
-1339.4100224119
 30
0.0
 11
80.4850112869
 21
-1339.4100224119
 31
0.0
  0
LINE
  5
252
330
1F
100
AcDbEntity
  8
0
  6
Continuous
 62
     7
370
    25
100
AcDbLine
 10
79.5286827011
 20
-1340.8648525815
 30
0.0
 11
80.1000956668
 21
-1339.4100224119
 31
0.0
  0
LINE
  5
253
330
1F
100
AcDbEntity
  8
0
  6
Continuous
 62
     7
370
    25
100
AcDbLine
 10
78.9888173564
 20
-1339.4100224119
 30
0.0
 11
79.5286827011
 21
-1340.8648525815
 31
0.0
  0
LINE
  5
254
330
1F
100
AcDbEntity
  8
0
  6
Continuous
 62
     7
370
    25
100
AcDbLine
 10
78.3720135911
 20
-1339.4100224119
 30
0.0
 11
78.9888173564
 21
-1339.4100224119
 31
0.0
  0
LINE
  5
255
330
1F
100
AcDbEntity
  8
0
  6
Continuous
 62
     7
370
    25
100
AcDbLine
 10
79.3106340094
 20
-1341.9677173238
 30
0.0
 11
78.3720135911
 21
-1339.4100224119
 31
0.0
  0
LINE
  5
256
330
1F
100
AcDbEntity
  8
0
  6
Continuous
 62
     7
370
    25
100
AcDbLine
 10
79.7186855449
 20
-1341.9677173238
 30
0.0
 11
79.3106340094
 21
-1341.9677173238
 31
0.0
  0
LINE
  5
257
330
1F
100
AcDbEntity
  8
0
  6
Continuous
 62
     7
370
    25
100
AcDbLine
 10
76.4325268789
 20
-1340.5100857358
 30
0.0
 11
75.8597113414
 21
-1341.9677173238
 31
0.0
  0
LINE
  5
258
330
1F
100
AcDbEntity
  8
0
  6
Continuous
 62
     7
370
    25
100
AcDbLine
 10
77.0095519944
 20
-1341.9677173238
 30
0.0
 11
76.4325268789
 21
-1340.5100857358
 31
0.0
  0
LINE
  5
259
330
1F
100
AcDbEntity
  8
0
  6
Continuous
 62
     7
370
    25
100
AcDbLine
 10
77.4056844635
 20
-1341.9677173238
 30
0.0
 11
77.0095519944
 21
-1341.9677173238
 31
0.0
  0
LINE
  5
25A
330
1F
100
AcDbEntity
  8
0
  6
Continuous
 62
     7
370
    25
100
AcDbLine
 10
78.3620149119
 20
-1339.4100224119
 30
0.0
 11
77.4056844635
 21
-1341.9677173238
 31
0.0
  0
LINE
  5
25B
330
1F
100
AcDbEntity
  8
0
  6
Continuous
 62
     7
370
    25
100
AcDbLine
 10
77.7331076784
 20
-1339.4100224119
 30
0.0
 11
78.3620149119
 21
-1339.4100224119
 31
0.0
  0
LINE
  5
25C
330
1F
100
AcDbEntity
  8
0
  6
Continuous
 62
     7
370
    25
100
AcDbLine
 10
77.1953471227
 20
-1340.8486997228
 30
0.0
 11
77.7331076784
 21
-1339.4100224119
 31
0.0
  0
LINE
  5
25D
330
1F
100
AcDbEntity
  8
0
  6
Continuous
 62
     7
370
    25
100
AcDbLine
 10
76.6260370834
 20
-1339.4100224119
 30
0.0
 11
77.1953471227
 21
-1340.8486997228
 31
0.0
  0
LINE
  5
25E
330
1F
100
AcDbEntity
  8
0
  6
Continuous
 62
     7
370
    25
100
AcDbLine
 10
76.2411214633
 20
-1339.4100224119
 30
0.0
 11
76.6260370834
 21
-1339.4100224119
 31
0.0
  0
LINE
  5
25F
330
1F
100
AcDbEntity
  8
0
  6
Continuous
 62
     7
370
    25
100
AcDbLine
 10
75.669706635
 20
-1340.8648525815
 30
0.0
 11
76.2411214633
 21
-1339.4100224119
 31
0.0
  0
LINE
  5
260
330
1F
100
AcDbEntity
  8
0
  6
Continuous
 62
     7
370
    25
100
AcDbLine
 10
75.1298450156
 20
-1339.4100224119
 30
0.0
 11
75.669706635
 21
-1340.8648525815
 31
0.0
  0
LINE
  5
261
330
1F
100
AcDbEntity
  8
0
  6
Continuous
 62
     7
370
    25
100
AcDbLine
 10
74.5030425711
 20
-1339.4100224119
 30
0.0
 11
75.1298450156
 21
-1339.4100224119
 31
0.0
  0
LINE
  5
262
330
1F
100
AcDbEntity
  8
0
  6
Continuous
 62
     7
370
    25
100
AcDbLine
 10
75.4516579433
 20
-1341.9677173238
 30
0.0
 11
74.5030425711
 21
-1339.4100224119
 31
0.0
  0
LINE
  5
263
330
1F
100
AcDbEntity
  8
0
  6
Continuous
 62
     7
370
    25
100
AcDbLine
 10
75.8597113414
 20
-1341.9677173238
 30
0.0
 11
75.4516579433
 21
-1341.9677173238
 31
0.0
  0
LINE
  5
264
330
1F
100
AcDbEntity
  8
0
  6
Continuous
 62
     7
370
    25
100
AcDbLine
 10
130.0959892793
 20
-1331.9677268606
 30
0.0
 11
129.6472724749
 21
-1331.9677268606
 31
0.0
  0
LINE
  5
265
330
1F
100
AcDbEntity
  8
0
  6
Continuous
 62
     7
370
    25
100
AcDbLine
 10
131.0831688566
 20
-1328.8266812902
 30
0.0
 11
130.0959892793
 21
-1328.8266812902
 31
0.0
  0
LINE
  5
266
330
1F
100
AcDbEntity
  8
0
  6
Continuous
 62
     7
370
    25
100
AcDbLine
 10
131.0831688566
 20
-1328.4676825147
 30
0.0
 11
131.0831688566
 21
-1328.8266812902
 31
0.0
  0
LINE
  5
267
330
1F
100
AcDbEntity
  8
0
  6
Continuous
 62
     7
370
    25
100
AcDbLine
 10
128.6600928976
 20
-1328.4676825147
 30
0.0
 11
131.0831688566
 21
-1328.4676825147
 31
0.0
  0
LINE
  5
268
330
1F
100
AcDbEntity
  8
0
  6
Continuous
 62
     7
370
    25
100
AcDbLine
 10
128.6600928976
 20
-1328.8266812902
 30
0.0
 11
128.6600928976
 21
-1328.4676825147
 31
0.0
  0
LINE
  5
269
330
1F
100
AcDbEntity
  8
0
  6
Continuous
 62
     7
370
    25
100
AcDbLine
 10
129.6472724749
 20
-1331.9677268606
 30
0.0
 11
129.6472724749
 21
-1328.8266812902
 31
0.0
  0
LINE
  5
26A
330
1F
100
AcDbEntity
  8
0
  6
Continuous
 62
     7
370
    25
100
AcDbLine
 10
125.3395796044
 20
-1330.2625571828
 30
0.0
 11
125.3395796044
 21
-1331.9677268606
 31
0.0
  0
LINE
  5
26B
330
1F
100
AcDbEntity
  8
0
  6
Continuous
 62
     7
370
    25
100
AcDbLine
 10
127.5831692143
 20
-1330.2625571828
 30
0.0
 11
125.3395796044
 21
-1330.2625571828
 31
0.0
  0
LINE
  5
26C
330
1F
100
AcDbEntity
  8
0
  6
Continuous
 62
     7
370
    25
100
AcDbLine
 10
127.5831692143
 20
-1331.9677268606
 30
0.0
 11
127.5831692143
 21
-1330.2625571828
 31
0.0
  0
LINE
  5
26D
330
1F
100
AcDbEntity
  8
0
  6
Continuous
 62
     7
370
    25
100
AcDbLine
 10
128.0318878813
 20
-1331.9677268606
 30
0.0
 11
127.5831692143
 21
-1331.9677268606
 31
0.0
  0
LINE
  5
26E
330
1F
100
AcDbEntity
  8
0
  6
Continuous
 62
     7
370
    25
100
AcDbLine
 10
128.0318878813
 20
-1328.4676825147
 30
0.0
 11
128.0318878813
 21
-1331.9677268606
 31
0.0
  0
LINE
  5
26F
330
1F
100
AcDbEntity
  8
0
  6
Continuous
 62
     7
370
    25
100
AcDbLine
 10
127.5831692143
 20
-1328.4676825147
 30
0.0
 11
128.0318878813
 21
-1328.4676825147
 31
0.0
  0
LINE
  5
270
330
1F
100
AcDbEntity
  8
0
  6
Continuous
 62
     7
370
    25
100
AcDbLine
 10
127.5831692143
 20
-1329.903618012
 30
0.0
 11
127.5831692143
 21
-1328.4676825147
 31
0.0
  0
LINE
  5
271
330
1F
100
AcDbEntity
  8
0
  6
Continuous
 62
     7
370
    25
100
AcDbLine
 10
125.3395796044
 20
-1329.903618012
 30
0.0
 11
127.5831692143
 21
-1329.903618012
 31
0.0
  0
LINE
  5
272
330
1F
100
AcDbEntity
  8
0
  6
Continuous
 62
     7
370
    25
100
AcDbLine
 10
125.3395796044
 20
-1328.4676825147
 30
0.0
 11
125.3395796044
 21
-1329.903618012
 31
0.0
  0
LINE
  5
273
330
1F
100
AcDbEntity
  8
0
  6
Continuous
 62
     7
370
    25
100
AcDbLine
 10
124.8908618687
 20
-1328.4676825147
 30
0.0
 11
125.3395796044
 21
-1328.4676825147
 31
0.0
  0
LINE
  5
274
330
1F
100
AcDbEntity
  8
0
  6
Continuous
 62
     7
370
    25
100
AcDbLine
 10
124.8908618687
 20
-1331.9677268606
 30
0.0
 11
124.8908618687
 21
-1328.4676825147
 31
0.0
  0
LINE
  5
275
330
1F
100
AcDbEntity
  8
0
  6
Continuous
 62
     7
370
    25
100
AcDbLine
 10
125.3395796044
 20
-1331.9677268606
 30
0.0
 11
124.8908618687
 21
-1331.9677268606
 31
0.0
  0
SPLINE
  5
276
330
1F
100
AcDbEntity
  8
0
  6
Continuous
 62
     7
370
    25
100
AcDbSpline
210
0.0
220
0.0
230
1.0
 70
     8
 71
     3
 72
     9
 73
     5
 74
     0
 42
0.000000001
 43
0.00000001
 40
0.0
 40
0.0
 40
0.0
 40
0.0
 40
0.5597000921229243
 40
1.0
 40
1.0
 40
1.0
 40
1.0
 10
119.8715305177859
 20
-1331.395581875363
 30
0.0
 10
119.7000625018601
 20
-1331.205648573271
 30
0.0
 10
119.3937055468783
 20
-1330.866300224457
 30
0.0
 10
119.3472245460727
 20
-1330.415007932886
 30
0.0
 10
119.3267589657
 20
-1330.216303978482
 30
0.0
  0
SPLINE
  5
277
330
1F
100
AcDbEntity
  8
0
  6
Continuous
 62
     7
370
    25
100
AcDbSpline
210
0.0
220
0.0
230
1.0
 70
     8
 71
     3
 72
     9
 73
     5
 74
     0
 42
0.000000001
 43
0.00000001
 40
0.0
 40
0.0
 40
0.0
 40
0.0
 40
0.5603314265002094
 40
1.0
 40
1.0
 40
1.0
 40
1.0
 10
121.7940066231779
 20
-1332.057431850949
 30
0.0
 10
121.3975689313733
 20
-1332.034519487391
 30
0.0
 10
120.6900632069833
 20
-1331.993628752952
 30
0.0
 10
120.1215068709874
 20
-1331.578222812587
 30
0.0
 10
119.8715305177859
 20
-1331.395581875363
 30
0.0
  0
SPLINE
  5
278
330
1F
100
AcDbEntity
  8
0
  6
Continuous
 62
     7
370
    25
100
AcDbSpline
210
0.0
220
0.0
230
1.0
 70
     8
 71
     3
 72
    10
 73
     6
 74
     0
 42
0.000000001
 43
0.00000001
 40
0.0
 40
0.0
 40
0.0
 40
0.0
 40
0.2800655843974591
 40
0.5600800472217439
 40
0.9999999999999999
 40
0.9999999999999999
 40
0.9999999999999999
 40
0.9999999999999999
 10
123.9934254659704
 20
-1330.262557182828
 30
0.0
 10
123.9544926763618
 20
-1330.562486798474
 30
0.0
 10
123.8766342037138
 20
-1331.162291282327
 30
0.0
 10
123.0388530022838
 20
-1331.937439939229
 30
0.0
 10
122.2661631069932
 20
-1332.011920243995
 30
0.0
 10
121.7940066231779
 20
-1332.057431850949
 30
0.0
  0
LINE
  5
279
330
1F
100
AcDbEntity
  8
0
  6
Continuous
 62
     7
370
    25
100
AcDbLine
 10
122.1088104172
 20
-1330.2625571828
 30
0.0
 11
123.993425466
 21
-1330.2625571828
 31
0.0
  0
LINE
  5
27A
330
1F
100
AcDbEntity
  8
0
  6
Continuous
 62
     7
370
    25
100
AcDbLine
 10
122.1088104172
 20
-1330.6215559583
 30
0.0
 11
122.1088104172
 21
-1330.2625571828
 31
0.0
  0
LINE
  5
27B
330
1F
100
AcDbEntity
  8
0
  6
Continuous
 62
     7
370
    25
100
AcDbLine
 10
123.5447077303
 20
-1330.6215559583
 30
0.0
 11
122.1088104172
 21
-1330.6215559583
 31
0.0
  0
SPLINE
  5
27C
330
1F
100
AcDbEntity
  8
0
  6
Continuous
 62
     7
370
    25
100
AcDbSpline
210
0.0
220
0.0
230
1.0
 70
     8
 71
     3
 72
    11
 73
     7
 74
     0
 42
0.000000001
 43
0.00000001
 40
0.0
 40
0.0
 40
0.0
 40
0.0
 40
0.2807186829189823
 40
0.5608092138732118
 40
0.780756779118251
 40
1.0
 40
1.0
 40
1.0
 40
1.0
 10
121.8248557521394
 20
-1331.698492680112
 30
0.0
 10
122.0309416893242
 20
-1331.687098234266
 30
0.0
 10
122.442652414172
 20
-1331.664334839431
 30
0.0
 10
122.9745596456191
 20
-1331.436086861276
 30
0.0
 10
123.3930055497655
 20
-1331.087380177219
 30
0.0
 10
123.4941944300489
 20
-1330.776664596429
 30
0.0
 10
123.5447077302626
 20
-1330.62155595831
 30
0.0
  0
SPLINE
  5
27D
330
1F
100
AcDbEntity
  8
0
  6
Continuous
 62
     7
370
    25
100
AcDbSpline
210
0.0
220
0.0
230
1.0
 70
     8
 71
     3
 72
    11
 73
     7
 74
     0
 42
0.000000001
 43
0.00000001
 40
0.0
 40
0.0
 40
0.0
 40
0.0
 40
0.1864337057056249
 40
0.3735564827769878
 40
0.5609411935501442
 40
1.0
 40
1.0
 40
1.0
 40
1.0
 10
119.7754767014078
 20
-1330.20229688696
 30
0.0
 10
119.8010181613471
 20
-1330.376393344867
 30
0.0
 10
119.8521954841591
 20
-1330.72522973276
 30
0.0
 10
120.1908749633556
 20
-1331.144999742571
 30
0.0
 10
120.8170893164602
 20
-1331.586477142694
 30
0.0
 10
121.4095880247971
 20
-1331.652334725249
 30
0.0
 10
121.8248557521394
 20
-1331.698492680112
 30
0.0
  0
SPLINE
  5
27E
330
1F
100
AcDbEntity
  8
0
  6
Continuous
 62
     7
370
    25
100
AcDbSpline
210
0.0
220
0.0
230
1.0
 70
     8
 71
     3
 72
    11
 73
     7
 74
     0
 42
0.000000001
 43
0.00000001
 40
0.0
 40
0.0
 40
0.0
 40
0.0
 40
0.2807138633687838
 40
0.5610401629305901
 40
0.7810324152860036
 40
1.0
 40
1.0
 40
1.0
 40
1.0
 10
121.7309057934574
 20
-1328.736916695157
 30
0.0
 10
121.4788651449523
 20
-1328.758777638129
 30
0.0
 10
120.9751318244619
 20
-1328.802469342059
 30
0.0
 10
120.3383683930719
 20
-1329.123712804286
 30
0.0
 10
119.8752489123847
 20
-1329.609895026364
 30
0.0
 10
119.8086823094063
 20
-1330.005137139091
 30
0.0
 10
119.7754767014078
 20
-1330.20229688696
 30
0.0
  0
SPLINE
  5
27F
330
1F
100
AcDbEntity
  8
0
  6
Continuous
 62
     7
370
    25
100
AcDbSpline
210
0.0
220
0.0
230
1.0
 70
     8
 71
     3
 72
     9
 73
     5
 74
     0
 42
0.000000001
 43
0.00000001
 40
0.0
 40
0.0
 40
0.0
 40
0.0
 40
0.5595662999183979
 40
1.0
 40
1.0
 40
1.0
 40
1.0
 10
123.3799437282971
 20
-1329.320267353574
 30
0.0
 10
123.0965810452931
 20
-1329.138503833842
 30
0.0
 10
122.5901840677672
 20
-1328.813674551311
 30
0.0
 10
121.9936427106321
 20
-1328.760386533855
 30
0.0
 10
121.7309057934574
 20
-1328.736916695157
 30
0.0
  0
LINE
  5
280
330
1F
100
AcDbEntity
  8
0
  6
Continuous
 62
     7
370
    25
100
AcDbLine
 10
123.7241950108
 20
-1329.0650402646
 30
0.0
 11
123.3799437283
 21
-1329.3202673536
 31
0.0
  0
SPLINE
  5
281
330
1F
100
AcDbEntity
  8
0
  6
Continuous
 62
     7
370
    25
100
AcDbSpline
210
0.0
220
0.0
230
1.0
 70
     8
 71
     3
 72
     9
 73
     5
 74
     0
 42
0.000000001
 43
0.00000001
 40
0.0
 40
0.0
 40
0.0
 40
0.0
 40
0.5593877943929935
 40
1.0
 40
1.0
 40
1.0
 40
1.0
 10
121.723193511217
 20
-1328.377977524319
 30
0.0
 10
122.1304540318337
 20
-1328.412966089336
 30
0.0
 10
122.8585008800109
 20
-1328.475514048672
 30
0.0
 10
123.4594218825055
 20
-1328.884733277607
 30
0.0
 10
123.7241950108102
 20
-1329.065040264645
 30
0.0
  0
SPLINE
  5
282
330
1F
100
AcDbEntity
  8
0
  6
Continuous
 62
     7
370
    25
100
AcDbSpline
210
0.0
220
0.0
230
1.0
 70
     8
 71
     3
 72
    10
 73
     6
 74
     0
 42
0.000000001
 43
0.00000001
 40
0.0
 40
0.0
 40
0.0
 40
0.0
 40
0.2789356470483184
 40
0.5596098843473354
 40
1.0
 40
1.0
 40
1.0
 40
1.0
 10
119.3267589657
 20
-1330.216303978482
 30
0.0
 10
119.3878085308914
 20
-1329.905942241306
 30
0.0
 10
119.5102881797915
 20
-1329.283284299646
 30
0.0
 10
120.4258757646067
 20
-1328.524308312754
 30
0.0
 10
121.2312879497752
 20
-1328.433461948879
 30
0.0
 10
121.723193511217
 20
-1328.377977524319
 30
0.0
  0
LINE
  5
283
330
1F
100
AcDbEntity
  8
0
  6
Continuous
 62
     7
370
    25
100
AcDbLine
 10
118.5639387219
 20
-1328.4676825147
 30
0.0
 11
118.5639387219
 21
-1331.9677268606
 31
0.0
  0
LINE
  5
284
330
1F
100
AcDbEntity
  8
0
  6
Continuous
 62
     7
370
    25
100
AcDbLine
 10
118.1152200548
 20
-1328.4676825147
 30
0.0
 11
118.5639387219
 21
-1328.4676825147
 31
0.0
  0
LINE
  5
285
330
1F
100
AcDbEntity
  8
0
  6
Continuous
 62
     7
370
    25
100
AcDbLine
 10
118.1152200548
 20
-1331.9677268606
 30
0.0
 11
118.1152200548
 21
-1328.4676825147
 31
0.0
  0
LINE
  5
286
330
1F
100
AcDbEntity
  8
0
  6
Continuous
 62
     7
370
    25
100
AcDbLine
 10
118.5639387219
 20
-1331.9677268606
 30
0.0
 11
118.1152200548
 21
-1331.9677268606
 31
0.0
  0
LINE
  5
287
330
1F
100
AcDbEntity
  8
0
  6
Continuous
 62
     7
370
    25
100
AcDbLine
 10
117.397271864
 20
-1331.6087280851
 30
0.0
 11
117.397271864
 21
-1331.9677268606
 31
0.0
  0
LINE
  5
288
330
1F
100
AcDbEntity
  8
0
  6
Continuous
 62
     7
370
    25
100
AcDbLine
 10
115.6921436301
 20
-1331.6087280851
 30
0.0
 11
117.397271864
 21
-1331.6087280851
 31
0.0
  0
LINE
  5
289
330
1F
100
AcDbEntity
  8
0
  6
Continuous
 62
     7
370
    25
100
AcDbLine
 10
115.6921436301
 20
-1328.4676825147
 30
0.0
 11
115.6921436301
 21
-1331.6087280851
 31
0.0
  0
LINE
  5
28A
330
1F
100
AcDbEntity
  8
0
  6
Continuous
 62
     7
370
    25
100
AcDbLine
 10
115.2434254287
 20
-1328.4676825147
 30
0.0
 11
115.6921436301
 21
-1328.4676825147
 31
0.0
  0
LINE
  5
28B
330
1F
100
AcDbEntity
  8
0
  6
Continuous
 62
     7
370
    25
100
AcDbLine
 10
115.2434254287
 20
-1331.9677268606
 30
0.0
 11
115.2434254287
 21
-1328.4676825147
 31
0.0
  0
LINE
  5
28C
330
1F
100
AcDbEntity
  8
0
  6
Continuous
 62
     7
370
    25
100
AcDbLine
 10
117.397271864
 20
-1331.9677268606
 30
0.0
 11
115.2434254287
 21
-1331.9677268606
 31
0.0
  0
LINE
  5
28D
330
1F
100
AcDbEntity
  8
0
  6
Continuous
 62
     7
370
    25
100
AcDbLine
 10
114.0641386843
 20
-1331.9677268606
 30
0.0
 11
111.1152204208
 21
-1329.3265854459
 31
0.0
  0
LINE
  5
28E
330
1F
100
AcDbEntity
  8
0
  6
Continuous
 62
     7
370
    25
100
AcDbLine
 10
114.1665026768
 20
-1331.9677268606
 30
0.0
 11
114.0641386843
 21
-1331.9677268606
 31
0.0
  0
LINE
  5
28F
330
1F
100
AcDbEntity
  8
0
  6
Continuous
 62
     7
370
    25
100
AcDbLine
 10
114.1665026768
 20
-1328.4676825147
 30
0.0
 11
114.1665026768
 21
-1331.9677268606
 31
0.0
  0
LINE
  5
290
330
1F
100
AcDbEntity
  8
0
  6
Continuous
 62
     7
370
    25
100
AcDbLine
 10
113.7177844754
 20
-1328.4676825147
 30
0.0
 11
114.1665026768
 21
-1328.4676825147
 31
0.0
  0
LINE
  5
291
330
1F
100
AcDbEntity
  8
0
  6
Continuous
 62
     7
370
    25
100
AcDbLine
 10
113.7177844754
 20
-1331.1151420217
 30
0.0
 11
113.7177844754
 21
-1328.4676825147
 31
0.0
  0
LINE
  5
292
330
1F
100
AcDbEntity
  8
0
  6
Continuous
 62
     7
370
    25
100
AcDbLine
 10
110.7611539297
 20
-1328.4676825147
 30
0.0
 11
113.7177844754
 21
-1331.1151420217
 31
0.0
  0
LINE
  5
293
330
1F
100
AcDbEntity
  8
0
  6
Continuous
 62
     7
370
    25
100
AcDbLine
 10
110.6665024523
 20
-1328.4676825147
 30
0.0
 11
110.7611539297
 21
-1328.4676825147
 31
0.0
  0
LINE
  5
294
330
1F
100
AcDbEntity
  8
0
  6
Continuous
 62
     7
370
    25
100
AcDbLine
 10
110.6665024523
 20
-1331.9677268606
 30
0.0
 11
110.6665024523
 21
-1328.4676825147
 31
0.0
  0
LINE
  5
295
330
1F
100
AcDbEntity
  8
0
  6
Continuous
 62
     7
370
    25
100
AcDbLine
 10
111.1152204208
 20
-1331.9677268606
 30
0.0
 11
110.6665024523
 21
-1331.9677268606
 31
0.0
  0
LINE
  5
296
330
1F
100
AcDbEntity
  8
0
  6
Continuous
 62
     7
370
    25
100
AcDbLine
 10
111.1152204208
 20
-1329.3265854459
 30
0.0
 11
111.1152204208
 21
-1331.9677268606
 31
0.0
  0
SPLINE
  5
297
330
1F
100
AcDbEntity
  8
0
  6
Continuous
 62
     7
370
    25
100
AcDbSpline
210
0.0
220
0.0
230
1.0
 70
     8
 71
     3
 72
    10
 73
     6
 74
     0
 42
0.000000001
 43
0.00000001
 40
0.0
 40
0.0
 40
0.0
 40
0.0
 40
0.2790255181010721
 40
0.5601887979531146
 40
1.0
 40
1.0
 40
1.0
 40
1.0
 10
109.7690665807124
 20
-1330.216303978482
 30
0.0
 10
109.7133121447251
 20
-1330.521829440525
 30
0.0
 10
109.6013761085916
 20
-1331.135221156417
 30
0.0
 10
108.7111245498669
 20
-1331.888984577935
 30
0.0
 10
107.9237577337755
 20
-1331.993608701981
 30
0.0
 10
107.4434456637493
 20
-1332.057431850949
 30
0.0
  0
SPLINE
  5
298
330
1F
100
AcDbEntity
  8
0
  6
Continuous
 62
     7
370
    25
100
AcDbSpline
210
0.0
220
0.0
230
1.0
 70
     8
 71
     3
 72
    11
 73
     7
 74
     0
 42
0.000000001
 43
0.00000001
 40
0.0
 40
0.0
 40
0.0
 40
0.0
 40
0.2807613716399461
 40
0.5608277365852248
 40
0.7806847746950201
 40
1.0
 40
1.0
 40
1.0
 40
1.0
 10
107.4069871789209
 20
-1328.377977524319
 30
0.0
 10
107.7191516319793
 20
-1328.399690711377
 30
0.0
 10
108.3427077950958
 20
-1328.443063335897
 30
0.0
 10
109.1147478505843
 20
-1328.868978690404
 30
0.0
 10
109.6729179630689
 20
-1329.480031022263
 30
0.0
 10
109.7370434123114
 20
-1329.971081598338
 30
0.0
 10
109.7690665807124
 20
-1330.216303978482
 30
0.0
  0
SPLINE
  5
299
330
1F
100
AcDbEntity
  8
0
  6
Continuous
 62
     7
370
    25
100
AcDbSpline
210
0.0
220
0.0
230
1.0
 70
     8
 71
     3
 72
    11
 73
     7
 74
     0
 42
0.000000001
 43
0.00000001
 40
0.0
 40
0.0
 40
0.0
 40
0.0
 40
0.278216879058296
 40
0.5579017858784585
 40
0.778883152461302
 40
1.0
 40
1.0
 40
1.0
 40
1.0
 10
105.1024001313738
 20
-1330.233112488309
 30
0.0
 10
105.1583227668806
 20
-1329.927676333475
 30
0.0
 10
105.2704631169768
 20
-1329.315192371932
 30
0.0
 10
105.9544222302727
 20
-1328.733521611573
 30
0.0
 10
106.6833447737479
 20
-1328.427575442332
 30
0.0
 10
107.1657237688641
 20
-1328.394513540929
 30
0.0
 10
107.4069871789209
 20
-1328.377977524319
 30
0.0
  0
SPLINE
  5
29A
330
1F
100
AcDbEntity
  8
0
  6
Continuous
 62
     7
370
    25
100
AcDbSpline
210
0.0
220
0.0
230
1.0
 70
     8
 71
     3
 72
    11
 73
     7
 74
     0
 42
0.000000001
 43
0.00000001
 40
0.0
 40
0.0
 40
0.0
 40
0.0
 40
0.2807073421225119
 40
0.5608402335125847
 40
0.7807725819106216
 40
1.0
 40
1.0
 40
1.0
 40
1.0
 10
107.4434456637493
 20
-1332.057431850949
 30
0.0
 10
107.1345461027708
 20
-1332.034844874391
 30
0.0
 10
106.5173791252303
 20
-1331.989717144168
 30
0.0
 10
105.7575638826123
 20
-1331.561818571546
 30
0.0
 10
105.2024142160644
 20
-1330.96094592454
 30
0.0
 10
105.1357024648227
 20
-1330.475463871753
 30
0.0
 10
105.1024001313738
 20
-1330.233112488309
 30
0.0
  0
LINE
  5
29B
330
1F
100
AcDbEntity
  8
0
  6
Continuous
 62
     7
370
    25
100
AcDbLine
 10
96.4596716909
 20
-1331.9677268606
 30
0.0
 11
94.8940662889
 21
-1329.4549142461
 31
0.0
  0
LINE
  5
29C
330
1F
100
AcDbEntity
  8
0
  6
Continuous
 62
     7
370
    25
100
AcDbLine
 10
96.6559861077
 20
-1331.9677268606
 30
0.0
 11
96.4596716909
 21
-1331.9677268606
 31
0.0
  0
LINE
  5
29D
330
1F
100
AcDbEntity
  8
0
  6
Continuous
 62
     7
370
    25
100
AcDbLine
 10
98.2145795821
 20
-1329.4549142461
 30
0.0
 11
96.6559861077
 21
-1331.9677268606
 31
0.0
  0
LINE
  5
29E
330
1F
100
AcDbEntity
  8
0
  6
Continuous
 62
     7
370
    25
100
AcDbLine
 10
98.6373562588
 20
-1331.9677268606
 30
0.0
 11
98.2145795821
 21
-1329.4549142461
 31
0.0
  0
LINE
  5
29F
330
1F
100
AcDbEntity
  8
0
  6
Continuous
 62
     7
370
    25
100
AcDbLine
 10
99.0895794927
 20
-1331.9677268606
 30
0.0
 11
98.6373562588
 21
-1331.9677268606
 31
0.0
  0
LINE
  5
2A0
330
1F
100
AcDbEntity
  8
0
  6
Continuous
 62
     7
370
    25
100
AcDbLine
 10
98.5006371735
 20
-1328.4676825147
 30
0.0
 11
99.0895794927
 21
-1331.9677268606
 31
0.0
  0
LINE
  5
2A1
330
1F
100
AcDbEntity
  8
0
  6
Continuous
 62
     7
370
    25
100
AcDbLine
 10
98.3358731715
 20
-1328.4676825147
 30
0.0
 11
98.5006371735
 21
-1328.4676825147
 31
0.0
  0
LINE
  5
2A2
330
1F
100
AcDbEntity
  8
0
  6
Continuous
 62
     7
370
    25
100
AcDbLine
 10
96.5543229355
 20
-1331.3394939046
 30
0.0
 11
98.3358731715
 21
-1328.4676825147
 31
0.0
  0
LINE
  5
2A3
330
1F
100
AcDbEntity
  8
0
  6
Continuous
 62
     7
370
    25
100
AcDbLine
 10
94.7657617031
 20
-1328.4676825147
 30
0.0
 11
96.5543229355
 21
-1331.3394939046
 31
0.0
  0
LINE
  5
2A4
330
1F
100
AcDbEntity
  8
0
  6
Continuous
 62
     7
370
    25
100
AcDbLine
 10
94.606607057
 20
-1328.4676825147
 30
0.0
 11
94.7657617031
 21
-1328.4676825147
 31
0.0
  0
LINE
  5
2A5
330
1F
100
AcDbEntity
  8
0
  6
Continuous
 62
     7
370
    25
100
AcDbLine
 10
94.0190673096
 20
-1331.9677268606
 30
0.0
 11
94.606607057
 21
-1328.4676825147
 31
0.0
  0
LINE
  5
2A6
330
1F
100
AcDbEntity
  8
0
  6
Continuous
 62
     7
370
    25
100
AcDbLine
 10
94.4719908981
 20
-1331.9677268606
 30
0.0
 11
94.0190673096
 21
-1331.9677268606
 31
0.0
  0
LINE
  5
2A7
330
1F
100
AcDbEntity
  8
0
  6
Continuous
 62
     7
370
    25
100
AcDbLine
 10
94.8940662889
 20
-1329.4549142461
 30
0.0
 11
94.4719908981
 21
-1331.9677268606
 31
0.0
  0
LINE
  5
2A8
330
1F
100
AcDbEntity
  8
0
  6
Continuous
 62
     7
370
    25
100
AcDbLine
 10
89.2626557721
 20
-1330.9321557622
 30
0.0
 11
89.2626557721
 21
-1331.9677268606
 31
0.0
  0
LINE
  5
2A9
330
1F
100
AcDbEntity
  8
0
  6
Continuous
 62
     7
370
    25
100
AcDbLine
 10
89.2598524912
 20
-1330.8073436361
 30
0.0
 11
89.2626557721
 21
-1330.9321557622
 31
0.0
  0
SPLINE
  5
2AA
330
1F
100
AcDbEntity
  8
0
  6
Continuous
 62
     7
370
    25
100
AcDbSpline
210
0.0
220
0.0
230
1.0
 70
     8
 71
     3
 72
    11
 73
     7
 74
     0
 42
0.000000001
 43
0.00000001
 40
0.0
 40
0.0
 40
0.0
 40
0.0
 40
0.1247728684190393
 40
0.2498081229096997
 40
0.4983532541404932
 40
1.0
 40
1.0
 40
1.0
 40
1.0
 10
89.68963923290288
 20
-1329.90361801199
 30
0.0
 10
89.64328744863883
 20
-1329.909355753809
 30
0.0
 10
89.55048640649537
 20
-1329.9208433034
 30
0.0
 10
89.40023368507046
 20
-1330.038710280237
 30
0.0
 10
89.25974221450252
 20
-1330.34122384485
 30
0.0
 10
89.25980830022488
 20
-1330.620556399955
 30
0.0
 10
89.25985249116933
 20
-1330.807343636075
 30
0.0
  0
SPLINE
  5
2AB
330
1F
100
AcDbEntity
  8
0
  6
Continuous
 62
     7
370
    25
100
AcDbSpline
210
0.0
220
0.0
230
1.0
 70
     8
 71
     3
 72
     9
 73
     5
 74
     0
 42
0.000000001
 43
0.00000001
 40
0.0
 40
0.0
 40
0.0
 40
0.0
 40
0.5603720786804605
 40
1.0
 40
1.0
 40
1.0
 40
1.0
 10
89.91610149279153
 20
-1329.960421238461
 30
0.0
 10
89.87518971362378
 20
-1329.943989048514
 30
0.0
 10
89.80218147369845
 20
-1329.914665335623
 30
0.0
 10
89.72400694045349
 20
-1329.9069916003
 30
0.0
 10
89.68963923290288
 20
-1329.90361801199
 30
0.0
  0
LINE
  5
2AC
330
1F
100
AcDbEntity
  8
0
  6
Continuous
 62
     7
370
    25
100
AcDbLine
 10
90.1600931062
 20
-1329.4282709699
 30
0.0
 11
89.9161014928
 21
-1329.9604212385
 31
0.0
  0
SPLINE
  5
2AD
330
1F
100
AcDbEntity
  8
0
  6
Continuous
 62
     7
370
    25
100
AcDbSpline
210
0.0
220
0.0
230
1.0
 70
     8
 71
     3
 72
     9
 73
     5
 74
     0
 42
0.000000001
 43
0.00000001
 40
0.0
 40
0.0
 40
0.0
 40
0.0
 40
0.5596572199597459
 40
1.0
 40
1.0
 40
1.0
 40
1.0
 10
89.84669002130543
 20
-1329.365149651089
 30
0.0
 10
89.90683642400921
 20
-1329.36903952678
 30
0.0
 10
90.01430649775918
 20
-1329.375989987798
 30
0.0
 10
90.11552310427861
 20
-1329.412287585032
 30
0.0
 10
90.16009310617959
 20
-1329.428270969907
 30
0.0
  0
SPLINE
  5
2AE
330
1F
100
AcDbEntity
  8
0
  6
Continuous
 62
     7
370
    25
100
AcDbSpline
210
0.0
220
0.0
230
1.0
 70
     8
 71
     3
 72
    10
 73
     6
 74
     0
 42
0.000000001
 43
0.00000001
 40
0.0
 40
0.0
 40
0.0
 40
0.0
 40
0.280451177572099
 40
0.5608738448641318
 40
1.0
 40
1.0
 40
1.0
 40
1.0
 10
89.17291352882897
 20
-1329.724804077664
 30
0.0
 10
89.21685655589569
 20
-1329.664216669566
 30
0.0
 10
89.30473814284157
 20
-1329.543048012604
 30
0.0
 10
89.53769068654925
 20
-1329.399466739832
 30
0.0
 10
89.7295823833237
 20
-1329.378155482342
 30
0.0
 10
89.84669002130543
 20
-1329.365149651089
 30
0.0
  0
LINE
  5
2AF
330
1F
100
AcDbEntity
  8
0
  6
Continuous
 62
     7
370
    25
100
AcDbLine
 10
89.1729135288
 20
-1329.4100319486
 30
0.0
 11
89.1729135288
 21
-1329.7248040777
 31
0.0
  0
LINE
  5
2B0
330
1F
100
AcDbEntity
  8
0
  6
Continuous
 62
     7
370
    25
100
AcDbLine
 10
88.4549644066
 20
-1329.4100319486
 30
0.0
 11
89.1729135288
 21
-1329.4100319486
 31
0.0
  0
LINE
  5
2B1
330
1F
100
AcDbEntity
  8
0
  6
Continuous
 62
     7
370
    25
100
AcDbLine
 10
88.4549644066
 20
-1331.9677268606
 30
0.0
 11
88.4549644066
 21
-1329.4100319486
 31
0.0
  0
LINE
  5
2B2
330
1F
100
AcDbEntity
  8
0
  6
Continuous
 62
     7
370
    25
100
AcDbLine
 10
89.2626557721
 20
-1331.9677268606
 30
0.0
 11
88.4549644066
 21
-1331.9677268606
 31
0.0
  0
SPLINE
  5
2B3
330
1F
100
AcDbEntity
  8
0
  6
Continuous
 62
     7
370
    25
100
AcDbSpline
210
0.0
220
0.0
230
1.0
 70
     8
 71
     3
 72
    10
 73
     6
 74
     0
 42
0.000000001
 43
0.00000001
 40
0.0
 40
0.0
 40
0.0
 40
0.0
 40
0.2793556161398529
 40
0.5601782515769943
 40
0.9999999999999999
 40
0.9999999999999999
 40
0.9999999999999999
 40
0.9999999999999999
 10
84.50624609723603
 20
-1330.702856693784
 30
0.0
 10
84.54302417896412
 20
-1330.479452417065
 30
0.0
 10
84.6167734803151
 20
-1330.031470669441
 30
0.0
 10
85.26213759927235
 20
-1329.476190838343
 30
0.0
 10
85.83680636416487
 20
-1329.407234747558
 30
0.0
 10
86.18753666415726
 20
-1329.365149651089
 30
0.0
  0
SPLINE
  5
2B4
330
1F
100
AcDbEntity
  8
0
  6
Continuous
 62
     7
370
    25
100
AcDbSpline
210
0.0
220
0.0
230
1.0
 70
     8
 71
     3
 72
    11
 73
     7
 74
     0
 42
0.000000001
 43
0.00000001
 40
0.0
 40
0.0
 40
0.0
 40
0.0
 40
0.2808505652791894
 40
0.5607540199256115
 40
0.7805903794404786
 40
1.0
 40
1.0
 40
1.0
 40
1.0
 10
86.22890228763139
 20
-1332.012549553433
 30
0.0
 10
86.0026324584562
 20
-1331.998940950728
 30
0.0
 10
85.55085584845813
 20
-1331.971769637525
 30
0.0
 10
84.9806989819496
 20
-1331.681550526267
 30
0.0
 10
84.57428589768955
 20
-1331.237251982692
 30
0.0
 10
84.52891133652965
 20
-1330.880873046268
 30
0.0
 10
84.50624609723603
 20
-1330.702856693784
 30
0.0
  0
SPLINE
  5
2B5
330
1F
100
AcDbEntity
  8
0
  6
Continuous
 62
     7
370
    25
100
AcDbSpline
210
0.0
220
0.0
230
1.0
 70
     8
 71
     3
 72
    10
 73
     6
 74
     0
 42
0.000000001
 43
0.00000001
 40
0.0
 40
0.0
 40
0.0
 40
0.0
 40
0.2799826635170346
 40
0.5599966672944071
 40
1.0
 40
1.0
 40
1.0
 40
1.0
 10
87.69214416280305
 20
-1331.45870319418
 30
0.0
 10
87.58183132859689
 20
-1331.562061818523
 30
0.0
 10
87.3611933121595
 20
-1331.768790636803
 30
0.0
 10
86.85389581737789
 20
-1331.978187943188
 30
0.0
 10
86.46596637046386
 20
-1331.999515972716
 30
0.0
 10
86.22890228763139
 20
-1332.012549553433
 30
0.0
  0
LINE
  5
2B6
330
1F
100
AcDbEntity
  8
0
  6
Continuous
 62
     7
370
    25
100
AcDbLine
 10
87.0001360996
 20
-1331.2083636861
 30
0.0
 11
87.6921441628
 21
-1331.4587031942
 31
0.0
  0
SPLINE
  5
2B7
330
1F
100
AcDbEntity
  8
0
  6
Continuous
 62
     7
370
    25
100
AcDbSpline
210
0.0
220
0.0
230
1.0
 70
     8
 71
     3
 72
     9
 73
     5
 74
     0
 42
0.000000001
 43
0.00000001
 40
0.0
 40
0.0
 40
0.0
 40
0.0
 40
0.5597186549610883
 40
1.0
 40
1.0
 40
1.0
 40
1.0
 10
86.20786929860627
 20
-1331.474140797177
 30
0.0
 10
86.36900405046838
 20
-1331.461658822697
 30
0.0
 10
86.65688931288348
 20
-1331.439358378769
 30
0.0
 10
86.8952085745366
 20
-1331.278976732891
 30
0.0
 10
87.00013609960591
 20
-1331.208363686124
 30
0.0
  0
SPLINE
  5
2B8
330
1F
100
AcDbEntity
  8
0
  6
Continuous
 62
     7
370
    25
100
AcDbSpline
210
0.0
220
0.0
230
1.0
 70
     8
 71
     3
 72
    10
 73
     6
 74
     0
 42
0.000000001
 43
0.00000001
 40
0.0
 40
0.0
 40
0.0
 40
0.0
 40
0.2796803270346707
 40
0.5599307658315684
 40
1.0
 40
1.0
 40
1.0
 40
1.0
 10
85.26906634107148
 20
-1330.845907841245
 30
0.0
 10
85.30688179842267
 20
-1330.955515276907
 30
0.0
 10
85.38258979769248
 20
-1331.174953576491
 30
0.0
 10
85.73010619365829
 20
-1331.431720457856
 30
0.0
 10
86.02668104144884
 20
-1331.458053185409
 30
0.0
 10
86.20786929860627
 20
-1331.474140797177
 30
0.0
  0
LINE
  5
2B9
330
1F
100
AcDbEntity
  8
0
  6
Continuous
 62
     7
370
    25
100
AcDbLine
 10
87.9136983527
 20
-1330.8459078412
 30
0.0
 11
85.2690663411
 21
-1330.8459078412
 31
0.0
  0
LINE
  5
2BA
330
1F
100
AcDbEntity
  8
0
  6
Continuous
 62
     7
370
    25
100
AcDbLine
 10
87.9165016337
 20
-1330.7274138074
 30
0.0
 11
87.9136983527
 21
-1330.8459078412
 31
0.0
  0
SPLINE
  5
2BB
330
1F
100
AcDbEntity
  8
0
  6
Continuous
 62
     7
370
    25
100
AcDbSpline
210
0.0
220
0.0
230
1.0
 70
     8
 71
     3
 72
    11
 73
     7
 74
     0
 42
0.000000001
 43
0.00000001
 40
0.0
 40
0.0
 40
0.0
 40
0.0
 40
0.2808189003984329
 40
0.560624860181215
 40
0.7802354962828357
 40
1.0
 40
1.0
 40
1.0
 40
1.0
 10
86.18753666415726
 20
-1329.365149651089
 30
0.0
 10
86.41873735696325
 20
-1329.379175639482
 30
0.0
 10
86.88030477957709
 20
-1329.407177023187
 30
0.0
 10
87.46409028321969
 20
-1329.708342874357
 30
0.0
 10
87.85981764697866
 20
-1330.180183850475
 30
0.0
 10
87.89760256072735
 20
-1330.54496124053
 30
0.0
 10
87.91650163367306
 20
-1330.727413807431
 30
0.0
  0
SPLINE
  5
2BC
330
1F
100
AcDbEntity
  8
0
  6
Continuous
 62
     7
370
    25
100
AcDbSpline
210
0.0
220
0.0
230
1.0
 70
     8
 71
     3
 72
    10
 73
     6
 74
     0
 42
0.000000001
 43
0.00000001
 40
0.0
 40
0.0
 40
0.0
 40
0.0
 40
0.2793559852354583
 40
0.5601787743691096
 40
1.0
 40
1.0
 40
1.0
 40
1.0
 10
76.47419425085103
 20
-1330.702856693784
 30
0.0
 10
76.51097307705322
 20
-1330.47945244707
 30
0.0
 10
76.58472384264829
 20
-1330.031470933419
 30
0.0
 10
77.23008691310041
 20
-1329.476191202422
 30
0.0
 10
77.80475510484234
 20
-1329.407234867865
 30
0.0
 10
78.15548481777226
 20
-1329.365149651089
 30
0.0
  0
SPLINE
  5
2BD
330
1F
100
AcDbEntity
  8
0
  6
Continuous
 62
     7
370
    25
100
AcDbSpline
210
0.0
220
0.0
230
1.0
 70
     8
 71
     3
 72
    11
 73
     7
 74
     0
 42
0.000000001
 43
0.00000001
 40
0.0
 40
0.0
 40
0.0
 40
0.0
 40
0.2808499623899448
 40
0.5607535835951074
 40
0.7805900739253202
 40
1.0
 40
1.0
 40
1.0
 40
1.0
 10
78.19685044124638
 20
-1332.012549553433
 30
0.0
 10
77.97058126564166
 20
-1331.998940864958
 30
0.0
 10
77.51880534230618
 20
-1331.971769343319
 30
0.0
 10
76.9486488277121
 20
-1331.681550566761
 30
0.0
 10
76.54223630704928
 20
-1331.23725175686
 30
0.0
 10
76.4968602476047
 20
-1330.880873018416
 30
0.0
 10
76.47419425085103
 20
-1330.702856693784
 30
0.0
  0
SPLINE
  5
2BE
330
1F
100
AcDbEntity
  8
0
  6
Continuous
 62
     7
370
    25
100
AcDbSpline
210
0.0
220
0.0
230
1.0
 70
     8
 71
     3
 72
    10
 73
     6
 74
     0
 42
0.000000001
 43
0.00000001
 40
0.0
 40
0.0
 40
0.0
 40
0.0
 40
0.2799817247094264
 40
0.5599967428666068
 40
1.0
 40
1.0
 40
1.0
 40
1.0
 10
79.66009231641804
 20
-1331.45870319418
 30
0.0
 10
79.54978016522536
 20
-1331.562061917252
 30
0.0
 10
79.32914274529865
 20
-1331.768791654083
 30
0.0
 10
78.82184426223496
 20
-1331.978187342078
 30
0.0
 10
78.43391441741981
 20
-1331.999515756649
 30
0.0
 10
78.19685044124638
 20
-1332.012549553433
 30
0.0
  0
LINE
  5
2BF
330
1F
100
AcDbEntity
  8
0
  6
Continuous
 62
     7
370
    25
100
AcDbLine
 10
78.9680842532
 20
-1331.2083636861
 30
0.0
 11
79.6600923164
 21
-1331.4587031942
 31
0.0
  0
SPLINE
  5
2C0
330
1F
100
AcDbEntity
  8
0
  6
Continuous
 62
     7
370
    25
100
AcDbSpline
210
0.0
220
0.0
230
1.0
 70
     8
 71
     3
 72
     9
 73
     5
 74
     0
 42
0.000000001
 43
0.00000001
 40
0.0
 40
0.0
 40
0.0
 40
0.0
 40
0.5597186549610883
 40
1.0
 40
1.0
 40
1.0
 40
1.0
 10
78.17581745222127
 20
-1331.474140797177
 30
0.0
 10
78.33695220408337
 20
-1331.461658822697
 30
0.0
 10
78.62483746649848
 20
-1331.439358378769
 30
0.0
 10
78.86315672815158
 20
-1331.278976732891
 30
0.0
 10
78.96808425322091
 20
-1331.208363686124
 30
0.0
  0
SPLINE
  5
2C1
330
1F
100
AcDbEntity
  8
0
  6
Continuous
 62
     7
370
    25
100
AcDbSpline
210
0.0
220
0.0
230
1.0
 70
     8
 71
     3
 72
    10
 73
     6
 74
     0
 42
0.000000001
 43
0.00000001
 40
0.0
 40
0.0
 40
0.0
 40
0.0
 40
0.2796811239044459
 40
0.5599305184873807
 40
1.0
 40
1.0
 40
1.0
 40
1.0
 10
77.23701449468648
 20
-1330.845907841245
 30
0.0
 10
77.27483072599057
 20
-1330.955515160103
 30
0.0
 10
77.35054002558763
 20
-1331.174952503682
 30
0.0
 10
77.69805421281467
 20
-1331.431721188899
 30
0.0
 10
77.99462895642766
 20
-1331.458053445991
 30
0.0
 10
78.17581745222127
 20
-1331.474140797177
 30
0.0
  0
LINE
  5
2C2
330
1F
100
AcDbEntity
  8
0
  6
Continuous
 62
     7
370
    25
100
AcDbLine
 10
79.8816465063
 20
-1330.8459078412
 30
0.0
 11
77.2370144947
 21
-1330.8459078412
 31
0.0
  0
LINE
  5
2C3
330
1F
100
AcDbEntity
  8
0
  6
Continuous
 62
     7
370
    25
100
AcDbLine
 10
79.8844516499
 20
-1330.7274138074
 30
0.0
 11
79.8816465063
 21
-1330.8459078412
 31
0.0
  0
SPLINE
  5
2C4
330
1F
100
AcDbEntity
  8
0
  6
Continuous
 62
     7
370
    25
100
AcDbSpline
210
0.0
220
0.0
230
1.0
 70
     8
 71
     3
 72
    11
 73
     7
 74
     0
 42
0.000000001
 43
0.00000001
 40
0.0
 40
0.0
 40
0.0
 40
0.0
 40
0.2808187999411134
 40
0.5606253317159067
 40
0.7802354231601661
 40
0.9999999999999999
 40
0.9999999999999999
 40
0.9999999999999999
 40
0.9999999999999999
 10
78.15548481777226
 20
-1329.365149651089
 30
0.0
 10
78.3866853869144
 20
-1329.379175796493
 30
0.0
 10
78.8482531159817
 20
-1329.407177527221
 30
0.0
 10
79.43204041775337
 20
-1329.708341595732
 30
0.0
 10
79.82776508764161
 20
-1330.180184746534
 30
0.0
 10
79.86555170054213
 20
-1330.544961368296
 30
0.0
 10
79.88445164993321
 20
-1330.727413807431
 30
0.0
  0
LINE
  5
2C5
330
1F
100
AcDbEntity
  8
0
  6
Continuous
 62
     7
370
    25
100
AcDbLine
 10
73.4806068464
 20
-1352.9676949125
 30
0.0
 11
128.4806046857
 21
-1352.9676949125
 31
0.0
  0
ARC
  5
2C6
330
1F
100
AcDbEntity
  8
0
  6
Continuous
 62
     7
370
    25
100
AcDbCircle
 10
73.4806050438
 20
-1347.9677060932
 30
0.0
 40
5.000000000000227
100
AcDbArc
 50
180.0
 51
270.0
  0
LINE
  5
2C7
330
1F
100
AcDbEntity
  8
0
  6
Continuous
 62
     7
370
    25
100
AcDbLine
 10
68.4806041642
 20
-1325.9676848989
 30
0.0
 11
68.4806041642
 21
-1347.9676996808
 31
0.0
  0
ARC
  5
2C8
330
1F
100
AcDbEntity
  8
0
  6
Continuous
 62
     7
370
    25
100
AcDbCircle
 10
73.4806050438
 20
-1325.9677060932
 30
0.0
 40
5.0
100
AcDbArc
 50
90.0
 51
180.0
  0
LINE
  5
2C9
330
1F
100
AcDbEntity
  8
0
  6
Continuous
 62
     7
370
    25
100
AcDbLine
 10
128.4806046857
 20
-1320.9676896673
 30
0.0
 11
73.4806068464
 21
-1320.9676896673
 31
0.0
  0
ARC
  5
2CA
330
1F
100
AcDbEntity
  8
0
  6
Continuous
 62
     7
370
    25
100
AcDbCircle
 10
128.4806050438
 20
-1325.9677060932
 30
0.0
 40
5.0
100
AcDbArc
 50
0.0
 51
90.0
  0
LINE
  5
2CB
330
1F
100
AcDbEntity
  8
0
  6
Continuous
 62
     7
370
    25
100
AcDbLine
 10
133.4806055053
 20
-1347.9676996808
 30
0.0
 11
133.4806055053
 21
-1325.9676848989
 31
0.0
  0
LINE
  5
2CC
330
1F
100
AcDbEntity
  8
0
  6
Continuous
 62
     7
370
    25
100
AcDbLine
 10
73.6921437307
 20
-1330.9489642721
 30
0.0
 11
73.6921437307
 21
-1331.9677268606
 31
0.0
  0
SPLINE
  5
2CD
330
1F
100
AcDbEntity
  8
0
  6
Continuous
 62
     7
370
    25
100
AcDbSpline
210
0.0
220
0.0
230
1.0
 70
     8
 71
     3
 72
     9
 73
     5
 74
     0
 42
0.000000001
 43
0.00000001
 40
0.0
 40
0.0
 40
0.0
 40
0.0
 40
0.5594322435136861
 40
1.0
 40
1.0
 40
1.0
 40
1.0
 10
73.73000385597264
 20
-1330.426648769894
 30
0.0
 10
73.71596108913018
 20
-1330.523584159841
 30
0.0
 10
73.69085927026778
 20
-1330.696858745049
 30
0.0
 10
73.69175090510814
 20
-1330.871863027824
 30
0.0
 10
73.69214373066937
 20
-1330.948964272061
 30
0.0
  0
SPLINE
  5
2CE
330
1F
100
AcDbEntity
  8
0
  6
Continuous
 62
     7
370
    25
100
AcDbSpline
210
0.0
220
0.0
230
1.0
 70
     8
 71
     3
 72
    11
 73
     7
 74
     0
 42
0.000000001
 43
0.00000001
 40
0.0
 40
0.0
 40
0.0
 40
0.0
 40
0.2800858958681597
 40
0.5597195140527784
 40
0.7798680105225274
 40
1.0
 40
1.0
 40
1.0
 40
1.0
 10
74.44444747999226
 20
-1329.948500309506
 30
0.0
 10
74.35809542430141
 20
-1329.954529875483
 30
0.0
 10
74.1855307526712
 20
-1329.966579271003
 30
0.0
 10
73.96755992974077
 20
-1330.079058272463
 30
0.0
 10
73.80790525055502
 20
-1330.237923769579
 30
0.0
 10
73.75597033845236
 20
-1330.363742008848
 30
0.0
 10
73.73000385597264
 20
-1330.426648769894
 30
0.0
  0
SPLINE
  5
2CF
330
1F
100
AcDbEntity
  8
0
  6
Continuous
 62
     7
370
    25
100
AcDbSpline
210
0.0
220
0.0
230
1.0
 70
     8
 71
     3
 72
    11
 73
     7
 74
     0
 42
0.000000001
 43
0.00000001
 40
0.0
 40
0.0
 40
0.0
 40
0.0
 40
0.5000986072558194
 40
0.6252440312772014
 40
0.7504725965430638
 40
1.0
 40
1.0
 40
1.0
 40
1.0
 10
75.03829600647008
 20
-1330.855742607632
 30
0.0
 10
75.04804893568193
 20
-1330.637804357038
 30
0.0
 10
75.06024245249779
 20
-1330.365328912407
 30
0.0
 10
74.8907795393079
 20
-1330.090637259302
 30
0.0
 10
74.71089973944197
 20
-1329.96998005602
 30
0.0
 10
74.5509490198516
 20
-1329.957085810279
 30
0.0
 10
74.44444747999226
 20
-1329.948500309506
 30
0.0
  0
LINE
  5
2D0
330
1F
100
AcDbEntity
  8
0
  6
Continuous
 62
     7
370
    25
100
AcDbLine
 10
75.0382960065
 20
-1331.9677268606
 30
0.0
 11
75.0382960065
 21
-1330.8557426076
 31
0.0
  0
LINE
  5
2D1
330
1F
100
AcDbEntity
  8
0
  6
Continuous
 62
     7
370
    25
100
AcDbLine
 10
75.8459910972
 20
-1331.9677268606
 30
0.0
 11
75.0382960065
 21
-1331.9677268606
 31
0.0
  0
LINE
  5
2D2
330
1F
100
AcDbEntity
  8
0
  6
Continuous
 62
     7
370
    25
100
AcDbLine
 10
75.8459910972
 20
-1330.2906309705
 30
0.0
 11
75.8459910972
 21
-1331.9677268606
 31
0.0
  0
SPLINE
  5
2D3
330
1F
100
AcDbEntity
  8
0
  6
Continuous
 62
     7
370
    25
100
AcDbSpline
210
0.0
220
0.0
230
1.0
 70
     8
 71
     3
 72
    10
 73
     6
 74
     0
 42
0.000000001
 43
0.00000001
 40
0.0
 40
0.0
 40
0.0
 40
0.0
 40
0.2802066845493502
 40
0.5602839664948477
 40
1.0
 40
1.0
 40
1.0
 40
1.0
 10
75.55081772044217
 20
-1329.626635227719
 30
0.0
 10
75.60328161058716
 20
-1329.673946296855
 30
0.0
 10
75.70818516246159
 20
-1329.768546586343
 30
0.0
 10
75.82463942885701
 20
-1329.998109174172
 30
0.0
 10
75.8378939905302
 20
-1330.179699114626
 30
0.0
 10
75.8459910972408
 20
-1330.290630970517
 30
0.0
  0
SPLINE
  5
2D4
330
1F
100
AcDbEntity
  8
0
  6
Continuous
 62
     7
370
    25
100
AcDbSpline
210
0.0
220
0.0
230
1.0
 70
     8
 71
     3
 72
     9
 73
     5
 74
     0
 42
0.000000001
 43
0.00000001
 40
0.0
 40
0.0
 40
0.0
 40
0.0
 40
0.5598838702924642
 40
0.9999999999999999
 40
0.9999999999999999
 40
0.9999999999999999
 40
0.9999999999999999
 10
74.70246108606374
 20
-1329.365149651089
 30
0.0
 10
74.87341295851733
 20
-1329.375749167444
 30
0.0
 10
75.17874747791383
 20
-1329.394680801159
 30
0.0
 10
75.4371087550727
 20
-1329.55574727474
 30
0.0
 10
75.55081772044217
 20
-1329.626635227719
 30
0.0
  0
SPLINE
  5
2D5
330
1F
100
AcDbEntity
  8
0
  6
Continuous
 62
     7
370
    25
100
AcDbSpline
210
0.0
220
0.0
230
1.0
 70
     8
 71
     3
 72
     9
 73
     5
 74
     0
 42
0.000000001
 43
0.00000001
 40
0.0
 40
0.0
 40
0.0
 40
0.0
 40
0.5599290002627783
 40
1.0
 40
1.0
 40
1.0
 40
1.0
 10
73.69214373066937
 20
-1329.686955128232
 30
0.0
 10
73.86863660309798
 20
-1329.586519317402
 30
0.0
 10
74.18384241016598
 20
-1329.407146913431
 30
0.0
 10
74.54397651188208
 20
-1329.377983585825
 30
0.0
 10
74.70246108606374
 20
-1329.365149651089
 30
0.0
  0
LINE
  5
2D6
330
1F
100
AcDbEntity
  8
0
  6
Continuous
 62
     7
370
    25
100
AcDbLine
 10
73.6921437307
 20
-1328.3779775243
 30
0.0
 11
73.6921437307
 21
-1329.6869551282
 31
0.0
  0
LINE
  5
2D7
330
1F
100
AcDbEntity
  8
0
  6
Continuous
 62
     7
370
    25
100
AcDbLine
 10
72.8844523652
 20
-1328.3779775243
 30
0.0
 11
73.6921437307
 21
-1328.3779775243
 31
0.0
  0
LINE
  5
2D8
330
1F
100
AcDbEntity
  8
0
  6
Continuous
 62
     7
370
    25
100
AcDbLine
 10
72.8844523652
 20
-1331.9677268606
 30
0.0
 11
72.8844523652
 21
-1328.3779775243
 31
0.0
  0
LINE
  5
2D9
330
1F
100
AcDbEntity
  8
0
  6
Continuous
 62
     7
370
    25
100
AcDbLine
 10
73.6921437307
 20
-1331.9677268606
 30
0.0
 11
72.8844523652
 21
-1331.9677268606
 31
0.0
  0
LINE
  5
2DA
330
1F
100
AcDbEntity
  8
0
  6
Continuous
 62
     7
370
    25
100
AcDbLine
 10
81.365221016
 20
-1332.9100166898
 30
0.0
 11
80.5575277878
 21
-1332.9100166898
 31
0.0
  0
LINE
  5
2DB
330
1F
100
AcDbEntity
  8
0
  6
Continuous
 62
     7
370
    25
100
AcDbLine
 10
81.365221016
 20
-1331.6788231473
 30
0.0
 11
81.365221016
 21
-1332.9100166898
 31
0.0
  0
SPLINE
  5
2DC
330
1F
100
AcDbEntity
  8
0
  6
Continuous
 62
     7
370
    25
100
AcDbSpline
210
0.0
220
0.0
230
1.0
 70
     8
 71
     3
 72
     9
 73
     5
 74
     0
 42
0.000000001
 43
0.00000001
 40
0.0
 40
0.0
 40
0.0
 40
0.0
 40
0.5594500237521235
 40
1.0
 40
1.0
 40
1.0
 40
1.0
 10
82.38815779223954
 20
-1332.012549553433
 30
0.0
 10
82.18126357598828
 20
-1331.996583271486
 30
0.0
 10
81.81144642080498
 20
-1331.968044025317
 30
0.0
 10
81.50168597361238
 20
-1331.7672728735
 30
0.0
 10
81.36522101595914
 20
-1331.678823147336
 30
0.0
  0
SPLINE
  5
2DD
330
1F
100
AcDbEntity
  8
0
  6
Continuous
 62
     7
370
    25
100
AcDbSpline
210
0.0
220
0.0
230
1.0
 70
     8
 71
     3
 72
    11
 73
     7
 74
     0
 42
0.000000001
 43
0.00000001
 40
0.0
 40
0.0
 40
0.0
 40
0.0
 40
0.2784019585971567
 40
0.5582234718717138
 40
0.7790176745724395
 40
1.0
 40
1.0
 40
1.0
 40
1.0
 10
83.96778518691575
 20
-1330.693796787778
 30
0.0
 10
83.93391476764263
 20
-1330.908081387637
 30
0.0
 10
83.86600122588573
 20
-1331.337743211514
 30
0.0
 10
83.39330236151352
 20
-1331.746965485239
 30
0.0
 10
82.89317062093302
 20
-1331.978779560028
 30
0.0
 10
82.55654318408558
 20
-1332.001289693784
 30
0.0
 10
82.38815779223954
 20
-1332.012549553433
 30
0.0
  0
SPLINE
  5
2DE
330
1F
100
AcDbEntity
  8
0
  6
Continuous
 62
     7
370
    25
100
AcDbSpline
210
0.0
220
0.0
230
1.0
 70
     8
 71
     3
 72
    11
 73
     7
 74
     0
 42
0.000000001
 43
0.00000001
 40
0.0
 40
0.0
 40
0.0
 40
0.0
 40
0.2803583960122938
 40
0.5602676796868711
 40
0.7800817162959311
 40
1.0
 40
1.0
 40
1.0
 40
1.0
 10
82.4119959248594
 20
-1329.365149651089
 30
0.0
 10
82.62586755259147
 20
-1329.383282689677
 30
0.0
 10
83.05326820234785
 20
-1329.419519719137
 30
0.0
 10
83.57198737563553
 20
-1329.739866732659
 30
0.0
 10
83.91691875572998
 20
-1330.188122624692
 30
0.0
 10
83.95082703031528
 20
-1330.525212095545
 30
0.0
 10
83.96778518691575
 20
-1330.693796787778
 30
0.0
  0
SPLINE
  5
2DF
330
1F
100
AcDbEntity
  8
0
  6
Continuous
 62
     7
370
    25
100
AcDbSpline
210
0.0
220
0.0
230
1.0
 70
     8
 71
     3
 72
     9
 73
     5
 74
     0
 42
0.000000001
 43
0.00000001
 40
0.0
 40
0.0
 40
0.0
 40
0.0
 40
0.5592361179317286
 40
1.0
 40
1.0
 40
1.0
 40
1.0
 10
81.36522101595914
 20
-1329.69816080145
 30
0.0
 10
81.54661741645425
 20
-1329.589824891297
 30
0.0
 10
81.87098201787876
 20
-1329.396103658567
 30
0.0
 10
82.24648692448704
 20
-1329.374619216971
 30
0.0
 10
82.4119959248594
 20
-1329.365149651089
 30
0.0
  0
LINE
  5
2E0
330
1F
100
AcDbEntity
  8
0
  6
Continuous
 62
     7
370
    25
100
AcDbLine
 10
81.365221016
 20
-1329.4100319486
 30
0.0
 11
81.365221016
 21
-1329.6981608014
 31
0.0
  0
LINE
  5
2E1
330
1F
100
AcDbEntity
  8
0
  6
Continuous
 62
     7
370
    25
100
AcDbLine
 10
80.5575277878
 20
-1329.4100319486
 30
0.0
 11
81.365221016
 21
-1329.4100319486
 31
0.0
  0
LINE
  5
2E2
330
1F
100
AcDbEntity
  8
0
  6
Continuous
 62
     7
370
    25
100
AcDbLine
 10
80.5575277878
 20
-1332.9100166898
 30
0.0
 11
80.5575277878
 21
-1329.4100319486
 31
0.0
  0
SPLINE
  5
2E3
330
1F
100
AcDbEntity
  8
0
  6
Continuous
 62
     7
370
    25
100
AcDbSpline
210
0.0
220
0.0
230
1.0
 70
     8
 71
     3
 72
    10
 73
     6
 74
     0
 42
0.000000001
 43
0.00000001
 40
0.0
 40
0.0
 40
0.0
 40
0.0
 40
0.2790254789573167
 40
0.5601887719270856
 40
0.9999999999999999
 40
0.9999999999999999
 40
0.9999999999999999
 40
0.9999999999999999
 10
104.3844510091833
 20
-1330.216303978482
 30
0.0
 10
104.3286966790613
 20
-1330.521829450341
 30
0.0
 10
104.216760844967
 20
-1331.135221243494
 30
0.0
 10
103.3265090231274
 20
-1331.88898456203
 30
0.0
 10
102.5391421490393
 20
-1331.993608695762
 30
0.0
 10
102.0588300412885
 20
-1332.057431850949
 30
0.0
  0
SPLINE
  5
2E4
330
1F
100
AcDbEntity
  8
0
  6
Continuous
 62
     7
370
    25
100
AcDbSpline
210
0.0
220
0.0
230
1.0
 70
     8
 71
     3
 72
    11
 73
     7
 74
     0
 42
0.000000001
 43
0.00000001
 40
0.0
 40
0.0
 40
0.0
 40
0.0
 40
0.2807613615675667
 40
0.5608277512292517
 40
0.7806847575933492
 40
1.0
 40
1.0
 40
1.0
 40
1.0
 10
102.0223720221213
 20
-1328.377977524319
 30
0.0
 10
102.334536428109
 20
-1328.399690722835
 30
0.0
 10
102.9580925358527
 20
-1328.44306337293
 30
0.0
 10
103.7301326030227
 20
-1328.868978596986
 30
0.0
 10
104.288302395175
 20
-1329.480031113997
 30
0.0
 10
104.3524278396154
 20
-1329.971081610684
 30
0.0
 10
104.3844510091833
 20
-1330.216303978482
 30
0.0
  0
SPLINE
  5
2E5
330
1F
100
AcDbEntity
  8
0
  6
Continuous
 62
     7
370
    25
100
AcDbSpline
210
0.0
220
0.0
230
1.0
 70
     8
 71
     3
 72
    11
 73
     7
 74
     0
 42
0.000000001
 43
0.00000001
 40
0.0
 40
0.0
 40
0.0
 40
0.0
 40
0.2782168422771049
 40
0.5579017121219982
 40
0.7788831816936802
 40
1.0
 40
1.0
 40
1.0
 40
1.0
 10
99.71778450891291
 20
-1330.233112488309
 30
0.0
 10
99.77370714669712
 20
-1329.927676338831
 30
0.0
 10
99.88584750136016
 20
-1329.31519238803
 30
0.0
 10
100.569806698768
 20
-1328.733521453724
 30
0.0
 10
101.2987294984852
 20
-1328.427575519595
 30
0.0
 10
101.7811086206615
 20
-1328.394513563393
 30
0.0
 10
102.0223720221213
 20
-1328.377977524319
 30
0.0
  0
SPLINE
  5
2E6
330
1F
100
AcDbEntity
  8
0
  6
Continuous
 62
     7
370
    25
100
AcDbSpline
210
0.0
220
0.0
230
1.0
 70
     8
 71
     3
 72
    11
 73
     7
 74
     0
 42
0.000000001
 43
0.00000001
 40
0.0
 40
0.0
 40
0.0
 40
0.0
 40
0.2807072901831805
 40
0.5608402624020794
 40
0.7807725342206882
 40
1.0
 40
1.0
 40
1.0
 40
1.0
 10
102.0588300412885
 20
-1332.057431850949
 30
0.0
 10
101.7499305843275
 20
-1332.034844837636
 30
0.0
 10
101.1327636686239
 20
-1331.989717023302
 30
0.0
 10
100.3729482043987
 20
-1331.56181882183
 30
0.0
 10
99.81779922089362
 20
-1330.960945693075
 30
0.0
 10
99.75108705752825
 20
-1330.47546384048
 30
0.0
 10
99.71778450891291
 20
-1330.233112488309
 30
0.0
  0
SPLINE
  5
2E7
330
1F
100
AcDbEntity
  8
0
  6
Continuous
 62
     7
370
    25
100
AcDbSpline
210
0.0
220
0.0
230
1.0
 70
     8
 71
     3
 72
    11
 73
     7
 74
     0
 42
0.000000001
 43
0.00000001
 40
0.0
 40
0.0
 40
0.0
 40
0.0
 40
0.2795294276913753
 40
0.5592710355479825
 40
0.779573232818563
 40
1.0
 40
1.0
 40
1.0
 40
1.0
 10
93.51606184974229
 20
-1342.012599621335
 30
0.0
 10
93.32177501526418
 20
-1341.989627553737
 30
0.0
 10
92.93305387055564
 20
-1341.943665981318
 30
0.0
 10
92.50581733981541
 20
-1341.582008861017
 30
0.0
 10
92.24409604505509
 20
-1341.148915066478
 30
0.0
 10
92.2180108430705
 20
-1340.843657670488
 30
0.0
 10
92.20496455565011
 20
-1340.69098583273
 30
0.0
  0
SPLINE
  5
2E8
330
1F
100
AcDbEntity
  8
0
  6
Continuous
 62
     7
370
    25
100
AcDbSpline
210
0.0
220
0.0
230
1.0
 70
     8
 71
     3
 72
    11
 73
     7
 74
     0
 42
0.000000001
 43
0.00000001
 40
0.0
 40
0.0
 40
0.0
 40
0.0
 40
0.2795777626263263
 40
0.5591147524859418
 40
0.7795161786422709
 40
1.0
 40
1.0
 40
1.0
 40
1.0
 10
94.8523998482517
 20
-1340.686753902951
 30
0.0
 10
94.82733632834186
 20
-1340.882421991874
 30
0.0
 10
94.77721294370932
 20
-1341.273729634082
 30
0.0
 10
94.42204797329963
 20
-1341.714831625405
 30
0.0
 10
93.97833167369369
 20
-1341.971476934712
 30
0.0
 10
93.67017098801365
 20
-1341.998890351401
 30
0.0
 10
93.51606184974229
 20
-1342.012599621335
 30
0.0
  0
SPLINE
  5
2E9
330
1F
100
AcDbEntity
  8
0
  6
Continuous
 62
     7
370
    25
100
AcDbSpline
210
0.0
220
0.0
230
1.0
 70
     8
 71
     3
 72
    11
 73
     7
 74
     0
 42
0.000000001
 43
0.00000001
 40
0.0
 40
0.0
 40
0.0
 40
0.0
 40
0.2796497889967153
 40
0.5592662760937488
 40
0.7796538597663044
 40
1.0
 40
1.0
 40
1.0
 40
1.0
 10
93.51325670614754
 20
-1339.365140114346
 30
0.0
 10
93.70846881729034
 20
-1339.389854814664
 30
0.0
 10
94.09886979287809
 20
-1339.439281272168
 30
0.0
 10
94.54243230109209
 20
-1339.787698563644
 30
0.0
 10
94.80667844923182
 20
-1340.225919976952
 30
0.0
 10
94.83716033734446
 20
-1340.533152224257
 30
0.0
 10
94.8523998482517
 20
-1340.686753902951
 30
0.0
  0
SPLINE
  5
2EA
330
1F
100
AcDbEntity
  8
0
  6
Continuous
 62
     7
370
    25
100
AcDbSpline
210
0.0
220
0.0
230
1.0
 70
     8
 71
     3
 72
     9
 73
     5
 74
     0
 42
0.000000001
 43
0.00000001
 40
0.0
 40
0.0
 40
0.0
 40
0.0
 40
0.5593740119186867
 40
0.9999999999999999
 40
0.9999999999999999
 40
0.9999999999999999
 40
0.9999999999999999
 10
92.63895901277577
 20
-1339.707986031094
 30
0.0
 10
92.78530587492178
 20
-1339.598507725681
 30
0.0
 10
93.04693201240359
 20
-1339.402791973643
 30
0.0
 10
93.37062789016923
 20
-1339.376656210712
 30
0.0
 10
93.51325670614754
 20
-1339.365140114346
 30
0.0
  0
SPLINE
  5
2EB
330
1F
100
AcDbEntity
  8
0
  6
Continuous
 62
     7
370
    25
100
AcDbSpline
210
0.0
220
0.0
230
1.0
 70
     8
 71
     3
 72
     9
 73
     5
 74
     0
 42
0.000000001
 43
0.00000001
 40
0.0
 40
0.0
 40
0.0
 40
0.0
 40
0.5590729552296009
 40
1.0
 40
1.0
 40
1.0
 40
1.0
 10
92.20496455565011
 20
-1340.69098583273
 30
0.0
 10
92.2281494354859
 20
-1340.480501448315
 30
0.0
 10
92.26961965796569
 20
-1340.104013223576
 30
0.0
 10
92.5259403066415
 20
-1339.829171277955
 30
0.0
 10
92.63895901277577
 20
-1339.707986031094
 30
0.0
  0
SPLINE
  5
2EC
330
1F
100
AcDbEntity
  8
0
  6
Continuous
 62
     7
370
    25
100
AcDbSpline
210
0.0
220
0.0
230
1.0
 70
     8
 71
     3
 72
     9
 73
     5
 74
     0
 42
0.000000001
 43
0.00000001
 40
0.0
 40
0.0
 40
0.0
 40
0.0
 40
0.5592585814323202
 40
0.9999999999999999
 40
0.9999999999999999
 40
0.9999999999999999
 40
0.9999999999999999
 10
104.018165100216
 20
-1339.696065102139
 30
0.0
 10
104.1506828060163
 20
-1339.589755553392
 30
0.0
 10
104.387635282384
 20
-1339.399665401402
 30
0.0
 10
104.6883932843014
 20
-1339.375701845825
 30
0.0
 10
104.8209497927121
 20
-1339.365140114346
 30
0.0
  0
SPLINE
  5
2ED
330
1F
100
AcDbEntity
  8
0
  6
Continuous
 62
     7
370
    25
100
AcDbSpline
210
0.0
220
0.0
230
1.0
 70
     8
 71
     3
 72
     9
 73
     5
 74
     0
 42
0.000000001
 43
0.00000001
 40
0.0
 40
0.0
 40
0.0
 40
0.0
 40
0.5598832753394352
 40
1.0
 40
1.0
 40
1.0
 40
1.0
 10
103.6472719384721
 20
-1340.666428719083
 30
0.0
 10
103.6624191045891
 20
-1340.463094817376
 30
0.0
 10
103.6894732545953
 20
-1340.099922865894
 30
0.0
 10
103.9177129798844
 20
-1339.819488817154
 30
0.0
 10
104.018165100216
 20
-1339.696065102139
 30
0.0
  0
SPLINE
  5
2EE
330
1F
100
AcDbEntity
  8
0
  6
Continuous
 62
     7
370
    25
100
AcDbSpline
210
0.0
220
0.0
230
1.0
 70
     8
 71
     3
 72
    11
 73
     7
 74
     0
 42
0.000000001
 43
0.00000001
 40
0.0
 40
0.0
 40
0.0
 40
0.0
 40
0.2792739167340267
 40
0.5588729305913372
 40
0.7792742517380767
 40
1.0
 40
1.0
 40
1.0
 40
1.0
 10
104.8560057057432
 20
-1341.967717323819
 30
0.0
 10
104.6700206687888
 20
-1341.94433717371
 30
0.0
 10
104.2978340934567
 20
-1341.897549657134
 30
0.0
 10
103.8995552267615
 20
-1341.533349740947
 30
0.0
 10
103.6772215910457
 20
-1341.104646453499
 30
0.0
 10
103.6572600495717
 20
-1340.8125728991
 30
0.0
 10
103.6472719384721
 20
-1340.666428719083
 30
0.0
  0
SPLINE
  5
2EF
330
1F
100
AcDbEntity
  8
0
  6
Continuous
 62
     7
370
    25
100
AcDbSpline
210
0.0
220
0.0
230
1.0
 70
     8
 71
     3
 72
     9
 73
     5
 74
     0
 42
0.000000001
 43
0.00000001
 40
0.0
 40
0.0
 40
0.0
 40
0.0
 40
0.5588077883961293
 40
1.0
 40
1.0
 40
1.0
 40
1.0
 10
105.6216306275121
 20
-1341.648713264981
 30
0.0
 10
105.4965462152601
 20
-1341.753443433866
 30
0.0
 10
105.272704646031
 20
-1341.940860594221
 30
0.0
 10
104.98356976386
 20
-1341.959495672444
 30
0.0
 10
104.8560057057432
 20
-1341.967717323819
 30
0.0
  0
SPLINE
  5
2F0
330
1F
100
AcDbEntity
  8
0
  6
Continuous
 62
     7
370
    25
100
AcDbSpline
210
0.0
220
0.0
230
1.0
 70
     8
 71
     3
 72
    11
 73
     7
 74
     0
 42
0.000000001
 43
0.00000001
 40
0.0
 40
0.0
 40
0.0
 40
0.0
 40
0.2811196415568573
 40
0.5594165754800724
 40
0.7785293996612485
 40
1.0
 40
1.0
 40
1.0
 40
1.0
 10
104.9275201036028
 20
-1342.371538792172
 30
0.0
 10
105.0367419899178
 20
-1342.366260791283
 30
0.0
 10
105.2540890712938
 20
-1342.355757785635
 30
0.0
 10
105.5374646521891
 20
-1342.185655411449
 30
0.0
 10
105.6185889357648
 20
-1341.9046277454
 30
0.0
 10
105.6206131194659
 20
-1341.734321888274
 30
0.0
 10
105.6216306275121
 20
-1341.648713264981
 30
0.0
  0
SPLINE
  5
2F1
330
1F
100
AcDbEntity
  8
0
  6
Continuous
 62
     7
370
    25
100
AcDbSpline
210
0.0
220
0.0
230
1.0
 70
     8
 71
     3
 72
    10
 73
     6
 74
     0
 42
0.000000001
 43
0.00000001
 40
0.0
 40
0.0
 40
0.0
 40
0.0
 40
0.2798433695789079
 40
0.5599529942632161
 40
0.9999999999999999
 40
0.9999999999999999
 40
0.9999999999999999
 40
0.9999999999999999
 10
104.3427845685176
 20
-1342.147186909238
 30
0.0
 10
104.3861919037238
 20
-1342.1895456702
 30
0.0
 10
104.4730478737556
 20
-1342.274303494084
 30
0.0
 10
104.6773602042028
 20
-1342.356632796106
 30
0.0
 10
104.8326383852081
 20
-1342.365885182123
 30
0.0
 10
104.9275201036028
 20
-1342.371538792172
 30
0.0
  0
LINE
  5
2F2
330
1F
100
AcDbEntity
  8
0
  6
Continuous
 62
     7
370
    25
100
AcDbLine
 10
103.6444672605
 20
-1342.1471869092
 30
0.0
 11
104.3427845685
 21
-1342.1471869092
 31
0.0
  0
SPLINE
  5
2F3
330
1F
100
AcDbEntity
  8
0
  6
Continuous
 62
     7
370
    25
100
AcDbSpline
210
0.0
220
0.0
230
1.0
 70
     8
 71
     3
 72
    11
 73
     7
 74
     0
 42
0.000000001
 43
0.00000001
 40
0.0
 40
0.0
 40
0.0
 40
0.0
 40
0.2805655299732435
 40
0.5600864193146428
 40
0.7799518596698103
 40
1.0
 40
1.0
 40
1.0
 40
1.0
 10
104.9744950829438
 20
-1342.954889450589
 30
0.0
 10
104.8174352754459
 20
-1342.94887393969
 30
0.0
 10
104.5039004473859
 20
-1342.93686531568
 30
0.0
 10
104.0911869938134
 20
-1342.769232773609
 30
0.0
 10
103.7883182742154
 20
-1342.489601872322
 30
0.0
 10
103.6924308727244
 20
-1342.261356827657
 30
0.0
 10
103.6444672605387
 20
-1342.147186909238
 30
0.0
  0
SPLINE
  5
2F4
330
1F
100
AcDbEntity
  8
0
  6
Continuous
 62
     7
370
    25
100
AcDbSpline
210
0.0
220
0.0
230
1.0
 70
     8
 71
     3
 72
    10
 73
     6
 74
     0
 42
0.000000001
 43
0.00000001
 40
0.0
 40
0.0
 40
0.0
 40
0.0
 40
0.2799014543632095
 40
0.5600070235718662
 40
1.0
 40
1.0
 40
1.0
 40
1.0
 10
106.0331892909846
 20
-1342.542604122678
 30
0.0
 10
105.9544857226045
 20
-1342.619377740269
 30
0.0
 10
105.797021192192
 20
-1342.77298096171
 30
0.0
 10
105.4285417952394
 20
-1342.927061345829
 30
0.0
 10
105.146703361843
 20
-1342.944334963802
 30
0.0
 10
104.9744950829438
 20
-1342.954889450589
 30
0.0
  0
SPLINE
  5
2F5
330
1F
100
AcDbEntity
  8
0
  6
Continuous
 62
     7
370
    25
100
AcDbSpline
210
0.0
220
0.0
230
1.0
 70
     8
 71
     3
 72
     9
 73
     5
 74
     0
 42
0.000000001
 43
0.00000001
 40
0.0
 40
0.0
 40
0.0
 40
0.0
 40
0.5611723521083322
 40
1.0
 40
1.0
 40
1.0
 40
1.0
 10
106.294707696735
 20
-1341.59191003851
 30
0.0
 10
106.2907770809143
 20
-1341.783173893818
 30
0.0
 10
106.2837727874811
 20
-1342.124002971712
 30
0.0
 10
106.1096146825381
 20
-1342.414935072981
 30
0.0
 10
106.0331892909846
 20
-1342.542604122678
 30
0.0
  0
LINE
  5
2F6
330
1F
100
AcDbEntity
  8
0
  6
Continuous
 62
     7
370
    25
100
AcDbLine
 10
106.2947076967
 20
-1339.4100224119
 30
0.0
 11
106.2947076967
 21
-1341.5919100385
 31
0.0
  0
LINE
  5
2F7
330
1F
100
AcDbEntity
  8
0
  6
Continuous
 62
     7
370
    25
100
AcDbLine
 10
105.6216306275
 20
-1339.4100224119
 30
0.0
 11
106.2947076967
 21
-1339.4100224119
 31
0.0
  0
LINE
  5
2F8
330
1F
100
AcDbEntity
  8
0
  6
Continuous
 62
     7
370
    25
100
AcDbLine
 10
105.6216306275
 20
-1339.6946941953
 30
0.0
 11
105.6216306275
 21
-1339.4100224119
 31
0.0
  0
SPLINE
  5
2F9
330
1F
100
AcDbEntity
  8
0
  6
Continuous
 62
     7
370
    25
100
AcDbSpline
210
0.0
220
0.0
230
1.0
 70
     8
 71
     3
 72
     9
 73
     5
 74
     0
 42
0.000000001
 43
0.00000001
 40
0.0
 40
0.0
 40
0.0
 40
0.0
 40
0.558744513251803
 40
1.0
 40
1.0
 40
1.0
 40
1.0
 10
104.8209497927121
 20
-1339.365140114346
 30
0.0
 10
104.9884196448331
 20
-1339.384717043917
 30
0.0
 10
105.2881449184584
 20
-1339.41975439839
 30
0.0
 10
105.5195304792559
 20
-1339.610518492229
 30
0.0
 10
105.6216306275121
 20
-1339.694694195309
 30
0.0
  0
LINE
  5
2FA
330
1F
100
AcDbEntity
  8
0
  6
Continuous
 62
     7
370
    25
100
AcDbLine
 10
107.5511179621
 20
-1340.9489547353
 30
0.0
 11
107.5511179621
 21
-1341.9677173238
 31
0.0
  0
SPLINE
  5
2FB
330
1F
100
AcDbEntity
  8
0
  6
Continuous
 62
     7
370
    25
100
AcDbSpline
210
0.0
220
0.0
230
1.0
 70
     8
 71
     3
 72
     9
 73
     5
 74
     0
 42
0.000000001
 43
0.00000001
 40
0.0
 40
0.0
 40
0.0
 40
0.0
 40
0.559694921253846
 40
1.0
 40
1.0
 40
1.0
 40
1.0
 10
107.5805649849019
 20
-1340.426639233151
 30
0.0
 10
107.5696688536273
 20
-1340.523805331358
 30
0.0
 10
107.5502008705156
 20
-1340.697410798402
 30
0.0
 10
107.5508376047564
 20
-1340.872057087322
 30
0.0
 10
107.5511179620764
 20
-1340.948954735318
 30
0.0
  0
SPLINE
  5
2FC
330
1F
100
AcDbEntity
  8
0
  6
Continuous
 62
     7
370
    25
100
AcDbSpline
210
0.0
220
0.0
230
1.0
 70
     8
 71
     3
 72
    10
 73
     6
 74
     0
 42
0.000000001
 43
0.00000001
 40
0.0
 40
0.0
 40
0.0
 40
0.0
 40
0.2803443854102297
 40
0.5607093658325819
 40
1.0
 40
1.0
 40
1.0
 40
1.0
 10
108.1281410985059
 20
-1339.948490772763
 30
0.0
 10
108.0545688931806
 20
-1339.95648614273
 30
0.0
 10
107.907419077676
 20
-1339.972477470032
 30
0.0
 10
107.6877507552124
 20
-1340.138171166788
 30
0.0
 10
107.6211930166712
 20
-1340.31729738926
 30
0.0
 10
107.5805649849019
 20
-1340.426639233151
 30
0.0
  0
SPLINE
  5
2FD
330
1F
100
AcDbEntity
  8
0
  6
Continuous
 62
     7
370
    25
100
AcDbSpline
210
0.0
220
0.0
230
1.0
 70
     8
 71
     3
 72
    12
 73
     8
 74
     0
 42
0.000000001
 43
0.00000001
 40
0.0
 40
0.0
 40
0.0
 40
0.0
 40
0.5004793091079983
 40
0.6255890589366617
 40
0.7502160738723528
 40
0.8749719333442915
 40
1.0
 40
1.0
 40
1.0
 40
1.0
 10
108.5831691267333
 20
-1340.855733070889
 30
0.0
 10
108.5881142829791
 20
-1340.66067376824
 30
0.0
 10
108.5942956287126
 20
-1340.416853567564
 30
0.0
 10
108.5010177148808
 20
-1340.139275923636
 30
0.0
 10
108.4059711135249
 20
-1340.025699216671
 30
0.0
 10
108.2734199479602
 20
-1339.957654502959
 30
0.0
 10
108.1766025512421
 20
-1339.951547567881
 30
0.0
 10
108.1281410985059
 20
-1339.948490772763
 30
0.0
  0
LINE
  5
2FE
330
1F
100
AcDbEntity
  8
0
  6
Continuous
 62
     7
370
    25
100
AcDbLine
 10
108.5831691267
 20
-1341.9677173238
 30
0.0
 11
108.5831691267
 21
-1340.8557330709
 31
0.0
  0
LINE
  5
2FF
330
1F
100
AcDbEntity
  8
0
  6
Continuous
 62
     7
370
    25
100
AcDbLine
 10
109.2113742885
 20
-1341.9677173238
 30
0.0
 11
108.5831691267
 21
-1341.9677173238
 31
0.0
  0
LINE
  5
300
330
1F
100
AcDbEntity
  8
0
  6
Continuous
 62
     7
370
    25
100
AcDbLine
 10
109.2113742885
 20
-1340.2906214338
 30
0.0
 11
109.2113742885
 21
-1341.9677173238
 31
0.0
  0
SPLINE
  5
301
330
1F
100
AcDbEntity
  8
0
  6
Continuous
 62
     7
370
    25
100
AcDbSpline
210
0.0
220
0.0
230
1.0
 70
     8
 71
     3
 72
     9
 73
     5
 74
     0
 42
0.000000001
 43
0.00000001
 40
0.0
 40
0.0
 40
0.0
 40
0.0
 40
0.5576246089150213
 40
1.0
 40
1.0
 40
1.0
 40
1.0
 10
108.9835097187563
 20
-1339.626685295621
 30
0.0
 10
109.0610288673772
 20
-1339.738907328508
 30
0.0
 10
109.200045595444
 20
-1339.940157472589
 30
0.0
 10
109.2078997873096
 20
-1340.183134414203
 30
0.0
 10
109.2113742885078
 20
-1340.290621433774
 30
0.0
  0
SPLINE
  5
302
330
1F
100
AcDbEntity
  8
0
  6
Continuous
 62
     7
370
    25
100
AcDbSpline
210
0.0
220
0.0
230
1.0
 70
     8
 71
     3
 72
     9
 73
     5
 74
     0
 42
0.000000001
 43
0.00000001
 40
0.0
 40
0.0
 40
0.0
 40
0.0
 40
0.5593083228237475
 40
0.9999999999999999
 40
0.9999999999999999
 40
0.9999999999999999
 40
0.9999999999999999
 10
108.3300641727067
 20
-1339.365140114346
 30
0.0
 10
108.4671687886586
 20
-1339.378267247128
 30
0.0
 10
108.7123012323523
 20
-1339.401737544719
 30
0.0
 10
108.9005500372149
 20
-1339.557876262298
 30
0.0
 10
108.9835097187563
 20
-1339.626685295621
 30
0.0
  0
SPLINE
  5
303
330
1F
100
AcDbEntity
  8
0
  6
Continuous
 62
     7
370
    25
100
AcDbSpline
210
0.0
220
0.0
230
1.0
 70
     8
 71
     3
 72
     9
 73
     5
 74
     0
 42
0.000000001
 43
0.00000001
 40
0.0
 40
0.0
 40
0.0
 40
0.0
 40
0.5602612230135294
 40
0.9999999999999999
 40
0.9999999999999999
 40
0.9999999999999999
 40
0.9999999999999999
 10
107.5511179620764
 20
-1339.686945591489
 30
0.0
 10
107.681718457168
 20
-1339.588495329242
 30
0.0
 10
107.9148248898944
 20
-1339.412773258531
 30
0.0
 10
108.2032378224691
 20
-1339.379688684477
 30
0.0
 10
108.3300641727067
 20
-1339.365140114346
 30
0.0
  0
LINE
  5
304
330
1F
100
AcDbEntity
  8
0
  6
Continuous
 62
     7
370
    25
100
AcDbLine
 10
107.5511179621
 20
-1338.3779679876
 30
0.0
 11
107.5511179621
 21
-1339.6869455915
 31
0.0
  0
LINE
  5
305
330
1F
100
AcDbEntity
  8
0
  6
Continuous
 62
     7
370
    25
100
AcDbLine
 10
106.922912713
 20
-1338.3779679876
 30
0.0
 11
107.5511179621
 21
-1338.3779679876
 31
0.0
  0
LINE
  5
306
330
1F
100
AcDbEntity
  8
0
  6
Continuous
 62
     7
370
    25
100
AcDbLine
 10
106.922912713
 20
-1341.9677173238
 30
0.0
 11
106.922912713
 21
-1338.3779679876
 31
0.0
  0
LINE
  5
307
330
1F
100
AcDbEntity
  8
0
  6
Continuous
 62
     7
370
    25
100
AcDbLine
 10
107.5511179621
 20
-1341.9677173238
 30
0.0
 11
106.922912713
 21
-1341.9677173238
 31
0.0
  0
LINE
  5
308
330
1F
100
AcDbEntity
  8
0
  6
Continuous
 62
     7
370
    25
100
AcDbLine
 10
109.5703486313
 20
-1339.9484907728
 30
0.0
 11
109.5703486313
 21
-1339.4100224119
 31
0.0
  0
LINE
  5
309
330
1F
100
AcDbEntity
  8
0
  6
Continuous
 62
     7
370
    25
100
AcDbLine
 10
109.8844511977
 20
-1339.9484907728
 30
0.0
 11
109.5703486313
 21
-1339.9484907728
 31
0.0
  0
LINE
  5
30A
330
1F
100
AcDbEntity
  8
0
  6
Continuous
 62
     7
370
    25
100
AcDbLine
 10
109.8844511977
 20
-1341.9677173238
 30
0.0
 11
109.8844511977
 21
-1339.9484907728
 31
0.0
  0
LINE
  5
30B
330
1F
100
AcDbEntity
  8
0
  6
Continuous
 62
     7
370
    25
100
AcDbLine
 10
110.5126563449
 20
-1341.9677173238
 30
0.0
 11
109.8844511977
 21
-1341.9677173238
 31
0.0
  0
LINE
  5
30C
330
1F
100
AcDbEntity
  8
0
  6
Continuous
 62
     7
370
    25
100
AcDbLine
 10
110.5126563449
 20
-1339.9484907728
 30
0.0
 11
110.5126563449
 21
-1341.9677173238
 31
0.0
  0
LINE
  5
30D
330
1F
100
AcDbEntity
  8
0
  6
Continuous
 62
     7
370
    25
100
AcDbLine
 10
110.9165024933
 20
-1339.9484907728
 30
0.0
 11
110.5126563449
 21
-1339.9484907728
 31
0.0
  0
LINE
  5
30E
330
1F
100
AcDbEntity
  8
0
  6
Continuous
 62
     7
370
    25
100
AcDbLine
 10
110.9165024933
 20
-1339.4100224119
 30
0.0
 11
110.9165024933
 21
-1339.9484907728
 31
0.0
  0
LINE
  5
30F
330
1F
100
AcDbEntity
  8
0
  6
Continuous
 62
     7
370
    25
100
AcDbLine
 10
110.5126563449
 20
-1339.4100224119
 30
0.0
 11
110.9165024933
 21
-1339.4100224119
 31
0.0
  0
LINE
  5
310
330
1F
100
AcDbEntity
  8
0
  6
Continuous
 62
     7
370
    25
100
AcDbLine
 10
110.5126563449
 20
-1338.3779679876
 30
0.0
 11
110.5126563449
 21
-1339.4100224119
 31
0.0
  0
LINE
  5
311
330
1F
100
AcDbEntity
  8
0
  6
Continuous
 62
     7
370
    25
100
AcDbLine
 10
109.8844511977
 20
-1338.3779679876
 30
0.0
 11
110.5126563449
 21
-1338.3779679876
 31
0.0
  0
LINE
  5
312
330
1F
100
AcDbEntity
  8
0
  6
Continuous
 62
     7
370
    25
100
AcDbLine
 10
109.8844511977
 20
-1339.4100224119
 30
0.0
 11
109.8844511977
 21
-1338.3779679876
 31
0.0
  0
LINE
  5
313
330
1F
100
AcDbEntity
  8
0
  6
Continuous
 62
     7
370
    25
100
AcDbLine
 10
109.5703486313
 20
-1339.4100224119
 30
0.0
 11
109.8844511977
 21
-1339.4100224119
 31
0.0
  0
SPLINE
  5
314
330
1F
100
AcDbEntity
  8
0
  6
Continuous
 62
     7
370
    25
100
AcDbSpline
210
0.0
220
0.0
230
1.0
 70
     8
 71
     3
 72
    11
 73
     7
 74
     0
 42
0.000000001
 43
0.00000001
 40
0.0
 40
0.0
 40
0.0
 40
0.0
 40
0.2794512413218678
 40
0.5593592739829959
 40
0.7796701237976533
 40
1.0
 40
1.0
 40
1.0
 40
1.0
 10
111.948553774356
 20
-1341.720894489804
 30
0.0
 10
111.9434689065929
 20
-1341.76388162032
 30
0.0
 10
111.9332908593357
 20
-1341.849926148169
 30
0.0
 10
111.8536100523462
 20
-1341.944691365128
 30
0.0
 10
111.7582006790186
 20
-1342.00341936926
 30
0.0
 10
111.6906592383825
 20
-1342.009539449224
 30
0.0
 10
111.6568870598814
 20
-1342.012599621335
 30
0.0
  0
SPLINE
  5
315
330
1F
100
AcDbEntity
  8
0
  6
Continuous
 62
     7
370
    25
100
AcDbSpline
210
0.0
220
0.0
230
1.0
 70
     8
 71
     3
 72
    11
 73
     7
 74
     0
 42
0.000000001
 43
0.00000001
 40
0.0
 40
0.0
 40
0.0
 40
0.0
 40
0.2796209897502061
 40
0.5592053606373601
 40
0.7794740659944205
 40
1.0
 40
1.0
 40
1.0
 40
1.0
 10
111.6568870598814
 20
-1341.429248962918
 30
0.0
 10
111.700027861384
 20
-1341.434149029038
 30
0.0
 10
111.7863038147164
 20
-1341.443948519572
 30
0.0
 10
111.8806373335335
 20
-1341.524188898714
 30
0.0
 10
111.94051026566
 20
-1341.619139228642
 30
0.0
 10
111.9458715619173
 20
-1341.686962876436
 30
0.0
 10
111.948553774356
 20
-1341.720894489804
 30
0.0
  0
SPLINE
  5
316
330
1F
100
AcDbEntity
  8
0
  6
Continuous
 62
     7
370
    25
100
AcDbSpline
210
0.0
220
0.0
230
1.0
 70
     8
 71
     3
 72
    11
 73
     7
 74
     0
 42
0.000000001
 43
0.00000001
 40
0.0
 40
0.0
 40
0.0
 40
0.0
 40
0.2795385058783967
 40
0.5592820101521939
 40
0.779529900382033
 40
1.0
 40
1.0
 40
1.0
 40
1.0
 10
111.3652204618222
 20
-1341.720894489804
 30
0.0
 10
111.3703365493395
 20
-1341.677898843893
 30
0.0
 10
111.3805724762356
 20
-1341.591876021393
 30
0.0
 10
111.4597348252107
 20
-1341.496599777151
 30
0.0
 10
111.5554797114563
 20
-1341.438185736035
 30
0.0
 10
111.6230732502175
 20
-1341.432228888435
 30
0.0
 10
111.6568870598814
 20
-1341.429248962918
 30
0.0
  0
SPLINE
  5
317
330
1F
100
AcDbEntity
  8
0
  6
Continuous
 62
     7
370
    25
100
AcDbSpline
210
0.0
220
0.0
230
1.0
 70
     8
 71
     3
 72
    11
 73
     7
 74
     0
 42
0.000000001
 43
0.00000001
 40
0.0
 40
0.0
 40
0.0
 40
0.0
 40
0.2795897383781166
 40
0.5591209257125195
 40
0.7795687569392183
 40
1.0
 40
1.0
 40
1.0
 40
1.0
 10
111.6568870598814
 20
-1342.012599621335
 30
0.0
 10
111.6139771071574
 20
-1342.00728685972
 30
0.0
 10
111.5281661878135
 20
-1341.996662449078
 30
0.0
 10
111.4332375498817
 20
-1341.917505829897
 30
0.0
 10
111.3746488945249
 20
-1341.822117153258
 30
0.0
 10
111.3683631938895
 20
-1341.754634531273
 30
0.0
 10
111.3652204618222
 20
-1341.720894489804
 30
0.0
  0
SPLINE
  5
318
330
1F
100
AcDbEntity
  8
0
  6
Continuous
 62
     7
370
    25
100
AcDbSpline
210
0.0
220
0.0
230
1.0
 70
     8
 71
     3
 72
    11
 73
     7
 74
     0
 42
0.000000001
 43
0.00000001
 40
0.0
 40
0.0
 40
0.0
 40
0.0
 40
0.2800739423999205
 40
0.5596526911564548
 40
0.7798081073348475
 40
1.0
 40
1.0
 40
1.0
 40
1.0
 10
113.9376362076393
 20
-1342.012599621335
 30
0.0
 10
113.7368014506904
 20
-1341.994277915332
 30
0.0
 10
113.3354870290733
 20
-1341.9576668976
 30
0.0
 10
112.870498664108
 20
-1341.618529502418
 30
0.0
 10
112.577568836454
 20
-1341.182520858242
 30
0.0
 10
112.5471152552362
 20
-1340.86743598959
 30
0.0
 10
112.5318872033051
 20
-1340.709880505124
 30
0.0
  0
SPLINE
  5
319
330
1F
100
AcDbEntity
  8
0
  6
Continuous
 62
     7
370
    25
100
AcDbSpline
210
0.0
220
0.0
230
1.0
 70
     8
 71
     3
 72
    10
 73
     6
 74
     0
 42
0.000000001
 43
0.00000001
 40
0.0
 40
0.0
 40
0.0
 40
0.0
 40
0.2802098863321391
 40
0.5605927972126232
 40
1.0
 40
1.0
 40
1.0
 40
1.0
 10
115.1344513742617
 20
-1341.422215614835
 30
0.0
 10
115.0532762644164
 20
-1341.524145177391
 30
0.0
 10
114.8908759205604
 20
-1341.72806724217
 30
0.0
 10
114.4769406253247
 20
-1341.963189252217
 30
0.0
 10
114.1420658092801
 20
-1341.993870047194
 30
0.0
 10
113.9376362076393
 20
-1342.012599621335
 30
0.0
  0
LINE
  5
31A
330
1F
100
AcDbEntity
  8
0
  6
Continuous
 62
     7
370
    25
100
AcDbLine
 10
114.8715306295
 20
-1341.2497793775
 30
0.0
 11
115.1344513743
 21
-1341.4222156148
 31
0.0
  0
SPLINE
  5
31B
330
1F
100
AcDbEntity
  8
0
  6
Continuous
 62
     7
370
    25
100
AcDbSpline
210
0.0
220
0.0
230
1.0
 70
     8
 71
     3
 72
     9
 73
     5
 74
     0
 42
0.000000001
 43
0.00000001
 40
0.0
 40
0.0
 40
0.0
 40
0.0
 40
0.5587954859966282
 40
1.0
 40
1.0
 40
1.0
 40
1.0
 10
113.9425442776076
 20
-1341.698483143369
 30
0.0
 10
114.1460973550042
 20
-1341.673789412193
 30
0.0
 10
114.5103685105481
 20
-1341.629598412453
 30
0.0
 10
114.7609659208999
 20
-1341.366055638847
 30
0.0
 10
114.8715306295446
 20
-1341.249779377499
 30
0.0
  0
SPLINE
  5
31C
330
1F
100
AcDbEntity
  8
0
  6
Continuous
 62
     7
370
    25
100
AcDbSpline
210
0.0
220
0.0
230
1.0
 70
     8
 71
     3
 72
    11
 73
     7
 74
     0
 42
0.000000001
 43
0.00000001
 40
0.0
 40
0.0
 40
0.0
 40
0.0
 40
0.2793201516803634
 40
0.5587674794233145
 40
0.7792628455941886
 40
1.0
 40
1.0
 40
1.0
 40
1.0
 10
112.8459897114328
 20
-1340.681866322079
 30
0.0
 10
112.8679649041504
 20
-1340.837415365506
 30
0.0
 10
112.9119252950164
 20
-1341.148584274728
 30
0.0
 10
113.2120458785352
 20
-1341.48805713292
 30
0.0
 10
113.5748766260539
 20
-1341.670968626936
 30
0.0
 10
113.8199436295142
 20
-1341.689308287946
 30
0.0
 10
113.9425442776076
 20
-1341.698483143369
 30
0.0
  0
SPLINE
  5
31D
330
1F
100
AcDbEntity
  8
0
  6
Continuous
 62
     7
370
    25
100
AcDbSpline
210
0.0
220
0.0
230
1.0
 70
     8
 71
     3
 72
    11
 73
     7
 74
     0
 42
0.000000001
 43
0.00000001
 40
0.0
 40
0.0
 40
0.0
 40
0.0
 40
0.2801385544014413
 40
0.5597720123031559
 40
0.77988479482117
 40
1.0
 40
1.0
 40
1.0
 40
1.0
 10
113.9404408855728
 20
-1339.679256592313
 30
0.0
 10
113.7849481764014
 20
-1339.693239876198
 30
0.0
 10
113.4742431151246
 20
-1339.721181231775
 30
0.0
 10
113.1127262204041
 20
-1339.98066981862
 30
0.0
 10
112.8818397432702
 20
-1340.315853623347
 30
0.0
 10
112.8579397658873
 20
-1340.559861641561
 30
0.0
 10
112.8459897114328
 20
-1340.681866322079
 30
0.0
  0
SPLINE
  5
31E
330
1F
100
AcDbEntity
  8
0
  6
Continuous
 62
     7
370
    25
100
AcDbSpline
210
0.0
220
0.0
230
1.0
 70
     8
 71
     3
 72
     9
 73
     5
 74
     0
 42
0.000000001
 43
0.00000001
 40
0.0
 40
0.0
 40
0.0
 40
0.0
 40
0.5584574325454248
 40
1.0
 40
1.0
 40
1.0
 40
1.0
 10
114.8715306295446
 20
-1340.127960358182
 30
0.0
 10
114.7261175482977
 20
-1339.981969758945
 30
0.0
 10
114.4657340834665
 20
-1339.720552163388
 30
0.0
 10
114.1013374920975
 20
-1339.691905370704
 30
0.0
 10
113.9404408855728
 20
-1339.679256592313
 30
0.0
  0
LINE
  5
31F
330
1F
100
AcDbEntity
  8
0
  6
Continuous
 62
     7
370
    25
100
AcDbLine
 10
115.1344513743
 20
-1339.9645840269
 30
0.0
 11
114.8715306295
 21
-1340.1279603582
 31
0.0
  0
SPLINE
  5
320
330
1F
100
AcDbEntity
  8
0
  6
Continuous
 62
     7
370
    25
100
AcDbSpline
210
0.0
220
0.0
230
1.0
 70
     8
 71
     3
 72
     9
 73
     5
 74
     0
 42
0.000000001
 43
0.00000001
 40
0.0
 40
0.0
 40
0.0
 40
0.0
 40
0.5606685899903422
 40
1.0
 40
1.0
 40
1.0
 40
1.0
 10
113.963577732294
 20
-1339.365140114346
 30
0.0
 10
114.2282925997763
 20
-1339.394286871035
 30
0.0
 10
114.7004340255817
 20
-1339.446272584537
 30
0.0
 10
115.0019749672034
 20
-1339.806378282718
 30
0.0
 10
115.1344513742617
 20
-1339.964584026852
 30
0.0
  0
SPLINE
  5
321
330
1F
100
AcDbEntity
  8
0
  6
Continuous
 62
     7
370
    25
100
AcDbSpline
210
0.0
220
0.0
230
1.0
 70
     8
 71
     3
 72
    11
 73
     7
 74
     0
 42
0.000000001
 43
0.00000001
 40
0.0
 40
0.0
 40
0.0
 40
0.0
 40
0.2793823870094732
 40
0.5587773520193383
 40
0.779281091649406
 40
1.0
 40
1.0
 40
1.0
 40
1.0
 10
112.5318872033051
 20
-1340.709880505124
 30
0.0
 10
112.5593671050508
 20
-1340.505207486706
 30
0.0
 10
112.6143281457076
 20
-1340.09585223534
 30
0.0
 10
113.0060244211622
 20
-1339.647833366461
 30
0.0
 10
113.4803593487286
 20
-1339.402490848243
 30
0.0
 10
113.8024525799367
 20
-1339.377594406017
 30
0.0
 10
113.963577732294
 20
-1339.365140114346
 30
0.0
  0
CIRCLE
  5
322
330
1F
100
AcDbEntity
  8
0
  6
Continuous
 62
     7
370
    25
100
AcDbCircle
 10
71.9806050438
 20
-1336.9677060932
 30
0.0
 40
1.5
  0
CIRCLE
  5
323
330
1F
100
AcDbEntity
  8
0
  6
Continuous
 62
     7
370
    25
100
AcDbCircle
 10
129.9806050438
 20
-1336.9677060932
 30
0.0
 40
1.5
  0
LINE
  5
324
330
1F
100
AcDbEntity
  8
0
  6
Continuous
 62
     7
370
    25
100
AcDbLine
 10
129.6472724749
 20
-1328.8266812902
 30
0.0
 11
128.6600928976
 21
-1328.8266812902
 31
0.0
  0
LINE
  5
325
330
1F
100
AcDbEntity
  8
0
  6
Continuous
 62
     7
370
    25
100
AcDbLine
 10
130.0959892793
 20
-1328.8266812902
 30
0.0
 11
130.0959892793
 21
-1331.9677268606
 31
0.0
  0
ARC
  5
326
330
1F
100
AcDbEntity
  8
0
  6
Continuous
 62
     7
370
    25
100
AcDbCircle
 10
128.4806050438
 20
-1347.9677060932
 30
0.0
 40
5.000000000000227
100
AcDbArc
 50
270.0
 51
0.0
  0
SPLINE
  5
327
330
1F
100
AcDbEntity
  8
0
  6
Continuous
 62
     7
370
    25
100
AcDbSpline
210
0.0
220
0.0
230
1.0
 70
     8
 71
     3
 72
    11
 73
     7
 74
     0
 42
0.000000001
 43
0.00000001
 40
0.0
 40
0.0
 40
0.0
 40
0.0
 40
0.2796411326442643
 40
0.5591705623497105
 40
0.7795104260691333
 40
0.9999999999999999
 40
0.9999999999999999
 40
0.9999999999999999
 40
0.9999999999999999
 10
115.987015258371
 20
-1340.697959576169
 30
0.0
 10
116.0056956219241
 20
-1340.84583584725
 30
0.0
 10
116.0430488871399
 20
-1341.141529320083
 30
0.0
 10
116.3101847618997
 20
-1341.476709506319
 30
0.0
 10
116.6475702806607
 20
-1341.667174658875
 30
0.0
 10
116.8802509947692
 20
-1341.688044619319
 30
0.0
 10
116.9966308622054
 20
-1341.698483143369
 30
0.0
  0
SPLINE
  5
328
330
1F
100
AcDbEntity
  8
0
  6
Continuous
 62
     7
370
    25
100
AcDbSpline
210
0.0
220
0.0
230
1.0
 70
     8
 71
     3
 72
    11
 73
     7
 74
     0
 42
0.000000001
 43
0.00000001
 40
0.0
 40
0.0
 40
0.0
 40
0.0
 40
0.2797417686114705
 40
0.55911361800897
 40
0.7796001737658795
 40
1.0
 40
1.0
 40
1.0
 40
1.0
 10
116.9966308622054
 20
-1341.698483143369
 30
0.0
 10
117.1449291570307
 20
-1341.681594708759
 30
0.0
 10
117.441329643007
 20
-1341.647840172125
 30
0.0
 10
117.7765763984992
 20
-1341.380998390666
 30
0.0
 10
117.9721991488769
 20
-1341.046941260083
 30
0.0
 10
117.9948985383243
 20
-1340.814271547501
 30
0.0
 10
118.0062460003785
 20
-1340.697959576169
 30
0.0
  0
SPLINE
  5
329
330
1F
100
AcDbEntity
  8
0
  6
Continuous
 62
     7
370
    25
100
AcDbSpline
210
0.0
220
0.0
230
1.0
 70
     8
 71
     3
 72
    11
 73
     7
 74
     0
 42
0.000000001
 43
0.00000001
 40
0.0
 40
0.0
 40
0.0
 40
0.0
 40
0.2794893117698283
 40
0.5592682738484817
 40
0.7795627497813317
 40
1.0
 40
1.0
 40
1.0
 40
1.0
 10
116.9966308622054
 20
-1339.679256592313
 30
0.0
 10
116.8471804642399
 20
-1339.697502564557
 30
0.0
 10
116.5481247845545
 20
-1339.734013418361
 30
0.0
 10
116.2207403417941
 20
-1340.013337567346
 30
0.0
 10
116.017413573875
 20
-1340.345433818196
 30
0.0
 10
115.9971502182987
 20
-1340.580425615115
 30
0.0
 10
115.987015258371
 20
-1340.697959576169
 30
0.0
  0
SPLINE
  5
32A
330
1F
100
AcDbEntity
  8
0
  6
Continuous
 62
     7
370
    25
100
AcDbSpline
210
0.0
220
0.0
230
1.0
 70
     8
 71
     3
 72
    11
 73
     7
 74
     0
 42
0.000000001
 43
0.00000001
 40
0.0
 40
0.0
 40
0.0
 40
0.0
 40
0.2795944513586278
 40
0.5593928761178276
 40
0.7796569305276009
 40
1.0
 40
1.0
 40
1.0
 40
1.0
 10
118.0062460003785
 20
-1340.697959576169
 30
0.0
 10
117.9890449092734
 20
-1340.548339783488
 30
0.0
 10
117.9546301782983
 20
-1340.248991045539
 30
0.0
 10
117.6781504205054
 20
-1339.919765650112
 30
0.0
 10
117.3490458309616
 20
-1339.711475115633
 30
0.0
 10
117.1141165619215
 20
-1339.689997383969
 30
0.0
 10
116.9966308622054
 20
-1339.679256592313
 30
0.0
  0
SPLINE
  5
32B
330
1F
100
AcDbEntity
  8
0
  6
Continuous
 62
     7
370
    25
100
AcDbSpline
210
0.0
220
0.0
230
1.0
 70
     8
 71
     3
 72
    11
 73
     7
 74
     0
 42
0.000000001
 43
0.00000001
 40
0.0
 40
0.0
 40
0.0
 40
0.0
 40
0.2804697985967688
 40
0.5606523151942382
 40
0.780585960197018
 40
1.0
 40
1.0
 40
1.0
 40
1.0
 10
107.4266187603018
 20
-1328.736916695157
 30
0.0
 10
107.1783358895969
 20
-1328.760322155714
 30
0.0
 10
106.6820244614853
 20
-1328.807109102884
 30
0.0
 10
106.0644704052391
 20
-1329.14680766244
 30
0.0
 10
105.6290130673192
 20
-1329.644438886206
 30
0.0
 10
105.5770624536095
 20
-1330.036128430102
 30
0.0
 10
105.5511178670815
 20
-1330.231741581479
 30
0.0
  0
SPLINE
  5
32C
330
1F
100
AcDbEntity
  8
0
  6
Continuous
 62
     7
370
    25
100
AcDbSpline
210
0.0
220
0.0
230
1.0
 70
     8
 71
     3
 72
    11
 73
     7
 74
     0
 42
0.000000001
 43
0.00000001
 40
0.0
 40
0.0
 40
0.0
 40
0.0
 40
0.1868321123553315
 40
0.3739142322253424
 40
0.5613596995187641
 40
0.9999999999999999
 40
0.9999999999999999
 40
0.9999999999999999
 40
0.9999999999999999
 10
109.3203486340019
 20
-1330.215588722745
 30
0.0
 10
109.3019819931198
 20
-1330.049294384533
 30
0.0
 10
109.2652241342196
 20
-1329.716483183012
 30
0.0
 10
108.9632351880533
 20
-1329.302446430007
 30
0.0
 10
108.3810524990687
 20
-1328.864241778091
 30
0.0
 10
107.8198214012853
 20
-1328.789371419712
 30
0.0
 10
107.4266187603018
 20
-1328.736916695157
 30
0.0
  0
SPLINE
  5
32D
330
1F
100
AcDbEntity
  8
0
  6
Continuous
 62
     7
370
    25
100
AcDbSpline
210
0.0
220
0.0
230
1.0
 70
     8
 71
     3
 72
    11
 73
     7
 74
     0
 42
0.000000001
 43
0.00000001
 40
0.0
 40
0.0
 40
0.0
 40
0.0
 40
0.2806662756410755
 40
0.5607793602515271
 40
0.7806452857847208
 40
1.0
 40
1.0
 40
1.0
 40
1.0
 10
107.4266187603018
 20
-1331.698492680112
 30
0.0
 10
107.67651644314
 20
-1331.678123536093
 30
0.0
 10
108.1758192624412
 20
-1331.637425395479
 30
0.0
 10
108.8031850848869
 20
-1331.306241447286
 30
0.0
 10
109.2408879545653
 20
-1330.805368900402
 30
0.0
 10
109.2938823009934
 20
-1330.412029512005
 30
0.0
 10
109.3203486340019
 20
-1330.215588722745
 30
0.0
  0
SPLINE
  5
32E
330
1F
100
AcDbEntity
  8
0
  6
Continuous
 62
     7
370
    25
100
AcDbSpline
210
0.0
220
0.0
230
1.0
 70
     8
 71
     3
 72
    10
 73
     6
 74
     0
 42
0.000000001
 43
0.00000001
 40
0.0
 40
0.0
 40
0.0
 40
0.0
 40
0.2789486057671155
 40
0.5600930614620073
 40
1.0
 40
1.0
 40
1.0
 40
1.0
 10
105.5511178670815
 20
-1330.231741581479
 30
0.0
 10
105.5966654577597
 20
-1330.476958859775
 30
0.0
 10
105.6881191842805
 20
-1330.969323737336
 30
0.0
 10
106.4113317229593
 20
-1331.563440539644
 30
0.0
 10
107.0419091633013
 20
-1331.647319117737
 30
0.0
 10
107.4266187603018
 20
-1331.698492680112
 30
0.0
  0
SPLINE
  5
32F
330
1F
100
AcDbEntity
  8
0
  6
Continuous
 62
     7
370
    25
100
AcDbSpline
210
0.0
220
0.0
230
1.0
 70
     8
 71
     3
 72
    11
 73
     7
 74
     0
 42
0.000000001
 43
0.00000001
 40
0.0
 40
0.0
 40
0.0
 40
0.0
 40
0.279960542547984
 40
0.5593365728117271
 40
0.7794995010381413
 40
1.0
 40
1.0
 40
1.0
 40
1.0
 10
104.2754769547275
 20
-1340.659395370999
 30
0.0
 10
104.2855614314247
 20
-1340.765943051643
 30
0.0
 10
104.3057093300645
 20
-1340.978815958626
 30
0.0
 10
104.4929084162304
 20
-1341.222520193583
 30
0.0
 10
104.7323410677426
 20
-1341.36378720275
 30
0.0
 10
104.8993434791717
 20
-1341.377503342097
 30
0.0
 10
104.9829086510829
 20
-1341.384366665402
 30
0.0
  0
SPLINE
  5
330
330
1F
100
AcDbEntity
  8
0
  6
Continuous
 62
     7
370
    25
100
AcDbSpline
210
0.0
220
0.0
230
1.0
 70
     8
 71
     3
 72
    11
 73
     7
 74
     0
 42
0.000000001
 43
0.00000001
 40
0.0
 40
0.0
 40
0.0
 40
0.0
 40
0.2796876745935548
 40
0.5591421850819459
 40
0.7794178410500321
 40
1.0
 40
1.0
 40
1.0
 40
1.0
 10
104.9709895847729
 20
-1339.948490772763
 30
0.0
 10
104.8664018662612
 20
-1339.959535426739
 30
0.0
 10
104.6573136197149
 20
-1339.981615527216
 30
0.0
 10
104.4252380651557
 20
-1340.175473823301
 30
0.0
 10
104.2934306678004
 20
-1340.413400209415
 30
0.0
 10
104.2814642989269
 20
-1340.577358986781
 30
0.0
 10
104.2754769547275
 20
-1340.659395370999
 30
0.0
  0
SPLINE
  5
331
330
1F
100
AcDbEntity
  8
0
  6
Continuous
 62
     7
370
    25
100
AcDbSpline
210
0.0
220
0.0
230
1.0
 70
     8
 71
     3
 72
    11
 73
     7
 74
     0
 42
0.000000001
 43
0.00000001
 40
0.0
 40
0.0
 40
0.0
 40
0.0
 40
0.2801145718390055
 40
0.5593760574412551
 40
0.7794976024056373
 40
1.0
 40
1.0
 40
1.0
 40
1.0
 10
105.6665026804796
 20
-1340.664342556516
 30
0.0
 10
105.6573439076276
 20
-1340.558965110914
 30
0.0
 10
105.6390542548782
 20
-1340.348531145708
 30
0.0
 10
105.4565728270193
 20
-1340.105244765457
 30
0.0
 10
105.2187087566521
 20
-1339.96705240223
 30
0.0
 10
105.0536102096248
 20
-1339.954681546828
 30
0.0
 10
104.9709895847729
 20
-1339.948490772763
 30
0.0
  0
SPLINE
  5
332
330
1F
100
AcDbEntity
  8
0
  6
Continuous
 62
     7
370
    25
100
AcDbSpline
210
0.0
220
0.0
230
1.0
 70
     8
 71
     3
 72
    11
 73
     7
 74
     0
 42
0.000000001
 43
0.00000001
 40
0.0
 40
0.0
 40
0.0
 40
0.0
 40
0.27964176123777
 40
0.5589817625861934
 40
0.7792609685738527
 40
1.0
 40
1.0
 40
1.0
 40
1.0
 10
104.9829086510829
 20
-1341.384366665402
 30
0.0
 10
105.0875250246692
 20
-1341.373019399895
 30
0.0
 10
105.2966448808876
 20
-1341.350337113653
 30
0.0
 10
105.527845437136
 20
-1341.15308332473
 30
0.0
 10
105.6503278502631
 20
-1340.910288126034
 30
0.0
 10
105.6611073240195
 20
-1340.746381378536
 30
0.0
 10
105.6665026804796
 20
-1340.664342556516
 30
0.0
  0
SPLINE
  5
333
330
1F
100
AcDbEntity
  8
0
  6
Continuous
 62
     7
370
    25
100
AcDbSpline
210
0.0
220
0.0
230
1.0
 70
     8
 71
     3
 72
    11
 73
     7
 74
     0
 42
0.000000001
 43
0.00000001
 40
0.0
 40
0.0
 40
0.0
 40
0.0
 40
0.1868321112024652
 40
0.3739142360886674
 40
0.5613597022254381
 40
1.0
 40
1.0
 40
1.0
 40
1.0
 10
103.9357332734755
 20
-1330.215588722745
 30
0.0
 10
103.9173666345951
 20
-1330.049294383119
 30
0.0
 10
103.8806087790941
 20
-1329.716483173274
 30
0.0
 10
103.578619795441
 20
-1329.302446438398
 30
0.0
 10
102.9964371143503
 20
-1328.864241774728
 30
0.0
 10
102.4352060136786
 20
-1328.789371418327
 30
0.0
 10
102.0420033706716
 20
-1328.736916695157
 30
0.0
  0
SPLINE
  5
334
330
1F
100
AcDbEntity
  8
0
  6
Continuous
 62
     7
370
    25
100
AcDbSpline
210
0.0
220
0.0
230
1.0
 70
     8
 71
     3
 72
    10
 73
     6
 74
     0
 42
0.000000001
 43
0.00000001
 40
0.0
 40
0.0
 40
0.0
 40
0.0
 40
0.2789485872132904
 40
0.5600930907217212
 40
1.0
 40
1.0
 40
1.0
 40
1.0
 10
100.1665022446207
 20
-1330.231741581479
 30
0.0
 10
100.21204982774
 20
-1330.476958869603
 30
0.0
 10
100.303503549944
 20
-1330.969323825367
 30
0.0
 10
101.0267163393487
 20
-1331.563440456362
 30
0.0
 10
101.6572937979928
 20
-1331.647319089112
 30
0.0
 10
102.0420033706716
 20
-1331.698492680112
 30
0.0
  0
SPLINE
  5
335
330
1F
100
AcDbEntity
  8
0
  6
Continuous
 62
     7
370
    25
100
AcDbSpline
210
0.0
220
0.0
230
1.0
 70
     8
 71
     3
 72
    11
 73
     7
 74
     0
 42
0.000000001
 43
0.00000001
 40
0.0
 40
0.0
 40
0.0
 40
0.0
 40
0.2806663265800182
 40
0.5607793221168802
 40
0.7806452673554087
 40
1.0
 40
1.0
 40
1.0
 40
1.0
 10
102.0420033706716
 20
-1331.698492680112
 30
0.0
 10
102.2919011024239
 20
-1331.678123559663
 30
0.0
 10
102.7912038948828
 20
-1331.637425476296
 30
0.0
 10
103.4185695730598
 20
-1331.306241337122
 30
0.0
 10
103.8562724288431
 20
-1330.805368908961
 30
0.0
 10
103.9092668854941
 20
-1330.412029514488
 30
0.0
 10
103.9357332734755
 20
-1330.215588722745
 30
0.0
  0
SPLINE
  5
336
330
1F
100
AcDbEntity
  8
0
  6
Continuous
 62
     7
370
    25
100
AcDbSpline
210
0.0
220
0.0
230
1.0
 70
     8
 71
     3
 72
    11
 73
     7
 74
     0
 42
0.000000001
 43
0.00000001
 40
0.0
 40
0.0
 40
0.0
 40
0.0
 40
0.2804697893351016
 40
0.5606522194915929
 40
0.7805859674425033
 40
1.0
 40
1.0
 40
1.0
 40
1.0
 10
102.0420033706716
 20
-1328.736916695157
 30
0.0
 10
101.7937204797438
 20
-1328.760322131137
 30
0.0
 10
101.2974090795375
 20
-1328.807109022737
 30
0.0
 10
100.679855268297
 20
-1329.146807900658
 30
0.0
 10
100.2443973763037
 20
-1329.644438715624
 30
0.0
 10
100.1924468039746
 20
-1330.036128406012
 30
0.0
 10
100.1665022446207
 20
-1330.231741581479
 30
0.0
  0
SPLINE
  5
337
330
1F
100
AcDbEntity
  8
0
  6
Continuous
 62
     7
370
    25
100
AcDbSpline
210
0.0
220
0.0
230
1.0
 70
     8
 71
     3
 72
    11
 73
     7
 74
     0
 42
0.000000001
 43
0.00000001
 40
0.0
 40
0.0
 40
0.0
 40
0.0
 40
0.2801707464941819
 40
0.5595238054245641
 40
0.7796162241067591
 40
1.0
 40
1.0
 40
1.0
 40
1.0
 10
92.83316957190549
 20
-1340.685382996121
 30
0.0
 10
92.84195905706711
 20
-1340.792390468703
 30
0.0
 10
92.85951237498803
 20
-1341.00609310903
 30
0.0
 10
93.03555666104185
 20
-1341.258854944588
 30
0.0
 10
93.27322834643725
 20
-1341.408041282687
 30
0.0
 10
93.44115627127094
 20
-1341.422176619523
 30
0.0
 10
93.52517577245747
 20
-1341.429248962918
 30
0.0
  0
SPLINE
  5
338
330
1F
100
AcDbEntity
  8
0
  6
Continuous
 62
     7
370
    25
100
AcDbSpline
210
0.0
220
0.0
230
1.0
 70
     8
 71
     3
 72
    11
 73
     7
 74
     0
 42
0.000000001
 43
0.00000001
 40
0.0
 40
0.0
 40
0.0
 40
0.0
 40
0.280205266905108
 40
0.5594834525412341
 40
0.7795221101067563
 40
1.0
 40
1.0
 40
1.0
 40
1.0
 10
94.22419483199631
 20
-1340.685382996121
 30
0.0
 10
94.21514941711553
 20
-1340.578458950845
 30
0.0
 10
94.19708851482389
 20
-1340.364964626948
 30
0.0
 10
94.01703909985449
 20
-1340.115401637731
 30
0.0
 10
93.77888319314698
 20
-1339.968699954474
 30
0.0
 10
93.6112038355427
 20
-1339.955231643016
 30
0.0
 10
93.5272805614761
 20
-1339.948490772763
 30
0.0
  0
SPLINE
  5
339
330
1F
100
AcDbEntity
  8
0
  6
Continuous
 62
     7
370
    25
100
AcDbSpline
210
0.0
220
0.0
230
1.0
 70
     8
 71
     3
 72
    11
 73
     7
 74
     0
 42
0.000000001
 43
0.00000001
 40
0.0
 40
0.0
 40
0.0
 40
0.0
 40
0.2795321673887362
 40
0.5589923842069315
 40
0.7792830550926738
 40
1.0
 40
1.0
 40
1.0
 40
1.0
 10
93.52517577245747
 20
-1341.429248962918
 30
0.0
 10
93.63252797584482
 20
-1341.41692621047
 30
0.0
 10
93.84720475055002
 20
-1341.392283877406
 30
0.0
 10
94.08008853647925
 20
-1341.185546284418
 30
0.0
 10
94.20734373674262
 20
-1340.937806387533
 30
0.0
 10
94.21857418182913
 20
-1340.769578329171
 30
0.0
 10
94.22419483199631
 20
-1340.685382996121
 30
0.0
  0
SPLINE
  5
33A
330
1F
100
AcDbEntity
  8
0
  6
Continuous
 62
     7
370
    25
100
AcDbSpline
210
0.0
220
0.0
230
1.0
 70
     8
 71
     3
 72
    11
 73
     7
 74
     0
 42
0.000000001
 43
0.00000001
 40
0.0
 40
0.0
 40
0.0
 40
0.0
 40
0.2794536129268137
 40
0.5588801571573012
 40
0.7792322201831142
 40
1.0
 40
1.0
 40
1.0
 40
1.0
 10
93.5272805614761
 20
-1339.948490772763
 30
0.0
 10
93.42097726766889
 20
-1339.960896136365
 30
0.0
 10
93.20838097690317
 20
-1339.98570566195
 30
0.0
 10
92.97691882624468
 20
-1340.189688073703
 30
0.0
 10
92.85049692445742
 20
-1340.435195941975
 30
0.0
 10
92.83894898373015
 20
-1340.601934932444
 30
0.0
 10
92.83316957190549
 20
-1340.685382996121
 30
0.0
  0
SPLINE
  5
33B
330
1F
100
AcDbEntity
  8
0
  6
Continuous
 62
     7
370
    25
100
AcDbSpline
210
0.0
220
0.0
230
1.0
 70
     8
 71
     3
 72
    11
 73
     7
 74
     0
 42
0.000000001
 43
0.00000001
 40
0.0
 40
0.0
 40
0.0
 40
0.0
 40
0.2801706192501321
 40
0.5595234128441632
 40
0.779615622477209
 40
1.0
 40
1.0
 40
1.0
 40
1.0
 10
95.92932260021483
 20
-1340.685382996121
 30
0.0
 10
95.93811247091155
 20
-1340.792390456738
 30
0.0
 10
95.95566655443342
 20
-1341.006093020285
 30
0.0
 10
96.13171056794809
 20
-1341.258854952899
 30
0.0
 10
96.3693825898344
 20
-1341.408041450601
 30
0.0
 10
96.5373108433119
 20
-1341.422176666852
 30
0.0
 10
96.62133066341197
 20
-1341.429248962918
 30
0.0
  0
SPLINE
  5
33C
330
1F
100
AcDbEntity
  8
0
  6
Continuous
 62
     7
370
    25
100
AcDbSpline
210
0.0
220
0.0
230
1.0
 70
     8
 71
     3
 72
    11
 73
     7
 74
     0
 42
0.000000001
 43
0.00000001
 40
0.0
 40
0.0
 40
0.0
 40
0.0
 40
0.2794538313577968
 40
0.5588799585186321
 40
0.779231822405318
 40
1.0
 40
1.0
 40
1.0
 40
1.0
 10
96.62343358978545
 20
-1339.948490772763
 30
0.0
 10
96.51713029450036
 20
-1339.960896090151
 30
0.0
 10
96.30453424251331
 20
-1339.985705495103
 30
0.0
 10
96.07307233767452
 20
-1340.189688094959
 30
0.0
 10
95.9466524697515
 20
-1340.43519632161
 30
0.0
 10
95.93510285676768
 20
-1340.601934983906
 30
0.0
 10
95.92932260021483
 20
-1340.685382996121
 30
0.0
  0
SPLINE
  5
33D
330
1F
100
AcDbEntity
  8
0
  6
Continuous
 62
     7
370
    25
100
AcDbSpline
210
0.0
220
0.0
230
1.0
 70
     8
 71
     3
 72
    11
 73
     7
 74
     0
 42
0.000000001
 43
0.00000001
 40
0.0
 40
0.0
 40
0.0
 40
0.0
 40
0.280205009812662
 40
0.5594829392069528
 40
0.7795206863679535
 40
1.0
 40
1.0
 40
1.0
 40
1.0
 10
97.32034879162823
 20
-1340.685382996121
 30
0.0
 10
97.31130338455708
 20
-1340.578458936649
 30
0.0
 10
97.29324249785888
 20
-1340.364964584406
 30
0.0
 10
97.11319313812339
 20
-1340.115402019096
 30
0.0
 10
96.87503735945849
 20
-1339.968699430885
 30
0.0
 10
96.70735753943342
 20
-1339.955231492144
 30
0.0
 10
96.62343358978545
 20
-1339.948490772763
 30
0.0
  0
SPLINE
  5
33E
330
1F
100
AcDbEntity
  8
0
  6
Continuous
 62
     7
370
    25
100
AcDbSpline
210
0.0
220
0.0
230
1.0
 70
     8
 71
     3
 72
    11
 73
     7
 74
     0
 42
0.000000001
 43
0.00000001
 40
0.0
 40
0.0
 40
0.0
 40
0.0
 40
0.279530910615184
 40
0.5589914725929653
 40
0.7792827824865398
 40
1.0
 40
1.0
 40
1.0
 40
1.0
 10
96.62133066341197
 20
-1341.429248962918
 30
0.0
 10
96.72868223812819
 20
-1341.416926105817
 30
0.0
 10
96.94335837073807
 20
-1341.392283492868
 30
0.0
 10
97.17624130966904
 20
-1341.185546007346
 30
0.0
 10
97.30349791726381
 20
-1340.937806644835
 30
0.0
 10
97.31472821825484
 20
-1340.769578368307
 30
0.0
 10
97.32034879162823
 20
-1340.685382996121
 30
0.0
  0
SPLINE
  5
33F
330
1F
100
AcDbEntity
  8
0
  6
Continuous
 62
     7
370
    25
100
AcDbSpline
210
0.0
220
0.0
230
1.0
 70
     8
 71
     3
 72
    10
 73
     6
 74
     0
 42
0.000000001
 43
0.00000001
 40
0.0
 40
0.0
 40
0.0
 40
0.0
 40
0.2796981817537554
 40
0.5601911165408311
 40
0.9999999999999999
 40
0.9999999999999999
 40
0.9999999999999999
 40
0.9999999999999999
 10
81.32034803166901
 20
-1330.681875858823
 30
0.0
 10
81.338316993673
 20
-1330.806607418277
 30
0.0
 10
81.37430597588579
 20
-1331.056424957743
 30
0.0
 10
81.73023583586564
 20
-1331.36966035262
 30
0.0
 10
82.04992815425989
 20
-1331.40666428131
 30
0.0
 10
82.24512899652039
 20
-1331.429258499661
 30
0.0
  0
SPLINE
  5
340
330
1F
100
AcDbEntity
  8
0
  6
Continuous
 62
     7
370
    25
100
AcDbSpline
210
0.0
220
0.0
230
1.0
 70
     8
 71
     3
 72
    11
 73
     7
 74
     0
 42
0.000000001
 43
0.00000001
 40
0.0
 40
0.0
 40
0.0
 40
0.0
 40
0.2807540376780409
 40
0.5606852523499214
 40
0.7803236396178419
 40
1.0
 40
1.0
 40
1.0
 40
1.0
 10
82.24512899652039
 20
-1329.948500309506
 30
0.0
 10
82.12148067725306
 20
-1329.956808508892
 30
0.0
 10
81.87454642239986
 20
-1329.973400558317
 30
0.0
 10
81.5650247352645
 20
-1330.138700034424
 30
0.0
 10
81.35217179890824
 20
-1330.38936911326
 30
0.0
 10
81.33095656534353
 20
-1330.584367991919
 30
0.0
 10
81.32034803166901
 20
-1330.681875858823
 30
0.0
  0
SPLINE
  5
341
330
1F
100
AcDbEntity
  8
0
  6
Continuous
 62
     7
370
    25
100
AcDbSpline
210
0.0
220
0.0
230
1.0
 70
     8
 71
     3
 72
    10
 73
     6
 74
     0
 42
0.000000001
 43
0.00000001
 40
0.0
 40
0.0
 40
0.0
 40
0.0
 40
0.2795130010364384
 40
0.5602434338804708
 40
0.9999999999999999
 40
0.9999999999999999
 40
0.9999999999999999
 40
0.9999999999999999
 10
83.16009195879018
 20
-1330.68396202139
 30
0.0
 10
83.14113953608931
 20
-1330.561427493329
 30
0.0
 10
83.10315214253366
 20
-1330.315824732401
 30
0.0
 10
82.75200907191135
 20
-1330.008812175046
 30
0.0
 10
82.43724714144831
 20
-1329.971359767369
 30
0.0
 10
82.24512899652039
 20
-1329.948500309506
 30
0.0
  0
SPLINE
  5
342
330
1F
100
AcDbEntity
  8
0
  6
Continuous
 62
     7
370
    25
100
AcDbSpline
210
0.0
220
0.0
230
1.0
 70
     8
 71
     3
 72
    11
 73
     7
 74
     0
 42
0.000000001
 43
0.00000001
 40
0.0
 40
0.0
 40
0.0
 40
0.0
 40
0.2805834233338835
 40
0.560468225909734
 40
0.7802361577675103
 40
0.9999999999999999
 40
0.9999999999999999
 40
0.9999999999999999
 40
0.9999999999999999
 10
82.24512899652039
 20
-1331.429258499661
 30
0.0
 10
82.36848437971908
 20
-1331.419880850775
 30
0.0
 10
82.6148880052658
 20
-1331.401148902281
 30
0.0
 10
82.9184417703868
 20
-1331.226745491643
 30
0.0
 10
83.1280610965752
 20
-1330.975693374915
 30
0.0
 10
83.1494150709479
 20
-1330.781205202693
 30
0.0
 10
83.16009195879018
 20
-1330.68396202139
 30
0.0
  0
SPLINE
  5
343
330
1F
100
AcDbEntity
  8
0
  6
Continuous
 62
     7
370
    25
100
AcDbSpline
210
0.0
220
0.0
230
1.0
 70
     8
 71
     3
 72
    10
 73
     6
 74
     0
 42
0.000000001
 43
0.00000001
 40
0.0
 40
0.0
 40
0.0
 40
0.0
 40
0.2788299357096158
 40
0.5595669547158306
 40
1.0
 40
1.0
 40
1.0
 40
1.0
 10
87.10881026819264
 20
-1330.35232177786
 30
0.0
 10
87.05594034093741
 20
-1330.269502309545
 30
0.0
 10
86.94983887763877
 20
-1330.103296921454
 30
0.0
 10
86.62798700471515
 20
-1329.939449593799
 30
0.0
 10
86.37760795202904
 20
-1329.917203902527
 30
0.0
 10
86.22469643488442
 20
-1329.90361801199
 30
0.0
  0
SPLINE
  5
344
330
1F
100
AcDbEntity
  8
0
  6
Continuous
 62
     7
370
    25
100
AcDbSpline
210
0.0
220
0.0
230
1.0
 70
     8
 71
     3
 72
     9
 73
     5
 74
     0
 42
0.000000001
 43
0.00000001
 40
0.0
 40
0.0
 40
0.0
 40
0.0
 40
0.5591778391895801
 40
0.9999999999999999
 40
0.9999999999999999
 40
0.9999999999999999
 40
0.9999999999999999
 10
85.61752440765416
 20
-1330.043808136502
 30
0.0
 10
85.55046025111379
 20
-1330.091302302543
 30
0.0
 10
85.43052674903227
 20
-1330.176238011207
 30
0.0
 10
85.34960816692896
 20
-1330.298448629173
 30
0.0
 10
85.31393746271645
 20
-1330.35232177786
 30
0.0
  0
LINE
  5
345
330
1F
100
AcDbEntity
  8
0
  6
Continuous
 62
     7
370
    25
100
AcDbLine
 10
85.3139374627
 20
-1330.3523217779
 30
0.0
 11
87.1088102682
 21
-1330.3523217779
 31
0.0
  0
SPLINE
  5
346
330
1F
100
AcDbEntity
  8
0
  6
Continuous
 62
     7
370
    25
100
AcDbSpline
210
0.0
220
0.0
230
1.0
 70
     8
 71
     3
 72
     9
 73
     5
 74
     0
 42
0.000000001
 43
0.00000001
 40
0.0
 40
0.0
 40
0.0
 40
0.0
 40
0.5599791285896165
 40
1.0
 40
1.0
 40
1.0
 40
1.0
 10
86.22469643488442
 20
-1329.90361801199
 30
0.0
 10
86.10631367896397
 20
-1329.909334416416
 30
0.0
 10
85.8949080213663
 20
-1329.919542661927
 30
0.0
 10
85.70228330375338
 20
-1330.00583687963
 30
0.0
 10
85.61752440765416
 20
-1330.043808136502
 30
0.0
  0
SPLINE
  5
347
330
1F
100
AcDbEntity
  8
0
  6
Continuous
 62
     7
370
    25
100
AcDbSpline
210
0.0
220
0.0
230
1.0
 70
     8
 71
     3
 72
    10
 73
     6
 74
     0
 42
0.000000001
 43
0.00000001
 40
0.0
 40
0.0
 40
0.0
 40
0.0
 40
0.2788299357096158
 40
0.5595669547158306
 40
1.0
 40
1.0
 40
1.0
 40
1.0
 10
79.07675842180764
 20
-1330.35232177786
 30
0.0
 10
79.02388849455241
 20
-1330.269502309545
 30
0.0
 10
78.91778703125377
 20
-1330.103296921454
 30
0.0
 10
78.59593515833014
 20
-1329.939449593799
 30
0.0
 10
78.34555610564404
 20
-1329.917203902527
 30
0.0
 10
78.19264458849942
 20
-1329.90361801199
 30
0.0
  0
SPLINE
  5
348
330
1F
100
AcDbEntity
  8
0
  6
Continuous
 62
     7
370
    25
100
AcDbSpline
210
0.0
220
0.0
230
1.0
 70
     8
 71
     3
 72
     9
 73
     5
 74
     0
 42
0.000000001
 43
0.00000001
 40
0.0
 40
0.0
 40
0.0
 40
0.0
 40
0.5599835253425754
 40
1.0
 40
1.0
 40
1.0
 40
1.0
 10
78.19264458849942
 20
-1329.90361801199
 30
0.0
 10
78.07426112658732
 20
-1329.909334143765
 30
0.0
 10
77.86285586812069
 20
-1329.919541822235
 30
0.0
 10
77.67023206895729
 20
-1330.00583688653
 30
0.0
 10
77.5854744239143
 20
-1330.043808136502
 30
0.0
  0
LINE
  5
349
330
1F
100
AcDbEntity
  8
0
  6
Continuous
 62
     7
370
    25
100
AcDbLine
 10
77.2818856163
 20
-1330.3523217779
 30
0.0
 11
79.0767584218
 21
-1330.3523217779
 31
0.0
  0
SPLINE
  5
34A
330
1F
100
AcDbEntity
  8
0
  6
Continuous
 62
     7
370
    25
100
AcDbSpline
210
0.0
220
0.0
230
1.0
 70
     8
 71
     3
 72
     9
 73
     5
 74
     0
 42
0.000000001
 43
0.00000001
 40
0.0
 40
0.0
 40
0.0
 40
0.0
 40
0.559179298142294
 40
1.0
 40
1.0
 40
1.0
 40
1.0
 10
77.5854744239143
 20
-1330.043808136502
 30
0.0
 10
77.51840954247236
 20
-1330.091302184388
 30
0.0
 10
77.39847505694192
 20
-1330.176237460147
 30
0.0
 10
77.3175562858137
 20
-1330.298448584325
 30
0.0
 10
77.28188561633145
 20
-1330.35232177786
 30
0.0
  0
CIRCLE
  5
34B
330
1F
100
AcDbEntity
  8
0
  6
Continuous
 62
     7
370
    25
100
AcDbCircle
 10
100.9806050438
 20
-1409.4677060932
 30
0.0
 40
7.999999999999986
  0
CIRCLE
  5
34C
330
1F
100
AcDbEntity
  8
0
  6
Continuous
 62
     7
370
    25
100
AcDbCircle
 10
100.9806050438
 20
-1409.4677060932
 30
0.0
 40
7.499999999999986
  0
CIRCLE
  5
34D
330
1F
100
AcDbEntity
  8
0
  6
Continuous
 62
     7
370
    25
100
AcDbCircle
 10
100.9806050438
 20
-1409.4677060932
 30
0.0
 40
5.150000000000006
  0
ARC
  5
34E
330
1F
100
AcDbEntity
  8
0
  6
Continuous
 62
     7
370
    25
100
AcDbCircle
 10
148.4806050438
 20
-1256.9677060932
 30
0.0
 40
5.0
100
AcDbArc
 50
0.0
 51
90.0
  0
LINE
  5
34F
330
1F
100
AcDbEntity
  8
0
  6
Continuous
 62
     7
370
    25
100
AcDbLine
 10
153.4806050582
 20
-1561.9676863294
 30
0.0
 11
153.4806050582
 21
-1256.9676791768
 31
0.0
  0
ARC
  5
350
330
1F
100
AcDbEntity
  8
0
  6
Continuous
 62
     7
370
    25
100
AcDbCircle
 10
148.4806050438
 20
-1561.9677060932
 30
0.0
 40
5.0
100
AcDbArc
 50
270.0
 51
0.0
  0
LINE
  5
351
330
1F
100
AcDbEntity
  8
0
  6
Continuous
 62
     7
370
    25
100
AcDbLine
 10
53.4806035681
 20
-1566.967681561
 30
0.0
 11
148.4806061013
 21
-1566.967681561
 31
0.0
  0
ARC
  5
352
330
1F
100
AcDbEntity
  8
0
  6
Continuous
 62
     7
370
    25
100
AcDbCircle
 10
53.4806050438
 20
-1561.9677060932
 30
0.0
 40
5.0
100
AcDbArc
 50
180.0
 51
270.0
  0
LINE
  5
353
330
1F
100
AcDbEntity
  8
0
  6
Continuous
 62
     7
370
    25
100
AcDbLine
 10
48.4806046112
 20
-1256.9676791768
 30
0.0
 11
48.4806046112
 21
-1561.9676863294
 31
0.0
  0
ARC
  5
354
330
1F
100
AcDbEntity
  8
0
  6
Continuous
 62
     7
370
    25
100
AcDbCircle
 10
53.4806050438
 20
-1256.9677060932
 30
0.0
 40
5.0
100
AcDbArc
 50
90.0
 51
180.0
  0
LINE
  5
355
330
1F
100
AcDbEntity
  8
0
  6
Continuous
 62
     7
370
    25
100
AcDbLine
 10
148.4806061013
 20
-1251.9676839452
 30
0.0
 11
53.4806035681
 21
-1251.9676839452
 31
0.0
  0
CIRCLE
  5
356
330
1F
100
AcDbEntity
  8
0
  6
Continuous
 62
     7
370
    25
100
AcDbCircle
 10
100.9806050438
 20
-1409.4677060932
 30
0.0
 40
8.25
  0
CIRCLE
  5
357
330
1F
100
AcDbEntity
  8
0
  6
Continuous
 62
     7
370
    25
100
AcDbCircle
 10
100.9806050438
 20
-1529.4677060932
 30
0.0
 40
1.500000000000227
  0
LINE
  5
358
330
1F
100
AcDbEntity
  8
0
  6
Continuous
 62
     7
370
    25
100
AcDbLine
 10
8.5056096537
 20
2945.5320680995
 30
0.0
 11
9.2306032999
 21
2945.5320680995
 31
0.0
  0
LINE
  5
359
330
1F
100
AcDbEntity
  8
0
  6
Continuous
 62
     7
370
    25
100
AcDbLine
 10
8.2306087239
 20
2945.5320680995
 30
0.0
 11
8.5056096537
 21
2945.5320680995
 31
0.0
  0
LINE
  5
35A
330
1F
100
AcDbEntity
  8
0
  6
Continuous
 62
     7
370
    25
100
AcDbLine
 10
21.7306062801
 20
2945.5320680995
 30
0.0
 11
9.2306032999
 21
2945.5320680995
 31
0.0
  0
LINE
  5
35B
330
1F
100
AcDbEntity
  8
0
  6
Continuous
 62
     7
370
    25
100
AcDbLine
 10
5.9806078894
 20
2884.5140779872
 30
0.0
 11
5.9806078894
 21
2889.782174911
 31
0.0
  0
LINE
  5
35C
330
1F
100
AcDbEntity
  8
0
  6
Continuous
 62
     7
370
    25
100
AcDbLine
 10
5.9806078894
 20
2877.2823656458
 30
0.0
 11
5.9806078894
 21
2884.5140779872
 31
0.0
  0
LINE
  5
35D
330
1F
100
AcDbEntity
  8
0
  6
Continuous
 62
     7
370
    25
100
AcDbLine
 10
195.9806055053
 20
2889.782174911
 30
0.0
 11
195.9806055053
 21
2877.2823656458
 31
0.0
  0
LINE
  5
35E
330
1F
100
AcDbEntity
  8
0
  6
Continuous
 62
     7
370
    25
100
AcDbLine
 10
186.7716655357
 20
2945.5320680995
 30
0.0
 11
192.7306026442
 21
2945.5320680995
 31
0.0
  0
LINE
  5
35F
330
1F
100
AcDbEntity
  8
0
  6
Continuous
 62
     7
370
    25
100
AcDbLine
 10
180.2306071146
 20
2945.5320680995
 30
0.0
 11
186.7716655357
 21
2945.5320680995
 31
0.0
  0
LINE
  5
360
330
1F
100
AcDbEntity
  8
0
  6
Continuous
 62
     7
370
    25
100
AcDbLine
 10
193.7306046708
 20
2945.5320680995
 30
0.0
 11
192.7306026442
 21
2945.5320680995
 31
0.0
  0
LINE
  5
361
330
1F
100
AcDbEntity
  8
0
  6
Continuous
 62
     7
370
    25
100
AcDbLine
 10
10.2306053264
 20
2946.3322008509
 30
0.0
 11
9.2306032999
 21
2946.3322008509
 31
0.0
  0
LINE
  5
362
330
1F
100
AcDbEntity
  8
0
  6
Continuous
 62
     7
370
    25
100
AcDbLine
 10
12.5956654771
 20
2948.8322580714
 30
0.0
 11
11.5956634505
 21
2948.8322580714
 31
0.0
  0
LINE
  5
363
330
1F
100
AcDbEntity
  8
0
  6
Continuous
 62
     7
370
    25
100
AcDbLine
 10
192.7306026442
 20
2946.3322008509
 30
0.0
 11
191.7306080683
 21
2946.3322008509
 31
0.0
  0
LINE
  5
364
330
1F
100
AcDbEntity
  8
0
  6
Continuous
 62
     7
370
    25
100
AcDbLine
 10
190.3655499442
 20
2948.8322580714
 30
0.0
 11
189.3655479176
 21
2948.8322580714
 31
0.0
  0
LINE
  5
365
330
1F
100
AcDbEntity
  8
0
  6
Continuous
 62
     7
370
    25
100
AcDbLine
 10
181.3785329683
 20
2946.3322008509
 30
0.0
 11
181.2306016906
 21
2946.3322008509
 31
0.0
  0
LINE
  5
366
330
1F
100
AcDbEntity
  8
0
  6
Continuous
 62
     7
370
    25
100
AcDbLine
 10
191.7306080683
 20
2946.3322008509
 30
0.0
 11
181.3785329683
 21
2946.3322008509
 31
0.0
  0
LINE
  5
367
330
1F
100
AcDbEntity
  8
0
  6
Continuous
 62
     7
370
    25
100
AcDbLine
 10
183.6769551261
 20
2948.8322580714
 30
0.0
 11
183.5956618412
 21
2948.8322580714
 31
0.0
  0
LINE
  5
368
330
1F
100
AcDbEntity
  8
0
  6
Continuous
 62
     7
370
    25
100
AcDbLine
 10
189.3655479176
 20
2948.8322580714
 30
0.0
 11
183.6769551261
 21
2948.8322580714
 31
0.0
  0
LINE
  5
369
330
1F
100
AcDbEntity
  8
0
  6
Continuous
 62
     7
370
    25
100
AcDbLine
 10
10.8628913982
 20
2946.3322008509
 30
0.0
 11
10.2306053264
 21
2946.3322008509
 31
0.0
  0
LINE
  5
36A
330
1F
100
AcDbEntity
  8
0
  6
Continuous
 62
     7
370
    25
100
AcDbLine
 10
20.7306042536
 20
2946.3322008509
 30
0.0
 11
10.8628913982
 21
2946.3322008509
 31
0.0
  0
LINE
  5
36B
330
1F
100
AcDbEntity
  8
0
  6
Continuous
 62
     7
370
    25
100
AcDbLine
 10
12.9431158526
 20
2948.8322580714
 30
0.0
 11
12.5956654771
 21
2948.8322580714
 31
0.0
  0
LINE
  5
36C
330
1F
100
AcDbEntity
  8
0
  6
Continuous
 62
     7
370
    25
100
AcDbLine
 10
18.3655441029
 20
2948.8322580714
 30
0.0
 11
12.9431158526
 21
2948.8322580714
 31
0.0
  0
LINE
  5
36D
330
1F
100
AcDbEntity
  8
0
  6
Continuous
 62
     7
370
    25
100
AcDbLine
 10
240.9806072934
 20
-2074.4677042108
 30
0.0
 11
240.9806072934
 21
-2059.4677036148
 31
0.0
  0
LINE
  5
36E
330
1F
100
AcDbEntity
  8
0
  6
Continuous
 62
     7
370
    25
100
AcDbLine
 10
265.9805983527
 20
-2059.4677036148
 30
0.0
 11
265.9805983527
 21
-2074.4677042108
 31
0.0
  0
LINE
  5
36F
330
1F
100
AcDbEntity
  8
0
  6
Continuous
 62
     7
370
    25
100
AcDbLine
 10
240.9806072934
 20
-2059.4677036148
 30
0.0
 11
265.9805983527
 21
-2059.4677036148
 31
0.0
  0
LINE
  5
370
330
1F
100
AcDbEntity
  8
0
  6
Continuous
 62
     7
370
    25
100
AcDbLine
 10
265.9805983527
 20
-2074.4677042108
 30
0.0
 11
240.9806072934
 21
-2074.4677042108
 31
0.0
  0
LINE
  5
371
330
1F
100
AcDbEntity
  8
0
  6
Continuous
 62
     7
370
    25
100
AcDbLine
 10
-39.0193938987
 20
-2059.4677036148
 30
0.0
 11
-39.0193938987
 21
-2074.4677042108
 31
0.0
  0
LINE
  5
372
330
1F
100
AcDbEntity
  8
0
  6
Continuous
 62
     7
370
    25
100
AcDbLine
 10
-39.0193938987
 20
-2059.4677036148
 30
0.0
 11
240.9806072934
 21
-2059.4677036148
 31
0.0
  0
LINE
  5
373
330
1F
100
AcDbEntity
  8
0
  6
Continuous
 62
     7
370
    25
100
AcDbLine
 10
-39.0193938987
 20
-2074.4677042108
 30
0.0
 11
240.9806072934
 21
-2074.4677042108
 31
0.0
  0
LINE
  5
374
330
1F
100
AcDbEntity
  8
0
  6
Continuous
 62
     7
370
    25
100
AcDbLine
 10
-64.0193998592
 20
-2074.4677042108
 30
0.0
 11
-64.0193998592
 21
-2059.4677036148
 31
0.0
  0
LINE
  5
375
330
1F
100
AcDbEntity
  8
0
  6
Continuous
 62
     7
370
    25
100
AcDbLine
 10
-64.0193998592
 20
-2059.4677036148
 30
0.0
 11
-39.0193938987
 21
-2059.4677036148
 31
0.0
  0
LINE
  5
376
330
1F
100
AcDbEntity
  8
0
  6
Continuous
 62
     7
370
    25
100
AcDbLine
 10
-39.0193938987
 20
-2074.4677042108
 30
0.0
 11
-64.0193998592
 21
-2074.4677042108
 31
0.0
  0
LINE
  5
377
330
1F
100
AcDbEntity
  8
0
  6
Continuous
 62
     7
370
    25
100
AcDbLine
 10
193.9806014521
 20
2822.800382461
 30
0.0
 11
193.9806014521
 21
-2059.4677036148
 31
0.0
  0
LINE
  5
378
330
1F
100
AcDbEntity
  8
0
  6
Continuous
 62
     7
370
    25
100
AcDbLine
 10
7.980604492
 20
-2059.4677036148
 30
0.0
 11
7.980604492
 21
2822.800382461
 31
0.0
  0
ARC
  5
379
330
1F
100
AcDbEntity
  8
0
  6
Continuous
 62
     8
370
    25
100
AcDbCircle
 10
28.0863173776
 20
2823.3866940845
 30
0.0
 40
10.76933602837803
100
AcDbArc
 50
184.5504220923
 51
270.4468812266
  0
ARC
  5
37A
330
1F
100
AcDbEntity
  8
0
  6
Continuous
 62
     8
370
    25
100
AcDbCircle
 10
173.8748641343
 20
2823.3866940845
 30
0.0
 40
10.76933602837802
100
AcDbArc
 50
269.5531187734
 51
355.4495779077
  0
LINE
  5
37B
330
1F
100
AcDbEntity
  8
0
  6
Continuous
 62
     8
370
    25
100
AcDbLine
 10
191.9806048496
 20
-2059.4677036148
 30
0.0
 11
191.9806048496
 21
2822.5323999781
 31
0.0
  0
LINE
  5
37C
330
1F
100
AcDbEntity
  8
0
  6
Continuous
 62
     8
370
    25
100
AcDbLine
 10
9.9806085451
 20
2822.5323999781
 30
0.0
 11
9.9806085451
 21
-2059.4677036148
 31
0.0
  0
ENDSEC
  0
SECTION
  2
OBJECTS
  0
DICTIONARY
  5
C
330
0
100
AcDbDictionary
281
     1
  3
ACAD_GROUP
350
D
  3
ACAD_LAYOUT
350
1A
  3
ACAD_MLINESTYLE
350
17
  3
ACAD_PLOTSETTINGS
350
19
  3
ACAD_PLOTSTYLENAME
350
E
  3
ACAD_SCALELIST
350
47
  0
DICTIONARY
  5
D
102
{ACAD_REACTORS
330
C
102
}
330
C
100
AcDbDictionary
281
     1
  0
DICTIONARY
  5
1A
102
{ACAD_REACTORS
330
C
102
}
330
C
100
AcDbDictionary
281
     1
  3
Layout1
350
1E
  3
Layout2
350
26
  3
Model
350
22
  0
DICTIONARY
  5
17
102
{ACAD_REACTORS
330
C
102
}
330
C
100
AcDbDictionary
281
     1
  3
Standard
350
18
  0
DICTIONARY
  5
19
102
{ACAD_REACTORS
330
C
102
}
330
C
100
AcDbDictionary
281
     1
  0
ACDBDICTIONARYWDFLT
  5
E
102
{ACAD_REACTORS
330
C
102
}
330
C
100
AcDbDictionary
281
     1
  3
Normal
350
F
100
AcDbDictionaryWithDefault
340
F
  0
DICTIONARY
  5
47
102
{ACAD_REACTORS
330
C
102
}
330
C
100
AcDbDictionary
281
     1
  3
A0
350
48
  3
A1
350
49
  3
A2
350
4A
  3
A3
350
4B
  3
A4
350
4C
  3
A5
350
4D
  3
A6
350
4E
  3
A7
350
4F
  3
A8
350
50
  3
A9
350
51
  3
B0
350
52
  3
B1
350
53
  3
B2
350
54
  3
B3
350
55
  3
B4
350
56
  3
B5
350
57
  3
B6
350
58
  3
B7
350
59
  3
B8
350
5A
  3
B9
350
5B
  3
C0
350
5C
  3
C1
350
5D
  3
C2
350
5E
  3
C3
350
5F
  3
C4
350
60
  3
C5
350
61
  3
C6
350
62
  3
C7
350
63
  3
C8
350
64
  3
C9
350
65
  3
D0
350
66
  3
D1
350
67
  3
D2
350
68
  0
LAYOUT
  5
1E
102
{ACAD_REACTORS
330
1A
102
}
330
1A
100
AcDbPlotSettings
  1

  2
none_device
  4

  6

 40
0.0
 41
0.0
 42
0.0
 43
0.0
 44
0.0
 45
0.0
 46
0.0
 47
0.0
 48
0.0
 49
0.0
140
0.0
141
0.0
142
1.0
143
1.0
 70
   688
 72
     1
 73
     0
 74
     5
  7

 75
    16
147
1.0
148
0.0
149
0.0
100
AcDbLayout
  1
Layout1
 70
     1
 71
     1
 10
0.0
 20
0.0
 11
420.0
 21
297.0
 12
0.0
 22
0.0
 32
0.0
 14
1.0000000000E+20
 24
1.0000000000E+20
 34
1.0000000000E+20
 15
-1.0000000000E+20
 25
-1.0000000000E+20
 35
-1.0000000000E+20
146
0.0
 13
0.0
 23
0.0
 33
0.0
 16
1.0
 26
0.0
 36
0.0
 17
0.0
 27
1.0
 37
0.0
 76
     0
330
1B
  0
LAYOUT
  5
26
102
{ACAD_REACTORS
330
1A
102
}
330
1A
100
AcDbPlotSettings
  1

  2
none_device
  4

  6

 40
0.0
 41
0.0
 42
0.0
 43
0.0
 44
0.0
 45
0.0
 46
0.0
 47
0.0
 48
0.0
 49
0.0
140
0.0
141
0.0
142
1.0
143
1.0
 70
   688
 72
     1
 73
     0
 74
     5
  7

 75
    16
147
1.0
148
0.0
149
0.0
100
AcDbLayout
  1
Layout2
 70
     1
 71
     2
 10
0.0
 20
0.0
 11
0.0
 21
0.0
 12
0.0
 22
0.0
 32
0.0
 14
0.0
 24
0.0
 34
0.0
 15
0.0
 25
0.0
 35
0.0
146
0.0
 13
0.0
 23
0.0
 33
0.0
 16
1.0
 26
0.0
 36
0.0
 17
0.0
 27
1.0
 37
0.0
 76
     0
330
23
  0
LAYOUT
  5
22
102
{ACAD_REACTORS
330
1A
102
}
330
1A
100
AcDbPlotSettings
  1

  2
none_device
  4
Letter_(8.50_x_11.00_Inches)
  6

 40
6.35
 41
6.35
 42
6.35000508
 43
6.35000508
 44
215.9
 45
279.4
 46
0.0
 47
0.0
 48
0.0
 49
0.0
140
0.0
141
0.0
142
1.0
143
1.0
 70
  1712
 72
     1
 73
     0
 74
     0
  7

 75
     0
147
1.0
148
0.0
149
0.0
100
AcDbLayout
  1
Model
 70
     1
 71
     0
 10
0.0
 20
0.0
 11
1189.0
 21
841.0
 12
0.0
 22
0.0
 32
0.0
 14
0.0
 24
0.0
 34
0.0
 15
1189.0
 25
841.0
 35
0.0
146
0.0
 13
0.0
 23
0.0
 33
0.0
 16
1.0
 26
0.0
 36
0.0
 17
0.0
 27
1.0
 37
0.0
 76
     0
330
1F
331
29
  0
MLINESTYLE
  5
18
102
{ACAD_REACTORS
330
17
102
}
330
17
100
AcDbMlineStyle
  2
Standard
 70
     0
  3

 62
   256
 51
90.0
 52
90.0
 71
     2
 49
0.5
 62
   256
  6
BYLAYER
 49
-0.5
 62
   256
  6
BYLAYER
  0
ACDBPLACEHOLDER
  5
F
102
{ACAD_REACTORS
330
E
102
}
330
E
  0
SCALE
  5
48
102
{ACAD_REACTORS
330
47
102
}
330
47
100
AcDbScale
 70
     0
300
1:1
140
1.0
141
1.0
290
     1
  0
SCALE
  5
49
102
{ACAD_REACTORS
330
47
102
}
330
47
100
AcDbScale
 70
     0
300
1:2
140
1.0
141
2.0
290
     0
  0
SCALE
  5
4A
102
{ACAD_REACTORS
330
47
102
}
330
47
100
AcDbScale
 70
     0
300
1:4
140
1.0
141
4.0
290
     0
  0
SCALE
  5
4B
102
{ACAD_REACTORS
330
47
102
}
330
47
100
AcDbScale
 70
     0
300
1:5
140
1.0
141
5.0
290
     0
  0
SCALE
  5
4C
102
{ACAD_REACTORS
330
47
102
}
330
47
100
AcDbScale
 70
     0
300
1:8
140
1.0
141
8.0
290
     0
  0
SCALE
  5
4D
102
{ACAD_REACTORS
330
47
102
}
330
47
100
AcDbScale
 70
     0
300
1:10
140
1.0
141
10.0
290
     0
  0
SCALE
  5
4E
102
{ACAD_REACTORS
330
47
102
}
330
47
100
AcDbScale
 70
     0
300
1:16
140
1.0
141
16.0
290
     0
  0
SCALE
  5
4F
102
{ACAD_REACTORS
330
47
102
}
330
47
100
AcDbScale
 70
     0
300
1:20
140
1.0
141
20.0
290
     0
  0
SCALE
  5
50
102
{ACAD_REACTORS
330
47
102
}
330
47
100
AcDbScale
 70
     0
300
1:30
140
1.0
141
30.0
290
     0
  0
SCALE
  5
51
102
{ACAD_REACTORS
330
47
102
}
330
47
100
AcDbScale
 70
     0
300
1:40
140
1.0
141
40.0
290
     0
  0
SCALE
  5
52
102
{ACAD_REACTORS
330
47
102
}
330
47
100
AcDbScale
 70
     0
300
1:50
140
1.0
141
50.0
290
     0
  0
SCALE
  5
53
102
{ACAD_REACTORS
330
47
102
}
330
47
100
AcDbScale
 70
     0
300
1:100
140
1.0
141
100.0
290
     0
  0
SCALE
  5
54
102
{ACAD_REACTORS
330
47
102
}
330
47
100
AcDbScale
 70
     0
300
2:1
140
2.0
141
1.0
290
     0
  0
SCALE
  5
55
102
{ACAD_REACTORS
330
47
102
}
330
47
100
AcDbScale
 70
     0
300
4:1
140
4.0
141
1.0
290
     0
  0
SCALE
  5
56
102
{ACAD_REACTORS
330
47
102
}
330
47
100
AcDbScale
 70
     0
300
8:1
140
8.0
141
1.0
290
     0
  0
SCALE
  5
57
102
{ACAD_REACTORS
330
47
102
}
330
47
100
AcDbScale
 70
     0
300
10:1
140
10.0
141
1.0
290
     0
  0
SCALE
  5
58
102
{ACAD_REACTORS
330
47
102
}
330
47
100
AcDbScale
 70
     0
300
100:1
140
100.0
141
1.0
290
     0
  0
SCALE
  5
59
102
{ACAD_REACTORS
330
47
102
}
330
47
100
AcDbScale
 70
     0
300
1/128" = 1'-0"
140
0.0078125
141
12.0
290
     0
  0
SCALE
  5
5A
102
{ACAD_REACTORS
330
47
102
}
330
47
100
AcDbScale
 70
     0
300
1/64" = 1'-0"
140
0.015625
141
12.0
290
     0
  0
SCALE
  5
5B
102
{ACAD_REACTORS
330
47
102
}
330
47
100
AcDbScale
 70
     0
300
1/32" = 1'-0"
140
0.03125
141
12.0
290
     0
  0
SCALE
  5
5C
102
{ACAD_REACTORS
330
47
102
}
330
47
100
AcDbScale
 70
     0
300
1/16" = 1'-0"
140
0.0625
141
12.0
290
     0
  0
SCALE
  5
5D
102
{ACAD_REACTORS
330
47
102
}
330
47
100
AcDbScale
 70
     0
300
3/32" = 1'-0"
140
0.09375
141
12.0
290
     0
  0
SCALE
  5
5E
102
{ACAD_REACTORS
330
47
102
}
330
47
100
AcDbScale
 70
     0
300
1/8" = 1'-0"
140
0.125
141
12.0
290
     0
  0
SCALE
  5
5F
102
{ACAD_REACTORS
330
47
102
}
330
47
100
AcDbScale
 70
     0
300
3/16" = 1'-0"
140
0.1875
141
12.0
290
     0
  0
SCALE
  5
60
102
{ACAD_REACTORS
330
47
102
}
330
47
100
AcDbScale
 70
     0
300
1/4" = 1'-0"
140
0.25
141
12.0
290
     0
  0
SCALE
  5
61
102
{ACAD_REACTORS
330
47
102
}
330
47
100
AcDbScale
 70
     0
300
3/8" = 1'-0"
140
0.375
141
12.0
290
     0
  0
SCALE
  5
62
102
{ACAD_REACTORS
330
47
102
}
330
47
100
AcDbScale
 70
     0
300
1/2" = 1'-0"
140
0.5
141
12.0
290
     0
  0
SCALE
  5
63
102
{ACAD_REACTORS
330
47
102
}
330
47
100
AcDbScale
 70
     0
300
3/4" = 1'-0"
140
0.75
141
12.0
290
     0
  0
SCALE
  5
64
102
{ACAD_REACTORS
330
47
102
}
330
47
100
AcDbScale
 70
     0
300
1" = 1'-0"
140
1.0
141
12.0
290
     0
  0
SCALE
  5
65
102
{ACAD_REACTORS
330
47
102
}
330
47
100
AcDbScale
 70
     0
300
1-1/2" = 1'-0"
140
1.5
141
12.0
290
     0
  0
SCALE
  5
66
102
{ACAD_REACTORS
330
47
102
}
330
47
100
AcDbScale
 70
     0
300
3" = 1'-0"
140
3.0
141
12.0
290
     0
  0
SCALE
  5
67
102
{ACAD_REACTORS
330
47
102
}
330
47
100
AcDbScale
 70
     0
300
6" = 1'-0"
140
6.0
141
12.0
290
     0
  0
SCALE
  5
68
102
{ACAD_REACTORS
330
47
102
}
330
47
100
AcDbScale
 70
     0
300
1'-0" = 1'-0"
140
12.0
141
12.0
290
     0
  0
ENDSEC
  0
EOF
