  0
SECTION
  2
HEADER
  9
$ACADVER
  1
AC1015
  9
$ACADMAINTVER
 70
     6
  9
$DWGCODEPAGE
  3
ANSI_1254
  9
$INSBASE
 10
0.0
 20
0.0
 30
0.0
  9
$EXTMIN
 10
-20.8462731006
 20
-1516.3832136948
 30
0.0
  9
$EXTMAX
 10
1732.5582962412
 20
2496.1167863052
 30
0.0
  9
$LIMMIN
 10
0.0
 20
0.0
  9
$LIMMAX
 10
1189.0
 20
841.0
  9
$ORTHOMODE
 70
     0
  9
$REGENMODE
 70
     1
  9
$FILLMODE
 70
     1
  9
$QTEXTMODE
 70
     0
  9
$MIRRTEXT
 70
     1
  9
$LTSCALE
 40
1.0
  9
$ATTMODE
 70
     1
  9
$TEXTSIZE
 40
3.5
  9
$TRACEWID
 40
1.0
  9
$TEXTSTYLE
  7
Standard
  9
$CLAYER
  8
0
  9
$CELTYPE
  6
ByLayer
  9
$CECOLOR
 62
   256
  9
$CELTSCALE
 40
1.0
  9
$DISPSILH
 70
     0
  9
$DIMSCALE
 40
1.0
  9
$DIMASZ
 40
3.556
  9
$DIMEXO
 40
1.0
  9
$DIMDLI
 40
3.75
  9
$DIMRND
 40
0.0
  9
$DIMDLE
 40
0.0
  9
$DIMEXE
 40
1.0
  9
$DIMTP
 40
0.0
  9
$DIMTM
 40
0.0
  9
$DIMTXT
 40
3.5
  9
$DIMCEN
 40
2.5
  9
$DIMTSZ
 40
0.0
  9
$DIMTOL
 70
     0
  9
$DIMLIM
 70
     0
  9
$DIMTIH
 70
     1
  9
$DIMTOH
 70
     1
  9
$DIMSE1
 70
     0
  9
$DIMSE2
 70
     0
  9
$DIMTAD
 70
     1
  9
$DIMZIN
 70
     0
  9
$DIMBLK
  1

  9
$DIMASO
 70
     1
  9
$DIMSHO
 70
     1
  9
$DIMPOST
  1

  9
$DIMAPOST
  1

  9
$DIMALT
 70
     0
  9
$DIMALTD
 70
     3
  9
$DIMALTF
 40
0.0393700787
  9
$DIMLFAC
 40
1.0
  9
$DIMTOFL
 70
     1
  9
$DIMTVP
 40
0.0
  9
$DIMTIX
 70
     0
  9
$DIMSOXD
 70
     0
  9
$DIMSAH
 70
     0
  9
$DIMBLK1
  1

  9
$DIMBLK2
  1

  9
$DIMSTYLE
  2
ISO-25
  9
$DIMCLRD
 70
     0
  9
$DIMCLRE
 70
     0
  9
$DIMCLRT
 70
     0
  9
$DIMTFAC
 40
1.0
  9
$DIMGAP
 40
1.524
  9
$DIMJUST
 70
     0
  9
$DIMSD1
 70
     0
  9
$DIMSD2
 70
     0
  9
$DIMTOLJ
 70
     0
  9
$DIMTZIN
 70
     0
  9
$DIMALTZ
 70
     0
  9
$DIMALTTZ
 70
     0
  9
$DIMUPT
 70
     0
  9
$DIMDEC
 70
     2
  9
$DIMTDEC
 70
     2
  9
$DIMALTU
 70
     2
  9
$DIMALTTD
 70
     3
  9
$DIMTXSTY
  7
Standard
  9
$DIMAUNIT
 70
     0
  9
$DIMADEC
 70
     2
  9
$DIMALTRND
 40
0.0
  9
$DIMAZIN
 70
     0
  9
$DIMDSEP
 70
    44
  9
$DIMATFIT
 70
     3
  9
$DIMFRAC
 70
     0
  9
$DIMLDRBLK
  1

  9
$DIMLUNIT
 70
     2
  9
$DIMLWD
 70
    -2
  9
$DIMLWE
 70
    -2
  9
$DIMTMOVE
 70
     0
  9
$LUNITS
 70
     2
  9
$LUPREC
 70
     2
  9
$SKETCHINC
 40
1.0
  9
$FILLETRAD
 40
10.0
  9
$AUNITS
 70
     0
  9
$AUPREC
 70
     2
  9
$MENU
  1
.
  9
$ELEVATION
 40
0.0
  9
$PELEVATION
 40
0.0
  9
$THICKNESS
 40
0.0
  9
$LIMCHECK
 70
     0
  9
$CHAMFERA
 40
0.0
  9
$CHAMFERB
 40
0.0
  9
$CHAMFERC
 40
0.0
  9
$CHAMFERD
 40
0.0
  9
$SKPOLY
 70
     0
  9
$TDCREATE
 40
2459102.36673941
  9
$TDUCREATE
 40
2459102.24173941
  9
$TDUPDATE
 40
2459102.367882315
  9
$TDUUPDATE
 40
2459102.242882315
  9
$TDINDWG
 40
0.0007724884
  9
$TDUSRTIMER
 40
0.0007724769
  9
$USRTIMER
 70
     1
  9
$ANGBASE
 50
0.0
  9
$ANGDIR
 70
     0
  9
$PDMODE
 70
     0
  9
$PDSIZE
 40
-1.0
  9
$PLINEWID
 40
0.0
  9
$SPLFRAME
 70
     0
  9
$SPLINETYPE
 70
     6
  9
$SPLINESEGS
 70
     8
  9
$HANDSEED
  5
33D
  9
$SURFTAB1
 70
     6
  9
$SURFTAB2
 70
     6
  9
$SURFTYPE
 70
     6
  9
$SURFU
 70
     6
  9
$SURFV
 70
     6
  9
$UCSBASE
  2

  9
$UCSNAME
  2

  9
$UCSORG
 10
0.0
 20
0.0
 30
0.0
  9
$UCSXDIR
 10
1.0
 20
0.0
 30
0.0
  9
$UCSYDIR
 10
0.0
 20
1.0
 30
0.0
  9
$UCSORTHOREF
  2

  9
$UCSORTHOVIEW
 70
     0
  9
$UCSORGTOP
 10
0.0
 20
0.0
 30
0.0
  9
$UCSORGBOTTOM
 10
0.0
 20
0.0
 30
0.0
  9
$UCSORGLEFT
 10
0.0
 20
0.0
 30
0.0
  9
$UCSORGRIGHT
 10
0.0
 20
0.0
 30
0.0
  9
$UCSORGFRONT
 10
0.0
 20
0.0
 30
0.0
  9
$UCSORGBACK
 10
0.0
 20
0.0
 30
0.0
  9
$PUCSBASE
  2

  9
$PUCSNAME
  2

  9
$PUCSORG
 10
0.0
 20
0.0
 30
0.0
  9
$PUCSXDIR
 10
1.0
 20
0.0
 30
0.0
  9
$PUCSYDIR
 10
0.0
 20
1.0
 30
0.0
  9
$PUCSORTHOREF
  2

  9
$PUCSORTHOVIEW
 70
     0
  9
$PUCSORGTOP
 10
0.0
 20
0.0
 30
0.0
  9
$PUCSORGBOTTOM
 10
0.0
 20
0.0
 30
0.0
  9
$PUCSORGLEFT
 10
0.0
 20
0.0
 30
0.0
  9
$PUCSORGRIGHT
 10
0.0
 20
0.0
 30
0.0
  9
$PUCSORGFRONT
 10
0.0
 20
0.0
 30
0.0
  9
$PUCSORGBACK
 10
0.0
 20
0.0
 30
0.0
  9
$USERI1
 70
     0
  9
$USERI2
 70
     0
  9
$USERI3
 70
     0
  9
$USERI4
 70
     0
  9
$USERI5
 70
     0
  9
$USERR1
 40
0.0
  9
$USERR2
 40
0.0
  9
$USERR3
 40
0.0
  9
$USERR4
 40
0.0
  9
$USERR5
 40
0.0
  9
$WORLDVIEW
 70
     1
  9
$SHADEDGE
 70
     3
  9
$SHADEDIF
 70
    70
  9
$TILEMODE
 70
     1
  9
$MAXACTVP
 70
    64
  9
$PINSBASE
 10
0.0
 20
0.0
 30
0.0
  9
$PLIMCHECK
 70
     0
  9
$PEXTMIN
 10
1.000000000000000E+20
 20
1.000000000000000E+20
 30
1.000000000000000E+20
  9
$PEXTMAX
 10
-1.000000000000000E+20
 20
-1.000000000000000E+20
 30
-1.000000000000000E+20
  9
$PLIMMIN
 10
0.0
 20
0.0
  9
$PLIMMAX
 10
0.0
 20
0.0
  9
$UNITMODE
 70
     0
  9
$VISRETAIN
 70
     1
  9
$PLINEGEN
 70
     0
  9
$PSLTSCALE
 70
     1
  9
$TREEDEPTH
 70
  3020
  9
$CMLSTYLE
  2
Standard
  9
$CMLJUST
 70
     0
  9
$CMLSCALE
 40
20.0
  9
$PROXYGRAPHICS
 70
     1
  9
$MEASUREMENT
 70
     1
  9
$CELWEIGHT
370
    -1
  9
$ENDCAPS
280
     0
  9
$JOINSTYLE
280
     0
  9
$LWDISPLAY
290
     1
  9
$INSUNITS
 70
     4
  9
$HYPERLINKBASE
  1

  9
$STYLESHEET
  1

  9
$XEDIT
290
     1
  9
$CEPSNTYPE
380
     0
  9
$PSTYLEMODE
290
     1
  9
$FINGERPRINTGUID
  2
{307d82f0-cb96-4ea4-b203-8013805ce531}
  9
$VERSIONGUID
  2
{FAEB1C32-E019-11D5-929B-00C0DF256EC4}
  9
$EXTNAMES
290
     1
  9
$PSVPSCALE
 40
0.0
  9
$OLESTARTUP
290
     0
  0
ENDSEC
  0
SECTION
  2
CLASSES
  0
CLASS
  1
ACDBDICTIONARYWDFLT
  2
AcDbDictionaryWithDefault
  3
ObjectDBX Classes
 90
        0
280
     0
281
     0
  0
CLASS
  1
VISUALSTYLE
  2
AcDbVisualStyle
  3
ObjectDBX Classes
 90
     4095
280
     0
281
     0
  0
CLASS
  1
MATERIAL
  2
AcDbMaterial
  3
ObjectDBX Classes
 90
     1153
280
     0
281
     0
  0
CLASS
  1
SCALE
  2
AcDbScale
  3
ObjectDBX Classes
 90
     1153
280
     0
281
     0
  0
CLASS
  1
TABLESTYLE
  2
AcDbTableStyle
  3
ObjectDBX Classes
 90
     4095
280
     0
281
     0
  0
CLASS
  1
MLEADERSTYLE
  2
AcDbMLeaderStyle
  3
ACDB_MLEADERSTYLE_CLASS
 90
     4095
280
     0
281
     0
  0
CLASS
  1
SUN
  2
AcDbSun
  3
SCENEOE
 90
     1153
280
     0
281
     0
  0
CLASS
  1
ACDBPLACEHOLDER
  2
AcDbPlaceHolder
  3
ObjectDBX Classes
 90
        0
280
     0
281
     0
  0
CLASS
  1
LAYOUT
  2
AcDbLayout
  3
ObjectDBX Classes
 90
        0
280
     0
281
     0
  0
ENDSEC
  0
SECTION
  2
TABLES
  0
TABLE
  2
VPORT
  5
8
330
0
100
AcDbSymbolTable
 70
     1
  0
VPORT
  5
29
330
8
100
AcDbSymbolTableRecord
100
AcDbViewportTableRecord
  2
*Active
 70
     0
 10
0.0
 20
0.0
 11
1.0
 21
1.0
 12
855.8560115703
 22
489.8667863052001
 13
0.0
 23
0.0
 14
10.0
 24
10.0
 15
10.0
 25
10.0
 16
0.0
 26
0.0
 36
1.0
 17
0.0
 27
0.0
 37
0.0
 40
4092.75
 41
2.328467153284671
 42
50.0
 43
0.0
 44
0.0
 50
0.0
 51
0.0
 71
    16
 72
  2000
 73
     1
 74
     3
 75
     0
 76
     0
 77
     0
 78
     0
281
     0
 65
     1
110
0.0
120
0.0
130
0.0
111
1.0
121
0.0
131
0.0
112
0.0
122
1.0
132
0.0
 79
     0
146
0.0
  0
ENDTAB
  0
TABLE
  2
LTYPE
  5
5
330
0
100
AcDbSymbolTable
 70
     6
  0
LTYPE
  5
14
330
5
100
AcDbSymbolTableRecord
100
AcDbLinetypeTableRecord
  2
ByBlock
 70
     0
  3

 72
    65
 73
     0
 40
0.0
  0
LTYPE
  5
15
330
5
100
AcDbSymbolTableRecord
100
AcDbLinetypeTableRecord
  2
ByLayer
 70
     0
  3

 72
    65
 73
     0
 40
0.0
  0
LTYPE
  5
16
330
5
100
AcDbSymbolTableRecord
100
AcDbLinetypeTableRecord
  2
Continuous
 70
     0
  3
Solid line
 72
    65
 73
     0
 40
0.0
  0
LTYPE
  5
6E
330
5
100
AcDbSymbolTableRecord
100
AcDbLinetypeTableRecord
  2
HIDDEN
 70
     0
  3
Hidden __ __ __ __ __ __ __ __ __ __ __ __ __ __
 72
    65
 73
     2
 40
1.905
 49
1.27
 74
     0
 49
-0.635
 74
     0
  0
LTYPE
  5
6F
330
5
100
AcDbSymbolTableRecord
100
AcDbLinetypeTableRecord
  2
PHANTOM
 70
     0
  3
Phantom ______  __  __  ______  __  __  ______
 72
    65
 73
     6
 40
12.7
 49
6.35
 74
     0
 49
-1.27
 74
     0
 49
1.27
 74
     0
 49
-1.27
 74
     0
 49
1.27
 74
     0
 49
-1.27
 74
     0
  0
LTYPE
  5
70
330
5
100
AcDbSymbolTableRecord
100
AcDbLinetypeTableRecord
  2
CENTER
 70
     0
  3
Center ____ _ ____ _ ____ _ ____ _ ____ _ ____
 72
    65
 73
     4
 40
10.16
 49
6.35
 74
     0
 49
-1.27
 74
     0
 49
1.27
 74
     0
 49
-1.27
 74
     0
  0
LTYPE
  5
71
330
5
100
AcDbSymbolTableRecord
100
AcDbLinetypeTableRecord
  2
CENTERX2
 70
     0
  3
Center (2x) ________  __  ________  __  _____
 72
    65
 73
     4
 40
20.32
 49
12.7
 74
     0
 49
-2.54
 74
     0
 49
2.54
 74
     0
 49
-2.54
 74
     0
  0
LTYPE
  5
72
330
5
100
AcDbSymbolTableRecord
100
AcDbLinetypeTableRecord
  2
DOT2
 70
     0
  3
Dot (.5x) ........................................
 72
    65
 73
     2
 40
0.635
 49
0.0
 74
     0
 49
-0.635
 74
     0
  0
ENDTAB
  0
TABLE
  2
LAYER
  5
2
330
0
100
AcDbSymbolTable
 70
     6
  0
LAYER
  5
10
330
2
100
AcDbSymbolTableRecord
100
AcDbLayerTableRecord
  2
0
 70
     0
 62
     7
  6
Continuous
370
    -3
390
F
  0
LAYER
  5
73
330
2
100
AcDbSymbolTableRecord
100
AcDbLayerTableRecord
  2
FORMAT
 70
     0
 62
     7
  6
Continuous
370
    -3
390
F
  0
LAYER
  5
74
330
2
100
AcDbSymbolTableRecord
100
AcDbLayerTableRecord
  2
SLD-0
 70
     0
 62
   179
  6
Continuous
370
    -3
390
F
  0
LAYER
  5
75
330
2
100
AcDbSymbolTableRecord
100
AcDbLayerTableRecord
  2
AAA_EKSEN
 70
     0
 62
     1
  6
CENTER
370
    -3
390
F
  0
LAYER
  5
76
330
2
100
AcDbSymbolTableRecord
100
AcDbLayerTableRecord
  2
03
 70
     0
 62
     3
  6
HIDDEN
370
    -3
390
F
  0
LAYER
  5
33B
330
2
100
AcDbSymbolTableRecord
100
AcDbLayerTableRecord
  2
Defpoints
 70
     0
 62
     7
  6
Continuous
290
     0
370
    -3
390
F
  0
ENDTAB
  0
TABLE
  2
STYLE
  5
3
330
0
100
AcDbSymbolTable
 70
     1
  0
STYLE
  5
11
330
3
100
AcDbSymbolTableRecord
100
AcDbTextStyleTableRecord
  2
Standard
 70
     0
 40
0.0
 41
1.0
 50
0.0
 71
     0
 42
3.5
  3
txt
  4

  0
ENDTAB
  0
TABLE
  2
VIEW
  5
6
330
0
100
AcDbSymbolTable
 70
     0
  0
ENDTAB
  0
TABLE
  2
UCS
  5
7
330
0
100
AcDbSymbolTable
 70
     0
  0
ENDTAB
  0
TABLE
  2
APPID
  5
9
330
0
100
AcDbSymbolTable
 70
     1
  0
APPID
  5
12
330
9
100
AcDbSymbolTableRecord
100
AcDbRegAppTableRecord
  2
ACAD
 70
     0
  0
ENDTAB
  0
TABLE
  2
DIMSTYLE
  5
A
330
0
100
AcDbSymbolTable
 70
     1
100
AcDbDimStyleTable
  0
DIMSTYLE
105
27
330
A
100
AcDbSymbolTableRecord
100
AcDbDimStyleTableRecord
  2
ISO-25
 70
     0
 41
2.5
 42
0.625
 43
3.75
 44
1.25
 73
     0
 74
     0
 77
     1
 78
     8
140
2.5
141
2.5
143
0.0393700787
147
0.625
171
     3
172
     1
178
     0
271
     2
272
     2
274
     3
278
    44
283
     0
284
     8
340
11
  0
ENDTAB
  0
TABLE
  2
BLOCK_RECORD
  5
1
330
0
100
AcDbSymbolTable
 70
     1
  0
BLOCK_RECORD
  5
1F
330
1
100
AcDbSymbolTableRecord
100
AcDbBlockTableRecord
  2
*Model_Space
340
22
  0
BLOCK_RECORD
  5
1B
330
1
100
AcDbSymbolTableRecord
100
AcDbBlockTableRecord
  2
*Paper_Space
340
1E
  0
BLOCK_RECORD
  5
23
330
1
100
AcDbSymbolTableRecord
100
AcDbBlockTableRecord
  2
*Paper_Space0
340
26
  0
ENDTAB
  0
ENDSEC
  0
SECTION
  2
BLOCKS
  0
BLOCK
  5
20
330
1F
100
AcDbEntity
  8
0
100
AcDbBlockBegin
  2
*Model_Space
 70
     0
 10
0.0
 20
0.0
 30
0.0
  3
*Model_Space
  1

  0
ENDBLK
  5
21
330
1F
100
AcDbEntity
  8
0
100
AcDbBlockEnd
  0
BLOCK
  5
1C
330
1B
100
AcDbEntity
 67
     1
  8
0
100
AcDbBlockBegin
  2
*Paper_Space
 70
     0
 10
0.0
 20
0.0
 30
0.0
  3
*Paper_Space
  1

  0
ENDBLK
  5
1D
330
1B
100
AcDbEntity
 67
     1
  8
0
100
AcDbBlockEnd
  0
BLOCK
  5
24
330
23
100
AcDbEntity
  8
0
100
AcDbBlockBegin
  2
*Paper_Space0
 70
     0
 10
0.0
 20
0.0
 30
0.0
  3
*Paper_Space0
  1

  0
ENDBLK
  5
25
330
23
100
AcDbEntity
  8
0
100
AcDbBlockEnd
  0
ENDSEC
  0
SECTION
  2
ENTITIES
  0
ARC
  5
77
330
1F
100
AcDbEntity
  8
0
  6
Continuous
 62
     7
370
    25
100
AcDbCircle
 10
455.9037268994
 20
2489.8667863052
 30
0.0
 40
0.75
100
AcDbArc
 50
90.0
 51
180.0
  0
ARC
  5
78
330
1F
100
AcDbEntity
  8
0
  6
Continuous
 62
     7
370
    25
100
AcDbCircle
 10
484.4037268994
 20
2489.8667863052
 30
0.0
 40
0.75
100
AcDbArc
 50
0.0
 51
90.0
  0
ARC
  5
79
330
1F
100
AcDbEntity
  8
0
  6
Continuous
 62
     7
370
    25
100
AcDbCircle
 10
455.9037268994
 20
2489.3667863052
 30
0.0
 40
0.75
100
AcDbArc
 50
180.0
 51
270.0
  0
ARC
  5
7A
330
1F
100
AcDbEntity
  8
0
  6
Continuous
 62
     7
370
    25
100
AcDbCircle
 10
484.4037268994
 20
2489.3667863052
 30
0.0
 40
0.75
100
AcDbArc
 50
270.0
 51
0.0
  0
LINE
  5
7B
330
1F
100
AcDbEntity
  8
0
  6
Continuous
 62
     7
370
    25
100
AcDbLine
 10
485.1537268994
 20
2489.3667863052
 30
0.0
 11
485.1537268994
 21
2489.8667863052
 31
0.0
  0
LINE
  5
7C
330
1F
100
AcDbEntity
  8
0
  6
Continuous
 62
     7
370
    25
100
AcDbLine
 10
455.1537268994
 20
2489.8667863052
 30
0.0
 11
455.1537268994
 21
2489.3667863052
 31
0.0
  0
ARC
  5
7D
330
1F
100
AcDbEntity
  8
0
  6
Continuous
 62
     7
370
    25
100
AcDbCircle
 10
77.0637268994
 20
2489.3667863052
 30
0.0
 40
0.7500000000000284
100
AcDbArc
 50
180.0
 51
270.0
  0
ARC
  5
7E
330
1F
100
AcDbEntity
  8
0
  6
Continuous
 62
     7
370
    25
100
AcDbCircle
 10
105.5637268994
 20
2489.3667863052
 30
0.0
 40
0.7500000000000284
100
AcDbArc
 50
270.0
 51
0.0
  0
ARC
  5
7F
330
1F
100
AcDbEntity
  8
0
  6
Continuous
 62
     7
370
    25
100
AcDbCircle
 10
77.0637268994
 20
2489.8667863052
 30
0.0
 40
0.7500000000000284
100
AcDbArc
 50
90.0
 51
180.0
  0
ARC
  5
80
330
1F
100
AcDbEntity
  8
0
  6
Continuous
 62
     7
370
    25
100
AcDbCircle
 10
105.5637268994
 20
2489.8667863052
 30
0.0
 40
0.7500000000000284
100
AcDbArc
 50
0.0
 51
90.0
  0
LINE
  5
81
330
1F
100
AcDbEntity
  8
0
  6
Continuous
 62
     7
370
    25
100
AcDbLine
 10
106.3137268994
 20
2489.3667863052
 30
0.0
 11
106.3137268994
 21
2489.8667863052
 31
0.0
  0
LINE
  5
82
330
1F
100
AcDbEntity
  8
0
  6
Continuous
 62
     7
370
    25
100
AcDbLine
 10
76.3137268994
 20
2489.8667863052
 30
0.0
 11
76.3137268994
 21
2489.3667863052
 31
0.0
  0
LINE
  5
83
330
1F
100
AcDbEntity
  8
0
  6
Continuous
 62
     7
370
    25
100
AcDbLine
 10
478.9037268994
 20
2490.6167863052
 30
0.0
 11
478.9037268994
 21
2491.1167863052
 31
0.0
  0
LINE
  5
84
330
1F
100
AcDbEntity
  8
0
  6
Continuous
 62
     7
370
    25
100
AcDbLine
 10
461.4037268994
 20
2491.1167863052
 30
0.0
 11
461.4037268994
 21
2490.6167863052
 31
0.0
  0
ARC
  5
85
330
1F
100
AcDbEntity
  8
0
  6
Continuous
 62
     7
370
    25
100
AcDbCircle
 10
466.4037268994
 20
2491.1167863052
 30
0.0
 40
5.0
100
AcDbArc
 50
90.0
 51
180.0
  0
ARC
  5
86
330
1F
100
AcDbEntity
  8
0
  6
Continuous
 62
     7
370
    25
100
AcDbCircle
 10
473.9037268994
 20
2491.1167863052
 30
0.0
 40
5.0
100
AcDbArc
 50
0.0
 51
90.0
  0
ARC
  5
87
330
1F
100
AcDbEntity
  8
0
  6
Continuous
 62
     7
370
    25
100
AcDbCircle
 10
87.5637268994
 20
2491.1167863052
 30
0.0
 40
5.0
100
AcDbArc
 50
90.0
 51
180.0
  0
ARC
  5
88
330
1F
100
AcDbEntity
  8
0
  6
Continuous
 62
     7
370
    25
100
AcDbCircle
 10
95.0637268994
 20
2491.1167863052
 30
0.0
 40
5.000000000000014
100
AcDbArc
 50
0.0
 51
90.0
  0
LINE
  5
89
330
1F
100
AcDbEntity
  8
0
  6
Continuous
 62
     7
370
    25
100
AcDbLine
 10
100.0637268994
 20
2490.6167863052
 30
0.0
 11
100.0637268994
 21
2491.1167863052
 31
0.0
  0
LINE
  5
8A
330
1F
100
AcDbEntity
  8
0
  6
Continuous
 62
     7
370
    25
100
AcDbLine
 10
82.5637268994
 20
2491.1167863052
 30
0.0
 11
82.5637268994
 21
2490.6167863052
 31
0.0
  0
ARC
  5
8C
330
1F
100
AcDbEntity
  8
0
  6
Continuous
 62
     7
370
    25
100
AcDbCircle
 10
119.7065889711
 20
2366.5799174144
 30
0.0
 40
2.026579787012477
100
AcDbArc
 50
200.0
 51
255.6250378776
  0
ARC
  5
8D
330
1F
100
AcDbEntity
  8
0
  6
Continuous
 62
     7
370
    25
100
AcDbCircle
 10
121.5978648286
 20
2366.5799174144
 30
0.0
 40
2.026579787012464
100
AcDbArc
 50
284.3749621224
 51
340.0000000000001
  0
LINE
  5
8E
330
1F
100
AcDbEntity
  8
0
  6
Continuous
 62
     7
370
    25
100
AcDbLine
 10
117.8022268998
 20
2366.2667863052
 30
0.0
 11
117.8022268998
 21
2365.8867863052
 31
0.0
  0
LINE
  5
8F
330
1F
100
AcDbEntity
  8
0
  6
Continuous
 62
     7
370
    25
100
AcDbLine
 10
123.5022268998
 20
2365.8867863052
 30
0.0
 11
123.5022268998
 21
2366.2667863052
 31
0.0
  0
LINE
  5
90
330
1F
100
AcDbEntity
  8
0
  6
Continuous
 62
     7
370
    25
100
AcDbLine
 10
497.8022268998
 20
2366.2667863052
 30
0.0
 11
497.8022268998
 21
2365.8867863052
 31
0.0
  0
LINE
  5
91
330
1F
100
AcDbEntity
  8
0
  6
Continuous
 62
     7
370
    25
100
AcDbLine
 10
503.5022268998
 20
2365.8867863052
 30
0.0
 11
503.5022268998
 21
2366.2667863052
 31
0.0
  0
ARC
  5
92
330
1F
100
AcDbEntity
  8
0
  6
Continuous
 62
     7
370
    25
100
AcDbCircle
 10
499.7065889711
 20
2366.5799174144
 30
0.0
 40
2.026579787012353
100
AcDbArc
 50
200.0
 51
255.6250378776
  0
ARC
  5
93
330
1F
100
AcDbEntity
  8
0
  6
Continuous
 62
     7
370
    25
100
AcDbCircle
 10
501.5978648286
 20
2366.5799174144
 30
0.0
 40
2.026579787012338
100
AcDbArc
 50
284.3749621224
 51
340.0000000000001
  0
ARC
  5
94
330
1F
100
AcDbEntity
  8
0
  6
Continuous
 62
     7
370
    25
100
AcDbCircle
 10
58.7065889711
 20
2366.5799174144
 30
0.0
 40
2.026579787012477
100
AcDbArc
 50
200.0
 51
255.6250378776
  0
ARC
  5
95
330
1F
100
AcDbEntity
  8
0
  6
Continuous
 62
     7
370
    25
100
AcDbCircle
 10
60.5978648286
 20
2366.5799174144
 30
0.0
 40
2.026579787012471
100
AcDbArc
 50
284.3749621224
 51
340.0000000000001
  0
LINE
  5
96
330
1F
100
AcDbEntity
  8
0
  6
Continuous
 62
     7
370
    25
100
AcDbLine
 10
56.8022268998
 20
2366.2667863052
 30
0.0
 11
56.8022268998
 21
2365.8867863052
 31
0.0
  0
LINE
  5
97
330
1F
100
AcDbEntity
  8
0
  6
Continuous
 62
     7
370
    25
100
AcDbLine
 10
62.5022268998
 20
2365.8867863052
 30
0.0
 11
62.5022268998
 21
2366.2667863052
 31
0.0
  0
ARC
  5
98
330
1F
100
AcDbEntity
  8
0
  6
Continuous
 62
     7
370
    25
100
AcDbCircle
 10
438.7065889711
 20
2366.5799174144
 30
0.0
 40
2.026579787012338
100
AcDbArc
 50
200.0
 51
255.6250378776
  0
ARC
  5
99
330
1F
100
AcDbEntity
  8
0
  6
Continuous
 62
     7
370
    25
100
AcDbCircle
 10
440.5978648286
 20
2366.5799174144
 30
0.0
 40
2.026579787012366
100
AcDbArc
 50
284.3749621224
 51
340.0000000000001
  0
LINE
  5
9A
330
1F
100
AcDbEntity
  8
0
  6
Continuous
 62
     7
370
    25
100
AcDbLine
 10
436.8022268998
 20
2366.2667863052
 30
0.0
 11
436.8022268998
 21
2365.8867863052
 31
0.0
  0
LINE
  5
9B
330
1F
100
AcDbEntity
  8
0
  6
Continuous
 62
     7
370
    25
100
AcDbLine
 10
442.5022268998
 20
2365.8867863052
 30
0.0
 11
442.5022268998
 21
2366.2667863052
 31
0.0
  0
SPLINE
  5
9C
330
1F
100
AcDbEntity
  8
0
  6
Continuous
 62
     7
370
    25
100
AcDbSpline
210
0.0
220
0.0
230
1.0
 70
     8
 71
     3
 72
     9
 73
     5
 74
     0
 42
0.000000001
 43
0.00000001
 40
0.0
 40
0.0
 40
0.0
 40
0.0
 40
0.9892098431186728
 40
1.0
 40
1.0
 40
1.0
 40
1.0
 10
91.90268148273096
 20
2365.966541376888
 30
0.0
 10
92.36883285413056
 20
2365.985346927665
 30
0.0
 10
92.8400689367902
 20
2366.004357606651
 30
0.0
 10
93.20301955065402
 20
2366.264839464392
 30
0.0
 10
93.20693584471785
 20
2366.267650104501
 30
0.0
  0
SPLINE
  5
9D
330
1F
100
AcDbEntity
  8
0
  6
Continuous
 62
     7
370
    25
100
AcDbSpline
210
0.0
220
0.0
230
1.0
 70
     8
 71
     3
 72
     9
 73
     5
 74
     0
 42
0.000000001
 43
0.00000001
 40
0.0
 40
0.0
 40
0.0
 40
0.0
 40
0.172656617051956
 40
1.0
 40
1.0
 40
1.0
 40
1.0
 10
87.18990770783275
 20
2366.266541376887
 30
0.0
 10
87.25007402539286
 20
2366.2248571588
 30
0.0
 10
87.598547884011
 20
2365.983428716618
 30
0.0
 10
88.03810644801135
 20
2365.974187246246
 30
0.0
 10
88.40177231735518
 20
2365.966541376887
 30
0.0
  0
SPLINE
  5
9E
330
1F
100
AcDbEntity
  8
0
  6
Continuous
 62
     7
370
    25
100
AcDbSpline
210
0.0
220
0.0
230
1.0
 70
     8
 71
     3
 72
    13
 73
     9
 74
     0
 42
0.000000001
 43
0.00000001
 40
0.0
 40
0.0
 40
0.0
 40
0.0
 40
0.1058146513168506
 40
0.2632590506707903
 40
0.4114912884797093
 40
0.5490251340671964
 40
0.7932183125505463
 40
1.0
 40
1.0
 40
1.0
 40
1.0
 10
68.01828199727255
 20
2366.266786305157
 30
0.0
 10
68.0387544152769
 20
2366.04677683607
 30
0.0
 10
68.08968828182277
 20
2365.49940949847
 30
0.0
 10
68.45013142654011
 20
2364.700537072801
 30
0.0
 10
68.99996777177675
 20
2363.9483055432
 30
0.0
 10
69.84506977570415
 20
2363.225067648345
 30
0.0
 10
70.99217868231072
 20
2362.692055876382
 30
0.0
 10
71.91236549162733
 20
2362.641423317138
 30
0.0
 10
72.33429095925975
 20
2362.618207198388
 30
0.0
  0
SPLINE
  5
9F
330
1F
100
AcDbEntity
  8
0
  6
Continuous
 62
     7
370
    25
100
AcDbSpline
210
0.0
220
0.0
230
1.0
 70
     8
 71
     3
 72
    11
 73
     7
 74
     0
 42
0.000000001
 43
0.00000001
 40
0.0
 40
0.0
 40
0.0
 40
0.0
 40
0.210094786020874
 40
0.4768534048211037
 40
0.7555294796686187
 40
0.9999999999999999
 40
0.9999999999999999
 40
0.9999999999999999
 40
0.9999999999999999
 10
85.05993409491592
 20
2363.247496039539
 30
0.0
 10
85.2340658142981
 20
2363.365420758839
 30
0.0
 10
85.62929362954947
 20
2363.633075206511
 30
0.0
 10
86.14456908788637
 20
2364.212840554454
 30
0.0
 10
86.57465601340347
 20
2364.894041295448
 30
0.0
 10
86.72401780330863
 20
2365.393848462903
 30
0.0
 10
86.79381574299178
 20
2365.627412285013
 30
0.0
  0
SPLINE
  5
A0
330
1F
100
AcDbEntity
  8
0
  6
Continuous
 62
     7
370
    25
100
AcDbSpline
210
0.0
220
0.0
230
1.0
 70
     8
 71
     3
 72
    13
 73
     9
 74
     0
 42
0.000000001
 43
0.00000001
 40
0.0
 40
0.0
 40
0.0
 40
0.0
 40
0.0366524771069979
 40
0.2265820028347202
 40
0.4043875399663729
 40
0.5686268113086429
 40
0.8578883435669639
 40
1.0
 40
1.0
 40
1.0
 40
1.0
 10
93.49128407732515
 20
2365.745461097135
 30
0.0
 10
93.4993579525858
 20
2365.67854746732
 30
0.0
 10
93.54926985408851
 20
2365.264893999481
 30
0.0
 10
93.90288739185004
 20
2364.585431215598
 30
0.0
 10
94.4949815535212
 20
2363.807032516439
 30
0.0
 10
95.4115133227042
 20
2363.09301738552
 30
0.0
 10
96.45627512723853
 20
2362.660457666615
 30
0.0
 10
97.22816338432672
 20
2362.650695000443
 30
0.0
 10
97.48245438263558
 20
2362.647478786044
 30
0.0
  0
SPLINE
  5
A1
330
1F
100
AcDbEntity
  8
0
  6
Continuous
 62
     7
370
    25
100
AcDbSpline
210
0.0
220
0.0
230
1.0
 70
     8
 71
     3
 72
    13
 73
     9
 74
     0
 42
0.000000001
 43
0.00000001
 40
0.0
 40
0.0
 40
0.0
 40
0.0
 40
0.0114050440027117
 40
0.1901506648575353
 40
0.3875991145581101
 40
0.6058132474209941
 40
0.8412977524835609
 40
1.0
 40
1.0
 40
1.0
 40
1.0
 10
110.0305808794701
 20
2363.007064753279
 30
0.0
 10
110.0439373048753
 20
2363.012376377115
 30
0.0
 10
110.2666223879259
 20
2363.100934457516
 30
0.0
 10
110.7171425638607
 20
2363.411084647424
 30
0.0
 10
111.3458259060883
 20
2363.978232386969
 30
0.0
 10
111.8725053568009
 20
2364.73967454638
 30
0.0
 10
112.2176207164103
 20
2365.525618930374
 30
0.0
 10
112.2667830863435
 20
2366.054881382755
 30
0.0
 10
112.2865761883456
 20
2366.267966018829
 30
0.0
  0
SPLINE
  5
A2
330
1F
100
AcDbEntity
  8
0
  6
Continuous
 62
     7
370
    25
100
AcDbSpline
210
0.0
220
0.0
230
1.0
 70
     8
 71
     3
 72
     9
 73
     5
 74
     0
 42
0.000000001
 43
0.00000001
 40
0.0
 40
0.0
 40
0.0
 40
0.0
 40
0.0639712726965139
 40
1.0
 40
1.0
 40
1.0
 40
1.0
 10
84.63058087931036
 20
2363.00706475322
 30
0.0
 10
84.64394348540505
 20
2363.012362405802
 30
0.0
 10
84.85282796638211
 20
2363.095175399187
 30
0.0
 10
85.05571677732287
 20
2363.24413748097
 30
0.0
 10
85.2456265328117
 20
2363.383570268797
 30
0.0
  0
LINE
  5
A3
330
1F
100
AcDbEntity
  8
0
  6
Continuous
 62
     7
370
    25
100
AcDbLine
 10
65.2326770843
 20
2366.2665413769
 30
0.0
 11
65.2483253519
 21
2366.2667863052
 31
0.0
  0
SPLINE
  5
A4
330
1F
100
AcDbEntity
  8
0
  6
Continuous
 62
     7
370
    25
100
AcDbSpline
210
0.0
220
0.0
230
1.0
 70
     8
 71
     3
 72
    13
 73
     9
 74
     0
 42
0.000000001
 43
0.00000001
 40
0.0
 40
0.0
 40
0.0
 40
0.0
 40
0.0535644312640742
 40
0.2752845204924099
 40
0.5022183395943131
 40
0.7066734027650037
 40
0.8558665600745261
 40
1.0
 40
1.0
 40
1.0
 40
1.0
 10
75.36479009906932
 20
2362.616541376887
 30
0.0
 10
75.41571734081836
 20
2362.555848609289
 30
0.0
 10
75.67744851193414
 20
2362.243929318234
 30
0.0
 10
76.3736222458758
 20
2361.909706301939
 30
0.0
 10
77.32400517185268
 20
2361.712855668539
 30
0.0
 10
78.18722023430219
 20
2361.834340516498
 30
0.0
 10
78.87509644732555
 20
2362.111720015671
 30
0.0
 10
79.21929358010993
 20
2362.376585398724
 30
0.0
 10
79.38842354387177
 20
2362.506733701456
 30
0.0
  0
SPLINE
  5
A5
330
1F
100
AcDbEntity
  8
0
  6
Continuous
 62
     7
370
    25
100
AcDbSpline
210
0.0
220
0.0
230
1.0
 70
     8
 71
     3
 72
     9
 73
     5
 74
     0
 42
0.000000001
 43
0.00000001
 40
0.0
 40
0.0
 40
0.0
 40
0.0
 40
0.9892098431186707
 40
1.0
 40
1.0
 40
1.0
 40
1.0
 10
471.90268148273
 20
2365.966541376888
 30
0.0
 10
472.3688328541288
 20
2365.985346927688
 30
0.0
 10
472.8400689367876
 20
2366.004357606696
 30
0.0
 10
473.2030195506532
 20
2366.264839464392
 30
0.0
 10
473.2069358447169
 20
2366.267650104502
 30
0.0
  0
SPLINE
  5
A6
330
1F
100
AcDbEntity
  8
0
  6
Continuous
 62
     7
370
    25
100
AcDbSpline
210
0.0
220
0.0
230
1.0
 70
     8
 71
     3
 72
     9
 73
     5
 74
     0
 42
0.000000001
 43
0.00000001
 40
0.0
 40
0.0
 40
0.0
 40
0.0
 40
0.172656617051955
 40
1.0
 40
1.0
 40
1.0
 40
1.0
 10
467.1899077078318
 20
2366.266541376889
 30
0.0
 10
467.2500740253919
 20
2366.224857158802
 30
0.0
 10
467.59854788401
 20
2365.98342871662
 30
0.0
 10
468.0381064480104
 20
2365.974187246248
 30
0.0
 10
468.4017723173542
 20
2365.966541376888
 30
0.0
  0
SPLINE
  5
A7
330
1F
100
AcDbEntity
  8
0
  6
Continuous
 62
     7
370
    25
100
AcDbSpline
210
0.0
220
0.0
230
1.0
 70
     8
 71
     3
 72
    13
 73
     9
 74
     0
 42
0.000000001
 43
0.00000001
 40
0.0
 40
0.0
 40
0.0
 40
0.0
 40
0.1058146513168503
 40
0.2632590506707909
 40
0.4114912884797131
 40
0.5490251340671971
 40
0.7932183125505463
 40
1.0
 40
1.0
 40
1.0
 40
1.0
 10
448.0182819972716
 20
2366.266786305158
 30
0.0
 10
448.0387544152759
 20
2366.046776836071
 30
0.0
 10
448.089688281822
 20
2365.49940949847
 30
0.0
 10
448.4501314265391
 20
2364.700537072802
 30
0.0
 10
448.9999677717757
 20
2363.9483055432
 30
0.0
 10
449.8450697757032
 20
2363.225067648347
 30
0.0
 10
450.9921786823099
 20
2362.692055876383
 30
0.0
 10
451.9123654916264
 20
2362.641423317139
 30
0.0
 10
452.3342909592588
 20
2362.618207198389
 30
0.0
  0
SPLINE
  5
A8
330
1F
100
AcDbEntity
  8
0
  6
Continuous
 62
     7
370
    25
100
AcDbSpline
210
0.0
220
0.0
230
1.0
 70
     8
 71
     3
 72
    11
 73
     7
 74
     0
 42
0.000000001
 43
0.00000001
 40
0.0
 40
0.0
 40
0.0
 40
0.0
 40
0.2100947860208808
 40
0.4768534048211052
 40
0.7555294796686172
 40
1.0
 40
1.0
 40
1.0
 40
1.0
 10
465.059934094915
 20
2363.24749603954
 30
0.0
 10
465.2340658142971
 20
2363.365420758841
 30
0.0
 10
465.6292936295487
 20
2363.633075206511
 30
0.0
 10
466.1445690878853
 20
2364.212840554454
 30
0.0
 10
466.5746560134025
 20
2364.894041295448
 30
0.0
 10
466.7240178033076
 20
2365.393848462905
 30
0.0
 10
466.7938157429908
 20
2365.627412285015
 30
0.0
  0
SPLINE
  5
A9
330
1F
100
AcDbEntity
  8
0
  6
Continuous
 62
     7
370
    25
100
AcDbSpline
210
0.0
220
0.0
230
1.0
 70
     8
 71
     3
 72
    13
 73
     9
 74
     0
 42
0.000000001
 43
0.00000001
 40
0.0
 40
0.0
 40
0.0
 40
0.0
 40
0.0366524771069989
 40
0.2265820028347173
 40
0.4043875399663731
 40
0.5686268113086377
 40
0.8578883435669573
 40
1.0
 40
1.0
 40
1.0
 40
1.0
 10
473.4912840773242
 20
2365.745461097136
 30
0.0
 10
473.4993579525848
 20
2365.678547467322
 30
0.0
 10
473.5492698540877
 20
2365.264893999482
 30
0.0
 10
473.902887391849
 20
2364.5854312156
 30
0.0
 10
474.4949815535205
 20
2363.807032516438
 30
0.0
 10
475.4115133227031
 20
2363.093017385523
 30
0.0
 10
476.4562751272375
 20
2362.660457666618
 30
0.0
 10
477.2281633843257
 20
2362.650695000444
 30
0.0
 10
477.4824543826347
 20
2362.647478786045
 30
0.0
  0
SPLINE
  5
AA
330
1F
100
AcDbEntity
  8
0
  6
Continuous
 62
     7
370
    25
100
AcDbSpline
210
0.0
220
0.0
230
1.0
 70
     8
 71
     3
 72
    13
 73
     9
 74
     0
 42
0.000000001
 43
0.00000001
 40
0.0
 40
0.0
 40
0.0
 40
0.0
 40
0.0114050440027141
 40
0.1901506648575378
 40
0.3875991145581082
 40
0.6058132474209937
 40
0.8412977524835615
 40
1.0
 40
1.0
 40
1.0
 40
1.0
 10
490.0305808794691
 20
2363.00706475328
 30
0.0
 10
490.0439373048744
 20
2363.012376377116
 30
0.0
 10
490.2666223879244
 20
2363.100934457516
 30
0.0
 10
490.7171425638602
 20
2363.411084647425
 30
0.0
 10
491.3458259060872
 20
2363.97823238697
 30
0.0
 10
491.8725053568002
 20
2364.739674546381
 30
0.0
 10
492.2176207164093
 20
2365.525618930375
 30
0.0
 10
492.2667830863426
 20
2366.054881382755
 30
0.0
 10
492.2865761883446
 20
2366.26796601883
 30
0.0
  0
SPLINE
  5
AB
330
1F
100
AcDbEntity
  8
0
  6
Continuous
 62
     7
370
    25
100
AcDbSpline
210
0.0
220
0.0
230
1.0
 70
     8
 71
     3
 72
     9
 73
     5
 74
     0
 42
0.000000001
 43
0.00000001
 40
0.0
 40
0.0
 40
0.0
 40
0.0
 40
0.0639712726965543
 40
0.9999999999999999
 40
0.9999999999999999
 40
0.9999999999999999
 40
0.9999999999999999
 10
464.6305808793094
 20
2363.007064753221
 30
0.0
 10
464.6439434854041
 20
2363.012362405804
 30
0.0
 10
464.852827966381
 20
2363.095175399186
 30
0.0
 10
465.0557167773216
 20
2363.24413748097
 30
0.0
 10
465.2456265328105
 20
2363.383570268798
 30
0.0
  0
LINE
  5
AC
330
1F
100
AcDbEntity
  8
0
  6
Continuous
 62
     7
370
    25
100
AcDbLine
 10
445.2326770843
 20
2366.2665413769
 30
0.0
 11
445.2483253519
 21
2366.2667863052
 31
0.0
  0
SPLINE
  5
AD
330
1F
100
AcDbEntity
  8
0
  6
Continuous
 62
     7
370
    25
100
AcDbSpline
210
0.0
220
0.0
230
1.0
 70
     8
 71
     3
 72
    13
 73
     9
 74
     0
 42
0.000000001
 43
0.00000001
 40
0.0
 40
0.0
 40
0.0
 40
0.0
 40
0.0535644312640753
 40
0.2752845204924127
 40
0.5022183395943177
 40
0.7066734027650009
 40
0.8558665600745335
 40
1.0
 40
1.0
 40
1.0
 40
1.0
 10
455.3647900990683
 20
2362.616541376889
 30
0.0
 10
455.4157173408174
 20
2362.555848609292
 30
0.0
 10
455.6774485119331
 20
2362.243929318238
 30
0.0
 10
456.3736222458749
 20
2361.909706301941
 30
0.0
 10
457.3240051718518
 20
2361.71285566854
 30
0.0
 10
458.1872202343012
 20
2361.834340516501
 30
0.0
 10
458.8750964473245
 20
2362.111720015672
 30
0.0
 10
459.219293580109
 20
2362.376585398725
 30
0.0
 10
459.3884235438708
 20
2362.506733701458
 30
0.0
  0
LINE
  5
AE
330
1F
100
AcDbEntity
  8
0
  6
Continuous
 62
     7
370
    25
100
AcDbLine
 10
470.1537268994
 20
2490.6167863052
 30
0.0
 11
484.4037268994
 21
2490.6167863052
 31
0.0
  0
LINE
  5
AF
330
1F
100
AcDbEntity
  8
0
  6
Continuous
 62
     7
370
    25
100
AcDbLine
 10
455.9037268994
 20
2490.6167863052
 30
0.0
 11
470.1537268994
 21
2490.6167863052
 31
0.0
  0
LINE
  5
B0
330
1F
100
AcDbEntity
  8
0
  6
Continuous
 62
     7
370
    25
100
AcDbLine
 10
91.3137268994
 20
2490.6167863052
 30
0.0
 11
105.5637268994
 21
2490.6167863052
 31
0.0
  0
LINE
  5
B1
330
1F
100
AcDbEntity
  8
0
  6
Continuous
 62
     7
370
    25
100
AcDbLine
 10
77.0637268994
 20
2490.6167863052
 30
0.0
 11
91.3137268994
 21
2490.6167863052
 31
0.0
  0
LINE
  5
B2
330
1F
100
AcDbEntity
  8
0
  6
Continuous
 62
     7
370
    25
100
AcDbLine
 10
466.4037268994
 20
2496.1167863052
 30
0.0
 11
473.9037268994
 21
2496.1167863052
 31
0.0
  0
LINE
  5
B3
330
1F
100
AcDbEntity
  8
0
  6
Continuous
 62
     7
370
    25
100
AcDbLine
 10
87.5637268994
 20
2496.1167863052
 30
0.0
 11
95.0637268994
 21
2496.1167863052
 31
0.0
  0
LINE
  5
C0
330
1F
100
AcDbEntity
  8
0
  6
Continuous
 62
     7
370
    25
100
AcDbLine
 10
117.8022268998
 20
2365.8867863052
 30
0.0
 11
123.5022268998
 21
2365.8867863052
 31
0.0
  0
LINE
  5
C1
330
1F
100
AcDbEntity
  8
0
  6
Continuous
 62
     7
370
    25
100
AcDbLine
 10
119.2034568998
 20
2364.6167863052
 30
0.0
 11
122.1009968998
 21
2364.6167863052
 31
0.0
  0
LINE
  5
C2
330
1F
100
AcDbEntity
  8
0
  6
Continuous
 62
     7
370
    25
100
AcDbLine
 10
497.8022268998
 20
2365.8867863052
 30
0.0
 11
503.5022268998
 21
2365.8867863052
 31
0.0
  0
LINE
  5
C3
330
1F
100
AcDbEntity
  8
0
  6
Continuous
 62
     7
370
    25
100
AcDbLine
 10
499.2034568998
 20
2364.6167863052
 30
0.0
 11
502.1009968998
 21
2364.6167863052
 31
0.0
  0
LINE
  5
C4
330
1F
100
AcDbEntity
  8
0
  6
Continuous
 62
     7
370
    25
100
AcDbLine
 10
56.8022268998
 20
2365.8867863052
 30
0.0
 11
62.5022268998
 21
2365.8867863052
 31
0.0
  0
LINE
  5
C5
330
1F
100
AcDbEntity
  8
0
  6
Continuous
 62
     7
370
    25
100
AcDbLine
 10
58.2034568998
 20
2364.6167863052
 30
0.0
 11
61.1009968998
 21
2364.6167863052
 31
0.0
  0
LINE
  5
C6
330
1F
100
AcDbEntity
  8
0
  6
Continuous
 62
     7
370
    25
100
AcDbLine
 10
436.8022268998
 20
2365.8867863052
 30
0.0
 11
442.5022268998
 21
2365.8867863052
 31
0.0
  0
LINE
  5
C7
330
1F
100
AcDbEntity
  8
0
  6
Continuous
 62
     7
370
    25
100
AcDbLine
 10
438.2034568998
 20
2364.6167863052
 30
0.0
 11
441.1009968998
 21
2364.6167863052
 31
0.0
  0
LINE
  5
C8
330
1F
100
AcDbEntity
  8
0
  6
Continuous
 62
     7
370
    25
100
AcDbLine
 10
68.6587546271
 20
2366.2665413769
 30
0.0
 11
111.6453696068
 21
2366.2665413769
 31
0.0
  0
LWPOLYLINE
  5
C9
330
1F
100
AcDbEntity
  8
0
  6
Continuous
 62
     7
370
    25
100
AcDbPolyline
 90
        3
 70
   128
 43
0.0
 10
65.2414372798
 20
2366.2665433791
 10
65.2520636898
 20
2366.2666864549
 10
65.2556671343
 20
2366.2667863052
  0
LWPOLYLINE
  5
CA
330
1F
100
AcDbEntity
  8
0
  6
Continuous
 62
     7
370
    25
100
AcDbPolyline
 90
        3
 70
   128
 43
0.0
 10
65.2469870255
 20
2366.2667863052
 10
65.2433924332
 20
2366.2666866684
 10
65.2327557843
 20
2366.2665433752
  0
LWPOLYLINE
  5
CB
330
1F
100
AcDbEntity
  8
0
  6
Continuous
 62
     7
370
    25
100
AcDbPolyline
 90
        3
 70
   128
 43
0.0
 10
56.0483253521
 20
2366.2667863052
 10
56.0442002658
 20
2366.2666741782
 10
56.0341778124
 20
2366.2665436291
  0
LINE
  5
CC
330
1F
100
AcDbEntity
  8
0
  6
Continuous
 62
     7
370
    25
100
AcDbLine
 10
124.2717767156
 20
2366.2665413769
 30
0.0
 11
124.256128448
 21
2366.2667863052
 31
0.0
  0
SPLINE
  5
CD
330
1F
100
AcDbEntity
  8
0
  6
Continuous
 62
     7
370
    25
100
AcDbSpline
210
0.0
220
0.0
230
1.0
 70
    24
 71
     3
 72
    19
 73
    15
 74
     0
 42
0.000000001
 43
0.00000001
 40
0.0
 40
0.0
 40
0.0
 40
0.0
 40
0.119721475533984
 40
0.184811825901829
 40
0.2499999559701902
 40
0.3150903503354912
 40
0.3802785244662961
 40
0.5000000000000625
 40
0.6197214755338138
 40
0.6848118258965925
 40
0.749999955970092
 40
0.8150903503332253
 40
0.8802785244662926
 40
1.0
 40
1.0
 40
1.0
 40
1.0
 10
91.9026814830431
 20
2365.966541376888
 30
0.0
 10
91.87917166527448
 20
2365.966541376888
 30
0.0
 10
91.84287999471957
 20
2365.966541376888
 30
0.0
 10
91.62496406324699
 20
2365.966541376887
 30
0.0
 10
91.39883035537378
 20
2365.966541376887
 30
0.0
 10
91.12025781721466
 20
2365.966541376887
 30
0.0
 10
90.7123347235716
 20
2365.966541376886
 30
0.0
 10
90.1522283067308
 20
2365.966541376887
 30
0.0
 10
89.59229726185258
 20
2365.966541376888
 30
0.0
 10
89.18435439915173
 20
2365.966541376886
 30
0.0
 10
88.90587574470915
 20
2365.966541376888
 30
0.0
 10
88.67958852583807
 20
2365.966541376888
 30
0.0
 10
88.46159861707781
 20
2365.966541376886
 30
0.0
 10
88.42528433641134
 20
2365.966541376887
 30
0.0
 10
88.40177231704305
 20
2365.966541376887
 30
0.0
  0
LINE
  5
CE
330
1F
100
AcDbEntity
  8
0
  6
Continuous
 62
     7
370
    25
100
AcDbLine
 10
71.889355222
 20
2362.6194771835
 30
0.0
 11
71.4428239138
 21
2362.7209435135
 31
0.0
  0
SPLINE
  5
CF
330
1F
100
AcDbEntity
  8
0
  6
Continuous
 62
     7
370
    25
100
AcDbSpline
210
0.0
220
0.0
230
1.0
 70
     8
 71
     3
 72
     9
 73
     5
 74
     0
 42
0.000000001
 43
0.00000001
 40
0.0
 40
0.0
 40
0.0
 40
0.0
 40
0.5528202556141171
 40
1.0
 40
1.0
 40
1.0
 40
1.0
 10
68.40931891857483
 20
2364.890832074144
 30
0.0
 10
68.35984944527362
 20
2364.951216167573
 30
0.0
 10
68.27036380722251
 20
2365.060445329885
 30
0.0
 10
68.25899082336434
 20
2365.20111009013
 30
0.0
 10
68.25390505534979
 20
2365.26401252166
 30
0.0
  0
SPLINE
  5
D0
330
1F
100
AcDbEntity
  8
0
  6
Continuous
 62
     7
370
    25
100
AcDbSpline
210
0.0
220
0.0
230
1.0
 70
     8
 71
     3
 72
    13
 73
     9
 74
     0
 42
0.000000001
 43
0.00000001
 40
0.0
 40
0.0
 40
0.0
 40
0.0
 40
0.231814631064452
 40
0.4946622104497172
 40
0.6315904464523323
 40
0.7731176607243416
 40
0.912300188356675
 40
1.0
 40
1.0
 40
1.0
 40
1.0
 10
77.4522269000415
 20
2362.616541376887
 30
0.0
 10
77.45226638542707
 20
2362.660501599149
 30
0.0
 10
77.45235064209388
 20
2362.754306984149
 30
0.0
 10
77.4517996571587
 20
2363.421489473748
 30
0.0
 10
77.45301294722928
 20
2364.210504026446
 30
0.0
 10
77.45223322210244
 20
2364.93300413177
 30
0.0
 10
77.45198114785484
 20
2365.634880091467
 30
0.0
 10
77.4521079063975
 20
2366.090445639757
 30
0.0
 10
77.45215690404244
 20
2366.266541376887
 30
0.0
  0
SPLINE
  5
D1
330
1F
100
AcDbEntity
  8
0
  6
Continuous
 62
     7
370
    25
100
AcDbSpline
210
0.0
220
0.0
230
1.0
 70
    24
 71
     3
 72
    15
 73
    11
 74
     0
 42
0.000000001
 43
0.00000001
 40
0.0
 40
0.0
 40
0.0
 40
0.0
 40
0.2406909462889261
 40
0.544940376543149
 40
0.6933113586637789
 40
0.8142762202660854
 40
0.8460769502683164
 40
0.8685414641173115
 40
0.9413141546679438
 40
1.0
 40
1.0
 40
1.0
 40
1.0
 10
72.3340798343704
 20
2362.616541376887
 30
0.0
 10
72.4867832523618
 20
2362.616541376886
 30
0.0
 10
72.8325139887383
 20
2362.616541376886
 30
0.0
 10
73.76223354811712
 20
2362.616541376888
 30
0.0
 10
74.87448997752976
 20
2362.616541376885
 30
0.0
 10
75.57702557109019
 20
2362.616541376889
 30
0.0
 10
76.06369662872959
 20
2362.616541376886
 30
0.0
 10
76.44914246711815
 20
2362.616541376887
 30
0.0
 10
76.90202158434283
 20
2362.616541376886
 30
0.0
 10
77.2824124471943
 20
2362.616541376886
 30
0.0
 10
77.45222690004155
 20
2362.616541376886
 30
0.0
  0
LINE
  5
D2
330
1F
100
AcDbEntity
  8
0
  6
Continuous
 62
     7
370
    25
100
AcDbLine
 10
71.8893458823
 20
2362.6192165957
 30
0.0
 11
72.0575773567
 21
2362.6165413769
 31
0.0
  0
LINE
  5
D3
330
1F
100
AcDbEntity
  8
0
  6
Continuous
 62
     7
370
    25
100
AcDbLine
 10
86.7385581059
 20
2365.3827198208
 30
0.0
 11
86.6973765987
 21
2365.2972685647
 31
0.0
  0
SPLINE
  5
D4
330
1F
100
AcDbEntity
  8
0
  6
Continuous
 62
     7
370
    25
100
AcDbSpline
210
0.0
220
0.0
230
1.0
 70
     8
 71
     3
 72
    11
 73
     7
 74
     0
 42
0.000000001
 43
0.00000001
 40
0.0
 40
0.0
 40
0.0
 40
0.0
 40
0.0598298761580101
 40
0.3765421083628591
 40
0.6894445570073032
 40
1.0
 40
1.0
 40
1.0
 40
1.0
 10
86.24319692203214
 20
2364.422214742373
 30
0.0
 10
86.20989367067111
 20
2364.354317350002
 30
0.0
 10
86.00029810925398
 20
2363.927001953118
 30
0.0
 10
85.30108337558318
 20
2363.349056940256
 30
0.0
 10
84.23651685363542
 20
2362.762303051009
 30
0.0
 10
83.42121492796362
 20
2362.666966357162
 30
0.0
 10
83.01509856614337
 20
2362.619477457611
 30
0.0
  0
LINE
  5
D5
330
1F
100
AcDbEntity
  8
0
  6
Continuous
 62
     7
370
    25
100
AcDbLine
 10
83.0151079177
 20
2362.6192165957
 30
0.0
 11
82.8468764433
 21
2362.6165413769
 31
0.0
  0
SPLINE
  5
D6
330
1F
100
AcDbEntity
  8
0
  6
Continuous
 62
     7
370
    25
100
AcDbSpline
210
0.0
220
0.0
230
1.0
 70
    24
 71
     3
 72
    16
 73
    12
 74
     0
 42
0.000000001
 43
0.00000001
 40
0.0
 40
0.0
 40
0.0
 40
0.0
 40
0.3249084811835667
 40
0.5953678444239144
 40
0.7272606841711012
 40
0.8347911384305542
 40
0.8630600662632189
 40
0.8830296619532639
 40
0.9175779341669046
 40
0.9477750409238982
 40
1.0
 40
1.0
 40
1.0
 40
1.0
 10
82.84687644334282
 20
2362.616541376886
 30
0.0
 10
82.62300171485431
 20
2362.616541376886
 30
0.0
 10
82.21276984268016
 20
2362.616541376886
 30
0.0
 10
81.14522394949036
 20
2362.616541376886
 30
0.0
 10
80.02946894872915
 20
2362.616541376886
 30
0.0
 10
79.3275357480111
 20
2362.616541376887
 30
0.0
 10
78.84069221780193
 20
2362.616541376887
 30
0.0
 10
78.5584058104462
 20
2362.616541376885
 30
0.0
 10
78.27327331936846
 20
2362.616541376887
 30
0.0
 10
77.89163852478836
 20
2362.616541376886
 30
0.0
 10
77.62265958606213
 20
2362.616541376887
 30
0.0
 10
77.45222690004155
 20
2362.616541376886
 30
0.0
  0
SPLINE
  5
D7
330
1F
100
AcDbEntity
  8
0
  6
Continuous
 62
     7
370
    25
100
AcDbSpline
210
0.0
220
0.0
230
1.0
 70
     8
 71
     3
 72
    10
 73
     6
 74
     0
 42
0.000000001
 43
0.00000001
 40
0.0
 40
0.0
 40
0.0
 40
0.0
 40
0.0736327849050522
 40
0.5501930169433517
 40
0.9999999999999999
 40
0.9999999999999999
 40
0.9999999999999999
 40
0.9999999999999999
 10
86.84690490996799
 20
2366.266541376887
 30
0.0
 10
86.84775414852186
 20
2366.244917833342
 30
0.0
 10
86.85409976104502
 20
2366.08334411757
 30
0.0
 10
86.8387531466004
 20
2365.839898644573
 30
0.0
 10
86.80448473798063
 20
2365.698199511373
 30
0.0
 10
86.78784536512258
 20
2365.629396062193
 30
0.0
  0
SPLINE
  5
D8
330
1F
100
AcDbEntity
  8
0
  6
Continuous
 62
     7
370
    25
100
AcDbSpline
210
0.0
220
0.0
230
1.0
 70
     8
 71
     3
 72
    13
 73
     9
 74
     0
 42
0.000000001
 43
0.00000001
 40
0.0
 40
0.0
 40
0.0
 40
0.0
 40
0.2318146310645819
 40
0.4946622104499773
 40
0.6315904463406423
 40
0.7731176607246731
 40
0.912300188281701
 40
1.0
 40
1.0
 40
1.0
 40
1.0
 10
102.8522269000569
 20
2362.616541376892
 30
0.0
 10
102.8522663854452
 20
2362.660501599154
 30
0.0
 10
102.8523506421176
 20
2362.754306984158
 30
0.0
 10
102.8517996570961
 20
2363.421489473628
 30
0.0
 10
102.8530129472384
 20
2364.210504026258
 30
0.0
 10
102.8522332221317
 20
2364.933004131432
 30
0.0
 10
102.8519811478574
 20
2365.634880091315
 30
0.0
 10
102.8521079064
 20
2366.090445639607
 30
0.0
 10
102.8521569040451
 20
2366.266541376888
 30
0.0
  0
SPLINE
  5
D9
330
1F
100
AcDbEntity
  8
0
  6
Continuous
 62
     7
370
    25
100
AcDbSpline
210
0.0
220
0.0
230
1.0
 70
    24
 71
     3
 72
    15
 73
    11
 74
     0
 42
0.000000001
 43
0.00000001
 40
0.0
 40
0.0
 40
0.0
 40
0.0
 40
0.2887823612601704
 40
0.5737619230266446
 40
0.7127357164325586
 40
0.8260391767552772
 40
0.8558257833977012
 40
0.8768674902198308
 40
0.9450310675296482
 40
1.0
 40
1.0
 40
1.0
 40
1.0
 10
97.58427914314044
 20
2362.616541376891
 30
0.0
 10
97.77584378866926
 20
2362.616541376889
 30
0.0
 10
98.15645048127635
 20
2362.616541376885
 30
0.0
 10
99.16045435234427
 20
2362.616541376887
 30
0.0
 10
100.2747624393639
 20
2362.616541376887
 30
0.0
 10
100.9770101543787
 20
2362.616541376886
 30
0.0
 10
101.4636978384316
 20
2362.616541376886
 30
0.0
 10
101.8491414466852
 20
2362.616541376886
 30
0.0
 10
102.3020218667436
 20
2362.616541376886
 30
0.0
 10
102.6824125350493
 20
2362.61654137689
 30
0.0
 10
102.8522269000434
 20
2362.616541376892
 30
0.0
  0
LINE
  5
DA
330
1F
100
AcDbEntity
  8
0
  6
Continuous
 62
     7
370
    25
100
AcDbLine
 10
97.4575773567
 20
2362.6165413769
 30
0.0
 11
97.2893458824
 21
2362.6192165957
 31
0.0
  0
LINE
  5
DB
330
1F
100
AcDbEntity
  8
0
  6
Continuous
 62
     7
370
    25
100
AcDbLine
 10
96.9867339297
 20
2362.6752140274
 30
0.0
 11
97.2893459382
 21
2362.6192181354
 31
0.0
  0
LINE
  5
DC
330
1F
100
AcDbEntity
  8
0
  6
Continuous
 62
     7
370
    25
100
AcDbLine
 10
93.5132348392
 20
2365.5893236777
 30
0.0
 11
93.4758862659
 21
2365.7014220184
 31
0.0
  0
SPLINE
  5
DD
330
1F
100
AcDbEntity
  8
0
  6
Continuous
 62
     7
370
    25
100
AcDbSpline
210
0.0
220
0.0
230
1.0
 70
     8
 71
     3
 72
     9
 73
     5
 74
     0
 42
0.000000001
 43
0.00000001
 40
0.0
 40
0.0
 40
0.0
 40
0.0
 40
0.7476786317237682
 40
1.0
 40
1.0
 40
1.0
 40
1.0
 10
93.47588626606934
 20
2365.701422018414
 30
0.0
 10
93.45461624538898
 20
2365.814628220833
 30
0.0
 10
93.42616816652466
 20
2365.966038462635
 30
0.0
 10
93.43182886440776
 20
2366.206880509906
 30
0.0
 10
93.43325717944306
 20
2366.267650104811
 30
0.0
  0
SPLINE
  5
DE
330
1F
100
AcDbEntity
  8
0
  6
Continuous
 62
     7
370
    25
100
AcDbSpline
210
0.0
220
0.0
230
1.0
 70
    24
 71
     3
 72
    16
 73
    12
 74
     0
 42
0.000000001
 43
0.00000001
 40
0.0
 40
0.0
 40
0.0
 40
0.0
 40
0.3249084811848327
 40
0.5953678444228818
 40
0.7272606841702578
 40
0.8347911384302144
 40
0.8630600662634814
 40
0.8830296619540667
 40
0.917577934164047
 40
0.9477750412496961
 40
1.0
 40
1.0
 40
1.0
 40
1.0
 10
108.2468764433939
 20
2362.616541376892
 30
0.0
 10
108.0230017148659
 20
2362.616541376889
 30
0.0
 10
107.6127698426216
 20
2362.616541376885
 30
0.0
 10
106.5452239495139
 20
2362.616541376886
 30
0.0
 10
105.4294689487418
 20
2362.616541376886
 30
0.0
 10
104.7275357480177
 20
2362.616541376887
 30
0.0
 10
104.2406922178024
 20
2362.616541376886
 30
0.0
 10
103.9584058104512
 20
2362.616541376887
 30
0.0
 10
103.6732733182987
 20
2362.616541376886
 30
0.0
 10
103.2916385236931
 20
2362.616541376886
 30
0.0
 10
103.022659584984
 20
2362.61654137689
 30
0.0
 10
102.8522269000434
 20
2362.616541376892
 30
0.0
  0
SPLINE
  5
DF
330
1F
100
AcDbEntity
  8
0
  6
Continuous
 62
     7
370
    25
100
AcDbSpline
210
0.0
220
0.0
230
1.0
 70
     8
 71
     3
 72
     9
 73
     5
 74
     0
 42
0.000000001
 43
0.00000001
 40
0.0
 40
0.0
 40
0.0
 40
0.0
 40
0.471359534345265
 40
1.0
 40
1.0
 40
1.0
 40
1.0
 10
112.0523302178144
 20
2365.271386317478
 30
0.0
 10
112.0474752872223
 20
2365.206715663182
 30
0.0
 10
112.0371754412693
 20
2365.069515395483
 30
0.0
 10
111.9501990216536
 20
2364.963279148413
 30
0.0
 10
111.9042197666871
 20
2364.907118369293
 30
0.0
  0
SPLINE
  5
E0
330
1F
100
AcDbEntity
  8
0
  6
Continuous
 62
     7
370
    25
100
AcDbSpline
210
0.0
220
0.0
230
1.0
 70
     8
 71
     3
 72
     9
 73
     5
 74
     0
 42
0.000000001
 43
0.00000001
 40
0.0
 40
0.0
 40
0.0
 40
0.0
 40
0.4500476801814555
 40
1.0
 40
1.0
 40
1.0
 40
1.0
 10
110.9360244257223
 20
2363.640581677315
 30
0.0
 10
110.6101565103559
 20
2363.379446015774
 30
0.0
 10
109.8860823072959
 20
2362.799206025565
 30
0.0
 10
108.9370313446613
 20
2362.683248543744
 30
0.0
 10
108.4150985661344
 20
2362.619477457616
 30
0.0
  0
LINE
  5
E1
330
1F
100
AcDbEntity
  8
0
  6
Continuous
 62
     7
370
    25
100
AcDbLine
 10
108.4151079177
 20
2362.6192165957
 30
0.0
 11
108.2468764434
 21
2362.6165413769
 31
0.0
  0
SPLINE
  5
E2
330
1F
100
AcDbEntity
  8
0
  6
Continuous
 62
     7
370
    25
100
AcDbSpline
210
0.0
220
0.0
230
1.0
 70
     8
 71
     3
 72
     9
 73
     5
 74
     0
 42
0.000000001
 43
0.00000001
 40
0.0
 40
0.0
 40
0.0
 40
0.0
 40
0.9799272490651404
 40
1.0
 40
1.0
 40
1.0
 40
1.0
 10
108.4151079177336
 20
2362.619216595673
 30
0.0
 10
108.5873173367606
 20
2362.627441635056
 30
0.0
 10
108.7630542796726
 20
2362.635835155484
 30
0.0
 10
108.864918665744
 20
2362.717912474553
 30
0.0
 10
108.8669633641947
 20
2362.719559992137
 30
0.0
  0
SPLINE
  5
E3
330
1F
100
AcDbEntity
  8
0
  6
Continuous
 62
     7
370
    25
100
AcDbSpline
210
0.0
220
0.0
230
1.0
 70
     8
 71
     3
 72
     9
 73
     5
 74
     0
 42
0.000000001
 43
0.00000001
 40
0.0
 40
0.0
 40
0.0
 40
0.0
 40
0.0332375930243288
 40
0.9999999999999999
 40
0.9999999999999999
 40
0.9999999999999999
 40
0.9999999999999999
 10
71.43311060120722
 20
2362.722062915494
 30
0.0
 10
71.43657478806598
 20
2362.719565672428
 30
0.0
 10
71.54079974972983
 20
2362.644432582495
 30
0.0
 10
71.71801796956973
 20
2362.631611518425
 30
0.0
 10
71.88934588234214
 20
2362.619216595667
 30
0.0
  0
LWPOLYLINE
  5
E4
330
1F
100
AcDbEntity
  8
0
  6
Continuous
 62
     7
370
    25
100
AcDbPolyline
 90
        8
 70
   128
 43
0.0
 10
97.1612311294
 20
2362.665451021
 10
97.2879912586
 20
2362.6193117192
 10
97.2889984696
 20
2362.6192407126
 10
97.2892546508
 20
2362.6192228599
 10
97.2893208853
 20
2362.6192182835
 10
97.2893385385
 20
2362.6192170788
 10
97.2893458824
 20
2362.6192165957
 10
97.2893458824
 20
2362.6192165957
  0
SPLINE
  5
E5
330
1F
100
AcDbEntity
  8
0
  6
Continuous
 62
     7
370
    25
100
AcDbSpline
210
0.0
220
0.0
230
1.0
 70
     8
 71
     3
 72
     9
 73
     5
 74
     0
 42
0.000000001
 43
0.00000001
 40
0.0
 40
0.0
 40
0.0
 40
0.0
 40
0.9532998466309356
 40
1.0
 40
1.0
 40
1.0
 40
1.0
 10
83.01510791774264
 20
2362.619216595667
 30
0.0
 10
83.15955806792796
 20
2362.624115018595
 30
0.0
 10
83.31108452699087
 20
2362.629253404953
 30
0.0
 10
83.39726788139589
 20
2362.686616857229
 30
0.0
 10
83.40129265726453
 20
2362.68929573925
 30
0.0
  0
SPLINE
  5
E6
330
1F
100
AcDbEntity
  8
0
  6
Continuous
 62
     7
370
    25
100
AcDbSpline
210
0.0
220
0.0
230
1.0
 70
     8
 71
     3
 72
     9
 73
     5
 74
     0
 42
0.000000001
 43
0.00000001
 40
0.0
 40
0.0
 40
0.0
 40
0.0
 40
0.5000000000003076
 40
1.0
 40
1.0
 40
1.0
 40
1.0
 10
92.08498111219832
 20
2364.966541376892
 30
0.0
 10
92.34027326578791
 20
2365.000160846633
 30
0.0
 10
92.85085757296702
 20
2365.067399786115
 30
0.0
 10
93.26754336827031
 20
2365.490081274287
 30
0.0
 10
93.47588626592184
 20
2365.701422018374
 30
0.0
  0
SPLINE
  5
E7
330
1F
100
AcDbEntity
  8
0
  6
Continuous
 62
     7
370
    25
100
AcDbSpline
210
0.0
220
0.0
230
1.0
 70
    24
 71
     3
 72
    13
 73
     9
 74
     0
 42
0.000000001
 43
0.00000001
 40
0.0
 40
0.0
 40
0.0
 40
0.0
 40
0.2394429465460838
 40
0.3697782062561245
 40
0.500000051070691
 40
0.6303352596883857
 40
0.7605570534542272
 40
1.0
 40
1.0
 40
1.0
 40
1.0
 10
87.81648810534325
 20
2364.96654137689
 30
0.0
 10
88.11354267746974
 20
2364.966541376888
 30
0.0
 10
88.57229207236983
 20
2364.966541376885
 30
0.0
 10
89.33542416012314
 20
2364.966541376887
 30
0.0
 10
89.95091251709076
 20
2364.966541376886
 30
0.0
 10
90.5662259139986
 20
2364.966541376887
 30
0.0
 10
91.3293199809629
 20
2364.966541376885
 30
0.0
 10
91.78792743615344
 20
2364.966541376889
 30
0.0
 10
92.08498124844333
 20
2364.966541376892
 30
0.0
  0
ARC
  5
E8
330
1F
100
AcDbEntity
  8
0
  6
Continuous
 62
     7
370
    25
100
AcDbCircle
 10
87.8468003028
 20
2366.6490966068
 30
0.0
 40
1.682828253595466
100
AcDbArc
 50
228.8099108269
 51
268.9678953301
  0
LINE
  5
E9
330
1F
100
AcDbEntity
  8
0
  6
Continuous
 62
     7
370
    25
100
AcDbLine
 10
93.7714115673
 20
2364.9665413769
 30
0.0
 11
92.0849812484
 21
2364.9665413769
 31
0.0
  0
LINE
  5
EA
330
1F
100
AcDbEntity
  8
0
  6
Continuous
 62
     7
370
    25
100
AcDbLine
 10
87.8164881053
 20
2364.9665413769
 30
0.0
 11
86.5649469456
 21
2364.9665413769
 31
0.0
  0
LINE
  5
EB
330
1F
100
AcDbEntity
  8
0
  6
Continuous
 62
     7
370
    25
100
AcDbLine
 10
448.6587546271
 20
2366.2665413769
 30
0.0
 11
491.6453696068
 21
2366.2665413769
 31
0.0
  0
LWPOLYLINE
  5
EC
330
1F
100
AcDbEntity
  8
0
  6
Continuous
 62
     7
370
    25
100
AcDbPolyline
 90
        3
 70
   128
 43
0.0
 10
445.2414372798
 20
2366.2665433791
 10
445.2520636898
 20
2366.2666864549
 10
445.2556671343
 20
2366.2667863052
  0
LWPOLYLINE
  5
ED
330
1F
100
AcDbEntity
  8
0
  6
Continuous
 62
     7
370
    25
100
AcDbPolyline
 90
        3
 70
   128
 43
0.0
 10
445.2469870255
 20
2366.2667863052
 10
445.2433924332
 20
2366.2666866684
 10
445.2327557843
 20
2366.2665433752
  0
LWPOLYLINE
  5
EE
330
1F
100
AcDbEntity
  8
0
  6
Continuous
 62
     7
370
    25
100
AcDbPolyline
 90
        3
 70
   128
 43
0.0
 10
436.0483253521
 20
2366.2667863052
 10
436.0442002658
 20
2366.2666741782
 10
436.0341778124
 20
2366.2665436291
  0
LINE
  5
EF
330
1F
100
AcDbEntity
  8
0
  6
Continuous
 62
     7
370
    25
100
AcDbLine
 10
504.2717767156
 20
2366.2665413769
 30
0.0
 11
504.256128448
 21
2366.2667863052
 31
0.0
  0
SPLINE
  5
F0
330
1F
100
AcDbEntity
  8
0
  6
Continuous
 62
     7
370
    25
100
AcDbSpline
210
0.0
220
0.0
230
1.0
 70
    24
 71
     3
 72
    19
 73
    15
 74
     0
 42
0.000000001
 43
0.00000001
 40
0.0
 40
0.0
 40
0.0
 40
0.0
 40
0.1197214755339829
 40
0.1848118259018285
 40
0.2499999559701937
 40
0.3150903503354879
 40
0.3802785244663012
 40
0.5000000000000583
 40
0.6197214755338164
 40
0.6848118258965934
 40
0.7499999559700904
 40
0.8150903503332284
 40
0.8802785244662913
 40
1.0
 40
1.0
 40
1.0
 40
1.0
 10
471.9026814830422
 20
2365.966541376888
 30
0.0
 10
471.8791716652736
 20
2365.966541376888
 30
0.0
 10
471.8428799947188
 20
2365.966541376888
 30
0.0
 10
471.6249640632459
 20
2365.966541376889
 30
0.0
 10
471.3988303553727
 20
2365.966541376888
 30
0.0
 10
471.1202578172138
 20
2365.966541376888
 30
0.0
 10
470.7123347235706
 20
2365.966541376888
 30
0.0
 10
470.1522283067299
 20
2365.966541376889
 30
0.0
 10
469.5922972618517
 20
2365.966541376888
 30
0.0
 10
469.1843543991508
 20
2365.966541376889
 30
0.0
 10
468.9058757447083
 20
2365.966541376888
 30
0.0
 10
468.6795885258371
 20
2365.966541376888
 30
0.0
 10
468.461598617077
 20
2365.966541376888
 30
0.0
 10
468.4252843364104
 20
2365.966541376888
 30
0.0
 10
468.4017723170421
 20
2365.966541376888
 30
0.0
  0
LINE
  5
F1
330
1F
100
AcDbEntity
  8
0
  6
Continuous
 62
     7
370
    25
100
AcDbLine
 10
451.889355222
 20
2362.6194771835
 30
0.0
 11
451.4428239138
 21
2362.7209435135
 31
0.0
  0
SPLINE
  5
F2
330
1F
100
AcDbEntity
  8
0
  6
Continuous
 62
     7
370
    25
100
AcDbSpline
210
0.0
220
0.0
230
1.0
 70
     8
 71
     3
 72
     9
 73
     5
 74
     0
 42
0.000000001
 43
0.00000001
 40
0.0
 40
0.0
 40
0.0
 40
0.0
 40
0.5528202556140948
 40
1.0
 40
1.0
 40
1.0
 40
1.0
 10
448.4093189185738
 20
2364.890832074146
 30
0.0
 10
448.3598494452726
 20
2364.951216167575
 30
0.0
 10
448.2703638072215
 20
2365.060445329886
 30
0.0
 10
448.2589908233634
 20
2365.201110090131
 30
0.0
 10
448.2539050553489
 20
2365.264012521661
 30
0.0
  0
SPLINE
  5
F3
330
1F
100
AcDbEntity
  8
0
  6
Continuous
 62
     7
370
    25
100
AcDbSpline
210
0.0
220
0.0
230
1.0
 70
     8
 71
     3
 72
    13
 73
     9
 74
     0
 42
0.000000001
 43
0.00000001
 40
0.0
 40
0.0
 40
0.0
 40
0.0
 40
0.231814631064452
 40
0.4946622104497172
 40
0.6315904464523323
 40
0.7731176607243416
 40
0.912300188356675
 40
1.0
 40
1.0
 40
1.0
 40
1.0
 10
457.4522269000406
 20
2362.616541376888
 30
0.0
 10
457.4522663854262
 20
2362.660501599151
 30
0.0
 10
457.452350642093
 20
2362.754306984151
 30
0.0
 10
457.4517996571577
 20
2363.42148947375
 30
0.0
 10
457.4530129472284
 20
2364.210504026446
 30
0.0
 10
457.4522332221014
 20
2364.933004131773
 30
0.0
 10
457.451981147854
 20
2365.634880091467
 30
0.0
 10
457.4521079063965
 20
2366.09044563976
 30
0.0
 10
457.4521569040415
 20
2366.266541376889
 30
0.0
  0
SPLINE
  5
F4
330
1F
100
AcDbEntity
  8
0
  6
Continuous
 62
     7
370
    25
100
AcDbSpline
210
0.0
220
0.0
230
1.0
 70
    24
 71
     3
 72
    15
 73
    11
 74
     0
 42
0.000000001
 43
0.00000001
 40
0.0
 40
0.0
 40
0.0
 40
0.0
 40
0.2406909462889255
 40
0.5449403765431488
 40
0.6933113586637751
 40
0.814276220266083
 40
0.8460769502683168
 40
0.8685414641173119
 40
0.9413141546679439
 40
1.0
 40
1.0
 40
1.0
 40
1.0
 10
452.3340798343694
 20
2362.616541376888
 30
0.0
 10
452.4867832523608
 20
2362.616541376888
 30
0.0
 10
452.8325139887374
 20
2362.616541376887
 30
0.0
 10
453.7622335481163
 20
2362.616541376888
 30
0.0
 10
454.8744899775286
 20
2362.616541376888
 30
0.0
 10
455.5770255710894
 20
2362.616541376887
 30
0.0
 10
456.0636966287286
 20
2362.616541376888
 30
0.0
 10
456.4491424671172
 20
2362.616541376887
 30
0.0
 10
456.9020215843419
 20
2362.616541376889
 30
0.0
 10
457.2824124471933
 20
2362.616541376887
 30
0.0
 10
457.4522269000406
 20
2362.616541376888
 30
0.0
  0
LINE
  5
F5
330
1F
100
AcDbEntity
  8
0
  6
Continuous
 62
     7
370
    25
100
AcDbLine
 10
451.8893458823
 20
2362.6192165957
 30
0.0
 11
452.0575773567
 21
2362.6165413769
 31
0.0
  0
LINE
  5
F6
330
1F
100
AcDbEntity
  8
0
  6
Continuous
 62
     7
370
    25
100
AcDbLine
 10
466.7385581059
 20
2365.3827198208
 30
0.0
 11
466.6973765987
 21
2365.2972685647
 31
0.0
  0
SPLINE
  5
F7
330
1F
100
AcDbEntity
  8
0
  6
Continuous
 62
     7
370
    25
100
AcDbSpline
210
0.0
220
0.0
230
1.0
 70
     8
 71
     3
 72
    11
 73
     7
 74
     0
 42
0.000000001
 43
0.00000001
 40
0.0
 40
0.0
 40
0.0
 40
0.0
 40
0.059829876158009
 40
0.3765421083628617
 40
0.6894445570073007
 40
1.0
 40
1.0
 40
1.0
 40
1.0
 10
466.2431969220311
 20
2364.422214742375
 30
0.0
 10
466.2098936706701
 20
2364.354317350003
 30
0.0
 10
466.0002981092532
 20
2363.927001953121
 30
0.0
 10
465.3010833755822
 20
2363.349056940257
 30
0.0
 10
464.2365168536347
 20
2362.76230305101
 30
0.0
 10
463.4212149279628
 20
2362.666966357164
 30
0.0
 10
463.0150985661424
 20
2362.619477457612
 30
0.0
  0
LINE
  5
F8
330
1F
100
AcDbEntity
  8
0
  6
Continuous
 62
     7
370
    25
100
AcDbLine
 10
463.0151079177
 20
2362.6192165957
 30
0.0
 11
462.8468764433
 21
2362.6165413769
 31
0.0
  0
SPLINE
  5
F9
330
1F
100
AcDbEntity
  8
0
  6
Continuous
 62
     7
370
    25
100
AcDbSpline
210
0.0
220
0.0
230
1.0
 70
    24
 71
     3
 72
    16
 73
    12
 74
     0
 42
0.000000001
 43
0.00000001
 40
0.0
 40
0.0
 40
0.0
 40
0.0
 40
0.324908481183567
 40
0.5953678444239175
 40
0.7272606841711051
 40
0.8347911384305567
 40
0.863060066263219
 40
0.8830296619532648
 40
0.9175779341669055
 40
0.9477750409239019
 40
0.9999999999999999
 40
0.9999999999999999
 40
0.9999999999999999
 40
0.9999999999999999
 10
462.8468764433419
 20
2362.616541376888
 30
0.0
 10
462.6230017148534
 20
2362.616541376888
 30
0.0
 10
462.2127698426792
 20
2362.616541376888
 30
0.0
 10
461.1452239494893
 20
2362.616541376889
 30
0.0
 10
460.0294689487282
 20
2362.616541376886
 30
0.0
 10
459.3275357480102
 20
2362.616541376889
 30
0.0
 10
458.840692217801
 20
2362.616541376887
 30
0.0
 10
458.5584058104452
 20
2362.616541376889
 30
0.0
 10
458.2732733193674
 20
2362.616541376888
 30
0.0
 10
457.8916385247874
 20
2362.616541376887
 30
0.0
 10
457.6226595860613
 20
2362.616541376887
 30
0.0
 10
457.4522269000406
 20
2362.616541376888
 30
0.0
  0
SPLINE
  5
FA
330
1F
100
AcDbEntity
  8
0
  6
Continuous
 62
     7
370
    25
100
AcDbSpline
210
0.0
220
0.0
230
1.0
 70
     8
 71
     3
 72
    10
 73
     6
 74
     0
 42
0.000000001
 43
0.00000001
 40
0.0
 40
0.0
 40
0.0
 40
0.0
 40
0.073632784905052
 40
0.5501930169433529
 40
1.0
 40
1.0
 40
1.0
 40
1.0
 10
466.8469049099671
 20
2366.266541376889
 30
0.0
 10
466.8477541485208
 20
2366.244917833345
 30
0.0
 10
466.854099761044
 20
2366.08334411757
 30
0.0
 10
466.8387531465994
 20
2365.839898644578
 30
0.0
 10
466.8044847379796
 20
2365.698199511376
 30
0.0
 10
466.7878453651217
 20
2365.629396062194
 30
0.0
  0
SPLINE
  5
FB
330
1F
100
AcDbEntity
  8
0
  6
Continuous
 62
     7
370
    25
100
AcDbSpline
210
0.0
220
0.0
230
1.0
 70
     8
 71
     3
 72
    13
 73
     9
 74
     0
 42
0.000000001
 43
0.00000001
 40
0.0
 40
0.0
 40
0.0
 40
0.0
 40
0.2318146310645819
 40
0.4946622104499773
 40
0.6315904463406423
 40
0.7731176607246731
 40
0.912300188281701
 40
1.0
 40
1.0
 40
1.0
 40
1.0
 10
482.8522269000559
 20
2362.616541376893
 30
0.0
 10
482.8522663854442
 20
2362.660501599156
 30
0.0
 10
482.8523506421167
 20
2362.754306984159
 30
0.0
 10
482.8517996570952
 20
2363.421489473628
 30
0.0
 10
482.8530129472375
 20
2364.21050402626
 30
0.0
 10
482.8522332221308
 20
2364.933004131433
 30
0.0
 10
482.8519811478563
 20
2365.634880091316
 30
0.0
 10
482.8521079063991
 20
2366.090445639609
 30
0.0
 10
482.8521569040441
 20
2366.266541376889
 30
0.0
  0
SPLINE
  5
FC
330
1F
100
AcDbEntity
  8
0
  6
Continuous
 62
     7
370
    25
100
AcDbSpline
210
0.0
220
0.0
230
1.0
 70
    24
 71
     3
 72
    15
 73
    11
 74
     0
 42
0.000000001
 43
0.00000001
 40
0.0
 40
0.0
 40
0.0
 40
0.0
 40
0.2887823612601714
 40
0.5737619230266452
 40
0.7127357164325605
 40
0.8260391767552776
 40
0.8558257833977028
 40
0.8768674902198353
 40
0.9450310675296488
 40
1.0
 40
1.0
 40
1.0
 40
1.0
 10
477.5842791431395
 20
2362.616541376892
 30
0.0
 10
477.7758437886683
 20
2362.616541376891
 30
0.0
 10
478.1564504812754
 20
2362.616541376886
 30
0.0
 10
479.1604543523434
 20
2362.616541376889
 30
0.0
 10
480.274762439363
 20
2362.616541376887
 30
0.0
 10
480.9770101543776
 20
2362.616541376887
 30
0.0
 10
481.4636978384307
 20
2362.616541376889
 30
0.0
 10
481.8491414466841
 20
2362.616541376887
 30
0.0
 10
482.3020218667427
 20
2362.616541376886
 30
0.0
 10
482.6824125350483
 20
2362.616541376891
 30
0.0
 10
482.8522269000424
 20
2362.616541376893
 30
0.0
  0
LINE
  5
FD
330
1F
100
AcDbEntity
  8
0
  6
Continuous
 62
     7
370
    25
100
AcDbLine
 10
477.4575773567
 20
2362.6165413769
 30
0.0
 11
477.2893458824
 21
2362.6192165957
 31
0.0
  0
LINE
  5
FE
330
1F
100
AcDbEntity
  8
0
  6
Continuous
 62
     7
370
    25
100
AcDbLine
 10
476.9867339297
 20
2362.6752140275
 30
0.0
 11
477.2893459382
 21
2362.6192181354
 31
0.0
  0
LINE
  5
FF
330
1F
100
AcDbEntity
  8
0
  6
Continuous
 62
     7
370
    25
100
AcDbLine
 10
473.5132348392
 20
2365.5893236777
 30
0.0
 11
473.4758862659
 21
2365.7014220184
 31
0.0
  0
SPLINE
  5
100
330
1F
100
AcDbEntity
  8
0
  6
Continuous
 62
     7
370
    25
100
AcDbSpline
210
0.0
220
0.0
230
1.0
 70
     8
 71
     3
 72
     9
 73
     5
 74
     0
 42
0.000000001
 43
0.00000001
 40
0.0
 40
0.0
 40
0.0
 40
0.0
 40
0.7476786317237676
 40
1.0
 40
1.0
 40
1.0
 40
1.0
 10
473.4758862660684
 20
2365.701422018415
 30
0.0
 10
473.4546162453881
 20
2365.814628220834
 30
0.0
 10
473.4261681665239
 20
2365.966038462635
 30
0.0
 10
473.4318288644069
 20
2366.206880509907
 30
0.0
 10
473.4332571794421
 20
2366.267650104812
 30
0.0
  0
SPLINE
  5
101
330
1F
100
AcDbEntity
  8
0
  6
Continuous
 62
     7
370
    25
100
AcDbSpline
210
0.0
220
0.0
230
1.0
 70
    24
 71
     3
 72
    16
 73
    12
 74
     0
 42
0.000000001
 43
0.00000001
 40
0.0
 40
0.0
 40
0.0
 40
0.0
 40
0.3249084811848317
 40
0.5953678444228792
 40
0.727260684170255
 40
0.8347911384302104
 40
0.8630600662634794
 40
0.883029661954062
 40
0.9175779341640455
 40
0.9477750412496921
 40
1.0
 40
1.0
 40
1.0
 40
1.0
 10
488.2468764433929
 20
2362.616541376893
 30
0.0
 10
488.0230017148649
 20
2362.616541376891
 30
0.0
 10
487.6127698426207
 20
2362.616541376887
 30
0.0
 10
486.5452239495131
 20
2362.616541376888
 30
0.0
 10
485.4294689487409
 20
2362.616541376888
 30
0.0
 10
484.7275357480167
 20
2362.616541376889
 30
0.0
 10
484.2406922178013
 20
2362.616541376887
 30
0.0
 10
483.9584058104503
 20
2362.616541376888
 30
0.0
 10
483.6732733182977
 20
2362.616541376889
 30
0.0
 10
483.2916385236921
 20
2362.616541376887
 30
0.0
 10
483.0226595849831
 20
2362.61654137689
 30
0.0
 10
482.8522269000424
 20
2362.616541376893
 30
0.0
  0
SPLINE
  5
102
330
1F
100
AcDbEntity
  8
0
  6
Continuous
 62
     7
370
    25
100
AcDbSpline
210
0.0
220
0.0
230
1.0
 70
     8
 71
     3
 72
     9
 73
     5
 74
     0
 42
0.000000001
 43
0.00000001
 40
0.0
 40
0.0
 40
0.0
 40
0.0
 40
0.4713595343447416
 40
0.9999999999999999
 40
0.9999999999999999
 40
0.9999999999999999
 40
0.9999999999999999
 10
492.0523302178134
 20
2365.271386317479
 30
0.0
 10
492.0474752872212
 20
2365.206715663182
 30
0.0
 10
492.0371754412683
 20
2365.069515395483
 30
0.0
 10
491.9501990216527
 20
2364.963279148413
 30
0.0
 10
491.9042197666861
 20
2364.907118369294
 30
0.0
  0
SPLINE
  5
103
330
1F
100
AcDbEntity
  8
0
  6
Continuous
 62
     7
370
    25
100
AcDbSpline
210
0.0
220
0.0
230
1.0
 70
     8
 71
     3
 72
     9
 73
     5
 74
     0
 42
0.000000001
 43
0.00000001
 40
0.0
 40
0.0
 40
0.0
 40
0.0
 40
0.450047680181438
 40
1.0
 40
1.0
 40
1.0
 40
1.0
 10
490.9360244257213
 20
2363.640581677317
 30
0.0
 10
490.6101565103549
 20
2363.379446015776
 30
0.0
 10
489.8860823072949
 20
2362.799206025566
 30
0.0
 10
488.9370313446604
 20
2362.683248543746
 30
0.0
 10
488.4150985661335
 20
2362.619477457618
 30
0.0
  0
LINE
  5
104
330
1F
100
AcDbEntity
  8
0
  6
Continuous
 62
     7
370
    25
100
AcDbLine
 10
488.4151079177
 20
2362.6192165957
 30
0.0
 11
488.2468764434
 21
2362.6165413769
 31
0.0
  0
SPLINE
  5
105
330
1F
100
AcDbEntity
  8
0
  6
Continuous
 62
     7
370
    25
100
AcDbSpline
210
0.0
220
0.0
230
1.0
 70
     8
 71
     3
 72
     9
 73
     5
 74
     0
 42
0.000000001
 43
0.00000001
 40
0.0
 40
0.0
 40
0.0
 40
0.0
 40
0.9799272490651492
 40
0.9999999999999999
 40
0.9999999999999999
 40
0.9999999999999999
 40
0.9999999999999999
 10
488.4151079177327
 20
2362.619216595674
 30
0.0
 10
488.5873173367604
 20
2362.627441635045
 30
0.0
 10
488.7630542796732
 20
2362.635835155461
 30
0.0
 10
488.864918665743
 20
2362.717912474555
 30
0.0
 10
488.8669633641937
 20
2362.719559992138
 30
0.0
  0
SPLINE
  5
106
330
1F
100
AcDbEntity
  8
0
  6
Continuous
 62
     7
370
    25
100
AcDbSpline
210
0.0
220
0.0
230
1.0
 70
     8
 71
     3
 72
     9
 73
     5
 74
     0
 42
0.000000001
 43
0.00000001
 40
0.0
 40
0.0
 40
0.0
 40
0.0
 40
0.0332375930243394
 40
1.0
 40
1.0
 40
1.0
 40
1.0
 10
451.4331106012063
 20
2362.722062915495
 30
0.0
 10
451.436574788065
 20
2362.719565672428
 30
0.0
 10
451.5407997497285
 20
2362.644432582494
 30
0.0
 10
451.7180179695686
 20
2362.631611518426
 30
0.0
 10
451.8893458823412
 20
2362.619216595668
 30
0.0
  0
LWPOLYLINE
  5
107
330
1F
100
AcDbEntity
  8
0
  6
Continuous
 62
     7
370
    25
100
AcDbPolyline
 90
        8
 70
   128
 43
0.0
 10
477.1612311294
 20
2362.665451021
 10
477.2879912586
 20
2362.6193117192
 10
477.2889984696
 20
2362.6192407126
 10
477.2892546508
 20
2362.6192228599
 10
477.2893208853
 20
2362.6192182835
 10
477.2893385385
 20
2362.6192170788
 10
477.2893458824
 20
2362.6192165957
 10
477.2893458824
 20
2362.6192165957
  0
SPLINE
  5
108
330
1F
100
AcDbEntity
  8
0
  6
Continuous
 62
     7
370
    25
100
AcDbSpline
210
0.0
220
0.0
230
1.0
 70
     8
 71
     3
 72
     9
 73
     5
 74
     0
 42
0.000000001
 43
0.00000001
 40
0.0
 40
0.0
 40
0.0
 40
0.0
 40
0.9532998466309323
 40
1.0
 40
1.0
 40
1.0
 40
1.0
 10
463.0151079177417
 20
2362.619216595669
 30
0.0
 10
463.1595580679266
 20
2362.624115018593
 30
0.0
 10
463.3110845269893
 20
2362.629253404948
 30
0.0
 10
463.397267881395
 20
2362.686616857232
 30
0.0
 10
463.4012926572636
 20
2362.689295739251
 30
0.0
  0
SPLINE
  5
109
330
1F
100
AcDbEntity
  8
0
  6
Continuous
 62
     7
370
    25
100
AcDbSpline
210
0.0
220
0.0
230
1.0
 70
     8
 71
     3
 72
     9
 73
     5
 74
     0
 42
0.000000001
 43
0.00000001
 40
0.0
 40
0.0
 40
0.0
 40
0.0
 40
0.5000000000003154
 40
1.0
 40
1.0
 40
1.0
 40
1.0
 10
472.0849811121973
 20
2364.966541376893
 30
0.0
 10
472.3402732657871
 20
2365.000160846633
 30
0.0
 10
472.850857572966
 20
2365.067399786117
 30
0.0
 10
473.2675433682693
 20
2365.49008127429
 30
0.0
 10
473.4758862659208
 20
2365.701422018375
 30
0.0
  0
SPLINE
  5
10A
330
1F
100
AcDbEntity
  8
0
  6
Continuous
 62
     7
370
    25
100
AcDbSpline
210
0.0
220
0.0
230
1.0
 70
    24
 71
     3
 72
    13
 73
     9
 74
     0
 42
0.000000001
 43
0.00000001
 40
0.0
 40
0.0
 40
0.0
 40
0.0
 40
0.2394429465460856
 40
0.3697782062561283
 40
0.5000000510706867
 40
0.6303352596883894
 40
0.7605570534542309
 40
1.0
 40
1.0
 40
1.0
 40
1.0
 10
467.8164881053423
 20
2364.966541376892
 30
0.0
 10
468.1135426774687
 20
2364.966541376891
 30
0.0
 10
468.5722920723688
 20
2364.96654137689
 30
0.0
 10
469.3354241601223
 20
2364.966541376887
 30
0.0
 10
469.9509125170897
 20
2364.966541376888
 30
0.0
 10
470.5662259139976
 20
2364.966541376888
 30
0.0
 10
471.3293199809618
 20
2364.966541376888
 30
0.0
 10
471.7879274361525
 20
2364.966541376892
 30
0.0
 10
472.0849812484423
 20
2364.966541376893
 30
0.0
  0
ARC
  5
10B
330
1F
100
AcDbEntity
  8
0
  6
Continuous
 62
     7
370
    25
100
AcDbCircle
 10
467.8468003028
 20
2366.6490966068
 30
0.0
 40
1.682828253595953
100
AcDbArc
 50
228.8099108269
 51
268.9678953301
  0
LINE
  5
10C
330
1F
100
AcDbEntity
  8
0
  6
Continuous
 62
     7
370
    25
100
AcDbLine
 10
473.7714115673
 20
2364.9665413769
 30
0.0
 11
472.0849812484
 21
2364.9665413769
 31
0.0
  0
LINE
  5
10D
330
1F
100
AcDbEntity
  8
0
  6
Continuous
 62
     7
370
    25
100
AcDbLine
 10
467.8164881053
 20
2364.9665413769
 30
0.0
 11
466.5649469456
 21
2364.9665413769
 31
0.0
  0
SPLINE
  5
10E
330
1F
100
AcDbEntity
  8
0
  6
Continuous
 62
     7
370
    25
100
AcDbSpline
210
0.0
220
0.0
230
1.0
 70
     8
 71
     3
 72
    11
 73
     7
 74
     0
 42
0.000000001
 43
0.00000001
 40
0.0
 40
0.0
 40
0.0
 40
0.0
 40
0.249999999999987
 40
0.4999999999997879
 40
0.7499999999997831
 40
1.0
 40
1.0
 40
1.0
 40
1.0
 10
54.69598209056964
 20
2366.525120200733
 30
0.0
 10
54.70108252528478
 20
2366.520430673592
 30
0.0
 10
54.71128339471515
 20
2366.511051619312
 30
0.0
 10
54.78028472604818
 20
2366.507050320264
 30
0.0
 10
54.87775677974366
 20
2366.511051619403
 30
0.0
 10
54.95469308806583
 20
2366.520430673733
 30
0.0
 10
54.99316124222698
 20
2366.525120200897
 30
0.0
  0
LINE
  5
10F
330
1F
100
AcDbEntity
  8
0
  6
Continuous
 62
     7
370
    25
100
AcDbLine
 10
54.6959820906
 20
2366.5251202007
 30
0.0
 11
54.4537269123
 21
2368.2488553615
 31
0.0
  0
SPLINE
  5
110
330
1F
100
AcDbEntity
  8
0
  6
Continuous
 62
     7
370
    25
100
AcDbSpline
210
0.0
220
0.0
230
1.0
 70
    24
 71
     3
 72
    11
 73
     7
 74
     0
 42
0.000000001
 43
0.00000001
 40
0.0
 40
0.0
 40
0.0
 40
0.0
 40
0.2499999999992901
 40
0.4999999999994617
 40
0.7500000000000869
 40
1.0
 40
1.0
 40
1.0
 40
1.0
 10
54.75372690024
 20
2368.248855449879
 30
0.0
 10
54.71447465585027
 20
2368.248855449878
 30
0.0
 10
54.63597016707056
 20
2368.248855449879
 30
0.0
 10
54.53690106741666
 20
2368.248855449879
 30
0.0
 10
54.46749161363101
 20
2368.248855449879
 30
0.0
 10
54.45831569035037
 20
2368.248855449879
 30
0.0
 10
54.45372772871004
 20
2368.248855449879
 30
0.0
  0
LINE
  5
111
330
1F
100
AcDbEntity
  8
0
  6
Continuous
 62
     7
370
    25
100
AcDbLine
 10
54.7537268994
 20
2368.2488554503
 30
0.0
 11
54.9931612422
 21
2366.5251202008
 31
0.0
  0
LINE
  5
112
330
1F
100
AcDbEntity
  8
0
  6
Continuous
 62
     7
370
    25
100
AcDbLine
 10
54.4537268998
 20
2368.2488553706
 30
0.0
 11
54.4537268998
 21
2368.6167863052
 31
0.0
  0
LINE
  5
113
330
1F
100
AcDbEntity
  8
0
  6
Continuous
 62
     7
370
    25
100
AcDbLine
 10
125.5537268998
 20
2368.2488554503
 30
0.0
 11
125.5565423085
 21
2368.2488554503
 31
0.0
  0
LINE
  5
114
330
1F
100
AcDbEntity
  8
0
  6
Continuous
 62
     7
370
    25
100
AcDbLine
 10
125.3142925573
 20
2366.5251202008
 30
0.0
 11
125.5565424299
 21
2368.2488535058
 31
0.0
  0
LINE
  5
115
330
1F
100
AcDbEntity
  8
0
  6
Continuous
 62
     7
370
    25
100
AcDbLine
 10
54.9931612422
 20
2366.5251202008
 30
0.0
 11
125.3142925573
 21
2366.5251202008
 31
0.0
  0
LINE
  5
116
330
1F
100
AcDbEntity
  8
0
  6
Continuous
 62
     7
370
    25
100
AcDbLine
 10
54.7537269002
 20
2368.2488554499
 30
0.0
 11
125.5537268998
 21
2368.2488554499
 31
0.0
  0
SPLINE
  5
117
330
1F
100
AcDbEntity
  8
0
  6
Continuous
 62
     7
370
    25
100
AcDbSpline
210
0.0
220
0.0
230
1.0
 70
    24
 71
     3
 72
    11
 73
     7
 74
     0
 42
0.000000001
 43
0.00000001
 40
0.0
 40
0.0
 40
0.0
 40
0.0
 40
0.2500000000001971
 40
0.4999999999999837
 40
0.7499999999998768
 40
1.0
 40
1.0
 40
1.0
 40
1.0
 10
125.5565423085168
 20
2368.248853505757
 30
0.0
 10
125.5953404717127
 20
2368.248853505758
 30
0.0
 10
125.6729367981045
 20
2368.248853505757
 30
0.0
 10
125.77069973454
 20
2368.248853505756
 30
0.0
 10
125.8394207224128
 20
2368.248853505757
 30
0.0
 10
125.8489493750016
 20
2368.248853505757
 30
0.0
 10
125.8537137012961
 20
2368.248853505757
 30
0.0
  0
LINE
  5
118
330
1F
100
AcDbEntity
  8
0
  6
Continuous
 62
     7
370
    25
100
AcDbLine
 10
125.8537268998
 20
2368.6167863052
 30
0.0
 11
125.8537268998
 21
2368.2488554499
 31
0.0
  0
LINE
  5
119
330
1F
100
AcDbEntity
  8
0
  6
Continuous
 62
     7
370
    25
100
AcDbLine
 10
125.8537268998
 20
2368.2488554499
 30
0.0
 11
125.6114717091
 21
2366.5251202007
 31
0.0
  0
SPLINE
  5
11A
330
1F
100
AcDbEntity
  8
0
  6
Continuous
 62
     7
370
    25
100
AcDbSpline
210
0.0
220
0.0
230
1.0
 70
     8
 71
     3
 72
    11
 73
     7
 74
     0
 42
0.000000001
 43
0.00000001
 40
0.0
 40
0.0
 40
0.0
 40
0.0
 40
0.2499999999997677
 40
0.4999999999992909
 40
0.7499999999987105
 40
1.0
 40
1.0
 40
1.0
 40
1.0
 10
125.3142876083173
 20
2366.525120882872
 30
0.0
 10
125.3527562482247
 20
2366.520431212169
 30
0.0
 10
125.4296935280397
 20
2366.511051870763
 30
0.0
 10
125.5271673745309
 20
2366.507050289919
 30
0.0
 10
125.5961700950256
 20
2366.511051488636
 30
0.0
 10
125.606371171106
 20
2366.520430630024
 30
0.0
 10
125.611471709146
 20
2366.52512020072
 30
0.0
  0
LINE
  5
11B
330
1F
100
AcDbEntity
  8
0
  6
Continuous
 62
     7
370
    25
100
AcDbLine
 10
125.3142925581
 20
2366.2667863052
 30
0.0
 11
125.3142925581
 21
2366.5251202008
 31
0.0
  0
LINE
  5
11C
330
1F
100
AcDbEntity
  8
0
  6
Continuous
 62
     7
370
    25
100
AcDbLine
 10
54.9931612416
 20
2366.2667863052
 30
0.0
 11
125.3142925581
 21
2366.2667863052
 31
0.0
  0
LINE
  5
11D
330
1F
100
AcDbEntity
  8
0
  6
Continuous
 62
     7
370
    25
100
AcDbLine
 10
54.9931612422
 20
2366.5251202008
 30
0.0
 11
54.9931612416
 21
2366.2667863052
 31
0.0
  0
ARC
  5
11E
330
1F
100
AcDbEntity
  8
0
  6
Continuous
 62
     7
370
    25
100
AcDbCircle
 10
125.3142925577
 20
2366.5668860061
 30
0.0
 40
0.3000997008970445
100
AcDbArc
 50
270.0000000763999
 51
352.0000001255
  0
ARC
  5
11F
330
1F
100
AcDbEntity
  8
0
  6
Continuous
 62
     7
370
    25
100
AcDbCircle
 10
54.9931612418
 20
2366.5668860061
 30
0.0
 40
0.3000997008975901
100
AcDbArc
 50
187.9999998772
 51
269.9999999618
  0
LINE
  5
120
330
1F
100
AcDbEntity
  8
0
  6
Continuous
 62
     7
370
    25
100
AcDbLine
 10
125.5565410844
 20
2368.2488554503
 30
0.0
 11
125.5537268991
 21
2368.2488554503
 31
0.0
  0
SPLINE
  5
121
330
1F
100
AcDbEntity
  8
0
  6
Continuous
 62
     7
370
    25
100
AcDbSpline
210
0.0
220
0.0
230
1.0
 70
    24
 71
     3
 72
    11
 73
     7
 74
     0
 42
0.000000001
 43
0.00000001
 40
0.0
 40
0.0
 40
0.0
 40
0.0
 40
0.2499999999993143
 40
0.4999999999994788
 40
0.7500000000001094
 40
1.0
 40
1.0
 40
1.0
 40
1.0
 10
434.753726900239
 20
2368.24885544988
 30
0.0
 10
434.7144746558494
 20
2368.24885544988
 30
0.0
 10
434.6359701670697
 20
2368.24885544988
 30
0.0
 10
434.5369010674156
 20
2368.248855449881
 30
0.0
 10
434.4674916136301
 20
2368.24885544988
 30
0.0
 10
434.4583156903494
 20
2368.248855449879
 30
0.0
 10
434.4537277287091
 20
2368.24885544988
 30
0.0
  0
LINE
  5
122
330
1F
100
AcDbEntity
  8
0
  6
Continuous
 62
     7
370
    25
100
AcDbLine
 10
434.4537268998
 20
2368.2488553706
 30
0.0
 11
434.4537268998
 21
2368.6167863052
 31
0.0
  0
SPLINE
  5
123
330
1F
100
AcDbEntity
  8
0
  6
Continuous
 62
     7
370
    25
100
AcDbSpline
210
0.0
220
0.0
230
1.0
 70
     8
 71
     3
 72
    11
 73
     7
 74
     0
 42
0.000000001
 43
0.00000001
 40
0.0
 40
0.0
 40
0.0
 40
0.0
 40
0.2499999999999699
 40
0.4999999999997495
 40
0.749999999999802
 40
0.9999999999999999
 40
0.9999999999999999
 40
0.9999999999999999
 40
0.9999999999999999
 10
434.6959820905687
 20
2366.525120200735
 30
0.0
 10
434.7010825252838
 20
2366.520430673594
 30
0.0
 10
434.7112833947142
 20
2366.511051619313
 30
0.0
 10
434.7802847260472
 20
2366.507050320266
 30
0.0
 10
434.8777567797427
 20
2366.511051619404
 30
0.0
 10
434.9546930880649
 20
2366.520430673734
 30
0.0
 10
434.993161242226
 20
2366.525120200899
 30
0.0
  0
LINE
  5
124
330
1F
100
AcDbEntity
  8
0
  6
Continuous
 62
     7
370
    25
100
AcDbLine
 10
434.6959820906
 20
2366.5251202007
 30
0.0
 11
434.4537269123
 21
2368.2488553615
 31
0.0
  0
LINE
  5
125
330
1F
100
AcDbEntity
  8
0
  6
Continuous
 62
     7
370
    25
100
AcDbLine
 10
434.7537268994
 20
2368.2488554503
 30
0.0
 11
434.9931612422
 21
2366.5251202008
 31
0.0
  0
LINE
  5
126
330
1F
100
AcDbEntity
  8
0
  6
Continuous
 62
     7
370
    25
100
AcDbLine
 10
505.5537268998
 20
2368.2488554503
 30
0.0
 11
505.5565423085
 21
2368.2488554503
 31
0.0
  0
LINE
  5
127
330
1F
100
AcDbEntity
  8
0
  6
Continuous
 62
     7
370
    25
100
AcDbLine
 10
505.3142925573
 20
2366.5251202008
 30
0.0
 11
505.5565424299
 21
2368.2488535058
 31
0.0
  0
LINE
  5
128
330
1F
100
AcDbEntity
  8
0
  6
Continuous
 62
     7
370
    25
100
AcDbLine
 10
434.9931612422
 20
2366.5251202008
 30
0.0
 11
505.3142925573
 21
2366.5251202008
 31
0.0
  0
LINE
  5
129
330
1F
100
AcDbEntity
  8
0
  6
Continuous
 62
     7
370
    25
100
AcDbLine
 10
434.7537269002
 20
2368.2488554499
 30
0.0
 11
505.5537268998
 21
2368.2488554499
 31
0.0
  0
SPLINE
  5
12A
330
1F
100
AcDbEntity
  8
0
  6
Continuous
 62
     7
370
    25
100
AcDbSpline
210
0.0
220
0.0
230
1.0
 70
    24
 71
     3
 72
    11
 73
     7
 74
     0
 42
0.000000001
 43
0.00000001
 40
0.0
 40
0.0
 40
0.0
 40
0.0
 40
0.2500000000002736
 40
0.5000000000000226
 40
0.7499999999999092
 40
1.0
 40
1.0
 40
1.0
 40
1.0
 10
505.5565423085159
 20
2368.248853505759
 30
0.0
 10
505.5953404717117
 20
2368.248853505758
 30
0.0
 10
505.6729367981036
 20
2368.248853505759
 30
0.0
 10
505.7706997345389
 20
2368.248853505757
 30
0.0
 10
505.8394207224119
 20
2368.248853505758
 30
0.0
 10
505.8489493750007
 20
2368.248853505758
 30
0.0
 10
505.8537137012951
 20
2368.248853505759
 30
0.0
  0
LINE
  5
12B
330
1F
100
AcDbEntity
  8
0
  6
Continuous
 62
     7
370
    25
100
AcDbLine
 10
505.8537268998
 20
2368.6167863052
 30
0.0
 11
505.8537268998
 21
2368.2488554499
 31
0.0
  0
LINE
  5
12C
330
1F
100
AcDbEntity
  8
0
  6
Continuous
 62
     7
370
    25
100
AcDbLine
 10
505.8537268998
 20
2368.2488554499
 30
0.0
 11
505.6114717091
 21
2366.5251202007
 31
0.0
  0
SPLINE
  5
12D
330
1F
100
AcDbEntity
  8
0
  6
Continuous
 62
     7
370
    25
100
AcDbSpline
210
0.0
220
0.0
230
1.0
 70
     8
 71
     3
 72
    11
 73
     7
 74
     0
 42
0.000000001
 43
0.00000001
 40
0.0
 40
0.0
 40
0.0
 40
0.0
 40
0.2499999999997517
 40
0.4999999999992918
 40
0.7499999999987056
 40
1.0
 40
1.0
 40
1.0
 40
1.0
 10
505.3142876083163
 20
2366.525120882873
 30
0.0
 10
505.3527562482237
 20
2366.52043121217
 30
0.0
 10
505.4296935280387
 20
2366.511051870764
 30
0.0
 10
505.5271673745299
 20
2366.507050289922
 30
0.0
 10
505.5961700950247
 20
2366.511051488636
 30
0.0
 10
505.606371171105
 20
2366.520430630025
 30
0.0
 10
505.6114717091451
 20
2366.525120200721
 30
0.0
  0
LINE
  5
12E
330
1F
100
AcDbEntity
  8
0
  6
Continuous
 62
     7
370
    25
100
AcDbLine
 10
505.3142925581
 20
2366.2667863052
 30
0.0
 11
505.3142925581
 21
2366.5251202008
 31
0.0
  0
LINE
  5
12F
330
1F
100
AcDbEntity
  8
0
  6
Continuous
 62
     7
370
    25
100
AcDbLine
 10
434.9931612416
 20
2366.2667863052
 30
0.0
 11
505.3142925581
 21
2366.2667863052
 31
0.0
  0
LINE
  5
130
330
1F
100
AcDbEntity
  8
0
  6
Continuous
 62
     7
370
    25
100
AcDbLine
 10
434.9931612422
 20
2366.5251202008
 30
0.0
 11
434.9931612416
 21
2366.2667863052
 31
0.0
  0
ARC
  5
131
330
1F
100
AcDbEntity
  8
0
  6
Continuous
 62
     7
370
    25
100
AcDbCircle
 10
505.3142925577
 20
2366.5668860061
 30
0.0
 40
0.3000997008971353
100
AcDbArc
 50
270.0000000763001
 51
352.0000001254
  0
ARC
  5
132
330
1F
100
AcDbEntity
  8
0
  6
Continuous
 62
     7
370
    25
100
AcDbCircle
 10
434.9931612418
 20
2366.5668860061
 30
0.0
 40
0.3000997008968324
100
AcDbArc
 50
187.999999877
 51
269.9999999618
  0
LINE
  5
133
330
1F
100
AcDbEntity
  8
0
  6
Continuous
 62
     7
370
    25
100
AcDbLine
 10
505.5565410844
 20
2368.2488554503
 30
0.0
 11
505.5537268991
 21
2368.2488554503
 31
0.0
  0
LINE
  5
134
330
1F
100
AcDbEntity
  8
0
  6
Continuous
 62
     7
370
    25
100
AcDbLine
 10
50.1537268994
 20
2368.6167863052
 30
0.0
 11
510.1537268994
 21
2368.6167863052
 31
0.0
  0
LINE
  5
135
330
1F
100
AcDbEntity
  8
0
  6
Continuous
 62
     7
370
    25
100
AcDbLine
 10
50.1537268994
 20
2368.6167863052
 30
0.0
 11
50.1537268994
 21
2488.6167863052
 31
0.0
  0
LINE
  5
136
330
1F
100
AcDbEntity
  8
0
  6
Continuous
 62
     7
370
    25
100
AcDbLine
 10
50.1537268994
 20
2488.6167863052
 30
0.0
 11
510.1537268994
 21
2488.6167863052
 31
0.0
  0
LINE
  5
137
330
1F
100
AcDbEntity
  8
0
  6
Continuous
 62
     7
370
    25
100
AcDbLine
 10
510.1537268994
 20
2368.6167863052
 30
0.0
 11
510.1537268994
 21
2488.6167863052
 31
0.0
  0
LINE
  5
138
330
1F
100
AcDbEntity
  8
0
  6
Continuous
 62
     7
370
    25
100
AcDbLine
 10
475.1537268994
 20
-1495.3446088551
 30
0.0
 11
465.1537268995
 21
-1495.3446088551
 31
0.0
  0
LINE
  5
139
330
1F
100
AcDbEntity
  8
0
  6
Continuous
 62
     7
370
    25
100
AcDbLine
 10
475.1537268994
 20
-1495.3446088551
 30
0.0
 11
475.1537268994
 21
-1501.3832136948
 31
0.0
  0
LINE
  5
13A
330
1F
100
AcDbEntity
  8
0
  6
Continuous
 62
     7
370
    25
100
AcDbLine
 10
465.1537268994
 20
-1501.3832136948
 30
0.0
 11
475.1537268994
 21
-1501.3832136948
 31
0.0
  0
LINE
  5
13B
330
1F
100
AcDbEntity
  8
0
  6
Continuous
 62
     7
370
    25
100
AcDbLine
 10
465.1537268995
 20
-1495.3446088551
 30
0.0
 11
465.1537268994
 21
-1501.3832136948
 31
0.0
  0
LINE
  5
13C
330
1F
100
AcDbEntity
  8
0
  6
Continuous
 62
     7
370
    25
100
AcDbLine
 10
465.1537268995
 20
-1495.3446088551
 30
0.0
 11
465.1537268994
 21
-1493.6008942739
 31
0.0
  0
LINE
  5
13D
330
1F
100
AcDbEntity
  8
0
  6
Continuous
 62
     7
370
    25
100
AcDbLine
 10
465.1537268994
 20
-1493.6008942739
 30
0.0
 11
475.1537268994
 21
-1493.6008942739
 31
0.0
  0
LINE
  5
13E
330
1F
100
AcDbEntity
  8
0
  6
Continuous
 62
     7
370
    25
100
AcDbLine
 10
475.1537268994
 20
-1493.6008942739
 30
0.0
 11
475.1537268994
 21
-1495.3446088551
 31
0.0
  0
LINE
  5
13F
330
1F
100
AcDbEntity
  8
0
  6
Continuous
 62
     7
370
    25
100
AcDbLine
 10
465.1537268994
 20
-1504.3832136948
 30
0.0
 11
465.1537268994
 21
-1501.3832136948
 31
0.0
  0
LINE
  5
140
330
1F
100
AcDbEntity
  8
0
  6
Continuous
 62
     7
370
    25
100
AcDbLine
 10
475.1537268994
 20
-1501.3832136948
 30
0.0
 11
475.1537268994
 21
-1504.3832136948
 31
0.0
  0
LINE
  5
141
330
1F
100
AcDbEntity
  8
0
  6
Continuous
 62
     7
370
    25
100
AcDbLine
 10
475.1537268994
 20
-1425.6394991137
 30
0.0
 11
465.1537268994
 21
-1425.6394991137
 31
0.0
  0
LINE
  5
142
330
1F
100
AcDbEntity
  8
0
  6
Continuous
 62
     7
370
    25
100
AcDbLine
 10
465.1537268994
 20
-1425.6394991137
 30
0.0
 11
465.1537268994
 21
-1493.6008942739
 31
0.0
  0
LINE
  5
143
330
1F
100
AcDbEntity
  8
0
  6
Continuous
 62
     7
370
    25
100
AcDbLine
 10
475.1537268994
 20
-1425.6394991137
 30
0.0
 11
475.1537268994
 21
-1493.6008942739
 31
0.0
  0
LINE
  5
144
330
1F
100
AcDbEntity
  8
0
  6
Continuous
 62
     7
370
    25
100
AcDbLine
 10
465.1537268994
 20
-1424.3832136948
 30
0.0
 11
475.1537268994
 21
-1424.3832136948
 31
0.0
  0
LINE
  5
145
330
1F
100
AcDbEntity
  8
0
  6
Continuous
 62
     7
370
    25
100
AcDbLine
 10
465.1537268994
 20
-1425.6394991137
 30
0.0
 11
465.1537268994
 21
-1424.3832136948
 31
0.0
  0
LINE
  5
146
330
1F
100
AcDbEntity
  8
0
  6
Continuous
 62
     7
370
    25
100
AcDbLine
 10
475.1537268994
 20
-1424.3832136948
 30
0.0
 11
475.1537268994
 21
-1425.6394991137
 31
0.0
  0
ARC
  5
147
330
1F
100
AcDbEntity
  8
0
  6
Continuous
 62
     7
370
    25
100
AcDbCircle
 10
-6.8462731006
 20
-1495.3446088551
 30
0.0
 40
3.000000000000196
100
AcDbArc
 50
144.462322208
 51
180.0
  0
LINE
  5
148
330
1F
100
AcDbEntity
  8
0
  6
Continuous
 62
     7
370
    25
100
AcDbLine
 10
39.2563801717
 20
-1425.6394991137
 30
0.0
 11
-9.2874735142
 21
-1493.6008942739
 31
0.0
  0
ARC
  5
149
330
1F
100
AcDbEntity
  8
0
  6
Continuous
 62
     7
370
    25
100
AcDbCircle
 10
41.6975805853
 20
-1427.3832136948
 30
0.0
 40
3.000000000000195
100
AcDbArc
 50
90.0
 51
144.462322208
  0
LINE
  5
14A
330
1F
100
AcDbEntity
  8
0
  6
Continuous
 62
     7
370
    25
100
AcDbLine
 10
47.1537268994
 20
-1424.3832136948
 30
0.0
 11
41.6975805853
 21
-1424.3832136948
 31
0.0
  0
ARC
  5
14B
330
1F
100
AcDbEntity
  8
0
  6
Continuous
 62
     7
370
    25
100
AcDbCircle
 10
47.1537268994
 20
-1427.3832136948
 30
0.0
 40
3.0
100
AcDbArc
 50
0.0
 51
90.0
  0
ARC
  5
14C
330
1F
100
AcDbEntity
  8
0
  6
Continuous
 62
     7
370
    25
100
AcDbCircle
 10
47.1537268994
 20
-1493.1405730077
 30
0.0
 40
3.0
100
AcDbArc
 50
315.0
 51
0.0
  0
LINE
  5
14D
330
1F
100
AcDbEntity
  8
0
  6
Continuous
 62
     7
370
    25
100
AcDbLine
 10
41.0324065559
 20
-1503.5045340384
 30
0.0
 11
49.275047243
 21
-1495.2618933513
 31
0.0
  0
ARC
  5
14E
330
1F
100
AcDbEntity
  8
0
  6
Continuous
 62
     7
370
    25
100
AcDbCircle
 10
38.9110862123
 20
-1501.3832136948
 30
0.0
 40
2.999999999999989
100
AcDbArc
 50
270.0
 51
315.0
  0
ARC
  5
14F
330
1F
100
AcDbEntity
  8
0
  6
Continuous
 62
     7
370
    25
100
AcDbCircle
 10
-6.8462731006
 20
-1501.3832136948
 30
0.0
 40
3.000000000000004
100
AcDbArc
 50
180.0
 51
270.0
  0
LINE
  5
150
330
1F
100
AcDbEntity
  8
0
  6
Continuous
 62
     7
370
    25
100
AcDbLine
 10
-9.8462731006
 20
-1495.3446088551
 30
0.0
 11
-9.8462731006
 21
-1501.3832136948
 31
0.0
  0
LINE
  5
151
330
1F
100
AcDbEntity
  8
0
  6
Continuous
 62
     7
370
    25
100
AcDbLine
 10
85.1537268994
 20
-1504.3832136948
 30
0.0
 11
85.1537268994
 21
-1501.3832136948
 31
0.0
  0
LINE
  5
152
330
1F
100
AcDbEntity
  8
0
  6
Continuous
 62
     7
370
    25
100
AcDbLine
 10
85.1537268994
 20
-1501.3832136948
 30
0.0
 11
95.1537268994
 21
-1501.3832136948
 31
0.0
  0
LINE
  5
153
330
1F
100
AcDbEntity
  8
0
  6
Continuous
 62
     7
370
    25
100
AcDbLine
 10
95.1537268994
 20
-1501.3832136948
 30
0.0
 11
95.1537268994
 21
-1504.3832136948
 31
0.0
  0
LINE
  5
154
330
1F
100
AcDbEntity
  8
0
  6
Continuous
 62
     7
370
    25
100
AcDbLine
 10
95.1537268994
 20
-1495.3446088551
 30
0.0
 11
85.1537268995
 21
-1495.3446088551
 31
0.0
  0
LINE
  5
155
330
1F
100
AcDbEntity
  8
0
  6
Continuous
 62
     7
370
    25
100
AcDbLine
 10
85.1537268995
 20
-1495.3446088551
 30
0.0
 11
85.1537268994
 21
-1493.6008942739
 31
0.0
  0
LINE
  5
156
330
1F
100
AcDbEntity
  8
0
  6
Continuous
 62
     7
370
    25
100
AcDbLine
 10
85.1537268994
 20
-1493.6008942739
 30
0.0
 11
95.1537268994
 21
-1493.6008942739
 31
0.0
  0
LINE
  5
157
330
1F
100
AcDbEntity
  8
0
  6
Continuous
 62
     7
370
    25
100
AcDbLine
 10
95.1537268994
 20
-1493.6008942739
 30
0.0
 11
95.1537268994
 21
-1495.3446088551
 31
0.0
  0
LINE
  5
158
330
1F
100
AcDbEntity
  8
0
  6
Continuous
 62
     7
370
    25
100
AcDbLine
 10
85.1537268995
 20
-1495.3446088551
 30
0.0
 11
85.1537268994
 21
-1501.3832136948
 31
0.0
  0
LINE
  5
159
330
1F
100
AcDbEntity
  8
0
  6
Continuous
 62
     7
370
    25
100
AcDbLine
 10
95.1537268994
 20
-1495.3446088551
 30
0.0
 11
95.1537268994
 21
-1501.3832136948
 31
0.0
  0
LINE
  5
15A
330
1F
100
AcDbEntity
  8
0
  6
Continuous
 62
     7
370
    25
100
AcDbLine
 10
95.1537268994
 20
-1425.6394991137
 30
0.0
 11
85.1537268994
 21
-1425.6394991137
 31
0.0
  0
LINE
  5
15B
330
1F
100
AcDbEntity
  8
0
  6
Continuous
 62
     7
370
    25
100
AcDbLine
 10
85.1537268994
 20
-1425.6394991137
 30
0.0
 11
85.1537268994
 21
-1493.6008942739
 31
0.0
  0
LINE
  5
15C
330
1F
100
AcDbEntity
  8
0
  6
Continuous
 62
     7
370
    25
100
AcDbLine
 10
95.1537268994
 20
-1425.6394991137
 30
0.0
 11
95.1537268994
 21
-1493.6008942739
 31
0.0
  0
LINE
  5
15D
330
1F
100
AcDbEntity
  8
0
  6
Continuous
 62
     7
370
    25
100
AcDbLine
 10
85.1537268994
 20
-1424.3832136948
 30
0.0
 11
95.1537268994
 21
-1424.3832136948
 31
0.0
  0
LINE
  5
15E
330
1F
100
AcDbEntity
  8
0
  6
Continuous
 62
     7
370
    25
100
AcDbLine
 10
85.1537268994
 20
-1425.6394991137
 30
0.0
 11
85.1537268994
 21
-1424.3832136948
 31
0.0
  0
LINE
  5
15F
330
1F
100
AcDbEntity
  8
0
  6
Continuous
 62
     7
370
    25
100
AcDbLine
 10
95.1537268994
 20
-1424.3832136948
 30
0.0
 11
95.1537268994
 21
-1425.6394991137
 31
0.0
  0
ARC
  5
160
330
1F
100
AcDbEntity
  8
0
  6
Continuous
 62
     7
370
    25
100
AcDbCircle
 10
521.3963675866
 20
-1501.3832136948
 30
0.0
 40
2.999999999999944
100
AcDbArc
 50
225.0
 51
270.0
  0
LINE
  5
161
330
1F
100
AcDbEntity
  8
0
  6
Continuous
 62
     7
370
    25
100
AcDbLine
 10
511.0324065559
 20
-1495.2618933513
 30
0.0
 11
519.275047243
 21
-1503.5045340384
 31
0.0
  0
ARC
  5
162
330
1F
100
AcDbEntity
  8
0
  6
Continuous
 62
     7
370
    25
100
AcDbCircle
 10
513.1537268994
 20
-1493.1405730077
 30
0.0
 40
2.999999999999886
100
AcDbArc
 50
180.0
 51
225.0
  0
ARC
  5
163
330
1F
100
AcDbEntity
  8
0
  6
Continuous
 62
     7
370
    25
100
AcDbCircle
 10
513.1537268995
 20
-1427.3832136948
 30
0.0
 40
3.000000000000114
100
AcDbArc
 50
90.0
 51
180.0
  0
LINE
  5
164
330
1F
100
AcDbEntity
  8
0
  6
Continuous
 62
     7
370
    25
100
AcDbLine
 10
513.1537268995
 20
-1424.3832136948
 30
0.0
 11
518.6098732136
 21
-1424.3832136948
 31
0.0
  0
ARC
  5
165
330
1F
100
AcDbEntity
  8
0
  6
Continuous
 62
     7
370
    25
100
AcDbCircle
 10
518.6098732136
 20
-1427.3832136948
 30
0.0
 40
3.000000000000137
100
AcDbArc
 50
35.53767779199999
 51
90.0
  0
LINE
  5
166
330
1F
100
AcDbEntity
  8
0
  6
Continuous
 62
     7
370
    25
100
AcDbLine
 10
521.0510736272
 20
-1425.6394991137
 30
0.0
 11
569.5949273131
 21
-1493.6008942739
 31
0.0
  0
ARC
  5
167
330
1F
100
AcDbEntity
  8
0
  6
Continuous
 62
     7
370
    25
100
AcDbCircle
 10
567.1537268994
 20
-1495.3446088551
 30
0.0
 40
3.000000000000137
100
AcDbArc
 50
0.0
 51
35.53767779199999
  0
LINE
  5
168
330
1F
100
AcDbEntity
  8
0
  6
Continuous
 62
     7
370
    25
100
AcDbLine
 10
570.1537268994
 20
-1495.3446088551
 30
0.0
 11
570.1537268994
 21
-1501.3832136948
 31
0.0
  0
ARC
  5
169
330
1F
100
AcDbEntity
  8
0
  6
Continuous
 62
     7
370
    25
100
AcDbCircle
 10
567.1537268994
 20
-1501.3832136948
 30
0.0
 40
2.999999999999886
100
AcDbArc
 50
270.0
 51
0.0
  0
LINE
  5
16A
330
1F
100
AcDbEntity
  8
0
  6
Continuous
 62
     7
370
    25
100
AcDbLine
 10
430.1537268994
 20
453.6167863052
 30
0.0
 11
130.1537268994
 21
453.6167863052
 31
0.0
  0
LINE
  5
16B
330
1F
100
AcDbEntity
  8
0
  6
Continuous
 62
     7
370
    25
100
AcDbLine
 10
130.1537268994
 20
453.6167863052
 30
0.0
 11
130.1537268995
 21
533.6167863052
 31
0.0
  0
LINE
  5
16C
330
1F
100
AcDbEntity
  8
0
  6
Continuous
 62
     7
370
    25
100
AcDbLine
 10
430.1537268994
 20
453.6167863052
 30
0.0
 11
430.1537268995
 21
533.6167863052
 31
0.0
  0
LINE
  5
16D
330
1F
100
AcDbEntity
  8
0
  6
Continuous
 62
     7
370
    25
100
AcDbLine
 10
430.1537268995
 20
533.6167863052
 30
0.0
 11
130.1537268995
 21
533.6167863052
 31
0.0
  0
LINE
  5
16E
330
1F
100
AcDbEntity
  8
0
  6
Continuous
 62
     7
370
    25
100
AcDbLine
 10
430.1537268995
 20
1793.6167863052
 30
0.0
 11
430.1537268995
 21
1873.6167863052
 31
0.0
  0
LINE
  5
16F
330
1F
100
AcDbEntity
  8
0
  6
Continuous
 62
     7
370
    25
100
AcDbLine
 10
430.1537268995
 20
1793.6167863052
 30
0.0
 11
130.1537268995
 21
1793.6167863052
 31
0.0
  0
LINE
  5
170
330
1F
100
AcDbEntity
  8
0
  6
Continuous
 62
     7
370
    25
100
AcDbLine
 10
130.1537268995
 20
1793.6167863052
 30
0.0
 11
130.1537268995
 21
1873.6167863052
 31
0.0
  0
LINE
  5
171
330
1F
100
AcDbEntity
  8
0
  6
Continuous
 62
     7
370
    25
100
AcDbLine
 10
430.1537268995
 20
1873.6167863052
 30
0.0
 11
130.1537268995
 21
1873.6167863052
 31
0.0
  0
LINE
  5
172
330
1F
100
AcDbEntity
  8
0
  6
Continuous
 62
     7
370
    25
100
AcDbLine
 10
130.1537268994
 20
2368.6167863052
 30
0.0
 11
130.1537268994
 21
-1504.3832136948
 31
0.0
  0
LINE
  5
173
330
1F
100
AcDbEntity
  8
0
  6
Continuous
 62
     7
370
    25
100
AcDbLine
 10
50.1537268994
 20
2368.6167863052
 30
0.0
 11
50.1537268994
 21
-1504.3832136948
 31
0.0
  0
LINE
  5
174
330
1F
100
AcDbEntity
  8
0
  6
Continuous
 62
     7
370
    25
100
AcDbLine
 10
430.1537268995
 20
2368.6167863052
 30
0.0
 11
430.1537268995
 21
-1504.3832136948
 31
0.0
  0
LINE
  5
175
330
1F
100
AcDbEntity
  8
0
  6
Continuous
 62
     7
370
    25
100
AcDbLine
 10
510.1537268995
 20
2368.6167863052
 30
0.0
 11
510.1537268995
 21
-1504.3832136948
 31
0.0
  0
LINE
  5
176
330
1F
100
AcDbEntity
  8
0
  6
Continuous
 62
     7
370
    25
100
AcDbLine
 10
-0.8462731006
 20
-1504.3832136948
 30
0.0
 11
-0.8462731006
 21
-1516.3832136948
 31
0.0
  0
LINE
  5
177
330
1F
100
AcDbEntity
  8
0
  6
Continuous
 62
     7
370
    25
100
AcDbLine
 10
-0.8462731006
 20
-1516.3832136948
 30
0.0
 11
-20.8462731006
 21
-1516.3832136948
 31
0.0
  0
LINE
  5
178
330
1F
100
AcDbEntity
  8
0
  6
Continuous
 62
     7
370
    25
100
AcDbLine
 10
-20.8462731006
 20
-1516.3832136948
 30
0.0
 11
-20.8462731006
 21
-1504.3832136948
 31
0.0
  0
LINE
  5
179
330
1F
100
AcDbEntity
  8
0
  6
Continuous
 62
     7
370
    25
100
AcDbLine
 10
-20.8462731006
 20
-1504.3832136948
 30
0.0
 11
-0.8462731006
 21
-1504.3832136948
 31
0.0
  0
LINE
  5
17A
330
1F
100
AcDbEntity
  8
0
  6
Continuous
 62
     7
370
    25
100
AcDbLine
 10
561.1537268994
 20
-1516.3832136948
 30
0.0
 11
561.1537268994
 21
-1504.3832136948
 31
0.0
  0
LINE
  5
17B
330
1F
100
AcDbEntity
  8
0
  6
Continuous
 62
     7
370
    25
100
AcDbLine
 10
-0.8462731006
 20
-1516.3832136948
 30
0.0
 11
561.1537268994
 21
-1516.3832136948
 31
0.0
  0
LINE
  5
17C
330
1F
100
AcDbEntity
  8
0
  6
Continuous
 62
     7
370
    25
100
AcDbLine
 10
-0.8462731006
 20
-1504.3832136948
 30
0.0
 11
561.1537268994
 21
-1504.3832136948
 31
0.0
  0
LINE
  5
17D
330
1F
100
AcDbEntity
  8
0
  6
Continuous
 62
     7
370
    25
100
AcDbLine
 10
581.1537268994
 20
-1504.3832136948
 30
0.0
 11
581.1537268994
 21
-1516.3832136948
 31
0.0
  0
LINE
  5
17E
330
1F
100
AcDbEntity
  8
0
  6
Continuous
 62
     7
370
    25
100
AcDbLine
 10
581.1537268994
 20
-1516.3832136948
 30
0.0
 11
561.1537268994
 21
-1516.3832136948
 31
0.0
  0
LINE
  5
17F
330
1F
100
AcDbEntity
  8
0
  6
Continuous
 62
     7
370
    25
100
AcDbLine
 10
561.1537268994
 20
-1504.3832136948
 30
0.0
 11
581.1537268994
 21
-1504.3832136948
 31
0.0
  0
LINE
  5
180
330
1F
100
AcDbEntity
  8
0
  6
Continuous
 62
     7
370
    25
100
AcDbLine
 10
428.1537268995
 20
-855.8832136948
 30
0.0
 11
427.6537268995
 21
-855.8832136948
 31
0.0
  0
LINE
  5
181
330
1F
100
AcDbEntity
  8
0
  6
Continuous
 62
     7
370
    25
100
AcDbLine
 10
427.6537268995
 20
-876.8832136948
 30
0.0
 11
428.1537268995
 21
-876.8832136948
 31
0.0
  0
LINE
  5
182
330
1F
100
AcDbEntity
  8
0
  6
Continuous
 62
     7
370
    25
100
AcDbLine
 10
427.6537268995
 20
-876.8832136948
 30
0.0
 11
427.6537268995
 21
-855.8832136948
 31
0.0
  0
LINE
  5
183
330
1F
100
AcDbEntity
  8
0
  6
Continuous
 62
     7
370
    25
100
AcDbLine
 10
427.6537268995
 20
-853.8832136948
 30
0.0
 11
428.1537268995
 21
-853.8832136948
 31
0.0
  0
LINE
  5
184
330
1F
100
AcDbEntity
  8
0
  6
Continuous
 62
     7
370
    25
100
AcDbLine
 10
427.6537268995
 20
-855.8832136948
 30
0.0
 11
427.6537268995
 21
-853.8832136948
 31
0.0
  0
LINE
  5
185
330
1F
100
AcDbEntity
  8
0
  6
Continuous
 62
     7
370
    25
100
AcDbLine
 10
428.1537268995
 20
-878.8832136948
 30
0.0
 11
427.6537268995
 21
-878.8832136948
 31
0.0
  0
LINE
  5
186
330
1F
100
AcDbEntity
  8
0
  6
Continuous
 62
     7
370
    25
100
AcDbLine
 10
427.6537268995
 20
-878.8832136948
 30
0.0
 11
427.6537268995
 21
-876.8832136948
 31
0.0
  0
LINE
  5
187
330
1F
100
AcDbEntity
  8
0
  6
Continuous
 62
     7
370
    25
100
AcDbLine
 10
428.1537268995
 20
-708.8832136948
 30
0.0
 11
430.1537268995
 21
-708.8832136948
 31
0.0
  0
LINE
  5
188
330
1F
100
AcDbEntity
  8
0
  6
Continuous
 62
     7
370
    25
100
AcDbLine
 10
430.1537268995
 20
-718.8832136948
 30
0.0
 11
428.1537268995
 21
-718.8832136948
 31
0.0
  0
LINE
  5
189
330
1F
100
AcDbEntity
  8
0
  6
Continuous
 62
     7
370
    25
100
AcDbLine
 10
428.1537268995
 20
-718.8832136948
 30
0.0
 11
428.1537268995
 21
-708.8832136948
 31
0.0
  0
LINE
  5
18A
330
1F
100
AcDbEntity
  8
0
  6
Continuous
 62
     7
370
    25
100
AcDbLine
 10
428.1537268995
 20
-1013.8832136948
 30
0.0
 11
430.1537268995
 21
-1013.8832136948
 31
0.0
  0
LINE
  5
18B
330
1F
100
AcDbEntity
  8
0
  6
Continuous
 62
     7
370
    25
100
AcDbLine
 10
428.1537268995
 20
-718.8832136948
 30
0.0
 11
428.1537268995
 21
-1013.8832136948
 31
0.0
  0
LINE
  5
18C
330
1F
100
AcDbEntity
  8
0
  6
Continuous
 62
     7
370
    25
100
AcDbLine
 10
430.1537268995
 20
-1023.8832136948
 30
0.0
 11
428.1537268995
 21
-1023.8832136948
 31
0.0
  0
LINE
  5
18D
330
1F
100
AcDbEntity
  8
0
  6
Continuous
 62
     7
370
    25
100
AcDbLine
 10
428.1537268995
 20
-1023.8832136948
 30
0.0
 11
428.1537268995
 21
-1013.8832136948
 31
0.0
  0
LINE
  5
18E
330
1F
100
AcDbEntity
  8
0
  6
Continuous
 62
     8
370
    25
100
AcDbLine
 10
470.1537268994
 20
2489.8667863052
 30
0.0
 11
455.1537268994
 21
2489.8667863052
 31
0.0
  0
LINE
  5
18F
330
1F
100
AcDbEntity
  8
0
  6
Continuous
 62
     8
370
    25
100
AcDbLine
 10
485.1537268994
 20
2489.8667863052
 30
0.0
 11
470.1537268994
 21
2489.8667863052
 31
0.0
  0
LINE
  5
190
330
1F
100
AcDbEntity
  8
0
  6
Continuous
 62
     8
370
    25
100
AcDbLine
 10
470.1537268994
 20
2489.3667863052
 30
0.0
 11
485.1537268994
 21
2489.3667863052
 31
0.0
  0
LINE
  5
191
330
1F
100
AcDbEntity
  8
0
  6
Continuous
 62
     8
370
    25
100
AcDbLine
 10
455.1537268994
 20
2489.3667863052
 30
0.0
 11
470.1537268994
 21
2489.3667863052
 31
0.0
  0
LINE
  5
192
330
1F
100
AcDbEntity
  8
0
  6
Continuous
 62
     8
370
    25
100
AcDbLine
 10
91.3137268994
 20
2489.3667863052
 30
0.0
 11
106.3137268994
 21
2489.3667863052
 31
0.0
  0
LINE
  5
193
330
1F
100
AcDbEntity
  8
0
  6
Continuous
 62
     8
370
    25
100
AcDbLine
 10
76.3137268994
 20
2489.3667863052
 30
0.0
 11
91.3137268994
 21
2489.3667863052
 31
0.0
  0
LINE
  5
194
330
1F
100
AcDbEntity
  8
0
  6
Continuous
 62
     8
370
    25
100
AcDbLine
 10
91.3137268994
 20
2489.8667863052
 30
0.0
 11
76.3137268994
 21
2489.8667863052
 31
0.0
  0
LINE
  5
195
330
1F
100
AcDbEntity
  8
0
  6
Continuous
 62
     8
370
    25
100
AcDbLine
 10
106.3137268994
 20
2489.8667863052
 30
0.0
 11
91.3137268994
 21
2489.8667863052
 31
0.0
  0
LINE
  5
196
330
1F
100
AcDbEntity
  8
0
  6
Continuous
 62
     8
370
    25
100
AcDbLine
 10
478.9037268994
 20
2491.1167863052
 30
0.0
 11
461.4037268994
 21
2491.1167863052
 31
0.0
  0
LINE
  5
197
330
1F
100
AcDbEntity
  8
0
  6
Continuous
 62
     8
370
    25
100
AcDbLine
 10
100.0637268994
 20
2491.1167863052
 30
0.0
 11
82.5637268994
 21
2491.1167863052
 31
0.0
  0
LINE
  5
19C
330
1F
100
AcDbEntity
  8
0
  6
Continuous
 62
     8
370
    25
100
AcDbLine
 10
68.6587546271
 20
2366.2665413769
 30
0.0
 11
68.6587546271
 21
2366.2667863052
 31
0.0
  0
LINE
  5
19D
330
1F
100
AcDbEntity
  8
0
  6
Continuous
 62
     8
370
    25
100
AcDbLine
 10
111.6453696068
 20
2366.2665413769
 30
0.0
 11
111.6453696068
 21
2366.2667863052
 31
0.0
  0
LINE
  5
19E
330
1F
100
AcDbEntity
  8
0
  6
Continuous
 62
     8
370
    25
100
AcDbLine
 10
448.6587546271
 20
2366.2665413769
 30
0.0
 11
448.6587546271
 21
2366.2667863052
 31
0.0
  0
LINE
  5
19F
330
1F
100
AcDbEntity
  8
0
  6
Continuous
 62
     8
370
    25
100
AcDbLine
 10
491.6453696068
 20
2366.2665413769
 30
0.0
 11
491.6453696068
 21
2366.2667863052
 31
0.0
  0
LINE
  5
1A0
330
1F
100
AcDbEntity
  8
0
  6
Continuous
 62
     8
370
    25
100
AcDbLine
 10
54.7537269002
 20
2368.6167863052
 30
0.0
 11
54.7537269002
 21
2368.2488554499
 31
0.0
  0
LINE
  5
1A1
330
1F
100
AcDbEntity
  8
0
  6
Continuous
 62
     8
370
    25
100
AcDbLine
 10
125.5537268998
 20
2368.2488554499
 30
0.0
 11
125.5537268998
 21
2368.6167863052
 31
0.0
  0
LINE
  5
1A2
330
1F
100
AcDbEntity
  8
0
  6
Continuous
 62
     8
370
    25
100
AcDbLine
 10
434.7537269002
 20
2368.6167863052
 30
0.0
 11
434.7537269002
 21
2368.2488554499
 31
0.0
  0
LINE
  5
1A3
330
1F
100
AcDbEntity
  8
0
  6
Continuous
 62
     8
370
    25
100
AcDbLine
 10
505.5537268998
 20
2368.2488554499
 30
0.0
 11
505.5537268998
 21
2368.6167863052
 31
0.0
  0
LINE
  5
1A4
330
1F
100
AcDbEntity
  8
0
  6
Continuous
 62
     7
370
    25
100
AcDbLine
 10
798.5582962412
 20
2489.3667863052
 30
0.0
 11
798.5582962412
 21
2489.8667863052
 31
0.0
  0
LINE
  5
1A5
330
1F
100
AcDbEntity
  8
0
  6
Continuous
 62
     7
370
    25
100
AcDbLine
 10
768.5582962412
 20
2489.8667863052
 30
0.0
 11
768.5582962412
 21
2489.3667863052
 31
0.0
  0
ARC
  5
1A6
330
1F
100
AcDbEntity
  8
0
  6
Continuous
 62
     7
370
    25
100
AcDbCircle
 10
769.3082962412
 20
2489.3667863052
 30
0.0
 40
0.75
100
AcDbArc
 50
180.0
 51
270.0
  0
ARC
  5
1A7
330
1F
100
AcDbEntity
  8
0
  6
Continuous
 62
     7
370
    25
100
AcDbCircle
 10
797.8082962412
 20
2489.3667863052
 30
0.0
 40
0.75
100
AcDbArc
 50
270.0
 51
0.0
  0
ARC
  5
1A8
330
1F
100
AcDbEntity
  8
0
  6
Continuous
 62
     7
370
    25
100
AcDbCircle
 10
769.3082962412
 20
2489.8667863052
 30
0.0
 40
0.75
100
AcDbArc
 50
90.0
 51
180.0
  0
ARC
  5
1A9
330
1F
100
AcDbEntity
  8
0
  6
Continuous
 62
     7
370
    25
100
AcDbCircle
 10
797.8082962412
 20
2489.8667863052
 30
0.0
 40
0.75
100
AcDbArc
 50
0.0
 51
90.0
  0
ARC
  5
1AA
330
1F
100
AcDbEntity
  8
0
  6
Continuous
 62
     7
370
    25
100
AcDbCircle
 10
854.3082962412
 20
2489.8667863052
 30
0.0
 40
0.7500000000001137
100
AcDbArc
 50
90.0
 51
180.0
  0
ARC
  5
1AB
330
1F
100
AcDbEntity
  8
0
  6
Continuous
 62
     7
370
    25
100
AcDbCircle
 10
882.8082962412
 20
2489.8667863052
 30
0.0
 40
0.7500000000001137
100
AcDbArc
 50
0.0
 51
90.0
  0
ARC
  5
1AC
330
1F
100
AcDbEntity
  8
0
  6
Continuous
 62
     7
370
    25
100
AcDbCircle
 10
854.3082962412
 20
2489.3667863052
 30
0.0
 40
0.7500000000001137
100
AcDbArc
 50
180.0
 51
270.0
  0
ARC
  5
1AD
330
1F
100
AcDbEntity
  8
0
  6
Continuous
 62
     7
370
    25
100
AcDbCircle
 10
882.8082962412
 20
2489.3667863052
 30
0.0
 40
0.7500000000001137
100
AcDbArc
 50
270.0
 51
0.0
  0
LINE
  5
1AE
330
1F
100
AcDbEntity
  8
0
  6
Continuous
 62
     7
370
    25
100
AcDbLine
 10
883.5582962412
 20
2489.3667863052
 30
0.0
 11
883.5582962412
 21
2489.8667863052
 31
0.0
  0
LINE
  5
1AF
330
1F
100
AcDbEntity
  8
0
  6
Continuous
 62
     7
370
    25
100
AcDbLine
 10
853.5582962412
 20
2489.8667863052
 30
0.0
 11
853.5582962412
 21
2489.3667863052
 31
0.0
  0
ARC
  5
1B0
330
1F
100
AcDbEntity
  8
0
  6
Continuous
 62
     7
370
    25
100
AcDbCircle
 10
779.8082962412
 20
2491.1167863052
 30
0.0
 40
5.0
100
AcDbArc
 50
90.0
 51
180.0
  0
ARC
  5
1B1
330
1F
100
AcDbEntity
  8
0
  6
Continuous
 62
     7
370
    25
100
AcDbCircle
 10
787.3082962412
 20
2491.1167863052
 30
0.0
 40
5.0
100
AcDbArc
 50
0.0
 51
90.0
  0
LINE
  5
1B2
330
1F
100
AcDbEntity
  8
0
  6
Continuous
 62
     7
370
    25
100
AcDbLine
 10
792.3082962412
 20
2490.6167863052
 30
0.0
 11
792.3082962412
 21
2491.1167863052
 31
0.0
  0
LINE
  5
1B3
330
1F
100
AcDbEntity
  8
0
  6
Continuous
 62
     7
370
    25
100
AcDbLine
 10
774.8082962412
 20
2491.1167863052
 30
0.0
 11
774.8082962412
 21
2490.6167863052
 31
0.0
  0
ARC
  5
1B4
330
1F
100
AcDbEntity
  8
0
  6
Continuous
 62
     7
370
    25
100
AcDbCircle
 10
864.8082962412
 20
2491.1167863052
 30
0.0
 40
5.0
100
AcDbArc
 50
90.0
 51
180.0
  0
ARC
  5
1B5
330
1F
100
AcDbEntity
  8
0
  6
Continuous
 62
     7
370
    25
100
AcDbCircle
 10
872.3082962412
 20
2491.1167863052
 30
0.0
 40
5.0
100
AcDbArc
 50
0.0
 51
90.0
  0
LINE
  5
1B6
330
1F
100
AcDbEntity
  8
0
  6
Continuous
 62
     7
370
    25
100
AcDbLine
 10
877.3082962412
 20
2490.6167863052
 30
0.0
 11
877.3082962412
 21
2491.1167863052
 31
0.0
  0
LINE
  5
1B7
330
1F
100
AcDbEntity
  8
0
  6
Continuous
 62
     7
370
    25
100
AcDbLine
 10
859.8082962412
 20
2491.1167863052
 30
0.0
 11
859.8082962412
 21
2490.6167863052
 31
0.0
  0
ARC
  5
1B9
330
1F
100
AcDbEntity
  8
0
  6
Continuous
 62
     7
370
    25
100
AcDbCircle
 10
1309.7126585689
 20
2366.5799174144
 30
0.0
 40
2.026579787012389
100
AcDbArc
 50
200.0
 51
255.6250378776
  0
ARC
  5
1BA
330
1F
100
AcDbEntity
  8
0
  6
Continuous
 62
     7
370
    25
100
AcDbCircle
 10
1311.6039344263
 20
2366.5799174144
 30
0.0
 40
2.026579787012389
100
AcDbArc
 50
284.3749621224
 51
340.0000000000001
  0
LINE
  5
1BB
330
1F
100
AcDbEntity
  8
0
  6
Continuous
 62
     7
370
    25
100
AcDbLine
 10
1307.8082964976
 20
2366.2667863052
 30
0.0
 11
1307.8082964976
 21
2365.8867863052
 31
0.0
  0
LINE
  5
1BC
330
1F
100
AcDbEntity
  8
0
  6
Continuous
 62
     7
370
    25
100
AcDbLine
 10
1313.5082964976
 20
2365.8867863052
 30
0.0
 11
1313.5082964976
 21
2366.2667863052
 31
0.0
  0
ARC
  5
1BD
330
1F
100
AcDbEntity
  8
0
  6
Continuous
 62
     7
370
    25
100
AcDbCircle
 10
1374.3126585689
 20
2366.5799174144
 30
0.0
 40
2.026579787012389
100
AcDbArc
 50
200.0
 51
255.6250378776
  0
ARC
  5
1BE
330
1F
100
AcDbEntity
  8
0
  6
Continuous
 62
     7
370
    25
100
AcDbCircle
 10
1376.2039344263
 20
2366.5799174144
 30
0.0
 40
2.026579787012296
100
AcDbArc
 50
284.3749621224
 51
340.0000000000001
  0
LINE
  5
1BF
330
1F
100
AcDbEntity
  8
0
  6
Continuous
 62
     7
370
    25
100
AcDbLine
 10
1372.4082964976
 20
2366.2667863052
 30
0.0
 11
1372.4082964976
 21
2365.8867863052
 31
0.0
  0
LINE
  5
1C0
330
1F
100
AcDbEntity
  8
0
  6
Continuous
 62
     7
370
    25
100
AcDbLine
 10
1378.1082964976
 20
2365.8867863052
 30
0.0
 11
1378.1082964976
 21
2366.2667863052
 31
0.0
  0
ARC
  5
1C1
330
1F
100
AcDbEntity
  8
0
  6
Continuous
 62
     7
370
    25
100
AcDbCircle
 10
1363.9126585689
 20
2366.5799174144
 30
0.0
 40
2.026579787012389
100
AcDbArc
 50
200.0
 51
255.6250378776
  0
ARC
  5
1C2
330
1F
100
AcDbEntity
  8
0
  6
Continuous
 62
     7
370
    25
100
AcDbCircle
 10
1365.8039344263
 20
2366.5799174144
 30
0.0
 40
2.026579787012389
100
AcDbArc
 50
284.3749621224
 51
340.0000000000001
  0
LINE
  5
1C3
330
1F
100
AcDbEntity
  8
0
  6
Continuous
 62
     7
370
    25
100
AcDbLine
 10
1362.0082964976
 20
2366.2667863052
 30
0.0
 11
1362.0082964976
 21
2365.8867863052
 31
0.0
  0
LINE
  5
1C4
330
1F
100
AcDbEntity
  8
0
  6
Continuous
 62
     7
370
    25
100
AcDbLine
 10
1367.7082964976
 20
2365.8867863052
 30
0.0
 11
1367.7082964976
 21
2366.2667863052
 31
0.0
  0
LINE
  5
1C5
330
1F
100
AcDbEntity
  8
0
  6
Continuous
 62
     7
370
    25
100
AcDbLine
 10
1480.8082964976
 20
2366.2667863052
 30
0.0
 11
1480.8082964976
 21
2365.8867863052
 31
0.0
  0
LINE
  5
1C6
330
1F
100
AcDbEntity
  8
0
  6
Continuous
 62
     7
370
    25
100
AcDbLine
 10
1486.5082964976
 20
2365.8867863052
 30
0.0
 11
1486.5082964976
 21
2366.2667863052
 31
0.0
  0
ARC
  5
1C7
330
1F
100
AcDbEntity
  8
0
  6
Continuous
 62
     7
370
    25
100
AcDbCircle
 10
1482.7126585689
 20
2366.5799174144
 30
0.0
 40
2.026579787012389
100
AcDbArc
 50
200.0
 51
255.6250378776
  0
ARC
  5
1C8
330
1F
100
AcDbEntity
  8
0
  6
Continuous
 62
     7
370
    25
100
AcDbCircle
 10
1484.6039344263
 20
2366.5799174144
 30
0.0
 40
2.026579787012296
100
AcDbArc
 50
284.3749621224
 51
340.0000000000001
  0
LINE
  5
1C9
330
1F
100
AcDbEntity
  8
0
  6
Continuous
 62
     7
370
    25
100
AcDbLine
 10
1253.6082964976
 20
2366.2667863052
 30
0.0
 11
1253.6082964976
 21
2365.8867863052
 31
0.0
  0
LINE
  5
1CA
330
1F
100
AcDbEntity
  8
0
  6
Continuous
 62
     7
370
    25
100
AcDbLine
 10
1259.3082964976
 20
2365.8867863052
 30
0.0
 11
1259.3082964976
 21
2366.2667863052
 31
0.0
  0
ARC
  5
1CB
330
1F
100
AcDbEntity
  8
0
  6
Continuous
 62
     7
370
    25
100
AcDbCircle
 10
1255.5126585689
 20
2366.5799174144
 30
0.0
 40
2.026579787012389
100
AcDbArc
 50
200.0
 51
255.6250378776
  0
ARC
  5
1CC
330
1F
100
AcDbEntity
  8
0
  6
Continuous
 62
     7
370
    25
100
AcDbCircle
 10
1257.4039344263
 20
2366.5799174144
 30
0.0
 40
2.026579787012389
100
AcDbArc
 50
284.3749621224
 51
340.0000000000001
  0
LINE
  5
1CD
330
1F
100
AcDbEntity
  8
0
  6
Continuous
 62
     7
370
    25
100
AcDbLine
 10
1199.4082964976
 20
2366.2667863052
 30
0.0
 11
1199.4082964976
 21
2365.8867863052
 31
0.0
  0
LINE
  5
1CE
330
1F
100
AcDbEntity
  8
0
  6
Continuous
 62
     7
370
    25
100
AcDbLine
 10
1205.1082964976
 20
2365.8867863052
 30
0.0
 11
1205.1082964976
 21
2366.2667863052
 31
0.0
  0
ARC
  5
1CF
330
1F
100
AcDbEntity
  8
0
  6
Continuous
 62
     7
370
    25
100
AcDbCircle
 10
1201.3126585689
 20
2366.5799174144
 30
0.0
 40
2.026579787012389
100
AcDbArc
 50
200.0
 51
255.6250378776
  0
ARC
  5
1D0
330
1F
100
AcDbEntity
  8
0
  6
Continuous
 62
     7
370
    25
100
AcDbCircle
 10
1203.2039344263
 20
2366.5799174144
 30
0.0
 40
2.026579787012296
100
AcDbArc
 50
284.3749621224
 51
340.0000000000001
  0
LINE
  5
1D1
330
1F
100
AcDbEntity
  8
0
  6
Continuous
 62
     7
370
    25
100
AcDbLine
 10
1535.0082964976
 20
2366.2667863052
 30
0.0
 11
1535.0082964976
 21
2365.8867863052
 31
0.0
  0
LINE
  5
1D2
330
1F
100
AcDbEntity
  8
0
  6
Continuous
 62
     7
370
    25
100
AcDbLine
 10
1540.7082964976
 20
2365.8867863052
 30
0.0
 11
1540.7082964976
 21
2366.2667863052
 31
0.0
  0
ARC
  5
1D3
330
1F
100
AcDbEntity
  8
0
  6
Continuous
 62
     7
370
    25
100
AcDbCircle
 10
1536.9126585689
 20
2366.5799174144
 30
0.0
 40
2.026579787012389
100
AcDbArc
 50
200.0
 51
255.6250378776
  0
ARC
  5
1D4
330
1F
100
AcDbEntity
  8
0
  6
Continuous
 62
     7
370
    25
100
AcDbCircle
 10
1538.8039344263
 20
2366.5799174144
 30
0.0
 40
2.026579787012389
100
AcDbArc
 50
284.3749621224
 51
340.0000000000001
  0
ARC
  5
1D5
330
1F
100
AcDbEntity
  8
0
  6
Continuous
 62
     7
370
    25
100
AcDbCircle
 10
1428.5126585689
 20
2366.5799174144
 30
0.0
 40
2.026579787012389
100
AcDbArc
 50
200.0
 51
255.6250378776
  0
ARC
  5
1D6
330
1F
100
AcDbEntity
  8
0
  6
Continuous
 62
     7
370
    25
100
AcDbCircle
 10
1430.4039344263
 20
2366.5799174144
 30
0.0
 40
2.026579787012296
100
AcDbArc
 50
284.3749621224
 51
340.0000000000001
  0
LINE
  5
1D7
330
1F
100
AcDbEntity
  8
0
  6
Continuous
 62
     7
370
    25
100
AcDbLine
 10
1426.6082964976
 20
2366.2667863052
 30
0.0
 11
1426.6082964976
 21
2365.8867863052
 31
0.0
  0
LINE
  5
1D8
330
1F
100
AcDbEntity
  8
0
  6
Continuous
 62
     7
370
    25
100
AcDbLine
 10
1432.3082964976
 20
2365.8867863052
 30
0.0
 11
1432.3082964976
 21
2366.2667863052
 31
0.0
  0
SPLINE
  5
1D9
330
1F
100
AcDbEntity
  8
0
  6
Continuous
 62
     7
370
    25
100
AcDbSpline
210
0.0
220
0.0
230
1.0
 70
     8
 71
     3
 72
    13
 73
     9
 74
     0
 42
0.000000001
 43
0.00000001
 40
0.0
 40
0.0
 40
0.0
 40
0.0
 40
0.1283956991593903
 40
0.3918695116797555
 40
0.5446089661466502
 40
0.7115738197298069
 40
0.8915626006076789
 40
1.0
 40
1.0
 40
1.0
 40
1.0
 10
1524.232999408603
 20
2362.643508383588
 30
0.0
 10
1524.483148665656
 20
2362.646588450362
 30
0.0
 10
1525.246615571871
 20
2362.6559889542
 30
0.0
 10
1526.251599009497
 20
2363.089879471268
 30
0.0
 10
1527.136501204157
 20
2363.79936044442
 30
0.0
 10
1527.72617698613
 20
2364.578423970658
 30
0.0
 10
1528.110000116163
 20
2365.395910327387
 30
0.0
 10
1528.162200142804
 20
2365.954321062766
 30
0.0
 10
1528.181825390179
 20
2366.164262503867
 30
0.0
  0
SPLINE
  5
1DA
330
1F
100
AcDbEntity
  8
0
  6
Continuous
 62
     7
370
    25
100
AcDbSpline
210
0.0
220
0.0
230
1.0
 70
     8
 71
     3
 72
    13
 73
     9
 74
     0
 42
0.000000001
 43
0.00000001
 40
0.0
 40
0.0
 40
0.0
 40
0.0
 40
0.1240361802999887
 40
0.3785640617626096
 40
0.5261174348601666
 40
0.6874132010464571
 40
0.8612906830249438
 40
1.0
 40
1.0
 40
1.0
 40
1.0
 10
1397.232999408757
 20
2362.643508383585
 30
0.0
 10
1397.483140851616
 20
2362.646590114289
 30
0.0
 10
1398.24658390827
 20
2362.655995696512
 30
0.0
 10
1399.251837686042
 20
2363.089828649861
 30
0.0
 10
1400.136002619486
 20
2363.79946660877
 30
0.0
 10
1400.728337729629
 20
2364.577963881668
 30
0.0
 10
1401.131626563784
 20
2365.460706887326
 30
0.0
 10
1401.185671850214
 20
2366.088126210182
 30
0.0
 10
1401.209654260192
 20
2366.366541376854
 30
0.0
  0
SPLINE
  5
1DB
330
1F
100
AcDbEntity
  8
0
  6
Continuous
 62
     7
370
    25
100
AcDbSpline
210
0.0
220
0.0
230
1.0
 70
     8
 71
     3
 72
    13
 73
     9
 74
     0
 42
0.000000001
 43
0.00000001
 40
0.0
 40
0.0
 40
0.0
 40
0.0
 40
0.1240361802419031
 40
0.3785640617278433
 40
0.5261174348424971
 40
0.6874132010463819
 40
0.861290683023866
 40
1.0
 40
1.0
 40
1.0
 40
1.0
 10
1498.832999408602
 20
2362.643508383595
 30
0.0
 10
1499.083140851321
 20
2362.646590114282
 30
0.0
 10
1499.846583907835
 20
2362.65599569646
 30
0.0
 10
1500.851837685719
 20
2363.089828649709
 30
0.0
 10
1501.736002619224
 20
2363.799466608605
 30
0.0
 10
1502.328337729477
 20
2364.577963881463
 30
0.0
 10
1502.731626563493
 20
2365.460706887247
 30
0.0
 10
1502.78567184994
 20
2366.088126210148
 30
0.0
 10
1502.809654259926
 20
2366.366541376844
 30
0.0
  0
SPLINE
  5
1DC
330
1F
100
AcDbEntity
  8
0
  6
Continuous
 62
     7
370
    25
100
AcDbSpline
210
0.0
220
0.0
230
1.0
 70
     8
 71
     3
 72
    13
 73
     9
 74
     0
 42
0.000000001
 43
0.00000001
 40
0.0
 40
0.0
 40
0.0
 40
0.0
 40
0.1261537500952453
 40
0.3850269810098705
 40
0.5350994139654351
 40
0.6991488528148978
 40
0.8759948049551801
 40
1.0
 40
1.0
 40
1.0
 40
1.0
 10
1473.432999408782
 20
2362.643508383586
 30
0.0
 10
1473.683144470686
 20
2362.646589343696
 30
0.0
 10
1474.446598572738
 20
2362.65599257403
 30
0.0
 10
1475.451727149473
 20
2363.089852186591
 30
0.0
 10
1476.336233526119
 20
2363.799417441664
 30
0.0
 10
1476.927337037888
 20
2364.578176960002
 30
0.0
 10
1477.32087847866
 20
2365.428685675943
 30
0.0
 10
1477.374000631262
 20
2366.021991750841
 30
0.0
 10
1477.395896585312
 20
2366.266541376885
 30
0.0
  0
SPLINE
  5
1DD
330
1F
100
AcDbEntity
  8
0
  6
Continuous
 62
     7
370
    25
100
AcDbSpline
210
0.0
220
0.0
230
1.0
 70
     8
 71
     3
 72
    13
 73
     9
 74
     0
 42
0.000000001
 43
0.00000001
 40
0.0
 40
0.0
 40
0.0
 40
0.0
 40
0.1261537500951552
 40
0.3850269810095319
 40
0.5350994139650235
 40
0.6991488528142394
 40
0.8759948049543317
 40
1.0
 40
1.0
 40
1.0
 40
1.0
 10
1422.632999408781
 20
2362.643508383587
 30
0.0
 10
1422.883144470685
 20
2362.646589343697
 30
0.0
 10
1423.646598572738
 20
2362.655992574032
 30
0.0
 10
1424.651727149473
 20
2363.089852186593
 30
0.0
 10
1425.536233526118
 20
2363.799417441662
 30
0.0
 10
1426.127337037888
 20
2364.578176960004
 30
0.0
 10
1426.52087847866
 20
2365.428685675946
 30
0.0
 10
1426.574000631262
 20
2366.021991750845
 30
0.0
 10
1426.595896585312
 20
2366.266541376891
 30
0.0
  0
SPLINE
  5
1DE
330
1F
100
AcDbEntity
  8
0
  6
Continuous
 62
     7
370
    25
100
AcDbSpline
210
0.0
220
0.0
230
1.0
 70
     8
 71
     3
 72
    13
 73
     9
 74
     0
 42
0.000000001
 43
0.00000001
 40
0.0
 40
0.0
 40
0.0
 40
0.0
 40
0.1261537500951555
 40
0.3850269810096251
 40
0.5350994139651587
 40
0.6991488528144234
 40
0.8759948049545928
 40
0.9999999999999999
 40
0.9999999999999999
 40
0.9999999999999999
 40
0.9999999999999999
 10
1448.032999408782
 20
2362.643508383586
 30
0.0
 10
1448.283144470686
 20
2362.646589343696
 30
0.0
 10
1449.046598572737
 20
2362.65599257403
 30
0.0
 10
1450.051727149473
 20
2363.089852186591
 30
0.0
 10
1450.936233526118
 20
2363.799417441663
 30
0.0
 10
1451.527337037889
 20
2364.578176960003
 30
0.0
 10
1451.920878478661
 20
2365.428685675944
 30
0.0
 10
1451.974000631262
 20
2366.021991750843
 30
0.0
 10
1451.995896585312
 20
2366.266541376889
 30
0.0
  0
SPLINE
  5
1DF
330
1F
100
AcDbEntity
  8
0
  6
Continuous
 62
     7
370
    25
100
AcDbSpline
210
0.0
220
0.0
230
1.0
 70
     8
 71
     3
 72
     9
 73
     5
 74
     0
 42
0.000000001
 43
0.00000001
 40
0.0
 40
0.0
 40
0.0
 40
0.0
 40
0.1726566170863855
 40
1.0
 40
1.0
 40
1.0
 40
1.0
 10
1504.395977304035
 20
2366.266541376888
 30
0.0
 10
1504.456143621572
 20
2366.224857158801
 30
0.0
 10
1504.804617479986
 20
2365.983428716661
 30
0.0
 10
1505.244176043791
 20
2365.974187246266
 30
0.0
 10
1505.607841912959
 20
2365.966541376886
 30
0.0
  0
SPLINE
  5
1E0
330
1F
100
AcDbEntity
  8
0
  6
Continuous
 62
     7
370
    25
100
AcDbSpline
210
0.0
220
0.0
230
1.0
 70
     8
 71
     3
 72
     9
 73
     5
 74
     0
 42
0.000000001
 43
0.00000001
 40
0.0
 40
0.0
 40
0.0
 40
0.0
 40
0.8777586323029678
 40
1.0
 40
1.0
 40
1.0
 40
1.0
 10
1509.108751079285
 20
2365.966541376887
 30
0.0
 10
1509.570923008995
 20
2365.99422088354
 30
0.0
 10
1510.097459476656
 20
2366.025755186519
 30
0.0
 10
1510.501961198287
 20
2366.329420868502
 30
0.0
 10
1510.551408041974
 20
2366.366541376791
 30
0.0
  0
SPLINE
  5
1E1
330
1F
100
AcDbEntity
  8
0
  6
Continuous
 62
     7
370
    25
100
AcDbSpline
210
0.0
220
0.0
230
1.0
 70
     8
 71
     3
 72
     9
 73
     5
 74
     0
 42
0.000000001
 43
0.00000001
 40
0.0
 40
0.0
 40
0.0
 40
0.0
 40
0.8777586321402596
 40
1.0
 40
1.0
 40
1.0
 40
1.0
 10
1407.508751079168
 20
2365.96654137689
 30
0.0
 10
1407.970923008796
 20
2365.994220883608
 30
0.0
 10
1408.49745947646
 20
2366.025755186668
 30
0.0
 10
1408.901961198207
 20
2366.329420868577
 30
0.0
 10
1408.951408041975
 20
2366.366541376904
 30
0.0
  0
SPLINE
  5
1E2
330
1F
100
AcDbEntity
  8
0
  6
Continuous
 62
     7
370
    25
100
AcDbSpline
210
0.0
220
0.0
230
1.0
 70
     8
 71
     3
 72
     9
 73
     5
 74
     0
 42
0.000000001
 43
0.00000001
 40
0.0
 40
0.0
 40
0.0
 40
0.0
 40
0.1726566170427124
 40
1.0
 40
1.0
 40
1.0
 40
1.0
 10
1402.795977303937
 20
2366.266541376888
 30
0.0
 10
1402.856143621471
 20
2366.224857158803
 30
0.0
 10
1403.204617479961
 20
2365.98342871662
 30
0.0
 10
1403.644176043862
 20
2365.974187246252
 30
0.0
 10
1404.007841913127
 20
2365.966541376894
 30
0.0
  0
SPLINE
  5
1E3
330
1F
100
AcDbEntity
  8
0
  6
Continuous
 62
     7
370
    25
100
AcDbSpline
210
0.0
220
0.0
230
1.0
 70
     8
 71
     3
 72
     9
 73
     5
 74
     0
 42
0.000000001
 43
0.00000001
 40
0.0
 40
0.0
 40
0.0
 40
0.0
 40
0.9872828292953604
 40
1.0
 40
1.0
 40
1.0
 40
1.0
 10
1432.908751079569
 20
2365.966541376887
 30
0.0
 10
1433.374833645583
 20
2365.985500360137
 30
0.0
 10
1433.846919811962
 20
2366.004703553678
 30
0.0
 10
1434.210509154037
 20
2366.265849238052
 30
0.0
 10
1434.215132981767
 20
2366.2691702723
 30
0.0
  0
SPLINE
  5
1E4
330
1F
100
AcDbEntity
  8
0
  6
Continuous
 62
     7
370
    25
100
AcDbSpline
210
0.0
220
0.0
230
1.0
 70
     8
 71
     3
 72
     9
 73
     5
 74
     0
 42
0.000000001
 43
0.00000001
 40
0.0
 40
0.0
 40
0.0
 40
0.0
 40
0.9906200528165461
 40
0.9999999999999999
 40
0.9999999999999999
 40
0.9999999999999999
 40
0.9999999999999999
 10
1458.30875107957
 20
2365.966541376887
 30
0.0
 10
1458.774952803426
 20
2365.985234644063
 30
0.0
 10
1459.245568881236
 20
2366.004104913367
 30
0.0
 10
1459.608053641345
 20
2366.264102612206
 30
0.0
 10
1459.61145372925
 20
2366.266541376888
 30
0.0
  0
SPLINE
  5
1E5
330
1F
100
AcDbEntity
  8
0
  6
Continuous
 62
     7
370
    25
100
AcDbSpline
210
0.0
220
0.0
230
1.0
 70
     8
 71
     3
 72
     9
 73
     5
 74
     0
 42
0.000000001
 43
0.00000001
 40
0.0
 40
0.0
 40
0.0
 40
0.0
 40
0.1726566170366552
 40
0.9999999999999999
 40
0.9999999999999999
 40
0.9999999999999999
 40
0.9999999999999999
 10
1453.595977304319
 20
2366.266541376889
 30
0.0
 10
1453.656143621857
 20
2366.2248571588
 30
0.0
 10
1454.004617480376
 20
2365.983428716593
 30
0.0
 10
1454.44417604432
 20
2365.974187246236
 30
0.0
 10
1454.807841913624
 20
2365.966541376887
 30
0.0
  0
SPLINE
  5
1E6
330
1F
100
AcDbEntity
  8
0
  6
Continuous
 62
     7
370
    25
100
AcDbSpline
210
0.0
220
0.0
230
1.0
 70
     8
 71
     3
 72
     9
 73
     5
 74
     0
 42
0.000000001
 43
0.00000001
 40
0.0
 40
0.0
 40
0.0
 40
0.0
 40
0.1726566170311493
 40
1.0
 40
1.0
 40
1.0
 40
1.0
 10
1478.995977304329
 20
2366.266541376884
 30
0.0
 10
1479.056143621865
 20
2366.224857158798
 30
0.0
 10
1479.404617480381
 20
2365.983428716592
 30
0.0
 10
1479.844176044322
 20
2365.974187246235
 30
0.0
 10
1480.207841913625
 20
2365.966541376887
 30
0.0
  0
SPLINE
  5
1E7
330
1F
100
AcDbEntity
  8
0
  6
Continuous
 62
     7
370
    25
100
AcDbSpline
210
0.0
220
0.0
230
1.0
 70
     8
 71
     3
 72
    12
 73
     8
 74
     0
 42
0.000000001
 43
0.00000001
 40
0.0
 40
0.0
 40
0.0
 40
0.0
 40
0.3058261302356783
 40
0.4426862154490865
 40
0.6752701559744952
 40
0.9302096161561809
 40
1.0
 40
1.0
 40
1.0
 40
1.0
 10
1410.053502080165
 20
2362.083120688614
 30
0.0
 10
1410.333255245363
 20
2362.256540708246
 30
0.0
 10
1410.738200597371
 20
2362.507567826548
 30
0.0
 10
1411.205695219496
 20
2363.063769039757
 30
0.0
 10
1411.522825371815
 20
2363.649290521496
 30
0.0
 10
1411.712229829948
 20
2364.233442952976
 30
0.0
 10
1411.689874687976
 20
2364.580021203274
 30
0.0
 10
1411.685070159019
 20
2364.654507209302
 30
0.0
  0
ARC
  5
1E8
330
1F
100
AcDbEntity
  8
0
  6
Continuous
 62
     7
370
    25
100
AcDbCircle
 10
1460.556921946
 20
2367.9665413769
 30
0.0
 40
3.0
100
AcDbArc
 50
270.0
 51
302.6326860512
  0
ARC
  5
1E9
330
1F
100
AcDbEntity
  8
0
  6
Continuous
 62
     7
370
    25
100
AcDbCircle
 10
1452.5596710472
 20
2367.9665413769
 30
0.0
 40
3.000000000000192
100
AcDbArc
 50
253.5025924672
 51
270.0
  0
SPLINE
  5
1EA
330
1F
100
AcDbEntity
  8
0
  6
Continuous
 62
     7
370
    25
100
AcDbSpline
210
0.0
220
0.0
230
1.0
 70
     8
 71
     3
 72
     9
 73
     5
 74
     0
 42
0.000000001
 43
0.00000001
 40
0.0
 40
0.0
 40
0.0
 40
0.0
 40
0.172656617040339
 40
1.0
 40
1.0
 40
1.0
 40
1.0
 10
1384.595977304332
 20
2366.266541376885
 30
0.0
 10
1384.656143621869
 20
2366.224857158798
 30
0.0
 10
1385.004617480373
 20
2365.983428716606
 30
0.0
 10
1385.444176044294
 20
2365.974187246242
 30
0.0
 10
1385.807841913577
 20
2365.966541376888
 30
0.0
  0
SPLINE
  5
1EB
330
1F
100
AcDbEntity
  8
0
  6
Continuous
 62
     7
370
    25
100
AcDbSpline
210
0.0
220
0.0
230
1.0
 70
     8
 71
     3
 72
     9
 73
     5
 74
     0
 42
0.000000001
 43
0.00000001
 40
0.0
 40
0.0
 40
0.0
 40
0.0
 40
0.729160284910025
 40
1.0
 40
1.0
 40
1.0
 40
1.0
 10
1528.182823808489
 20
2366.164488611073
 30
0.0
 10
1528.330725582759
 20
2366.177279611491
 30
0.0
 10
1528.533564077025
 20
2366.19482170845
 30
0.0
 10
1528.688844960185
 20
2366.318414899232
 30
0.0
 10
1528.730901190339
 20
2366.351888843811
 30
0.0
  0
SPLINE
  5
1EC
330
1F
100
AcDbEntity
  8
0
  6
Continuous
 62
     7
370
    25
100
AcDbSpline
210
0.0
220
0.0
230
1.0
 70
     8
 71
     3
 72
    13
 73
     9
 74
     0
 42
0.000000001
 43
0.00000001
 40
0.0
 40
0.0
 40
0.0
 40
0.0
 40
0.1283956991593903
 40
0.3918695116797555
 40
0.5446089661466502
 40
0.7115738197298069
 40
0.8915626006076789
 40
1.0
 40
1.0
 40
1.0
 40
1.0
 10
1351.232999408603
 20
2362.643508383589
 30
0.0
 10
1351.483148665656
 20
2362.646588450363
 30
0.0
 10
1352.246615571872
 20
2362.655988954201
 30
0.0
 10
1353.251599009497
 20
2363.089879471269
 30
0.0
 10
1354.136501204157
 20
2363.799360444422
 30
0.0
 10
1354.72617698613
 20
2364.578423970659
 30
0.0
 10
1355.110000116164
 20
2365.395910327388
 30
0.0
 10
1355.162200142805
 20
2365.954321062768
 30
0.0
 10
1355.181825390179
 20
2366.164262503868
 30
0.0
  0
SPLINE
  5
1ED
330
1F
100
AcDbEntity
  8
0
  6
Continuous
 62
     7
370
    25
100
AcDbSpline
210
0.0
220
0.0
230
1.0
 70
     8
 71
     3
 72
    13
 73
     9
 74
     0
 42
0.000000001
 43
0.00000001
 40
0.0
 40
0.0
 40
0.0
 40
0.0
 40
0.1240361802999887
 40
0.3785640617626096
 40
0.5261174348601666
 40
0.6874132010464571
 40
0.8612906830249438
 40
1.0
 40
1.0
 40
1.0
 40
1.0
 10
1224.232999408758
 20
2362.643508383586
 30
0.0
 10
1224.483140851617
 20
2362.64659011429
 30
0.0
 10
1225.24658390827
 20
2362.655995696513
 30
0.0
 10
1226.251837686042
 20
2363.089828649862
 30
0.0
 10
1227.136002619487
 20
2363.799466608771
 30
0.0
 10
1227.728337729629
 20
2364.577963881669
 30
0.0
 10
1228.131626563784
 20
2365.460706887327
 30
0.0
 10
1228.185671850214
 20
2366.088126210182
 30
0.0
 10
1228.209654260192
 20
2366.366541376854
 30
0.0
  0
SPLINE
  5
1EE
330
1F
100
AcDbEntity
  8
0
  6
Continuous
 62
     7
370
    25
100
AcDbSpline
210
0.0
220
0.0
230
1.0
 70
     8
 71
     3
 72
    13
 73
     9
 74
     0
 42
0.000000001
 43
0.00000001
 40
0.0
 40
0.0
 40
0.0
 40
0.0
 40
0.1240361802419031
 40
0.3785640617278433
 40
0.5261174348424971
 40
0.6874132010463819
 40
0.861290683023866
 40
1.0
 40
1.0
 40
1.0
 40
1.0
 10
1325.832999408602
 20
2362.643508383595
 30
0.0
 10
1326.083140851321
 20
2362.646590114284
 30
0.0
 10
1326.846583907835
 20
2362.655995696461
 30
0.0
 10
1327.851837685719
 20
2363.089828649711
 30
0.0
 10
1328.736002619225
 20
2363.799466608605
 30
0.0
 10
1329.328337729477
 20
2364.577963881464
 30
0.0
 10
1329.731626563493
 20
2365.460706887249
 30
0.0
 10
1329.78567184994
 20
2366.088126210149
 30
0.0
 10
1329.809654259926
 20
2366.366541376844
 30
0.0
  0
SPLINE
  5
1EF
330
1F
100
AcDbEntity
  8
0
  6
Continuous
 62
     7
370
    25
100
AcDbSpline
210
0.0
220
0.0
230
1.0
 70
     8
 71
     3
 72
    13
 73
     9
 74
     0
 42
0.000000001
 43
0.00000001
 40
0.0
 40
0.0
 40
0.0
 40
0.0
 40
0.1261537500952127
 40
0.3850269810098476
 40
0.5350994139654177
 40
0.6991488528148866
 40
0.8759948049551755
 40
1.0
 40
1.0
 40
1.0
 40
1.0
 10
1300.432999408783
 20
2362.643508383587
 30
0.0
 10
1300.683144470687
 20
2362.646589343697
 30
0.0
 10
1301.446598572738
 20
2362.655992574032
 30
0.0
 10
1302.451727149473
 20
2363.089852186593
 30
0.0
 10
1303.336233526119
 20
2363.799417441663
 30
0.0
 10
1303.927337037889
 20
2364.578176960004
 30
0.0
 10
1304.32087847866
 20
2365.428685675944
 30
0.0
 10
1304.374000631262
 20
2366.021991750841
 30
0.0
 10
1304.395896585312
 20
2366.266541376885
 30
0.0
  0
SPLINE
  5
1F0
330
1F
100
AcDbEntity
  8
0
  6
Continuous
 62
     7
370
    25
100
AcDbSpline
210
0.0
220
0.0
230
1.0
 70
     8
 71
     3
 72
    13
 73
     9
 74
     0
 42
0.000000001
 43
0.00000001
 40
0.0
 40
0.0
 40
0.0
 40
0.0
 40
0.1261537500951539
 40
0.3850269810095281
 40
0.5350994139650183
 40
0.6991488528142327
 40
0.8759948049543379
 40
0.9999999999999999
 40
0.9999999999999999
 40
0.9999999999999999
 40
0.9999999999999999
 10
1249.632999408781
 20
2362.643508383588
 30
0.0
 10
1249.883144470685
 20
2362.646589343698
 30
0.0
 10
1250.646598572738
 20
2362.655992574033
 30
0.0
 10
1251.651727149473
 20
2363.089852186592
 30
0.0
 10
1252.536233526118
 20
2363.799417441664
 30
0.0
 10
1253.127337037888
 20
2364.578176960004
 30
0.0
 10
1253.52087847866
 20
2365.428685675945
 30
0.0
 10
1253.574000631263
 20
2366.021991750846
 30
0.0
 10
1253.595896585312
 20
2366.266541376892
 30
0.0
  0
SPLINE
  5
1F1
330
1F
100
AcDbEntity
  8
0
  6
Continuous
 62
     7
370
    25
100
AcDbSpline
210
0.0
220
0.0
230
1.0
 70
     8
 71
     3
 72
    13
 73
     9
 74
     0
 42
0.000000001
 43
0.00000001
 40
0.0
 40
0.0
 40
0.0
 40
0.0
 40
0.1261537500951555
 40
0.3850269810096251
 40
0.5350994139651587
 40
0.6991488528144234
 40
0.8759948049545928
 40
0.9999999999999999
 40
0.9999999999999999
 40
0.9999999999999999
 40
0.9999999999999999
 10
1275.032999408782
 20
2362.643508383587
 30
0.0
 10
1275.283144470686
 20
2362.646589343697
 30
0.0
 10
1276.046598572738
 20
2362.655992574031
 30
0.0
 10
1277.051727149474
 20
2363.089852186593
 30
0.0
 10
1277.936233526118
 20
2363.799417441663
 30
0.0
 10
1278.527337037889
 20
2364.578176960004
 30
0.0
 10
1278.920878478661
 20
2365.428685675945
 30
0.0
 10
1278.974000631263
 20
2366.021991750844
 30
0.0
 10
1278.995896585313
 20
2366.26654137689
 30
0.0
  0
SPLINE
  5
1F2
330
1F
100
AcDbEntity
  8
0
  6
Continuous
 62
     7
370
    25
100
AcDbSpline
210
0.0
220
0.0
230
1.0
 70
     8
 71
     3
 72
     9
 73
     5
 74
     0
 42
0.000000001
 43
0.00000001
 40
0.0
 40
0.0
 40
0.0
 40
0.0
 40
0.1726566170863855
 40
1.0
 40
1.0
 40
1.0
 40
1.0
 10
1331.395977304035
 20
2366.266541376889
 30
0.0
 10
1331.456143621572
 20
2366.224857158801
 30
0.0
 10
1331.804617479987
 20
2365.983428716663
 30
0.0
 10
1332.244176043792
 20
2365.974187246267
 30
0.0
 10
1332.607841912959
 20
2365.966541376887
 30
0.0
  0
SPLINE
  5
1F3
330
1F
100
AcDbEntity
  8
0
  6
Continuous
 62
     7
370
    25
100
AcDbSpline
210
0.0
220
0.0
230
1.0
 70
     8
 71
     3
 72
     9
 73
     5
 74
     0
 42
0.000000001
 43
0.00000001
 40
0.0
 40
0.0
 40
0.0
 40
0.0
 40
0.8777586322659138
 40
1.0
 40
1.0
 40
1.0
 40
1.0
 10
1336.108751079285
 20
2365.966541376888
 30
0.0
 10
1336.570923008995
 20
2365.994220883545
 30
0.0
 10
1337.097459476675
 20
2366.025755186529
 30
0.0
 10
1337.501961198322
 20
2366.329420868527
 30
0.0
 10
1337.551408042027
 20
2366.366541376829
 30
0.0
  0
SPLINE
  5
1F4
330
1F
100
AcDbEntity
  8
0
  6
Continuous
 62
     7
370
    25
100
AcDbSpline
210
0.0
220
0.0
230
1.0
 70
     8
 71
     3
 72
     9
 73
     5
 74
     0
 42
0.000000001
 43
0.00000001
 40
0.0
 40
0.0
 40
0.0
 40
0.0
 40
0.8777586321651558
 40
1.0
 40
1.0
 40
1.0
 40
1.0
 10
1234.508751079168
 20
2365.966541376891
 30
0.0
 10
1234.970923008797
 20
2365.99422088361
 30
0.0
 10
1235.497459476447
 20
2366.02575518667
 30
0.0
 10
1235.901961198184
 20
2366.329420868561
 30
0.0
 10
1235.951408041941
 20
2366.36654137688
 30
0.0
  0
SPLINE
  5
1F5
330
1F
100
AcDbEntity
  8
0
  6
Continuous
 62
     7
370
    25
100
AcDbSpline
210
0.0
220
0.0
230
1.0
 70
     8
 71
     3
 72
     9
 73
     5
 74
     0
 42
0.000000001
 43
0.00000001
 40
0.0
 40
0.0
 40
0.0
 40
0.0
 40
0.1726566170427124
 40
1.0
 40
1.0
 40
1.0
 40
1.0
 10
1229.795977303937
 20
2366.266541376889
 30
0.0
 10
1229.856143621471
 20
2366.224857158803
 30
0.0
 10
1230.204617479961
 20
2365.983428716621
 30
0.0
 10
1230.644176043862
 20
2365.974187246253
 30
0.0
 10
1231.007841913127
 20
2365.966541376895
 30
0.0
  0
SPLINE
  5
1F6
330
1F
100
AcDbEntity
  8
0
  6
Continuous
 62
     7
370
    25
100
AcDbSpline
210
0.0
220
0.0
230
1.0
 70
     8
 71
     3
 72
     9
 73
     5
 74
     0
 42
0.000000001
 43
0.00000001
 40
0.0
 40
0.0
 40
0.0
 40
0.0
 40
0.9872828292953604
 40
1.0
 40
1.0
 40
1.0
 40
1.0
 10
1259.908751079569
 20
2365.966541376888
 30
0.0
 10
1260.374833645579
 20
2365.985500360138
 30
0.0
 10
1260.846919811953
 20
2366.004703553678
 30
0.0
 10
1261.210509154037
 20
2366.265849238053
 30
0.0
 10
1261.215132981767
 20
2366.2691702723
 30
0.0
  0
SPLINE
  5
1F7
330
1F
100
AcDbEntity
  8
0
  6
Continuous
 62
     7
370
    25
100
AcDbSpline
210
0.0
220
0.0
230
1.0
 70
     8
 71
     3
 72
     9
 73
     5
 74
     0
 42
0.000000001
 43
0.00000001
 40
0.0
 40
0.0
 40
0.0
 40
0.0
 40
0.8777586321630408
 40
1.0
 40
1.0
 40
1.0
 40
1.0
 10
1285.30875107957
 20
2365.966541376888
 30
0.0
 10
1285.770923009222
 20
2365.994220883599
 30
0.0
 10
1286.297459476898
 20
2366.025755186649
 30
0.0
 10
1286.701961198644
 20
2366.329420868565
 30
0.0
 10
1286.751408042403
 20
2366.366541376888
 30
0.0
  0
SPLINE
  5
1F8
330
1F
100
AcDbEntity
  8
0
  6
Continuous
 62
     7
370
    25
100
AcDbSpline
210
0.0
220
0.0
230
1.0
 70
     8
 71
     3
 72
     9
 73
     5
 74
     0
 42
0.000000001
 43
0.00000001
 40
0.0
 40
0.0
 40
0.0
 40
0.0
 40
0.1726566170366552
 40
0.9999999999999999
 40
0.9999999999999999
 40
0.9999999999999999
 40
0.9999999999999999
 10
1280.595977304319
 20
2366.26654137689
 30
0.0
 10
1280.656143621857
 20
2366.224857158802
 30
0.0
 10
1281.004617480377
 20
2365.983428716594
 30
0.0
 10
1281.444176044321
 20
2365.974187246237
 30
0.0
 10
1281.807841913624
 20
2365.966541376888
 30
0.0
  0
SPLINE
  5
1F9
330
1F
100
AcDbEntity
  8
0
  6
Continuous
 62
     7
370
    25
100
AcDbSpline
210
0.0
220
0.0
230
1.0
 70
     8
 71
     3
 72
     9
 73
     5
 74
     0
 42
0.000000001
 43
0.00000001
 40
0.0
 40
0.0
 40
0.0
 40
0.0
 40
0.1726566170311493
 40
1.0
 40
1.0
 40
1.0
 40
1.0
 10
1305.995977304329
 20
2366.266541376885
 30
0.0
 10
1306.056143621865
 20
2366.224857158799
 30
0.0
 10
1306.404617480381
 20
2365.983428716594
 30
0.0
 10
1306.844176044322
 20
2365.974187246236
 30
0.0
 10
1307.207841913625
 20
2365.966541376888
 30
0.0
  0
SPLINE
  5
1FA
330
1F
100
AcDbEntity
  8
0
  6
Continuous
 62
     7
370
    25
100
AcDbSpline
210
0.0
220
0.0
230
1.0
 70
     8
 71
     3
 72
    12
 73
     8
 74
     0
 42
0.000000001
 43
0.00000001
 40
0.0
 40
0.0
 40
0.0
 40
0.0
 40
0.3058261302356783
 40
0.4426862154490865
 40
0.6752701559744952
 40
0.9302096161561809
 40
1.0
 40
1.0
 40
1.0
 40
1.0
 10
1237.053502080165
 20
2362.083120688614
 30
0.0
 10
1237.333255245363
 20
2362.256540708247
 30
0.0
 10
1237.738200597371
 20
2362.507567826549
 30
0.0
 10
1238.205695219496
 20
2363.063769039758
 30
0.0
 10
1238.522825371816
 20
2363.649290521496
 30
0.0
 10
1238.712229829948
 20
2364.233442952978
 30
0.0
 10
1238.689874687977
 20
2364.580021203274
 30
0.0
 10
1238.685070159019
 20
2364.654507209303
 30
0.0
  0
ARC
  5
1FB
330
1F
100
AcDbEntity
  8
0
  6
Continuous
 62
     7
370
    25
100
AcDbCircle
 10
1287.556921946
 20
2367.9665413769
 30
0.0
 40
3.0
100
AcDbArc
 50
270.0
 51
302.6326860511
  0
ARC
  5
1FC
330
1F
100
AcDbEntity
  8
0
  6
Continuous
 62
     7
370
    25
100
AcDbCircle
 10
1279.5596710472
 20
2367.9665413769
 30
0.0
 40
3.0
100
AcDbArc
 50
253.5025924673
 51
270.0
  0
SPLINE
  5
1FD
330
1F
100
AcDbEntity
  8
0
  6
Continuous
 62
     7
370
    25
100
AcDbSpline
210
0.0
220
0.0
230
1.0
 70
     8
 71
     3
 72
     9
 73
     5
 74
     0
 42
0.000000001
 43
0.00000001
 40
0.0
 40
0.0
 40
0.0
 40
0.0
 40
0.172656617040339
 40
1.0
 40
1.0
 40
1.0
 40
1.0
 10
1211.595977304333
 20
2366.266541376886
 30
0.0
 10
1211.656143621869
 20
2366.224857158799
 30
0.0
 10
1212.004617480373
 20
2365.983428716607
 30
0.0
 10
1212.444176044294
 20
2365.974187246243
 30
0.0
 10
1212.807841913577
 20
2365.966541376888
 30
0.0
  0
SPLINE
  5
1FE
330
1F
100
AcDbEntity
  8
0
  6
Continuous
 62
     7
370
    25
100
AcDbSpline
210
0.0
220
0.0
230
1.0
 70
     8
 71
     3
 72
     9
 73
     5
 74
     0
 42
0.000000001
 43
0.00000001
 40
0.0
 40
0.0
 40
0.0
 40
0.0
 40
0.7291602849102489
 40
1.0
 40
1.0
 40
1.0
 40
1.0
 10
1355.182823808489
 20
2366.164488611074
 30
0.0
 10
1355.330725582759
 20
2366.177279611491
 30
0.0
 10
1355.533564077026
 20
2366.194821708451
 30
0.0
 10
1355.688844960185
 20
2366.318414899234
 30
0.0
 10
1355.730901190339
 20
2366.351888843812
 30
0.0
  0
LINE
  5
1FF
330
1F
100
AcDbEntity
  8
0
  6
Continuous
 62
     7
370
    25
100
AcDbLine
 10
797.8082962412
 20
2490.6167863052
 30
0.0
 11
769.3082962412
 21
2490.6167863052
 31
0.0
  0
LINE
  5
200
330
1F
100
AcDbEntity
  8
0
  6
Continuous
 62
     7
370
    25
100
AcDbLine
 10
882.8082962412
 20
2490.6167863052
 30
0.0
 11
854.3082962412
 21
2490.6167863052
 31
0.0
  0
LINE
  5
201
330
1F
100
AcDbEntity
  8
0
  6
Continuous
 62
     7
370
    25
100
AcDbLine
 10
779.8082962412
 20
2496.1167863052
 30
0.0
 11
787.3082962412
 21
2496.1167863052
 31
0.0
  0
LINE
  5
202
330
1F
100
AcDbEntity
  8
0
  6
Continuous
 62
     7
370
    25
100
AcDbLine
 10
864.8082962412
 20
2496.1167863052
 30
0.0
 11
872.3082962412
 21
2496.1167863052
 31
0.0
  0
LINE
  5
209
330
1F
100
AcDbEntity
  8
0
  6
Continuous
 62
     7
370
    25
100
AcDbLine
 10
1310.6582964976
 20
2365.8867863052
 30
0.0
 11
1313.5082964976
 21
2365.8867863052
 31
0.0
  0
LINE
  5
20A
330
1F
100
AcDbEntity
  8
0
  6
Continuous
 62
     7
370
    25
100
AcDbLine
 10
1307.8082964976
 20
2365.8867863052
 30
0.0
 11
1310.6582964976
 21
2365.8867863052
 31
0.0
  0
LINE
  5
20B
330
1F
100
AcDbEntity
  8
0
  6
Continuous
 62
     7
370
    25
100
AcDbLine
 10
1310.6582964976
 20
2364.6167863052
 30
0.0
 11
1312.1070664976
 21
2364.6167863052
 31
0.0
  0
LINE
  5
20C
330
1F
100
AcDbEntity
  8
0
  6
Continuous
 62
     7
370
    25
100
AcDbLine
 10
1309.2095264976
 20
2364.6167863052
 30
0.0
 11
1310.6582964976
 21
2364.6167863052
 31
0.0
  0
LINE
  5
20D
330
1F
100
AcDbEntity
  8
0
  6
Continuous
 62
     7
370
    25
100
AcDbLine
 10
1375.2582964976
 20
2365.8867863052
 30
0.0
 11
1378.1082964976
 21
2365.8867863052
 31
0.0
  0
LINE
  5
20E
330
1F
100
AcDbEntity
  8
0
  6
Continuous
 62
     7
370
    25
100
AcDbLine
 10
1372.4082964976
 20
2365.8867863052
 30
0.0
 11
1375.2582964976
 21
2365.8867863052
 31
0.0
  0
LINE
  5
20F
330
1F
100
AcDbEntity
  8
0
  6
Continuous
 62
     7
370
    25
100
AcDbLine
 10
1375.2582964976
 20
2364.6167863052
 30
0.0
 11
1376.7070664976
 21
2364.6167863052
 31
0.0
  0
LINE
  5
210
330
1F
100
AcDbEntity
  8
0
  6
Continuous
 62
     7
370
    25
100
AcDbLine
 10
1373.8095264976
 20
2364.6167863052
 30
0.0
 11
1375.2582964976
 21
2364.6167863052
 31
0.0
  0
LINE
  5
211
330
1F
100
AcDbEntity
  8
0
  6
Continuous
 62
     7
370
    25
100
AcDbLine
 10
1364.8582964976
 20
2365.8867863052
 30
0.0
 11
1367.7082964976
 21
2365.8867863052
 31
0.0
  0
LINE
  5
212
330
1F
100
AcDbEntity
  8
0
  6
Continuous
 62
     7
370
    25
100
AcDbLine
 10
1362.0082964976
 20
2365.8867863052
 30
0.0
 11
1364.8582964976
 21
2365.8867863052
 31
0.0
  0
LINE
  5
213
330
1F
100
AcDbEntity
  8
0
  6
Continuous
 62
     7
370
    25
100
AcDbLine
 10
1364.8582964976
 20
2364.6167863052
 30
0.0
 11
1366.3070664976
 21
2364.6167863052
 31
0.0
  0
LINE
  5
214
330
1F
100
AcDbEntity
  8
0
  6
Continuous
 62
     7
370
    25
100
AcDbLine
 10
1363.4095264976
 20
2364.6167863052
 30
0.0
 11
1364.8582964976
 21
2364.6167863052
 31
0.0
  0
LINE
  5
215
330
1F
100
AcDbEntity
  8
0
  6
Continuous
 62
     7
370
    25
100
AcDbLine
 10
1483.6582964976
 20
2365.8867863052
 30
0.0
 11
1486.5082964976
 21
2365.8867863052
 31
0.0
  0
LINE
  5
216
330
1F
100
AcDbEntity
  8
0
  6
Continuous
 62
     7
370
    25
100
AcDbLine
 10
1480.8082964976
 20
2365.8867863052
 30
0.0
 11
1483.6582964976
 21
2365.8867863052
 31
0.0
  0
LINE
  5
217
330
1F
100
AcDbEntity
  8
0
  6
Continuous
 62
     7
370
    25
100
AcDbLine
 10
1483.6582964976
 20
2364.6167863052
 30
0.0
 11
1485.1070664976
 21
2364.6167863052
 31
0.0
  0
LINE
  5
218
330
1F
100
AcDbEntity
  8
0
  6
Continuous
 62
     7
370
    25
100
AcDbLine
 10
1482.2095264976
 20
2364.6167863052
 30
0.0
 11
1483.6582964976
 21
2364.6167863052
 31
0.0
  0
LINE
  5
219
330
1F
100
AcDbEntity
  8
0
  6
Continuous
 62
     7
370
    25
100
AcDbLine
 10
1256.4582964976
 20
2365.8867863052
 30
0.0
 11
1259.3082964976
 21
2365.8867863052
 31
0.0
  0
LINE
  5
21A
330
1F
100
AcDbEntity
  8
0
  6
Continuous
 62
     7
370
    25
100
AcDbLine
 10
1253.6082964976
 20
2365.8867863052
 30
0.0
 11
1256.4582964976
 21
2365.8867863052
 31
0.0
  0
LINE
  5
21B
330
1F
100
AcDbEntity
  8
0
  6
Continuous
 62
     7
370
    25
100
AcDbLine
 10
1256.4582964976
 20
2364.6167863052
 30
0.0
 11
1257.9070664976
 21
2364.6167863052
 31
0.0
  0
LINE
  5
21C
330
1F
100
AcDbEntity
  8
0
  6
Continuous
 62
     7
370
    25
100
AcDbLine
 10
1255.0095264976
 20
2364.6167863052
 30
0.0
 11
1256.4582964976
 21
2364.6167863052
 31
0.0
  0
LINE
  5
21D
330
1F
100
AcDbEntity
  8
0
  6
Continuous
 62
     7
370
    25
100
AcDbLine
 10
1202.2582964976
 20
2365.8867863052
 30
0.0
 11
1205.1082964976
 21
2365.8867863052
 31
0.0
  0
LINE
  5
21E
330
1F
100
AcDbEntity
  8
0
  6
Continuous
 62
     7
370
    25
100
AcDbLine
 10
1199.4082964976
 20
2365.8867863052
 30
0.0
 11
1202.2582964976
 21
2365.8867863052
 31
0.0
  0
LINE
  5
21F
330
1F
100
AcDbEntity
  8
0
  6
Continuous
 62
     7
370
    25
100
AcDbLine
 10
1202.2582964976
 20
2364.6167863052
 30
0.0
 11
1203.7070664976
 21
2364.6167863052
 31
0.0
  0
LINE
  5
220
330
1F
100
AcDbEntity
  8
0
  6
Continuous
 62
     7
370
    25
100
AcDbLine
 10
1200.8095264976
 20
2364.6167863052
 30
0.0
 11
1202.2582964976
 21
2364.6167863052
 31
0.0
  0
LINE
  5
221
330
1F
100
AcDbEntity
  8
0
  6
Continuous
 62
     7
370
    25
100
AcDbLine
 10
1537.8582964976
 20
2365.8867863052
 30
0.0
 11
1540.7082964976
 21
2365.8867863052
 31
0.0
  0
LINE
  5
222
330
1F
100
AcDbEntity
  8
0
  6
Continuous
 62
     7
370
    25
100
AcDbLine
 10
1535.0082964976
 20
2365.8867863052
 30
0.0
 11
1537.8582964976
 21
2365.8867863052
 31
0.0
  0
LINE
  5
223
330
1F
100
AcDbEntity
  8
0
  6
Continuous
 62
     7
370
    25
100
AcDbLine
 10
1537.8582964976
 20
2364.6167863052
 30
0.0
 11
1539.3070664976
 21
2364.6167863052
 31
0.0
  0
LINE
  5
224
330
1F
100
AcDbEntity
  8
0
  6
Continuous
 62
     7
370
    25
100
AcDbLine
 10
1536.4095264976
 20
2364.6167863052
 30
0.0
 11
1537.8582964976
 21
2364.6167863052
 31
0.0
  0
LINE
  5
225
330
1F
100
AcDbEntity
  8
0
  6
Continuous
 62
     7
370
    25
100
AcDbLine
 10
1429.4582964976
 20
2365.8867863052
 30
0.0
 11
1432.3082964976
 21
2365.8867863052
 31
0.0
  0
LINE
  5
226
330
1F
100
AcDbEntity
  8
0
  6
Continuous
 62
     7
370
    25
100
AcDbLine
 10
1426.6082964976
 20
2365.8867863052
 30
0.0
 11
1429.4582964976
 21
2365.8867863052
 31
0.0
  0
LINE
  5
227
330
1F
100
AcDbEntity
  8
0
  6
Continuous
 62
     7
370
    25
100
AcDbLine
 10
1429.4582964976
 20
2364.6167863052
 30
0.0
 11
1430.9070664976
 21
2364.6167863052
 31
0.0
  0
LINE
  5
228
330
1F
100
AcDbEntity
  8
0
  6
Continuous
 62
     7
370
    25
100
AcDbLine
 10
1428.0095264976
 20
2364.6167863052
 30
0.0
 11
1429.4582964976
 21
2364.6167863052
 31
0.0
  0
LINE
  5
229
330
1F
100
AcDbEntity
  8
0
  6
Continuous
 62
     7
370
    25
100
AcDbLine
 10
1478.0778463118
 20
2366.2665413769
 30
0.0
 11
1478.0621980441
 21
2366.2667863052
 31
0.0
  0
LINE
  5
22A
330
1F
100
AcDbEntity
  8
0
  6
Continuous
 62
     7
370
    25
100
AcDbLine
 10
1474.6582964962
 20
2366.2667863052
 30
0.0
 11
1474.6582964962
 21
2366.2665436291
 31
0.0
  0
LINE
  5
22B
330
1F
100
AcDbEntity
  8
0
  6
Continuous
 62
     7
370
    25
100
AcDbLine
 10
1420.4374890658
 20
2366.2667863052
 30
0.0
 11
1420.4374890658
 21
2366.2665436291
 31
0.0
  0
LINE
  5
22C
330
1F
100
AcDbEntity
  8
0
  6
Continuous
 62
     7
370
    25
100
AcDbLine
 10
1532.2790063927
 20
2366.2665413769
 30
0.0
 11
1532.2633585758
 21
2366.2667863052
 31
0.0
  0
LINE
  5
22D
330
1F
100
AcDbEntity
  8
0
  6
Continuous
 62
     7
370
    25
100
AcDbLine
 10
1528.8595550216
 20
2366.2667863052
 30
0.0
 11
1528.8595550216
 21
2366.2665436291
 31
0.0
  0
LINE
  5
22E
330
1F
100
AcDbEntity
  8
0
  6
Continuous
 62
     7
370
    25
100
AcDbLine
 10
1541.4778463126
 20
2366.2665413769
 30
0.0
 11
1541.4621980449
 21
2366.2667863052
 31
0.0
  0
LINE
  5
22F
330
1F
100
AcDbEntity
  8
0
  6
Continuous
 62
     7
370
    25
100
AcDbLine
 10
1371.6720219973
 20
2366.2676498523
 30
0.0
 11
1371.6720252733
 21
2366.2676500708
 31
0.0
  0
SPLINE
  5
230
330
1F
100
AcDbEntity
  8
0
  6
Continuous
 62
     7
370
    25
100
AcDbSpline
210
0.0
220
0.0
230
1.0
 70
    24
 71
     3
 72
    13
 73
     9
 74
     0
 42
0.000000001
 43
0.00000001
 40
0.0
 40
0.0
 40
0.0
 40
0.0
 40
0.3712782459557558
 40
0.6803365925414384
 40
0.8310527019428244
 40
0.9539295142035236
 40
0.9862328813010346
 40
1.0
 40
1.0
 40
1.0
 40
1.0
 10
1516.760768229597
 20
2362.616541376886
 30
0.0
 10
1517.84070962967
 20
2362.616541376885
 30
0.0
 10
1519.81961267684
 20
2362.616541376886
 30
0.0
 10
1522.084144689374
 20
2362.616541376887
 30
0.0
 10
1523.416383443028
 20
2362.616541376886
 30
0.0
 10
1523.99840219252
 20
2362.616541376887
 30
0.0
 10
1524.219846303083
 20
2362.616541376885
 30
0.0
 10
1524.231129825609
 20
2362.616541376887
 30
0.0
 10
1524.234501650135
 20
2362.616541376887
 30
0.0
  0
LINE
  5
231
330
1F
100
AcDbEntity
  8
0
  6
Continuous
 62
     7
370
    25
100
AcDbLine
 10
1516.6144993216
 20
2362.6192165957
 30
0.0
 11
1516.7607682296
 21
2362.6165413769
 31
0.0
  0
SPLINE
  5
232
330
1F
100
AcDbEntity
  8
0
  6
Continuous
 62
     7
370
    25
100
AcDbSpline
210
0.0
220
0.0
230
1.0
 70
    24
 71
     3
 72
    13
 73
     9
 74
     0
 42
0.000000001
 43
0.00000001
 40
0.0
 40
0.0
 40
0.0
 40
0.0
 40
0.3712782459034367
 40
0.680336592470469
 40
0.8310527018268193
 40
0.953929514089379
 40
0.9862328811936638
 40
1.0
 40
1.0
 40
1.0
 40
1.0
 10
1389.760768229684
 20
2362.616541376887
 30
0.0
 10
1390.840709629681
 20
2362.616541376887
 30
0.0
 10
1392.819612676785
 20
2362.616541376887
 30
0.0
 10
1395.08414468936
 20
2362.616541376887
 30
0.0
 10
1396.416383442779
 20
2362.616541376888
 30
0.0
 10
1396.998402192082
 20
2362.616541376886
 30
0.0
 10
1397.219846303258
 20
2362.616541376888
 30
0.0
 10
1397.231129825756
 20
2362.616541376887
 30
0.0
 10
1397.234501650292
 20
2362.616541376887
 30
0.0
  0
LINE
  5
233
330
1F
100
AcDbEntity
  8
0
  6
Continuous
 62
     7
370
    25
100
AcDbLine
 10
1389.6144993216
 20
2362.6192165957
 30
0.0
 11
1389.7607682297
 21
2362.6165413769
 31
0.0
  0
SPLINE
  5
234
330
1F
100
AcDbEntity
  8
0
  6
Continuous
 62
     7
370
    25
100
AcDbSpline
210
0.0
220
0.0
230
1.0
 70
    24
 71
     3
 72
    13
 73
     9
 74
     0
 42
0.000000001
 43
0.00000001
 40
0.0
 40
0.0
 40
0.0
 40
0.0
 40
0.3712782459489366
 40
0.6803365925380965
 40
0.831052701941143
 40
0.9539295142032197
 40
0.9862328813010915
 40
1.0
 40
1.0
 40
1.0
 40
1.0
 10
1491.360768229698
 20
2362.616541376889
 30
0.0
 10
1492.440709629735
 20
2362.616541376888
 30
0.0
 10
1494.419612676869
 20
2362.616541376887
 30
0.0
 10
1496.684144689373
 20
2362.616541376886
 30
0.0
 10
1498.016383443027
 20
2362.616541376886
 30
0.0
 10
1498.598402192518
 20
2362.616541376886
 30
0.0
 10
1498.819846303083
 20
2362.616541376886
 30
0.0
 10
1498.831129825608
 20
2362.616541376887
 30
0.0
 10
1498.834501650135
 20
2362.616541376886
 30
0.0
  0
LINE
  5
235
330
1F
100
AcDbEntity
  8
0
  6
Continuous
 62
     7
370
    25
100
AcDbLine
 10
1491.2144993216
 20
2362.6192165957
 30
0.0
 11
1491.3607682297
 21
2362.6165413769
 31
0.0
  0
SPLINE
  5
236
330
1F
100
AcDbEntity
  8
0
  6
Continuous
 62
     7
370
    25
100
AcDbSpline
210
0.0
220
0.0
230
1.0
 70
    24
 71
     3
 72
    13
 73
     9
 74
     0
 42
0.000000001
 43
0.00000001
 40
0.0
 40
0.0
 40
0.0
 40
0.0
 40
0.3712782458981311
 40
0.6803365924585809
 40
0.8310527018154122
 40
0.9539295140747308
 40
0.9862328811783045
 40
1.0
 40
1.0
 40
1.0
 40
1.0
 10
1465.960768229697
 20
2362.616541376886
 30
0.0
 10
1467.040709629697
 20
2362.616541376887
 30
0.0
 10
1469.019612676799
 20
2362.616541376887
 30
0.0
 10
1471.28414468936
 20
2362.616541376888
 30
0.0
 10
1472.616383442796
 20
2362.616541376886
 30
0.0
 10
1473.198402192115
 20
2362.616541376888
 30
0.0
 10
1473.419846303269
 20
2362.616541376886
 30
0.0
 10
1473.431129825776
 20
2362.616541376887
 30
0.0
 10
1473.434501650318
 20
2362.616541376887
 30
0.0
  0
LINE
  5
237
330
1F
100
AcDbEntity
  8
0
  6
Continuous
 62
     7
370
    25
100
AcDbLine
 10
1465.8144993216
 20
2362.6192165957
 30
0.0
 11
1465.9607682297
 21
2362.6165413769
 31
0.0
  0
SPLINE
  5
238
330
1F
100
AcDbEntity
  8
0
  6
Continuous
 62
     7
370
    25
100
AcDbSpline
210
0.0
220
0.0
230
1.0
 70
    24
 71
     3
 72
    13
 73
     9
 74
     0
 42
0.000000001
 43
0.00000001
 40
0.0
 40
0.0
 40
0.0
 40
0.0
 40
0.3712782458982274
 40
0.6803365924586809
 40
0.8310527018155387
 40
0.9539295140748666
 40
0.9862328811784337
 40
1.0
 40
1.0
 40
1.0
 40
1.0
 10
1415.160768229696
 20
2362.616541376886
 30
0.0
 10
1416.240709629695
 20
2362.616541376887
 30
0.0
 10
1418.219612676797
 20
2362.616541376886
 30
0.0
 10
1420.484144689359
 20
2362.616541376888
 30
0.0
 10
1421.816383442795
 20
2362.616541376887
 30
0.0
 10
1422.398402192115
 20
2362.616541376886
 30
0.0
 10
1422.619846303267
 20
2362.616541376887
 30
0.0
 10
1422.631129825775
 20
2362.616541376887
 30
0.0
 10
1422.634501650317
 20
2362.616541376887
 30
0.0
  0
LINE
  5
239
330
1F
100
AcDbEntity
  8
0
  6
Continuous
 62
     7
370
    25
100
AcDbLine
 10
1415.0144993216
 20
2362.6192165957
 30
0.0
 11
1415.1607682297
 21
2362.6165413769
 31
0.0
  0
SPLINE
  5
23A
330
1F
100
AcDbEntity
  8
0
  6
Continuous
 62
     7
370
    25
100
AcDbSpline
210
0.0
220
0.0
230
1.0
 70
    24
 71
     3
 72
    13
 73
     9
 74
     0
 42
0.000000001
 43
0.00000001
 40
0.0
 40
0.0
 40
0.0
 40
0.0
 40
0.3712782458981606
 40
0.6803365924585899
 40
0.8310527018154181
 40
0.9539295140747425
 40
0.9862328811783108
 40
1.0
 40
1.0
 40
1.0
 40
1.0
 10
1440.560768229697
 20
2362.616541376887
 30
0.0
 10
1441.640709629697
 20
2362.616541376888
 30
0.0
 10
1443.619612676799
 20
2362.616541376888
 30
0.0
 10
1445.884144689359
 20
2362.616541376887
 30
0.0
 10
1447.216383442796
 20
2362.616541376886
 30
0.0
 10
1447.798402192115
 20
2362.616541376888
 30
0.0
 10
1448.019846303268
 20
2362.616541376886
 30
0.0
 10
1448.031129825775
 20
2362.616541376887
 30
0.0
 10
1448.034501650317
 20
2362.616541376887
 30
0.0
  0
LINE
  5
23B
330
1F
100
AcDbEntity
  8
0
  6
Continuous
 62
     7
370
    25
100
AcDbLine
 10
1440.4144993216
 20
2362.6192165957
 30
0.0
 11
1440.5607682297
 21
2362.6165413769
 31
0.0
  0
SPLINE
  5
23C
330
1F
100
AcDbEntity
  8
0
  6
Continuous
 62
     7
370
    25
100
AcDbSpline
210
0.0
220
0.0
230
1.0
 70
     8
 71
     3
 72
    15
 73
    11
 74
     0
 42
0.000000001
 43
0.00000001
 40
0.0
 40
0.0
 40
0.0
 40
0.0
 40
0.0805955916524031
 40
0.2118440208099434
 40
0.4658274000836723
 40
0.72219538695322
 40
0.7463945916325422
 40
0.788958318397544
 40
0.8571994517773621
 40
0.9999999999999999
 40
0.9999999999999999
 40
0.9999999999999999
 40
0.9999999999999999
 10
1385.797691986092
 20
2366.266541376885
 30
0.0
 10
1385.809516236243
 20
2366.103639243226
 30
0.0
 10
1385.840596058896
 20
2365.675454000268
 30
0.0
 10
1386.146838807661
 20
2364.795049728425
 30
0.0
 10
1386.849546763669
 20
2363.72962081916
 30
0.0
 10
1387.745720155426
 20
2363.123277634762
 30
0.0
 10
1388.312305297915
 20
2362.88636511232
 30
0.0
 10
1388.552276968555
 20
2362.799157324088
 30
0.0
 10
1389.022632387232
 20
2362.667479643844
 30
0.0
 10
1389.375638847689
 20
2362.638694173973
 30
0.0
 10
1389.614499321584
 20
2362.619216595672
 30
0.0
  0
SPLINE
  5
23D
330
1F
100
AcDbEntity
  8
0
  6
Continuous
 62
     7
370
    25
100
AcDbSpline
210
0.0
220
0.0
230
1.0
 70
     8
 71
     3
 72
    15
 73
    11
 74
     0
 42
0.000000001
 43
0.00000001
 40
0.0
 40
0.0
 40
0.0
 40
0.0
 40
0.0805955916518951
 40
0.2118440208079034
 40
0.4658274000784397
 40
0.7221953869540916
 40
0.7463945917108723
 40
0.7889583183952875
 40
0.8571994517718651
 40
1.0
 40
1.0
 40
1.0
 40
1.0
 10
1436.597691986102
 20
2366.266541376891
 30
0.0
 10
1436.609516236252
 20
2366.103639243232
 30
0.0
 10
1436.640596058902
 20
2365.675454000278
 30
0.0
 10
1436.946838807663
 20
2364.795049728445
 30
0.0
 10
1437.649546763666
 20
2363.72962081917
 30
0.0
 10
1438.545720155547
 20
2363.123277634676
 30
0.0
 10
1439.112305298066
 20
2362.886365112267
 30
0.0
 10
1439.352276968693
 20
2362.799157324055
 30
0.0
 10
1439.822632387224
 20
2362.667479643845
 30
0.0
 10
1440.175638847689
 20
2362.638694173974
 30
0.0
 10
1440.414499321597
 20
2362.619216595671
 30
0.0
  0
SPLINE
  5
23E
330
1F
100
AcDbEntity
  8
0
  6
Continuous
 62
     7
370
    25
100
AcDbSpline
210
0.0
220
0.0
230
1.0
 70
     8
 71
     3
 72
    15
 73
    11
 74
     0
 42
0.000000001
 43
0.00000001
 40
0.0
 40
0.0
 40
0.0
 40
0.0
 40
0.0805955916406916
 40
0.2118440208057668
 40
0.4658274000413561
 40
0.7221953869194082
 40
0.7463945909883604
 40
0.7889583183664631
 40
0.8571994517247347
 40
1.0
 40
1.0
 40
1.0
 40
1.0
 10
1512.797691986001
 20
2366.266541376889
 30
0.0
 10
1512.809516236149
 20
2366.103639243251
 30
0.0
 10
1512.840596058796
 20
2365.675454000297
 30
0.0
 10
1513.146838807543
 20
2364.795049728508
 30
0.0
 10
1513.84954676345
 20
2363.729620819283
 30
0.0
 10
1514.745720154242
 20
2363.1232776355
 30
0.0
 10
1515.312305296603
 20
2362.886365112788
 30
0.0
 10
1515.55227696721
 20
2362.799157324444
 30
0.0
 10
1516.022632387018
 20
2362.667479643864
 30
0.0
 10
1516.375638847578
 20
2362.638694173981
 30
0.0
 10
1516.614499321598
 20
2362.619216595667
 30
0.0
  0
SPLINE
  5
23F
330
1F
100
AcDbEntity
  8
0
  6
Continuous
 62
     7
370
    25
100
AcDbSpline
210
0.0
220
0.0
230
1.0
 70
     8
 71
     3
 72
    15
 73
    11
 74
     0
 42
0.000000001
 43
0.00000001
 40
0.0
 40
0.0
 40
0.0
 40
0.0
 40
0.0805955916507481
 40
0.2118440208068747
 40
0.4658274000777878
 40
0.7221953869537403
 40
0.746394591740464
 40
0.7889583183950618
 40
0.8571994517717301
 40
1.0
 40
1.0
 40
1.0
 40
1.0
 10
1411.197691986102
 20
2366.26654137689
 30
0.0
 10
1411.209516236252
 20
2366.103639243233
 30
0.0
 10
1411.240596058902
 20
2365.675454000281
 30
0.0
 10
1411.546838807662
 20
2364.795049728449
 30
0.0
 10
1412.24954676367
 20
2363.729620819176
 30
0.0
 10
1413.145720155591
 20
2363.123277634654
 30
0.0
 10
1413.712305298121
 20
2362.886365112252
 30
0.0
 10
1413.952276968746
 20
2362.799157324045
 30
0.0
 10
1414.422632387225
 20
2362.667479643853
 30
0.0
 10
1414.775638847689
 20
2362.638694173977
 30
0.0
 10
1415.014499321596
 20
2362.619216595671
 30
0.0
  0
SPLINE
  5
240
330
1F
100
AcDbEntity
  8
0
  6
Continuous
 62
     7
370
    25
100
AcDbSpline
210
0.0
220
0.0
230
1.0
 70
     8
 71
     3
 72
    15
 73
    11
 74
     0
 42
0.000000001
 43
0.00000001
 40
0.0
 40
0.0
 40
0.0
 40
0.0
 40
0.0805958564975749
 40
0.2118442478458222
 40
0.465827553953399
 40
0.722195466979097
 40
0.7463946647471689
 40
0.7889583791884369
 40
0.8571994929073234
 40
1.0
 40
1.0
 40
1.0
 40
1.0
 10
1487.397691803348
 20
2366.266543109228
 30
0.0
 10
1487.40951608464
 20
2366.103640390472
 30
0.0
 10
1487.440595920321
 20
2365.675454557765
 30
0.0
 10
1487.746838774208
 20
2364.795049719847
 30
0.0
 10
1488.449546775699
 20
2363.729620822264
 30
0.0
 10
1489.345720155282
 20
2363.123277634639
 30
0.0
 10
1489.912305298059
 20
2362.886365112287
 30
0.0
 10
1490.152276968648
 20
2362.799157324061
 30
0.0
 10
1490.622632387234
 20
2362.66747964385
 30
0.0
 10
1490.975638847694
 20
2362.638694173977
 30
0.0
 10
1491.214499321598
 20
2362.619216595673
 30
0.0
  0
SPLINE
  5
241
330
1F
100
AcDbEntity
  8
0
  6
Continuous
 62
     7
370
    25
100
AcDbSpline
210
0.0
220
0.0
230
1.0
 70
     8
 71
     3
 72
    15
 73
    11
 74
     0
 42
0.000000001
 43
0.00000001
 40
0.0
 40
0.0
 40
0.0
 40
0.0
 40
0.0805955916512797
 40
0.2118440208073942
 40
0.4658274000780916
 40
0.7221953869539259
 40
0.7463945916098154
 40
0.788958318395157
 40
0.8571994517717614
 40
1.0
 40
1.0
 40
1.0
 40
1.0
 10
1461.997691986103
 20
2366.266541376887
 30
0.0
 10
1462.009516236253
 20
2366.103639243229
 30
0.0
 10
1462.040596058903
 20
2365.675454000276
 30
0.0
 10
1462.346838807664
 20
2364.795049728444
 30
0.0
 10
1463.049546763661
 20
2363.729620819175
 30
0.0
 10
1463.945720155394
 20
2363.123277634786
 30
0.0
 10
1464.512305297882
 20
2362.886365112337
 30
0.0
 10
1464.752276968509
 20
2362.799157324103
 30
0.0
 10
1465.222632387222
 20
2362.667479643847
 30
0.0
 10
1465.575638847689
 20
2362.638694173976
 30
0.0
 10
1465.814499321597
 20
2362.619216595671
 30
0.0
  0
SPLINE
  5
242
330
1F
100
AcDbEntity
  8
0
  6
Continuous
 62
     7
370
    25
100
AcDbSpline
210
0.0
220
0.0
230
1.0
 70
    24
 71
     3
 72
    12
 73
     8
 74
     0
 42
0.000000001
 43
0.00000001
 40
0.0
 40
0.0
 40
0.0
 40
0.0
 40
0.2478705387805899
 40
0.3755998671100477
 40
0.5035165518006993
 40
0.7478516232618198
 40
1.0
 40
1.0
 40
1.0
 40
1.0
 10
1507.358297545596
 20
2365.966541376886
 30
0.0
 10
1507.130705711721
 20
2365.966541376886
 30
0.0
 10
1506.785834300299
 20
2365.966541376886
 30
0.0
 10
1506.377556305913
 20
2365.966541376888
 30
0.0
 10
1506.026016858789
 20
2365.966541376885
 30
0.0
 10
1505.686882999854
 20
2365.966541376887
 30
0.0
 10
1505.634463920459
 20
2365.966541376886
 30
0.0
 10
1505.607841913567
 20
2365.966541376887
 30
0.0
  0
SPLINE
  5
243
330
1F
100
AcDbEntity
  8
0
  6
Continuous
 62
     7
370
    25
100
AcDbSpline
210
0.0
220
0.0
230
1.0
 70
    24
 71
     3
 72
    13
 73
     9
 74
     0
 42
0.000000001
 43
0.00000001
 40
0.0
 40
0.0
 40
0.0
 40
0.0
 40
0.2394429510695477
 40
0.3696236518009208
 40
0.4999999119398931
 40
0.6301807006680338
 40
0.7605570489300283
 40
0.9999999999999999
 40
0.9999999999999999
 40
0.9999999999999999
 40
0.9999999999999999
 10
1509.108751079627
 20
2365.966541376887
 30
0.0
 10
1509.08524132815
 20
2365.966541376887
 30
0.0
 10
1509.048949759929
 20
2365.966541376887
 30
0.0
 10
1508.831033948256
 20
2365.966541376887
 30
0.0
 10
1508.604900331934
 20
2365.966541376887
 30
0.0
 10
1508.326327831516
 20
2365.966541376886
 30
0.0
 10
1507.918404947455
 20
2365.966541376887
 30
0.0
 10
1507.578422408295
 20
2365.966541376886
 30
0.0
 10
1507.358297545596
 20
2365.966541376887
 30
0.0
  0
SPLINE
  5
244
330
1F
100
AcDbEntity
  8
0
  6
Continuous
 62
     7
370
    25
100
AcDbSpline
210
0.0
220
0.0
230
1.0
 70
    24
 71
     3
 72
    13
 73
     9
 74
     0
 42
0.000000001
 43
0.00000001
 40
0.0
 40
0.0
 40
0.0
 40
0.0
 40
0.2394429510673791
 40
0.369623651801059
 40
0.4999999119394501
 40
0.6301807006685816
 40
0.7605570489314244
 40
1.0
 40
1.0
 40
1.0
 40
1.0
 10
1407.508751079225
 20
2365.966541376888
 30
0.0
 10
1407.485241327713
 20
2365.966541376888
 30
0.0
 10
1407.448949759437
 20
2365.966541376888
 30
0.0
 10
1407.231033947667
 20
2365.966541376886
 30
0.0
 10
1407.004900331266
 20
2365.966541376888
 30
0.0
 10
1406.72632783077
 20
2365.966541376887
 30
0.0
 10
1406.318404946618
 20
2365.966541376888
 30
0.0
 10
1405.978422407416
 20
2365.966541376889
 30
0.0
 10
1405.758297544692
 20
2365.966541376889
 30
0.0
  0
SPLINE
  5
245
330
1F
100
AcDbEntity
  8
0
  6
Continuous
 62
     7
370
    25
100
AcDbSpline
210
0.0
220
0.0
230
1.0
 70
    24
 71
     3
 72
    12
 73
     8
 74
     0
 42
0.000000001
 43
0.00000001
 40
0.0
 40
0.0
 40
0.0
 40
0.0
 40
0.2478705387804226
 40
0.3755998671114281
 40
0.5035165517996744
 40
0.747851623261992
 40
1.0
 40
1.0
 40
1.0
 40
1.0
 10
1405.758297544692
 20
2365.966541376889
 30
0.0
 10
1405.530705710845
 20
2365.966541376888
 30
0.0
 10
1405.185834299465
 20
2365.966541376887
 30
0.0
 10
1404.777556305172
 20
2365.966541376887
 30
0.0
 10
1404.426016858146
 20
2365.966541376888
 30
0.0
 10
1404.08688299934
 20
2365.966541376887
 30
0.0
 10
1404.034463920019
 20
2365.966541376888
 30
0.0
 10
1404.007841913165
 20
2365.966541376888
 30
0.0
  0
SPLINE
  5
246
330
1F
100
AcDbEntity
  8
0
  6
Continuous
 62
     7
370
    25
100
AcDbSpline
210
0.0
220
0.0
230
1.0
 70
    24
 71
     3
 72
    10
 73
     6
 74
     0
 42
0.000000001
 43
0.00000001
 40
0.0
 40
0.0
 40
0.0
 40
0.0
 40
0.500269830601415
 40
0.7722572791340417
 40
1.0
 40
1.0
 40
1.0
 40
1.0
 10
1432.908751079625
 20
2365.966541376887
 30
0.0
 10
1432.884573196069
 20
2365.966541376888
 30
0.0
 10
1432.847250244676
 20
2365.966541376887
 30
0.0
 10
1432.643498503176
 20
2365.966541376888
 30
0.0
 10
1432.498943447156
 20
2365.966541376888
 30
0.0
 10
1432.43306517166
 20
2365.966541376887
 30
0.0
  0
SPLINE
  5
247
330
1F
100
AcDbEntity
  8
0
  6
Continuous
 62
     7
370
    25
100
AcDbSpline
210
0.0
220
0.0
230
1.0
 70
    24
 71
     3
 72
    12
 73
     8
 74
     0
 42
0.000000001
 43
0.00000001
 40
0.0
 40
0.0
 40
0.0
 40
0.0
 40
0.2478705387800156
 40
0.3755998671077005
 40
0.503516551795567
 40
0.7478516232589129
 40
0.9999999999999999
 40
0.9999999999999999
 40
0.9999999999999999
 40
0.9999999999999999
 10
1456.558297545095
 20
2365.966541376887
 30
0.0
 10
1456.330705711248
 20
2365.966541376887
 30
0.0
 10
1455.985834299871
 20
2365.966541376887
 30
0.0
 10
1455.577556305573
 20
2365.966541376888
 30
0.0
 10
1455.226016858544
 20
2365.966541376888
 30
0.0
 10
1454.88688299974
 20
2365.966541376887
 30
0.0
 10
1454.834463920419
 20
2365.966541376887
 30
0.0
 10
1454.807841913566
 20
2365.966541376887
 30
0.0
  0
SPLINE
  5
248
330
1F
100
AcDbEntity
  8
0
  6
Continuous
 62
     7
370
    25
100
AcDbSpline
210
0.0
220
0.0
230
1.0
 70
    24
 71
     3
 72
    13
 73
     9
 74
     0
 42
0.000000001
 43
0.00000001
 40
0.0
 40
0.0
 40
0.0
 40
0.0
 40
0.2394429510694485
 40
0.3696236518021452
 40
0.4999999119398195
 40
0.6301807006698548
 40
0.7605570489301388
 40
1.0
 40
1.0
 40
1.0
 40
1.0
 10
1458.308751079626
 20
2365.966541376887
 30
0.0
 10
1458.285241328114
 20
2365.966541376887
 30
0.0
 10
1458.248949759839
 20
2365.966541376888
 30
0.0
 10
1458.03103394807
 20
2365.966541376887
 30
0.0
 10
1457.804900331665
 20
2365.966541376887
 30
0.0
 10
1457.52632783117
 20
2365.966541376888
 30
0.0
 10
1457.118404947014
 20
2365.966541376888
 30
0.0
 10
1456.778422407818
 20
2365.966541376887
 30
0.0
 10
1456.558297545095
 20
2365.966541376887
 30
0.0
  0
SPLINE
  5
249
330
1F
100
AcDbEntity
  8
0
  6
Continuous
 62
     7
370
    25
100
AcDbSpline
210
0.0
220
0.0
230
1.0
 70
    24
 71
     3
 72
    10
 73
     6
 74
     0
 42
0.000000001
 43
0.00000001
 40
0.0
 40
0.0
 40
0.0
 40
0.0
 40
0.0435085593803721
 40
0.514227986872074
 40
0.9999999999999999
 40
0.9999999999999999
 40
0.9999999999999999
 40
0.9999999999999999
 10
1480.762515558193
 20
2365.966541376887
 30
0.0
 10
1480.746519773297
 20
2365.966541376888
 30
0.0
 10
1480.557465472661
 20
2365.966541376889
 30
0.0
 10
1480.29160402251
 20
2365.966541376885
 30
0.0
 10
1480.236054018768
 20
2365.966541376887
 30
0.0
 10
1480.207841913566
 20
2365.966541376887
 30
0.0
  0
SPLINE
  5
24A
330
1F
100
AcDbEntity
  8
0
  6
Continuous
 62
     7
370
    25
100
AcDbSpline
210
0.0
220
0.0
230
1.0
 70
    24
 71
     3
 72
    11
 73
     7
 74
     0
 42
0.000000001
 43
0.00000001
 40
0.0
 40
0.0
 40
0.0
 40
0.0
 40
0.2500085351573945
 40
0.4999999999871857
 40
0.7499914648567709
 40
0.9999999999999999
 40
0.9999999999999999
 40
0.9999999999999999
 40
0.9999999999999999
 10
1505.224049819594
 20
2364.966541376893
 30
0.0
 10
1505.535788889002
 20
2364.966541376891
 30
0.0
 10
1506.159245742591
 20
2364.966541376885
 30
0.0
 10
1507.358296344428
 20
2364.966541376888
 30
0.0
 10
1508.55734696695
 20
2364.966541376885
 30
0.0
 10
1509.180803868993
 20
2364.96654137689
 30
0.0
 10
1509.492542962595
 20
2364.966541376893
 30
0.0
  0
SPLINE
  5
24B
330
1F
100
AcDbEntity
  8
0
  6
Continuous
 62
     7
370
    25
100
AcDbSpline
210
0.0
220
0.0
230
1.0
 70
     8
 71
     3
 72
    11
 73
     7
 74
     0
 42
0.000000001
 43
0.00000001
 40
0.0
 40
0.0
 40
0.0
 40
0.0
 40
0.2500000000005053
 40
0.5000000000003525
 40
0.7500000000000799
 40
1.0
 40
1.0
 40
1.0
 40
1.0
 10
1407.892543174092
 20
2364.966541376894
 30
0.0
 10
1408.070889739643
 20
2364.984879774227
 30
0.0
 10
1408.427582870744
 20
2365.021556568893
 30
0.0
 10
1408.926782299289
 20
2365.315290293967
 30
0.0
 10
1409.368717436188
 20
2365.755819872677
 30
0.0
 10
1409.580891824447
 20
2366.162967542136
 30
0.0
 10
1409.686979018576
 20
2366.366541376867
 30
0.0
  0
SPLINE
  5
24C
330
1F
100
AcDbEntity
  8
0
  6
Continuous
 62
     7
370
    25
100
AcDbSpline
210
0.0
220
0.0
230
1.0
 70
    24
 71
     3
 72
    11
 73
     7
 74
     0
 42
0.000000001
 43
0.00000001
 40
0.0
 40
0.0
 40
0.0
 40
0.0
 40
0.2500085351474045
 40
0.4999999999419268
 40
0.7499914647585734
 40
1.0
 40
1.0
 40
1.0
 40
1.0
 10
1403.624050030492
 20
2364.96654137689
 30
0.0
 10
1403.935789124165
 20
2364.966541376888
 30
0.0
 10
1404.559246026252
 20
2364.966541376886
 30
0.0
 10
1405.758296648767
 20
2364.966541376888
 30
0.0
 10
1406.957347250722
 20
2364.966541376885
 30
0.0
 10
1407.58080410452
 20
2364.96654137689
 30
0.0
 10
1407.892543174092
 20
2364.966541376894
 30
0.0
  0
LINE
  5
24D
330
1F
100
AcDbEntity
  8
0
  6
Continuous
 62
     7
370
    25
100
AcDbLine
 10
1411.5334496113
 20
2364.9665413769
 30
0.0
 11
1407.8925431741
 21
2364.9665413769
 31
0.0
  0
LINE
  5
24E
330
1F
100
AcDbEntity
  8
0
  6
Continuous
 62
     7
370
    25
100
AcDbLine
 10
1513.1334496112
 20
2364.9665413769
 30
0.0
 11
1509.4925429626
 21
2364.9665413769
 31
0.0
  0
LINE
  5
24F
330
1F
100
AcDbEntity
  8
0
  6
Continuous
 62
     7
370
    25
100
AcDbLine
 10
1403.6240500305
 20
2364.9665413769
 30
0.0
 11
1400.8507696571
 21
2364.9665413769
 31
0.0
  0
LINE
  5
250
330
1F
100
AcDbEntity
  8
0
  6
Continuous
 62
     7
370
    25
100
AcDbLine
 10
1502.4504187393
 20
2364.9665413769
 30
0.0
 11
1505.2240498193
 21
2364.9665413769
 31
0.0
  0
SPLINE
  5
251
330
1F
100
AcDbEntity
  8
0
  6
Continuous
 62
     7
370
    25
100
AcDbSpline
210
0.0
220
0.0
230
1.0
 70
    24
 71
     3
 72
    13
 73
     9
 74
     0
 42
0.000000001
 43
0.00000001
 40
0.0
 40
0.0
 40
0.0
 40
0.0
 40
0.2394568447497091
 40
0.3683606604662799
 40
0.5000000000000153
 40
0.6316393395337635
 40
0.7605431552503293
 40
1.0
 40
1.0
 40
1.0
 40
1.0
 10
1456.558296844896
 20
2364.966541376887
 30
0.0
 10
1457.061309202235
 20
2364.966541376887
 30
0.0
 10
1457.835101926204
 20
2364.966541376886
 30
0.0
 10
1458.76604618472
 20
2364.966541376888
 30
0.0
 10
1459.406652825229
 20
2364.966541376886
 30
0.0
 10
1459.922722439598
 20
2364.966541376888
 30
0.0
 10
1460.421341354389
 20
2364.966541376888
 30
0.0
 10
1460.503508379582
 20
2364.966541376888
 30
0.0
 10
1460.556921945977
 20
2364.966541376887
 30
0.0
  0
SPLINE
  5
252
330
1F
100
AcDbEntity
  8
0
  6
Continuous
 62
     7
370
    25
100
AcDbSpline
210
0.0
220
0.0
230
1.0
 70
    24
 71
     3
 72
    12
 73
     8
 74
     0
 42
0.000000001
 43
0.00000001
 40
0.0
 40
0.0
 40
0.0
 40
0.0
 40
0.2521549598265349
 40
0.4964964130735503
 40
0.6238843157582467
 40
0.7521229883417142
 40
1.0
 40
1.0
 40
1.0
 40
1.0
 10
1452.559671047217
 20
2364.966541376887
 30
0.0
 10
1452.620530551645
 20
2364.966541376887
 30
0.0
 10
1452.740363711664
 20
2364.966541376887
 30
0.0
 10
1453.513839300176
 20
2364.966541376886
 30
0.0
 10
1454.317763093979
 20
2364.966541376888
 30
0.0
 10
1455.24918721868
 20
2364.966541376887
 30
0.0
 10
1456.038261619786
 20
2364.966541376887
 30
0.0
 10
1456.558296844896
 20
2364.966541376887
 30
0.0
  0
LINE
  5
253
330
1F
100
AcDbEntity
  8
0
  6
Continuous
 62
     7
370
    25
100
AcDbLine
 10
1305.0778463118
 20
2366.2665413769
 30
0.0
 11
1305.0621980443
 21
2366.2667863052
 31
0.0
  0
LINE
  5
254
330
1F
100
AcDbEntity
  8
0
  6
Continuous
 62
     7
370
    25
100
AcDbLine
 10
1301.6582964962
 20
2366.2667863052
 30
0.0
 11
1301.6582964962
 21
2366.2665436291
 31
0.0
  0
LINE
  5
255
330
1F
100
AcDbEntity
  8
0
  6
Continuous
 62
     7
370
    25
100
AcDbLine
 10
1247.4374890658
 20
2366.2667863052
 30
0.0
 11
1247.4374890658
 21
2366.2665436291
 31
0.0
  0
LINE
  5
256
330
1F
100
AcDbEntity
  8
0
  6
Continuous
 62
     7
370
    25
100
AcDbLine
 10
1359.2790063927
 20
2366.2665413769
 30
0.0
 11
1359.2633585759
 21
2366.2667863052
 31
0.0
  0
LINE
  5
257
330
1F
100
AcDbEntity
  8
0
  6
Continuous
 62
     7
370
    25
100
AcDbLine
 10
1355.8595550216
 20
2366.2667863052
 30
0.0
 11
1355.8595550216
 21
2366.2665436291
 31
0.0
  0
LINE
  5
258
330
1F
100
AcDbEntity
  8
0
  6
Continuous
 62
     7
370
    25
100
AcDbLine
 10
1368.4778463126
 20
2366.2665413769
 30
0.0
 11
1368.4621980449
 21
2366.2667863052
 31
0.0
  0
LINE
  5
259
330
1F
100
AcDbEntity
  8
0
  6
Continuous
 62
     7
370
    25
100
AcDbLine
 10
1198.6720219973
 20
2366.2676498523
 30
0.0
 11
1198.6720252733
 21
2366.2676500708
 31
0.0
  0
SPLINE
  5
25A
330
1F
100
AcDbEntity
  8
0
  6
Continuous
 62
     7
370
    25
100
AcDbSpline
210
0.0
220
0.0
230
1.0
 70
    24
 71
     3
 72
    13
 73
     9
 74
     0
 42
0.000000001
 43
0.00000001
 40
0.0
 40
0.0
 40
0.0
 40
0.0
 40
0.3712782459557535
 40
0.6803365925414563
 40
0.8310527019428224
 40
0.9539295142035208
 40
0.9862328813010317
 40
0.9999999999999999
 40
0.9999999999999999
 40
0.9999999999999999
 40
0.9999999999999999
 10
1343.760768229598
 20
2362.616541376887
 30
0.0
 10
1344.84070962967
 20
2362.616541376886
 30
0.0
 10
1346.81961267684
 20
2362.616541376887
 30
0.0
 10
1349.084144689374
 20
2362.616541376888
 30
0.0
 10
1350.416383443028
 20
2362.616541376888
 30
0.0
 10
1350.998402192519
 20
2362.616541376887
 30
0.0
 10
1351.219846303084
 20
2362.616541376888
 30
0.0
 10
1351.231129825609
 20
2362.616541376887
 30
0.0
 10
1351.234501650135
 20
2362.616541376887
 30
0.0
  0
LINE
  5
25B
330
1F
100
AcDbEntity
  8
0
  6
Continuous
 62
     7
370
    25
100
AcDbLine
 10
1343.6144993216
 20
2362.6192165957
 30
0.0
 11
1343.7607682296
 21
2362.6165413769
 31
0.0
  0
SPLINE
  5
25C
330
1F
100
AcDbEntity
  8
0
  6
Continuous
 62
     7
370
    25
100
AcDbSpline
210
0.0
220
0.0
230
1.0
 70
    24
 71
     3
 72
    13
 73
     9
 74
     0
 42
0.000000001
 43
0.00000001
 40
0.0
 40
0.0
 40
0.0
 40
0.0
 40
0.3712782459034367
 40
0.680336592470469
 40
0.8310527018268193
 40
0.953929514089379
 40
0.9862328811936638
 40
1.0
 40
1.0
 40
1.0
 40
1.0
 10
1216.760768229684
 20
2362.616541376888
 30
0.0
 10
1217.840709629681
 20
2362.616541376888
 30
0.0
 10
1219.819612676785
 20
2362.616541376887
 30
0.0
 10
1222.08414468936
 20
2362.616541376888
 30
0.0
 10
1223.416383442779
 20
2362.616541376889
 30
0.0
 10
1223.998402192082
 20
2362.616541376887
 30
0.0
 10
1224.219846303258
 20
2362.616541376889
 30
0.0
 10
1224.231129825756
 20
2362.616541376888
 30
0.0
 10
1224.234501650292
 20
2362.616541376888
 30
0.0
  0
LINE
  5
25D
330
1F
100
AcDbEntity
  8
0
  6
Continuous
 62
     7
370
    25
100
AcDbLine
 10
1216.6144993216
 20
2362.6192165957
 30
0.0
 11
1216.7607682297
 21
2362.6165413769
 31
0.0
  0
SPLINE
  5
25E
330
1F
100
AcDbEntity
  8
0
  6
Continuous
 62
     7
370
    25
100
AcDbSpline
210
0.0
220
0.0
230
1.0
 70
    24
 71
     3
 72
    13
 73
     9
 74
     0
 42
0.000000001
 43
0.00000001
 40
0.0
 40
0.0
 40
0.0
 40
0.0
 40
0.3712782459489366
 40
0.6803365925380965
 40
0.831052701941143
 40
0.9539295142032197
 40
0.9862328813010915
 40
1.0
 40
1.0
 40
1.0
 40
1.0
 10
1318.360768229698
 20
2362.616541376889
 30
0.0
 10
1319.440709629736
 20
2362.616541376889
 30
0.0
 10
1321.419612676869
 20
2362.616541376888
 30
0.0
 10
1323.684144689373
 20
2362.616541376886
 30
0.0
 10
1325.016383443028
 20
2362.616541376888
 30
0.0
 10
1325.598402192518
 20
2362.616541376886
 30
0.0
 10
1325.819846303083
 20
2362.616541376888
 30
0.0
 10
1325.831129825608
 20
2362.616541376887
 30
0.0
 10
1325.834501650135
 20
2362.616541376887
 30
0.0
  0
LINE
  5
25F
330
1F
100
AcDbEntity
  8
0
  6
Continuous
 62
     7
370
    25
100
AcDbLine
 10
1318.2144993216
 20
2362.6192165957
 30
0.0
 11
1318.3607682297
 21
2362.6165413769
 31
0.0
  0
SPLINE
  5
260
330
1F
100
AcDbEntity
  8
0
  6
Continuous
 62
     7
370
    25
100
AcDbSpline
210
0.0
220
0.0
230
1.0
 70
    24
 71
     3
 72
    13
 73
     9
 74
     0
 42
0.000000001
 43
0.00000001
 40
0.0
 40
0.0
 40
0.0
 40
0.0
 40
0.3712782458981311
 40
0.6803365924585809
 40
0.8310527018154122
 40
0.9539295140747308
 40
0.9862328811783045
 40
1.0
 40
1.0
 40
1.0
 40
1.0
 10
1292.960768229697
 20
2362.616541376887
 30
0.0
 10
1294.040709629697
 20
2362.616541376888
 30
0.0
 10
1296.019612676799
 20
2362.616541376888
 30
0.0
 10
1298.28414468936
 20
2362.616541376889
 30
0.0
 10
1299.616383442796
 20
2362.616541376888
 30
0.0
 10
1300.198402192116
 20
2362.616541376889
 30
0.0
 10
1300.419846303269
 20
2362.616541376888
 30
0.0
 10
1300.431129825776
 20
2362.616541376888
 30
0.0
 10
1300.434501650318
 20
2362.616541376888
 30
0.0
  0
LINE
  5
261
330
1F
100
AcDbEntity
  8
0
  6
Continuous
 62
     7
370
    25
100
AcDbLine
 10
1292.8144993216
 20
2362.6192165957
 30
0.0
 11
1292.9607682297
 21
2362.6165413769
 31
0.0
  0
SPLINE
  5
262
330
1F
100
AcDbEntity
  8
0
  6
Continuous
 62
     7
370
    25
100
AcDbSpline
210
0.0
220
0.0
230
1.0
 70
    24
 71
     3
 72
    13
 73
     9
 74
     0
 42
0.000000001
 43
0.00000001
 40
0.0
 40
0.0
 40
0.0
 40
0.0
 40
0.3712782458982274
 40
0.6803365924586809
 40
0.8310527018155387
 40
0.9539295140748666
 40
0.9862328811784337
 40
1.0
 40
1.0
 40
1.0
 40
1.0
 10
1242.160768229696
 20
2362.616541376887
 30
0.0
 10
1243.240709629695
 20
2362.616541376888
 30
0.0
 10
1245.219612676797
 20
2362.616541376887
 30
0.0
 10
1247.484144689359
 20
2362.616541376889
 30
0.0
 10
1248.816383442795
 20
2362.616541376888
 30
0.0
 10
1249.398402192115
 20
2362.616541376888
 30
0.0
 10
1249.619846303267
 20
2362.616541376887
 30
0.0
 10
1249.631129825775
 20
2362.616541376887
 30
0.0
 10
1249.634501650317
 20
2362.616541376888
 30
0.0
  0
LINE
  5
263
330
1F
100
AcDbEntity
  8
0
  6
Continuous
 62
     7
370
    25
100
AcDbLine
 10
1242.0144993216
 20
2362.6192165957
 30
0.0
 11
1242.1607682297
 21
2362.6165413769
 31
0.0
  0
SPLINE
  5
264
330
1F
100
AcDbEntity
  8
0
  6
Continuous
 62
     7
370
    25
100
AcDbSpline
210
0.0
220
0.0
230
1.0
 70
    24
 71
     3
 72
    13
 73
     9
 74
     0
 42
0.000000001
 43
0.00000001
 40
0.0
 40
0.0
 40
0.0
 40
0.0
 40
0.3712782458981606
 40
0.6803365924585899
 40
0.8310527018154181
 40
0.9539295140747425
 40
0.9862328811783108
 40
1.0
 40
1.0
 40
1.0
 40
1.0
 10
1267.560768229697
 20
2362.616541376888
 30
0.0
 10
1268.640709629697
 20
2362.616541376889
 30
0.0
 10
1270.619612676799
 20
2362.616541376888
 30
0.0
 10
1272.88414468936
 20
2362.616541376887
 30
0.0
 10
1274.216383442796
 20
2362.616541376889
 30
0.0
 10
1274.798402192115
 20
2362.616541376886
 30
0.0
 10
1275.019846303268
 20
2362.616541376888
 30
0.0
 10
1275.031129825775
 20
2362.616541376887
 30
0.0
 10
1275.034501650317
 20
2362.616541376888
 30
0.0
  0
LINE
  5
265
330
1F
100
AcDbEntity
  8
0
  6
Continuous
 62
     7
370
    25
100
AcDbLine
 10
1267.4144993216
 20
2362.6192165957
 30
0.0
 11
1267.5607682297
 21
2362.6165413769
 31
0.0
  0
SPLINE
  5
266
330
1F
100
AcDbEntity
  8
0
  6
Continuous
 62
     7
370
    25
100
AcDbSpline
210
0.0
220
0.0
230
1.0
 70
     8
 71
     3
 72
    15
 73
    11
 74
     0
 42
0.000000001
 43
0.00000001
 40
0.0
 40
0.0
 40
0.0
 40
0.0
 40
0.0805955916524029
 40
0.2118440208099428
 40
0.4658274000836711
 40
0.722195386953189
 40
0.7463945916325428
 40
0.7889583183975446
 40
0.8571994517773625
 40
0.9999999999999999
 40
0.9999999999999999
 40
0.9999999999999999
 40
0.9999999999999999
 10
1212.797691986092
 20
2366.266541376886
 30
0.0
 10
1212.809516236244
 20
2366.103639243226
 30
0.0
 10
1212.840596058895
 20
2365.675454000268
 30
0.0
 10
1213.146838807662
 20
2364.795049728428
 30
0.0
 10
1213.849546763668
 20
2363.729620819159
 30
0.0
 10
1214.745720155426
 20
2363.123277634764
 30
0.0
 10
1215.312305297915
 20
2362.886365112321
 30
0.0
 10
1215.552276968555
 20
2362.799157324088
 30
0.0
 10
1216.022632387233
 20
2362.667479643846
 30
0.0
 10
1216.375638847689
 20
2362.638694173975
 30
0.0
 10
1216.614499321585
 20
2362.619216595673
 30
0.0
  0
SPLINE
  5
267
330
1F
100
AcDbEntity
  8
0
  6
Continuous
 62
     7
370
    25
100
AcDbSpline
210
0.0
220
0.0
230
1.0
 70
     8
 71
     3
 72
    15
 73
    11
 74
     0
 42
0.000000001
 43
0.00000001
 40
0.0
 40
0.0
 40
0.0
 40
0.0
 40
0.0805955916518958
 40
0.2118440208079163
 40
0.4658274000784349
 40
0.7221953869540889
 40
0.74639459171087
 40
0.7889583183952856
 40
0.8571994517718637
 40
0.9999999999999999
 40
0.9999999999999999
 40
0.9999999999999999
 40
0.9999999999999999
 10
1263.597691986102
 20
2366.266541376892
 30
0.0
 10
1263.609516236252
 20
2366.103639243232
 30
0.0
 10
1263.640596058902
 20
2365.675454000278
 30
0.0
 10
1263.946838807663
 20
2364.795049728445
 30
0.0
 10
1264.649546763668
 20
2363.729620819171
 30
0.0
 10
1265.545720155547
 20
2363.12327763468
 30
0.0
 10
1266.112305298066
 20
2362.886365112267
 30
0.0
 10
1266.352276968693
 20
2362.799157324055
 30
0.0
 10
1266.822632387224
 20
2362.667479643846
 30
0.0
 10
1267.175638847689
 20
2362.638694173975
 30
0.0
 10
1267.414499321598
 20
2362.619216595672
 30
0.0
  0
SPLINE
  5
268
330
1F
100
AcDbEntity
  8
0
  6
Continuous
 62
     7
370
    25
100
AcDbSpline
210
0.0
220
0.0
230
1.0
 70
     8
 71
     3
 72
    15
 73
    11
 74
     0
 42
0.000000001
 43
0.00000001
 40
0.0
 40
0.0
 40
0.0
 40
0.0
 40
0.0805955916406916
 40
0.2118440208057668
 40
0.4658274000413561
 40
0.7221953869194082
 40
0.7463945909883604
 40
0.7889583183664631
 40
0.8571994517247347
 40
1.0
 40
1.0
 40
1.0
 40
1.0
 10
1339.797691986001
 20
2366.26654137689
 30
0.0
 10
1339.809516236149
 20
2366.103639243252
 30
0.0
 10
1339.840596058797
 20
2365.675454000297
 30
0.0
 10
1340.146838807543
 20
2364.795049728508
 30
0.0
 10
1340.84954676345
 20
2363.729620819285
 30
0.0
 10
1341.745720154241
 20
2363.123277635499
 30
0.0
 10
1342.312305296603
 20
2362.88636511279
 30
0.0
 10
1342.55227696721
 20
2362.799157324444
 30
0.0
 10
1343.022632387018
 20
2362.667479643865
 30
0.0
 10
1343.375638847579
 20
2362.638694173982
 30
0.0
 10
1343.614499321598
 20
2362.619216595668
 30
0.0
  0
SPLINE
  5
269
330
1F
100
AcDbEntity
  8
0
  6
Continuous
 62
     7
370
    25
100
AcDbSpline
210
0.0
220
0.0
230
1.0
 70
     8
 71
     3
 72
    15
 73
    11
 74
     0
 42
0.000000001
 43
0.00000001
 40
0.0
 40
0.0
 40
0.0
 40
0.0
 40
0.0805955916507474
 40
0.2118440208068619
 40
0.4658274000777926
 40
0.7221953869537427
 40
0.7463945917404662
 40
0.7889583183950636
 40
0.8571994517717312
 40
0.9999999999999999
 40
0.9999999999999999
 40
0.9999999999999999
 40
0.9999999999999999
 10
1238.197691986102
 20
2366.26654137689
 30
0.0
 10
1238.209516236253
 20
2366.103639243235
 30
0.0
 10
1238.240596058903
 20
2365.675454000283
 30
0.0
 10
1238.546838807662
 20
2364.795049728451
 30
0.0
 10
1239.249546763669
 20
2363.729620819174
 30
0.0
 10
1240.145720155593
 20
2363.123277634658
 30
0.0
 10
1240.712305298121
 20
2362.886365112252
 30
0.0
 10
1240.952276968747
 20
2362.799157324046
 30
0.0
 10
1241.422632387225
 20
2362.667479643853
 30
0.0
 10
1241.775638847689
 20
2362.638694173978
 30
0.0
 10
1242.014499321596
 20
2362.619216595672
 30
0.0
  0
SPLINE
  5
26A
330
1F
100
AcDbEntity
  8
0
  6
Continuous
 62
     7
370
    25
100
AcDbSpline
210
0.0
220
0.0
230
1.0
 70
     8
 71
     3
 72
    15
 73
    11
 74
     0
 42
0.000000001
 43
0.00000001
 40
0.0
 40
0.0
 40
0.0
 40
0.0
 40
0.0805958564975742
 40
0.2118442478458093
 40
0.4658275539534038
 40
0.7221954669790993
 40
0.746394664747171
 40
0.7889583791884387
 40
0.8571994929073246
 40
1.0
 40
1.0
 40
1.0
 40
1.0
 10
1314.397691803348
 20
2366.266543109229
 30
0.0
 10
1314.40951608464
 20
2366.103640390473
 30
0.0
 10
1314.440595920322
 20
2365.675454557768
 30
0.0
 10
1314.746838774207
 20
2364.795049719847
 30
0.0
 10
1315.449546775697
 20
2363.729620822263
 30
0.0
 10
1316.345720155285
 20
2363.123277634642
 30
0.0
 10
1316.912305298059
 20
2362.886365112287
 30
0.0
 10
1317.152276968648
 20
2362.799157324061
 30
0.0
 10
1317.622632387234
 20
2362.667479643851
 30
0.0
 10
1317.975638847694
 20
2362.638694173978
 30
0.0
 10
1318.214499321598
 20
2362.619216595674
 30
0.0
  0
SPLINE
  5
26B
330
1F
100
AcDbEntity
  8
0
  6
Continuous
 62
     7
370
    25
100
AcDbSpline
210
0.0
220
0.0
230
1.0
 70
     8
 71
     3
 72
    15
 73
    11
 74
     0
 42
0.000000001
 43
0.00000001
 40
0.0
 40
0.0
 40
0.0
 40
0.0
 40
0.0805955916512797
 40
0.2118440208073942
 40
0.4658274000780916
 40
0.7221953869539259
 40
0.7463945916098154
 40
0.788958318395157
 40
0.8571994517717614
 40
1.0
 40
1.0
 40
1.0
 40
1.0
 10
1288.997691986103
 20
2366.266541376888
 30
0.0
 10
1289.009516236253
 20
2366.10363924323
 30
0.0
 10
1289.040596058903
 20
2365.675454000278
 30
0.0
 10
1289.346838807664
 20
2364.795049728444
 30
0.0
 10
1290.049546763661
 20
2363.729620819176
 30
0.0
 10
1290.945720155394
 20
2363.123277634786
 30
0.0
 10
1291.512305297882
 20
2362.886365112338
 30
0.0
 10
1291.752276968509
 20
2362.799157324105
 30
0.0
 10
1292.222632387222
 20
2362.667479643847
 30
0.0
 10
1292.575638847689
 20
2362.638694173976
 30
0.0
 10
1292.814499321598
 20
2362.619216595672
 30
0.0
  0
SPLINE
  5
26C
330
1F
100
AcDbEntity
  8
0
  6
Continuous
 62
     7
370
    25
100
AcDbSpline
210
0.0
220
0.0
230
1.0
 70
    24
 71
     3
 72
    12
 73
     8
 74
     0
 42
0.000000001
 43
0.00000001
 40
0.0
 40
0.0
 40
0.0
 40
0.0
 40
0.2478705387806498
 40
0.3755998671100974
 40
0.5035165518007388
 40
0.7478516232618398
 40
1.0
 40
1.0
 40
1.0
 40
1.0
 10
1334.358297545596
 20
2365.966541376888
 30
0.0
 10
1334.130705711721
 20
2365.966541376888
 30
0.0
 10
1333.7858343003
 20
2365.966541376889
 30
0.0
 10
1333.377556305913
 20
2365.966541376888
 30
0.0
 10
1333.02601685879
 20
2365.966541376888
 30
0.0
 10
1332.686882999855
 20
2365.966541376888
 30
0.0
 10
1332.634463920459
 20
2365.966541376888
 30
0.0
 10
1332.607841913567
 20
2365.966541376888
 30
0.0
  0
SPLINE
  5
26D
330
1F
100
AcDbEntity
  8
0
  6
Continuous
 62
     7
370
    25
100
AcDbSpline
210
0.0
220
0.0
230
1.0
 70
    24
 71
     3
 72
    13
 73
     9
 74
     0
 42
0.000000001
 43
0.00000001
 40
0.0
 40
0.0
 40
0.0
 40
0.0
 40
0.2394429510695668
 40
0.3696236518009503
 40
0.499999911939933
 40
0.6301807006680841
 40
0.760557048930089
 40
1.0
 40
1.0
 40
1.0
 40
1.0
 10
1336.108751079627
 20
2365.966541376888
 30
0.0
 10
1336.08524132815
 20
2365.966541376888
 30
0.0
 10
1336.048949759928
 20
2365.966541376887
 30
0.0
 10
1335.831033948257
 20
2365.966541376888
 30
0.0
 10
1335.604900331934
 20
2365.966541376887
 30
0.0
 10
1335.326327831516
 20
2365.966541376887
 30
0.0
 10
1334.918404947456
 20
2365.966541376888
 30
0.0
 10
1334.578422408295
 20
2365.966541376888
 30
0.0
 10
1334.358297545596
 20
2365.966541376887
 30
0.0
  0
SPLINE
  5
26E
330
1F
100
AcDbEntity
  8
0
  6
Continuous
 62
     7
370
    25
100
AcDbSpline
210
0.0
220
0.0
230
1.0
 70
    24
 71
     3
 72
    13
 73
     9
 74
     0
 42
0.000000001
 43
0.00000001
 40
0.0
 40
0.0
 40
0.0
 40
0.0
 40
0.2394429510673791
 40
0.369623651801059
 40
0.4999999119394501
 40
0.6301807006685816
 40
0.7605570489314244
 40
1.0
 40
1.0
 40
1.0
 40
1.0
 10
1234.508751079225
 20
2365.966541376888
 30
0.0
 10
1234.485241327713
 20
2365.966541376889
 30
0.0
 10
1234.448949759437
 20
2365.966541376888
 30
0.0
 10
1234.231033947667
 20
2365.966541376888
 30
0.0
 10
1234.004900331266
 20
2365.966541376889
 30
0.0
 10
1233.72632783077
 20
2365.966541376888
 30
0.0
 10
1233.318404946619
 20
2365.966541376889
 30
0.0
 10
1232.978422407416
 20
2365.966541376889
 30
0.0
 10
1232.758297544692
 20
2365.96654137689
 30
0.0
  0
SPLINE
  5
26F
330
1F
100
AcDbEntity
  8
0
  6
Continuous
 62
     7
370
    25
100
AcDbSpline
210
0.0
220
0.0
230
1.0
 70
    24
 71
     3
 72
    12
 73
     8
 74
     0
 42
0.000000001
 43
0.00000001
 40
0.0
 40
0.0
 40
0.0
 40
0.0
 40
0.2478705387804226
 40
0.3755998671114281
 40
0.5035165517996744
 40
0.747851623261992
 40
1.0
 40
1.0
 40
1.0
 40
1.0
 10
1232.758297544692
 20
2365.96654137689
 30
0.0
 10
1232.530705710845
 20
2365.966541376889
 30
0.0
 10
1232.185834299465
 20
2365.966541376888
 30
0.0
 10
1231.777556305171
 20
2365.966541376888
 30
0.0
 10
1231.426016858146
 20
2365.966541376888
 30
0.0
 10
1231.08688299934
 20
2365.966541376888
 30
0.0
 10
1231.034463920019
 20
2365.966541376888
 30
0.0
 10
1231.007841913165
 20
2365.966541376888
 30
0.0
  0
SPLINE
  5
270
330
1F
100
AcDbEntity
  8
0
  6
Continuous
 62
     7
370
    25
100
AcDbSpline
210
0.0
220
0.0
230
1.0
 70
    24
 71
     3
 72
    10
 73
     6
 74
     0
 42
0.000000001
 43
0.00000001
 40
0.0
 40
0.0
 40
0.0
 40
0.0
 40
0.500269830601415
 40
0.7722572791340417
 40
1.0
 40
1.0
 40
1.0
 40
1.0
 10
1259.908751079626
 20
2365.966541376888
 30
0.0
 10
1259.884573196069
 20
2365.966541376888
 30
0.0
 10
1259.847250244676
 20
2365.966541376888
 30
0.0
 10
1259.643498503176
 20
2365.966541376888
 30
0.0
 10
1259.498943447156
 20
2365.966541376888
 30
0.0
 10
1259.43306517166
 20
2365.966541376888
 30
0.0
  0
SPLINE
  5
271
330
1F
100
AcDbEntity
  8
0
  6
Continuous
 62
     7
370
    25
100
AcDbSpline
210
0.0
220
0.0
230
1.0
 70
    24
 71
     3
 72
    12
 73
     8
 74
     0
 42
0.000000001
 43
0.00000001
 40
0.0
 40
0.0
 40
0.0
 40
0.0
 40
0.2478705387800732
 40
0.3755998671078184
 40
0.5035165517956111
 40
0.7478516232589352
 40
0.9999999999999999
 40
0.9999999999999999
 40
0.9999999999999999
 40
0.9999999999999999
 10
1283.558297545095
 20
2365.966541376888
 30
0.0
 10
1283.330705711248
 20
2365.966541376888
 30
0.0
 10
1282.985834299872
 20
2365.966541376888
 30
0.0
 10
1282.577556305572
 20
2365.966541376888
 30
0.0
 10
1282.226016858544
 20
2365.966541376888
 30
0.0
 10
1281.886882999741
 20
2365.966541376889
 30
0.0
 10
1281.834463920419
 20
2365.966541376888
 30
0.0
 10
1281.807841913566
 20
2365.966541376888
 30
0.0
  0
SPLINE
  5
272
330
1F
100
AcDbEntity
  8
0
  6
Continuous
 62
     7
370
    25
100
AcDbSpline
210
0.0
220
0.0
230
1.0
 70
    24
 71
     3
 72
    13
 73
     9
 74
     0
 42
0.000000001
 43
0.00000001
 40
0.0
 40
0.0
 40
0.0
 40
0.0
 40
0.2394429510694676
 40
0.3696236518021746
 40
0.4999999119398593
 40
0.630180700669905
 40
0.7605570489301993
 40
1.0
 40
1.0
 40
1.0
 40
1.0
 10
1285.308751079626
 20
2365.966541376888
 30
0.0
 10
1285.285241328114
 20
2365.966541376888
 30
0.0
 10
1285.248949759839
 20
2365.966541376888
 30
0.0
 10
1285.03103394807
 20
2365.966541376889
 30
0.0
 10
1284.804900331666
 20
2365.966541376887
 30
0.0
 10
1284.526327831169
 20
2365.966541376889
 30
0.0
 10
1284.118404947014
 20
2365.966541376887
 30
0.0
 10
1283.778422407818
 20
2365.966541376888
 30
0.0
 10
1283.558297545095
 20
2365.966541376888
 30
0.0
  0
SPLINE
  5
273
330
1F
100
AcDbEntity
  8
0
  6
Continuous
 62
     7
370
    25
100
AcDbSpline
210
0.0
220
0.0
230
1.0
 70
    24
 71
     3
 72
    10
 73
     6
 74
     0
 42
0.000000001
 43
0.00000001
 40
0.0
 40
0.0
 40
0.0
 40
0.0
 40
0.0435085593803721
 40
0.514227986872074
 40
0.9999999999999999
 40
0.9999999999999999
 40
0.9999999999999999
 40
0.9999999999999999
 10
1307.762515558193
 20
2365.966541376888
 30
0.0
 10
1307.746519773298
 20
2365.966541376888
 30
0.0
 10
1307.55746547266
 20
2365.966541376889
 30
0.0
 10
1307.29160402251
 20
2365.966541376887
 30
0.0
 10
1307.236054018768
 20
2365.966541376888
 30
0.0
 10
1307.207841913566
 20
2365.966541376888
 30
0.0
  0
SPLINE
  5
274
330
1F
100
AcDbEntity
  8
0
  6
Continuous
 62
     7
370
    25
100
AcDbSpline
210
0.0
220
0.0
230
1.0
 70
    24
 71
     3
 72
    11
 73
     7
 74
     0
 42
0.000000001
 43
0.00000001
 40
0.0
 40
0.0
 40
0.0
 40
0.0
 40
0.2500085351573945
 40
0.4999999999871857
 40
0.7499914648567709
 40
0.9999999999999999
 40
0.9999999999999999
 40
0.9999999999999999
 40
0.9999999999999999
 10
1332.224049819595
 20
2364.966541376894
 30
0.0
 10
1332.535788889002
 20
2364.966541376892
 30
0.0
 10
1333.159245742591
 20
2364.966541376886
 30
0.0
 10
1334.358296344429
 20
2364.966541376889
 30
0.0
 10
1335.55734696695
 20
2364.966541376886
 30
0.0
 10
1336.180803868994
 20
2364.966541376892
 30
0.0
 10
1336.492542962595
 20
2364.966541376894
 30
0.0
  0
SPLINE
  5
275
330
1F
100
AcDbEntity
  8
0
  6
Continuous
 62
     7
370
    25
100
AcDbSpline
210
0.0
220
0.0
230
1.0
 70
     8
 71
     3
 72
    11
 73
     7
 74
     0
 42
0.000000001
 43
0.00000001
 40
0.0
 40
0.0
 40
0.0
 40
0.0
 40
0.2500000000005053
 40
0.5000000000003525
 40
0.7500000000000799
 40
1.0
 40
1.0
 40
1.0
 40
1.0
 10
1234.892543174092
 20
2364.966541376895
 30
0.0
 10
1235.070889739643
 20
2364.984879774228
 30
0.0
 10
1235.427582870744
 20
2365.021556568893
 30
0.0
 10
1235.92678229929
 20
2365.315290293968
 30
0.0
 10
1236.368717436188
 20
2365.755819872677
 30
0.0
 10
1236.580891824447
 20
2366.162967542137
 30
0.0
 10
1236.686979018576
 20
2366.366541376868
 30
0.0
  0
SPLINE
  5
276
330
1F
100
AcDbEntity
  8
0
  6
Continuous
 62
     7
370
    25
100
AcDbSpline
210
0.0
220
0.0
230
1.0
 70
    24
 71
     3
 72
    11
 73
     7
 74
     0
 42
0.000000001
 43
0.00000001
 40
0.0
 40
0.0
 40
0.0
 40
0.0
 40
0.2500085351474045
 40
0.4999999999419268
 40
0.7499914647585734
 40
1.0
 40
1.0
 40
1.0
 40
1.0
 10
1230.624050030493
 20
2364.966541376891
 30
0.0
 10
1230.935789124165
 20
2364.966541376889
 30
0.0
 10
1231.559246026252
 20
2364.966541376887
 30
0.0
 10
1232.758296648767
 20
2364.966541376889
 30
0.0
 10
1233.957347250722
 20
2364.966541376886
 30
0.0
 10
1234.58080410452
 20
2364.966541376892
 30
0.0
 10
1234.892543174092
 20
2364.966541376895
 30
0.0
  0
LINE
  5
277
330
1F
100
AcDbEntity
  8
0
  6
Continuous
 62
     7
370
    25
100
AcDbLine
 10
1238.5334496113
 20
2364.9665413769
 30
0.0
 11
1234.8925431741
 21
2364.9665413769
 31
0.0
  0
LINE
  5
278
330
1F
100
AcDbEntity
  8
0
  6
Continuous
 62
     7
370
    25
100
AcDbLine
 10
1340.1334496112
 20
2364.9665413769
 30
0.0
 11
1336.4925429626
 21
2364.9665413769
 31
0.0
  0
LINE
  5
279
330
1F
100
AcDbEntity
  8
0
  6
Continuous
 62
     7
370
    25
100
AcDbLine
 10
1230.6240500305
 20
2364.9665413769
 30
0.0
 11
1227.8507696571
 21
2364.9665413769
 31
0.0
  0
LINE
  5
27A
330
1F
100
AcDbEntity
  8
0
  6
Continuous
 62
     7
370
    25
100
AcDbLine
 10
1329.4504187393
 20
2364.9665413769
 30
0.0
 11
1332.2240498193
 21
2364.9665413769
 31
0.0
  0
SPLINE
  5
27B
330
1F
100
AcDbEntity
  8
0
  6
Continuous
 62
     7
370
    25
100
AcDbSpline
210
0.0
220
0.0
230
1.0
 70
    24
 71
     3
 72
    13
 73
     9
 74
     0
 42
0.000000001
 43
0.00000001
 40
0.0
 40
0.0
 40
0.0
 40
0.0
 40
0.2394568447497091
 40
0.3683606604662799
 40
0.5000000000000153
 40
0.6316393395337635
 40
0.7605431552503293
 40
1.0
 40
1.0
 40
1.0
 40
1.0
 10
1283.558296844896
 20
2364.966541376888
 30
0.0
 10
1284.061309202235
 20
2364.966541376888
 30
0.0
 10
1284.835101926204
 20
2364.966541376888
 30
0.0
 10
1285.766046184721
 20
2364.966541376888
 30
0.0
 10
1286.406652825229
 20
2364.966541376888
 30
0.0
 10
1286.922722439599
 20
2364.966541376889
 30
0.0
 10
1287.421341354389
 20
2364.966541376888
 30
0.0
 10
1287.503508379582
 20
2364.966541376888
 30
0.0
 10
1287.556921945977
 20
2364.966541376888
 30
0.0
  0
SPLINE
  5
27C
330
1F
100
AcDbEntity
  8
0
  6
Continuous
 62
     7
370
    25
100
AcDbSpline
210
0.0
220
0.0
230
1.0
 70
    24
 71
     3
 72
    12
 73
     8
 74
     0
 42
0.000000001
 43
0.00000001
 40
0.0
 40
0.0
 40
0.0
 40
0.0
 40
0.2521549598265349
 40
0.4964964130735503
 40
0.6238843157582467
 40
0.7521229883417142
 40
1.0
 40
1.0
 40
1.0
 40
1.0
 10
1279.559671047217
 20
2364.966541376888
 30
0.0
 10
1279.620530551646
 20
2364.966541376888
 30
0.0
 10
1279.740363711664
 20
2364.966541376888
 30
0.0
 10
1280.513839300177
 20
2364.966541376887
 30
0.0
 10
1281.317763093979
 20
2364.966541376889
 30
0.0
 10
1282.24918721868
 20
2364.966541376887
 30
0.0
 10
1283.038261619786
 20
2364.966541376888
 30
0.0
 10
1283.558296844896
 20
2364.966541376888
 30
0.0
  0
SPLINE
  5
27D
330
1F
100
AcDbEntity
  8
0
  6
Continuous
 62
     7
370
    25
100
AcDbSpline
210
0.0
220
0.0
230
1.0
 70
     8
 71
     3
 72
    11
 73
     7
 74
     0
 42
0.000000001
 43
0.00000001
 40
0.0
 40
0.0
 40
0.0
 40
0.0
 40
0.2499999999999498
 40
0.4999999999996463
 40
0.7499999999997035
 40
0.9999999999999999
 40
0.9999999999999999
 40
0.9999999999999999
 40
0.9999999999999999
 10
1542.522763553598
 20
2366.525120200734
 30
0.0
 10
1542.561231707741
 20
2366.520430673594
 30
0.0
 10
1542.638168016028
 20
2366.511051619313
 30
0.0
 10
1542.735640069457
 20
2366.507050320264
 30
0.0
 10
1542.804641400405
 20
2366.511051619404
 30
0.0
 10
1542.814842269529
 20
2366.520430673733
 30
0.0
 10
1542.819942704091
 20
2366.525120200898
 30
0.0
  0
LINE
  5
27E
330
1F
100
AcDbEntity
  8
0
  6
Continuous
 62
     7
370
    25
100
AcDbLine
 10
1542.5227635536
 20
2366.5251202007
 30
0.0
 11
1542.7629030943
 21
2368.2488553615
 31
0.0
  0
SPLINE
  5
27F
330
1F
100
AcDbEntity
  8
0
  6
Continuous
 62
     7
370
    25
100
AcDbSpline
210
0.0
220
0.0
230
1.0
 70
    24
 71
     3
 72
    11
 73
     7
 74
     0
 42
0.000000001
 43
0.00000001
 40
0.0
 40
0.0
 40
0.0
 40
0.0
 40
0.2499999999991804
 40
0.4999999999993586
 40
0.7500000000000566
 40
0.9999999999999999
 40
0.9999999999999999
 40
0.9999999999999999
 40
0.9999999999999999
 10
1543.062197894598
 20
2368.24885544988
 30
0.0
 10
1543.057702190846
 20
2368.24885544988
 30
0.0
 10
1543.048710783343
 20
2368.24885544988
 30
0.0
 10
1542.979534020312
 20
2368.248855449881
 30
0.0
 10
1542.880627808296
 20
2368.248855449879
 30
0.0
 10
1542.802144672531
 20
2368.24885544988
 30
0.0
 10
1542.762903104649
 20
2368.24885544988
 30
0.0
  0
LINE
  5
280
330
1F
100
AcDbEntity
  8
0
  6
Continuous
 62
     7
370
    25
100
AcDbLine
 10
1543.0621978947
 20
2368.2488554503
 30
0.0
 11
1542.8199427039
 21
2366.5251202008
 31
0.0
  0
LINE
  5
281
330
1F
100
AcDbEntity
  8
0
  6
Continuous
 62
     7
370
    25
100
AcDbLine
 10
1543.0621978946
 20
2368.6167863052
 30
0.0
 11
1543.0621978946
 21
2368.2488554499
 31
0.0
  0
LINE
  5
282
330
1F
100
AcDbEntity
  8
0
  6
Continuous
 62
     7
370
    25
100
AcDbLine
 10
1372.1858777514
 20
2368.2488553706
 30
0.0
 11
1542.7629031066
 21
2368.2488553706
 31
0.0
  0
LINE
  5
283
330
1F
100
AcDbEntity
  8
0
  6
Continuous
 62
     7
370
    25
100
AcDbLine
 10
1372.2856389147
 20
2366.5251202007
 30
0.0
 11
1542.5227635531
 21
2366.5251202007
 31
0.0
  0
LINE
  5
284
330
1F
100
AcDbEntity
  8
0
  6
Continuous
 62
     7
370
    25
100
AcDbLine
 10
1372.1858777531
 20
2368.248855333
 30
0.0
 11
1372.2856389147
 21
2366.5251202007
 31
0.0
  0
SPLINE
  5
285
330
1F
100
AcDbEntity
  8
0
  6
Continuous
 62
     7
370
    25
100
AcDbSpline
210
0.0
220
0.0
230
1.0
 70
     8
 71
     3
 72
    11
 73
     7
 74
     0
 42
0.000000001
 43
0.00000001
 40
0.0
 40
0.0
 40
0.0
 40
0.0
 40
0.2499999999999291
 40
0.5000000000006196
 40
0.7500000000015862
 40
1.0
 40
1.0
 40
1.0
 40
1.0
 10
1372.075501522705
 20
2366.525120200745
 30
0.0
 10
1372.090101005231
 20
2366.524162985029
 30
0.0
 10
1372.119299970282
 20
2366.522248553595
 30
0.0
 10
1372.171479752338
 20
2366.521506653917
 30
0.0
 10
1372.227392273631
 20
2366.522248553579
 30
0.0
 10
1372.266223367673
 20
2366.524162985002
 30
0.0
 10
1372.285638914694
 20
2366.525120200715
 30
0.0
  0
LINE
  5
286
330
1F
100
AcDbEntity
  8
0
  6
Continuous
 62
     7
370
    25
100
AcDbLine
 10
1372.0755015228
 20
2366.5251202007
 30
0.0
 11
1371.9751561623
 21
2368.2488551363
 31
0.0
  0
SPLINE
  5
287
330
1F
100
AcDbEntity
  8
0
  6
Continuous
 62
     7
370
    25
100
AcDbSpline
210
0.0
220
0.0
230
1.0
 70
    24
 71
     3
 72
    11
 73
     7
 74
     0
 42
0.000000001
 43
0.00000001
 40
0.0
 40
0.0
 40
0.0
 40
0.0
 40
0.2499999999995043
 40
0.4999999999988153
 40
0.7499999999986178
 40
0.9999999999999999
 40
0.9999999999999999
 40
0.9999999999999999
 40
0.9999999999999999
 10
1371.9751577339
 20
2368.248855136313
 30
0.0
 10
1371.98976666434
 20
2368.248855136314
 30
0.0
 10
1372.01898452522
 20
2368.248855136314
 30
0.0
 10
1372.071295631119
 20
2368.248855136313
 30
0.0
 10
1372.127394093767
 20
2368.248855136314
 30
0.0
 10
1372.166383199241
 20
2368.248855136313
 30
0.0
 10
1372.185877751979
 20
2368.248855136313
 30
0.0
  0
LINE
  5
288
330
1F
100
AcDbEntity
  8
0
  6
Continuous
 62
     7
370
    25
100
AcDbLine
 10
1371.9751561623
 20
2368.2488551363
 30
0.0
 11
1371.9743299291
 21
2368.2488554499
 31
0.0
  0
LINE
  5
289
330
1F
100
AcDbEntity
  8
0
  6
Continuous
 62
     7
370
    25
100
AcDbLine
 10
1370.1500658606
 20
2368.2488554499
 30
0.0
 11
1370.1492396906
 21
2368.2488551367
 31
0.0
  0
LINE
  5
28A
330
1F
100
AcDbEntity
  8
0
  6
Continuous
 62
     7
370
    25
100
AcDbLine
 10
1371.9743299294
 20
2368.2488554499
 30
0.0
 11
1370.1500658606
 21
2368.2488554499
 31
0.0
  0
LINE
  5
28B
330
1F
100
AcDbEntity
  8
0
  6
Continuous
 62
     7
370
    25
100
AcDbLine
 10
1370.3914948445
 20
2366.5251202007
 30
0.0
 11
1372.0755015226
 21
2366.5251202007
 31
0.0
  0
LINE
  5
28C
330
1F
100
AcDbEntity
  8
0
  6
Continuous
 62
     7
370
    25
100
AcDbLine
 10
1370.1492396906
 20
2368.2488551367
 30
0.0
 11
1370.3914948445
 21
2366.5251202007
 31
0.0
  0
LINE
  5
28D
330
1F
100
AcDbEntity
  8
0
  6
Continuous
 62
     7
370
    25
100
AcDbLine
 10
1542.5227635526
 20
2366.2667863052
 30
0.0
 11
1542.5227635526
 21
2366.5251202007
 31
0.0
  0
LINE
  5
28E
330
1F
100
AcDbEntity
  8
0
  6
Continuous
 62
     7
370
    25
100
AcDbLine
 10
1372.2856389143
 20
2366.2667863052
 30
0.0
 11
1542.5227635526
 21
2366.2667863052
 31
0.0
  0
LINE
  5
28F
330
1F
100
AcDbEntity
  8
0
  6
Continuous
 62
     7
370
    25
100
AcDbLine
 10
1372.2856389147
 20
2366.5251202007
 30
0.0
 11
1372.2856389147
 21
2366.2667863052
 31
0.0
  0
SPLINE
  5
290
330
1F
100
AcDbEntity
  8
0
  6
Continuous
 62
     7
370
    25
100
AcDbSpline
210
0.0
220
0.0
230
1.0
 70
     8
 71
     3
 72
    11
 73
     7
 74
     0
 42
0.000000001
 43
0.00000001
 40
0.0
 40
0.0
 40
0.0
 40
0.0
 40
0.2499999999957796
 40
0.4999999999945618
 40
0.7499999999923898
 40
1.0
 40
1.0
 40
1.0
 40
1.0
 10
1372.285638915143
 20
2366.266786305164
 30
0.0
 10
1372.26030612335
 20
2366.270517461655
 30
0.0
 10
1372.209640539764
 20
2366.277979774637
 30
0.0
 10
1372.143743055239
 20
2366.336040370765
 30
0.0
 10
1372.093916401796
 20
2366.420246065169
 30
0.0
 10
1372.081639815507
 20
2366.490162155545
 30
0.0
 10
1372.075501522362
 20
2366.525120200735
 30
0.0
  0
ARC
  5
291
330
1F
100
AcDbEntity
  8
0
  6
Continuous
 62
     7
370
    25
100
AcDbCircle
 10
1542.5227635526
 20
2366.5668860061
 30
0.0
 40
0.3000997008969318
100
AcDbArc
 50
270.0
 51
352.0000001415
  0
LINE
  5
292
330
1F
100
AcDbEntity
  8
0
  6
Continuous
 62
     7
370
    25
100
AcDbLine
 10
1543.0621978946
 20
2368.2488554503
 30
0.0
 11
1543.0621846834
 21
2368.2488554503
 31
0.0
  0
LINE
  5
293
330
1F
100
AcDbEntity
  8
0
  6
Continuous
 62
     7
370
    25
100
AcDbLine
 10
1371.3582964966
 20
2366.2667863052
 30
0.0
 11
1370.6016322368
 21
2366.2667863052
 31
0.0
  0
LINE
  5
294
330
1F
100
AcDbEntity
  8
0
  6
Continuous
 62
     7
370
    25
100
AcDbLine
 10
1372.2856389146
 20
2366.2667863052
 30
0.0
 11
1371.5265732567
 21
2366.2667863052
 31
0.0
  0
LINE
  5
295
330
1F
100
AcDbEntity
  8
0
  6
Continuous
 62
     7
370
    25
100
AcDbLine
 10
1371.3582964959
 20
2366.2667863052
 30
0.0
 11
1371.3582964966
 21
2366.291384107
 31
0.0
  0
LINE
  5
296
330
1F
100
AcDbEntity
  8
0
  6
Continuous
 62
     7
370
    25
100
AcDbLine
 10
1371.3582964966
 20
2366.291384107
 30
0.0
 11
1371.5265732567
 21
2366.2667863052
 31
0.0
  0
SPLINE
  5
297
330
1F
100
AcDbEntity
  8
0
  6
Continuous
 62
     7
370
    25
100
AcDbSpline
210
0.0
220
0.0
230
1.0
 70
     8
 71
     3
 72
    11
 73
     7
 74
     0
 42
0.000000001
 43
0.00000001
 40
0.0
 40
0.0
 40
0.0
 40
0.0
 40
0.2500000000097091
 40
0.5000000000087051
 40
0.7500000000074857
 40
1.0
 40
1.0
 40
1.0
 40
1.0
 10
1370.391494844507
 20
2366.525120200756
 30
0.0
 10
1370.397633137666
 20
2366.490162155507
 30
0.0
 10
1370.409909723985
 20
2366.420246065013
 30
0.0
 10
1370.459736377566
 20
2366.336040370521
 30
0.0
 10
1370.525633862266
 20
2366.277979774422
 30
0.0
 10
1370.576299445949
 20
2366.270517461582
 30
0.0
 10
1370.60163223779
 20
2366.266786305164
 30
0.0
  0
SPLINE
  5
298
330
1F
100
AcDbEntity
  8
0
  6
Continuous
 62
     7
370
    25
100
AcDbSpline
210
0.0
220
0.0
230
1.0
 70
    24
 71
     3
 72
    11
 73
     7
 74
     0
 42
0.000000001
 43
0.00000001
 40
0.0
 40
0.0
 40
0.0
 40
0.0
 40
0.249999999997736
 40
0.4999999999979106
 40
0.7499999999980645
 40
1.0
 40
1.0
 40
1.0
 40
1.0
 10
1370.062200170419
 20
2368.248855449881
 30
0.0
 10
1370.063362331469
 20
2368.24885544988
 30
0.0
 10
1370.065686653568
 20
2368.248855449879
 30
0.0
 10
1370.083514265758
 20
2368.248855449882
 30
0.0
 10
1370.110460483283
 20
2368.248855449881
 30
0.0
 10
1370.136314340037
 20
2368.248855449881
 30
0.0
 10
1370.149241268414
 20
2368.248855449881
 30
0.0
  0
LINE
  5
299
330
1F
100
AcDbEntity
  8
0
  6
Continuous
 62
     7
370
    25
100
AcDbLine
 10
1370.3044530858
 20
2366.5251202007
 30
0.0
 11
1370.0621978951
 21
2368.2488554499
 31
0.0
  0
SPLINE
  5
29A
330
1F
100
AcDbEntity
  8
0
  6
Continuous
 62
     7
370
    25
100
AcDbSpline
210
0.0
220
0.0
230
1.0
 70
     8
 71
     3
 72
    11
 73
     7
 74
     0
 42
0.000000001
 43
0.00000001
 40
0.0
 40
0.0
 40
0.0
 40
0.0
 40
0.2500000000017701
 40
0.5000000000017264
 40
0.7500000000011809
 40
1.0
 40
1.0
 40
1.0
 40
1.0
 10
1370.304453085803
 20
2366.525120200734
 30
0.0
 10
1370.30568432497
 20
2366.524162985008
 30
0.0
 10
1370.308146803304
 20
2366.522248553555
 30
0.0
 10
1370.326027637676
 20
2366.521506653885
 30
0.0
 10
1370.352920101863
 20
2366.522248553576
 30
0.0
 10
1370.378636596957
 20
2366.524162985044
 30
0.0
 10
1370.391494844505
 20
2366.525120200778
 30
0.0
  0
ARC
  5
29B
330
1F
100
AcDbEntity
  8
0
  6
Continuous
 62
     7
370
    25
100
AcDbCircle
 10
1370.6016322371
 20
2366.5668860061
 30
0.0
 40
0.3000997008968393
100
AcDbArc
 50
187.9999998771
 51
269.9999999427
  0
SPLINE
  5
29C
330
1F
100
AcDbEntity
  8
0
  6
Continuous
 62
     7
370
    25
100
AcDbSpline
210
0.0
220
0.0
230
1.0
 70
    24
 71
     3
 72
    11
 73
     7
 74
     0
 42
0.000000001
 43
0.00000001
 40
0.0
 40
0.0
 40
0.0
 40
0.0
 40
0.2500000000004604
 40
0.5000000000003819
 40
0.7500000000004318
 40
1.0
 40
1.0
 40
1.0
 40
1.0
 10
1370.062211094775
 20
2368.248855450299
 30
0.0
 10
1370.066975458811
 20
2368.2488554503
 30
0.0
 10
1370.076504186884
 20
2368.248855450301
 30
0.0
 10
1370.145225521931
 20
2368.248855450299
 30
0.0
 10
1370.242988885573
 20
2368.248855450301
 30
0.0
 10
1370.320585434253
 20
2368.248855450299
 30
0.0
 10
1370.359383708593
 20
2368.248855450299
 30
0.0
  0
LINE
  5
29D
330
1F
100
AcDbEntity
  8
0
  6
Continuous
 62
     7
370
    25
100
AcDbLine
 10
1542.7621978946
 20
2368.2488554499
 30
0.0
 11
1542.7650123352
 21
2368.2488554499
 31
0.0
  0
SPLINE
  5
29E
330
1F
100
AcDbEntity
  8
0
  6
Continuous
 62
     7
370
    25
100
AcDbSpline
210
0.0
220
0.0
230
1.0
 70
    24
 71
     3
 72
    11
 73
     7
 74
     0
 42
0.000000001
 43
0.00000001
 40
0.0
 40
0.0
 40
0.0
 40
0.0
 40
0.2499999999991626
 40
0.4999999999993232
 40
0.749999999999609
 40
1.0
 40
1.0
 40
1.0
 40
1.0
 10
1370.062197894598
 20
2368.248855449881
 30
0.0
 10
1370.057702190846
 20
2368.24885544988
 30
0.0
 10
1370.048710783343
 20
2368.24885544988
 30
0.0
 10
1369.979534020312
 20
2368.248855449883
 30
0.0
 10
1369.880627808296
 20
2368.24885544988
 30
0.0
 10
1369.802144672532
 20
2368.248855449881
 30
0.0
 10
1369.76290310465
 20
2368.248855449881
 30
0.0
  0
LINE
  5
29F
330
1F
100
AcDbEntity
  8
0
  6
Continuous
 62
     7
370
    25
100
AcDbLine
 10
1370.0621978946
 20
2368.6167863052
 30
0.0
 11
1370.0621978946
 21
2368.2488554499
 31
0.0
  0
SPLINE
  5
2A0
330
1F
100
AcDbEntity
  8
0
  6
Continuous
 62
     7
370
    25
100
AcDbSpline
210
0.0
220
0.0
230
1.0
 70
     8
 71
     3
 72
    11
 73
     7
 74
     0
 42
0.000000001
 43
0.00000001
 40
0.0
 40
0.0
 40
0.0
 40
0.0
 40
0.2499999999995008
 40
0.4999999999996118
 40
0.7499999999996863
 40
1.0
 40
1.0
 40
1.0
 40
1.0
 10
1369.522763553598
 20
2366.525120200735
 30
0.0
 10
1369.561231707741
 20
2366.520430673594
 30
0.0
 10
1369.638168016029
 20
2366.511051619313
 30
0.0
 10
1369.735640069457
 20
2366.507050320267
 30
0.0
 10
1369.804641400405
 20
2366.511051619404
 30
0.0
 10
1369.814842269529
 20
2366.520430673733
 30
0.0
 10
1369.819942704092
 20
2366.525120200899
 30
0.0
  0
LINE
  5
2A1
330
1F
100
AcDbEntity
  8
0
  6
Continuous
 62
     7
370
    25
100
AcDbLine
 10
1369.5227635536
 20
2366.5251202007
 30
0.0
 11
1369.7629030943
 21
2368.2488553615
 31
0.0
  0
LINE
  5
2A2
330
1F
100
AcDbEntity
  8
0
  6
Continuous
 62
     7
370
    25
100
AcDbLine
 10
1370.0621978947
 20
2368.2488554503
 30
0.0
 11
1369.8199427039
 21
2366.5251202008
 31
0.0
  0
LINE
  5
2A3
330
1F
100
AcDbEntity
  8
0
  6
Continuous
 62
     7
370
    25
100
AcDbLine
 10
1199.1858777514
 20
2368.2488553706
 30
0.0
 11
1369.7629031066
 21
2368.2488553706
 31
0.0
  0
LINE
  5
2A4
330
1F
100
AcDbEntity
  8
0
  6
Continuous
 62
     7
370
    25
100
AcDbLine
 10
1199.2856389147
 20
2366.5251202007
 30
0.0
 11
1369.5227635531
 21
2366.5251202007
 31
0.0
  0
LINE
  5
2A5
330
1F
100
AcDbEntity
  8
0
  6
Continuous
 62
     7
370
    25
100
AcDbLine
 10
1199.1858777531
 20
2368.248855333
 30
0.0
 11
1199.2856389147
 21
2366.5251202007
 31
0.0
  0
SPLINE
  5
2A6
330
1F
100
AcDbEntity
  8
0
  6
Continuous
 62
     7
370
    25
100
AcDbSpline
210
0.0
220
0.0
230
1.0
 70
    24
 71
     3
 72
    11
 73
     7
 74
     0
 42
0.000000001
 43
0.00000001
 40
0.0
 40
0.0
 40
0.0
 40
0.0
 40
0.2499999999995043
 40
0.4999999999988153
 40
0.7499999999986178
 40
0.9999999999999999
 40
0.9999999999999999
 40
0.9999999999999999
 40
0.9999999999999999
 10
1198.9751577339
 20
2368.248855136314
 30
0.0
 10
1198.98976666434
 20
2368.248855136314
 30
0.0
 10
1199.01898452522
 20
2368.248855136314
 30
0.0
 10
1199.071295631119
 20
2368.248855136314
 30
0.0
 10
1199.127394093767
 20
2368.248855136315
 30
0.0
 10
1199.166383199242
 20
2368.248855136314
 30
0.0
 10
1199.185877751979
 20
2368.248855136314
 30
0.0
  0
LINE
  5
2A7
330
1F
100
AcDbEntity
  8
0
  6
Continuous
 62
     7
370
    25
100
AcDbLine
 10
1198.9751561623
 20
2368.2488551363
 30
0.0
 11
1198.9743299291
 21
2368.2488554499
 31
0.0
  0
SPLINE
  5
2A8
330
1F
100
AcDbEntity
  8
0
  6
Continuous
 62
     7
370
    25
100
AcDbSpline
210
0.0
220
0.0
230
1.0
 70
     8
 71
     3
 72
    11
 73
     7
 74
     0
 42
0.000000001
 43
0.00000001
 40
0.0
 40
0.0
 40
0.0
 40
0.0
 40
0.2499999999999291
 40
0.5000000000006196
 40
0.7500000000015862
 40
1.0
 40
1.0
 40
1.0
 40
1.0
 10
1199.075501522705
 20
2366.525120200746
 30
0.0
 10
1199.090101005231
 20
2366.52416298503
 30
0.0
 10
1199.119299970282
 20
2366.522248553596
 30
0.0
 10
1199.171479752338
 20
2366.521506653918
 30
0.0
 10
1199.227392273631
 20
2366.52224855358
 30
0.0
 10
1199.266223367673
 20
2366.524162985004
 30
0.0
 10
1199.285638914694
 20
2366.525120200716
 30
0.0
  0
LINE
  5
2A9
330
1F
100
AcDbEntity
  8
0
  6
Continuous
 62
     7
370
    25
100
AcDbLine
 10
1199.0755015228
 20
2366.5251202007
 30
0.0
 11
1198.9751561623
 21
2368.2488551363
 31
0.0
  0
LINE
  5
2AA
330
1F
100
AcDbEntity
  8
0
  6
Continuous
 62
     7
370
    25
100
AcDbLine
 10
1197.1500658606
 20
2368.2488554499
 30
0.0
 11
1197.1492396906
 21
2368.2488551367
 31
0.0
  0
LINE
  5
2AB
330
1F
100
AcDbEntity
  8
0
  6
Continuous
 62
     7
370
    25
100
AcDbLine
 10
1198.9743299294
 20
2368.2488554499
 30
0.0
 11
1197.1500658606
 21
2368.2488554499
 31
0.0
  0
LINE
  5
2AC
330
1F
100
AcDbEntity
  8
0
  6
Continuous
 62
     7
370
    25
100
AcDbLine
 10
1197.3914948445
 20
2366.5251202007
 30
0.0
 11
1199.0755015226
 21
2366.5251202007
 31
0.0
  0
LINE
  5
2AD
330
1F
100
AcDbEntity
  8
0
  6
Continuous
 62
     7
370
    25
100
AcDbLine
 10
1197.1492396906
 20
2368.2488551367
 30
0.0
 11
1197.3914948445
 21
2366.5251202007
 31
0.0
  0
LINE
  5
2AE
330
1F
100
AcDbEntity
  8
0
  6
Continuous
 62
     7
370
    25
100
AcDbLine
 10
1369.5227635526
 20
2366.2667863052
 30
0.0
 11
1369.5227635526
 21
2366.5251202007
 31
0.0
  0
LINE
  5
2AF
330
1F
100
AcDbEntity
  8
0
  6
Continuous
 62
     7
370
    25
100
AcDbLine
 10
1199.2856389143
 20
2366.2667863052
 30
0.0
 11
1369.5227635526
 21
2366.2667863052
 31
0.0
  0
LINE
  5
2B0
330
1F
100
AcDbEntity
  8
0
  6
Continuous
 62
     7
370
    25
100
AcDbLine
 10
1199.2856389147
 20
2366.5251202007
 30
0.0
 11
1199.2856389147
 21
2366.2667863052
 31
0.0
  0
SPLINE
  5
2B1
330
1F
100
AcDbEntity
  8
0
  6
Continuous
 62
     7
370
    25
100
AcDbSpline
210
0.0
220
0.0
230
1.0
 70
     8
 71
     3
 72
    11
 73
     7
 74
     0
 42
0.000000001
 43
0.00000001
 40
0.0
 40
0.0
 40
0.0
 40
0.0
 40
0.2499999999957796
 40
0.4999999999945618
 40
0.7499999999923898
 40
1.0
 40
1.0
 40
1.0
 40
1.0
 10
1199.285638915144
 20
2366.266786305165
 30
0.0
 10
1199.260306123351
 20
2366.270517461656
 30
0.0
 10
1199.209640539764
 20
2366.277979774638
 30
0.0
 10
1199.143743055239
 20
2366.336040370766
 30
0.0
 10
1199.093916401796
 20
2366.42024606517
 30
0.0
 10
1199.081639815507
 20
2366.490162155546
 30
0.0
 10
1199.075501522362
 20
2366.525120200736
 30
0.0
  0
ARC
  5
2B2
330
1F
100
AcDbEntity
  8
0
  6
Continuous
 62
     7
370
    25
100
AcDbCircle
 10
1369.5227635526
 20
2366.5668860061
 30
0.0
 40
0.3000997008967067
100
AcDbArc
 50
270.0
 51
352.0000001415
  0
LINE
  5
2B3
330
1F
100
AcDbEntity
  8
0
  6
Continuous
 62
     7
370
    25
100
AcDbLine
 10
1370.0621978946
 20
2368.2488554503
 30
0.0
 11
1370.0621846834
 21
2368.2488554503
 31
0.0
  0
LINE
  5
2B4
330
1F
100
AcDbEntity
  8
0
  6
Continuous
 62
     7
370
    25
100
AcDbLine
 10
1198.3582964966
 20
2366.2667863052
 30
0.0
 11
1197.6016322368
 21
2366.2667863052
 31
0.0
  0
LINE
  5
2B5
330
1F
100
AcDbEntity
  8
0
  6
Continuous
 62
     7
370
    25
100
AcDbLine
 10
1199.2856389146
 20
2366.2667863052
 30
0.0
 11
1198.5265732567
 21
2366.2667863052
 31
0.0
  0
LINE
  5
2B6
330
1F
100
AcDbEntity
  8
0
  6
Continuous
 62
     7
370
    25
100
AcDbLine
 10
1198.3582964959
 20
2366.2667863052
 30
0.0
 11
1198.3582964966
 21
2366.291384107
 31
0.0
  0
LINE
  5
2B7
330
1F
100
AcDbEntity
  8
0
  6
Continuous
 62
     7
370
    25
100
AcDbLine
 10
1198.3582964966
 20
2366.291384107
 30
0.0
 11
1198.5265732567
 21
2366.2667863052
 31
0.0
  0
SPLINE
  5
2B8
330
1F
100
AcDbEntity
  8
0
  6
Continuous
 62
     7
370
    25
100
AcDbSpline
210
0.0
220
0.0
230
1.0
 70
     8
 71
     3
 72
    11
 73
     7
 74
     0
 42
0.000000001
 43
0.00000001
 40
0.0
 40
0.0
 40
0.0
 40
0.0
 40
0.2500000000097091
 40
0.5000000000087051
 40
0.7500000000074857
 40
1.0
 40
1.0
 40
1.0
 40
1.0
 10
1197.391494844507
 20
2366.525120200757
 30
0.0
 10
1197.397633137666
 20
2366.490162155509
 30
0.0
 10
1197.409909723985
 20
2366.420246065014
 30
0.0
 10
1197.459736377566
 20
2366.336040370522
 30
0.0
 10
1197.525633862266
 20
2366.277979774422
 30
0.0
 10
1197.576299445949
 20
2366.270517461583
 30
0.0
 10
1197.60163223779
 20
2366.266786305165
 30
0.0
  0
SPLINE
  5
2B9
330
1F
100
AcDbEntity
  8
0
  6
Continuous
 62
     7
370
    25
100
AcDbSpline
210
0.0
220
0.0
230
1.0
 70
    24
 71
     3
 72
    11
 73
     7
 74
     0
 42
0.000000001
 43
0.00000001
 40
0.0
 40
0.0
 40
0.0
 40
0.0
 40
0.249999999997736
 40
0.4999999999979106
 40
0.7499999999980645
 40
1.0
 40
1.0
 40
1.0
 40
1.0
 10
1197.06220017042
 20
2368.248855449882
 30
0.0
 10
1197.063362331469
 20
2368.248855449881
 30
0.0
 10
1197.065686653568
 20
2368.24885544988
 30
0.0
 10
1197.083514265758
 20
2368.248855449883
 30
0.0
 10
1197.110460483284
 20
2368.248855449882
 30
0.0
 10
1197.136314340037
 20
2368.248855449881
 30
0.0
 10
1197.149241268415
 20
2368.248855449882
 30
0.0
  0
LINE
  5
2BA
330
1F
100
AcDbEntity
  8
0
  6
Continuous
 62
     7
370
    25
100
AcDbLine
 10
1197.0621978951
 20
2368.2488554499
 30
0.0
 11
1197.0621978951
 21
2368.6167863052
 31
0.0
  0
LINE
  5
2BB
330
1F
100
AcDbEntity
  8
0
  6
Continuous
 62
     7
370
    25
100
AcDbLine
 10
1197.3044530858
 20
2366.5251202007
 30
0.0
 11
1197.0621978951
 21
2368.2488554499
 31
0.0
  0
SPLINE
  5
2BC
330
1F
100
AcDbEntity
  8
0
  6
Continuous
 62
     7
370
    25
100
AcDbSpline
210
0.0
220
0.0
230
1.0
 70
     8
 71
     3
 72
    11
 73
     7
 74
     0
 42
0.000000001
 43
0.00000001
 40
0.0
 40
0.0
 40
0.0
 40
0.0
 40
0.2500000000017701
 40
0.5000000000017264
 40
0.7500000000011809
 40
1.0
 40
1.0
 40
1.0
 40
1.0
 10
1197.304453085803
 20
2366.525120200735
 30
0.0
 10
1197.30568432497
 20
2366.524162985009
 30
0.0
 10
1197.308146803304
 20
2366.522248553556
 30
0.0
 10
1197.326027637676
 20
2366.521506653886
 30
0.0
 10
1197.352920101863
 20
2366.522248553577
 30
0.0
 10
1197.378636596957
 20
2366.524162985044
 30
0.0
 10
1197.391494844505
 20
2366.525120200778
 30
0.0
  0
ARC
  5
2BD
330
1F
100
AcDbEntity
  8
0
  6
Continuous
 62
     7
370
    25
100
AcDbCircle
 10
1197.6016322371
 20
2366.5668860061
 30
0.0
 40
0.3000997008968393
100
AcDbArc
 50
187.9999998771
 51
269.9999999427
  0
SPLINE
  5
2BE
330
1F
100
AcDbEntity
  8
0
  6
Continuous
 62
     7
370
    25
100
AcDbSpline
210
0.0
220
0.0
230
1.0
 70
    24
 71
     3
 72
    11
 73
     7
 74
     0
 42
0.000000001
 43
0.00000001
 40
0.0
 40
0.0
 40
0.0
 40
0.0
 40
0.2500000000004604
 40
0.5000000000003819
 40
0.7500000000004318
 40
1.0
 40
1.0
 40
1.0
 40
1.0
 10
1197.062211094775
 20
2368.2488554503
 30
0.0
 10
1197.066975458811
 20
2368.2488554503
 30
0.0
 10
1197.076504186885
 20
2368.248855450301
 30
0.0
 10
1197.145225521931
 20
2368.248855450301
 30
0.0
 10
1197.242988885574
 20
2368.248855450301
 30
0.0
 10
1197.320585434253
 20
2368.2488554503
 30
0.0
 10
1197.359383708594
 20
2368.2488554503
 30
0.0
  0
LINE
  5
2BF
330
1F
100
AcDbEntity
  8
0
  6
Continuous
 62
     7
370
    25
100
AcDbLine
 10
1369.7621978946
 20
2368.2488554499
 30
0.0
 11
1369.7650123352
 21
2368.2488554499
 31
0.0
  0
LINE
  5
2C0
330
1F
100
AcDbEntity
  8
0
  6
Continuous
 62
     7
370
    25
100
AcDbLine
 10
1732.5582962412
 20
2368.6167863052
 30
0.0
 11
1732.5582962412
 21
2488.6167863052
 31
0.0
  0
LINE
  5
2C1
330
1F
100
AcDbEntity
  8
0
  6
Continuous
 62
     7
370
    25
100
AcDbLine
 10
1732.5582962412
 20
2368.6167863052
 30
0.0
 11
852.5582962412
 21
2368.6167863052
 31
0.0
  0
LINE
  5
2C2
330
1F
100
AcDbEntity
  8
0
  6
Continuous
 62
     7
370
    25
100
AcDbLine
 10
1732.5582962412
 20
2488.6167863052
 30
0.0
 11
732.5582962412
 21
2488.6167863052
 31
0.0
  0
LINE
  5
2C3
330
1F
100
AcDbEntity
  8
0
  6
Continuous
 62
     7
370
    25
100
AcDbLine
 10
852.5582962412
 20
2368.6167863052
 30
0.0
 11
732.5582962412
 21
2488.6167863052
 31
0.0
  0
LINE
  5
2C4
330
1F
100
AcDbEntity
  8
0
  6
Continuous
 62
     7
370
    25
100
AcDbLine
 10
797.5582962411
 20
-1495.3446088551
 30
0.0
 11
787.5582962411
 21
-1495.3446088551
 31
0.0
  0
LINE
  5
2C5
330
1F
100
AcDbEntity
  8
0
  6
Continuous
 62
     7
370
    25
100
AcDbLine
 10
787.5582962411
 20
-1495.3446088551
 30
0.0
 11
787.5582962411
 21
-1493.6008942739
 31
0.0
  0
LINE
  5
2C6
330
1F
100
AcDbEntity
  8
0
  6
Continuous
 62
     7
370
    25
100
AcDbLine
 10
787.5582962411
 20
-1493.6008942739
 30
0.0
 11
797.5582962411
 21
-1493.6008942739
 31
0.0
  0
LINE
  5
2C7
330
1F
100
AcDbEntity
  8
0
  6
Continuous
 62
     7
370
    25
100
AcDbLine
 10
797.5582962411
 20
-1493.6008942739
 30
0.0
 11
797.5582962411
 21
-1495.3446088551
 31
0.0
  0
LINE
  5
2C8
330
1F
100
AcDbEntity
  8
0
  6
Continuous
 62
     7
370
    25
100
AcDbLine
 10
787.5582962411
 20
-1504.3832136948
 30
0.0
 11
787.5582962411
 21
-1501.3832136948
 31
0.0
  0
LINE
  5
2C9
330
1F
100
AcDbEntity
  8
0
  6
Continuous
 62
     7
370
    25
100
AcDbLine
 10
787.5582962411
 20
-1501.3832136948
 30
0.0
 11
797.5582962411
 21
-1501.3832136948
 31
0.0
  0
LINE
  5
2CA
330
1F
100
AcDbEntity
  8
0
  6
Continuous
 62
     7
370
    25
100
AcDbLine
 10
797.5582962411
 20
-1501.3832136948
 30
0.0
 11
797.5582962411
 21
-1504.3832136948
 31
0.0
  0
LINE
  5
2CB
330
1F
100
AcDbEntity
  8
0
  6
Continuous
 62
     7
370
    25
100
AcDbLine
 10
797.5582962411
 20
-1495.3446088551
 30
0.0
 11
797.5582962411
 21
-1501.3832136948
 31
0.0
  0
LINE
  5
2CC
330
1F
100
AcDbEntity
  8
0
  6
Continuous
 62
     7
370
    25
100
AcDbLine
 10
787.5582962411
 20
-1495.3446088551
 30
0.0
 11
787.5582962411
 21
-1501.3832136948
 31
0.0
  0
LINE
  5
2CD
330
1F
100
AcDbEntity
  8
0
  6
Continuous
 62
     7
370
    25
100
AcDbLine
 10
797.5582962411
 20
-1425.6394991137
 30
0.0
 11
787.5582962411
 21
-1425.6394991137
 31
0.0
  0
LINE
  5
2CE
330
1F
100
AcDbEntity
  8
0
  6
Continuous
 62
     7
370
    25
100
AcDbLine
 10
787.5582962411
 20
-1425.6394991137
 30
0.0
 11
787.5582962411
 21
-1493.6008942739
 31
0.0
  0
LINE
  5
2CF
330
1F
100
AcDbEntity
  8
0
  6
Continuous
 62
     7
370
    25
100
AcDbLine
 10
797.5582962411
 20
-1425.6394991137
 30
0.0
 11
797.5582962411
 21
-1493.6008942739
 31
0.0
  0
LINE
  5
2D0
330
1F
100
AcDbEntity
  8
0
  6
Continuous
 62
     7
370
    25
100
AcDbLine
 10
787.5582962411
 20
-1424.3832136948
 30
0.0
 11
797.5582962411
 21
-1424.3832136948
 31
0.0
  0
LINE
  5
2D1
330
1F
100
AcDbEntity
  8
0
  6
Continuous
 62
     7
370
    25
100
AcDbLine
 10
787.5582962411
 20
-1425.6394991137
 30
0.0
 11
787.5582962411
 21
-1424.3832136948
 31
0.0
  0
LINE
  5
2D2
330
1F
100
AcDbEntity
  8
0
  6
Continuous
 62
     7
370
    25
100
AcDbLine
 10
797.5582962411
 20
-1424.3832136948
 30
0.0
 11
797.5582962411
 21
-1425.6394991137
 31
0.0
  0
ARC
  5
2D3
330
1F
100
AcDbEntity
  8
0
  6
Continuous
 62
     7
370
    25
100
AcDbCircle
 10
863.8009369283
 20
-1501.3832136948
 30
0.0
 40
3.000000000000105
100
AcDbArc
 50
225.0
 51
270.0
  0
LINE
  5
2D4
330
1F
100
AcDbEntity
  8
0
  6
Continuous
 62
     7
370
    25
100
AcDbLine
 10
853.4369758976
 20
-1495.2618933513
 30
0.0
 11
861.6796165847
 21
-1503.5045340384
 31
0.0
  0
ARC
  5
2D5
330
1F
100
AcDbEntity
  8
0
  6
Continuous
 62
     7
370
    25
100
AcDbCircle
 10
855.5582962411
 20
-1493.1405730077
 30
0.0
 40
3.0
100
AcDbArc
 50
180.0
 51
225.0
  0
LINE
  5
2D6
330
1F
100
AcDbEntity
  8
0
  6
Continuous
 62
     7
370
    25
100
AcDbLine
 10
855.5582962411
 20
-1424.3832136948
 30
0.0
 11
861.0144425553
 21
-1424.3832136948
 31
0.0
  0
ARC
  5
2D7
330
1F
100
AcDbEntity
  8
0
  6
Continuous
 62
     7
370
    25
100
AcDbCircle
 10
861.0144425553
 20
-1427.3832136948
 30
0.0
 40
3.000000000000004
100
AcDbArc
 50
35.53767779199999
 51
90.0
  0
LINE
  5
2D8
330
1F
100
AcDbEntity
  8
0
  6
Continuous
 62
     7
370
    25
100
AcDbLine
 10
863.4556429689
 20
-1425.6394991137
 30
0.0
 11
911.9994966548
 21
-1493.6008942739
 31
0.0
  0
ARC
  5
2D9
330
1F
100
AcDbEntity
  8
0
  6
Continuous
 62
     7
370
    25
100
AcDbCircle
 10
909.5582962411
 20
-1495.3446088551
 30
0.0
 40
3.000000000000229
100
AcDbArc
 50
0.0
 51
35.53767779199999
  0
LINE
  5
2DA
330
1F
100
AcDbEntity
  8
0
  6
Continuous
 62
     7
370
    25
100
AcDbLine
 10
912.5582962411
 20
-1495.3446088551
 30
0.0
 11
912.5582962411
 21
-1501.3832136948
 31
0.0
  0
ARC
  5
2DB
330
1F
100
AcDbEntity
  8
0
  6
Continuous
 62
     7
370
    25
100
AcDbCircle
 10
909.5582962411
 20
-1501.3832136948
 30
0.0
 40
3.0
100
AcDbArc
 50
270.0
 51
0.0
  0
ARC
  5
2DC
330
1F
100
AcDbEntity
  8
0
  6
Continuous
 62
     7
370
    25
100
AcDbCircle
 10
855.5582962411
 20
-1427.3832136948
 30
0.0
 40
3.0
100
AcDbArc
 50
90.0
 51
180.0
  0
ARC
  5
2DD
330
1F
100
AcDbEntity
  8
0
  6
Continuous
 62
     7
370
    25
100
AcDbCircle
 10
675.5582962411
 20
-1495.3446088551
 30
0.0
 40
3.000000000000137
100
AcDbArc
 50
144.462322208
 51
180.0
  0
LINE
  5
2DE
330
1F
100
AcDbEntity
  8
0
  6
Continuous
 62
     7
370
    25
100
AcDbLine
 10
721.6609495134
 20
-1425.6394991137
 30
0.0
 11
673.1170958275
 21
-1493.6008942739
 31
0.0
  0
ARC
  5
2DF
330
1F
100
AcDbEntity
  8
0
  6
Continuous
 62
     7
370
    25
100
AcDbCircle
 10
724.102149927
 20
-1427.3832136948
 30
0.0
 40
3.000000000000004
100
AcDbArc
 50
90.0
 51
144.462322208
  0
LINE
  5
2E0
330
1F
100
AcDbEntity
  8
0
  6
Continuous
 62
     7
370
    25
100
AcDbLine
 10
729.5582962411
 20
-1424.3832136948
 30
0.0
 11
724.102149927
 21
-1424.3832136948
 31
0.0
  0
ARC
  5
2E1
330
1F
100
AcDbEntity
  8
0
  6
Continuous
 62
     7
370
    25
100
AcDbCircle
 10
729.5582962411
 20
-1427.3832136948
 30
0.0
 40
3.0
100
AcDbArc
 50
0.0
 51
90.0
  0
ARC
  5
2E2
330
1F
100
AcDbEntity
  8
0
  6
Continuous
 62
     7
370
    25
100
AcDbCircle
 10
729.5582962411
 20
-1493.1405730077
 30
0.0
 40
3.0
100
AcDbArc
 50
315.0
 51
0.0
  0
LINE
  5
2E3
330
1F
100
AcDbEntity
  8
0
  6
Continuous
 62
     7
370
    25
100
AcDbLine
 10
723.4369758976
 20
-1503.5045340384
 30
0.0
 11
731.6796165847
 21
-1495.2618933513
 31
0.0
  0
ARC
  5
2E4
330
1F
100
AcDbEntity
  8
0
  6
Continuous
 62
     7
370
    25
100
AcDbCircle
 10
721.315655554
 20
-1501.3832136948
 30
0.0
 40
3.000000000000105
100
AcDbArc
 50
270.0
 51
315.0
  0
ARC
  5
2E5
330
1F
100
AcDbEntity
  8
0
  6
Continuous
 62
     7
370
    25
100
AcDbCircle
 10
675.5582962411
 20
-1501.3832136948
 30
0.0
 40
3.0
100
AcDbArc
 50
180.0
 51
270.0
  0
LINE
  5
2E6
330
1F
100
AcDbEntity
  8
0
  6
Continuous
 62
     7
370
    25
100
AcDbLine
 10
672.5582962411
 20
-1495.3446088551
 30
0.0
 11
672.5582962411
 21
-1501.3832136948
 31
0.0
  0
LINE
  5
2E7
330
1F
100
AcDbEntity
  8
0
  6
Continuous
 62
     7
370
    25
100
AcDbLine
 10
852.5582962411
 20
2368.6167863052
 30
0.0
 11
852.5582962411
 21
-1504.3832136948
 31
0.0
  0
LINE
  5
2E8
330
1F
100
AcDbEntity
  8
0
  6
Continuous
 62
     7
370
    25
100
AcDbLine
 10
732.5582962411
 20
2488.6167863052
 30
0.0
 11
732.5582962411
 21
-1504.3832136948
 31
0.0
  0
LINE
  5
2E9
330
1F
100
AcDbEntity
  8
0
  6
Continuous
 62
     7
370
    25
100
AcDbLine
 10
662.5582962411
 20
-1504.3832136948
 30
0.0
 11
662.5582962411
 21
-1516.3832136948
 31
0.0
  0
LINE
  5
2EA
330
1F
100
AcDbEntity
  8
0
  6
Continuous
 62
     7
370
    25
100
AcDbLine
 10
662.5582962411
 20
-1516.3832136948
 30
0.0
 11
642.5582962411
 21
-1516.3832136948
 31
0.0
  0
LINE
  5
2EB
330
1F
100
AcDbEntity
  8
0
  6
Continuous
 62
     7
370
    25
100
AcDbLine
 10
642.5582962411
 20
-1516.3832136948
 30
0.0
 11
642.5582962411
 21
-1504.3832136948
 31
0.0
  0
LINE
  5
2EC
330
1F
100
AcDbEntity
  8
0
  6
Continuous
 62
     7
370
    25
100
AcDbLine
 10
642.5582962411
 20
-1504.3832136948
 30
0.0
 11
662.5582962411
 21
-1504.3832136948
 31
0.0
  0
LINE
  5
2ED
330
1F
100
AcDbEntity
  8
0
  6
Continuous
 62
     7
370
    25
100
AcDbLine
 10
922.5582962411
 20
-1516.3832136948
 30
0.0
 11
922.5582962411
 21
-1504.3832136948
 31
0.0
  0
LINE
  5
2EE
330
1F
100
AcDbEntity
  8
0
  6
Continuous
 62
     7
370
    25
100
AcDbLine
 10
662.5582962411
 20
-1516.3832136948
 30
0.0
 11
922.5582962411
 21
-1516.3832136948
 31
0.0
  0
LINE
  5
2EF
330
1F
100
AcDbEntity
  8
0
  6
Continuous
 62
     7
370
    25
100
AcDbLine
 10
662.5582962411
 20
-1504.3832136948
 30
0.0
 11
922.5582962411
 21
-1504.3832136948
 31
0.0
  0
LINE
  5
2F0
330
1F
100
AcDbEntity
  8
0
  6
Continuous
 62
     7
370
    25
100
AcDbLine
 10
942.5582962411
 20
-1504.3832136948
 30
0.0
 11
942.5582962411
 21
-1516.3832136948
 31
0.0
  0
LINE
  5
2F1
330
1F
100
AcDbEntity
  8
0
  6
Continuous
 62
     7
370
    25
100
AcDbLine
 10
942.5582962411
 20
-1516.3832136948
 30
0.0
 11
922.5582962411
 21
-1516.3832136948
 31
0.0
  0
LINE
  5
2F2
330
1F
100
AcDbEntity
  8
0
  6
Continuous
 62
     7
370
    25
100
AcDbLine
 10
922.5582962411
 20
-1504.3832136948
 30
0.0
 11
942.5582962411
 21
-1504.3832136948
 31
0.0
  0
LINE
  5
2F3
330
1F
100
AcDbEntity
  8
0
  6
Continuous
 62
     8
370
    25
100
AcDbLine
 10
798.5582962412
 20
2489.8667863052
 30
0.0
 11
768.5582962412
 21
2489.8667863052
 31
0.0
  0
LINE
  5
2F4
330
1F
100
AcDbEntity
  8
0
  6
Continuous
 62
     8
370
    25
100
AcDbLine
 10
768.5582962412
 20
2489.3667863052
 30
0.0
 11
798.5582962412
 21
2489.3667863052
 31
0.0
  0
LINE
  5
2F5
330
1F
100
AcDbEntity
  8
0
  6
Continuous
 62
     8
370
    25
100
AcDbLine
 10
883.5582962412
 20
2489.8667863052
 30
0.0
 11
853.5582962412
 21
2489.8667863052
 31
0.0
  0
LINE
  5
2F6
330
1F
100
AcDbEntity
  8
0
  6
Continuous
 62
     8
370
    25
100
AcDbLine
 10
853.5582962412
 20
2489.3667863052
 30
0.0
 11
883.5582962412
 21
2489.3667863052
 31
0.0
  0
LINE
  5
2F7
330
1F
100
AcDbEntity
  8
0
  6
Continuous
 62
     8
370
    25
100
AcDbLine
 10
792.3082962412
 20
2491.1167863052
 30
0.0
 11
774.8082962412
 21
2491.1167863052
 31
0.0
  0
LINE
  5
2F8
330
1F
100
AcDbEntity
  8
0
  6
Continuous
 62
     8
370
    25
100
AcDbLine
 10
877.3082962412
 20
2491.1167863052
 30
0.0
 11
859.8082962412
 21
2491.1167863052
 31
0.0
  0
LINE
  5
2F9
330
1F
100
AcDbEntity
  8
0
  6
Continuous
 62
     8
370
    25
100
AcDbLine
 10
1423.8846229269
 20
2366.2665413769
 30
0.0
 11
1423.8689936613
 21
2366.2667863052
 31
0.0
  0
SPLINE
  5
2FA
330
1F
100
AcDbEntity
  8
0
  6
Continuous
 62
     8
370
    25
100
AcDbSpline
210
0.0
220
0.0
230
1.0
 70
     8
 71
     3
 72
    11
 73
     7
 74
     0
 42
0.000000001
 43
0.00000001
 40
0.0
 40
0.0
 40
0.0
 40
0.0
 40
0.2681029525543845
 40
0.5290527832313908
 40
0.7910280055986144
 40
1.0
 40
1.0
 40
1.0
 40
1.0
 10
1516.614498937669
 20
2362.619477183537
 30
0.0
 10
1516.514357811243
 20
2362.696542484442
 30
0.0
 10
1516.316747374109
 20
2362.848616945187
 30
0.0
 10
1515.868824380207
 20
2363.766806296528
 30
0.0
 10
1515.408176350269
 20
2364.948880460057
 30
0.0
 10
1515.136517282946
 20
2365.861730221496
 30
0.0
 10
1515.015974820703
 20
2366.266786305161
 30
0.0
  0
SPLINE
  5
2FB
330
1F
100
AcDbEntity
  8
0
  6
Continuous
 62
     8
370
    25
100
AcDbSpline
210
0.0
220
0.0
230
1.0
 70
     8
 71
     3
 72
    11
 73
     7
 74
     0
 42
0.000000001
 43
0.00000001
 40
0.0
 40
0.0
 40
0.0
 40
0.0
 40
0.2604261507071993
 40
0.5240932771424519
 40
0.7915095844874422
 40
1.0
 40
1.0
 40
1.0
 40
1.0
 10
1389.614498937655
 20
2362.619477183538
 30
0.0
 10
1389.517720251604
 20
2362.692773387073
 30
0.0
 10
1389.322958479052
 20
2362.84027795759
 30
0.0
 10
1388.876260081784
 20
2363.74718142331
 30
0.0
 10
1388.410908557455
 20
2364.940400980068
 30
0.0
 10
1388.13628787096
 20
2365.862724668935
 30
0.0
 10
1388.015979040919
 20
2366.266786305162
 30
0.0
  0
SPLINE
  5
2FC
330
1F
100
AcDbEntity
  8
0
  6
Continuous
 62
     8
370
    25
100
AcDbSpline
210
0.0
220
0.0
230
1.0
 70
     8
 71
     3
 72
    11
 73
     7
 74
     0
 42
0.000000001
 43
0.00000001
 40
0.0
 40
0.0
 40
0.0
 40
0.0
 40
0.2681029525417323
 40
0.5290527832394011
 40
0.7910280055868943
 40
0.9999999999999999
 40
0.9999999999999999
 40
0.9999999999999999
 40
0.9999999999999999
 10
1491.214498937669
 20
2362.61947718354
 30
0.0
 10
1491.114357811367
 20
2362.69654248446
 30
0.0
 10
1490.916747374463
 20
2362.848616945248
 30
0.0
 10
1490.468824379587
 20
2363.766806296383
 30
0.0
 10
1490.008176350505
 20
2364.94888046016
 30
0.0
 10
1489.736517282874
 20
2365.861730221507
 30
0.0
 10
1489.615974820485
 20
2366.26678630516
 30
0.0
  0
SPLINE
  5
2FD
330
1F
100
AcDbEntity
  8
0
  6
Continuous
 62
     8
370
    25
100
AcDbSpline
210
0.0
220
0.0
230
1.0
 70
     8
 71
     3
 72
    11
 73
     7
 74
     0
 42
0.000000001
 43
0.00000001
 40
0.0
 40
0.0
 40
0.0
 40
0.0
 40
0.2681029525416544
 40
0.5290527832392948
 40
0.791028005586681
 40
0.9999999999999999
 40
0.9999999999999999
 40
0.9999999999999999
 40
0.9999999999999999
 10
1465.814498937668
 20
2362.619477183538
 30
0.0
 10
1465.714357811366
 20
2362.696542484457
 30
0.0
 10
1465.516747374462
 20
2362.848616945243
 30
0.0
 10
1465.068824379586
 20
2363.766806296382
 30
0.0
 10
1464.608176350504
 20
2364.948880460159
 30
0.0
 10
1464.336517282873
 20
2365.861730221507
 30
0.0
 10
1464.215974820485
 20
2366.266786305161
 30
0.0
  0
SPLINE
  5
2FE
330
1F
100
AcDbEntity
  8
0
  6
Continuous
 62
     8
370
    25
100
AcDbSpline
210
0.0
220
0.0
230
1.0
 70
     8
 71
     3
 72
    11
 73
     7
 74
     0
 42
0.000000001
 43
0.00000001
 40
0.0
 40
0.0
 40
0.0
 40
0.0
 40
0.2681029525416496
 40
0.5290527832392367
 40
0.7910280055866923
 40
0.9999999999999999
 40
0.9999999999999999
 40
0.9999999999999999
 40
0.9999999999999999
 10
1415.014498937667
 20
2362.619477183538
 30
0.0
 10
1414.914357811364
 20
2362.696542484457
 30
0.0
 10
1414.716747374461
 20
2362.848616945245
 30
0.0
 10
1414.268824379585
 20
2363.766806296382
 30
0.0
 10
1413.808176350502
 20
2364.94888046016
 30
0.0
 10
1413.536517282871
 20
2365.861730221508
 30
0.0
 10
1413.415974820483
 20
2366.266786305162
 30
0.0
  0
SPLINE
  5
2FF
330
1F
100
AcDbEntity
  8
0
  6
Continuous
 62
     8
370
    25
100
AcDbSpline
210
0.0
220
0.0
230
1.0
 70
     8
 71
     3
 72
    11
 73
     7
 74
     0
 42
0.000000001
 43
0.00000001
 40
0.0
 40
0.0
 40
0.0
 40
0.0
 40
0.2681029525416463
 40
0.5290527832392538
 40
0.7910280055867325
 40
0.9999999999999999
 40
0.9999999999999999
 40
0.9999999999999999
 40
0.9999999999999999
 10
1440.414498937668
 20
2362.619477183538
 30
0.0
 10
1440.314357811365
 20
2362.696542484458
 30
0.0
 10
1440.116747374461
 20
2362.848616945244
 30
0.0
 10
1439.668824379585
 20
2363.766806296382
 30
0.0
 10
1439.208176350503
 20
2364.94888046016
 30
0.0
 10
1438.936517282872
 20
2365.861730221507
 30
0.0
 10
1438.815974820483
 20
2366.266786305161
 30
0.0
  0
SPLINE
  5
300
330
1F
100
AcDbEntity
  8
0
  6
Continuous
 62
     8
370
    25
100
AcDbSpline
210
0.0
220
0.0
230
1.0
 70
     8
 71
     3
 72
    10
 73
     6
 74
     0
 42
0.000000001
 43
0.00000001
 40
0.0
 40
0.0
 40
0.0
 40
0.0
 40
0.443445335331384
 40
0.8867893868686463
 40
1.0
 40
1.0
 40
1.0
 40
1.0
 10
1507.35829754519
 20
2365.966541376886
 30
0.0
 10
1507.358297663895
 20
2365.979547760192
 30
0.0
 10
1507.358297901279
 20
2366.005557556122
 30
0.0
 10
1507.358298164956
 20
2366.125634969668
 30
0.0
 10
1507.358298295067
 20
2366.248256674469
 30
0.0
 10
1507.358298321534
 20
2366.273199558369
 30
0.0
  0
SPLINE
  5
301
330
1F
100
AcDbEntity
  8
0
  6
Continuous
 62
     8
370
    25
100
AcDbSpline
210
0.0
220
0.0
230
1.0
 70
     8
 71
     3
 72
    10
 73
     6
 74
     0
 42
0.000000001
 43
0.00000001
 40
0.0
 40
0.0
 40
0.0
 40
0.0
 40
0.4434453354452765
 40
0.886789386898682
 40
1.0
 40
1.0
 40
1.0
 40
1.0
 10
1405.758297544697
 20
2365.966541376889
 30
0.0
 10
1405.758297663333
 20
2365.97954776019
 30
0.0
 10
1405.758297900579
 20
2366.005557556101
 30
0.0
 10
1405.758298164219
 20
2366.125634969681
 30
0.0
 10
1405.758298294284
 20
2366.248256674467
 30
0.0
 10
1405.758298320741
 20
2366.273199558361
 30
0.0
  0
ARC
  5
302
330
1F
100
AcDbEntity
  8
0
  6
Continuous
 62
     8
370
    25
100
AcDbCircle
 10
1509.3207802226
 20
2367.0233891013
 30
0.0
 40
2.064007025251429
100
AcDbArc
 50
274.7735663734
 51
338.6869954754
  0
ARC
  5
303
330
1F
100
AcDbEntity
  8
0
  6
Continuous
 62
     8
370
    25
100
AcDbCircle
 10
1505.3958125095
 20
2367.0233892859
 30
0.0
 40
2.064007205080161
100
AcDbArc
 50
201.3130080792
 51
265.2264354448
  0
ARC
  5
304
330
1F
100
AcDbEntity
  8
0
  6
Continuous
 62
     8
370
    25
100
AcDbCircle
 10
1403.7958126461
 20
2367.0233894651
 30
0.0
 40
2.064007394816501
100
AcDbArc
 50
201.313011364
 51
265.2264321504
  0
LINE
  5
305
330
1F
100
AcDbEntity
  8
0
  6
Continuous
 62
     8
370
    25
100
AcDbLine
 10
1250.8846229269
 20
2366.2665413769
 30
0.0
 11
1250.8689936613
 21
2366.2667863052
 31
0.0
  0
SPLINE
  5
306
330
1F
100
AcDbEntity
  8
0
  6
Continuous
 62
     8
370
    25
100
AcDbSpline
210
0.0
220
0.0
230
1.0
 70
     8
 71
     3
 72
    11
 73
     7
 74
     0
 42
0.000000001
 43
0.00000001
 40
0.0
 40
0.0
 40
0.0
 40
0.0
 40
0.2678001305140286
 40
0.5284552185953146
 40
0.7901345401878391
 40
1.0
 40
1.0
 40
1.0
 40
1.0
 10
1343.614498937669
 20
2362.619477183538
 30
0.0
 10
1343.514358266538
 20
2362.696545284853
 30
0.0
 10
1343.316748727848
 20
2362.848625271704
 30
0.0
 10
1342.868819124806
 20
2363.766773971838
 30
0.0
 10
1342.40748280746
 20
2364.950818427068
 30
0.0
 10
1342.135181780493
 20
2365.865923431038
 30
0.0
 10
1342.013991635918
 20
2366.273199558371
 30
0.0
  0
SPLINE
  5
307
330
1F
100
AcDbEntity
  8
0
  6
Continuous
 62
     8
370
    25
100
AcDbSpline
210
0.0
220
0.0
230
1.0
 70
     8
 71
     3
 72
    11
 73
     7
 74
     0
 42
0.000000001
 43
0.00000001
 40
0.0
 40
0.0
 40
0.0
 40
0.0
 40
0.260132016703759
 40
0.5235013486692034
 40
0.7906156270940908
 40
1.0
 40
1.0
 40
1.0
 40
1.0
 10
1216.614498937655
 20
2362.619477183539
 30
0.0
 10
1216.517720680677
 20
2362.692776057213
 30
0.0
 10
1216.322959771612
 20
2362.840286001242
 30
0.0
 10
1215.876254805277
 20
2363.747148587378
 30
0.0
 10
1215.410215353333
 20
2364.942338867332
 30
0.0
 10
1215.134952537011
 20
2365.866918280979
 30
0.0
 10
1215.013995778751
 20
2366.273199558349
 30
0.0
  0
SPLINE
  5
308
330
1F
100
AcDbEntity
  8
0
  6
Continuous
 62
     8
370
    25
100
AcDbSpline
210
0.0
220
0.0
230
1.0
 70
     8
 71
     3
 72
    11
 73
     7
 74
     0
 42
0.000000001
 43
0.00000001
 40
0.0
 40
0.0
 40
0.0
 40
0.0
 40
0.2668041867795848
 40
0.5264899034399584
 40
0.7871960444659285
 40
1.0
 40
1.0
 40
1.0
 40
1.0
 10
1318.214498937669
 20
2362.619477183541
 30
0.0
 10
1318.114359754745
 20
2362.69655443771
 30
0.0
 10
1317.916753152748
 20
2362.848652486077
 30
0.0
 10
1317.468801947481
 20
2363.766668321946
 30
0.0
 10
1317.005190575788
 20
2364.957222242464
 30
0.0
 10
1316.730767918227
 20
2365.879780390786
 30
0.0
 10
1316.607437439232
 20
2366.294394618866
 30
0.0
  0
SPLINE
  5
309
330
1F
100
AcDbEntity
  8
0
  6
Continuous
 62
     8
370
    25
100
AcDbSpline
210
0.0
220
0.0
230
1.0
 70
     8
 71
     3
 72
    11
 73
     7
 74
     0
 42
0.000000001
 43
0.00000001
 40
0.0
 40
0.0
 40
0.0
 40
0.0
 40
0.2681029525416544
 40
0.5290527832392948
 40
0.791028005586681
 40
0.9999999999999999
 40
0.9999999999999999
 40
0.9999999999999999
 40
0.9999999999999999
 10
1292.814498937668
 20
2362.619477183538
 30
0.0
 10
1292.714357811366
 20
2362.696542484459
 30
0.0
 10
1292.516747374463
 20
2362.848616945244
 30
0.0
 10
1292.068824379586
 20
2363.766806296382
 30
0.0
 10
1291.608176350504
 20
2364.94888046016
 30
0.0
 10
1291.336517282873
 20
2365.861730221508
 30
0.0
 10
1291.215974820485
 20
2366.266786305162
 30
0.0
  0
SPLINE
  5
30A
330
1F
100
AcDbEntity
  8
0
  6
Continuous
 62
     8
370
    25
100
AcDbSpline
210
0.0
220
0.0
230
1.0
 70
     8
 71
     3
 72
    11
 73
     7
 74
     0
 42
0.000000001
 43
0.00000001
 40
0.0
 40
0.0
 40
0.0
 40
0.0
 40
0.2678001305014213
 40
0.5284552186033751
 40
0.7901345401762646
 40
1.0
 40
1.0
 40
1.0
 40
1.0
 10
1242.014498937667
 20
2362.619477183538
 30
0.0
 10
1241.91435826666
 20
2362.696545284869
 30
0.0
 10
1241.716748728199
 20
2362.848625271759
 30
0.0
 10
1241.268819124185
 20
2363.766773971697
 30
0.0
 10
1240.807482807693
 20
2364.950818427166
 30
0.0
 10
1240.535181780418
 20
2365.865923431047
 30
0.0
 10
1240.413991635697
 20
2366.273199558369
 30
0.0
  0
SPLINE
  5
30B
330
1F
100
AcDbEntity
  8
0
  6
Continuous
 62
     8
370
    25
100
AcDbSpline
210
0.0
220
0.0
230
1.0
 70
     8
 71
     3
 72
    11
 73
     7
 74
     0
 42
0.000000001
 43
0.00000001
 40
0.0
 40
0.0
 40
0.0
 40
0.0
 40
0.2681029525416467
 40
0.5290527832392546
 40
0.7910280055867337
 40
1.0
 40
1.0
 40
1.0
 40
1.0
 10
1267.414498937668
 20
2362.619477183538
 30
0.0
 10
1267.314357811365
 20
2362.696542484459
 30
0.0
 10
1267.11674737446
 20
2362.848616945244
 30
0.0
 10
1266.668824379586
 20
2363.766806296385
 30
0.0
 10
1266.208176350503
 20
2364.94888046016
 30
0.0
 10
1265.936517282872
 20
2365.861730221508
 30
0.0
 10
1265.815974820483
 20
2366.266786305162
 30
0.0
  0
SPLINE
  5
30C
330
1F
100
AcDbEntity
  8
0
  6
Continuous
 62
     8
370
    25
100
AcDbSpline
210
0.0
220
0.0
230
1.0
 70
     8
 71
     3
 72
    10
 73
     6
 74
     0
 42
0.000000001
 43
0.00000001
 40
0.0
 40
0.0
 40
0.0
 40
0.0
 40
0.443445335331384
 40
0.8867893868686463
 40
1.0
 40
1.0
 40
1.0
 40
1.0
 10
1334.358297545191
 20
2365.966541376887
 30
0.0
 10
1334.358297663896
 20
2365.979547760193
 30
0.0
 10
1334.358297901279
 20
2366.005557556123
 30
0.0
 10
1334.358298164956
 20
2366.125634969668
 30
0.0
 10
1334.358298295067
 20
2366.248256674471
 30
0.0
 10
1334.358298321534
 20
2366.273199558369
 30
0.0
  0
SPLINE
  5
30D
330
1F
100
AcDbEntity
  8
0
  6
Continuous
 62
     8
370
    25
100
AcDbSpline
210
0.0
220
0.0
230
1.0
 70
     8
 71
     3
 72
    10
 73
     6
 74
     0
 42
0.000000001
 43
0.00000001
 40
0.0
 40
0.0
 40
0.0
 40
0.0
 40
0.4434453354452765
 40
0.886789386898682
 40
1.0
 40
1.0
 40
1.0
 40
1.0
 10
1232.758297544697
 20
2365.96654137689
 30
0.0
 10
1232.758297663333
 20
2365.979547760191
 30
0.0
 10
1232.758297900578
 20
2366.005557556102
 30
0.0
 10
1232.758298164219
 20
2366.125634969681
 30
0.0
 10
1232.758298294284
 20
2366.248256674469
 30
0.0
 10
1232.758298320741
 20
2366.273199558362
 30
0.0
  0
ARC
  5
30E
330
1F
100
AcDbEntity
  8
0
  6
Continuous
 62
     8
370
    25
100
AcDbCircle
 10
1336.3207802226
 20
2367.0233891013
 30
0.0
 40
2.064007025251005
100
AcDbArc
 50
274.7735663734
 51
338.6869954754
  0
ARC
  5
30F
330
1F
100
AcDbEntity
  8
0
  6
Continuous
 62
     8
370
    25
100
AcDbCircle
 10
1332.3958125095
 20
2367.0233892859
 30
0.0
 40
2.064007205081936
100
AcDbArc
 50
201.3130080793
 51
265.2264354448
  0
ARC
  5
310
330
1F
100
AcDbEntity
  8
0
  6
Continuous
 62
     8
370
    25
100
AcDbCircle
 10
1230.7958126461
 20
2367.0233894651
 30
0.0
 40
2.064007394816679
100
AcDbArc
 50
201.313011364
 51
265.2264321504
  0
LINE
  5
311
330
1F
100
AcDbEntity
  8
0
  6
Continuous
 62
     8
370
    25
100
AcDbLine
 10
1542.7629031066
 20
2368.2488553706
 30
0.0
 11
1542.7628260655
 21
2368.6167863052
 31
0.0
  0
LINE
  5
312
330
1F
100
AcDbEntity
  8
0
  6
Continuous
 62
     8
370
    25
100
AcDbLine
 10
1372.1859415735
 20
2368.6167863052
 30
0.0
 11
1372.1858777509
 21
2368.2488553706
 31
0.0
  0
LINE
  5
313
330
1F
100
AcDbEntity
  8
0
  6
Continuous
 62
     8
370
    25
100
AcDbLine
 10
1371.9743299294
 20
2368.6167863052
 30
0.0
 11
1371.9743299294
 21
2368.2488554499
 31
0.0
  0
LINE
  5
314
330
1F
100
AcDbEntity
  8
0
  6
Continuous
 62
     8
370
    25
100
AcDbLine
 10
1370.1500658606
 20
2368.2488554499
 30
0.0
 11
1370.1500658606
 21
2368.6167863052
 31
0.0
  0
LINE
  5
315
330
1F
100
AcDbEntity
  8
0
  6
Continuous
 62
     8
370
    25
100
AcDbLine
 10
1369.7629031066
 20
2368.2488553706
 30
0.0
 11
1369.7628260655
 21
2368.6167863052
 31
0.0
  0
LINE
  5
316
330
1F
100
AcDbEntity
  8
0
  6
Continuous
 62
     8
370
    25
100
AcDbLine
 10
1199.1859415735
 20
2368.6167863052
 30
0.0
 11
1199.1858777509
 21
2368.2488553706
 31
0.0
  0
LINE
  5
317
330
1F
100
AcDbEntity
  8
0
  6
Continuous
 62
     8
370
    25
100
AcDbLine
 10
1198.9743299294
 20
2368.6167863052
 30
0.0
 11
1198.9743299294
 21
2368.2488554499
 31
0.0
  0
LINE
  5
318
330
1F
100
AcDbEntity
  8
0
  6
Continuous
 62
     8
370
    25
100
AcDbLine
 10
1197.1500658606
 20
2368.2488554499
 30
0.0
 11
1197.1500658606
 21
2368.6167863052
 31
0.0
  0
ENDSEC
  0
SECTION
  2
OBJECTS
  0
DICTIONARY
  5
C
330
0
100
AcDbDictionary
281
     1
  3
ACAD_GROUP
350
D
  3
ACAD_LAYOUT
350
1A
  3
ACAD_MLINESTYLE
350
17
  3
ACAD_PLOTSETTINGS
350
19
  3
ACAD_PLOTSTYLENAME
350
E
  3
ACAD_SCALELIST
350
47
  3
APPDATA
350
33A
  3
DWGPROPS
350
33C
  0
DICTIONARY
  5
D
102
{ACAD_REACTORS
330
C
102
}
330
C
100
AcDbDictionary
281
     1
  0
DICTIONARY
  5
1A
102
{ACAD_REACTORS
330
C
102
}
330
C
100
AcDbDictionary
281
     1
  3
Layout1
350
1E
  3
Layout2
350
26
  3
Model
350
22
  0
DICTIONARY
  5
17
102
{ACAD_REACTORS
330
C
102
}
330
C
100
AcDbDictionary
281
     1
  3
Standard
350
18
  0
DICTIONARY
  5
19
102
{ACAD_REACTORS
330
C
102
}
330
C
100
AcDbDictionary
281
     1
  0
ACDBDICTIONARYWDFLT
  5
E
102
{ACAD_REACTORS
330
C
102
}
330
C
100
AcDbDictionary
281
     1
  3
Normal
350
F
100
AcDbDictionaryWithDefault
340
F
  0
DICTIONARY
  5
47
102
{ACAD_REACTORS
330
C
102
}
330
C
100
AcDbDictionary
281
     1
  3
A0
350
48
  3
A1
350
49
  3
A2
350
4A
  3
A3
350
4B
  3
A4
350
4C
  3
A5
350
4D
  3
A6
350
4E
  3
A7
350
4F
  3
A8
350
50
  3
A9
350
51
  3
B0
350
52
  3
B1
350
53
  3
B2
350
54
  3
B3
350
55
  3
B4
350
56
  3
B5
350
57
  3
B6
350
58
  3
B7
350
59
  3
B8
350
5A
  3
B9
350
5B
  3
C0
350
5C
  3
C1
350
5D
  3
C2
350
5E
  3
C3
350
5F
  3
C4
350
60
  3
C5
350
61
  3
C6
350
62
  3
C7
350
63
  3
C8
350
64
  3
C9
350
65
  3
D0
350
66
  3
D1
350
67
  3
D2
350
68
  0
DICTIONARY
  5
33A
102
{ACAD_REACTORS
330
C
102
}
330
C
100
AcDbDictionary
281
     1
  0
XRECORD
  5
33C
102
{ACAD_REACTORS
330
C
102
}
330
C
100
AcDbXrecord
280
     1
  1
DWGPROPS COOKIE
  2

  3

  4

  6

  7

  8
mbuyukdag
  9

300
=
301
=
302
=
303
=
304
=
305
=
306
=
307
=
308
=
309
=
 40
0.0
 41
2459102.24173941
 42
2459102.242882315
  1

 90
        0
  0
LAYOUT
  5
1E
102
{ACAD_REACTORS
330
1A
102
}
330
1A
100
AcDbPlotSettings
  1

  2
none_device
  4

  6

 40
0.0
 41
0.0
 42
0.0
 43
0.0
 44
0.0
 45
0.0
 46
0.0
 47
0.0
 48
0.0
 49
0.0
140
0.0
141
0.0
142
1.0
143
1.0
 70
   688
 72
     1
 73
     0
 74
     5
  7

 75
    16
147
1.0
148
0.0
149
0.0
100
AcDbLayout
  1
Layout1
 70
     1
 71
     1
 10
0.0
 20
0.0
 11
420.0
 21
297.0
 12
0.0
 22
0.0
 32
0.0
 14
1.000000000000000E+20
 24
1.000000000000000E+20
 34
1.000000000000000E+20
 15
-1.000000000000000E+20
 25
-1.000000000000000E+20
 35
-1.000000000000000E+20
146
0.0
 13
0.0
 23
0.0
 33
0.0
 16
1.0
 26
0.0
 36
0.0
 17
0.0
 27
1.0
 37
0.0
 76
     0
330
1B
  0
LAYOUT
  5
26
102
{ACAD_REACTORS
330
1A
102
}
330
1A
100
AcDbPlotSettings
  1

  2
none_device
  4

  6

 40
0.0
 41
0.0
 42
0.0
 43
0.0
 44
0.0
 45
0.0
 46
0.0
 47
0.0
 48
0.0
 49
0.0
140
0.0
141
0.0
142
1.0
143
1.0
 70
   688
 72
     1
 73
     0
 74
     5
  7

 75
    16
147
1.0
148
0.0
149
0.0
100
AcDbLayout
  1
Layout2
 70
     1
 71
     2
 10
0.0
 20
0.0
 11
0.0
 21
0.0
 12
0.0
 22
0.0
 32
0.0
 14
0.0
 24
0.0
 34
0.0
 15
0.0
 25
0.0
 35
0.0
146
0.0
 13
0.0
 23
0.0
 33
0.0
 16
1.0
 26
0.0
 36
0.0
 17
0.0
 27
1.0
 37
0.0
 76
     0
330
23
  0
LAYOUT
  5
22
102
{ACAD_REACTORS
330
1A
102
}
330
1A
100
AcDbPlotSettings
  1

  2
none_device
  4
Letter_(8.50_x_11.00_Inches)
  6

 40
6.35
 41
6.35
 42
6.35000508
 43
6.35000508
 44
215.9
 45
279.4
 46
0.0
 47
0.0
 48
0.0
 49
0.0
140
0.0
141
0.0
142
1.0
143
1.0
 70
  1712
 72
     1
 73
     0
 74
     0
  7

 75
     0
147
1.0
148
0.0
149
0.0
100
AcDbLayout
  1
Model
 70
     1
 71
     0
 10
0.0
 20
0.0
 11
1189.0
 21
841.0
 12
0.0
 22
0.0
 32
0.0
 14
-20.8462731006
 24
-1516.3832136948
 34
0.0
 15
1732.5582962412
 25
2496.1167863052
 35
0.0
146
0.0
 13
0.0
 23
0.0
 33
0.0
 16
1.0
 26
0.0
 36
0.0
 17
0.0
 27
1.0
 37
0.0
 76
     0
330
1F
331
29
  0
MLINESTYLE
  5
18
102
{ACAD_REACTORS
330
17
102
}
330
17
100
AcDbMlineStyle
  2
Standard
 70
     0
  3

 62
   256
 51
90.0
 52
90.0
 71
     2
 49
0.5
 62
   256
  6
BYLAYER
 49
-0.5
 62
   256
  6
BYLAYER
  0
ACDBPLACEHOLDER
  5
F
102
{ACAD_REACTORS
330
E
102
}
330
E
  0
SCALE
  5
48
102
{ACAD_REACTORS
330
47
102
}
330
47
100
AcDbScale
 70
     0
300
1:1
140
1.0
141
1.0
290
     1
  0
SCALE
  5
49
102
{ACAD_REACTORS
330
47
102
}
330
47
100
AcDbScale
 70
     0
300
1:2
140
1.0
141
2.0
290
     0
  0
SCALE
  5
4A
102
{ACAD_REACTORS
330
47
102
}
330
47
100
AcDbScale
 70
     0
300
1:4
140
1.0
141
4.0
290
     0
  0
SCALE
  5
4B
102
{ACAD_REACTORS
330
47
102
}
330
47
100
AcDbScale
 70
     0
300
1:5
140
1.0
141
5.0
290
     0
  0
SCALE
  5
4C
102
{ACAD_REACTORS
330
47
102
}
330
47
100
AcDbScale
 70
     0
300
1:8
140
1.0
141
8.0
290
     0
  0
SCALE
  5
4D
102
{ACAD_REACTORS
330
47
102
}
330
47
100
AcDbScale
 70
     0
300
1:10
140
1.0
141
10.0
290
     0
  0
SCALE
  5
4E
102
{ACAD_REACTORS
330
47
102
}
330
47
100
AcDbScale
 70
     0
300
1:16
140
1.0
141
16.0
290
     0
  0
SCALE
  5
4F
102
{ACAD_REACTORS
330
47
102
}
330
47
100
AcDbScale
 70
     0
300
1:20
140
1.0
141
20.0
290
     0
  0
SCALE
  5
50
102
{ACAD_REACTORS
330
47
102
}
330
47
100
AcDbScale
 70
     0
300
1:30
140
1.0
141
30.0
290
     0
  0
SCALE
  5
51
102
{ACAD_REACTORS
330
47
102
}
330
47
100
AcDbScale
 70
     0
300
1:40
140
1.0
141
40.0
290
     0
  0
SCALE
  5
52
102
{ACAD_REACTORS
330
47
102
}
330
47
100
AcDbScale
 70
     0
300
1:50
140
1.0
141
50.0
290
     0
  0
SCALE
  5
53
102
{ACAD_REACTORS
330
47
102
}
330
47
100
AcDbScale
 70
     0
300
1:100
140
1.0
141
100.0
290
     0
  0
SCALE
  5
54
102
{ACAD_REACTORS
330
47
102
}
330
47
100
AcDbScale
 70
     0
300
2:1
140
2.0
141
1.0
290
     0
  0
SCALE
  5
55
102
{ACAD_REACTORS
330
47
102
}
330
47
100
AcDbScale
 70
     0
300
4:1
140
4.0
141
1.0
290
     0
  0
SCALE
  5
56
102
{ACAD_REACTORS
330
47
102
}
330
47
100
AcDbScale
 70
     0
300
8:1
140
8.0
141
1.0
290
     0
  0
SCALE
  5
57
102
{ACAD_REACTORS
330
47
102
}
330
47
100
AcDbScale
 70
     0
300
10:1
140
10.0
141
1.0
290
     0
  0
SCALE
  5
58
102
{ACAD_REACTORS
330
47
102
}
330
47
100
AcDbScale
 70
     0
300
100:1
140
100.0
141
1.0
290
     0
  0
SCALE
  5
59
102
{ACAD_REACTORS
330
47
102
}
330
47
100
AcDbScale
 70
     0
300
1/128" = 1'-0"
140
0.0078125
141
12.0
290
     0
  0
SCALE
  5
5A
102
{ACAD_REACTORS
330
47
102
}
330
47
100
AcDbScale
 70
     0
300
1/64" = 1'-0"
140
0.015625
141
12.0
290
     0
  0
SCALE
  5
5B
102
{ACAD_REACTORS
330
47
102
}
330
47
100
AcDbScale
 70
     0
300
1/32" = 1'-0"
140
0.03125
141
12.0
290
     0
  0
SCALE
  5
5C
102
{ACAD_REACTORS
330
47
102
}
330
47
100
AcDbScale
 70
     0
300
1/16" = 1'-0"
140
0.0625
141
12.0
290
     0
  0
SCALE
  5
5D
102
{ACAD_REACTORS
330
47
102
}
330
47
100
AcDbScale
 70
     0
300
3/32" = 1'-0"
140
0.09375
141
12.0
290
     0
  0
SCALE
  5
5E
102
{ACAD_REACTORS
330
47
102
}
330
47
100
AcDbScale
 70
     0
300
1/8" = 1'-0"
140
0.125
141
12.0
290
     0
  0
SCALE
  5
5F
102
{ACAD_REACTORS
330
47
102
}
330
47
100
AcDbScale
 70
     0
300
3/16" = 1'-0"
140
0.1875
141
12.0
290
     0
  0
SCALE
  5
60
102
{ACAD_REACTORS
330
47
102
}
330
47
100
AcDbScale
 70
     0
300
1/4" = 1'-0"
140
0.25
141
12.0
290
     0
  0
SCALE
  5
61
102
{ACAD_REACTORS
330
47
102
}
330
47
100
AcDbScale
 70
     0
300
3/8" = 1'-0"
140
0.375
141
12.0
290
     0
  0
SCALE
  5
62
102
{ACAD_REACTORS
330
47
102
}
330
47
100
AcDbScale
 70
     0
300
1/2" = 1'-0"
140
0.5
141
12.0
290
     0
  0
SCALE
  5
63
102
{ACAD_REACTORS
330
47
102
}
330
47
100
AcDbScale
 70
     0
300
3/4" = 1'-0"
140
0.75
141
12.0
290
     0
  0
SCALE
  5
64
102
{ACAD_REACTORS
330
47
102
}
330
47
100
AcDbScale
 70
     0
300
1" = 1'-0"
140
1.0
141
12.0
290
     0
  0
SCALE
  5
65
102
{ACAD_REACTORS
330
47
102
}
330
47
100
AcDbScale
 70
     0
300
1-1/2" = 1'-0"
140
1.5
141
12.0
290
     0
  0
SCALE
  5
66
102
{ACAD_REACTORS
330
47
102
}
330
47
100
AcDbScale
 70
     0
300
3" = 1'-0"
140
3.0
141
12.0
290
     0
  0
SCALE
  5
67
102
{ACAD_REACTORS
330
47
102
}
330
47
100
AcDbScale
 70
     0
300
6" = 1'-0"
140
6.0
141
12.0
290
     0
  0
SCALE
  5
68
102
{ACAD_REACTORS
330
47
102
}
330
47
100
AcDbScale
 70
     0
300
1'-0" = 1'-0"
140
12.0
141
12.0
290
     0
  0
ENDSEC
  0
EOF
