  0
SECTION
  2
HEADER
  9
$ACADVER
  1
AC1015
  9
$ACADMAINTVER
 70
     6
  9
$DWGCODEPAGE
  3
ANSI_1254
  9
$INSBASE
 10
0.0
 20
0.0
 30
0.0
  9
$EXTMIN
 10
161.7494662287082
 20
123.1115337499131
 30
0.0
  9
$EXTMAX
 10
759.2829440097303
 20
1506.206828890224
 30
0.0
  9
$LIMMIN
 10
0.0
 20
0.0
  9
$LIMMAX
 10
420.0
 20
297.0
  9
$ORTHOMODE
 70
     0
  9
$REGENMODE
 70
     1
  9
$FILLMODE
 70
     1
  9
$QTEXTMODE
 70
     0
  9
$MIRRTEXT
 70
     1
  9
$LTSCALE
 40
1.0
  9
$ATTMODE
 70
     1
  9
$TEXTSIZE
 40
3.5
  9
$TRACEWID
 40
1.0
  9
$TEXTSTYLE
  7
Standard
  9
$CLAYER
  8
0
  9
$CELTYPE
  6
ByLayer
  9
$CECOLOR
 62
   256
  9
$CELTSCALE
 40
1.0
  9
$DISPSILH
 70
     0
  9
$DIMSCALE
 40
1.0
  9
$DIMASZ
 40
3.302
  9
$DIMEXO
 40
1.0
  9
$DIMDLI
 40
3.75
  9
$DIMRND
 40
0.0
  9
$DIMDLE
 40
0.0
  9
$DIMEXE
 40
1.0
  9
$DIMTP
 40
0.0
  9
$DIMTM
 40
0.0
  9
$DIMTXT
 40
3.5
  9
$DIMCEN
 40
2.5
  9
$DIMTSZ
 40
0.0
  9
$DIMTOL
 70
     0
  9
$DIMLIM
 70
     0
  9
$DIMTIH
 70
     1
  9
$DIMTOH
 70
     1
  9
$DIMSE1
 70
     0
  9
$DIMSE2
 70
     0
  9
$DIMTAD
 70
     1
  9
$DIMZIN
 70
     0
  9
$DIMBLK
  1

  9
$DIMASO
 70
     1
  9
$DIMSHO
 70
     1
  9
$DIMPOST
  1

  9
$DIMAPOST
  1

  9
$DIMALT
 70
     0
  9
$DIMALTD
 70
     3
  9
$DIMALTF
 40
0.0393700787
  9
$DIMLFAC
 40
10.0
  9
$DIMTOFL
 70
     1
  9
$DIMTVP
 40
0.0
  9
$DIMTIX
 70
     0
  9
$DIMSOXD
 70
     0
  9
$DIMSAH
 70
     0
  9
$DIMBLK1
  1

  9
$DIMBLK2
  1

  9
$DIMSTYLE
  2
ISO-25
  9
$DIMCLRD
 70
     0
  9
$DIMCLRE
 70
     0
  9
$DIMCLRT
 70
     0
  9
$DIMTFAC
 40
1.0
  9
$DIMGAP
 40
1.524
  9
$DIMJUST
 70
     0
  9
$DIMSD1
 70
     0
  9
$DIMSD2
 70
     0
  9
$DIMTOLJ
 70
     0
  9
$DIMTZIN
 70
     0
  9
$DIMALTZ
 70
     0
  9
$DIMALTTZ
 70
     0
  9
$DIMUPT
 70
     0
  9
$DIMDEC
 70
     2
  9
$DIMTDEC
 70
     2
  9
$DIMALTU
 70
     2
  9
$DIMALTTD
 70
     3
  9
$DIMTXSTY
  7
Standard
  9
$DIMAUNIT
 70
     0
  9
$DIMADEC
 70
     2
  9
$DIMALTRND
 40
0.0
  9
$DIMAZIN
 70
     0
  9
$DIMDSEP
 70
    44
  9
$DIMATFIT
 70
     3
  9
$DIMFRAC
 70
     0
  9
$DIMLDRBLK
  1

  9
$DIMLUNIT
 70
     2
  9
$DIMLWD
 70
    -2
  9
$DIMLWE
 70
    -2
  9
$DIMTMOVE
 70
     0
  9
$LUNITS
 70
     2
  9
$LUPREC
 70
     2
  9
$SKETCHINC
 40
1.0
  9
$FILLETRAD
 40
10.0
  9
$AUNITS
 70
     0
  9
$AUPREC
 70
     2
  9
$MENU
  1
.
  9
$ELEVATION
 40
0.0
  9
$PELEVATION
 40
0.0
  9
$THICKNESS
 40
0.0
  9
$LIMCHECK
 70
     0
  9
$CHAMFERA
 40
0.0
  9
$CHAMFERB
 40
0.0
  9
$CHAMFERC
 40
0.0
  9
$CHAMFERD
 40
0.0
  9
$SKPOLY
 70
     0
  9
$TDCREATE
 40
2459936.655389028
  9
$TDUCREATE
 40
2459936.530389028
  9
$TDUPDATE
 40
2459936.656002998
  9
$TDUUPDATE
 40
2459936.531002998
  9
$TDINDWG
 40
0.0003566898
  9
$TDUSRTIMER
 40
0.0003566782
  9
$USRTIMER
 70
     1
  9
$ANGBASE
 50
0.0
  9
$ANGDIR
 70
     0
  9
$PDMODE
 70
     0
  9
$PDSIZE
 40
-1.0
  9
$PLINEWID
 40
0.0
  9
$SPLFRAME
 70
     0
  9
$SPLINETYPE
 70
     6
  9
$SPLINESEGS
 70
     8
  9
$HANDSEED
  5
2E7
  9
$SURFTAB1
 70
     6
  9
$SURFTAB2
 70
     6
  9
$SURFTYPE
 70
     6
  9
$SURFU
 70
     6
  9
$SURFV
 70
     6
  9
$UCSBASE
  2

  9
$UCSNAME
  2

  9
$UCSORG
 10
0.0
 20
0.0
 30
0.0
  9
$UCSXDIR
 10
1.0
 20
0.0
 30
0.0
  9
$UCSYDIR
 10
0.0
 20
1.0
 30
0.0
  9
$UCSORTHOREF
  2

  9
$UCSORTHOVIEW
 70
     0
  9
$UCSORGTOP
 10
0.0
 20
0.0
 30
0.0
  9
$UCSORGBOTTOM
 10
0.0
 20
0.0
 30
0.0
  9
$UCSORGLEFT
 10
0.0
 20
0.0
 30
0.0
  9
$UCSORGRIGHT
 10
0.0
 20
0.0
 30
0.0
  9
$UCSORGFRONT
 10
0.0
 20
0.0
 30
0.0
  9
$UCSORGBACK
 10
0.0
 20
0.0
 30
0.0
  9
$PUCSBASE
  2

  9
$PUCSNAME
  2

  9
$PUCSORG
 10
0.0
 20
0.0
 30
0.0
  9
$PUCSXDIR
 10
1.0
 20
0.0
 30
0.0
  9
$PUCSYDIR
 10
0.0
 20
1.0
 30
0.0
  9
$PUCSORTHOREF
  2

  9
$PUCSORTHOVIEW
 70
     0
  9
$PUCSORGTOP
 10
0.0
 20
0.0
 30
0.0
  9
$PUCSORGBOTTOM
 10
0.0
 20
0.0
 30
0.0
  9
$PUCSORGLEFT
 10
0.0
 20
0.0
 30
0.0
  9
$PUCSORGRIGHT
 10
0.0
 20
0.0
 30
0.0
  9
$PUCSORGFRONT
 10
0.0
 20
0.0
 30
0.0
  9
$PUCSORGBACK
 10
0.0
 20
0.0
 30
0.0
  9
$USERI1
 70
     0
  9
$USERI2
 70
     0
  9
$USERI3
 70
     0
  9
$USERI4
 70
     0
  9
$USERI5
 70
     0
  9
$USERR1
 40
0.0
  9
$USERR2
 40
0.0
  9
$USERR3
 40
0.0
  9
$USERR4
 40
0.0
  9
$USERR5
 40
0.0
  9
$WORLDVIEW
 70
     1
  9
$SHADEDGE
 70
     3
  9
$SHADEDIF
 70
    70
  9
$TILEMODE
 70
     1
  9
$MAXACTVP
 70
    64
  9
$PINSBASE
 10
0.0
 20
0.0
 30
0.0
  9
$PLIMCHECK
 70
     0
  9
$PEXTMIN
 10
1.000000000000000E+20
 20
1.000000000000000E+20
 30
1.000000000000000E+20
  9
$PEXTMAX
 10
-1.000000000000000E+20
 20
-1.000000000000000E+20
 30
-1.000000000000000E+20
  9
$PLIMMIN
 10
0.0
 20
0.0
  9
$PLIMMAX
 10
0.0
 20
0.0
  9
$UNITMODE
 70
     0
  9
$VISRETAIN
 70
     1
  9
$PLINEGEN
 70
     0
  9
$PSLTSCALE
 70
     1
  9
$TREEDEPTH
 70
  3020
  9
$CMLSTYLE
  2
Standard
  9
$CMLJUST
 70
     0
  9
$CMLSCALE
 40
20.0
  9
$PROXYGRAPHICS
 70
     1
  9
$MEASUREMENT
 70
     1
  9
$CELWEIGHT
370
    -1
  9
$ENDCAPS
280
     0
  9
$JOINSTYLE
280
     0
  9
$LWDISPLAY
290
     1
  9
$INSUNITS
 70
     4
  9
$HYPERLINKBASE
  1

  9
$STYLESHEET
  1

  9
$XEDIT
290
     1
  9
$CEPSNTYPE
380
     0
  9
$PSTYLEMODE
290
     1
  9
$FINGERPRINTGUID
  2
{284e23f2-50d0-47f9-b715-ac561604b13b}
  9
$VERSIONGUID
  2
{FAEB1C32-E019-11D5-929B-00C0DF256EC4}
  9
$EXTNAMES
290
     1
  9
$PSVPSCALE
 40
0.0
  9
$OLESTARTUP
290
     0
  0
ENDSEC
  0
SECTION
  2
CLASSES
  0
CLASS
  1
ACDBDICTIONARYWDFLT
  2
AcDbDictionaryWithDefault
  3
ObjectDBX Classes
 90
        0
280
     0
281
     0
  0
CLASS
  1
VISUALSTYLE
  2
AcDbVisualStyle
  3
ObjectDBX Classes
 90
     4095
280
     0
281
     0
  0
CLASS
  1
MATERIAL
  2
AcDbMaterial
  3
ObjectDBX Classes
 90
     1153
280
     0
281
     0
  0
CLASS
  1
SCALE
  2
AcDbScale
  3
ObjectDBX Classes
 90
     1153
280
     0
281
     0
  0
CLASS
  1
TABLESTYLE
  2
AcDbTableStyle
  3
ObjectDBX Classes
 90
     4095
280
     0
281
     0
  0
CLASS
  1
MLEADERSTYLE
  2
AcDbMLeaderStyle
  3
ACDB_MLEADERSTYLE_CLASS
 90
     4095
280
     0
281
     0
  0
CLASS
  1
SUN
  2
AcDbSun
  3
SCENEOE
 90
     1153
280
     0
281
     0
  0
CLASS
  1
ACDBPLACEHOLDER
  2
AcDbPlaceHolder
  3
ObjectDBX Classes
 90
        0
280
     0
281
     0
  0
CLASS
  1
LAYOUT
  2
AcDbLayout
  3
ObjectDBX Classes
 90
        0
280
     0
281
     0
  0
ENDSEC
  0
SECTION
  2
TABLES
  0
TABLE
  2
VPORT
  5
8
330
0
100
AcDbSymbolTable
 70
     1
  0
VPORT
  5
29
330
8
100
AcDbSymbolTableRecord
100
AcDbViewportTableRecord
  2
*Active
 70
     0
 10
0.0
 20
0.0
 11
1.0
 21
1.0
 12
-991.628410840518
 22
684.4133004210225
 13
0.0
 23
0.0
 14
10.0
 24
10.0
 15
10.0
 25
10.0
 16
0.0
 26
0.0
 36
1.0
 17
0.0
 27
0.0
 37
0.0
 40
4321.918822824957
 41
2.225806451612903
 42
50.0
 43
0.0
 44
0.0
 50
0.0
 51
0.0
 71
    16
 72
  2000
 73
     1
 74
     3
 75
     0
 76
     0
 77
     0
 78
     0
281
     0
 65
     1
110
0.0
120
0.0
130
0.0
111
1.0
121
0.0
131
0.0
112
0.0
122
1.0
132
0.0
 79
     0
146
0.0
  0
ENDTAB
  0
TABLE
  2
LTYPE
  5
5
330
0
100
AcDbSymbolTable
 70
     6
  0
LTYPE
  5
14
330
5
100
AcDbSymbolTableRecord
100
AcDbLinetypeTableRecord
  2
ByBlock
 70
     0
  3

 72
    65
 73
     0
 40
0.0
  0
LTYPE
  5
15
330
5
100
AcDbSymbolTableRecord
100
AcDbLinetypeTableRecord
  2
ByLayer
 70
     0
  3

 72
    65
 73
     0
 40
0.0
  0
LTYPE
  5
16
330
5
100
AcDbSymbolTableRecord
100
AcDbLinetypeTableRecord
  2
Continuous
 70
     0
  3
Solid line
 72
    65
 73
     0
 40
0.0
  0
LTYPE
  5
6E
330
5
100
AcDbSymbolTableRecord
100
AcDbLinetypeTableRecord
  2
HIDDEN
 70
     0
  3
Hidden __ __ __ __ __ __ __ __ __ __ __ __ __ __
 72
    65
 73
     2
 40
1.905
 49
1.27
 74
     0
 49
-0.635
 74
     0
  0
LTYPE
  5
6F
330
5
100
AcDbSymbolTableRecord
100
AcDbLinetypeTableRecord
  2
PHANTOM
 70
     0
  3
Phantom ______  __  __  ______  __  __  ______
 72
    65
 73
     6
 40
12.7
 49
6.35
 74
     0
 49
-1.27
 74
     0
 49
1.27
 74
     0
 49
-1.27
 74
     0
 49
1.27
 74
     0
 49
-1.27
 74
     0
  0
LTYPE
  5
70
330
5
100
AcDbSymbolTableRecord
100
AcDbLinetypeTableRecord
  2
CENTER
 70
     0
  3
Center ____ _ ____ _ ____ _ ____ _ ____ _ ____
 72
    65
 73
     4
 40
10.16
 49
6.35
 74
     0
 49
-1.27
 74
     0
 49
1.27
 74
     0
 49
-1.27
 74
     0
  0
LTYPE
  5
71
330
5
100
AcDbSymbolTableRecord
100
AcDbLinetypeTableRecord
  2
CENTERX2
 70
     0
  3
Center (2x) ________  __  ________  __  _____
 72
    65
 73
     4
 40
20.32
 49
12.7
 74
     0
 49
-2.54
 74
     0
 49
2.54
 74
     0
 49
-2.54
 74
     0
  0
LTYPE
  5
72
330
5
100
AcDbSymbolTableRecord
100
AcDbLinetypeTableRecord
  2
DOT2
 70
     0
  3
Dot (.5x) ........................................
 72
    65
 73
     2
 40
0.635
 49
0.0
 74
     0
 49
-0.635
 74
     0
  0
ENDTAB
  0
TABLE
  2
LAYER
  5
2
330
0
100
AcDbSymbolTable
 70
     5
  0
LAYER
  5
10
330
2
100
AcDbSymbolTableRecord
100
AcDbLayerTableRecord
  2
0
 70
     0
 62
     7
  6
Continuous
370
    -3
390
F
  0
LAYER
  5
73
330
2
100
AcDbSymbolTableRecord
100
AcDbLayerTableRecord
  2
FORMAT
 70
     0
 62
     7
  6
Continuous
370
    -3
390
F
  0
LAYER
  5
74
330
2
100
AcDbSymbolTableRecord
100
AcDbLayerTableRecord
  2
SLD-0
 70
     0
 62
   179
  6
Continuous
370
    -3
390
F
  0
LAYER
  5
75
330
2
100
AcDbSymbolTableRecord
100
AcDbLayerTableRecord
  2
AAA_EKSEN
 70
     0
 62
     1
  6
CENTER
370
    -3
390
F
  0
LAYER
  5
76
330
2
100
AcDbSymbolTableRecord
100
AcDbLayerTableRecord
  2
03
 70
     0
 62
     3
  6
HIDDEN
370
    -3
390
F
  0
ENDTAB
  0
TABLE
  2
STYLE
  5
3
330
0
100
AcDbSymbolTable
 70
     1
  0
STYLE
  5
11
330
3
100
AcDbSymbolTableRecord
100
AcDbTextStyleTableRecord
  2
Standard
 70
     0
 40
0.0
 41
1.0
 50
0.0
 71
     0
 42
3.5
  3
txt
  4

  0
ENDTAB
  0
TABLE
  2
VIEW
  5
6
330
0
100
AcDbSymbolTable
 70
     0
  0
ENDTAB
  0
TABLE
  2
UCS
  5
7
330
0
100
AcDbSymbolTable
 70
     0
  0
ENDTAB
  0
TABLE
  2
APPID
  5
9
330
0
100
AcDbSymbolTable
 70
     1
  0
APPID
  5
12
330
9
100
AcDbSymbolTableRecord
100
AcDbRegAppTableRecord
  2
ACAD
 70
     0
  0
ENDTAB
  0
TABLE
  2
DIMSTYLE
  5
A
330
0
100
AcDbSymbolTable
 70
     1
100
AcDbDimStyleTable
  0
DIMSTYLE
105
27
330
A
100
AcDbSymbolTableRecord
100
AcDbDimStyleTableRecord
  2
ISO-25
 70
     0
 41
2.5
 42
0.625
 43
3.75
 44
1.25
 73
     0
 74
     0
 77
     1
 78
     8
140
2.5
141
2.5
143
0.0393700787
147
0.625
171
     3
172
     1
178
     0
271
     2
272
     2
274
     3
278
    44
283
     0
284
     8
340
11
  0
ENDTAB
  0
TABLE
  2
BLOCK_RECORD
  5
1
330
0
100
AcDbSymbolTable
 70
     1
  0
BLOCK_RECORD
  5
1F
102
{ACAD_XDICTIONARY
360
2E4
102
}
330
1
100
AcDbSymbolTableRecord
100
AcDbBlockTableRecord
  2
*Model_Space
340
22
  0
BLOCK_RECORD
  5
1B
330
1
100
AcDbSymbolTableRecord
100
AcDbBlockTableRecord
  2
*Paper_Space
340
1E
  0
BLOCK_RECORD
  5
23
330
1
100
AcDbSymbolTableRecord
100
AcDbBlockTableRecord
  2
*Paper_Space0
340
26
  0
ENDTAB
  0
ENDSEC
  0
SECTION
  2
BLOCKS
  0
BLOCK
  5
20
330
1F
100
AcDbEntity
  8
0
100
AcDbBlockBegin
  2
*Model_Space
 70
     0
 10
0.0
 20
0.0
 30
0.0
  3
*Model_Space
  1

  0
ENDBLK
  5
21
330
1F
100
AcDbEntity
  8
0
100
AcDbBlockEnd
  0
BLOCK
  5
1C
330
1B
100
AcDbEntity
 67
     1
  8
0
100
AcDbBlockBegin
  2
*Paper_Space
 70
     0
 10
0.0
 20
0.0
 30
0.0
  3
*Paper_Space
  1

  0
ENDBLK
  5
1D
330
1B
100
AcDbEntity
 67
     1
  8
0
100
AcDbBlockEnd
  0
BLOCK
  5
24
330
23
100
AcDbEntity
  8
0
100
AcDbBlockBegin
  2
*Paper_Space0
 70
     0
 10
0.0
 20
0.0
 30
0.0
  3
*Paper_Space0
  1

  0
ENDBLK
  5
25
330
23
100
AcDbEntity
  8
0
100
AcDbBlockEnd
  0
ENDSEC
  0
SECTION
  2
ENTITIES
  0
ARC
  5
77
330
1F
100
AcDbEntity
  8
0
  6
Continuous
 62
     7
370
    25
100
AcDbCircle
 10
556.5162051192192
 20
935.5611509931241
 30
0.0
 40
4.000000000000028
100
AcDbArc
 50
270.0
 51
0.0
  0
ARC
  5
78
330
1F
100
AcDbEntity
  8
0
  6
Continuous
 62
     7
370
    25
100
AcDbCircle
 10
364.5162051192192
 20
935.5611509931241
 30
0.0
 40
4.000000000000028
100
AcDbArc
 50
180.0
 51
270.0
  0
LINE
  5
79
330
1F
100
AcDbEntity
  8
0
  6
Continuous
 62
     7
370
    25
100
AcDbLine
 10
560.5162051192192
 20
935.5611509931241
 30
0.0
 11
560.5162051192192
 21
961.5611509931241
 31
0.0
  0
LINE
  5
7A
330
1F
100
AcDbEntity
  8
0
  6
Continuous
 62
     7
370
    25
100
AcDbLine
 10
360.5162051192192
 20
961.5611509931241
 30
0.0
 11
360.5162051192192
 21
935.5611509931241
 31
0.0
  0
ARC
  5
7B
330
1F
100
AcDbEntity
  8
0
  6
Continuous
 62
     7
370
    25
100
AcDbCircle
 10
499.5162051192192
 20
929.5611509931241
 30
0.0
 40
2.000000000000004
100
AcDbArc
 50
90.0
 51
180.0
  0
ARC
  5
7C
330
1F
100
AcDbEntity
  8
0
  6
Continuous
 62
     7
370
    25
100
AcDbCircle
 10
421.5162051192192
 20
929.5611509931241
 30
0.0
 40
2.000000000000004
100
AcDbArc
 50
0.0
 51
90.0
  0
LINE
  5
7D
330
1F
100
AcDbEntity
  8
0
  6
Continuous
 62
     7
370
    25
100
AcDbLine
 10
497.5162051192192
 20
861.5611509931241
 30
0.0
 11
497.5162051192192
 21
929.5611509931241
 31
0.0
  0
LINE
  5
7E
330
1F
100
AcDbEntity
  8
0
  6
Continuous
 62
     7
370
    25
100
AcDbLine
 10
423.5162051192192
 20
929.5611509931241
 30
0.0
 11
423.5162051192192
 21
861.5611509931241
 31
0.0
  0
LINE
  5
7F
330
1F
100
AcDbEntity
  8
0
  6
Continuous
 62
     7
370
    25
100
AcDbLine
 10
560.5162051192192
 20
961.5611509931241
 30
0.0
 11
560.5162051192192
 21
970.5611509931241
 31
0.0
  0
LINE
  5
80
330
1F
100
AcDbEntity
  8
0
  6
Continuous
 62
     7
370
    25
100
AcDbLine
 10
360.5162051192192
 20
970.5611509931241
 30
0.0
 11
360.5162051192192
 21
961.5611509931241
 31
0.0
  0
ARC
  5
81
330
1F
100
AcDbEntity
  8
0
  6
Continuous
 62
     7
370
    25
100
AcDbCircle
 10
161.9994662287191
 20
1486.132444783124
 30
0.0
 40
0.2499999999993694
100
AcDbArc
 50
97.88371791039916
 51
258.5488820203106
  0
ARC
  5
82
330
1F
100
AcDbEntity
  8
0
  6
Continuous
 62
     7
370
    25
100
AcDbCircle
 10
759.0329440097191
 20
1486.132444783124
 30
0.0
 40
0.2499999999993616
100
AcDbArc
 50
281.4511179796894
 51
82.11628208957504
  0
ARC
  5
83
330
1F
100
AcDbEntity
  8
0
  6
Continuous
 62
     7
370
    25
100
AcDbCircle
 10
358.5162051192192
 20
2456.278925391024
 30
0.0
 40
990.0999999999966
100
AcDbArc
 50
258.5488820208
 51
269.9421896991
  0
ARC
  5
84
330
1F
100
AcDbEntity
  8
0
  6
Continuous
 62
     7
370
    25
100
AcDbCircle
 10
562.5162051192192
 20
2456.278925391024
 30
0.0
 40
990.0999999999966
100
AcDbArc
 50
270.0578103009
 51
281.4511179792
  0
ARC
  5
85
330
1F
100
AcDbEntity
  8
0
  6
Continuous
 62
     7
370
    25
100
AcDbCircle
 10
449.6964400693191
 20
-591.5245988604757
 30
0.0
 40
2097.731427750647
100
AcDbArc
 50
90.0
 51
97.8837179097
  0
ARC
  5
86
330
1F
100
AcDbEntity
  8
0
  6
Continuous
 62
     7
370
    25
100
AcDbCircle
 10
471.3359701691192
 20
-591.5245988604757
 30
0.0
 40
2097.731427750647
100
AcDbArc
 50
82.11628209029999
 51
90.0
  0
LINE
  5
87
330
1F
100
AcDbEntity
  8
0
  6
Continuous
 62
     7
370
    25
100
AcDbLine
 10
471.3359701691192
 20
1506.206828890224
 30
0.0
 11
449.6964400693191
 21
1506.206828890224
 31
0.0
  0
ARC
  5
88
330
1F
100
AcDbEntity
  8
0
  6
Continuous
 62
     7
370
    25
100
AcDbCircle
 10
357.5162051192192
 20
1465.179429881124
 30
0.0
 40
1.000000000000114
100
AcDbArc
 50
0.0
 51
89.94218969910214
  0
ARC
  5
89
330
1F
100
AcDbEntity
  8
0
  6
Continuous
 62
     7
370
    25
100
AcDbCircle
 10
563.5162051192192
 20
1465.179429881124
 30
0.0
 40
1.000000000000114
100
AcDbArc
 50
90.05781030089786
 51
180.0
  0
LINE
  5
8A
330
1F
100
AcDbEntity
  8
0
  6
Continuous
 62
     7
370
    25
100
AcDbLine
 10
358.5162051192192
 20
1465.179429881124
 30
0.0
 11
358.5162051192192
 21
1436.178925391024
 31
0.0
  0
LINE
  5
8B
330
1F
100
AcDbEntity
  8
0
  6
Continuous
 62
     7
370
    25
100
AcDbLine
 10
562.5162051192192
 20
1436.178925391024
 30
0.0
 11
562.5162051192192
 21
1465.179429881124
 31
0.0
  0
LINE
  5
8C
330
1F
100
AcDbEntity
  8
0
  6
Continuous
 62
     7
370
    25
100
AcDbLine
 10
365.0162051192192
 20
1408.678925391024
 30
0.0
 11
366.0162051192192
 21
1407.678925391024
 31
0.0
  0
LINE
  5
8D
330
1F
100
AcDbEntity
  8
0
  6
Continuous
 62
     7
370
    25
100
AcDbLine
 10
555.0162051192192
 20
1407.678925391024
 30
0.0
 11
556.0162051192192
 21
1408.678925391024
 31
0.0
  0
LINE
  5
8E
330
1F
100
AcDbEntity
  8
0
  6
Continuous
 62
     7
370
    25
100
AcDbLine
 10
365.0162051192192
 20
1426.228925391024
 30
0.0
 11
365.0162051192192
 21
1417.478925391024
 31
0.0
  0
LINE
  5
8F
330
1F
100
AcDbEntity
  8
0
  6
Continuous
 62
     7
370
    25
100
AcDbLine
 10
556.0162051192192
 20
1417.478925391024
 30
0.0
 11
556.0162051192192
 21
1426.228925391024
 31
0.0
  0
LINE
  5
90
330
1F
100
AcDbEntity
  8
0
  6
Continuous
 62
     7
370
    25
100
AcDbLine
 10
365.0162051192192
 20
1411.378925391024
 30
0.0
 11
365.0162051192192
 21
1408.678925391024
 31
0.0
  0
LINE
  5
91
330
1F
100
AcDbEntity
  8
0
  6
Continuous
 62
     7
370
    25
100
AcDbLine
 10
556.0162051192192
 20
1408.678925391024
 30
0.0
 11
556.0162051192192
 21
1411.378925391024
 31
0.0
  0
LINE
  5
92
330
1F
100
AcDbEntity
  8
0
  6
Continuous
 62
     7
370
    25
100
AcDbLine
 10
365.0162051192192
 20
1417.478925391024
 30
0.0
 11
365.3162051192191
 21
1417.178925391024
 31
0.0
  0
LINE
  5
93
330
1F
100
AcDbEntity
  8
0
  6
Continuous
 62
     7
370
    25
100
AcDbLine
 10
555.7162051192191
 20
1417.178925391024
 30
0.0
 11
556.0162051192192
 21
1417.478925391024
 31
0.0
  0
LINE
  5
94
330
1F
100
AcDbEntity
  8
0
  6
Continuous
 62
     7
370
    25
100
AcDbLine
 10
556.0162051192192
 20
1434.378925391024
 30
0.0
 11
555.7162051192191
 21
1434.678925391024
 31
0.0
  0
LINE
  5
95
330
1F
100
AcDbEntity
  8
0
  6
Continuous
 62
     7
370
    25
100
AcDbLine
 10
365.3162051192191
 20
1434.678925391024
 30
0.0
 11
365.0162051192192
 21
1434.378925391024
 31
0.0
  0
LINE
  5
96
330
1F
100
AcDbEntity
  8
0
  6
Continuous
 62
     7
370
    25
100
AcDbLine
 10
556.0162051192192
 20
1426.228925391024
 30
0.0
 11
555.7162051192191
 21
1426.528925391024
 31
0.0
  0
LINE
  5
97
330
1F
100
AcDbEntity
  8
0
  6
Continuous
 62
     7
370
    25
100
AcDbLine
 10
365.3162051192191
 20
1426.528925391024
 30
0.0
 11
365.0162051192192
 21
1426.228925391024
 31
0.0
  0
LINE
  5
98
330
1F
100
AcDbEntity
  8
0
  6
Continuous
 62
     7
370
    25
100
AcDbLine
 10
365.0162051192192
 20
1434.378925391024
 30
0.0
 11
365.0162051192192
 21
1429.128925391024
 31
0.0
  0
LINE
  5
99
330
1F
100
AcDbEntity
  8
0
  6
Continuous
 62
     7
370
    25
100
AcDbLine
 10
556.0162051192192
 20
1429.128925391024
 30
0.0
 11
556.0162051192192
 21
1434.378925391024
 31
0.0
  0
LINE
  5
9A
330
1F
100
AcDbEntity
  8
0
  6
Continuous
 62
     7
370
    25
100
AcDbLine
 10
556.0162051192192
 20
1411.378925391024
 30
0.0
 11
555.7162051192191
 21
1411.678925391024
 31
0.0
  0
LINE
  5
9B
330
1F
100
AcDbEntity
  8
0
  6
Continuous
 62
     7
370
    25
100
AcDbLine
 10
365.3162051192191
 20
1411.678925391024
 30
0.0
 11
365.0162051192192
 21
1411.378925391024
 31
0.0
  0
LINE
  5
9C
330
1F
100
AcDbEntity
  8
0
  6
Continuous
 62
     7
370
    25
100
AcDbLine
 10
365.0162051192192
 20
1429.128925391024
 30
0.0
 11
365.2143981452191
 21
1428.930732365024
 31
0.0
  0
LINE
  5
9D
330
1F
100
AcDbEntity
  8
0
  6
Continuous
 62
     7
370
    25
100
AcDbLine
 10
555.8180120932192
 20
1428.930732365024
 30
0.0
 11
556.0162051192192
 21
1429.128925391024
 31
0.0
  0
LINE
  5
9E
330
1F
100
AcDbEntity
  8
0
  6
Continuous
 62
     7
370
    25
100
AcDbLine
 10
553.7662051192192
 20
1426.528925391024
 30
0.0
 11
553.7662051192192
 21
1426.678925391024
 31
0.0
  0
LINE
  5
9F
330
1F
100
AcDbEntity
  8
0
  6
Continuous
 62
     7
370
    25
100
AcDbLine
 10
367.2662051192192
 20
1426.678925391024
 30
0.0
 11
367.2662051192192
 21
1426.528925391024
 31
0.0
  0
LINE
  5
A0
330
1F
100
AcDbEntity
  8
0
  6
Continuous
 62
     7
370
    25
100
AcDbLine
 10
367.5162051192192
 20
1417.178925391024
 30
0.0
 11
367.5162051192192
 21
1417.128415133824
 31
0.0
  0
LINE
  5
A1
330
1F
100
AcDbEntity
  8
0
  6
Continuous
 62
     7
370
    25
100
AcDbLine
 10
367.5162051192192
 20
1412.229435648224
 30
0.0
 11
367.5162051192192
 21
1411.678925391024
 31
0.0
  0
LINE
  5
A2
330
1F
100
AcDbEntity
  8
0
  6
Continuous
 62
     7
370
    25
100
AcDbLine
 10
553.5162051192192
 20
1411.678925391024
 30
0.0
 11
553.5162051192192
 21
1412.229435648224
 31
0.0
  0
LINE
  5
A3
330
1F
100
AcDbEntity
  8
0
  6
Continuous
 62
     7
370
    25
100
AcDbLine
 10
553.5162051192192
 20
1417.128415133824
 30
0.0
 11
553.5162051192192
 21
1417.178925391024
 31
0.0
  0
LINE
  5
A4
330
1F
100
AcDbEntity
  8
0
  6
Continuous
 62
     7
370
    25
100
AcDbLine
 10
553.5162051192192
 20
1339.461150996224
 30
0.0
 11
553.5162051192192
 21
1376.461150996224
 31
0.0
  0
LINE
  5
A5
330
1F
100
AcDbEntity
  8
0
  6
Continuous
 62
     7
370
    25
100
AcDbLine
 10
367.5162051192192
 20
1376.461150996224
 30
0.0
 11
367.5162051192192
 21
1339.461150996224
 31
0.0
  0
ARC
  5
A6
330
1F
100
AcDbEntity
  8
0
  6
Continuous
 62
     7
370
    25
100
AcDbCircle
 10
552.5162051192192
 20
1376.461150996224
 30
0.0
 40
1.0
100
AcDbArc
 50
0.0
 51
90.0000000000977
  0
ARC
  5
A7
330
1F
100
AcDbEntity
  8
0
  6
Continuous
 62
     7
370
    25
100
AcDbCircle
 10
368.5162051192192
 20
1376.461150996224
 30
0.0
 40
1.0
100
AcDbArc
 50
89.9999999999023
 51
180.0
  0
SPLINE
  5
A8
330
1F
100
AcDbEntity
  8
0
  6
Continuous
 62
     7
370
    25
100
AcDbSpline
210
0.0
220
0.0
230
1.0
 70
     8
 71
     3
 72
    11
 73
     7
 74
     0
 42
0.000000001
 43
0.00000001
 40
0.0
 40
0.0
 40
0.0
 40
0.0
 40
0.1680441479328453
 40
0.3631457309140113
 40
0.6396876857575053
 40
1.0
 40
1.0
 40
1.0
 40
1.0
 10
486.6743719206797
 20
1401.353263588397
 30
0.0
 10
486.6130938485776
 20
1400.778299242072
 30
0.0
 10
486.4806710861293
 20
1399.535793327026
 30
0.0
 10
486.3923802790711
 20
1397.434957094081
 30
0.0
 10
486.4150062317223
 20
1394.694959829743
 30
0.0
 10
486.6890584342526
 20
1392.600347101761
 30
0.0
 10
486.8441086366463
 20
1391.415280445076
 30
0.0
  0
SPLINE
  5
A9
330
1F
100
AcDbEntity
  8
0
  6
Continuous
 62
     7
370
    25
100
AcDbSpline
210
0.0
220
0.0
230
1.0
 70
     8
 71
     3
 72
    14
 73
    10
 74
     0
 42
0.000000001
 43
0.00000001
 40
0.0
 40
0.0
 40
0.0
 40
0.0
 40
0.1836394167449772
 40
0.3527875592517161
 40
0.5253936408464074
 40
0.6982757578229315
 40
0.8080158489765821
 40
0.9161281133804798
 40
1.0
 40
1.0
 40
1.0
 40
1.0
 10
394.7863718221453
 20
1381.954261827962
 30
0.0
 10
395.8140743818286
 20
1383.315329596403
 30
0.0
 10
397.788381881242
 20
1385.930061142144
 30
0.0
 10
400.1493189940007
 20
1390.264594351286
 30
0.0
 10
402.0426623470152
 20
1394.69185491514
 30
0.0
 10
403.3435811779181
 20
1398.709882377211
 30
0.0
 10
404.0622483471823
 20
1402.264691338053
 30
0.0
 10
404.4258859855432
 20
1405.060871919703
 30
0.0
 10
404.4583741015484
 20
1406.882926558502
 30
0.0
 10
404.4725671459614
 20
1407.678925391037
 30
0.0
  0
SPLINE
  5
AA
330
1F
100
AcDbEntity
  8
0
  6
Continuous
 62
     7
370
    25
100
AcDbSpline
210
0.0
220
0.0
230
1.0
 70
     8
 71
     3
 72
    10
 73
     6
 74
     0
 42
0.000000001
 43
0.00000001
 40
0.0
 40
0.0
 40
0.0
 40
0.0
 40
0.463867741697598
 40
0.9616657467995511
 40
1.0
 40
1.0
 40
1.0
 40
1.0
 10
387.4756848251421
 20
1381.876811210311
 30
0.0
 10
387.9249854082424
 20
1382.394368443646
 30
0.0
 10
388.8564513023853
 20
1383.46734036768
 30
0.0
 10
389.8461041832973
 20
1384.621193053214
 30
0.0
 10
390.3653668354165
 20
1385.241194922671
 30
0.0
 10
390.4024948867054
 20
1385.285525977705
 30
0.0
  0
SPLINE
  5
AB
330
1F
100
AcDbEntity
  8
0
  6
Continuous
 62
     7
370
    25
100
AcDbSpline
210
0.0
220
0.0
230
1.0
 70
     8
 71
     3
 72
    10
 73
     6
 74
     0
 42
0.000000001
 43
0.00000001
 40
0.0
 40
0.0
 40
0.0
 40
0.0
 40
0.0480112197743899
 40
0.4814546072373445
 40
1.0
 40
1.0
 40
1.0
 40
1.0
 10
539.5394364007685
 20
1313.712202053298
 30
0.0
 10
539.6026247980972
 20
1313.616201178891
 30
0.0
 10
540.236275539752
 20
1312.653508218797
 30
0.0
 10
541.6951302258423
 20
1310.711483352292
 30
0.0
 10
543.1888524804498
 20
1308.94773979482
 30
0.0
 10
544.0024784488253
 20
1307.987034044143
 30
0.0
  0
SPLINE
  5
AC
330
1F
100
AcDbEntity
  8
0
  6
Continuous
 62
     7
370
    25
100
AcDbSpline
210
0.0
220
0.0
230
1.0
 70
     8
 71
     3
 72
    17
 73
    13
 74
     0
 42
0.000000001
 43
0.00000001
 40
0.0
 40
0.0
 40
0.0
 40
0.0
 40
0.0857947089068599
 40
0.1884806530491016
 40
0.2831826109469996
 40
0.4115211847052665
 40
0.5276192733393927
 40
0.5995146920825818
 40
0.7037204276649304
 40
0.7922616072216913
 40
0.8935428944101496
 40
1.0
 40
1.0
 40
1.0
 40
1.0
 10
519.3425337951238
 20
1339.461150996241
 30
0.0
 10
519.210014793143
 20
1338.561813368254
 30
0.0
 10
518.9188864898593
 20
1336.586076803678
 30
0.0
 10
519.0329339533846
 20
1333.579546181293
 30
0.0
 10
519.3245676571072
 20
1330.143088886704
 30
0.0
 10
520.0044653526021
 20
1326.607205333227
 30
0.0
 10
520.9464073968064
 20
1323.436227015711
 30
0.0
 10
521.9943551279933
 20
1320.665932219879
 30
0.0
 10
523.0861696048217
 20
1318.18357265507
 30
0.0
 10
524.4781129150919
 20
1315.445898196643
 30
0.0
 10
526.0342116083962
 20
1312.71133635091
 30
0.0
 10
527.314733886832
 20
1310.885495791996
 30
0.0
 10
527.9709471827107
 20
1309.949830031945
 30
0.0
  0
SPLINE
  5
AD
330
1F
100
AcDbEntity
  8
0
  6
Continuous
 62
     7
370
    25
100
AcDbSpline
210
0.0
220
0.0
230
1.0
 70
     8
 71
     3
 72
     9
 73
     5
 74
     0
 42
0.000000001
 43
0.00000001
 40
0.0
 40
0.0
 40
0.0
 40
0.0
 40
0.3340911307938205
 40
1.0
 40
1.0
 40
1.0
 40
1.0
 10
532.4810383452515
 20
1313.205173746221
 30
0.0
 10
532.7929912169003
 20
1312.813352009194
 30
0.0
 10
533.7267270838406
 20
1311.640553030377
 30
0.0
 10
534.6560258383188
 20
1310.506971272924
 30
0.0
 10
535.2748541210682
 20
1309.752109126666
 30
0.0
  0
SPLINE
  5
AE
330
1F
100
AcDbEntity
  8
0
  6
Continuous
 62
     7
370
    25
100
AcDbSpline
210
0.0
220
0.0
230
1.0
 70
     8
 71
     3
 72
    11
 73
     7
 74
     0
 42
0.000000001
 43
0.00000001
 40
0.0
 40
0.0
 40
0.0
 40
0.0
 40
0.1336671155301793
 40
0.4143415662368265
 40
0.7524607202989777
 40
1.0
 40
1.0
 40
1.0
 40
1.0
 10
487.5933407129912
 20
1339.461150996241
 30
0.0
 10
487.446324132524
 20
1338.921819185
 30
0.0
 10
486.9906018707546
 20
1337.249997462025
 30
0.0
 10
486.6943814187116
 20
1334.237319661516
 30
0.0
 10
486.5312566703856
 20
1330.792201124849
 30
0.0
 10
486.8409937378967
 20
1328.483211216672
 30
0.0
 10
486.9719097909547
 20
1327.507274278422
 30
0.0
  0
LINE
  5
AF
330
1F
100
AcDbEntity
  8
0
  6
Continuous
 62
     7
370
    25
100
AcDbLine
 10
487.1253955335192
 20
1326.091139822524
 30
0.0
 11
487.1596056509192
 21
1325.775500563624
 31
0.0
  0
SPLINE
  5
B0
330
1F
100
AcDbEntity
  8
0
  6
Continuous
 62
     7
370
    25
100
AcDbSpline
210
0.0
220
0.0
230
1.0
 70
     8
 71
     3
 72
    10
 73
     6
 74
     0
 42
0.000000001
 43
0.00000001
 40
0.0
 40
0.0
 40
0.0
 40
0.0
 40
0.4061114882044627
 40
0.8597418665720873
 40
1.0
 40
1.0
 40
1.0
 40
1.0
 10
378.743983355164
 20
1310.211605633732
 30
0.0
 10
379.4089898531261
 20
1310.944883108613
 30
0.0
 10
380.8168149071977
 20
1312.497238467375
 30
0.0
 10
382.3668774979358
 20
1314.398332590979
 30
0.0
 10
383.1875280286505
 20
1315.572618725212
 30
0.0
 10
383.3813403509106
 20
1315.849948860459
 30
0.0
  0
SPLINE
  5
B1
330
1F
100
AcDbEntity
  8
0
  6
Continuous
 62
     7
370
    25
100
AcDbSpline
210
0.0
220
0.0
230
1.0
 70
     8
 71
     3
 72
    10
 73
     6
 74
     0
 42
0.000000001
 43
0.00000001
 40
0.0
 40
0.0
 40
0.0
 40
0.0
 40
0.5158108057413493
 40
0.9306293824503112
 40
1.0
 40
1.0
 40
1.0
 40
1.0
 10
387.6602637862867
 20
1379.867975164196
 30
0.0
 10
388.2502211692987
 20
1380.551713939587
 30
0.0
 10
389.31462631342
 20
1381.785320113044
 30
0.0
 10
390.5196255248084
 20
1383.187142371415
 30
0.0
 10
391.0259983227025
 20
1383.781275525246
 30
0.0
 10
391.0985472232497
 20
1383.866398002734
 30
0.0
  0
SPLINE
  5
B2
330
1F
100
AcDbEntity
  8
0
  6
Continuous
 62
     7
370
    25
100
AcDbSpline
210
0.0
220
0.0
230
1.0
 70
     8
 71
     3
 72
    15
 73
    11
 74
     0
 42
0.000000001
 43
0.00000001
 40
0.0
 40
0.0
 40
0.0
 40
0.0
 40
0.1654902067549481
 40
0.3003318972319377
 40
0.4204139101086711
 40
0.58843707759332
 40
0.7614979292896896
 40
0.8565993386786502
 40
0.9586157490782642
 40
0.9999999999999999
 40
0.9999999999999999
 40
0.9999999999999999
 40
0.9999999999999999
 10
394.8903196531726
 20
1379.11285688004
 30
0.0
 10
395.8894246719968
 20
1380.470418284027
 30
0.0
 10
397.7026020902942
 20
1382.934122934972
 30
0.0
 10
399.7804465812078
 20
1386.679883781844
 30
0.0
 10
401.5565479680164
 20
1390.634091550277
 30
0.0
 10
403.1492675245004
 20
1395.132131688854
 30
0.0
 10
404.1030938476426
 20
1399.549814783402
 30
0.0
 10
404.4318970669606
 20
1403.339301860336
 30
0.0
 10
404.6031329915731
 20
1405.802485295889
 30
0.0
 10
404.4010338479561
 20
1407.258679675115
 30
0.0
 10
404.3427096980292
 20
1407.678925391037
 30
0.0
  0
SPLINE
  5
B3
330
1F
100
AcDbEntity
  8
0
  6
Continuous
 62
     7
370
    25
100
AcDbSpline
210
0.0
220
0.0
230
1.0
 70
     8
 71
     3
 72
    11
 73
     7
 74
     0
 42
0.000000001
 43
0.00000001
 40
0.0
 40
0.0
 40
0.0
 40
0.0
 40
0.1680441479328453
 40
0.3631457309140113
 40
0.6396876857575053
 40
1.0
 40
1.0
 40
1.0
 40
1.0
 10
486.6743719206797
 20
1331.353263588397
 30
0.0
 10
486.6130938485776
 20
1330.778299242072
 30
0.0
 10
486.4806710861293
 20
1329.535793327026
 30
0.0
 10
486.3923802790711
 20
1327.434957094081
 30
0.0
 10
486.4150062317223
 20
1324.694959829743
 30
0.0
 10
486.6890584342526
 20
1322.60034710176
 30
0.0
 10
486.8441086366463
 20
1321.415280445076
 30
0.0
  0
SPLINE
  5
B4
330
1F
100
AcDbEntity
  8
0
  6
Continuous
 62
     7
370
    25
100
AcDbSpline
210
0.0
220
0.0
230
1.0
 70
     8
 71
     3
 72
    10
 73
     6
 74
     0
 42
0.000000001
 43
0.00000001
 40
0.0
 40
0.0
 40
0.0
 40
0.0
 40
0.4788311296425894
 40
0.8753902792235154
 40
1.0
 40
1.0
 40
1.0
 40
1.0
 10
436.0644541785762
 20
1322.322662908924
 30
0.0
 10
436.2476759213868
 20
1323.437884861731
 30
0.0
 10
436.5826385473933
 20
1325.476713158866
 30
0.0
 10
436.7197171105117
 20
1327.812780744068
 30
0.0
 10
436.6970557078062
 20
1329.035706414786
 30
0.0
 10
436.6916374427788
 20
1329.328103821896
 30
0.0
  0
SPLINE
  5
B5
330
1F
100
AcDbEntity
  8
0
  6
Continuous
 62
     7
370
    25
100
AcDbSpline
210
0.0
220
0.0
230
1.0
 70
     8
 71
     3
 72
    10
 73
     6
 74
     0
 42
0.000000001
 43
0.00000001
 40
0.0
 40
0.0
 40
0.0
 40
0.0
 40
0.0256055766473489
 40
0.4606312721605371
 40
1.0
 40
1.0
 40
1.0
 40
1.0
 10
531.913570365412
 20
1312.122562123337
 30
0.0
 10
531.9386791494409
 20
1312.091210270545
 30
0.0
 10
532.3903733756201
 20
1311.527206419536
 30
0.0
 10
533.5214816379552
 20
1310.130494011577
 30
0.0
 10
534.5598152164733
 20
1308.854976273432
 30
0.0
 10
535.1345769842914
 20
1308.148922992264
 30
0.0
  0
SPLINE
  5
B6
330
1F
100
AcDbEntity
  8
0
  6
Continuous
 62
     7
370
    25
100
AcDbSpline
210
0.0
220
0.0
230
1.0
 70
     8
 71
     3
 72
    15
 73
    11
 74
     0
 42
0.000000001
 43
0.00000001
 40
0.0
 40
0.0
 40
0.0
 40
0.0
 40
0.0145742116192833
 40
0.1367876818423538
 40
0.2519720784160866
 40
0.4171671641166067
 40
0.584266067981469
 40
0.7035241309539765
 40
0.8379943320568096
 40
1.0
 40
1.0
 40
1.0
 40
1.0
 10
519.0525991243638
 20
1334.274321116991
 30
0.0
 10
519.0404742285851
 20
1334.136065311543
 30
0.0
 10
518.9266748389883
 20
1332.838451991345
 30
0.0
 10
519.1130252031319
 20
1330.428098702728
 30
0.0
 10
519.5272279474927
 20
1326.605841491223
 30
0.0
 10
520.5192635008393
 20
1322.427835667005
 30
0.0
 10
521.9425536910178
 20
1318.34287128713
 30
0.0
 10
523.550345287682
 20
1314.687541228313
 30
0.0
 10
525.4076692348452
 20
1311.236986080482
 30
0.0
 10
527.0112266983963
 20
1308.941037330149
 30
0.0
 10
527.8874713614233
 20
1307.686443787484
 30
0.0
  0
SPLINE
  5
B7
330
1F
100
AcDbEntity
  8
0
  6
Continuous
 62
     7
370
    25
100
AcDbSpline
210
0.0
220
0.0
230
1.0
 70
     8
 71
     3
 72
    10
 73
     6
 74
     0
 42
0.000000001
 43
0.00000001
 40
0.0
 40
0.0
 40
0.0
 40
0.0
 40
0.4788311296425833
 40
0.8753902792235042
 40
1.0
 40
1.0
 40
1.0
 40
1.0
 10
436.0644541785762
 20
1392.322662908924
 30
0.0
 10
436.2476759213868
 20
1393.437884861731
 30
0.0
 10
436.5826385473933
 20
1395.476713158866
 30
0.0
 10
436.7197171105117
 20
1397.812780744067
 30
0.0
 10
436.6970557078062
 20
1399.035706414786
 30
0.0
 10
436.6916374427788
 20
1399.328103821896
 30
0.0
  0
SPLINE
  5
B8
330
1F
100
AcDbEntity
  8
0
  6
Continuous
 62
     7
370
    25
100
AcDbSpline
210
0.0
220
0.0
230
1.0
 70
     8
 71
     3
 72
    10
 73
     6
 74
     0
 42
0.000000001
 43
0.00000001
 40
0.0
 40
0.0
 40
0.0
 40
0.0
 40
0.4061114882044631
 40
0.8597418665720882
 40
1.0
 40
1.0
 40
1.0
 40
1.0
 10
378.743983355164
 20
1380.211605633732
 30
0.0
 10
379.4089898531261
 20
1380.944883108613
 30
0.0
 10
380.8168149071977
 20
1382.497238467375
 30
0.0
 10
382.3668774979358
 20
1384.398332590979
 30
0.0
 10
383.1875280286505
 20
1385.572618725212
 30
0.0
 10
383.3813403509106
 20
1385.849948860459
 30
0.0
  0
SPLINE
  5
B9
330
1F
100
AcDbEntity
  8
0
  6
Continuous
 62
     7
370
    25
100
AcDbSpline
210
0.0
220
0.0
230
1.0
 70
     8
 71
     3
 72
    10
 73
     6
 74
     0
 42
0.000000001
 43
0.00000001
 40
0.0
 40
0.0
 40
0.0
 40
0.0
 40
0.3130575897181216
 40
0.7096511897820247
 40
1.0
 40
1.0
 40
1.0
 40
1.0
 10
487.1611689904821
 20
1407.678925391042
 30
0.0
 10
487.0035393472377
 20
1406.608022939271
 30
0.0
 10
486.6462183061669
 20
1404.180459372694
 30
0.0
 10
486.539954035366
 20
1400.792598727503
 30
0.0
 10
486.8435776857734
 20
1398.483329342626
 30
0.0
 10
486.9719097909547
 20
1397.507274278422
 30
0.0
  0
LINE
  5
BA
330
1F
100
AcDbEntity
  8
0
  6
Continuous
 62
     7
370
    25
100
AcDbLine
 10
487.1253955335192
 20
1396.091139822524
 30
0.0
 11
487.1596056509192
 21
1395.775500563624
 31
0.0
  0
SPLINE
  5
BB
330
1F
100
AcDbEntity
  8
0
  6
Continuous
 62
     7
370
    25
100
AcDbSpline
210
0.0
220
0.0
230
1.0
 70
     8
 71
     3
 72
    10
 73
     6
 74
     0
 42
0.000000001
 43
0.00000001
 40
0.0
 40
0.0
 40
0.0
 40
0.0
 40
0.5158108057413425
 40
0.9306293824502989
 40
1.0
 40
1.0
 40
1.0
 40
1.0
 10
387.6602637862867
 20
1309.867975164196
 30
0.0
 10
388.2502211692987
 20
1310.551713939587
 30
0.0
 10
389.31462631342
 20
1311.785320113045
 30
0.0
 10
390.5196255248084
 20
1313.187142371414
 30
0.0
 10
391.0259983227025
 20
1313.781275525246
 30
0.0
 10
391.0985472232497
 20
1313.866398002734
 30
0.0
  0
SPLINE
  5
BC
330
1F
100
AcDbEntity
  8
0
  6
Continuous
 62
     7
370
    25
100
AcDbSpline
210
0.0
220
0.0
230
1.0
 70
     8
 71
     3
 72
    15
 73
    11
 74
     0
 42
0.000000001
 43
0.00000001
 40
0.0
 40
0.0
 40
0.0
 40
0.0
 40
0.1702479402118486
 40
0.3089662396722166
 40
0.4325005306108269
 40
0.605354252489911
 40
0.7833904886536814
 40
0.8812260003567338
 40
0.9861753147536813
 40
1.0
 40
1.0
 40
1.0
 40
1.0
 10
394.8903196531726
 20
1309.11285688004
 30
0.0
 10
395.8894340117538
 20
1310.470419043563
 30
0.0
 10
397.7026283798573
 20
1312.934125072915
 30
0.0
 10
399.7803674189774
 20
1316.679877344146
 30
0.0
 10
401.5568540964568
 20
1320.634116445515
 30
0.0
 10
403.1475754701806
 20
1325.131994086168
 30
0.0
 10
404.1083136099934
 20
1329.550239269372
 30
0.0
 10
404.4215875592732
 20
1333.338463461751
 30
0.0
 10
404.6099056463817
 20
1335.516050120932
 30
0.0
 10
404.4610359990704
 20
1336.689587328127
 30
0.0
 10
404.4437083345733
 20
1336.826181048663
 30
0.0
  0
SPLINE
  5
BD
330
1F
100
AcDbEntity
  8
0
  6
Continuous
 62
     7
370
    25
100
AcDbSpline
210
0.0
220
0.0
230
1.0
 70
     8
 71
     3
 72
    15
 73
    11
 74
     0
 42
0.000000001
 43
0.00000001
 40
0.0
 40
0.0
 40
0.0
 40
0.0
 40
0.1727775599984192
 40
0.3319209719009083
 40
0.4943177936041335
 40
0.6569743238197884
 40
0.7602235364322552
 40
0.8619412045707324
 40
0.9803813800315707
 40
0.9999999999999999
 40
0.9999999999999999
 40
0.9999999999999999
 40
0.9999999999999999
 10
394.7863718221453
 20
1311.954261827962
 30
0.0
 10
395.8141287153694
 20
1313.315329518869
 30
0.0
 10
397.7885405943192
 20
1315.930060915662
 30
0.0
 10
400.1487372639865
 20
1320.264595181409
 30
0.0
 10
402.0449014084918
 20
1324.691851720022
 30
0.0
 10
403.3365034266141
 20
1328.709892477089
 30
0.0
 10
404.0780991027864
 20
1332.264668719187
 30
0.0
 10
404.4133869064143
 20
1335.450321481167
 30
0.0
 10
404.6414550149335
 20
1337.881124893658
 30
0.0
 10
404.4704031952269
 20
1339.264560180945
 30
0.0
 10
404.4460961553508
 20
1339.461150996241
 30
0.0
  0
SPLINE
  5
BE
330
1F
100
AcDbEntity
  8
0
  6
Continuous
 62
     7
370
    25
100
AcDbSpline
210
0.0
220
0.0
230
1.0
 70
     8
 71
     3
 72
    10
 73
     6
 74
     0
 42
0.000000001
 43
0.00000001
 40
0.0
 40
0.0
 40
0.0
 40
0.0
 40
0.463867741697598
 40
0.9616657467995511
 40
1.0
 40
1.0
 40
1.0
 40
1.0
 10
387.4756848251421
 20
1311.876811210311
 30
0.0
 10
387.9249854082424
 20
1312.394368443646
 30
0.0
 10
388.8564513023853
 20
1313.46734036768
 30
0.0
 10
389.8461041832973
 20
1314.621193053214
 30
0.0
 10
390.3653668354165
 20
1315.241194922671
 30
0.0
 10
390.4024948867054
 20
1315.285525977705
 30
0.0
  0
SPLINE
  5
BF
330
1F
100
AcDbEntity
  8
0
  6
Continuous
 62
     7
370
    25
100
AcDbSpline
210
0.0
220
0.0
230
1.0
 70
     8
 71
     3
 72
    17
 73
    13
 74
     0
 42
0.000000001
 43
0.00000001
 40
0.0
 40
0.0
 40
0.0
 40
0.0
 40
0.0309839948834556
 40
0.1398264226661209
 40
0.2402061883631749
 40
0.3762392361449128
 40
0.4992979267322173
 40
0.5755037987999697
 40
0.6859571363468323
 40
0.7798067573655516
 40
0.8871603127000092
 40
1.0
 40
1.0
 40
1.0
 40
1.0
 10
519.1305682959547
 20
1407.678925391042
 30
0.0
 10
519.0896982583564
 20
1407.372213003184
 30
0.0
 10
518.9052575116706
 20
1405.988063020495
 30
0.0
 10
519.0456127148778
 20
1403.578670507565
 30
0.0
 10
519.3199478939364
 20
1400.143407956137
 30
0.0
 10
520.0057322494785
 20
1396.607117833488
 30
0.0
 10
520.9462201208959
 20
1393.436239950145
 30
0.0
 10
521.994415964111
 20
1390.66592801816
 30
0.0
 10
523.0861540086315
 20
1388.183573732239
 30
0.0
 10
524.4781174089647
 20
1385.445897886269
 30
0.0
 10
526.0342103521955
 20
1382.711336437671
 30
0.0
 10
527.3147334612006
 20
1380.885495821393
 30
0.0
 10
527.9709471827107
 20
1379.949830031945
 30
0.0
  0
SPLINE
  5
C0
330
1F
100
AcDbEntity
  8
0
  6
Continuous
 62
     7
370
    25
100
AcDbSpline
210
0.0
220
0.0
230
1.0
 70
     8
 71
     3
 72
     9
 73
     5
 74
     0
 42
0.000000001
 43
0.00000001
 40
0.0
 40
0.0
 40
0.0
 40
0.0
 40
0.3340911307938205
 40
1.0
 40
1.0
 40
1.0
 40
1.0
 10
532.4810383452515
 20
1383.205173746221
 30
0.0
 10
532.7929912169003
 20
1382.813352009194
 30
0.0
 10
533.7267270838406
 20
1381.640553030377
 30
0.0
 10
534.6560258383188
 20
1380.506971272924
 30
0.0
 10
535.2748541210682
 20
1379.752109126666
 30
0.0
  0
LINE
  5
C1
330
1F
100
AcDbEntity
  8
0
  6
Continuous
 62
     7
370
    25
100
AcDbLine
 10
436.2401966197191
 20
1326.320485027624
 30
0.0
 11
436.2977227271191
 21
1326.703739250324
 31
0.0
  0
SPLINE
  5
C2
330
1F
100
AcDbEntity
  8
0
  6
Continuous
 62
     7
370
    25
100
AcDbSpline
210
0.0
220
0.0
230
1.0
 70
     8
 71
     3
 72
    14
 73
    10
 74
     0
 42
0.000000001
 43
0.00000001
 40
0.0
 40
0.0
 40
0.0
 40
0.0
 40
0.2107174791062209
 40
0.4676212176018934
 40
0.6085622430760245
 40
0.7275103710019343
 40
0.8428412773628322
 40
0.9931199172359574
 40
1.0
 40
1.0
 40
1.0
 40
1.0
 10
436.4189156487328
 20
1327.511158717582
 30
0.0
 10
436.5538313755698
 20
1328.29951361896
 30
0.0
 10
436.8532344280587
 20
1330.049019547223
 30
0.0
 10
436.933776412055
 20
1332.390933205905
 30
0.0
 10
436.8975886710994
 20
1334.435712517171
 30
0.0
 10
436.8103824028765
 20
1335.967314458564
 30
0.0
 10
436.6352987990047
 20
1337.596255498749
 30
0.0
 10
436.489128407576
 20
1338.772146139346
 30
0.0
 10
436.3059877923797
 20
1339.432252892352
 30
0.0
 10
436.2979702762733
 20
1339.461150996241
 30
0.0
  0
LINE
  5
C3
330
1F
100
AcDbEntity
  8
0
  6
Continuous
 62
     7
370
    25
100
AcDbLine
 10
436.2401966197191
 20
1396.320485027624
 30
0.0
 11
436.2977227271191
 21
1396.703739250324
 31
0.0
  0
SPLINE
  5
C4
330
1F
100
AcDbEntity
  8
0
  6
Continuous
 62
     7
370
    25
100
AcDbSpline
210
0.0
220
0.0
230
1.0
 70
     8
 71
     3
 72
    13
 73
     9
 74
     0
 42
0.000000001
 43
0.00000001
 40
0.0
 40
0.0
 40
0.0
 40
0.0
 40
0.2422970245703392
 40
0.5377020934925988
 40
0.6997654935347938
 40
0.8365399917724635
 40
0.9691551671759214
 40
1.0
 40
1.0
 40
1.0
 40
1.0
 10
436.4189156487328
 20
1397.511158717582
 30
0.0
 10
436.5539647211974
 20
1398.29952074815
 30
0.0
 10
436.8536636923972
 20
1400.049042497409
 30
0.0
 10
436.9320269024688
 20
1402.390839670134
 30
0.0
 10
436.9007324014142
 20
1404.435880593554
 30
0.0
 10
436.8006238369223
 20
1405.96679272664
 30
0.0
 10
436.7154972580488
 20
1407.074601838352
 30
0.0
 10
436.6091466463673
 20
1407.680907447024
 30
0.0
 10
436.5890783319605
 20
1407.795317053035
 30
0.0
  0
SPLINE
  5
C5
330
1F
100
AcDbEntity
  8
0
  6
Continuous
 62
     7
370
    25
100
AcDbSpline
210
0.0
220
0.0
230
1.0
 70
     8
 71
     3
 72
    10
 73
     6
 74
     0
 42
0.000000001
 43
0.00000001
 40
0.0
 40
0.0
 40
0.0
 40
0.0
 40
0.0256055766473489
 40
0.4606312721605371
 40
1.0
 40
1.0
 40
1.0
 40
1.0
 10
531.913570365412
 20
1382.122562123337
 30
0.0
 10
531.9386791494409
 20
1382.091210270545
 30
0.0
 10
532.3903733756201
 20
1381.527206419536
 30
0.0
 10
533.5214816379552
 20
1380.130494011577
 30
0.0
 10
534.5598152164733
 20
1378.854976273432
 30
0.0
 10
535.1345769842914
 20
1378.148922992264
 30
0.0
  0
SPLINE
  5
C6
330
1F
100
AcDbEntity
  8
0
  6
Continuous
 62
     7
370
    25
100
AcDbSpline
210
0.0
220
0.0
230
1.0
 70
     8
 71
     3
 72
    16
 73
    12
 74
     0
 42
0.000000001
 43
0.00000001
 40
0.0
 40
0.0
 40
0.0
 40
0.0
 40
0.0036039444362824
 40
0.1199579305197179
 40
0.2291016088379119
 40
0.3319679189424558
 40
0.4794966591094338
 40
0.6287256187115201
 40
0.7352299478837818
 40
0.8553195938594835
 40
1.0
 40
1.0
 40
1.0
 40
1.0
 10
519.3558817183392
 20
1407.678925391042
 30
0.0
 10
519.3444720893174
 20
1407.642100471191
 30
0.0
 10
518.9647005613023
 20
1406.416376474895
 30
0.0
 10
519.0242214671539
 20
1403.922103633709
 30
0.0
 10
519.0688936897031
 20
1400.433702612778
 30
0.0
 10
519.5444577744996
 20
1396.603653612467
 30
0.0
 10
520.5138431079683
 20
1392.428523959604
 30
0.0
 10
521.9435504882407
 20
1388.342744711775
 30
0.0
 10
523.5500863529606
 20
1384.687574108375
 30
0.0
 10
525.4077535384043
 20
1381.236975375444
 30
0.0
 10
527.0112564872826
 20
1378.941033547495
 30
0.0
 10
527.8874713614233
 20
1377.686443787483
 30
0.0
  0
SPLINE
  5
C7
330
1F
100
AcDbEntity
  8
0
  6
Continuous
 62
     7
370
    25
100
AcDbSpline
210
0.0
220
0.0
230
1.0
 70
     8
 71
     3
 72
    10
 73
     6
 74
     0
 42
0.000000001
 43
0.00000001
 40
0.0
 40
0.0
 40
0.0
 40
0.0
 40
0.0480112197743899
 40
0.4814546072373445
 40
1.0
 40
1.0
 40
1.0
 40
1.0
 10
539.5394364007685
 20
1383.712202053298
 30
0.0
 10
539.6026247980972
 20
1383.616201178891
 30
0.0
 10
540.236275539752
 20
1382.653508218798
 30
0.0
 10
541.6951302258423
 20
1380.711483352292
 30
0.0
 10
543.1888524804498
 20
1378.94773979482
 30
0.0
 10
544.0024784488253
 20
1377.987034044143
 30
0.0
  0
LINE
  5
C8
330
1F
100
AcDbEntity
  8
0
  6
Continuous
 62
     7
370
    25
100
AcDbLine
 10
402.1887394489191
 20
1378.717584871324
 30
0.0
 11
381.2141211429191
 21
1377.985804139524
 31
0.0
  0
LINE
  5
C9
330
1F
100
AcDbEntity
  8
0
  6
Continuous
 62
     7
370
    25
100
AcDbLine
 10
402.9281758598191
 20
1378.867762753924
 30
0.0
 11
402.9004460823191
 21
1378.690040632124
 31
0.0
  0
SPLINE
  5
CA
330
1F
100
AcDbEntity
  8
0
  6
Continuous
 62
     7
370
    25
100
AcDbSpline
210
0.0
220
0.0
230
1.0
 70
     8
 71
     3
 72
     9
 73
     5
 74
     0
 42
0.000000001
 43
0.00000001
 40
0.0
 40
0.0
 40
0.0
 40
0.0
 40
0.6053305490033055
 40
1.0
 40
1.0
 40
1.0
 40
1.0
 10
410.3045351269872
 20
1378.229861237879
 30
0.0
 10
410.2511421576716
 20
1378.325808981924
 30
0.0
 10
410.1629375074957
 20
1378.484313693446
 30
0.0
 10
410.1670062739537
 20
1378.665073135837
 30
0.0
 10
410.168612091778
 20
1378.736413365728
 30
0.0
  0
LINE
  5
CB
330
1F
100
AcDbEntity
  8
0
  6
Continuous
 62
     7
370
    25
100
AcDbLine
 10
410.1523405835192
 20
1378.734434578824
 30
0.0
 11
410.1161900967192
 21
1380.804232225924
 31
0.0
  0
LINE
  5
CC
330
1F
100
AcDbEntity
  8
0
  6
Continuous
 62
     7
370
    25
100
AcDbLine
 10
403.0498669876191
 20
1380.927612946124
 30
0.0
 11
402.9414816382191
 21
1378.860338950324
 31
0.0
  0
SPLINE
  5
CD
330
1F
100
AcDbEntity
  8
0
  6
Continuous
 62
     7
370
    25
100
AcDbSpline
210
0.0
220
0.0
230
1.0
 70
     8
 71
     3
 72
    18
 73
    14
 74
     0
 42
0.000000001
 43
0.00000001
 40
0.0
 40
0.0
 40
0.0
 40
0.0
 40
0.0054377708021662
 40
0.1218432674287764
 40
0.2140409109372423
 40
0.2918304094702111
 40
0.3581260327805869
 40
0.4120661913899755
 40
0.4569367665670047
 40
0.5118037780255164
 40
0.6245370180787784
 40
0.9157274918713445
 40
0.9999999999999999
 40
0.9999999999999999
 40
0.9999999999999999
 40
0.9999999999999999
 10
410.1133000877021
 20
1380.801197192676
 30
0.0
 10
410.114193900372
 20
1380.806803591881
 30
0.0
 10
410.1342214190249
 20
1380.93242528918
 30
0.0
 10
410.0571994489985
 20
1381.158400954918
 30
0.0
 10
409.9102852352257
 20
1381.416569319126
 30
0.0
 10
409.7304460316594
 20
1381.587708682344
 30
0.0
 10
409.5576653380971
 20
1381.692285801839
 30
0.0
 10
409.4140632178697
 20
1381.747576419451
 30
0.0
 10
409.3078092038162
 20
1381.775316444758
 30
0.0
 10
409.2007993912687
 20
1381.795181308535
 30
0.0
 10
409.017300151975
 20
1381.81736964237
 30
0.0
 10
408.7581714007802
 20
1381.835977068664
 30
0.0
 10
408.4838554234094
 20
1381.849624576117
 30
0.0
 10
408.4222853178441
 20
1381.852687753416
 30
0.0
  0
SPLINE
  5
CE
330
1F
100
AcDbEntity
  8
0
  6
Continuous
 62
     7
370
    25
100
AcDbSpline
210
0.0
220
0.0
230
1.0
 70
     8
 71
     3
 72
    18
 73
    14
 74
     0
 42
0.000000001
 43
0.00000001
 40
0.0
 40
0.0
 40
0.0
 40
0.0
 40
0.0935039932553353
 40
0.3016130484944696
 40
0.5127611980369912
 40
0.6255797620642767
 40
0.6750379475420598
 40
0.7148635449089531
 40
0.7642739041900543
 40
0.8276980109729756
 40
0.9014951653157063
 40
0.9836134166537569
 40
1.0
 40
1.0
 40
1.0
 40
1.0
 10
405.8429836184882
 20
1381.915873091112
 30
0.0
 10
405.7098668270798
 20
1381.917213027408
 30
0.0
 10
405.280475954405
 20
1381.921535220044
 30
0.0
 10
404.6787791825988
 20
1381.916964056347
 30
0.0
 10
404.2310203006003
 20
1381.904178358531
 30
0.0
 10
404.0259014717658
 20
1381.889436888712
 30
0.0
 10
403.8881997841834
 20
1381.869997516105
 30
0.0
 10
403.7436705692726
 20
1381.835446439114
 30
0.0
 10
403.5488982301558
 20
1381.75439460121
 30
0.0
 10
403.3293109336926
 20
1381.59361116387
 30
0.0
 10
403.1443556175708
 20
1381.334516501151
 30
0.0
 10
403.0451517424638
 20
1381.089830038629
 30
0.0
 10
403.0579502860301
 20
1380.946975065958
 30
0.0
 10
403.060079363263
 20
1380.923210700243
 30
0.0
  0
SPLINE
  5
CF
330
1F
100
AcDbEntity
  8
0
  6
Continuous
 62
     7
370
    25
100
AcDbSpline
210
0.0
220
0.0
230
1.0
 70
     8
 71
     3
 72
    12
 73
     8
 74
     0
 42
0.000000001
 43
0.00000001
 40
0.0
 40
0.0
 40
0.0
 40
0.0
 40
0.1487426014407195
 40
0.4044760834691275
 40
0.5871948301170056
 40
0.797945192237987
 40
1.0
 40
1.0
 40
1.0
 40
1.0
 10
381.2141211429572
 20
1377.985804139487
 30
0.0
 10
381.1421046311598
 20
1377.982792585664
 30
0.0
 10
380.9462699721258
 20
1377.974603260726
 30
0.0
 10
380.6573109967874
 20
1377.956811682166
 30
0.0
 10
380.1719769354908
 20
1377.868156941712
 30
0.0
 10
379.7046975381547
 20
1377.738221993322
 30
0.0
 10
379.4218512989816
 20
1377.552201851861
 30
0.0
 10
379.2834071935007
 20
1377.461150996241
 30
0.0
  0
LINE
  5
D0
330
1F
100
AcDbEntity
  8
0
  6
Continuous
 62
     7
370
    25
100
AcDbLine
 10
422.1338064648191
 20
1380.017434166024
 30
0.0
 11
422.0416895914192
 21
1378.260454850324
 31
0.0
  0
SPLINE
  5
D1
330
1F
100
AcDbEntity
  8
0
  6
Continuous
 62
     7
370
    25
100
AcDbSpline
210
0.0
220
0.0
230
1.0
 70
     8
 71
     3
 72
    18
 73
    14
 74
     0
 42
0.000000001
 43
0.00000001
 40
0.0
 40
0.0
 40
0.0
 40
0.0
 40
0.0935039932554769
 40
0.3016130484944953
 40
0.5127611980368793
 40
0.6255797620641039
 40
0.6750379475418546
 40
0.7148635449087412
 40
0.7642739041897885
 40
0.8276980109726834
 40
0.9014951653153751
 40
0.9836134166533581
 40
1.0
 40
1.0
 40
1.0
 40
1.0
 10
424.9269230956751
 20
1381.005694310997
 30
0.0
 10
424.7938063042664
 20
1381.007034247293
 30
0.0
 10
424.3644154315914
 20
1381.011356439929
 30
0.0
 10
423.7627186597848
 20
1381.006785276232
 30
0.0
 10
423.3149597777864
 20
1380.993999578416
 30
0.0
 10
423.1098409489518
 20
1380.979258108597
 30
0.0
 10
422.9721392613693
 20
1380.95981873599
 30
0.0
 10
422.8276100464589
 20
1380.925267658999
 30
0.0
 10
422.6328377073418
 20
1380.844215821096
 30
0.0
 10
422.4132504108787
 20
1380.683432383756
 30
0.0
 10
422.2282950947568
 20
1380.424337721037
 30
0.0
 10
422.1290912196498
 20
1380.179651258514
 30
0.0
 10
422.1418897632161
 20
1380.036796285842
 30
0.0
 10
422.1440188404491
 20
1380.013031920126
 30
0.0
  0
LINE
  5
D2
330
1F
100
AcDbEntity
  8
0
  6
Continuous
 62
     7
370
    25
100
AcDbLine
 10
439.8212090904192
 20
1378.306798257524
 30
0.0
 11
439.8023181723191
 21
1379.388398567924
 31
0.0
  0
SPLINE
  5
D3
330
1F
100
AcDbEntity
  8
0
  6
Continuous
 62
     7
370
    25
100
AcDbSpline
210
0.0
220
0.0
230
1.0
 70
     8
 71
     3
 72
    18
 73
    14
 74
     0
 42
0.000000001
 43
0.00000001
 40
0.0
 40
0.0
 40
0.0
 40
0.0
 40
0.0065742906975196
 40
0.1228467668263097
 40
0.2149390529693903
 40
0.2926396588115732
 40
0.3588595238710601
 40
0.4127380432369541
 40
0.4575573432902072
 40
0.5123616563591307
 40
0.6249660723263866
 40
0.9158237929165123
 40
1.0
 40
1.0
 40
1.0
 40
1.0
 10
439.7988907865818
 20
1379.381823715527
 30
0.0
 10
439.7999827725913
 20
1379.388609155209
 30
0.0
 10
439.8203875518858
 20
1379.515401438165
 30
0.0
 10
439.7434589533692
 20
1379.742561092137
 30
0.0
 10
439.596386951291
 20
1380.000736905622
 30
0.0
 10
439.4165796268056
 20
1380.171874763811
 30
0.0
 10
439.2437923131029
 20
1380.276452195847
 30
0.0
 10
439.1001915101358
 20
1380.33174275127
 30
0.0
 10
438.9939372138449
 20
1380.359482789901
 30
0.0
 10
438.8869275082461
 20
1380.37934764863
 30
0.0
 10
438.7034281875671
 20
1380.401535986307
 30
0.0
 10
438.4442994797025
 20
1380.420143410555
 30
0.0
 10
438.1699834996369
 20
1380.433790918135
 30
0.0
 10
438.1084133934668
 20
1380.436854095463
 30
0.0
  0
SPLINE
  5
D4
330
1F
100
AcDbEntity
  8
0
  6
Continuous
 62
     7
370
    25
100
AcDbSpline
210
0.0
220
0.0
230
1.0
 70
     8
 71
     3
 72
    10
 73
     6
 74
     0
 42
0.000000001
 43
0.00000001
 40
0.0
 40
0.0
 40
0.0
 40
0.0
 40
0.2113033368283426
 40
0.6815948855129118
 40
1.0
 40
1.0
 40
1.0
 40
1.0
 10
435.5291116941107
 20
1380.500039433159
 30
0.0
 10
435.3964792998809
 20
1380.50135507299
 30
0.0
 10
434.9686509327696
 20
1380.50559889324
 30
0.0
 10
434.4294977830881
 20
1380.502651714327
 30
0.0
 10
434.159383036495
 20
1380.492992471953
 30
0.0
 10
434.0503348804299
 20
1380.489092934504
 30
0.0
  0
LINE
  5
D5
330
1F
100
AcDbEntity
  8
0
  6
Continuous
 62
     7
370
    25
100
AcDbLine
 10
414.7116623764191
 20
1378.241348685124
 30
0.0
 11
414.6972288764191
 21
1379.067739336324
 31
0.0
  0
SPLINE
  5
D6
330
1F
100
AcDbEntity
  8
0
  6
Continuous
 62
     7
370
    25
100
AcDbSpline
210
0.0
220
0.0
230
1.0
 70
     8
 71
     3
 72
    10
 73
     6
 74
     0
 42
0.000000001
 43
0.00000001
 40
0.0
 40
0.0
 40
0.0
 40
0.0
 40
0.2726132411843141
 40
0.8840901818504786
 40
1.0
 40
1.0
 40
1.0
 40
1.0
 10
411.5639800662866
 20
1380.162117258661
 30
0.0
 10
411.432523416797
 20
1380.165265317443
 30
0.0
 10
411.006206878951
 20
1380.175474534902
 30
0.0
 10
410.481667582085
 20
1380.182158459857
 30
0.0
 10
410.1758042958959
 20
1380.181683682324
 30
0.0
 10
410.1270646708599
 20
1380.181608026043
 30
0.0
  0
SPLINE
  5
D7
330
1F
100
AcDbEntity
  8
0
  6
Continuous
 62
     7
370
    25
100
AcDbSpline
210
0.0
220
0.0
230
1.0
 70
     8
 71
     3
 72
    19
 73
    15
 74
     0
 42
0.000000001
 43
0.00000001
 40
0.0
 40
0.0
 40
0.0
 40
0.0
 40
0.0468028670557011
 40
0.1138549621717614
 40
0.1690813900104888
 40
0.2162691591682955
 40
0.2557692799586795
 40
0.2871395245944317
 40
0.3182918451916001
 40
0.368406656783621
 40
0.5132459681150893
 40
0.6987176613277373
 40
0.8937146204908654
 40
1.0
 40
1.0
 40
1.0
 40
1.0
 10
414.6814367603231
 20
1379.071683621763
 30
0.0
 10
414.6812940770585
 20
1379.146180464759
 30
0.0
 10
414.6809469787138
 20
1379.327405158346
 30
0.0
 10
414.5623528437708
 20
1379.576263789125
 30
0.0
 10
414.3931937650015
 20
1379.783568504158
 30
0.0
 10
414.2142797683175
 20
1379.915920691258
 30
0.0
 10
414.0545705512521
 20
1379.991036409799
 30
0.0
 10
413.9335474029222
 20
1380.028279103317
 30
0.0
 10
413.8344329669413
 20
1380.049764012938
 30
0.0
 10
413.6873894777876
 20
1380.071793436887
 30
0.0
 10
413.4362546103982
 20
1380.09363528199
 30
0.0
 10
412.8837183683157
 20
1380.123651262275
 30
0.0
 10
412.2093078795475
 20
1380.148532112902
 30
0.0
 10
411.7322684475311
 20
1380.158574528684
 30
0.0
 10
411.5639800662866
 20
1380.162117258661
 30
0.0
  0
SPLINE
  5
D8
330
1F
100
AcDbEntity
  8
0
  6
Continuous
 62
     7
370
    25
100
AcDbSpline
210
0.0
220
0.0
230
1.0
 70
     8
 71
     3
 72
    18
 73
    14
 74
     0
 42
0.000000001
 43
0.00000001
 40
0.0
 40
0.0
 40
0.0
 40
0.0
 40
0.0429061728376628
 40
0.1025542788750588
 40
0.1535201147718032
 40
0.1961827943185187
 40
0.2300646829663887
 40
0.2637111995891507
 40
0.3178384302079838
 40
0.4742742334778715
 40
0.6745956313417002
 40
0.8852049311337
 40
1.0
 40
1.0
 40
1.0
 40
1.0
 10
478.5966444759689
 20
1377.878323726288
 30
0.0
 10
478.5749936656821
 20
1377.937541818535
 30
0.0
 10
478.5232439269108
 20
1378.079084826106
 30
0.0
 10
478.3708142128193
 20
1378.249438194323
 30
0.0
 10
478.1945068056333
 20
1378.382661091517
 30
0.0
 10
478.0342661459343
 20
1378.457599285954
 30
0.0
 10
477.9133482909599
 20
1378.494877151863
 30
0.0
 10
477.8142049081631
 20
1378.516352392036
 30
0.0
 10
477.6671792219096
 20
1378.538387762899
 30
0.0
 10
477.4160311273889
 20
1378.560225189586
 30
0.0
 10
476.8635005559049
 20
1378.590243064089
 30
0.0
 10
476.1890885318112
 20
1378.615123401851
 30
0.0
 10
475.7120492264413
 20
1378.625165859936
 30
0.0
 10
475.5437608898783
 20
1378.628708604836
 30
0.0
  0
SPLINE
  5
D9
330
1F
100
AcDbEntity
  8
0
  6
Continuous
 62
     7
370
    25
100
AcDbSpline
210
0.0
220
0.0
230
1.0
 70
     8
 71
     3
 72
    17
 73
    13
 74
     0
 42
0.000000001
 43
0.00000001
 40
0.0
 40
0.0
 40
0.0
 40
0.0
 40
0.0485814101674034
 40
0.1026123588666866
 40
0.1478407949239966
 40
0.1837603585916454
 40
0.2194303948338893
 40
0.2768128662354848
 40
0.4426568029136462
 40
0.6550256374654494
 40
0.87830109390472
 40
1.0
 40
1.0
 40
1.0
 40
1.0
 10
442.777228202025
 20
1378.282514754183
 30
0.0
 10
442.7370324899097
 20
1378.33616106472
 30
0.0
 10
442.6521321788181
 20
1378.449471371064
 30
0.0
 10
442.4861870332135
 20
1378.566956043522
 30
0.0
 10
442.3271872550534
 20
1378.642728768046
 30
0.0
 10
442.2060235474264
 20
1378.679841290666
 30
0.0
 10
442.1069477534293
 20
1378.701361986336
 30
0.0
 10
441.9598804986437
 20
1378.723369401112
 30
0.0
 10
441.7087632885532
 20
1378.745227598506
 30
0.0
 10
441.1562194766167
 20
1378.775236568407
 30
0.0
 10
440.4818110374121
 20
1378.800119317116
 30
0.0
 10
440.0047714363432
 20
1378.810161576335
 30
0.0
 10
439.8364829954641
 20
1378.813704251079
 30
0.0
  0
SPLINE
  5
DA
330
1F
100
AcDbEntity
  8
0
  6
Continuous
 62
     7
370
    25
100
AcDbSpline
210
0.0
220
0.0
230
1.0
 70
     8
 71
     3
 72
    11
 73
     7
 74
     0
 42
0.000000001
 43
0.00000001
 40
0.0
 40
0.0
 40
0.0
 40
0.0
 40
0.1348347238249555
 40
0.4372717003090384
 40
0.7402959684363832
 40
1.0
 40
1.0
 40
1.0
 40
1.0
 10
494.627700367081
 20
1377.718529824718
 30
0.0
 10
494.4953955174331
 20
1377.72173319495
 30
0.0
 10
494.066328249569
 20
1377.732121788544
 30
0.0
 10
493.3218725150068
 20
1377.73947512743
 30
0.0
 10
492.5461237975647
 20
1377.740296063841
 30
0.0
 10
492.2092195534493
 20
1377.731489352695
 30
0.0
 10
492.0537352984444
 20
1377.727424978484
 30
0.0
  0
SPLINE
  5
DB
330
1F
100
AcDbEntity
  8
0
  6
Continuous
 62
     7
370
    25
100
AcDbSpline
210
0.0
220
0.0
230
1.0
 70
     8
 71
     3
 72
     9
 73
     5
 74
     0
 42
0.000000001
 43
0.00000001
 40
0.0
 40
0.0
 40
0.0
 40
0.0
 40
0.4835466826577951
 40
1.0
 40
1.0
 40
1.0
 40
1.0
 10
495.5345052519122
 20
1377.692812884634
 30
0.0
 10
495.4025975553504
 20
1377.697930207793
 30
0.0
 10
495.1298054935028
 20
1377.70851310153
 30
0.0
 10
494.7987005919014
 20
1377.715118463577
 30
0.0
 10
494.627700367081
 20
1377.718529824718
 30
0.0
  0
LINE
  5
DC
330
1F
100
AcDbEntity
  8
0
  6
Continuous
 62
     7
370
    25
100
AcDbLine
 10
483.4112562163191
 20
1377.823995011024
 30
0.0
 11
441.1680808848191
 21
1378.300672585224
 31
0.0
  0
LINE
  5
DD
330
1F
100
AcDbEntity
  8
0
  6
Continuous
 62
     7
370
    25
100
AcDbLine
 10
439.8703504236191
 20
1378.306926347424
 30
0.0
 11
403.5836630901191
 21
1378.212342873024
 31
0.0
  0
LINE
  5
DE
330
1F
100
AcDbEntity
  8
0
  6
Continuous
 62
     7
370
    25
100
AcDbLine
 10
498.2081616729191
 20
1377.461150996224
 30
0.0
 11
484.7090432249191
 21
1377.800960923424
 31
0.0
  0
SPLINE
  5
DF
330
1F
100
AcDbEntity
  8
0
  6
Continuous
 62
     7
370
    25
100
AcDbSpline
210
0.0
220
0.0
230
1.0
 70
     8
 71
     3
 72
     9
 73
     5
 74
     0
 42
0.000000001
 43
0.00000001
 40
0.0
 40
0.0
 40
0.0
 40
0.0
 40
0.3345504515423828
 40
1.0
 40
1.0
 40
1.0
 40
1.0
 10
434.2215549247047
 20
1378.292202415753
 30
0.0
 10
434.1937527911291
 20
1378.336559804825
 30
0.0
 10
434.1106498287886
 20
1378.469147846083
 30
0.0
 10
434.1040923055758
 20
1378.628806982948
 30
0.0
 10
434.099728604715
 20
1378.735052083482
 30
0.0
  0
SPLINE
  5
E0
330
1F
100
AcDbEntity
  8
0
  6
Continuous
 62
     7
370
    25
100
AcDbSpline
210
0.0
220
0.0
230
1.0
 70
     8
 71
     3
 72
     9
 73
     5
 74
     0
 42
0.000000001
 43
0.00000001
 40
0.0
 40
0.0
 40
0.0
 40
0.0
 40
0.5927212581933139
 40
1.0
 40
1.0
 40
1.0
 40
1.0
 10
426.876479613441
 20
1378.822128121407
 30
0.0
 10
426.863676252969
 20
1378.703240828743
 30
0.0
 10
426.8420752722468
 20
1378.502662072673
 30
0.0
 10
426.7288029044406
 20
1378.339147754557
 30
0.0
 10
426.6826694769991
 20
1378.272551848808
 30
0.0
  0
LINE
  5
E1
330
1F
100
AcDbEntity
  8
0
  6
Continuous
 62
     7
370
    25
100
AcDbLine
 10
434.0918570449192
 20
1378.731748228324
 30
0.0
 11
434.0429502941191
 21
1380.801631161224
 31
0.0
  0
LINE
  5
E2
330
1F
100
AcDbEntity
  8
0
  6
Continuous
 62
     7
370
    25
100
AcDbLine
 10
426.9759993632191
 20
1380.881443764824
 30
0.0
 11
426.8803574362191
 21
1378.813193333124
 31
0.0
  0
SPLINE
  5
E3
330
1F
100
AcDbEntity
  8
0
  6
Continuous
 62
     7
370
    25
100
AcDbSpline
210
0.0
220
0.0
230
1.0
 70
     8
 71
     3
 72
    18
 73
    14
 74
     0
 42
0.000000001
 43
0.00000001
 40
0.0
 40
0.0
 40
0.0
 40
0.0
 40
0.0564569587924642
 40
0.1595683117112065
 40
0.243696512907972
 40
0.3152442097770402
 40
0.3751941634056802
 40
0.4216116063821945
 40
0.4604812180144411
 40
0.511607145495322
 40
0.6244323911848381
 40
0.9090293202998263
 40
0.9999999999999999
 40
0.9999999999999999
 40
0.9999999999999999
 40
0.9999999999999999
 10
434.0263895415293
 20
1380.8024227756
 30
0.0
 10
434.0282614919029
 20
1380.862352522455
 30
0.0
 10
434.0335523181733
 20
1381.031736221676
 30
0.0
 10
433.9249256293781
 20
1381.275378073647
 30
0.0
 10
433.7587265331418
 20
1381.49230604672
 30
0.0
 10
433.5788010440089
 20
1381.631876367647
 30
0.0
 10
433.414719204976
 20
1381.712586158088
 30
0.0
 10
433.2883203409706
 20
1381.752001737851
 30
0.0
 10
433.1984060999121
 20
1381.771222383614
 30
0.0
 10
433.1029650161748
 20
1381.785695206184
 30
0.0
 10
432.9346768519721
 20
1381.801806162059
 30
0.0
 10
432.6781213167351
 20
1381.816160098502
 30
0.0
 10
432.4027741444438
 20
1381.82637285361
 30
0.0
 10
432.3360790439374
 20
1381.828846606011
 30
0.0
  0
LINE
  5
E4
330
1F
100
AcDbEntity
  8
0
  6
Continuous
 62
     7
370
    25
100
AcDbLine
 10
488.9399665348192
 20
1377.729596471424
 30
0.0
 11
488.8976060709191
 21
1378.006139292124
 31
0.0
  0
LINE
  5
E5
330
1F
100
AcDbEntity
  8
0
  6
Continuous
 62
     7
370
    25
100
AcDbLine
 10
481.6743570796191
 20
1378.093215330024
 30
0.0
 11
481.6231802332192
 21
1377.844171896724
 31
0.0
  0
LINE
  5
E6
330
1F
100
AcDbEntity
  8
0
  6
Continuous
 62
     7
370
    25
100
AcDbLine
 10
488.8897345110191
 20
1378.002835437024
 30
0.0
 11
488.8408277603191
 21
1380.072718369924
 31
0.0
  0
LINE
  5
E7
330
1F
100
AcDbEntity
  8
0
  6
Continuous
 62
     7
370
    25
100
AcDbLine
 10
481.7738768294191
 20
1380.152530973424
 30
0.0
 11
481.6782349024191
 21
1378.084280541824
 31
0.0
  0
SPLINE
  5
E8
330
1F
100
AcDbEntity
  8
0
  6
Continuous
 62
     7
370
    25
100
AcDbSpline
210
0.0
220
0.0
230
1.0
 70
     8
 71
     3
 72
    18
 73
    14
 74
     0
 42
0.000000001
 43
0.00000001
 40
0.0
 40
0.0
 40
0.0
 40
0.0
 40
0.0564569587920979
 40
0.159568311710881
 40
0.2436965129076578
 40
0.3152442097767482
 40
0.3751941634054232
 40
0.4216116063819635
 40
0.4604812180142279
 40
0.51160714549513
 40
0.6244323911846567
 40
0.909029320299758
 40
0.9999999999999999
 40
0.9999999999999999
 40
0.9999999999999999
 40
0.9999999999999999
 10
488.8242670076961
 20
1380.073509984236
 30
0.0
 10
488.8261389580697
 20
1380.133439731092
 30
0.0
 10
488.83142978434
 20
1380.302823430312
 30
0.0
 10
488.7228030955449
 20
1380.546465282282
 30
0.0
 10
488.5566039993087
 20
1380.763393255355
 30
0.0
 10
488.3766785101757
 20
1380.902963576282
 30
0.0
 10
488.2125966711429
 20
1380.983673366723
 30
0.0
 10
488.0861978071374
 20
1381.023088946486
 30
0.0
 10
487.9962835660789
 20
1381.042309592249
 30
0.0
 10
487.9008424823418
 20
1381.056782414819
 30
0.0
 10
487.7325543181389
 20
1381.072893370695
 30
0.0
 10
487.4759987829019
 20
1381.087247307137
 30
0.0
 10
487.2006516106106
 20
1381.097460062246
 30
0.0
 10
487.1339565101043
 20
1381.099933814646
 30
0.0
  0
SPLINE
  5
E9
330
1F
100
AcDbEntity
  8
0
  6
Continuous
 62
     7
370
    25
100
AcDbSpline
210
0.0
220
0.0
230
1.0
 70
     8
 71
     3
 72
    17
 73
    13
 74
     0
 42
0.000000001
 43
0.00000001
 40
0.0
 40
0.0
 40
0.0
 40
0.0
 40
0.1061270021272583
 40
0.3719633867403908
 40
0.5119759279556046
 40
0.586665492071498
 40
0.6299272862342479
 40
0.6868262340716919
 40
0.7632777691771824
 40
0.8554318136745261
 40
0.957767018214813
 40
1.0
 40
1.0
 40
1.0
 40
1.0
 10
483.7373018457108
 20
1381.14207506367
 30
0.0
 10
483.635336137512
 20
1381.141558309586
 30
0.0
 10
483.2779576250435
 20
1381.139747143763
 30
0.0
 10
482.9675414135231
 20
1381.130116526037
 30
0.0
 10
482.762027366031
 20
1381.117594576388
 30
0.0
 10
482.6400995216135
 20
1381.104082580871
 30
0.0
 10
482.4977598965452
 20
1381.073619791395
 30
0.0
 10
482.3166629702002
 20
1381.007048928683
 30
0.0
 10
482.0990963998991
 20
1380.865764380927
 30
0.0
 10
481.9002293322592
 20
1380.625401104913
 30
0.0
 10
481.782031563568
 20
1380.367359050593
 30
0.0
 10
481.7880207181454
 20
1380.200670761744
 30
0.0
 10
481.7897703413689
 20
1380.151975791947
 30
0.0
  0
LINE
  5
EA
330
1F
100
AcDbEntity
  8
0
  6
Continuous
 62
     7
370
    25
100
AcDbLine
 10
453.1824408434192
 20
1378.165100959324
 30
0.0
 11
453.1360877273191
 21
1380.126906279824
 31
0.0
  0
LINE
  5
EB
330
1F
100
AcDbEntity
  8
0
  6
Continuous
 62
     7
370
    25
100
AcDbLine
 10
446.0691367964191
 20
1380.206718883324
 30
0.0
 11
445.9784855384191
 21
1378.246391343224
 31
0.0
  0
SPLINE
  5
EC
330
1F
100
AcDbEntity
  8
0
  6
Continuous
 62
     7
370
    25
100
AcDbSpline
210
0.0
220
0.0
230
1.0
 70
     8
 71
     3
 72
    18
 73
    14
 74
     0
 42
0.000000001
 43
0.00000001
 40
0.0
 40
0.0
 40
0.0
 40
0.0
 40
0.0564569587930592
 40
0.1595683117117386
 40
0.2436965129084281
 40
0.3152442097774486
 40
0.3751941634060605
 40
0.4216116063825477
 40
0.4604812180147753
 40
0.5116071454956229
 40
0.6244323911850378
 40
0.9090293202998819
 40
1.0
 40
1.0
 40
1.0
 40
1.0
 10
453.1195269747216
 20
1380.127697894133
 30
0.0
 10
453.1213989250951
 20
1380.187627640989
 30
0.0
 10
453.1266897513657
 20
1380.357011340211
 30
0.0
 10
453.0180630625704
 20
1380.600653192183
 30
0.0
 10
452.851863966334
 20
1380.817581165255
 30
0.0
 10
452.671938477201
 20
1380.957151486182
 30
0.0
 10
452.5078566381684
 20
1381.037861276624
 30
0.0
 10
452.3814577741628
 20
1381.077276856386
 30
0.0
 10
452.2915435331042
 20
1381.096497502149
 30
0.0
 10
452.196102449367
 20
1381.110970324718
 30
0.0
 10
452.0278142851644
 20
1381.127081280595
 30
0.0
 10
451.7712587499274
 20
1381.141435217037
 30
0.0
 10
451.495911577636
 20
1381.151647972145
 30
0.0
 10
451.4292164771296
 20
1381.154121724546
 30
0.0
  0
SPLINE
  5
ED
330
1F
100
AcDbEntity
  8
0
  6
Continuous
 62
     7
370
    25
100
AcDbSpline
210
0.0
220
0.0
230
1.0
 70
     8
 71
     3
 72
    17
 73
    13
 74
     0
 42
0.000000001
 43
0.00000001
 40
0.0
 40
0.0
 40
0.0
 40
0.0
 40
0.1061270021281414
 40
0.3719633867407229
 40
0.5119759279556175
 40
0.5866654920714318
 40
0.6299272862340973
 40
0.6868262340714429
 40
0.7632777691767855
 40
0.855431813673929
 40
0.9577670182139966
 40
1.0
 40
1.0
 40
1.0
 40
1.0
 10
448.0325618127393
 20
1381.19626297357
 30
0.0
 10
447.9305961045395
 20
1381.195746219486
 30
0.0
 10
447.5732175920698
 20
1381.193935053663
 30
0.0
 10
447.2628013805486
 20
1381.184304435936
 30
0.0
 10
447.0572873330564
 20
1381.171782486288
 30
0.0
 10
446.9353594886389
 20
1381.15827049077
 30
0.0
 10
446.7930198635704
 20
1381.127807701294
 30
0.0
 10
446.6119229372255
 20
1381.061236838583
 30
0.0
 10
446.3943563669243
 20
1380.919952290827
 30
0.0
 10
446.1954892992844
 20
1380.679589014813
 30
0.0
 10
446.077291530593
 20
1380.421546960491
 30
0.0
 10
446.0832806851706
 20
1380.254858671642
 30
0.0
 10
446.0850303083942
 20
1380.206163701843
 30
0.0
  0
LINE
  5
EE
330
1F
100
AcDbEntity
  8
0
  6
Continuous
 62
     7
370
    25
100
AcDbLine
 10
517.1650446901191
 20
1377.461150996224
 30
0.0
 11
517.1269572909191
 21
1379.073125952924
 31
0.0
  0
LINE
  5
EF
330
1F
100
AcDbEntity
  8
0
  6
Continuous
 62
     7
370
    25
100
AcDbLine
 10
510.0600063600191
 20
1379.152938556424
 30
0.0
 11
509.9817731732192
 21
1377.461150996224
 31
0.0
  0
SPLINE
  5
F0
330
1F
100
AcDbEntity
  8
0
  6
Continuous
 62
     7
370
    25
100
AcDbSpline
210
0.0
220
0.0
230
1.0
 70
     8
 71
     3
 72
    18
 73
    14
 74
     0
 42
0.000000001
 43
0.00000001
 40
0.0
 40
0.0
 40
0.0
 40
0.0
 40
0.0564569587927951
 40
0.1595683117115015
 40
0.2436965129082164
 40
0.3152442097772558
 40
0.3751941634058867
 40
0.4216116063823838
 40
0.4604812180146259
 40
0.5116071454954894
 40
0.6244323911849308
 40
0.9090293202998249
 40
0.9999999999999999
 40
0.9999999999999999
 40
0.9999999999999999
 40
0.9999999999999999
 10
517.110396538351
 20
1379.073917567248
 30
0.0
 10
517.1122684887247
 20
1379.133847314104
 30
0.0
 10
517.1175593149951
 20
1379.303231013326
 30
0.0
 10
517.0089326261998
 20
1379.546872865297
 30
0.0
 10
516.8427335299634
 20
1379.763800838369
 30
0.0
 10
516.6628080408306
 20
1379.903371159297
 30
0.0
 10
516.4987262017978
 20
1379.984080949738
 30
0.0
 10
516.3723273377922
 20
1380.0234965295
 30
0.0
 10
516.2824130967338
 20
1380.042717175264
 30
0.0
 10
516.1869720129965
 20
1380.057189997833
 30
0.0
 10
516.0186838487939
 20
1380.073300953709
 30
0.0
 10
515.7621283135568
 20
1380.087654890151
 30
0.0
 10
515.4867811412655
 20
1380.09786764526
 30
0.0
 10
515.4200860407591
 20
1380.10034139766
 30
0.0
  0
SPLINE
  5
F1
330
1F
100
AcDbEntity
  8
0
  6
Continuous
 62
     7
370
    25
100
AcDbSpline
210
0.0
220
0.0
230
1.0
 70
     8
 71
     3
 72
    17
 73
    13
 74
     0
 42
0.000000001
 43
0.00000001
 40
0.0
 40
0.0
 40
0.0
 40
0.0
 40
0.1061270021266452
 40
0.3719633867397578
 40
0.5119759279549326
 40
0.5866654920708492
 40
0.6299272862335973
 40
0.6868262340710365
 40
0.7632777691765223
 40
0.8554318136738588
 40
0.9577670182141389
 40
1.0
 40
1.0
 40
1.0
 40
1.0
 10
512.0234313763639
 20
1380.142482646684
 30
0.0
 10
511.9214656681659
 20
1380.141965892601
 30
0.0
 10
511.564087155698
 20
1380.140154726777
 30
0.0
 10
511.253670944178
 20
1380.130524109051
 30
0.0
 10
511.0481568966858
 20
1380.118002159403
 30
0.0
 10
510.9262290522685
 20
1380.104490163885
 30
0.0
 10
510.7838894271999
 20
1380.074027374409
 30
0.0
 10
510.6027925008551
 20
1380.007456511697
 30
0.0
 10
510.3852259305538
 20
1379.866171963941
 30
0.0
 10
510.1863588629141
 20
1379.625808687927
 30
0.0
 10
510.0681610942225
 20
1379.367766633606
 30
0.0
 10
510.0741502488002
 20
1379.201078344757
 30
0.0
 10
510.0758998720237
 20
1379.152383374959
 30
0.0
  0
LINE
  5
F2
330
1F
100
AcDbEntity
  8
0
  6
Continuous
 62
     7
370
    25
100
AcDbLine
 10
492.0563678217192
 20
1377.616008561824
 30
0.0
 11
492.0295158320191
 21
1378.752466706424
 31
0.0
  0
SPLINE
  5
F3
330
1F
100
AcDbEntity
  8
0
  6
Continuous
 62
     7
370
    25
100
AcDbSpline
210
0.0
220
0.0
230
1.0
 70
     8
 71
     3
 72
    20
 73
    16
 74
     0
 42
0.000000001
 43
0.00000001
 40
0.0
 40
0.0
 40
0.0
 40
0.0
 40
0.0297445750583963
 40
0.0967819779250619
 40
0.1511778040566531
 40
0.1973870274456185
 40
0.2362350238692558
 40
0.2665579898242865
 40
0.2913198081727612
 40
0.3225385778035892
 40
0.3880031113828343
 40
0.5712534798591984
 40
0.7453199706452386
 40
0.9283934561629064
 40
1.0
 40
1.0
 40
1.0
 40
1.0
 10
492.0135154456375
 20
1378.752846203273
 30
0.0
 10
492.0163325602886
 20
1378.802302936729
 30
0.0
 10
492.0254988007688
 20
1378.963223725686
 30
0.0
 10
491.9239653550273
 20
1379.203440883973
 30
0.0
 10
491.7606061877023
 20
1379.427995703695
 30
0.0
 10
491.580339372231
 20
1379.573341500474
 30
0.0
 10
491.4140941585606
 20
1379.658443357089
 30
0.0
 10
491.2838457507652
 20
1379.700563646415
 30
0.0
 10
491.192033114366
 20
1379.720766623381
 30
0.0
 10
491.0997238038943
 20
1379.735207757463
 30
0.0
 10
490.9347041362374
 20
1379.751831020477
 30
0.0
 10
490.5931902638694
 20
1379.77112004244
 30
0.0
 10
489.9130043800058
 20
1379.793560360683
 30
0.0
 10
489.2449869141388
 20
1379.808937360918
 30
0.0
 10
488.8203593591179
 20
1379.813686153616
 30
0.0
 10
488.7009698973289
 20
1379.81502133735
 30
0.0
  0
LINE
  5
F4
330
1F
100
AcDbEntity
  8
0
  6
Continuous
 62
     7
370
    25
100
AcDbLine
 10
502.6584685287191
 20
1377.461150996224
 30
0.0
 11
502.6368144059192
 21
1378.377619550024
 31
0.0
  0
LINE
  5
F5
330
1F
100
AcDbEntity
  8
0
  6
Continuous
 62
     7
370
    25
100
AcDbLine
 10
495.5698634751192
 20
1378.457432153624
 30
0.0
 11
495.5269136681192
 21
1377.528645380624
 31
0.0
  0
SPLINE
  5
F6
330
1F
100
AcDbEntity
  8
0
  6
Continuous
 62
     7
370
    25
100
AcDbSpline
210
0.0
220
0.0
230
1.0
 70
     8
 71
     3
 72
    19
 73
    15
 74
     0
 42
0.000000001
 43
0.00000001
 40
0.0
 40
0.0
 40
0.0
 40
0.0
 40
0.1021687274200133
 40
0.2706659961996883
 40
0.4396523917964923
 40
0.6108631758651121
 40
0.7021978911098606
 40
0.7371608050753191
 40
0.7657651635295801
 40
0.8046511812599068
 40
0.8538812530266119
 40
0.9125279259013261
 40
0.9786851314650641
 40
1.0
 40
1.0
 40
1.0
 40
1.0
 10
499.308268471324
 20
1379.440174180975
 30
0.0
 10
499.1250768018282
 20
1379.442669386848
 30
0.0
 10
498.6397643488726
 20
1379.449279700986
 30
0.0
 10
497.8742525827857
 20
1379.451002493607
 30
0.0
 10
497.1439042614728
 20
1379.445777362666
 30
0.0
 10
496.7214767906606
 20
1379.433131826426
 30
0.0
 10
496.5402899352988
 20
1379.421610500067
 30
0.0
 10
496.4101807898251
 20
1379.404088828133
 30
0.0
 10
496.2744264954428
 20
1379.373259584877
 30
0.0
 10
496.0871575138837
 20
1379.299153104781
 30
0.0
 10
495.8713133353107
 20
1379.148765460061
 30
0.0
 10
495.6809292491928
 20
1378.902348276637
 30
0.0
 10
495.5722647705213
 20
1378.651237032374
 30
0.0
 10
495.5817734240145
 20
1378.494671405831
 30
0.0
 10
495.5840904572075
 20
1378.456520078322
 30
0.0
  0
SPLINE
  5
F7
330
1F
100
AcDbEntity
  8
0
  6
Continuous
 62
     7
370
    25
100
AcDbSpline
210
0.0
220
0.0
230
1.0
 70
     8
 71
     3
 72
    20
 73
    16
 74
     0
 42
0.000000001
 43
0.00000001
 40
0.0
 40
0.0
 40
0.0
 40
0.0
 40
0.029710818831902
 40
0.0967505540016927
 40
0.1511482726223845
 40
0.1973591036797645
 40
0.2362084516668374
 40
0.2665324725903656
 40
0.2912951524290616
 40
0.3225150081943476
 40
0.3879818193548681
 40
0.5712385633079858
 40
0.7453111100538431
 40
0.9283909648943204
 40
1.0
 40
1.0
 40
1.0
 40
1.0
 10
502.6208157108042
 20
1378.378171795235
 30
0.0
 10
502.623627735642
 20
1378.427570510368
 30
0.0
 10
502.6327848363753
 20
1378.588432891278
 30
0.0
 10
502.5312608820706
 20
1378.828593434391
 30
0.0
 10
502.367905385113
 20
1379.053148607311
 30
0.0
 10
502.187637817045
 20
1379.198494331668
 30
0.0
 10
502.0213927570071
 20
1379.283596203067
 30
0.0
 10
501.8911443201473
 20
1379.325716489596
 30
0.0
 10
501.7993316897949
 20
1379.345919467145
 30
0.0
 10
501.7070223769584
 20
1379.360360600999
 30
0.0
 10
501.5420027112043
 20
1379.376983864196
 30
0.0
 10
501.2004888375271
 20
1379.396272886032
 30
0.0
 10
500.5203029540977
 20
1379.418713204318
 30
0.0
 10
499.8522854881262
 20
1379.434090204543
 30
0.0
 10
499.4276579331114
 20
1379.438838997241
 30
0.0
 10
499.308268471324
 20
1379.440174180975
 30
0.0
  0
LINE
  5
F8
330
1F
100
AcDbEntity
  8
0
  6
Continuous
 62
     7
370
    25
100
AcDbLine
 10
521.7356637069191
 20
1377.461150996224
 30
0.0
 11
521.7299518391192
 21
1377.702894668624
 31
0.0
  0
SPLINE
  5
F9
330
1F
100
AcDbEntity
  8
0
  6
Continuous
 62
     7
370
    25
100
AcDbSpline
210
0.0
220
0.0
230
1.0
 70
     8
 71
     3
 72
     9
 73
     5
 74
     0
 42
0.000000001
 43
0.00000001
 40
0.0
 40
0.0
 40
0.0
 40
0.0
 40
0.4028072080461895
 40
1.0
 40
1.0
 40
1.0
 40
1.0
 10
518.401405904516
 20
1378.765449299507
 30
0.0
 10
518.2171234818986
 20
1378.768010791901
 30
0.0
 10
517.7596281368893
 20
1378.774369894575
 30
0.0
 10
517.3346258440121
 20
1378.774629858099
 30
0.0
 10
517.0808175381419
 20
1378.774785106443
 30
0.0
  0
SPLINE
  5
FA
330
1F
100
AcDbEntity
  8
0
  6
Continuous
 62
     7
370
    25
100
AcDbSpline
210
0.0
220
0.0
230
1.0
 70
     8
 71
     3
 72
    20
 73
    16
 74
     0
 42
0.000000001
 43
0.00000001
 40
0.0
 40
0.0
 40
0.0
 40
0.0
 40
0.0297108188316386
 40
0.0967505540014231
 40
0.1511482726221223
 40
0.1973591036795138
 40
0.2362084516665967
 40
0.2665324725901242
 40
0.2912951524288053
 40
0.322515008194098
 40
0.3879818193546532
 40
0.5712385633078052
 40
0.7453111100536826
 40
0.9283909648941924
 40
1.0
 40
1.0
 40
1.0
 40
1.0
 10
521.7139531439968
 20
1377.703446913769
 30
0.0
 10
521.7167651688345
 20
1377.752845628901
 30
0.0
 10
521.7259222695677
 20
1377.913708009811
 30
0.0
 10
521.624398315263
 20
1378.153868552923
 30
0.0
 10
521.4610428183055
 20
1378.378423725843
 30
0.0
 10
521.2807752502375
 20
1378.5237694502
 30
0.0
 10
521.1145301901996
 20
1378.608871321599
 30
0.0
 10
520.9842817533398
 20
1378.650991608128
 30
0.0
 10
520.8924691229874
 20
1378.671194585677
 30
0.0
 10
520.8001598101511
 20
1378.685635719531
 30
0.0
 10
520.6351401443968
 20
1378.702258982727
 30
0.0
 10
520.2936262707196
 20
1378.721548004565
 30
0.0
 10
519.6134403872901
 20
1378.74398832285
 30
0.0
 10
518.9454229213185
 20
1378.759365323074
 30
0.0
 10
518.5207953663036
 20
1378.764114115773
 30
0.0
 10
518.401405904516
 20
1378.765449299507
 30
0.0
  0
LINE
  5
FB
330
1F
100
AcDbEntity
  8
0
  6
Continuous
 62
     7
370
    25
100
AcDbLine
 10
475.5162051192192
 20
1165.561150996324
 30
0.0
 11
475.5162051192192
 21
1316.598971256924
 31
0.0
  0
LINE
  5
FC
330
1F
100
AcDbEntity
  8
0
  6
Continuous
 62
     7
370
    25
100
AcDbLine
 10
475.5162051192192
 20
1377.913083811124
 30
0.0
 11
475.5162051192192
 21
1386.598971256924
 31
0.0
  0
LINE
  5
FD
330
1F
100
AcDbEntity
  8
0
  6
Continuous
 62
     7
370
    25
100
AcDbLine
 10
445.5162051192192
 20
1391.243893955524
 30
0.0
 11
445.5162051192192
 21
1378.251607776624
 31
0.0
  0
LINE
  5
FE
330
1F
100
AcDbEntity
  8
0
  6
Continuous
 62
     7
370
    25
100
AcDbLine
 10
445.5162051192192
 20
1321.243893955524
 30
0.0
 11
445.5162051192192
 21
1165.561150996324
 31
0.0
  0
LINE
  5
FF
330
1F
100
AcDbEntity
  8
0
  6
Continuous
 62
     7
370
    25
100
AcDbLine
 10
560.5162051192192
 20
1125.561150996324
 30
0.0
 11
560.5162051192192
 21
1135.561150996324
 31
0.0
  0
LINE
  5
100
330
1F
100
AcDbEntity
  8
0
  6
Continuous
 62
     7
370
    25
100
AcDbLine
 10
360.5162051192192
 20
1135.561150996324
 30
0.0
 11
360.5162051192192
 21
1125.561150996324
 31
0.0
  0
LINE
  5
101
330
1F
100
AcDbEntity
  8
0
  6
Continuous
 62
     7
370
    25
100
AcDbLine
 10
556.0162051192192
 20
1137.561150996324
 30
0.0
 11
556.0162051192192
 21
1143.411150996324
 31
0.0
  0
LINE
  5
102
330
1F
100
AcDbEntity
  8
0
  6
Continuous
 62
     7
370
    25
100
AcDbLine
 10
365.0162051192192
 20
1143.411150996324
 30
0.0
 11
365.0162051192192
 21
1137.561150996324
 31
0.0
  0
LINE
  5
103
330
1F
100
AcDbEntity
  8
0
  6
Continuous
 62
     7
370
    25
100
AcDbLine
 10
556.0162051192192
 20
1164.561150996324
 30
0.0
 11
555.0162051192192
 21
1165.561150996324
 31
0.0
  0
LINE
  5
104
330
1F
100
AcDbEntity
  8
0
  6
Continuous
 62
     7
370
    25
100
AcDbLine
 10
366.0162051192192
 20
1165.561150996324
 30
0.0
 11
365.0162051192192
 21
1164.561150996324
 31
0.0
  0
LINE
  5
105
330
1F
100
AcDbEntity
  8
0
  6
Continuous
 62
     7
370
    25
100
AcDbLine
 10
556.0162051192192
 20
1160.561150996324
 30
0.0
 11
556.0162051192192
 21
1164.561150996324
 31
0.0
  0
LINE
  5
106
330
1F
100
AcDbEntity
  8
0
  6
Continuous
 62
     7
370
    25
100
AcDbLine
 10
365.0162051192192
 20
1164.561150996324
 30
0.0
 11
365.0162051192192
 21
1160.561150996324
 31
0.0
  0
LINE
  5
107
330
1F
100
AcDbEntity
  8
0
  6
Continuous
 62
     7
370
    25
100
AcDbLine
 10
556.0162051192192
 20
1145.711150996324
 30
0.0
 11
556.0162051192192
 21
1155.061150996324
 31
0.0
  0
LINE
  5
108
330
1F
100
AcDbEntity
  8
0
  6
Continuous
 62
     7
370
    25
100
AcDbLine
 10
365.0162051192192
 20
1155.061150996324
 30
0.0
 11
365.0162051192192
 21
1145.711150996324
 31
0.0
  0
LINE
  5
109
330
1F
100
AcDbEntity
  8
0
  6
Continuous
 62
     7
370
    25
100
AcDbLine
 10
367.5162051192192
 20
1145.711150996324
 30
0.0
 11
367.5162051192192
 21
1145.561150996324
 31
0.0
  0
LINE
  5
10A
330
1F
100
AcDbEntity
  8
0
  6
Continuous
 62
     7
370
    25
100
AcDbLine
 10
553.5162051192192
 20
1145.561150996324
 30
0.0
 11
553.5162051192192
 21
1145.711150996324
 31
0.0
  0
LINE
  5
10B
330
1F
100
AcDbEntity
  8
0
  6
Continuous
 62
     7
370
    25
100
AcDbLine
 10
367.7662051192192
 20
1160.561150996324
 30
0.0
 11
367.7662051192192
 21
1159.797211466724
 31
0.0
  0
LINE
  5
10C
330
1F
100
AcDbEntity
  8
0
  6
Continuous
 62
     7
370
    25
100
AcDbLine
 10
553.2662051192192
 20
1159.583610808424
 30
0.0
 11
553.2662051192192
 21
1160.561150996324
 31
0.0
  0
LINE
  5
10D
330
1F
100
AcDbEntity
  8
0
  6
Continuous
 62
     7
370
    25
100
AcDbLine
 10
560.5162051192192
 20
1121.061150996324
 30
0.0
 11
560.5162051192192
 21
1125.561150996324
 31
0.0
  0
LINE
  5
10E
330
1F
100
AcDbEntity
  8
0
  6
Continuous
 62
     7
370
    25
100
AcDbLine
 10
360.5162051192192
 20
1125.561150996324
 30
0.0
 11
360.5162051192192
 21
1121.061150996324
 31
0.0
  0
LINE
  5
10F
330
1F
100
AcDbEntity
  8
0
  6
Continuous
 62
     7
370
    25
100
AcDbLine
 10
360.5162051192192
 20
1121.061150996324
 30
0.0
 11
364.0162051161192
 21
1117.561150993124
 31
0.0
  0
LINE
  5
110
330
1F
100
AcDbEntity
  8
0
  6
Continuous
 62
     7
370
    25
100
AcDbLine
 10
557.0162051223191
 20
1117.561150993124
 30
0.0
 11
560.5162051192192
 21
1121.061150996324
 31
0.0
  0
LINE
  5
111
330
1F
100
AcDbEntity
  8
0
  6
Continuous
 62
     7
370
    25
100
AcDbLine
 10
560.5162051192192
 20
970.5611509931241
 30
0.0
 11
560.5162051192192
 21
1117.561150993124
 31
0.0
  0
LINE
  5
112
330
1F
100
AcDbEntity
  8
0
  6
Continuous
 62
     7
370
    25
100
AcDbLine
 10
360.5162051192192
 20
1117.561150993124
 30
0.0
 11
360.5162051192192
 21
970.5611509931241
 31
0.0
  0
LINE
  5
113
330
1F
100
AcDbEntity
  8
0
  6
Continuous
 62
     7
370
    25
100
AcDbLine
 10
363.5162051192192
 20
1137.561150996324
 30
0.0
 11
363.5162051192192
 21
1135.561150996324
 31
0.0
  0
LINE
  5
114
330
1F
100
AcDbEntity
  8
0
  6
Continuous
 62
     7
370
    25
100
AcDbLine
 10
557.5162051192192
 20
1135.561150996324
 30
0.0
 11
557.5162051192192
 21
1137.561150996324
 31
0.0
  0
ARC
  5
115
330
1F
100
AcDbEntity
  8
0
  6
Continuous
 62
     7
370
    25
100
AcDbCircle
 10
365.1614465251191
 20
1143.480419933024
 30
0.0
 40
0.0300000000000712
100
AcDbArc
 50
89.99999999978289
 51
199.8720131233016
  0
ARC
  5
116
330
1F
100
AcDbEntity
  8
0
  6
Continuous
 62
     7
370
    25
100
AcDbCircle
 10
555.8709637133192
 20
1143.480419933024
 30
0.0
 40
0.0299999999999727
100
AcDbArc
 50
340.1279868766246
 51
90.00000000021713
  0
LINE
  5
117
330
1F
100
AcDbEntity
  8
0
  6
Continuous
 62
     7
370
    25
100
AcDbLine
 10
365.1332328968191
 20
1143.470222326624
 30
0.0
 11
365.1574739179191
 21
1143.411150996324
 31
0.0
  0
LINE
  5
118
330
1F
100
AcDbEntity
  8
0
  6
Continuous
 62
     7
370
    25
100
AcDbLine
 10
555.8749363205192
 20
1143.411150996324
 30
0.0
 11
555.8991773416192
 21
1143.470222326624
 31
0.0
  0
ARC
  5
119
330
1F
100
AcDbEntity
  8
0
  6
Continuous
 62
     7
370
    25
100
AcDbCircle
 10
365.1719179690191
 20
1144.080328550124
 30
0.0
 40
0.030000000000003
100
AcDbArc
 50
89.99999999978289
 51
199.8720131237838
  0
ARC
  5
11A
330
1F
100
AcDbEntity
  8
0
  6
Continuous
 62
     7
370
    25
100
AcDbCircle
 10
555.8604922694192
 20
1144.080328550124
 30
0.0
 40
0.0300000000000906
100
AcDbArc
 50
340.1279868766983
 51
90.0
  0
ARC
  5
11B
330
1F
100
AcDbEntity
  8
0
  6
Continuous
 62
     7
370
    25
100
AcDbCircle
 10
365.8490450489192
 20
1144.325071103924
 30
0.0
 40
0.7500000000000397
100
AcDbArc
 50
199.8720131231855
 51
252.3620288915003
  0
ARC
  5
11C
330
1F
100
AcDbEntity
  8
0
  6
Continuous
 62
     7
370
    25
100
AcDbCircle
 10
555.1833651895191
 20
1144.325071103924
 30
0.0
 40
0.7500000000000117
100
AcDbArc
 50
287.6379711084998
 51
340.1279868768115
  0
ARC
  5
11D
330
1F
100
AcDbEntity
  8
0
  6
Continuous
 62
     7
370
    25
100
AcDbCircle
 10
365.1823894128191
 20
1144.680237167224
 30
0.0
 40
0.0300000000001099
100
AcDbArc
 50
90.0
 51
199.87201312371
  0
ARC
  5
11E
330
1F
100
AcDbEntity
  8
0
  6
Continuous
 62
     7
370
    25
100
AcDbCircle
 10
555.8500208256191
 20
1144.680237167224
 30
0.0
 40
0.0299999999999836
100
AcDbArc
 50
340.1279868766246
 51
90.00000000021713
  0
ARC
  5
11F
330
1F
100
AcDbEntity
  8
0
  6
Continuous
 62
     7
370
    25
100
AcDbCircle
 10
365.8595164928191
 20
1144.924979721024
 30
0.0
 40
0.750000000000031
100
AcDbArc
 50
199.8720131232018
 51
252.3620288916018
  0
ARC
  5
120
330
1F
100
AcDbEntity
  8
0
  6
Continuous
 62
     7
370
    25
100
AcDbCircle
 10
555.1728937456191
 20
1144.924979721024
 30
0.0
 40
0.7500000000001185
100
AcDbArc
 50
287.6379711083982
 51
340.1279868767982
  0
ARC
  5
121
330
1F
100
AcDbEntity
  8
0
  6
Continuous
 62
     7
370
    25
100
AcDbCircle
 10
365.1928608567191
 20
1145.280145784324
 30
0.0
 40
0.0299999999999727
100
AcDbArc
 50
89.99999999978289
 51
199.872013122967
  0
ARC
  5
122
330
1F
100
AcDbEntity
  8
0
  6
Continuous
 62
     7
370
    25
100
AcDbCircle
 10
555.8395493817192
 20
1145.280145784324
 30
0.0
 40
0.0300000000000519
100
AcDbArc
 50
340.1279868771068
 51
90.0
  0
ARC
  5
123
330
1F
100
AcDbEntity
  8
0
  6
Continuous
 62
     7
370
    25
100
AcDbCircle
 10
365.8699879366192
 20
1145.524888338124
 30
0.0
 40
0.750000000000031
100
AcDbArc
 50
199.8720131232018
 51
252.3620288915003
  0
ARC
  5
124
330
1F
100
AcDbEntity
  8
0
  6
Continuous
 62
     7
370
    25
100
AcDbCircle
 10
555.1624223018191
 20
1145.524888338124
 30
0.0
 40
0.7500000000000397
100
AcDbArc
 50
287.6379711084998
 51
340.1279868767982
  0
LINE
  5
125
330
1F
100
AcDbEntity
  8
0
  6
Continuous
 62
     7
370
    25
100
AcDbLine
 10
555.4123602436191
 20
1143.510419933024
 30
0.0
 11
555.4106163322191
 21
1143.610328550124
 31
0.0
  0
LINE
  5
126
330
1F
100
AcDbEntity
  8
0
  6
Continuous
 62
     7
370
    25
100
AcDbLine
 10
365.6217939062192
 20
1143.610328550124
 30
0.0
 11
365.6200499948192
 21
1143.510419933024
 31
0.0
  0
LINE
  5
127
330
1F
100
AcDbEntity
  8
0
  6
Continuous
 62
     7
370
    25
100
AcDbLine
 10
555.4018887998192
 20
1144.110328550124
 30
0.0
 11
555.4001448884192
 21
1144.210237167224
 31
0.0
  0
LINE
  5
128
330
1F
100
AcDbEntity
  8
0
  6
Continuous
 62
     7
370
    25
100
AcDbLine
 10
365.6322653500191
 20
1144.210237167224
 30
0.0
 11
365.6305214386191
 21
1144.110328550124
 31
0.0
  0
LINE
  5
129
330
1F
100
AcDbEntity
  8
0
  6
Continuous
 62
     7
370
    25
100
AcDbLine
 10
555.3914173559191
 20
1144.710237167224
 30
0.0
 11
555.3896734445192
 21
1144.810145784324
 31
0.0
  0
LINE
  5
12A
330
1F
100
AcDbEntity
  8
0
  6
Continuous
 62
     7
370
    25
100
AcDbLine
 10
365.6427367939191
 20
1144.810145784324
 30
0.0
 11
365.6409928825192
 21
1144.710237167224
 31
0.0
  0
LINE
  5
12B
330
1F
100
AcDbEntity
  8
0
  6
Continuous
 62
     7
370
    25
100
AcDbLine
 10
555.3809459120191
 20
1145.310145784324
 30
0.0
 11
555.3765645998192
 21
1145.561150996324
 31
0.0
  0
LINE
  5
12C
330
1F
100
AcDbEntity
  8
0
  6
Continuous
 62
     7
370
    25
100
AcDbLine
 10
365.6558456386191
 20
1145.561150996324
 30
0.0
 11
365.6514643264192
 21
1145.310145784324
 31
0.0
  0
LINE
  5
12D
330
1F
100
AcDbEntity
  8
0
  6
Continuous
 62
     7
370
    25
100
AcDbLine
 10
557.5162051192192
 20
1434.678925391024
 30
0.0
 11
557.5162051192192
 21
1436.178925391024
 31
0.0
  0
LINE
  5
12E
330
1F
100
AcDbEntity
  8
0
  6
Continuous
 62
     7
370
    25
100
AcDbLine
 10
363.5162051192192
 20
1436.178925391024
 30
0.0
 11
363.5162051192192
 21
1434.678925391024
 31
0.0
  0
ARC
  5
12F
330
1F
100
AcDbEntity
  8
0
  6
Continuous
 62
     7
370
    25
100
AcDbCircle
 10
555.8709637133192
 20
1428.759656454324
 30
0.0
 40
0.0299999999999727
100
AcDbArc
 50
269.9999999997829
 51
19.87201312296703
  0
ARC
  5
130
330
1F
100
AcDbEntity
  8
0
  6
Continuous
 62
     7
370
    25
100
AcDbCircle
 10
365.1614465251191
 20
1428.759656454324
 30
0.0
 40
0.0299999999999727
100
AcDbArc
 50
160.127986877033
 51
270.0000000002171
  0
ARC
  5
131
330
1F
100
AcDbEntity
  8
0
  6
Continuous
 62
     7
370
    25
100
AcDbCircle
 10
555.1938366334191
 20
1428.514913900524
 30
0.0
 40
0.750000000000031
100
AcDbArc
 50
19.87201312320183
 51
33.67109312769286
  0
ARC
  5
132
330
1F
100
AcDbEntity
  8
0
  6
Continuous
 62
     7
370
    25
100
AcDbCircle
 10
365.8385736050192
 20
1428.514913900524
 30
0.0
 40
0.750000000000031
100
AcDbArc
 50
146.328906872601
 51
160.1279868767982
  0
ARC
  5
133
330
1F
100
AcDbEntity
  8
0
  6
Continuous
 62
     7
370
    25
100
AcDbCircle
 10
555.8604922694192
 20
1428.159747837224
 30
0.0
 40
0.0299999999999933
100
AcDbArc
 50
269.9999999997829
 51
19.87201312337542
  0
ARC
  5
134
330
1F
100
AcDbEntity
  8
0
  6
Continuous
 62
     7
370
    25
100
AcDbCircle
 10
365.1719179690191
 20
1428.159747837224
 30
0.0
 40
0.0299999999999933
100
AcDbArc
 50
160.1279868766246
 51
270.0000000002171
  0
ARC
  5
135
330
1F
100
AcDbEntity
  8
0
  6
Continuous
 62
     7
370
    25
100
AcDbCircle
 10
555.1833651895191
 20
1427.915005283424
 30
0.0
 40
0.7500000000000991
100
AcDbArc
 50
19.87201312320183
 51
72.36202889150024
  0
ARC
  5
136
330
1F
100
AcDbEntity
  8
0
  6
Continuous
 62
     7
370
    25
100
AcDbCircle
 10
365.8490450489192
 20
1427.915005283424
 30
0.0
 40
0.7500000000000991
100
AcDbArc
 50
107.6379711084998
 51
160.1279868767982
  0
ARC
  5
137
330
1F
100
AcDbEntity
  8
0
  6
Continuous
 62
     7
370
    25
100
AcDbCircle
 10
555.8500208256191
 20
1427.559839220124
 30
0.0
 40
0.0300000000001002
100
AcDbArc
 50
270.0
 51
19.87201312330161
  0
ARC
  5
138
330
1F
100
AcDbEntity
  8
0
  6
Continuous
 62
     7
370
    25
100
AcDbCircle
 10
365.1823894128191
 20
1427.559839220124
 30
0.0
 40
0.0299999999999933
100
AcDbArc
 50
160.1279868766246
 51
270.0000000002171
  0
ARC
  5
139
330
1F
100
AcDbEntity
  8
0
  6
Continuous
 62
     7
370
    25
100
AcDbCircle
 10
555.1728937456191
 20
1427.315096666324
 30
0.0
 40
0.7499999999999923
100
AcDbArc
 50
19.87201312318845
 51
72.36202889160182
  0
ARC
  5
13A
330
1F
100
AcDbEntity
  8
0
  6
Continuous
 62
     7
370
    25
100
AcDbCircle
 10
365.8595164928191
 20
1427.315096666324
 30
0.0
 40
0.7499999999999923
100
AcDbArc
 50
107.6379711083982
 51
160.1279868768115
  0
ARC
  5
13B
330
1F
100
AcDbEntity
  8
0
  6
Continuous
 62
     7
370
    25
100
AcDbCircle
 10
555.8395493817192
 20
1426.959930603024
 30
0.0
 40
0.0299999999999727
100
AcDbArc
 50
270.0
 51
19.87201312337542
  0
ARC
  5
13C
330
1F
100
AcDbEntity
  8
0
  6
Continuous
 62
     7
370
    25
100
AcDbCircle
 10
365.1928608567191
 20
1426.959930603024
 30
0.0
 40
0.0300000000000616
100
AcDbArc
 50
160.1279868766984
 51
270.0
  0
ARC
  5
13D
330
1F
100
AcDbEntity
  8
0
  6
Continuous
 62
     7
370
    25
100
AcDbCircle
 10
555.1624223018191
 20
1426.715188049224
 30
0.0
 40
0.750000000000121
100
AcDbArc
 50
19.87201312320183
 51
72.36202889150024
  0
ARC
  5
13E
330
1F
100
AcDbEntity
  8
0
  6
Continuous
 62
     7
370
    25
100
AcDbCircle
 10
365.8699879366192
 20
1426.715188049224
 30
0.0
 40
0.750000000000121
100
AcDbArc
 50
107.6379711084998
 51
160.1279868767982
  0
LINE
  5
13F
330
1F
100
AcDbEntity
  8
0
  6
Continuous
 62
     7
370
    25
100
AcDbLine
 10
365.6200499948192
 20
1428.729656454324
 30
0.0
 11
365.6217939062192
 21
1428.629747837224
 31
0.0
  0
LINE
  5
140
330
1F
100
AcDbEntity
  8
0
  6
Continuous
 62
     7
370
    25
100
AcDbLine
 10
555.4106163322191
 20
1428.629747837224
 30
0.0
 11
555.4123602436191
 21
1428.729656454324
 31
0.0
  0
LINE
  5
141
330
1F
100
AcDbEntity
  8
0
  6
Continuous
 62
     7
370
    25
100
AcDbLine
 10
365.6305214386191
 20
1428.129747837224
 30
0.0
 11
365.6322653500191
 21
1428.029839220124
 31
0.0
  0
LINE
  5
142
330
1F
100
AcDbEntity
  8
0
  6
Continuous
 62
     7
370
    25
100
AcDbLine
 10
555.4001448884192
 20
1428.029839220124
 30
0.0
 11
555.4018887998192
 21
1428.129747837224
 31
0.0
  0
LINE
  5
143
330
1F
100
AcDbEntity
  8
0
  6
Continuous
 62
     7
370
    25
100
AcDbLine
 10
365.6409928825192
 20
1427.529839220124
 30
0.0
 11
365.6427367939191
 21
1427.429930603024
 31
0.0
  0
LINE
  5
144
330
1F
100
AcDbEntity
  8
0
  6
Continuous
 62
     7
370
    25
100
AcDbLine
 10
555.3896734445192
 20
1427.429930603024
 30
0.0
 11
555.3914173559191
 21
1427.529839220124
 31
0.0
  0
LINE
  5
145
330
1F
100
AcDbEntity
  8
0
  6
Continuous
 62
     7
370
    25
100
AcDbLine
 10
365.6514643264192
 20
1426.929930603024
 30
0.0
 11
365.6558456386191
 21
1426.678925391024
 31
0.0
  0
LINE
  5
146
330
1F
100
AcDbEntity
  8
0
  6
Continuous
 62
     7
370
    25
100
AcDbLine
 10
555.3765645998192
 20
1426.678925391024
 30
0.0
 11
555.3809459120191
 21
1426.929930603024
 31
0.0
  0
ARC
  5
147
330
1F
100
AcDbEntity
  8
0
  6
Continuous
 62
     7
370
    25
100
AcDbCircle
 10
553.0162051192192
 20
1414.678925391024
 30
0.0
 40
2.500000000000025
100
AcDbArc
 50
281.5369590327987
 51
78.46304096720026
  0
ARC
  5
148
330
1F
100
AcDbEntity
  8
0
  6
Continuous
 62
     7
370
    25
100
AcDbCircle
 10
368.0162051192192
 20
1414.678925391024
 30
0.0
 40
2.500000000000068
100
AcDbArc
 50
101.5369590327997
 51
258.4630409672013
  0
ARC
  5
149
330
1F
100
AcDbEntity
  8
0
  6
Continuous
 62
     7
370
    25
100
AcDbCircle
 10
552.2550780004192
 20
1157.297211466724
 30
0.0
 40
2.500000000000041
100
AcDbArc
 50
296.5654358890997
 51
66.14328099959862
  0
ARC
  5
14A
330
1F
100
AcDbEntity
  8
0
  6
Continuous
 62
     7
370
    25
100
AcDbCircle
 10
367.2550780004192
 20
1157.297211466724
 30
0.0
 40
2.500000000000041
100
AcDbArc
 50
90.0
 51
243.4345641109003
  0
LINE
  5
14B
330
1F
100
AcDbEntity
  8
0
  6
Continuous
 62
     7
370
    25
100
AcDbLine
 10
524.0499287639192
 20
1159.797211466724
 30
0.0
 11
367.2550780004192
 21
1159.797211466724
 31
0.0
  0
LINE
  5
14C
330
1F
100
AcDbEntity
  8
0
  6
Continuous
 62
     7
370
    25
100
AcDbLine
 10
438.8865518214192
 20
1168.861150996324
 30
0.0
 11
438.4824066330192
 21
1169.561150996324
 31
0.0
  0
LINE
  5
14D
330
1F
100
AcDbEntity
  8
0
  6
Continuous
 62
     7
370
    25
100
AcDbLine
 10
427.2906970099191
 20
1169.561150996324
 30
0.0
 11
426.8865518214192
 21
1168.861150996324
 31
0.0
  0
LINE
  5
14E
330
1F
100
AcDbEntity
  8
0
  6
Continuous
 62
     7
370
    25
100
AcDbLine
 10
438.8865518214192
 20
1165.561150996324
 30
0.0
 11
438.8865518214192
 21
1168.861150996324
 31
0.0
  0
LINE
  5
14F
330
1F
100
AcDbEntity
  8
0
  6
Continuous
 62
     7
370
    25
100
AcDbLine
 10
426.8865518214192
 20
1168.861150996324
 30
0.0
 11
426.8865518214192
 21
1165.561150996324
 31
0.0
  0
LINE
  5
150
330
1F
100
AcDbEntity
  8
0
  6
Continuous
 62
     7
370
    25
100
AcDbLine
 10
556.5162051192192
 20
931.5611509931241
 30
0.0
 11
364.5162051192192
 21
931.5611509931241
 31
0.0
  0
LINE
  5
151
330
1F
100
AcDbEntity
  8
0
  6
Continuous
 62
     7
370
    25
100
AcDbLine
 10
560.5162051192192
 20
961.5611509931241
 30
0.0
 11
360.5162051192192
 21
961.5611509931241
 31
0.0
  0
SPLINE
  5
152
330
1F
100
AcDbEntity
  8
0
  6
Continuous
 62
     7
370
    25
100
AcDbSpline
210
0.0
220
0.0
230
1.0
 70
    11
 71
     3
 72
    26
 73
    22
 74
     0
 42
0.000000001
 43
0.00000001
 40
0.0
 40
0.0
 40
0.0
 40
0.0
 40
0.0535952736928153
 40
0.107187554591968
 40
0.16085311462279
 40
0.2145163389754475
 40
0.2680264233576474
 40
0.321480598750843
 40
0.3751304294160299
 40
0.4289949515750723
 40
0.482760463365859
 40
0.5361897602903863
 40
0.5894792298187329
 40
0.6430087416672171
 40
0.6968412310852915
 40
0.7506648261424165
 40
0.8042376867768826
 40
0.8576827909196344
 40
0.9112427291311566
 40
0.9649270335817138
 40
1.0
 40
1.0
 40
1.0
 40
1.0
 10
493.0130514077939
 20
901.5611509931725
 30
0.0
 10
492.9951575753543
 20
901.1792219317272
 30
0.0
 10
492.9593709096775
 20
900.4153851359941
 30
0.0
 10
492.6753495736389
 20
899.3984863582629
 30
0.0
 10
492.2416877343603
 20
898.6245290210458
 30
0.0
 10
491.6753808301995
 20
898.1815192354957
 30
0.0
 10
491.0349985815657
 20
898.119119048698
 30
0.0
 10
490.3896498705302
 20
898.4421344307133
 30
0.0
 10
489.8182609917203
 20
899.1150148249101
 30
0.0
 10
489.3993439617517
 20
900.065338546663
 30
0.0
 10
489.196828003315
 20
901.1848532619399
 30
0.0
 10
489.2412293882334
 20
902.343007521566
 30
0.0
 10
489.5231073191321
 20
903.4107206618271
 30
0.0
 10
490.0006782540053
 20
904.2734661783632
 30
0.0
 10
490.607887980015
 20
904.8344655877759
 30
0.0
 10
491.2630975164973
 20
905.026336330895
 30
0.0
 10
491.8850315639074
 20
904.8271400921752
 30
0.0
 10
492.4101027970769
 20
904.2617907800286
 30
0.0
 10
492.7902594151876
 20
903.3937703837503
 30
0.0
 10
492.9855304213672
 20
902.4407928053196
 30
0.0
 10
493.0052565213923
 20
901.8102956965458
 30
0.0
 10
493.0130514077939
 20
901.5611509931725
 30
0.0
  0
SPLINE
  5
153
330
1F
100
AcDbEntity
  8
0
  6
Continuous
 62
     7
370
    25
100
AcDbSpline
210
0.0
220
0.0
230
1.0
 70
    11
 71
     3
 72
    26
 73
    22
 74
     0
 42
0.000000001
 43
0.00000001
 40
0.0
 40
0.0
 40
0.0
 40
0.0
 40
0.0535952736928149
 40
0.1071875545919685
 40
0.1608531146227903
 40
0.2145163389754486
 40
0.2680264233576486
 40
0.3214805987508443
 40
0.3751304294160321
 40
0.4289949515750743
 40
0.4827604633658606
 40
0.5361897602903888
 40
0.5894792298187429
 40
0.6430087416672153
 40
0.6968412310852904
 40
0.7506648261424154
 40
0.8042376867768817
 40
0.8576827909196338
 40
0.9112427291311567
 40
0.9649270335817142
 40
1.0
 40
1.0
 40
1.0
 40
1.0
 10
493.0130514077939
 20
881.5611509931728
 30
0.0
 10
492.9951575753543
 20
881.1792219317273
 30
0.0
 10
492.9593709096775
 20
880.4153851359944
 30
0.0
 10
492.6753495736389
 20
879.398486358263
 30
0.0
 10
492.2416877343603
 20
878.624529021046
 30
0.0
 10
491.6753808301995
 20
878.1815192354958
 30
0.0
 10
491.0349985815657
 20
878.1191190486984
 30
0.0
 10
490.3896498705302
 20
878.4421344307135
 30
0.0
 10
489.8182609917203
 20
879.1150148249103
 30
0.0
 10
489.3993439617518
 20
880.0653385466633
 30
0.0
 10
489.196828003315
 20
881.1848532619399
 30
0.0
 10
489.2412293882333
 20
882.3430075215664
 30
0.0
 10
489.5231073191324
 20
883.4107206618271
 30
0.0
 10
490.0006782540053
 20
884.2734661783635
 30
0.0
 10
490.607887980015
 20
884.8344655877761
 30
0.0
 10
491.2630975164973
 20
885.0263363308951
 30
0.0
 10
491.8850315639074
 20
884.8271400921755
 30
0.0
 10
492.4101027970769
 20
884.2617907800288
 30
0.0
 10
492.7902594151876
 20
883.3937703837505
 30
0.0
 10
492.9855304213672
 20
882.4407928053197
 30
0.0
 10
493.0052565213922
 20
881.8102956965461
 30
0.0
 10
493.0130514077939
 20
881.5611509931728
 30
0.0
  0
SPLINE
  5
154
330
1F
100
AcDbEntity
  8
0
  6
Continuous
 62
     7
370
    25
100
AcDbSpline
210
0.0
220
0.0
230
1.0
 70
    11
 71
     3
 72
    26
 73
    22
 74
     0
 42
0.000000001
 43
0.00000001
 40
0.0
 40
0.0
 40
0.0
 40
0.0
 40
0.0535952736928178
 40
0.1071875545919685
 40
0.1608531146227973
 40
0.2145163389754498
 40
0.2680264233576488
 40
0.3214805987508316
 40
0.3751304294160338
 40
0.4289949515750746
 40
0.4827604633658608
 40
0.5361897602903882
 40
0.589479229818747
 40
0.643008741667217
 40
0.696841231085288
 40
0.7506648261424057
 40
0.8042376867768821
 40
0.8576827909196231
 40
0.9112427291311578
 40
0.9649270335817127
 40
0.9999999999999999
 40
0.9999999999999999
 40
0.9999999999999999
 40
0.9999999999999999
 10
438.7676067147547
 20
881.5611509931728
 30
0.0
 10
438.7979729593607
 20
881.9430800546182
 30
0.0
 10
438.8587037529027
 20
882.706916850351
 30
0.0
 10
439.335270268179
 20
883.7238156280827
 30
0.0
 10
440.0471033831299
 20
884.4977729652994
 30
0.0
 10
440.9518403214519
 20
884.9407827508498
 30
0.0
 10
441.9451182906425
 20
885.0031829376474
 30
0.0
 10
442.9185132337183
 20
884.6801675556319
 30
0.0
 10
443.7599630288619
 20
884.0072871614354
 30
0.0
 10
444.3658695025016
 20
883.0569634396822
 30
0.0
 10
444.6556651071884
 20
881.9374487244055
 30
0.0
 10
444.5922945761248
 20
880.779294464779
 30
0.0
 10
444.1877619265354
 20
879.7115813245185
 30
0.0
 10
443.4932680892889
 20
878.848835807982
 30
0.0
 10
442.5922651679623
 20
878.2878363985694
 30
0.0
 10
441.594684597147
 20
878.0959656554504
 30
0.0
 10
440.619973778572
 20
878.29516189417
 30
0.0
 10
439.7727253107158
 20
878.8605112063169
 30
0.0
 10
439.143481369767
 20
879.7285316025949
 30
0.0
 10
438.8142131514539
 20
880.681509181026
 30
0.0
 10
438.7808072546635
 20
881.3120062897995
 30
0.0
 10
438.7676067147547
 20
881.5611509931728
 30
0.0
  0
SPLINE
  5
155
330
1F
100
AcDbEntity
  8
0
  6
Continuous
 62
     7
370
    25
100
AcDbSpline
210
0.0
220
0.0
230
1.0
 70
    11
 71
     3
 72
    26
 73
    22
 74
     0
 42
0.000000001
 43
0.00000001
 40
0.0
 40
0.0
 40
0.0
 40
0.0
 40
0.0535952736928165
 40
0.1071875545919683
 40
0.1608531146227963
 40
0.2145163389754476
 40
0.2680264233576484
 40
0.321480598750831
 40
0.3751304294160336
 40
0.4289949515750734
 40
0.4827604633658602
 40
0.5361897602903871
 40
0.5894792298187463
 40
0.643008741667216
 40
0.6968412310852875
 40
0.7506648261424053
 40
0.804237686776882
 40
0.857682790919623
 40
0.9112427291311572
 40
0.9649270335817123
 40
1.0
 40
1.0
 40
1.0
 40
1.0
 10
438.7676067147547
 20
901.5611509931725
 30
0.0
 10
438.7979729593607
 20
901.943080054618
 30
0.0
 10
438.8587037529027
 20
902.7069168503509
 30
0.0
 10
439.335270268179
 20
903.7238156280824
 30
0.0
 10
440.0471033831299
 20
904.4977729652992
 30
0.0
 10
440.9518403214519
 20
904.9407827508496
 30
0.0
 10
441.9451182906425
 20
905.003182937647
 30
0.0
 10
442.9185132337183
 20
904.6801675556317
 30
0.0
 10
443.7599630288619
 20
904.0072871614352
 30
0.0
 10
444.3658695025016
 20
903.056963439682
 30
0.0
 10
444.6556651071884
 20
901.9374487244054
 30
0.0
 10
444.5922945761247
 20
900.7792944647789
 30
0.0
 10
444.1877619265355
 20
899.7115813245183
 30
0.0
 10
443.4932680892888
 20
898.848835807982
 30
0.0
 10
442.5922651679623
 20
898.2878363985692
 30
0.0
 10
441.594684597147
 20
898.0959656554503
 30
0.0
 10
440.619973778572
 20
898.2951618941698
 30
0.0
 10
439.7727253107158
 20
898.8605112063168
 30
0.0
 10
439.143481369767
 20
899.7285316025947
 30
0.0
 10
438.8142131514539
 20
900.6815091810257
 30
0.0
 10
438.7808072546635
 20
901.3120062897993
 30
0.0
 10
438.7676067147547
 20
901.5611509931725
 30
0.0
  0
LINE
  5
156
330
1F
100
AcDbEntity
  8
0
  6
Continuous
 62
     7
370
    25
100
AcDbLine
 10
497.5162051192192
 20
861.5611509931241
 30
0.0
 11
423.5162051192192
 21
861.5611509931241
 31
0.0
  0
SPLINE
  5
157
330
1F
100
AcDbEntity
  8
0
  6
Continuous
 62
     7
370
    25
100
AcDbSpline
210
0.0
220
0.0
230
1.0
 70
     8
 71
     3
 72
    10
 73
     6
 74
     0
 42
0.000000001
 43
0.00000001
 40
0.0
 40
0.0
 40
0.0
 40
0.0
 40
0.3437020342361202
 40
0.6873767126595717
 40
1.0
 40
1.0
 40
1.0
 40
1.0
 10
441.980199673325
 20
881.5611509931728
 30
0.0
 10
442.0112077629108
 20
881.180848388443
 30
0.0
 10
442.0732214740971
 20
880.4202734478961
 30
0.0
 10
442.5178332148133
 20
879.4137326367842
 30
0.0
 10
442.992927864297
 20
878.9643856653129
 30
0.0
 10
443.2192361249764
 20
878.7503421443729
 30
0.0
  0
SPLINE
  5
158
330
1F
100
AcDbEntity
  8
0
  6
Continuous
 62
     7
370
    25
100
AcDbSpline
210
0.0
220
0.0
230
1.0
 70
     8
 71
     3
 72
    11
 73
     7
 74
     0
 42
0.000000001
 43
0.00000001
 40
0.0
 40
0.0
 40
0.0
 40
0.0
 40
0.0843439532513905
 40
0.4272196228352717
 40
0.7712411868209652
 40
1.0
 40
1.0
 40
1.0
 40
1.0
 10
443.2287066459958
 20
884.3554665630367
 30
0.0
 10
443.1590816583057
 20
884.3125370889101
 30
0.0
 10
442.8064166499181
 20
884.0950903954852
 30
0.0
 10
442.3683070993238
 20
883.3885842369066
 30
0.0
 10
442.0262525771125
 20
882.4525647062884
 30
0.0
 10
441.9933431449616
 20
881.8155599422554
 30
0.0
 10
441.980199673325
 20
881.5611509931728
 30
0.0
  0
SPLINE
  5
159
330
1F
100
AcDbEntity
  8
0
  6
Continuous
 62
     7
370
    25
100
AcDbSpline
210
0.0
220
0.0
230
1.0
 70
     8
 71
     3
 72
    10
 73
     6
 74
     0
 42
0.000000001
 43
0.00000001
 40
0.0
 40
0.0
 40
0.0
 40
0.0
 40
0.343702034236128
 40
0.6873767126595669
 40
1.0
 40
1.0
 40
1.0
 40
1.0
 10
441.980199673325
 20
901.5611509931725
 30
0.0
 10
442.0112077629108
 20
901.1808483884428
 30
0.0
 10
442.0732214740971
 20
900.4202734478959
 30
0.0
 10
442.5178332148133
 20
899.413732636784
 30
0.0
 10
442.992927864297
 20
898.9643856653128
 30
0.0
 10
443.2192361249764
 20
898.7503421443727
 30
0.0
  0
SPLINE
  5
15A
330
1F
100
AcDbEntity
  8
0
  6
Continuous
 62
     7
370
    25
100
AcDbSpline
210
0.0
220
0.0
230
1.0
 70
     8
 71
     3
 72
    11
 73
     7
 74
     0
 42
0.000000001
 43
0.00000001
 40
0.0
 40
0.0
 40
0.0
 40
0.0
 40
0.0843439532513882
 40
0.4272196228352655
 40
0.7712411868209558
 40
0.9999999999999999
 40
0.9999999999999999
 40
0.9999999999999999
 40
0.9999999999999999
 10
443.2287066459958
 20
904.3554665630365
 30
0.0
 10
443.1590816583057
 20
904.3125370889098
 30
0.0
 10
442.806416649918
 20
904.0950903954849
 30
0.0
 10
442.3683070993238
 20
903.3885842369062
 30
0.0
 10
442.0262525771125
 20
902.4525647062883
 30
0.0
 10
441.9933431449616
 20
901.8155599422552
 30
0.0
 10
441.980199673325
 20
901.5611509931725
 30
0.0
  0
LINE
  5
15B
330
1F
100
AcDbEntity
  8
0
  6
Continuous
 62
     7
370
    25
100
AcDbLine
 10
545.0592205575191
 20
970.5611509931241
 30
0.0
 11
360.5162051192192
 21
970.5611509931241
 31
0.0
  0
LINE
  5
15C
330
1F
100
AcDbEntity
  8
0
  6
Continuous
 62
     7
370
    25
100
AcDbLine
 10
560.5162051192192
 20
970.5611509931241
 30
0.0
 11
545.0592205575191
 21
970.5611509931241
 31
0.0
  0
LINE
  5
15D
330
1F
100
AcDbEntity
  8
0
  6
Continuous
 62
     7
370
    25
100
AcDbLine
 10
545.0592205575191
 20
961.5611509931241
 30
0.0
 11
560.5162051192192
 21
961.5611509931241
 31
0.0
  0
LINE
  5
15E
330
1F
100
AcDbEntity
  8
0
  6
Continuous
 62
     7
370
    25
100
AcDbLine
 10
360.5162051192192
 20
961.5611509931241
 30
0.0
 11
545.0592205575191
 21
961.5611509931241
 31
0.0
  0
CIRCLE
  5
15F
330
1F
100
AcDbEntity
  8
0
  6
Continuous
 62
     7
370
    25
100
AcDbCircle
 10
450.5018982813191
 20
1446.190396987524
 30
0.0
 40
2.989239900930704
  0
SPLINE
  5
160
330
1F
100
AcDbEntity
  8
0
  6
Continuous
 62
     7
370
    25
100
AcDbSpline
210
0.0
220
0.0
230
1.0
 70
     8
 71
     3
 72
     9
 73
     5
 74
     0
 42
0.000000001
 43
0.00000001
 40
0.0
 40
0.0
 40
0.0
 40
0.0
 40
0.1289594393877766
 40
1.0
 40
1.0
 40
1.0
 40
1.0
 10
448.2100125659172
 20
1446.178925391036
 30
0.0
 10
448.2600941998963
 20
1446.093197544385
 30
0.0
 10
448.648446027549
 20
1445.428431575662
 30
0.0
 10
449.0282842088932
 20
1444.76061805471
 30
0.0
 10
449.3591386713128
 20
1444.178925391036
 30
0.0
  0
LINE
  5
161
330
1F
100
AcDbEntity
  8
0
  6
Continuous
 62
     7
370
    25
100
AcDbLine
 10
449.3591386713191
 20
1444.178925391024
 30
0.0
 11
451.6573908821191
 21
1444.178925391024
 31
0.0
  0
LINE
  5
162
330
1F
100
AcDbEntity
  8
0
  6
Continuous
 62
     7
370
    25
100
AcDbLine
 10
451.6573908821191
 20
1444.178925391024
 30
0.0
 11
452.8065169875191
 21
1446.178925391024
 31
0.0
  0
SPLINE
  5
163
330
1F
100
AcDbEntity
  8
0
  6
Continuous
 62
     7
370
    25
100
AcDbSpline
210
0.0
220
0.0
230
1.0
 70
     8
 71
     3
 72
     9
 73
     5
 74
     0
 42
0.000000001
 43
0.00000001
 40
0.0
 40
0.0
 40
0.0
 40
0.0
 40
0.8710405606109409
 40
0.9999999999999999
 40
0.9999999999999999
 40
0.9999999999999999
 40
0.9999999999999999
 10
452.8065169874953
 20
1446.178925391037
 30
0.0
 10
452.4756625250768
 20
1446.760618054711
 30
0.0
 10
452.0958243437337
 20
1447.428431575663
 30
0.0
 10
451.7074725160817
 20
1448.093197544385
 30
0.0
 10
451.6573908821018
 20
1448.178925391037
 30
0.0
  0
LINE
  5
164
330
1F
100
AcDbEntity
  8
0
  6
Continuous
 62
     7
370
    25
100
AcDbLine
 10
451.6573908821191
 20
1448.178925391024
 30
0.0
 11
449.3591386713191
 21
1448.178925391024
 31
0.0
  0
LINE
  5
165
330
1F
100
AcDbEntity
  8
0
  6
Continuous
 62
     7
370
    25
100
AcDbLine
 10
449.3591386713191
 20
1448.178925391024
 30
0.0
 11
448.2100125659191
 21
1446.178925391024
 31
0.0
  0
LINE
  5
166
330
1F
100
AcDbEntity
  8
0
  6
Continuous
 62
     7
370
    25
100
AcDbLine
 10
449.5819464480192
 20
1447.733452216324
 30
0.0
 11
448.9447251968191
 21
1446.624398565724
 31
0.0
  0
LINE
  5
167
330
1F
100
AcDbEntity
  8
0
  6
Continuous
 62
     7
370
    25
100
AcDbLine
 10
448.4063483430191
 20
1446.178925391024
 30
0.0
 11
448.2100125659191
 21
1446.178925391024
 31
0.0
  0
LINE
  5
168
330
1F
100
AcDbEntity
  8
0
  6
Continuous
 62
     7
370
    25
100
AcDbLine
 10
448.9447251968191
 20
1445.733452216324
 30
0.0
 11
449.5819464480192
 21
1444.624398565724
 31
0.0
  0
SPLINE
  5
169
330
1F
100
AcDbEntity
  8
0
  6
Continuous
 62
     7
370
    25
100
AcDbSpline
210
0.0
220
0.0
230
1.0
 70
    11
 71
     3
 72
    26
 73
    22
 74
     0
 42
0.000000001
 43
0.00000001
 40
0.0
 40
0.0
 40
0.0
 40
0.0
 40
0.0536684126619385
 40
0.1073361040231176
 40
0.1610225182298875
 40
0.2147211606576951
 40
0.2683994424121437
 40
0.322056554089268
 40
0.3757247298685078
 40
0.4294189285852142
 40
0.4831135035439029
 40
0.536782231850945
 40
0.5904392351968344
 40
0.6441169004727615
 40
0.6978154072018502
 40
0.7515023950533278
 40
0.8051634595503014
 40
0.8588246702841242
 40
0.9125118546935868
 40
0.9662103125139302
 40
1.0
 40
1.0
 40
1.0
 40
1.0
 10
450.5056986381128
 20
1449.578925391037
 30
0.0
 10
450.1254648224767
 20
1449.541355051345
 30
0.0
 10
449.3650023015279
 20
1449.466214876903
 30
0.0
 10
448.3542519739425
 20
1448.880482536202
 30
0.0
 10
447.5862220232448
 20
1448.017741855283
 30
0.0
 10
447.1471194413606
 20
1446.940166913969
 30
0.0
 10
447.0861286893614
 20
1445.778864683543
 30
0.0
 10
447.409800149912
 20
1444.66241256559
 30
0.0
 10
448.0819137336115
 20
1443.716934330499
 30
0.0
 10
449.0276871294149
 20
1443.048640477426
 30
0.0
 10
450.1411535129229
 20
1442.733221065776
 30
0.0
 10
451.2967480876982
 20
1442.80625439313
 30
0.0
 10
452.3641729522432
 20
1443.25920539629
 30
0.0
 10
453.223073424192
 20
1444.041140703569
 30
0.0
 10
453.7759655962033
 20
1445.064232291498
 30
0.0
 10
453.9596662631507
 20
1446.213115441308
 30
0.0
 10
453.7534570627946
 20
1447.357437565987
 30
0.0
 10
453.1808704235817
 20
1448.370402128201
 30
0.0
 10
452.3073394913123
 20
1449.130958152074
 30
0.0
 10
451.3625308791839
 20
1449.524636919376
 30
0.0
 10
450.7444239928387
 20
1449.563799869338
 30
0.0
 10
450.5056986381128
 20
1449.578925391037
 30
0.0
  0
LINE
  5
16A
330
1F
100
AcDbEntity
  8
0
  6
Continuous
 62
     7
370
    25
100
AcDbLine
 10
562.0237898604191
 20
1436.178925391024
 30
0.0
 11
562.5162051192192
 21
1436.178925391024
 31
0.0
  0
LINE
  5
16B
330
1F
100
AcDbEntity
  8
0
  6
Continuous
 62
     7
370
    25
100
AcDbLine
 10
358.5162051192192
 20
1436.178925391024
 30
0.0
 11
562.0237898604191
 21
1436.178925391024
 31
0.0
  0
LINE
  5
16C
330
1F
100
AcDbEntity
  8
0
  6
Continuous
 62
     7
370
    25
100
AcDbLine
 10
448.6142853147192
 20
1446.178925391024
 30
0.0
 11
448.6888368205191
 21
1445.738097856224
 31
0.0
  0
SPLINE
  5
16D
330
1F
100
AcDbEntity
  8
0
  6
Continuous
 62
     7
370
    25
100
AcDbSpline
210
0.0
220
0.0
230
1.0
 70
     8
 71
     3
 72
     9
 73
     5
 74
     0
 42
0.000000001
 43
0.00000001
 40
0.0
 40
0.0
 40
0.0
 40
0.0
 40
0.3928066463585417
 40
1.0
 40
1.0
 40
1.0
 40
1.0
 10
449.3175459647637
 20
1444.646580747737
 30
0.0
 10
449.4055614638199
 20
1444.556882336544
 30
0.0
 10
449.6296297169212
 20
1444.328529756402
 30
0.0
 10
449.9380234742665
 20
1444.235445520441
 30
0.0
 10
450.1252781140311
 20
1444.178925391036
 30
0.0
  0
SPLINE
  5
16E
330
1F
100
AcDbEntity
  8
0
  6
Continuous
 62
     7
370
    25
100
AcDbSpline
210
0.0
220
0.0
230
1.0
 70
     8
 71
     3
 72
     9
 73
     5
 74
     0
 42
0.000000001
 43
0.00000001
 40
0.0
 40
0.0
 40
0.0
 40
0.0
 40
0.6334994019373867
 40
1.0
 40
1.0
 40
1.0
 40
1.0
 10
451.2549796830646
 20
1444.18445069229
 30
0.0
 10
451.3816631376649
 20
1444.207864117277
 30
0.0
 10
451.5816372090102
 20
1444.244822991928
 30
0.0
 10
451.7379299427187
 20
1444.372135341474
 30
0.0
 10
451.7952113230956
 20
1444.418795393723
 30
0.0
  0
LINE
  5
16F
330
1F
100
AcDbEntity
  8
0
  6
Continuous
 62
     7
370
    25
100
AcDbLine
 10
451.8775810503191
 20
1447.894022684124
 30
0.0
 11
451.4028685993192
 21
1448.151671933924
 31
0.0
  0
SPLINE
  5
170
330
1F
100
AcDbEntity
  8
0
  6
Continuous
 62
     7
370
    25
100
AcDbSpline
210
0.0
220
0.0
230
1.0
 70
     8
 71
     3
 72
     9
 73
     5
 74
     0
 42
0.000000001
 43
0.00000001
 40
0.0
 40
0.0
 40
0.0
 40
0.0
 40
0.0126650761164673
 40
1.0
 40
1.0
 40
1.0
 40
1.0
 10
448.6626343712585
 20
1446.62404325765
 30
0.0
 10
448.6619349452365
 20
1446.62228755399
 30
0.0
 10
448.6067101668325
 20
1446.483661963141
 30
0.0
 10
448.6105218785893
 20
1446.330322650053
 30
0.0
 10
448.6142853147268
 20
1446.178925391037
 30
0.0
  0
LINE
  5
171
330
1F
100
AcDbEntity
  8
0
  6
Continuous
 62
     7
370
    25
100
AcDbLine
 10
404.8798288937192
 20
1408.678925391024
 30
0.0
 11
556.0162051192192
 21
1408.678925391024
 31
0.0
  0
LINE
  5
172
330
1F
100
AcDbEntity
  8
0
  6
Continuous
 62
     7
370
    25
100
AcDbLine
 10
365.0162051192192
 20
1408.678925391024
 30
0.0
 11
404.8798288937192
 21
1408.678925391024
 31
0.0
  0
LINE
  5
173
330
1F
100
AcDbEntity
  8
0
  6
Continuous
 62
     7
370
    25
100
AcDbLine
 10
405.4624087494192
 20
1407.678925391024
 30
0.0
 11
366.0162051192192
 21
1407.678925391024
 31
0.0
  0
LINE
  5
174
330
1F
100
AcDbEntity
  8
0
  6
Continuous
 62
     7
370
    25
100
AcDbLine
 10
555.0162051192192
 20
1407.678925391024
 30
0.0
 11
405.4624087494192
 21
1407.678925391024
 31
0.0
  0
LINE
  5
175
330
1F
100
AcDbEntity
  8
0
  6
Continuous
 62
     7
370
    25
100
AcDbLine
 10
404.8798288937192
 20
1417.478925391024
 30
0.0
 11
556.0162051192192
 21
1417.478925391024
 31
0.0
  0
LINE
  5
176
330
1F
100
AcDbEntity
  8
0
  6
Continuous
 62
     7
370
    25
100
AcDbLine
 10
365.0162051192192
 20
1417.478925391024
 30
0.0
 11
404.8798288937192
 21
1417.478925391024
 31
0.0
  0
LINE
  5
177
330
1F
100
AcDbEntity
  8
0
  6
Continuous
 62
     7
370
    25
100
AcDbLine
 10
556.0162051192192
 20
1426.228925391024
 30
0.0
 11
365.0162051192192
 21
1426.228925391024
 31
0.0
  0
LINE
  5
178
330
1F
100
AcDbEntity
  8
0
  6
Continuous
 62
     7
370
    25
100
AcDbLine
 10
556.0162051192192
 20
1411.378925391024
 30
0.0
 11
365.0162051192192
 21
1411.378925391024
 31
0.0
  0
LINE
  5
179
330
1F
100
AcDbEntity
  8
0
  6
Continuous
 62
     7
370
    25
100
AcDbLine
 10
405.0546028504191
 20
1417.178925391024
 30
0.0
 11
365.3162051192191
 21
1417.178925391024
 31
0.0
  0
LINE
  5
17A
330
1F
100
AcDbEntity
  8
0
  6
Continuous
 62
     7
370
    25
100
AcDbLine
 10
555.7162051192191
 20
1417.178925391024
 30
0.0
 11
405.0546028504191
 21
1417.178925391024
 31
0.0
  0
LINE
  5
17B
330
1F
100
AcDbEntity
  8
0
  6
Continuous
 62
     7
370
    25
100
AcDbLine
 10
556.0162051192192
 20
1434.378925391024
 30
0.0
 11
365.0162051192192
 21
1434.378925391024
 31
0.0
  0
LINE
  5
17C
330
1F
100
AcDbEntity
  8
0
  6
Continuous
 62
     7
370
    25
100
AcDbLine
 10
365.3162051192191
 20
1426.528925391024
 30
0.0
 11
555.7162051192191
 21
1426.528925391024
 31
0.0
  0
LINE
  5
17D
330
1F
100
AcDbEntity
  8
0
  6
Continuous
 62
     7
370
    25
100
AcDbLine
 10
404.8798288937192
 20
1429.128925391024
 30
0.0
 11
556.0162051192192
 21
1429.128925391024
 31
0.0
  0
LINE
  5
17E
330
1F
100
AcDbEntity
  8
0
  6
Continuous
 62
     7
370
    25
100
AcDbLine
 10
365.0162051192192
 20
1429.128925391024
 30
0.0
 11
404.8798288937192
 21
1429.128925391024
 31
0.0
  0
LINE
  5
17F
330
1F
100
AcDbEntity
  8
0
  6
Continuous
 62
     7
370
    25
100
AcDbLine
 10
365.3162051192191
 20
1411.678925391024
 30
0.0
 11
555.7162051192191
 21
1411.678925391024
 31
0.0
  0
LINE
  5
180
330
1F
100
AcDbEntity
  8
0
  6
Continuous
 62
     7
370
    25
100
AcDbLine
 10
555.7162051192191
 20
1428.828925391024
 30
0.0
 11
405.0546028504191
 21
1428.828925391024
 31
0.0
  0
LINE
  5
181
330
1F
100
AcDbEntity
  8
0
  6
Continuous
 62
     7
370
    25
100
AcDbLine
 10
553.5162051192192
 20
1339.461150996224
 30
0.0
 11
367.5162051192192
 21
1339.461150996224
 31
0.0
  0
LINE
  5
182
330
1F
100
AcDbEntity
  8
0
  6
Continuous
 62
     7
370
    25
100
AcDbLine
 10
368.5162051192192
 20
1377.461150996224
 30
0.0
 11
552.5162051192192
 21
1377.461150996224
 31
0.0
  0
SPLINE
  5
183
330
1F
100
AcDbEntity
  8
0
  6
Continuous
 62
     7
370
    25
100
AcDbSpline
210
0.0
220
0.0
230
1.0
 70
     8
 71
     3
 72
    13
 73
     9
 74
     0
 42
0.000000001
 43
0.00000001
 40
0.0
 40
0.0
 40
0.0
 40
0.0
 40
0.01519659122375
 40
0.2263041635037288
 40
0.4265648341617511
 40
0.6341939915034114
 40
0.8637073920666419
 40
1.0
 40
1.0
 40
1.0
 40
1.0
 10
518.2294222802922
 20
1395.417675575233
 30
0.0
 10
518.2366685019988
 20
1395.334892952727
 30
0.0
 10
518.3445775796141
 20
1394.10211305735
 30
0.0
 10
518.0869500351738
 20
1391.750593959037
 30
0.0
 10
517.3616730403452
 20
1388.463944278766
 30
0.0
 10
516.1217516139354
 20
1385.269695232165
 30
0.0
 10
514.8940316125265
 20
1382.467118622822
 30
0.0
 10
513.9724613692936
 20
1380.769848987944
 30
0.0
 10
513.6291012031766
 20
1380.137477458961
 30
0.0
  0
SPLINE
  5
184
330
1F
100
AcDbEntity
  8
0
  6
Continuous
 62
     7
370
    25
100
AcDbSpline
210
0.0
220
0.0
230
1.0
 70
     8
 71
     3
 72
     9
 73
     5
 74
     0
 42
0.000000001
 43
0.00000001
 40
0.0
 40
0.0
 40
0.0
 40
0.0
 40
0.3229101220602721
 40
1.0
 40
1.0
 40
1.0
 40
1.0
 10
505.5134862082206
 20
1377.461150996241
 30
0.0
 10
505.1574934999489
 20
1377.777465457021
 30
0.0
 10
504.0550421243147
 20
1378.757039769408
 30
0.0
 10
503.0730822518971
 20
1379.897111762068
 30
0.0
 10
502.4082071617402
 20
1380.669042968421
 30
0.0
  0
SPLINE
  5
185
330
1F
100
AcDbEntity
  8
0
  6
Continuous
 62
     7
370
    25
100
AcDbSpline
210
0.0
220
0.0
230
1.0
 70
     8
 71
     3
 72
     9
 73
     5
 74
     0
 42
0.000000001
 43
0.00000001
 40
0.0
 40
0.0
 40
0.0
 40
0.0
 40
0.0988233841390655
 40
1.0
 40
1.0
 40
1.0
 40
1.0
 10
500.9131665856577
 20
1383.030606196396
 30
0.0
 10
500.9529260404601
 20
1382.932891995026
 30
0.0
 10
501.3552544483446
 20
1381.944115884784
 30
0.0
 10
501.909097107996
 20
1381.273440206509
 30
0.0
 10
502.4082071617402
 20
1380.669042968421
 30
0.0
  0
SPLINE
  5
186
330
1F
100
AcDbEntity
  8
0
  6
Continuous
 62
     7
370
    25
100
AcDbSpline
210
0.0
220
0.0
230
1.0
 70
     8
 71
     3
 72
    11
 73
     7
 74
     0
 42
0.000000001
 43
0.00000001
 40
0.0
 40
0.0
 40
0.0
 40
0.0
 40
0.2311940932851616
 40
0.4930670974815786
 40
0.7825416803312313
 40
1.0
 40
1.0
 40
1.0
 40
1.0
 10
486.8588764949876
 20
1391.443518767907
 30
0.0
 10
487.0535782684296
 20
1390.463108163051
 30
0.0
 10
487.4688182814483
 20
1388.37218877836
 30
0.0
 10
488.6994538065152
 20
1385.27106265381
 30
0.0
 10
490.0033443304867
 20
1382.293280496614
 30
0.0
 10
491.0193787606757
 20
1380.430447732319
 30
0.0
 10
491.4552256722036
 20
1379.631350887875
 30
0.0
  0
LINE
  5
187
330
1F
100
AcDbEntity
  8
0
  6
Continuous
 62
     7
370
    25
100
AcDbLine
 10
492.0341946528191
 20
1378.554444730024
 30
0.0
 11
492.6344741198192
 21
1377.737677138824
 31
0.0
  0
LINE
  5
188
330
1F
100
AcDbEntity
  8
0
  6
Continuous
 62
     7
370
    25
100
AcDbLine
 10
501.2399131867191
 20
1379.391122352124
 30
0.0
 11
502.4082071617191
 21
1380.669042968424
 31
0.0
  0
SPLINE
  5
189
330
1F
100
AcDbEntity
  8
0
  6
Continuous
 62
     7
370
    25
100
AcDbSpline
210
0.0
220
0.0
230
1.0
 70
     8
 71
     3
 72
    20
 73
    16
 74
     0
 42
0.000000001
 43
0.00000001
 40
0.0
 40
0.0
 40
0.0
 40
0.0
 40
0.0826696359904622
 40
0.1782517311655788
 40
0.2276557840874089
 40
0.2524266717145475
 40
0.2770991289054108
 40
0.3266961059222436
 40
0.3765607929239749
 40
0.496569500870256
 40
0.6168978769054376
 40
0.7372510330860325
 40
0.857852508176404
 40
0.978751855812589
 40
1.0
 40
1.0
 40
1.0
 40
1.0
 10
390.1218046689334
 20
1387.77980426696
 30
0.0
 10
389.6888152192255
 20
1387.088958495772
 30
0.0
 10
388.7552061853626
 20
1385.599361339487
 30
0.0
 10
387.5990128969976
 20
1383.609228655235
 30
0.0
 10
386.58850447114
 20
1382.499786329757
 30
0.0
 10
385.9425538073297
 20
1382.337568123107
 30
0.0
 10
385.349966124739
 20
1382.729373925317
 30
0.0
 10
384.8300783879841
 20
1383.849743892727
 30
0.0
 10
384.1244935013926
 20
1386.069798752634
 30
0.0
 10
383.4106368190011
 20
1389.298048694726
 30
0.0
 10
382.5714121887264
 20
1393.33627399447
 30
0.0
 10
382.1602425023316
 20
1397.788715970515
 30
0.0
 10
382.4632508912324
 20
1402.400767865987
 30
0.0
 10
382.8704610850233
 20
1405.737322379747
 30
0.0
 10
383.2801294759249
 20
1407.426437247866
 30
0.0
 10
383.3413665257472
 20
1407.678925391037
 30
0.0
  0
SPLINE
  5
18A
330
1F
100
AcDbEntity
  8
0
  6
Continuous
 62
     7
370
    25
100
AcDbSpline
210
0.0
220
0.0
230
1.0
 70
     8
 71
     3
 72
    20
 73
    16
 74
     0
 42
0.000000001
 43
0.00000001
 40
0.0
 40
0.0
 40
0.0
 40
0.0
 40
0.0839547643375838
 40
0.1810227165451032
 40
0.2311947727140375
 40
0.2563507324355008
 40
0.2814067315852711
 40
0.3317747109216936
 40
0.3824145618881209
 40
0.504288847088308
 40
0.6264877697294801
 40
0.7487118577320501
 40
0.8711881248485337
 40
0.9939668950435153
 40
1.0
 40
1.0
 40
1.0
 40
1.0
 10
390.1218046689334
 20
1387.77980426696
 30
0.0
 10
390.4901366294355
 20
1387.116915693464
 30
0.0
 10
391.2843316058202
 20
1385.687599664912
 30
0.0
 10
392.253960635005
 20
1383.771634531796
 30
0.0
 10
393.1616864448189
 20
1382.729117206912
 30
0.0
 10
393.7942718572244
 20
1382.611505718847
 30
0.0
 10
394.4263270918934
 20
1383.046037766603
 30
0.0
 10
395.0551539944842
 20
1384.206486340827
 30
0.0
 10
395.9755056891642
 20
1386.483260638488
 30
0.0
 10
397.0007540765232
 20
1389.772257007569
 30
0.0
 10
398.228683017717
 20
1393.882303596924
 30
0.0
 10
399.0690752685405
 20
1398.379521791312
 30
0.0
 10
399.1995392280073
 20
1402.981399285357
 30
0.0
 10
399.1328449716268
 20
1406.118480385988
 30
0.0
 10
398.9163842035259
 20
1407.609109455088
 30
0.0
 10
398.9062459260466
 20
1407.678925391037
 30
0.0
  0
SPLINE
  5
18B
330
1F
100
AcDbEntity
  8
0
  6
Continuous
 62
     7
370
    25
100
AcDbSpline
210
0.0
220
0.0
230
1.0
 70
     8
 71
     3
 72
    21
 73
    17
 74
     0
 42
0.000000001
 43
0.00000001
 40
0.0
 40
0.0
 40
0.0
 40
0.0
 40
0.0751205471345045
 40
0.1759393736161782
 40
0.2631373130469974
 40
0.3458549419870974
 40
0.431616122840786
 40
0.5264165858686416
 40
0.6280994863080486
 40
0.675326994064748
 40
0.7176870861907518
 40
0.7563981804470501
 40
0.7946592434210815
 40
0.8502493618765715
 40
0.9179928118580959
 40
1.0
 40
1.0
 40
1.0
 40
1.0
 10
399.6758417032062
 20
1407.678925391037
 30
0.0
 10
399.7539805804493
 20
1406.720541937064
 30
0.0
 10
399.9369891665368
 20
1404.475917915966
 30
0.0
 10
399.9373741398542
 20
1400.997999786726
 30
0.0
 10
399.6414527003931
 20
1397.403898227489
 30
0.0
 10
399.0388877153066
 20
1394.107593053617
 30
0.0
 10
398.1842879173741
 20
1390.887984260263
 30
0.0
 10
397.1499068171033
 20
1387.564199500872
 30
0.0
 10
396.218690809345
 20
1384.718475909186
 30
0.0
 10
395.3184655121629
 20
1382.729985746788
 30
0.0
 10
394.5997321944924
 20
1381.615634798519
 30
0.0
 10
393.8016461173507
 20
1381.088351972333
 30
0.0
 10
392.9152009566159
 20
1381.240874470155
 30
0.0
 10
391.9968134109416
 20
1382.215840489543
 30
0.0
 10
391.0374831760242
 20
1383.929958812406
 30
0.0
 10
390.3917636591399
 20
1385.285842225657
 30
0.0
 10
390.0381515305266
 20
1386.02835783402
 30
0.0
  0
SPLINE
  5
18C
330
1F
100
AcDbEntity
  8
0
  6
Continuous
 62
     7
370
    25
100
AcDbSpline
210
0.0
220
0.0
230
1.0
 70
     8
 71
     3
 72
    21
 73
    17
 74
     0
 42
0.000000001
 43
0.00000001
 40
0.0
 40
0.0
 40
0.0
 40
0.0
 40
0.0892412659901536
 40
0.1885208277605817
 40
0.2743874611666454
 40
0.3558421878130231
 40
0.4402939985430604
 40
0.5336470830160607
 40
0.6337775263811128
 40
0.6802839819431798
 40
0.721997335783638
 40
0.7601174033100209
 40
0.7977943104660089
 40
0.8525356994666756
 40
0.9192448674035439
 40
0.9999999999999999
 40
0.9999999999999999
 40
0.9999999999999999
 40
0.9999999999999999
 10
382.5386174736831
 20
1407.678925391037
 30
0.0
 10
382.3321110367516
 20
1406.512794262608
 30
0.0
 10
381.8958693048996
 20
1404.049359850629
 30
0.0
 10
381.537084991063
 20
1400.356523273967
 30
0.0
 10
381.4915226068559
 20
1396.770552033431
 30
0.0
 10
381.7803480810396
 20
1393.505493542719
 30
0.0
 10
382.3298322427574
 20
1390.334830663248
 30
0.0
 10
383.0496036332652
 20
1387.072258806809
 30
0.0
 10
383.71164568252
 20
1384.28211888698
 30
0.0
 10
384.4246084037583
 20
1382.349911437969
 30
0.0
 10
385.039115595079
 20
1381.282075675729
 30
0.0
 10
385.7894133213199
 20
1380.808814226941
 30
0.0
 10
386.6934116955139
 20
1381.023803272019
 30
0.0
 10
387.7081538231976
 20
1382.066214003096
 30
0.0
 10
388.8347004318583
 20
1383.853106211391
 30
0.0
 10
389.6123120140861
 20
1385.258648038465
 30
0.0
 10
390.0381515305266
 20
1386.02835783402
 30
0.0
  0
SPLINE
  5
18D
330
1F
100
AcDbEntity
  8
0
  6
Continuous
 62
     7
370
    25
100
AcDbSpline
210
0.0
220
0.0
230
1.0
 70
     8
 71
     3
 72
    14
 73
    10
 74
     0
 42
0.000000001
 43
0.00000001
 40
0.0
 40
0.0
 40
0.0
 40
0.0
 40
0.0082742975898832
 40
0.1689160441515588
 40
0.3298512916305561
 40
0.4911537383031971
 40
0.6528944851042059
 40
0.8167254537424166
 40
1.0
 40
1.0
 40
1.0
 40
1.0
 10
399.1533444299898
 20
1402.798569839834
 30
0.0
 10
399.1424733364237
 20
1402.748813375958
 30
0.0
 10
398.920544876533
 20
1401.733057662857
 30
0.0
 10
398.2004547565072
 20
1399.852893889816
 30
0.0
 10
397.0962031768161
 20
1397.149230793611
 30
0.0
 10
395.661739938359
 20
1394.641371763527
 30
0.0
 10
394.0821540775886
 20
1392.254330702511
 30
0.0
 10
392.4491618438998
 20
1389.700794389206
 30
0.0
 10
390.9260304712641
 20
1388.44360861936
 30
0.0
 10
390.1218046689334
 20
1387.77980426696
 30
0.0
  0
SPLINE
  5
18E
330
1F
100
AcDbEntity
  8
0
  6
Continuous
 62
     7
370
    25
100
AcDbSpline
210
0.0
220
0.0
230
1.0
 70
     8
 71
     3
 72
    20
 73
    16
 74
     0
 42
0.000000001
 43
0.00000001
 40
0.0
 40
0.0
 40
0.0
 40
0.0
 40
0.0829984164563171
 40
0.1789606454665783
 40
0.2285611802930436
 40
0.253430582736125
 40
0.2782011632811288
 40
0.3279953894694785
 40
0.3780583903360958
 40
0.4985443777385223
 40
0.6193513045626915
 40
0.7401831100839065
 40
0.8612642220891894
 40
0.9826443912913719
 40
1.0
 40
1.0
 40
1.0
 40
1.0
 10
461.6049743605817
 20
1387.465637439036
 30
0.0
 10
460.7962905103826
 20
1386.797489544227
 30
0.0
 10
459.0526116549408
 20
1385.356833401286
 30
0.0
 10
456.9054769789985
 20
1383.426841505745
 30
0.0
 10
454.9757763260611
 20
1382.371991259404
 30
0.0
 10
453.6961281834054
 20
1382.246432191407
 30
0.0
 10
452.4766102938258
 20
1382.67361020405
 30
0.0
 10
451.3412213573811
 20
1383.827515059758
 30
0.0
 10
449.7413133075222
 20
1386.09533416938
 30
0.0
 10
448.0397770367164
 20
1389.375091510259
 30
0.0
 10
446.0192096947262
 20
1393.474559591853
 30
0.0
 10
444.8197206951835
 20
1397.965282904169
 30
0.0
 10
445.0406262500799
 20
1402.573738516337
 30
0.0
 10
445.5582976295181
 20
1405.850195570106
 30
0.0
 10
446.2142136091677
 20
1407.475591178347
 30
0.0
 10
446.2962675772209
 20
1407.678925391037
 30
0.0
  0
SPLINE
  5
18F
330
1F
100
AcDbEntity
  8
0
  6
Continuous
 62
     7
370
    25
100
AcDbSpline
210
0.0
220
0.0
230
1.0
 70
     8
 71
     3
 72
    20
 73
    16
 74
     0
 42
0.000000001
 43
0.00000001
 40
0.0
 40
0.0
 40
0.0
 40
0.0
 40
0.0821881393897307
 40
0.1772135313285149
 40
0.2263298379302559
 40
0.2509564513259709
 40
0.2754852075784414
 40
0.3247933146185071
 40
0.3743675724077185
 40
0.4936773080622585
 40
0.613304849948065
 40
0.7329570276511065
 40
0.8528560779685771
 40
0.9730512659189445
 40
0.9999999999999999
 40
0.9999999999999999
 40
0.9999999999999999
 40
0.9999999999999999
 10
461.6049743605817
 20
1387.465637439036
 30
0.0
 10
462.3983432175044
 20
1386.779411770185
 30
0.0
 10
464.1089999841048
 20
1385.299776448491
 30
0.0
 10
466.2119443812735
 20
1383.321826091878
 30
0.0
 10
468.1172996431364
 20
1382.223700581239
 30
0.0
 10
469.3937819608693
 20
1382.069297777182
 30
0.0
 10
470.6226486204282
 20
1382.468847985225
 30
0.0
 10
471.7838385597453
 20
1383.596837244211
 30
0.0
 10
473.4346335427989
 20
1385.827979255193
 30
0.0
 10
475.2097737274247
 20
1389.068465747269
 30
0.0
 10
477.3230575331918
 20
1393.121453718826
 30
0.0
 10
478.6218146833824
 20
1397.583367615523
 30
0.0
 10
478.5125566665436
 20
1402.197863845304
 30
0.0
 10
478.0318053096975
 20
1405.603713279901
 30
0.0
 10
477.3611222835455
 20
1407.357692200657
 30
0.0
 10
477.2382897650499
 20
1407.678925391037
 30
0.0
  0
SPLINE
  5
190
330
1F
100
AcDbEntity
  8
0
  6
Continuous
 62
     7
370
    25
100
AcDbSpline
210
0.0
220
0.0
230
1.0
 70
     8
 71
     3
 72
    22
 73
    18
 74
     0
 42
0.000000001
 43
0.00000001
 40
0.0
 40
0.0
 40
0.0
 40
0.0
 40
0.0009220386473299
 40
0.0957265556257155
 40
0.1942991719790113
 40
0.2795543701425657
 40
0.3604290776521686
 40
0.4442795277447699
 40
0.536967867792632
 40
0.6363853068214999
 40
0.6825606013164194
 40
0.7239769245919718
 40
0.7618255484641804
 40
0.7992341676023328
 40
0.853585756593933
 40
0.9198199049024445
 40
0.9999999999999999
 40
0.9999999999999999
 40
0.9999999999999999
 40
0.9999999999999999
 10
478.8555226850442
 20
1407.760512616654
 30
0.0
 10
478.8598043170911
 20
1407.748791220141
 30
0.0
 10
479.304325693157
 20
1406.531869436567
 30
0.0
 10
479.7487990829829
 20
1403.917947957744
 30
0.0
 10
480.160893896156
 20
1400.166588379576
 30
0.0
 10
479.8496150678178
 20
1396.571549245223
 30
0.0
 10
478.92640136454
 20
1393.300865197493
 30
0.0
 10
477.4853041317858
 20
1390.119642872893
 30
0.0
 10
475.6949633288326
 20
1386.844823212882
 30
0.0
 10
474.0703008466413
 20
1384.043499281146
 30
0.0
 10
472.4355428253596
 20
1382.100425663869
 30
0.0
 10
471.0904472140343
 20
1381.023855329705
 30
0.0
 10
469.5369744410553
 20
1380.540812866516
 30
0.0
 10
467.7492688759854
 20
1380.744851521775
 30
0.0
 10
465.8282625087751
 20
1381.775821866513
 30
0.0
 10
463.7629574152048
 20
1383.550682339831
 30
0.0
 10
462.3557706147814
 20
1384.948102062225
 30
0.0
 10
461.5851599907518
 20
1385.713363990479
 30
0.0
  0
SPLINE
  5
191
330
1F
100
AcDbEntity
  8
0
  6
Continuous
 62
     7
370
    25
100
AcDbSpline
210
0.0
220
0.0
230
1.0
 70
     8
 71
     3
 72
    21
 73
    17
 74
     0
 42
0.000000001
 43
0.00000001
 40
0.0
 40
0.0
 40
0.0
 40
0.0
 40
0.0834334222585268
 40
0.1833460827399252
 40
0.2697602815658546
 40
0.351734439216183
 40
0.4367247931424114
 40
0.5306731836017702
 40
0.6314421516892629
 40
0.678245175613872
 40
0.7202245325477726
 40
0.7585876890361011
 40
0.7965048591518393
 40
0.851595330100444
 40
0.9187298976611405
 40
1.0
 40
1.0
 40
1.0
 40
1.0
 10
444.6830599158923
 20
1407.617339280808
 30
0.0
 10
444.391256134017
 20
1406.541349519764
 30
0.0
 10
443.7500133456085
 20
1404.176847352462
 30
0.0
 10
443.357096854954
 20
1400.576815674445
 30
0.0
 10
443.5670884764969
 20
1396.982165972349
 30
0.0
 10
444.4209533015613
 20
1393.689903063028
 30
0.0
 10
445.7883962313427
 20
1390.477414100264
 30
0.0
 10
447.5046395887613
 20
1387.162895932489
 30
0.0
 10
449.0654331643293
 20
1384.325661148913
 30
0.0
 10
450.6558492425103
 20
1382.346190025134
 30
0.0
 10
451.9762551728717
 20
1381.239542533179
 30
0.0
 10
453.5184091779489
 20
1380.721568440662
 30
0.0
 10
455.3102723041404
 20
1380.885214816814
 30
0.0
 10
457.2541016093841
 20
1381.872573826312
 30
0.0
 10
459.359014125559
 20
1383.600377019762
 30
0.0
 10
460.7974413374482
 20
1384.965686456385
 30
0.0
 10
461.5851599907518
 20
1385.713363990479
 30
0.0
  0
SPLINE
  5
192
330
1F
100
AcDbEntity
  8
0
  6
Continuous
 62
     7
370
    25
100
AcDbSpline
210
0.0
220
0.0
230
1.0
 70
     8
 71
     3
 72
    15
 73
    11
 74
     0
 42
0.000000001
 43
0.00000001
 40
0.0
 40
0.0
 40
0.0
 40
0.0
 40
0.1002092101386007
 40
0.2254023807871646
 40
0.3508732787688007
 40
0.4765734186781589
 40
0.6025603633163696
 40
0.7288896468040357
 40
0.8568515196808627
 40
1.0
 40
1.0
 40
1.0
 40
1.0
 10
461.8376391391502
 20
1407.678925391037
 30
0.0
 10
461.828612381659
 20
1406.880529673031
 30
0.0
 10
461.8083083334933
 20
1405.084683808167
 30
0.0
 10
461.7774896351775
 20
1402.381086206303
 30
0.0
 10
461.7455616180201
 20
1399.590183930933
 30
0.0
 10
461.7145399093464
 20
1396.88807822231
 30
0.0
 10
461.6854279392771
 20
1394.367035524795
 30
0.0
 10
461.6576332707214
 20
1391.969129422254
 30
0.0
 10
461.6279215421023
 20
1389.40342484441
 30
0.0
 10
461.6129038334052
 20
1388.135246146971
 30
0.0
 10
461.6049743605817
 20
1387.465637439036
 30
0.0
  0
SPLINE
  5
193
330
1F
100
AcDbEntity
  8
0
  6
Continuous
 62
     7
370
    25
100
AcDbSpline
210
0.0
220
0.0
230
1.0
 70
     8
 71
     3
 72
    19
 73
    15
 74
     0
 42
0.000000001
 43
0.00000001
 40
0.0
 40
0.0
 40
0.0
 40
0.0
 40
0.1118045666384537
 40
0.2203534416796369
 40
0.33321669921292
 40
0.4308318355693266
 40
0.5234314162569547
 40
0.619438150106332
 40
0.7255640538322815
 40
0.839394612860774
 40
0.8922642063345968
 40
0.9396848930612245
 40
0.9830206504083934
 40
1.0
 40
1.0
 40
1.0
 40
1.0
 10
543.2703479542537
 20
1339.126210873298
 30
0.0
 10
543.2992517285295
 20
1337.912255575256
 30
0.0
 10
543.3562176140089
 20
1335.519694734394
 30
0.0
 10
543.4473525448875
 20
1331.678624908799
 30
0.0
 10
543.5362411410619
 20
1327.924268933711
 30
0.0
 10
543.6213201992352
 20
1324.318613120075
 30
0.0
 10
543.6990669337838
 20
1321.011625839078
 30
0.0
 10
543.7748662056215
 20
1317.777477004144
 30
0.0
 10
543.8530802918183
 20
1314.434638962742
 30
0.0
 10
543.9198313838348
 20
1311.579942003306
 30
0.0
 10
543.9667264163337
 20
1309.565225155698
 30
0.0
 10
543.991979483193
 20
1308.47170914497
 30
0.0
 10
544.0036988713282
 20
1307.95242350107
 30
0.0
 10
544.0015424723837
 20
1308.030451937393
 30
0.0
 10
544.0009354229495
 20
1308.052417779214
 30
0.0
  0
LINE
  5
194
330
1F
100
AcDbEntity
  8
0
  6
Continuous
 62
     7
370
    25
100
AcDbLine
 10
542.5807975748191
 20
1339.461150996224
 30
0.0
 11
542.7430035203191
 21
1339.138399047824
 31
0.0
  0
LINE
  5
195
330
1F
100
AcDbEntity
  8
0
  6
Continuous
 62
     7
370
    25
100
AcDbLine
 10
542.7430035203191
 20
1339.138399047824
 30
0.0
 11
543.2703479542191
 21
1339.126210873324
 31
0.0
  0
LINE
  5
196
330
1F
100
AcDbEntity
  8
0
  6
Continuous
 62
     7
370
    25
100
AcDbLine
 10
542.6655409565192
 20
1339.292531458524
 30
0.0
 11
543.2519018238191
 21
1339.334561259424
 31
0.0
  0
LINE
  5
197
330
1F
100
AcDbEntity
  8
0
  6
Continuous
 62
     7
370
    25
100
AcDbLine
 10
542.6452920610192
 20
1339.332822031324
 30
0.0
 11
543.2516821521191
 21
1339.375388972624
 31
0.0
  0
LINE
  5
198
330
1F
100
AcDbEntity
  8
0
  6
Continuous
 62
     7
370
    25
100
AcDbLine
 10
543.2519018238191
 20
1339.334561259424
 30
0.0
 11
543.2516821521191
 21
1339.375388972624
 31
0.0
  0
SPLINE
  5
199
330
1F
100
AcDbEntity
  8
0
  6
Continuous
 62
     7
370
    25
100
AcDbSpline
210
0.0
220
0.0
230
1.0
 70
     8
 71
     3
 72
    20
 73
    16
 74
     0
 42
0.000000001
 43
0.00000001
 40
0.0
 40
0.0
 40
0.0
 40
0.0
 40
0.0758156905251984
 40
0.1634732985541316
 40
0.2087813774168982
 40
0.2314985688968529
 40
0.2541254905769553
 40
0.2996104986508688
 40
0.3453410215032388
 40
0.4554000891763308
 40
0.565752322007445
 40
0.6761272805202841
 40
0.786729970404985
 40
0.8976058369219336
 40
1.0
 40
1.0
 40
1.0
 40
1.0
 10
532.8221151561472
 20
1315.672906186967
 30
0.0
 10
532.434359037249
 20
1315.016412683626
 30
0.0
 10
531.5982818169304
 20
1313.600885663729
 30
0.0
 10
530.5725925251714
 20
1311.701691583639
 30
0.0
 10
529.6340354376683
 20
1310.675155234903
 30
0.0
 10
528.9975153022361
 20
1310.568907850529
 30
0.0
 10
528.377439248161
 20
1311.015001487994
 30
0.0
 10
527.7815269748216
 20
1312.18721830704
 30
0.0
 10
526.9259575730764
 20
1314.481474015682
 30
0.0
 10
525.9950866220811
 20
1317.789877654199
 30
0.0
 10
524.8826266153469
 20
1321.924912052834
 30
0.0
 10
524.1783314957318
 20
1326.434111154885
 30
0.0
 10
524.1534827468661
 20
1331.05821752018
 30
0.0
 10
524.475959510794
 20
1335.469234106278
 30
0.0
 10
524.9960638269233
 20
1338.166265486536
 30
0.0
 10
525.2457737663108
 20
1339.461150996241
 30
0.0
  0
SPLINE
  5
19A
330
1F
100
AcDbEntity
  8
0
  6
Continuous
 62
     7
370
    25
100
AcDbSpline
210
0.0
220
0.0
230
1.0
 70
     8
 71
     3
 72
    20
 73
    16
 74
     0
 42
0.000000001
 43
0.00000001
 40
0.0
 40
0.0
 40
0.0
 40
0.0
 40
0.0743427697281424
 40
0.1602973963164389
 40
0.2047252456229573
 40
0.2270010954287311
 40
0.2491884291649059
 40
0.2937897703636337
 40
0.3386318565652764
 40
0.4465527350515361
 40
0.5547610831854177
 40
0.6629917154943834
 40
0.771445654889539
 40
0.8801674637365842
 40
1.0
 40
1.0
 40
1.0
 40
1.0
 10
532.8221151561472
 20
1315.672906186967
 30
0.0
 10
533.2355649986362
 20
1314.973993829773
 30
0.0
 10
534.1270428585649
 20
1313.467003553231
 30
0.0
 10
535.2268694347721
 20
1311.455276671513
 30
0.0
 10
536.2062704819228
 20
1310.32719642161
 30
0.0
 10
536.8481017345375
 20
1310.153268296114
 30
0.0
 10
537.4524940661454
 20
1310.534534038236
 30
0.0
 10
538.005116080971
 20
1311.645942657621
 30
0.0
 10
538.7753397460731
 20
1313.854125700715
 30
0.0
 10
539.5824810033097
 20
1317.070485265394
 30
0.0
 10
540.5404272846563
 20
1321.096019137033
 30
0.0
 10
541.0743411673171
 20
1325.539237778039
 30
0.0
 10
540.9262471672613
 20
1330.171459082474
 30
0.0
 10
540.3960488521074
 20
1334.89235025985
 30
0.0
 10
539.7101472352692
 20
1337.903492842622
 30
0.0
 10
539.3505245366363
 20
1339.482254570254
 30
0.0
  0
LINE
  5
19B
330
1F
100
AcDbEntity
  8
0
  6
Continuous
 62
     7
370
    25
100
AcDbLine
 10
540.1815394861192
 20
1339.438257516224
 30
0.0
 11
539.7491281678191
 21
1339.461150996224
 31
0.0
  0
SPLINE
  5
19C
330
1F
100
AcDbEntity
  8
0
  6
Continuous
 62
     7
370
    25
100
AcDbSpline
210
0.0
220
0.0
230
1.0
 70
     8
 71
     3
 72
    22
 73
    18
 74
     0
 42
0.000000001
 43
0.00000001
 40
0.0
 40
0.0
 40
0.0
 40
0.0
 40
0.0890358954784972
 40
0.175479111378167
 40
0.2653580984644655
 40
0.3430941994046903
 40
0.4168361478359956
 40
0.4932913927088937
 40
0.5778050682752768
 40
0.6684543687524254
 40
0.7105572250136409
 40
0.7483208283606756
 40
0.7828313861818456
 40
0.8169407455640039
 40
0.8664987865881676
 40
0.9268914025166757
 40
1.0
 40
1.0
 40
1.0
 40
1.0
 10
540.1815394861014
 20
1339.438257516237
 30
0.0
 10
540.4561883928136
 20
1338.199476020326
 30
0.0
 10
540.9974885710374
 20
1335.757985709862
 30
0.0
 10
541.5023712841315
 20
1331.875114342798
 30
0.0
 10
541.7804436743437
 20
1328.101656213786
 30
0.0
 10
541.7181010747215
 20
1324.510860951921
 30
0.0
 10
541.3360314659795
 20
1321.250440145979
 30
0.0
 10
540.6943732076252
 20
1318.088322275254
 30
0.0
 10
539.8800375388173
 20
1314.837567824926
 30
0.0
 10
539.1369782598483
 20
1312.058310960729
 30
0.0
 10
538.3677112412458
 20
1310.138241565666
 30
0.0
 10
537.72189525869
 20
1309.081088943762
 30
0.0
 10
536.9573101569331
 20
1308.62118189714
 30
0.0
 10
536.0587296743663
 20
1308.852554113724
 30
0.0
 10
535.0731593313025
 20
1309.913654175692
 30
0.0
 10
533.997146785986
 20
1311.721529995605
 30
0.0
 10
533.2593780102363
 20
1313.141620269225
 30
0.0
 10
532.8553574093473
 20
1313.919297157329
 30
0.0
  0
SPLINE
  5
19D
330
1F
100
AcDbEntity
  8
0
  6
Continuous
 62
     7
370
    25
100
AcDbSpline
210
0.0
220
0.0
230
1.0
 70
     8
 71
     3
 72
    22
 73
    18
 74
     0
 42
0.000000001
 43
0.00000001
 40
0.0
 40
0.0
 40
0.0
 40
0.0
 40
0.0709163854835537
 40
0.1590789981263053
 40
0.2507457210815703
 40
0.3300280301003793
 40
0.4052367410146798
 40
0.4832127171290986
 40
0.5694074099621912
 40
0.6618597682084603
 40
0.7048000703372853
 40
0.7433148097442741
 40
0.7785117990003042
 40
0.8132996097892494
 40
0.8638433838574122
 40
0.9254372376859138
 40
1.0
 40
1.0
 40
1.0
 40
1.0
 10
524.4080264594977
 20
1339.461150996241
 30
0.0
 10
524.2314412037214
 20
1338.513373869925
 30
0.0
 10
523.8353267460928
 20
1336.387328744058
 30
0.0
 10
523.511484762607
 20
1332.826356396671
 30
0.0
 10
523.3736483439676
 20
1329.076474394811
 30
0.0
 10
523.5729526839241
 20
1325.471463903593
 30
0.0
 10
524.0793895955065
 20
1322.16409047064
 30
0.0
 10
524.8423809181318
 20
1318.927580579595
 30
0.0
 10
525.7817107159749
 20
1315.58398799282
 30
0.0
 10
526.6317417808192
 20
1312.720384958838
 30
0.0
 10
527.475422731858
 20
1310.714920281291
 30
0.0
 10
528.1626564468294
 20
1309.587190958111
 30
0.0
 10
528.9462317463204
 20
1309.04531849222
 30
0.0
 10
529.8378369069312
 20
1309.181911551427
 30
0.0
 10
530.7851176677244
 20
1310.140679214214
 30
0.0
 10
531.7946814338752
 20
1311.838136787139
 30
0.0
 10
532.4800386739247
 20
1313.182881422068
 30
0.0
 10
532.8553574093473
 20
1313.919297157329
 30
0.0
  0
SPLINE
  5
19E
330
1F
100
AcDbEntity
  8
0
  6
Continuous
 62
     7
370
    25
100
AcDbSpline
210
0.0
220
0.0
230
1.0
 70
     8
 71
     3
 72
    14
 73
    10
 74
     0
 42
0.000000001
 43
0.00000001
 40
0.0
 40
0.0
 40
0.0
 40
0.0
 40
0.0126674957756643
 40
0.1725976231589311
 40
0.3328199512938663
 40
0.4934078519843253
 40
0.6544321111984095
 40
0.8175373328760941
 40
1.0
 40
1.0
 40
1.0
 40
1.0
 10
524.2144055109522
 20
1331.059452076236
 30
0.0
 10
524.2288196114678
 20
1330.982393225954
 30
0.0
 10
524.4252151369149
 20
1329.932448182557
 30
0.0
 10
525.0961843660481
 20
1328.002818268987
 30
0.0
 10
526.1231395287406
 20
1325.264762737573
 30
0.0
 10
527.4839601618311
 20
1322.71123602431
 30
0.0
 10
528.9937108728586
 20
1320.273952064341
 30
0.0
 10
530.5519145933501
 20
1317.668459420293
 30
0.0
 10
532.0376400060907
 20
1316.362476063661
 30
0.0
 10
532.8221151561472
 20
1315.672906186967
 30
0.0
  0
SPLINE
  5
19F
330
1F
100
AcDbEntity
  8
0
  6
Continuous
 62
     7
370
    25
100
AcDbSpline
210
0.0
220
0.0
230
1.0
 70
     8
 71
     3
 72
    20
 73
    16
 74
     0
 42
0.000000001
 43
0.00000001
 40
0.0
 40
0.0
 40
0.0
 40
0.0
 40
0.0778116795553057
 40
0.1677770371123323
 40
0.2142779354001922
 40
0.2375931991878039
 40
0.2608158166552252
 40
0.3074983021447111
 40
0.354432766045723
 40
0.4673893433268897
 40
0.5806468038839965
 40
0.6939275884186575
 40
0.8074420997769999
 40
0.9212369796504046
 40
0.9999999999999999
 40
0.9999999999999999
 40
0.9999999999999999
 40
0.9999999999999999
 10
502.7205631213296
 20
1316.736653110721
 30
0.0
 10
502.0309823244161
 20
1316.076720319057
 30
0.0
 10
500.5441126974276
 20
1314.653777528059
 30
0.0
 10
498.7156987392985
 20
1312.745530600356
 30
0.0
 10
497.0615916297736
 20
1311.710514836544
 30
0.0
 10
495.9555363005555
 20
1311.598354627007
 30
0.0
 10
494.8927227365634
 20
1312.038536944286
 30
0.0
 10
493.8911657357474
 20
1313.204869312091
 30
0.0
 10
492.4695292195318
 20
1315.490502136547
 30
0.0
 10
490.9443086557234
 20
1318.789353762244
 30
0.0
 10
489.1270570829079
 20
1322.912665686253
 30
0.0
 10
488.0247896355207
 20
1327.414793857495
 30
0.0
 10
488.1122999744609
 20
1332.034615044089
 30
0.0
 10
488.7112550512745
 20
1336.107264625477
 30
0.0
 10
489.5572512222595
 20
1338.487535618874
 30
0.0
 10
489.9032937037874
 20
1339.461150996241
 30
0.0
  0
SPLINE
  5
1A0
330
1F
100
AcDbEntity
  8
0
  6
Continuous
 62
     7
370
    25
100
AcDbSpline
210
0.0
220
0.0
230
1.0
 70
     8
 71
     3
 72
    20
 73
    16
 74
     0
 42
0.000000001
 43
0.00000001
 40
0.0
 40
0.0
 40
0.0
 40
0.0
 40
0.0765293512695245
 40
0.1650120892072086
 40
0.2107466575877164
 40
0.233677688283065
 40
0.2565175994598892
 40
0.3024307625041405
 40
0.3485917513821852
 40
0.4596868161637739
 40
0.5710778056966564
 40
0.682491734830378
 40
0.794135538994347
 40
0.9060550912297543
 40
0.9999999999999999
 40
0.9999999999999999
 40
0.9999999999999999
 40
0.9999999999999999
 10
502.7205631213296
 20
1316.736653110721
 30
0.0
 10
503.4185043705584
 20
1316.041792574513
 30
0.0
 10
504.9234007504258
 20
1314.543538808014
 30
0.0
 10
506.7759381431633
 20
1312.542632208756
 30
0.0
 10
508.443335445656
 20
1311.424005056597
 30
0.0
 10
509.5511189152294
 20
1311.256116420979
 30
0.0
 10
510.6088293261666
 20
1311.642919387177
 30
0.0
 10
511.5962989577098
 20
1312.759181962684
 30
0.0
 10
512.9901722693736
 20
1314.973943863352
 30
0.0
 10
514.475064379476
 20
1318.196992981155
 30
0.0
 10
516.2423263527191
 20
1322.230198022637
 30
0.0
 10
517.288087217749
 20
1326.677790000524
 30
0.0
 10
517.1482923760332
 20
1331.305070304169
 30
0.0
 10
516.446433000991
 20
1335.62809580659
 30
0.0
 10
515.4871175560056
 20
1338.260067719983
 30
0.0
 10
515.0493401877276
 20
1339.461150996241
 30
0.0
  0
SPLINE
  5
1A1
330
1F
100
AcDbEntity
  8
0
  6
Continuous
 62
     7
370
    25
100
AcDbSpline
210
0.0
220
0.0
230
1.0
 70
     8
 71
     3
 72
    22
 73
    18
 74
     0
 42
0.000000001
 43
0.00000001
 40
0.0
 40
0.0
 40
0.0
 40
0.0
 40
0.0644740066465802
 40
0.1532479495734306
 40
0.2455503007398093
 40
0.3253823629369528
 40
0.4011125802041308
 40
0.4796292512252864
 40
0.5664216285470245
 40
0.6595150626952567
 40
0.7027531181041261
 40
0.7415349234008302
 40
0.7769759728632445
 40
0.8120050065652962
 40
0.8628992573131147
 40
0.9249202104190618
 40
1.0
 40
1.0
 40
1.0
 40
1.0
 10
516.4744962224167
 20
1339.461150996241
 30
0.0
 10
516.7833149795654
 20
1338.588461104768
 30
0.0
 10
517.5173447658987
 20
1336.514168790118
 30
0.0
 10
518.1929000295643
 20
1333.013772956257
 30
0.0
 10
518.579966270463
 20
1329.246000624992
 30
0.0
 10
518.3747308479516
 20
1325.655132447101
 30
0.0
 10
517.6258439181141
 20
1322.392157776083
 30
0.0
 10
516.429238646113
 20
1319.224886885618
 30
0.0
 10
514.9311024562651
 20
1315.967434128522
 30
0.0
 10
513.5690503992686
 20
1313.182002192044
 30
0.0
 10
512.1845126069346
 20
1311.255279764354
 30
0.0
 10
511.036968552364
 20
1310.192388914344
 30
0.0
 10
509.6995123031077
 20
1309.725470753054
 30
0.0
 10
508.1482628904853
 20
1309.948390888973
 30
0.0
 10
506.4683853826579
 20
1310.999998666
 30
0.0
 10
504.6516823824428
 20
1312.797332569475
 30
0.0
 10
503.4108762155345
 20
1314.210145136223
 30
0.0
 10
502.731379780311
 20
1314.983836570346
 30
0.0
  0
SPLINE
  5
1A2
330
1F
100
AcDbEntity
  8
0
  6
Continuous
 62
     7
370
    25
100
AcDbSpline
210
0.0
220
0.0
230
1.0
 70
     8
 71
     3
 72
    22
 73
    18
 74
     0
 42
0.000000001
 43
0.00000001
 40
0.0
 40
0.0
 40
0.0
 40
0.0
 40
0.0479217878186978
 40
0.1382664040778372
 40
0.2322018565432136
 40
0.3134463837836612
 40
0.3905164923389745
 40
0.4704223552475004
 40
0.5587503461514828
 40
0.6534908781937617
 40
0.697493942549402
 40
0.7369619125623253
 40
0.7730300189000819
 40
0.8086788197013729
 40
0.8604735401117194
 40
0.9235918271185521
 40
1.0
 40
1.0
 40
1.0
 40
1.0
 10
488.4556456148389
 20
1339.461150996241
 30
0.0
 10
488.240160639222
 20
1338.834030909904
 30
0.0
 10
487.6184323175645
 20
1337.024631820064
 30
0.0
 10
487.0466425238112
 20
1333.796248234089
 30
0.0
 10
486.700854093207
 20
1330.04884812833
 30
0.0
 10
486.9516697620548
 20
1326.446051504711
 30
0.0
 10
487.7407775841074
 20
1323.144470384539
 30
0.0
 10
488.9769320765207
 20
1319.915929834827
 30
0.0
 10
490.5157189770343
 20
1316.582038649983
 30
0.0
 10
491.9125840026638
 20
1313.727154735781
 30
0.0
 10
493.3213345780014
 20
1311.730117861127
 30
0.0
 10
494.4823556169227
 20
1310.609114029277
 30
0.0
 10
495.8259910379271
 20
1310.074705430948
 30
0.0
 10
497.3749707660899
 20
1310.219584271965
 30
0.0
 10
499.0423892672586
 20
1311.186931406365
 30
0.0
 10
500.837470575859
 20
1312.893346767704
 30
0.0
 10
502.0612226125636
 20
1314.24411962824
 30
0.0
 10
502.731379780311
 20
1314.983836570346
 30
0.0
  0
SPLINE
  5
1A3
330
1F
100
AcDbEntity
  8
0
  6
Continuous
 62
     7
370
    25
100
AcDbSpline
210
0.0
220
0.0
230
1.0
 70
     8
 71
     3
 72
    16
 73
    12
 74
     0
 42
0.000000001
 43
0.00000001
 40
0.0
 40
0.0
 40
0.0
 40
0.0
 40
0.0507825821731677
 40
0.1831092281455135
 40
0.2967680330081098
 40
0.4106789774769673
 40
0.524798043230675
 40
0.6391774896628281
 40
0.7538677343940023
 40
0.870040153894319
 40
1.0
 40
1.0
 40
1.0
 40
1.0
 10
497.5535812443093
 20
1339.461150996241
 30
0.0
 10
497.5217685874387
 20
1339.018081557771
 30
0.0
 10
497.4070601422291
 20
1337.420484519156
 30
0.0
 10
497.4937963072646
 20
1334.804921351918
 30
0.0
 10
497.8203855600824
 20
1331.741557785148
 30
0.0
 10
498.3073287865101
 20
1328.942069345637
 30
0.0
 10
498.9026703435003
 20
1326.228693274886
 30
0.0
 10
499.6718207469736
 20
1323.69354160266
 30
0.0
 10
500.532817991709
 20
1321.279865193884
 30
0.0
 10
501.4195453794939
 20
1318.697915298498
 30
0.0
 10
502.2709922309959
 20
1317.414373605672
 30
0.0
 10
502.7205631213296
 20
1316.736653110721
 30
0.0
  0
SPLINE
  5
1A4
330
1F
100
AcDbEntity
  8
0
  6
Continuous
 62
     7
370
    25
100
AcDbSpline
210
0.0
220
0.0
230
1.0
 70
     8
 71
     3
 72
    19
 73
    15
 74
     0
 42
0.000000001
 43
0.00000001
 40
0.0
 40
0.0
 40
0.0
 40
0.0
 40
0.0571076224467441
 40
0.1722454220187531
 40
0.2919594874104062
 40
0.3954998695724198
 40
0.4937202514747761
 40
0.5955546009814126
 40
0.708122354704856
 40
0.8288624368623163
 40
0.8849412184666422
 40
0.9352403442920187
 40
0.9812065852303945
 40
1.0
 40
1.0
 40
1.0
 40
1.0
 10
380.2656281601237
 20
1339.461150996241
 30
0.0
 10
380.2346770019263
 20
1338.876762693463
 30
0.0
 10
380.1413235216506
 20
1337.11415718614
 30
0.0
 10
379.973729028025
 20
1333.934454011548
 30
0.0
 10
379.7769682381241
 20
1330.192323982658
 30
0.0
 10
379.5883689663417
 20
1326.588440494984
 30
0.0
 10
379.4161037297492
 20
1323.280395658267
 30
0.0
 10
379.2481479444588
 20
1320.041525683047
 30
0.0
 10
379.0748573940665
 20
1316.692114865817
 30
0.0
 10
378.9269520772027
 20
1313.830941575549
 30
0.0
 10
378.823082062481
 20
1311.809142986804
 30
0.0
 10
378.7670967332616
 20
1310.707782536574
 30
0.0
 10
378.7411146678099
 20
1310.180424286134
 30
0.0
 10
378.7460231203223
 20
1310.25587571405
 30
0.0
 10
378.747447565572
 20
1310.277771907973
 30
0.0
  0
SPLINE
  5
1A5
330
1F
100
AcDbEntity
  8
0
  6
Continuous
 62
     7
370
    25
100
AcDbSpline
210
0.0
220
0.0
230
1.0
 70
     8
 71
     3
 72
     9
 73
     5
 74
     0
 42
0.000000001
 43
0.00000001
 40
0.0
 40
0.0
 40
0.0
 40
0.0
 40
0.6320532794283353
 40
1.0
 40
1.0
 40
1.0
 40
1.0
 10
378.7424382420065
 20
1309.805061917674
 30
0.0
 10
378.7420899672514
 20
1309.808154492883
 30
0.0
 10
378.7415389460537
 20
1309.813047395603
 30
0.0
 10
378.7569137023735
 20
1310.119638129544
 30
0.0
 10
378.7625707935408
 20
1310.232447184656
 30
0.0
  0
SPLINE
  5
1A6
330
1F
100
AcDbEntity
  8
0
  6
Continuous
 62
     7
370
    25
100
AcDbSpline
210
0.0
220
0.0
230
1.0
 70
     8
 71
     3
 72
    14
 73
    10
 74
     0
 42
0.000000001
 43
0.00000001
 40
0.0
 40
0.0
 40
0.0
 40
0.0
 40
0.2868791960598263
 40
0.4357844714942147
 40
0.5693431004598423
 40
0.691396675302199
 40
0.8120313306372033
 40
0.9873033763841136
 40
1.0
 40
1.0
 40
1.0
 40
1.0
 10
383.1179347507107
 20
1385.040358133121
 30
0.0
 10
383.3619674936868
 20
1383.965353513165
 30
0.0
 10
383.7326659667228
 20
1382.332365389257
 30
0.0
 10
384.4084156381771
 20
1380.429224802278
 30
0.0
 10
385.0212811947125
 20
1379.291192127508
 30
0.0
 10
385.7725039342204
 20
1378.732159956552
 30
0.0
 10
386.6693876565429
 20
1378.871707264974
 30
0.0
 10
387.3057538457919
 20
1379.378128252899
 30
0.0
 10
387.6373068268309
 20
1379.850281016293
 30
0.0
 10
387.6597020665442
 20
1379.882173277628
 30
0.0
  0
SPLINE
  5
1A7
330
1F
100
AcDbEntity
  8
0
  6
Continuous
 62
     7
370
    25
100
AcDbSpline
210
0.0
220
0.0
230
1.0
 70
     8
 71
     3
 72
    13
 73
     9
 74
     0
 42
0.000000001
 43
0.00000001
 40
0.0
 40
0.0
 40
0.0
 40
0.0
 40
0.0750179799337177
 40
0.2123059311251383
 40
0.3479978573551986
 40
0.5451468560046115
 40
0.7853973483574609
 40
1.0
 40
1.0
 40
1.0
 40
1.0
 10
394.8874241818461
 20
1379.177663829031
 30
0.0
 10
394.7713553094834
 20
1379.00301665263
 30
0.0
 10
394.442872590496
 20
1378.508753391517
 30
0.0
 10
393.7727070465697
 20
1378.187749480812
 30
0.0
 10
392.8919585407034
 20
1378.418147624655
 30
0.0
 10
391.9730025708089
 20
1379.502583072983
 30
0.0
 10
391.1132914803653
 20
1381.1301045081
 30
0.0
 10
390.559662838348
 20
1382.354669386616
 30
0.0
 10
390.298457268659
 20
1382.932427006866
 30
0.0
  0
SPLINE
  5
1A8
330
1F
100
AcDbEntity
  8
0
  6
Continuous
 62
     7
370
    25
100
AcDbSpline
210
0.0
220
0.0
230
1.0
 70
     8
 71
     3
 72
    20
 73
    16
 74
     0
 42
0.000000001
 43
0.00000001
 40
0.0
 40
0.0
 40
0.0
 40
0.0
 40
0.0075595144372246
 40
0.1125745613619468
 40
0.212193838393077
 40
0.3154785546431293
 40
0.4296495446729647
 40
0.552109256804071
 40
0.6089867355105816
 40
0.6600022422002108
 40
0.7066231532719834
 40
0.7527020784145726
 40
0.8196508955114787
 40
0.9012363277488231
 40
1.0
 40
1.0
 40
1.0
 40
1.0
 10
518.2294222802922
 20
1325.417675575233
 30
0.0
 10
518.2366679107969
 20
1325.334893398989
 30
0.0
 10
518.3445681843697
 20
1324.102120149248
 30
0.0
 10
518.0876654274153
 20
1321.75005395309
 30
0.0
 10
517.3592473984991
 20
1318.465775247772
 30
0.0
 10
516.1315742082976
 20
1315.2622807551
 30
0.0
 10
514.6165787424277
 20
1311.961930326391
 30
0.0
 10
513.2362246795085
 20
1309.137492453379
 30
0.0
 10
511.8397079216919
 20
1307.172688780586
 30
0.0
 10
510.6854190831198
 20
1306.079108156543
 30
0.0
 10
509.3448924382621
 20
1305.577696850109
 30
0.0
 10
507.7947936539107
 20
1305.761871088177
 30
0.0
 10
506.121164541819
 20
1306.772857251717
 30
0.0
 10
504.3152920558633
 20
1308.527350062148
 30
0.0
 10
503.0830265291602
 20
1309.911207878503
 30
0.0
 10
502.4082071617402
 20
1310.669042968421
 30
0.0
  0
SPLINE
  5
1A9
330
1F
100
AcDbEntity
  8
0
  6
Continuous
 62
     7
370
    25
100
AcDbSpline
210
0.0
220
0.0
230
1.0
 70
     8
 71
     3
 72
     9
 73
     5
 74
     0
 42
0.000000001
 43
0.00000001
 40
0.0
 40
0.0
 40
0.0
 40
0.0
 40
0.0988233841390655
 40
1.0
 40
1.0
 40
1.0
 40
1.0
 10
500.9131665856577
 20
1313.030606196396
 30
0.0
 10
500.9529260404601
 20
1312.932891995026
 30
0.0
 10
501.3552544483446
 20
1311.944115884784
 30
0.0
 10
501.909097107996
 20
1311.273440206509
 30
0.0
 10
502.4082071617402
 20
1310.669042968421
 30
0.0
  0
SPLINE
  5
1AA
330
1F
100
AcDbEntity
  8
0
  6
Continuous
 62
     7
370
    25
100
AcDbSpline
210
0.0
220
0.0
230
1.0
 70
     8
 71
     3
 72
    18
 73
    14
 74
     0
 42
0.000000001
 43
0.00000001
 40
0.0
 40
0.0
 40
0.0
 40
0.0
 40
0.1037379580245234
 40
0.2212416984145349
 40
0.3511304066341883
 40
0.4904489306610333
 40
0.5551566312252049
 40
0.6131953524569298
 40
0.666234481867535
 40
0.7186570111050494
 40
0.7948225533961197
 40
0.8876397077369962
 40
1.0
 40
1.0
 40
1.0
 40
1.0
 10
486.8588764949876
 20
1321.443518767907
 30
0.0
 10
487.0541435568335
 20
1320.463542490108
 30
0.0
 10
487.4705891590979
 20
1318.373549393706
 30
0.0
 10
488.6908960908556
 20
1315.264487519011
 30
0.0
 10
490.197964963511
 20
1311.961248683743
 30
0.0
 10
491.5804117536647
 20
1309.137573388915
 30
0.0
 10
492.9766709690077
 20
1307.172675869078
 30
0.0
 10
494.1310034228461
 20
1306.079111138189
 30
0.0
 10
495.4715198308033
 20
1305.577696101499
 30
0.0
 10
497.0216214947117
 20
1305.761871388839
 30
0.0
 10
498.6952494684429
 20
1306.772857137587
 30
0.0
 10
500.5011223731609
 20
1308.527350100603
 30
0.0
 10
501.733387831667
 20
1309.91120789211
 30
0.0
 10
502.4082071617402
 20
1310.669042968421
 30
0.0
  0
SPLINE
  5
1AB
330
1F
100
AcDbEntity
  8
0
  6
Continuous
 62
     7
370
    25
100
AcDbSpline
210
0.0
220
0.0
230
1.0
 70
     8
 71
     3
 72
     9
 73
     5
 74
     0
 42
0.000000001
 43
0.00000001
 40
0.0
 40
0.0
 40
0.0
 40
0.0
 40
0.1156056518362679
 40
0.9999999999999999
 40
0.9999999999999999
 40
0.9999999999999999
 40
0.9999999999999999
 10
421.7261739923892
 20
1314.467897605766
 30
0.0
 10
421.6748801236806
 20
1314.352931365329
 30
0.0
 10
421.2311832291612
 20
1313.358462335394
 30
0.0
 10
420.6446425294259
 20
1312.693317445822
 30
0.0
 10
420.1259092496121
 20
1312.105067064775
 30
0.0
  0
SPLINE
  5
1AC
330
1F
100
AcDbEntity
  8
0
  6
Continuous
 62
     7
370
    25
100
AcDbSpline
210
0.0
220
0.0
230
1.0
 70
     8
 71
     3
 72
    20
 73
    16
 74
     0
 42
0.000000001
 43
0.00000001
 40
0.0
 40
0.0
 40
0.0
 40
0.0
 40
0.0636761747181481
 40
0.1627532396700799
 40
0.2567396337140606
 40
0.3541842079925251
 40
0.461899501429429
 40
0.5774348385841426
 40
0.6310962310903354
 40
0.6792271115484401
 40
0.7232118848702284
 40
0.7666853183728122
 40
0.8298485744411502
 40
0.9068208313281642
 40
1.0
 40
1.0
 40
1.0
 40
1.0
 10
405.0564309589084
 20
1329.359428233156
 30
0.0
 10
404.9511164060316
 20
1328.62448187289
 30
0.0
 10
404.6819374746497
 20
1326.745994327957
 30
0.0
 10
404.8176184028305
 20
1323.728496847749
 30
0.0
 10
405.4569938337505
 20
1320.418301733788
 30
0.0
 10
406.5653247449485
 20
1317.174608302298
 30
0.0
 10
407.9668877101648
 20
1313.823183032247
 30
0.0
 10
409.2476861767534
 20
1310.952347550578
 30
0.0
 10
410.5752885772819
 20
1308.939995794119
 30
0.0
 10
411.6910541729075
 20
1307.806798214658
 30
0.0
 10
413.0136790050597
 20
1307.25890828224
 30
0.0
 10
414.5697314633009
 20
1307.388872770138
 30
0.0
 10
416.2781286602965
 20
1308.340834411684
 30
0.0
 10
418.1446725770884
 20
1310.031234728367
 30
0.0
 10
419.4248513773689
 20
1311.371244344191
 30
0.0
 10
420.1259092496121
 20
1312.105067064775
 30
0.0
  0
SPLINE
  5
1AD
330
1F
100
AcDbEntity
  8
0
  6
Continuous
 62
     7
370
    25
100
AcDbSpline
210
0.0
220
0.0
230
1.0
 70
     8
 71
     3
 72
    18
 73
    14
 74
     0
 42
0.000000001
 43
0.00000001
 40
0.0
 40
0.0
 40
0.0
 40
0.0
 40
0.1043829105011976
 40
0.2218020948966304
 40
0.3515973348667629
 40
0.4908156049244771
 40
0.5554767416605055
 40
0.6134736980786636
 40
0.6664746603949719
 40
0.718859466245261
 40
0.7949701996157799
 40
0.8877205624929507
 40
1.0
 40
1.0
 40
1.0
 40
1.0
 10
436.0517784439654
 20
1322.350352755854
 30
0.0
 10
435.8208711677785
 20
1321.371000369919
 30
0.0
 10
435.3302188441443
 20
1319.289985289966
 30
0.0
 10
433.9994986861536
 20
1316.218943701511
 30
0.0
 10
432.3774912670169
 20
1312.970367537856
 30
0.0
 10
430.8969710277941
 20
1310.196643977039
 30
0.0
 10
429.4325692568931
 20
1308.281673589089
 30
0.0
 10
428.2404300866701
 20
1307.229060143895
 30
0.0
 10
426.8828253417353
 20
1306.774733881761
 30
0.0
 10
425.339622512397
 20
1307.012894756581
 30
0.0
 10
423.7017818043804
 20
1308.081673609554
 30
0.0
 10
421.9576805475414
 20
1309.898122160983
 30
0.0
 10
420.7740790045801
 20
1311.324142645261
 30
0.0
 10
420.1259092496121
 20
1312.105067064775
 30
0.0
  0
SPLINE
  5
1AE
330
1F
100
AcDbEntity
  8
0
  6
Continuous
 62
     7
370
    25
100
AcDbSpline
210
0.0
220
0.0
230
1.0
 70
     8
 71
     3
 72
    14
 73
    10
 74
     0
 42
0.000000001
 43
0.00000001
 40
0.0
 40
0.0
 40
0.0
 40
0.0
 40
0.2804814250643377
 40
0.4316135866978338
 40
0.5671695919598818
 40
0.6910484844114501
 40
0.8134872373400476
 40
0.9913804857182111
 40
1.0
 40
1.0
 40
1.0
 40
1.0
 10
539.7634433667613
 20
1313.05149036483
 30
0.0
 10
539.4988407525924
 20
1312.02639160265
 30
0.0
 10
539.0916619765832
 20
1310.44893757566
 30
0.0
 10
538.3752633017829
 20
1308.609589597794
 30
0.0
 10
537.7309413749948
 20
1307.496566408802
 30
0.0
 10
536.964847280104
 20
1306.967438764129
 30
0.0
 10
536.073789243076
 20
1307.142989893861
 30
0.0
 10
535.4603915504807
 20
1307.663934150979
 30
0.0
 10
535.1496179065468
 20
1308.136780796663
 30
0.0
 10
535.1352557909248
 20
1308.158632965691
 30
0.0
  0
SPLINE
  5
1AF
330
1F
100
AcDbEntity
  8
0
  6
Continuous
 62
     7
370
    25
100
AcDbSpline
210
0.0
220
0.0
230
1.0
 70
     8
 71
     3
 72
    13
 73
     9
 74
     0
 42
0.000000001
 43
0.00000001
 40
0.0
 40
0.0
 40
0.0
 40
0.0
 40
0.0723168461079689
 40
0.2103532937081062
 40
0.3467850147897465
 40
0.5450088733679201
 40
0.7865692157781757
 40
1.0
 40
1.0
 40
1.0
 40
1.0
 10
527.8922623378575
 20
1307.750992927821
 30
0.0
 10
527.9986474767964
 20
1307.57961177942
 30
0.0
 10
528.3080977028745
 20
1307.081102912044
 30
0.0
 10
528.9627031103356
 20
1306.739191258167
 30
0.0
 10
529.8483605622998
 20
1306.933971866032
 30
0.0
 10
530.796939341676
 20
1307.981613169299
 30
0.0
 10
531.6986930757981
 20
1309.567927135312
 30
0.0
 10
532.2835371524193
 20
1310.763420349205
 30
0.0
 10
532.557880370593
 20
1311.324211624547
 30
0.0
  0
SPLINE
  5
1B0
330
1F
100
AcDbEntity
  8
0
  6
Continuous
 62
     7
370
    25
100
AcDbSpline
210
0.0
220
0.0
230
1.0
 70
     8
 71
     3
 72
    12
 73
     8
 74
     0
 42
0.000000001
 43
0.00000001
 40
0.0
 40
0.0
 40
0.0
 40
0.0
 40
0.0818481508541751
 40
0.3139930761883544
 40
0.5342101813124863
 40
0.762530059693512
 40
1.0
 40
1.0
 40
1.0
 40
1.0
 10
479.7115024553596
 20
1396.451015136871
 30
0.0
 10
479.7511432414169
 20
1396.045118578862
 30
0.0
 10
479.903216711945
 20
1394.487982497795
 30
0.0
 10
479.5744712416048
 20
1391.817473045678
 30
0.0
 10
478.65641690124
 20
1388.548376452147
 30
0.0
 10
477.2255443263163
 20
1385.435555532444
 30
0.0
 10
476.0933982179013
 20
1383.412483654976
 30
0.0
 10
475.5162051192176
 20
1382.381076915919
 30
0.0
  0
SPLINE
  5
1B1
330
1F
100
AcDbEntity
  8
0
  6
Continuous
 62
     7
370
    25
100
AcDbSpline
210
0.0
220
0.0
230
1.0
 70
     8
 71
     3
 72
    12
 73
     8
 74
     0
 42
0.000000001
 43
0.00000001
 40
0.0
 40
0.0
 40
0.0
 40
0.0
 40
0.2245558828833993
 40
0.4873282223057064
 40
0.7365990767540634
 40
0.9950417219776146
 40
0.9999999999999999
 40
0.9999999999999999
 40
0.9999999999999999
 40
0.9999999999999999
 10
443.561632451585
 20
1398.81449089517
 30
0.0
 10
443.4179723878738
 20
1397.835711902705
 30
0.0
 10
443.1062032079006
 20
1395.711578612125
 30
0.0
 10
443.3233048914946
 20
1392.449142614196
 30
0.0
 10
444.1596937085567
 20
1389.156467171944
 30
0.0
 10
444.9898177356772
 20
1387.050071544071
 30
0.0
 10
445.5064794419062
 20
1386.013343533542
 30
0.0
 10
445.5162051192176
 20
1385.993828090519
 30
0.0
  0
SPLINE
  5
1B2
330
1F
100
AcDbEntity
  8
0
  6
Continuous
 62
     7
370
    25
100
AcDbSpline
210
0.0
220
0.0
230
1.0
 70
     8
 71
     3
 72
     9
 73
     5
 74
     0
 42
0.000000001
 43
0.00000001
 40
0.0
 40
0.0
 40
0.0
 40
0.0
 40
0.1156056518362707
 40
1.0
 40
1.0
 40
1.0
 40
1.0
 10
421.7261739923894
 20
1384.467897605766
 30
0.0
 10
421.6748801236806
 20
1384.352931365329
 30
0.0
 10
421.231183229161
 20
1383.358462335394
 30
0.0
 10
420.6446425294258
 20
1382.693317445822
 30
0.0
 10
420.1259092496121
 20
1382.105067064775
 30
0.0
  0
SPLINE
  5
1B3
330
1F
100
AcDbEntity
  8
0
  6
Continuous
 62
     7
370
    25
100
AcDbSpline
210
0.0
220
0.0
230
1.0
 70
     8
 71
     3
 72
    13
 73
     9
 74
     0
 42
0.000000001
 43
0.00000001
 40
0.0
 40
0.0
 40
0.0
 40
0.0
 40
0.1199768806524902
 40
0.3066551358987038
 40
0.4837416903452417
 40
0.6673440519850343
 40
0.8702982175317308
 40
1.0
 40
1.0
 40
1.0
 40
1.0
 10
405.0564309589084
 20
1399.359428233156
 30
0.0
 10
404.9510876370634
 20
1398.624461541529
 30
0.0
 10
404.6818351735827
 20
1396.745922030614
 30
0.0
 10
404.8182895414089
 20
1393.728971149115
 30
0.0
 10
405.4546178811117
 20
1390.416622620686
 30
0.0
 10
406.5749788869045
 20
1387.181430995638
 30
0.0
 10
407.7287654423218
 20
1384.287145643895
 30
0.0
 10
408.6158986803943
 20
1382.510187657142
 30
0.0
 10
408.9617898720335
 20
1381.817355860121
 30
0.0
  0
SPLINE
  5
1B4
330
1F
100
AcDbEntity
  8
0
  6
Continuous
 62
     7
370
    25
100
AcDbSpline
210
0.0
220
0.0
230
1.0
 70
     8
 71
     3
 72
    10
 73
     6
 74
     0
 42
0.000000001
 43
0.00000001
 40
0.0
 40
0.0
 40
0.0
 40
0.0
 40
0.0339813320583131
 40
0.4709840596125467
 40
1.0
 40
1.0
 40
1.0
 40
1.0
 10
415.9453129530579
 20
1378.244564270982
 30
0.0
 10
416.0012895068209
 20
1378.271825569758
 30
0.0
 10
416.7771291498699
 20
1378.649669414906
 30
0.0
 10
418.1238390572148
 20
1380.084070453133
 30
0.0
 10
419.417479465009
 20
1381.389940192747
 30
0.0
 10
420.1259092496121
 20
1382.105067064775
 30
0.0
  0
SPLINE
  5
1B5
330
1F
100
AcDbEntity
  8
0
  6
Continuous
 62
     7
370
    25
100
AcDbSpline
210
0.0
220
0.0
230
1.0
 70
     8
 71
     3
 72
    11
 73
     7
 74
     0
 42
0.000000001
 43
0.00000001
 40
0.0
 40
0.0
 40
0.0
 40
0.0
 40
0.2600825384949692
 40
0.5526465166302852
 40
0.8760469212933498
 40
1.0
 40
1.0
 40
1.0
 40
1.0
 10
436.0517784439654
 20
1392.350352755854
 30
0.0
 10
435.8216622536746
 20
1391.370378354547
 30
0.0
 10
435.3326908997332
 20
1389.288041560993
 30
0.0
 10
433.9876491474121
 20
1386.228260762129
 30
0.0
 10
432.7894982071432
 20
1383.693834170054
 30
0.0
 10
431.9416866475641
 20
1382.247233419853
 30
0.0
 10
431.7067743089336
 20
1381.846408069626
 30
0.0
  0
SPLINE
  5
1B6
330
1F
100
AcDbEntity
  8
0
  6
Continuous
 62
     7
370
    25
100
AcDbSpline
210
0.0
220
0.0
230
1.0
 70
     8
 71
     3
 72
     9
 73
     5
 74
     0
 42
0.000000001
 43
0.00000001
 40
0.0
 40
0.0
 40
0.0
 40
0.0
 40
0.0110293578068401
 40
1.0
 40
1.0
 40
1.0
 40
1.0
 10
422.1207944028935
 20
1379.769250279418
 30
0.0
 10
422.1128292269074
 20
1379.777055834744
 30
0.0
 10
421.3906497378046
 20
1380.484762979935
 30
0.0
 10
420.7547728367771
 20
1381.299407525444
 30
0.0
 10
420.1259092496121
 20
1382.105067064775
 30
0.0
  0
SPLINE
  5
1B7
330
1F
100
AcDbEntity
  8
0
  6
Continuous
 62
     7
370
    25
100
AcDbSpline
210
0.0
220
0.0
230
1.0
 70
     8
 71
     3
 72
    18
 73
    14
 74
     0
 42
0.000000001
 43
0.00000001
 40
0.0
 40
0.0
 40
0.0
 40
0.0
 40
0.1216325761363025
 40
0.248666528004943
 40
0.3585378608428884
 40
0.46276390334076
 40
0.5708248885848743
 40
0.6902755693522651
 40
0.8183982735243008
 40
0.8779059781525712
 40
0.9312806314001344
 40
0.9800574666019494
 40
1.0
 40
1.0
 40
1.0
 40
1.0
 10
380.171291975724
 20
1407.678925391037
 30
0.0
 10
380.1065284045496
 20
1406.451793847935
 30
0.0
 10
379.9741252861033
 20
1403.94303714869
 30
0.0
 10
379.7768065525448
 20
1400.189005419527
 30
0.0
 10
379.5884072197763
 20
1396.58922563883
 30
0.0
 10
379.4160933312462
 20
1393.280182231138
 30
0.0
 10
379.2481511047379
 20
1390.04159054712
 30
0.0
 10
379.0748564178874
 20
1386.692094829945
 30
0.0
 10
378.926952193133
 20
1383.830943954998
 30
0.0
 10
378.8230820439543
 20
1381.809142606547
 30
0.0
 10
378.7670967376499
 20
1380.707782626645
 30
0.0
 10
378.7411146674399
 20
1380.180424278539
 30
0.0
 10
378.746023120239
 20
1380.255875712342
 30
0.0
 10
378.747447565572
 20
1380.277771907973
 30
0.0
  0
SPLINE
  5
1B8
330
1F
100
AcDbEntity
  8
0
  6
Continuous
 62
     7
370
    25
100
AcDbSpline
210
0.0
220
0.0
230
1.0
 70
     8
 71
     3
 72
     9
 73
     5
 74
     0
 42
0.000000001
 43
0.00000001
 40
0.0
 40
0.0
 40
0.0
 40
0.0
 40
0.6320532794283353
 40
1.0
 40
1.0
 40
1.0
 40
1.0
 10
378.7424382420065
 20
1379.805061917674
 30
0.0
 10
378.7420899672514
 20
1379.808154492884
 30
0.0
 10
378.7415389460537
 20
1379.813047395603
 30
0.0
 10
378.7569137023735
 20
1380.119638129545
 30
0.0
 10
378.7625707935408
 20
1380.232447184656
 30
0.0
  0
SPLINE
  5
1B9
330
1F
100
AcDbEntity
  8
0
  6
Continuous
 62
     7
370
    25
100
AcDbSpline
210
0.0
220
0.0
230
1.0
 70
     8
 71
     3
 72
    20
 73
    16
 74
     0
 42
0.000000001
 43
0.00000001
 40
0.0
 40
0.0
 40
0.0
 40
0.0
 40
0.0816974981616842
 40
0.1761556139051745
 40
0.2249787092823781
 40
0.2494583083774437
 40
0.2738406345101891
 40
0.3228543853282702
 40
0.3721326980466992
 40
0.4907301864638351
 40
0.6096435838939043
 40
0.7285814700719898
 40
0.847764755100957
 40
0.9672424099003083
 40
0.9999999999999999
 40
0.9999999999999999
 40
0.9999999999999999
 40
0.9999999999999999
 10
502.7205631213296
 20
1386.736653110721
 30
0.0
 10
502.0309823285154
 20
1386.076720317468
 30
0.0
 10
500.5441127103659
 20
1384.653777523043
 30
0.0
 10
498.7156986905038
 20
1382.745530619278
 30
0.0
 10
497.0615917001348
 20
1381.71051480926
 30
0.0
 10
495.9555361769956
 20
1381.598354674921
 30
0.0
 10
494.89272340633
 20
1382.038536684567
 30
0.0
 10
493.8911602797937
 20
1383.204871427777
 30
0.0
 10
492.469561232342
 20
1385.49048972276
 30
0.0
 10
490.9439929441151
 20
1388.789476187504
 30
0.0
 10
489.1282071723996
 20
1392.912219709601
 30
0.0
 10
488.0205015975372
 20
1397.416456654031
 30
0.0
 10
488.1283541585906
 20
1402.02838962308
 30
0.0
 10
488.5765367483268
 20
1405.490524330465
 30
0.0
 10
489.1914716933628
 20
1407.29141446438
 30
0.0
 10
489.3237918198935
 20
1407.678925391042
 30
0.0
  0
SPLINE
  5
1BA
330
1F
100
AcDbEntity
  8
0
  6
Continuous
 62
     7
370
    25
100
AcDbSpline
210
0.0
220
0.0
230
1.0
 70
     8
 71
     3
 72
    20
 73
    16
 74
     0
 42
0.000000001
 43
0.00000001
 40
0.0
 40
0.0
 40
0.0
 40
0.0
 40
0.0802204561883748
 40
0.1729708256140734
 40
0.2209112285862826
 40
0.2449482511499775
 40
0.268889759388483
 40
0.3170173708651503
 40
0.3654047611209706
 40
0.481858077779426
 40
0.5986215920045983
 40
0.7154091522358265
 40
0.8324376746532859
 40
0.9497552448114734
 40
1.0
 40
1.0
 40
1.0
 40
1.0
 10
502.7205631213296
 20
1386.736653110721
 30
0.0
 10
503.4185043673277
 20
1386.041792573418
 30
0.0
 10
504.9234007402293
 20
1384.543538804557
 30
0.0
 10
506.7759381816185
 20
1382.542632221794
 30
0.0
 10
508.4433353902042
 20
1381.424005037796
 30
0.0
 10
509.5511190126072
 20
1381.256116453996
 30
0.0
 10
510.608828798322
 20
1381.642919208206
 30
0.0
 10
511.5963032575601
 20
1382.759183420593
 30
0.0
 10
512.9901470400011
 20
1384.973935309071
 30
0.0
 10
514.4753131925493
 20
1388.197077343815
 30
0.0
 10
516.2414199644409
 20
1392.229890702266
 30
0.0
 10
517.2914666307363
 20
1396.678935825639
 30
0.0
 10
517.1356400351355
 20
1401.300780396419
 30
0.0
 10
516.5840455327848
 20
1405.013793316092
 30
0.0
 10
515.8586603567674
 20
1407.064120269359
 30
0.0
 10
515.6411484518032
 20
1407.678925391037
 30
0.0
  0
SPLINE
  5
1BB
330
1F
100
AcDbEntity
  8
0
  6
Continuous
 62
     7
370
    25
100
AcDbSpline
210
0.0
220
0.0
230
1.0
 70
     8
 71
     3
 72
    22
 73
    18
 74
     0
 42
0.000000001
 43
0.00000001
 40
0.0
 40
0.0
 40
0.0
 40
0.0
 40
0.0218612255531409
 40
0.1146787809756564
 40
0.2111854620191385
 40
0.2946538381346699
 40
0.3738335321598343
 40
0.4559266016329634
 40
0.5466723320434096
 40
0.6440061295367323
 40
0.6892136585926563
 40
0.7297619573820671
 40
0.7668173304369773
 40
0.8034419206020939
 40
0.8566543811927596
 40
0.921500360344682
 40
1.0
 40
1.0
 40
1.0
 40
1.0
 10
517.0631386892036
 20
1407.678925391042
 30
0.0
 10
517.1601113056524
 20
1407.394791506189
 30
0.0
 10
517.6688065485306
 20
1405.904292839055
 30
0.0
 10
518.179788703878
 20
1403.009143731999
 30
0.0
 10
518.5830105581134
 20
1399.247075473606
 30
0.0
 10
518.3740105953564
 20
1395.654878147051
 30
0.0
 10
517.6260397057241
 20
1392.392226902942
 30
0.0
 10
516.429179143016
 20
1389.224865876821
 30
0.0
 10
514.9311208360512
 20
1385.967440617885
 30
0.0
 10
513.5690482169259
 20
1383.182001421523
 30
0.0
 10
512.18451295508
 20
1381.255279887274
 30
0.0
 10
511.0369684719668
 20
1380.192388885959
 30
0.0
 10
509.6995123232934
 20
1379.725470760181
 30
0.0
 10
508.1482628823777
 20
1379.94839088611
 30
0.0
 10
506.4683853857355
 20
1380.999998667087
 30
0.0
 10
504.6516823814057
 20
1382.797332569109
 30
0.0
 10
503.4108762151674
 20
1384.210145136093
 30
0.0
 10
502.731379780311
 20
1384.983836570346
 30
0.0
  0
SPLINE
  5
1BC
330
1F
100
AcDbEntity
  8
0
  6
Continuous
 62
     7
370
    25
100
AcDbSpline
210
0.0
220
0.0
230
1.0
 70
     8
 71
     3
 72
    22
 73
    18
 74
     0
 42
0.000000001
 43
0.00000001
 40
0.0
 40
0.0
 40
0.0
 40
0.0
 40
0.0029847731146235
 40
0.0975935530709549
 40
0.1959626526408052
 40
0.2810418296700187
 40
0.3617495601739111
 40
0.4454268894289207
 40
0.5379238615943688
 40
0.6371360395865132
 40
0.6832159988071703
 40
0.724546812361852
 40
0.7623172925215391
 40
0.7996486763977227
 40
0.8538880490256014
 40
0.9199854477850534
 40
1.0
 40
1.0
 40
1.0
 40
1.0
 10
487.8794157445662
 20
1407.678925391042
 30
0.0
 10
487.8672072199305
 20
1407.641382002412
 30
0.0
 10
487.4680233452417
 20
1406.413820459197
 30
0.0
 10
487.0653718704436
 20
1403.788725436008
 30
0.0
 10
486.6965053705823
 20
1400.050594828995
 30
0.0
 10
486.952698632883
 20
1396.445638250173
 30
0.0
 10
487.7404979042259
 20
1393.144582720293
 30
0.0
 10
488.9770170758684
 20
1389.915895694131
 30
0.0
 10
490.5156927217653
 20
1386.582049195631
 30
0.0
 10
491.9125871201102
 20
1383.727153483633
 30
0.0
 10
493.3213340806805
 20
1381.730118060881
 30
0.0
 10
494.4823557317688
 20
1380.609113983148
 30
0.0
 10
495.825991009092
 20
1380.074705442529
 30
0.0
 10
497.3749707776711
 20
1380.219584267314
 30
0.0
 10
499.0423892628623
 20
1381.186931408131
 30
0.0
 10
500.8374705773402
 20
1382.89334676711
 30
0.0
 10
502.0612226130878
 20
1384.24411962803
 30
0.0
 10
502.731379780311
 20
1384.983836570346
 30
0.0
  0
SPLINE
  5
1BD
330
1F
100
AcDbEntity
  8
0
  6
Continuous
 62
     7
370
    25
100
AcDbSpline
210
0.0
220
0.0
230
1.0
 70
     8
 71
     3
 72
    15
 73
    11
 74
     0
 42
0.000000001
 43
0.00000001
 40
0.0
 40
0.0
 40
0.0
 40
0.0
 40
0.1234923533736131
 40
0.245446003728018
 40
0.3676701948946342
 40
0.4901176960849181
 40
0.6128445805949243
 40
0.7359049455346728
 40
0.8605556546961349
 40
1.0
 40
1.0
 40
1.0
 40
1.0
 10
497.4804543388052
 20
1407.678925391037
 30
0.0
 10
497.4825196424634
 20
1406.668049705231
 30
0.0
 10
497.486624516292
 20
1404.65889374886
 30
0.0
 10
497.8264798524812
 20
1401.74138068149
 30
0.0
 10
498.3056911157314
 20
1398.942116937296
 30
0.0
 10
498.9031105376082
 20
1396.228680482591
 30
0.0
 10
499.6717024491493
 20
1393.693545040463
 30
0.0
 10
500.5328499118438
 20
1391.279864266266
 30
0.0
 10
501.4195362376425
 20
1388.697915564166
 30
0.0
 10
502.2709890719996
 20
1387.414373697475
 30
0.0
 10
502.7205631213296
 20
1386.736653110721
 30
0.0
  0
SPLINE
  5
1BE
330
1F
100
AcDbEntity
  8
0
  6
Continuous
 62
     7
370
    25
100
AcDbSpline
210
0.0
220
0.0
230
1.0
 70
     8
 71
     3
 72
    12
 73
     8
 74
     0
 42
0.000000001
 43
0.00000001
 40
0.0
 40
0.0
 40
0.0
 40
0.0
 40
0.0818481508541751
 40
0.3139930761883544
 40
0.5342101813124863
 40
0.762530059693512
 40
1.0
 40
1.0
 40
1.0
 40
1.0
 10
479.7115024553596
 20
1326.451015136871
 30
0.0
 10
479.7511432414169
 20
1326.045118578862
 30
0.0
 10
479.903216711945
 20
1324.487982497795
 30
0.0
 10
479.5744712416048
 20
1321.817473045678
 30
0.0
 10
478.65641690124
 20
1318.548376452147
 30
0.0
 10
477.2255443263163
 20
1315.435555532444
 30
0.0
 10
476.0933982179013
 20
1313.412483654975
 30
0.0
 10
475.5162051192176
 20
1312.381076915919
 30
0.0
  0
SPLINE
  5
1BF
330
1F
100
AcDbEntity
  8
0
  6
Continuous
 62
     7
370
    25
100
AcDbSpline
210
0.0
220
0.0
230
1.0
 70
     8
 71
     3
 72
    12
 73
     8
 74
     0
 42
0.000000001
 43
0.00000001
 40
0.0
 40
0.0
 40
0.0
 40
0.0
 40
0.2245558828833993
 40
0.4873282223057064
 40
0.7365990767540634
 40
0.9950417219776146
 40
0.9999999999999999
 40
0.9999999999999999
 40
0.9999999999999999
 40
0.9999999999999999
 10
443.561632451585
 20
1328.81449089517
 30
0.0
 10
443.4179723878738
 20
1327.835711902705
 30
0.0
 10
443.1062032079006
 20
1325.711578612125
 30
0.0
 10
443.3233048914946
 20
1322.449142614196
 30
0.0
 10
444.1596937085567
 20
1319.156467171944
 30
0.0
 10
444.9898177356772
 20
1317.050071544072
 30
0.0
 10
445.5064794419062
 20
1316.013343533542
 30
0.0
 10
445.5162051192176
 20
1315.993828090518
 30
0.0
  0
SPLINE
  5
1C0
330
1F
100
AcDbEntity
  8
0
  6
Continuous
 62
     7
370
    25
100
AcDbSpline
210
0.0
220
0.0
230
1.0
 70
     8
 71
     3
 72
    14
 73
    10
 74
     0
 42
0.000000001
 43
0.00000001
 40
0.0
 40
0.0
 40
0.0
 40
0.0
 40
0.2868791960598263
 40
0.4357844714942147
 40
0.5693431004598423
 40
0.691396675302199
 40
0.8120313306372033
 40
0.9873033763841136
 40
1.0
 40
1.0
 40
1.0
 40
1.0
 10
383.1179347507107
 20
1315.040358133121
 30
0.0
 10
383.3619674936868
 20
1313.965353513164
 30
0.0
 10
383.7326659667228
 20
1312.332365389258
 30
0.0
 10
384.4084156381771
 20
1310.429224802278
 30
0.0
 10
385.0212811947125
 20
1309.291192127508
 30
0.0
 10
385.7725039342204
 20
1308.732159956552
 30
0.0
 10
386.6693876565429
 20
1308.871707264974
 30
0.0
 10
387.3057538457919
 20
1309.378128252898
 30
0.0
 10
387.6373068268309
 20
1309.850281016293
 30
0.0
 10
387.6597020665442
 20
1309.882173277627
 30
0.0
  0
SPLINE
  5
1C1
330
1F
100
AcDbEntity
  8
0
  6
Continuous
 62
     7
370
    25
100
AcDbSpline
210
0.0
220
0.0
230
1.0
 70
     8
 71
     3
 72
    13
 73
     9
 74
     0
 42
0.000000001
 43
0.00000001
 40
0.0
 40
0.0
 40
0.0
 40
0.0
 40
0.0750179799337177
 40
0.2123059311251383
 40
0.3479978573551986
 40
0.5451468560046115
 40
0.7853973483574609
 40
1.0
 40
1.0
 40
1.0
 40
1.0
 10
394.8874241818461
 20
1309.177663829031
 30
0.0
 10
394.7713553094834
 20
1309.00301665263
 30
0.0
 10
394.442872590496
 20
1308.508753391517
 30
0.0
 10
393.7727070465697
 20
1308.187749480812
 30
0.0
 10
392.8919585407034
 20
1308.418147624655
 30
0.0
 10
391.9730025708089
 20
1309.502583072983
 30
0.0
 10
391.1132914803653
 20
1311.1301045081
 30
0.0
 10
390.559662838348
 20
1312.354669386616
 30
0.0
 10
390.298457268659
 20
1312.932427006866
 30
0.0
  0
SPLINE
  5
1C2
330
1F
100
AcDbEntity
  8
0
  6
Continuous
 62
     7
370
    25
100
AcDbSpline
210
0.0
220
0.0
230
1.0
 70
     8
 71
     3
 72
    20
 73
    16
 74
     0
 42
0.000000001
 43
0.00000001
 40
0.0
 40
0.0
 40
0.0
 40
0.0
 40
0.0787461881792613
 40
0.1697920185261636
 40
0.2168513868370324
 40
0.2404466640519827
 40
0.2639481822759246
 40
0.3111913186281956
 40
0.3586894596214779
 40
0.4730026313908341
 40
0.5876203000069693
 40
0.702261572718737
 40
0.8171393792843614
 40
0.9323009215561494
 40
1.0
 40
1.0
 40
1.0
 40
1.0
 10
390.1218046689334
 20
1317.77980426696
 30
0.0
 10
389.6888152165756
 20
1317.088958497395
 30
0.0
 10
388.7552061769991
 20
1315.599361344608
 30
0.0
 10
387.5990129285393
 20
1313.60922863592
 30
0.0
 10
386.5885044256573
 20
1312.49978635761
 30
0.0
 10
385.9425538872009
 20
1312.337568074195
 30
0.0
 10
385.3499656917901
 20
1312.729374190446
 30
0.0
 10
384.8300819148092
 20
1313.849741732965
 30
0.0
 10
384.1244728077457
 20
1316.069811425037
 30
0.0
 10
383.4108409005703
 20
1319.297923718985
 30
0.0
 10
382.5706687505317
 20
1323.336729262135
 30
0.0
 10
382.1630143659478
 20
1327.787018533007
 30
0.0
 10
382.4528731825815
 20
1332.407122980941
 30
0.0
 10
382.9797459956578
 20
1336.35038158944
 30
0.0
 10
383.5508038315741
 20
1338.620647823551
 30
0.0
 10
383.7622221734695
 20
1339.461150996241
 30
0.0
  0
SPLINE
  5
1C3
330
1F
100
AcDbEntity
  8
0
  6
Continuous
 62
     7
370
    25
100
AcDbSpline
210
0.0
220
0.0
230
1.0
 70
     8
 71
     3
 72
    20
 73
    16
 74
     0
 42
0.000000001
 43
0.00000001
 40
0.0
 40
0.0
 40
0.0
 40
0.0
 40
0.0798600521039906
 40
0.1721937246725873
 40
0.2199187472062013
 40
0.2438477793455078
 40
0.2676817262740257
 40
0.3155931162459553
 40
0.3637631178965582
 40
0.479693248163939
 40
0.5959321823825515
 40
0.7121950545764333
 40
0.8286978063928186
 40
0.9454883073536519
 40
1.0
 40
1.0
 40
1.0
 40
1.0
 10
390.1218046689334
 20
1317.77980426696
 30
0.0
 10
390.4901366329766
 20
1317.116915695746
 30
0.0
 10
391.2843316169967
 20
1315.687599672114
 30
0.0
 10
392.2539605928545
 20
1313.771634504634
 30
0.0
 10
393.1616865055993
 20
1312.72911724608
 30
0.0
 10
393.7942717504892
 20
1312.611505650066
 30
0.0
 10
394.4263276704613
 20
1313.046038139437
 30
0.0
 10
395.0551492814396
 20
1314.206483303697
 30
0.0
 10
395.9755333429536
 20
1316.483278458849
 30
0.0
 10
397.0004813537505
 20
1319.772081262463
 30
0.0
 10
398.2296765054024
 20
1323.882943809683
 30
0.0
 10
399.0653711107669
 20
1328.377134797389
 30
0.0
 10
399.2134073959591
 20
1332.99033606253
 30
0.0
 10
399.0790406274637
 20
1336.732677395209
 30
0.0
 10
398.7544487606394
 20
1338.802494804627
 30
0.0
 10
398.6511573099742
 20
1339.461150996241
 30
0.0
  0
SPLINE
  5
1C4
330
1F
100
AcDbEntity
  8
0
  6
Continuous
 62
     7
370
    25
100
AcDbSpline
210
0.0
220
0.0
230
1.0
 70
     8
 71
     3
 72
    22
 73
    18
 74
     0
 42
0.000000001
 43
0.00000001
 40
0.0
 40
0.0
 40
0.0
 40
0.0
 40
0.02438723015074
 40
0.1169650879169935
 40
0.2132225442835842
 40
0.296475366627677
 40
0.3754505822328382
 40
0.4573316496093942
 40
0.547843032769514
 40
0.6449254695905156
 40
0.6900162519953243
 40
0.7304598364110263
 40
0.7674195154344271
 40
0.8039495240477658
 40
0.8570245655690583
 40
0.9217030825512433
 40
1.0
 40
1.0
 40
1.0
 40
1.0
 10
399.4835479997728
 20
1339.461150996241
 30
0.0
 10
399.5301929737956
 20
1339.148552551194
 30
0.0
 10
399.753909790086
 20
1337.64928000644
 30
0.0
 10
399.9051295190279
 20
1334.74498733142
 30
0.0
 10
399.9447641355616
 20
1331.002562174557
 30
0.0
 10
399.6397042901908
 20
1327.402818805289
 30
0.0
 10
399.0393629889219
 20
1324.107886474972
 30
0.0
 10
398.1841434738515
 20
1320.887895084653
 30
0.0
 10
397.1499514339581
 20
1317.564227046137
 30
0.0
 10
396.2186855117172
 20
1314.718472638571
 30
0.0
 10
395.3184663572846
 20
1312.729986268544
 30
0.0
 10
394.5997319993287
 20
1311.61563467803
 30
0.0
 10
393.8016461663516
 20
1311.088352002585
 30
0.0
 10
392.9152009369352
 20
1311.240874458005
 30
0.0
 10
391.9968134184123
 20
1312.215840494156
 30
0.0
 10
391.0374831735069
 20
1313.929958810852
 30
0.0
 10
390.3917636582491
 20
1315.285842225107
 30
0.0
 10
390.0381515305266
 20
1316.02835783402
 30
0.0
  0
SPLINE
  5
1C5
330
1F
100
AcDbEntity
  8
0
  6
Continuous
 62
     7
370
    25
100
AcDbSpline
210
0.0
220
0.0
230
1.0
 70
     8
 71
     3
 72
    22
 73
    18
 74
     0
 42
0.000000001
 43
0.00000001
 40
0.0
 40
0.0
 40
0.0
 40
0.0
 40
0.0386826838033882
 40
0.1299040172231157
 40
0.2247510328404977
 40
0.3067839686678074
 40
0.3846019766501895
 40
0.4652832575542108
 40
0.5544683959960569
 40
0.6501283037984434
 40
0.6945583802244893
 40
0.7344093530995307
 40
0.7708274695329117
 40
0.8068222114285502
 40
0.8591195552612055
 40
0.9228503512105422
 40
1.0
 40
1.0
 40
1.0
 40
1.0
 10
382.9401926807816
 20
1339.461150996241
 30
0.0
 10
382.8154410786309
 20
1338.951816373919
 30
0.0
 10
382.3965008014579
 20
1337.241371103713
 30
0.0
 10
381.9262213610488
 20
1334.119672683645
 30
0.0
 10
381.5319330745135
 20
1330.359706738208
 30
0.0
 10
381.4927415065433
 20
1326.769798852837
 30
0.0
 10
381.7800167452581
 20
1323.505698281208
 30
0.0
 10
382.3299329411888
 20
1320.33476843983
 30
0.0
 10
383.0495725287393
 20
1317.07227802687
 30
0.0
 10
383.7116493757478
 20
1314.282116604867
 30
0.0
 10
384.424607814584
 20
1312.34991180203
 30
0.0
 10
385.0391157311369
 20
1311.282075591657
 30
0.0
 10
385.7894132871592
 20
1310.80881424805
 30
0.0
 10
386.6934117092343
 20
1311.023803263542
 30
0.0
 10
387.7081538179892
 20
1312.066214006315
 30
0.0
 10
388.8347004336133
 20
1313.853106210306
 30
0.0
 10
389.6123120147072
 20
1315.258648038081
 30
0.0
 10
390.0381515305266
 20
1316.02835783402
 30
0.0
  0
SPLINE
  5
1C6
330
1F
100
AcDbEntity
  8
0
  6
Continuous
 62
     7
370
    25
100
AcDbSpline
210
0.0
220
0.0
230
1.0
 70
     8
 71
     3
 72
    14
 73
    10
 74
     0
 42
0.000000001
 43
0.00000001
 40
0.0
 40
0.0
 40
0.0
 40
0.0
 40
0.0082742975898832
 40
0.1689160441515588
 40
0.3298512916305561
 40
0.4911537383031971
 40
0.6528944851042059
 40
0.8167254537424166
 40
1.0
 40
1.0
 40
1.0
 40
1.0
 10
399.1533444299898
 20
1332.798569839834
 30
0.0
 10
399.1424733364237
 20
1332.748813375958
 30
0.0
 10
398.920544876533
 20
1331.733057662857
 30
0.0
 10
398.2004547565072
 20
1329.852893889816
 30
0.0
 10
397.0962031768161
 20
1327.149230793611
 30
0.0
 10
395.661739938359
 20
1324.641371763527
 30
0.0
 10
394.0821540775886
 20
1322.254330702511
 30
0.0
 10
392.4491618438998
 20
1319.700794389206
 30
0.0
 10
390.9260304712641
 20
1318.44360861936
 30
0.0
 10
390.1218046689334
 20
1317.77980426696
 30
0.0
  0
SPLINE
  5
1C7
330
1F
100
AcDbEntity
  8
0
  6
Continuous
 62
     7
370
    25
100
AcDbSpline
210
0.0
220
0.0
230
1.0
 70
     8
 71
     3
 72
    20
 73
    16
 74
     0
 42
0.000000001
 43
0.00000001
 40
0.0
 40
0.0
 40
0.0
 40
0.0
 40
0.0790050024499345
 40
0.1703500721724044
 40
0.2175641100154685
 40
0.2412369375805361
 40
0.2648156979979027
 40
0.312214107870863
 40
0.3598683605059099
 40
0.4745572441778223
 40
0.5895516254831071
 40
0.7045696884633561
 40
0.8198250627108017
 40
0.9353651052155769
 40
1.0
 40
1.0
 40
1.0
 40
1.0
 10
461.6049743605817
 20
1317.465637439036
 30
0.0
 10
460.7962905045912
 20
1316.797489546122
 30
0.0
 10
459.0526116366623
 20
1315.356833407266
 30
0.0
 10
456.905477047934
 20
1313.426841483193
 30
0.0
 10
454.9757762266571
 20
1312.371991291924
 30
0.0
 10
453.6961283579668
 20
1312.246432134299
 30
0.0
 10
452.4766093476018
 20
1312.673610513608
 30
0.0
 10
451.3412290653725
 20
1313.827512538081
 30
0.0
 10
449.7412680808802
 20
1316.095348965314
 30
0.0
 10
448.0402230636593
 20
1319.374945592163
 30
0.0
 10
446.0175848862417
 20
1323.475091149339
 30
0.0
 10
444.825778693755
 20
1327.963301024755
 30
0.0
 10
445.0179454284786
 20
1332.581158566521
 30
0.0
 10
445.7280721605449
 20
1336.465023049933
 30
0.0
 10
446.6611606041408
 20
1338.670110812397
 30
0.0
 10
446.9958912513872
 20
1339.461150996241
 30
0.0
  0
SPLINE
  5
1C8
330
1F
100
AcDbEntity
  8
0
  6
Continuous
 62
     7
370
    25
100
AcDbSpline
210
0.0
220
0.0
230
1.0
 70
     8
 71
     3
 72
    20
 73
    16
 74
     0
 42
0.000000001
 43
0.00000001
 40
0.0
 40
0.0
 40
0.0
 40
0.0
 40
0.0783023128009999
 40
0.1688349373241682
 40
0.2156290420662434
 40
0.239091317762699
 40
0.2624603629675404
 40
0.3094371998900567
 40
0.3566676040470494
 40
0.4703364169779053
 40
0.5843080103721654
 40
0.6983030748108067
 40
0.8125333398126993
 40
0.9270457411634057
 40
1.0
 40
1.0
 40
1.0
 40
1.0
 10
461.6049743605817
 20
1317.465637439036
 30
0.0
 10
462.3983432225798
 20
1316.77941177172
 30
0.0
 10
464.109000000124
 20
1315.299776453335
 30
0.0
 10
466.2119443208592
 20
1313.321826073612
 30
0.0
 10
468.117299730253
 20
1312.223700607578
 30
0.0
 10
469.3937818078856
 20
1312.069297730928
 30
0.0
 10
470.6226494496892
 20
1312.468848235947
 30
0.0
 10
471.7838318045414
 20
1313.596835201826
 30
0.0
 10
473.4346731789603
 20
1315.827991238888
 30
0.0
 10
475.2093828340232
 20
1319.06834756359
 30
0.0
 10
477.3244814985496
 20
1323.121884244042
 30
0.0
 10
478.6165055160648
 20
1327.581762428716
 30
0.0
 10
478.5324339041091
 20
1332.203873578581
 30
0.0
 10
477.8794958379887
 20
1336.217601336617
 30
0.0
 10
476.9474726657872
 20
1338.552503709746
 30
0.0
 10
476.58476785375
 20
1339.461150996241
 30
0.0
  0
SPLINE
  5
1C9
330
1F
100
AcDbEntity
  8
0
  6
Continuous
 62
     7
370
    25
100
AcDbSpline
210
0.0
220
0.0
230
1.0
 70
     8
 71
     3
 72
    22
 73
    18
 74
     0
 42
0.000000001
 43
0.00000001
 40
0.0
 40
0.0
 40
0.0
 40
0.0
 40
0.0435638125351529
 40
0.1343219658333076
 40
0.2286873917763801
 40
0.3103038019539302
 40
0.3877266857578043
 40
0.4679983040959749
 40
0.5567306012810684
 40
0.6519047919153509
 40
0.6961092727768778
 40
0.7357579006765959
 40
0.7719911026062175
 40
0.8078030796999542
 40
0.8598348815899696
 40
0.9232420817672259
 40
1.0
 40
1.0
 40
1.0
 40
1.0
 10
478.2354356024504
 20
1339.461150996241
 30
0.0
 10
478.4574673147976
 20
1338.886024906372
 30
0.0
 10
479.1420661674744
 20
1337.112716683385
 30
0.0
 10
479.7705023024121
 20
1333.924770011834
 30
0.0
 10
480.1558546770516
 20
1330.165004382998
 30
0.0
 10
479.8508073042469
 20
1326.571924005356
 30
0.0
 10
478.9260772766816
 20
1323.300763325745
 30
0.0
 10
477.4854026274531
 20
1320.119673833404
 30
0.0
 10
475.6949329047138
 20
1316.844813649554
 30
0.0
 10
474.0703044590803
 20
1314.043500416658
 30
0.0
 10
472.4355422490734
 20
1312.100425482723
 30
0.0
 10
471.090447347116
 20
1311.023855371537
 30
0.0
 10
469.5369744076418
 20
1310.540812856013
 30
0.0
 10
467.7492688894057
 20
1310.744851525993
 30
0.0
 10
465.8282625036809
 20
1311.775821864912
 30
0.0
 10
463.7629574169215
 20
1313.55068234037
 30
0.0
 10
462.3557706153888
 20
1314.948102062416
 30
0.0
 10
461.5851599907518
 20
1315.713363990479
 30
0.0
  0
SPLINE
  5
1CA
330
1F
100
AcDbEntity
  8
0
  6
Continuous
 62
     7
370
    25
100
AcDbSpline
210
0.0
220
0.0
230
1.0
 70
     8
 71
     3
 72
    22
 73
    18
 74
     0
 42
0.000000001
 43
0.00000001
 40
0.0
 40
0.0
 40
0.0
 40
0.0
 40
0.0345301213986739
 40
0.1261454998161185
 40
0.2214022221397211
 40
0.3037895122260528
 40
0.3819436674190511
 40
0.4629734638945711
 40
0.5525438516674268
 40
0.6486169775925782
 40
0.693238976770765
 40
0.7332620922349005
 40
0.769837522490268
 40
0.8059877493745192
 40
0.8585109998669305
 40
0.9225170910833187
 40
1.0
 40
1.0
 40
1.0
 40
1.0
 10
445.3318005883521
 20
1339.461150996241
 30
0.0
 10
445.1485812473246
 20
1339.013163694618
 30
0.0
 10
444.4792440306079
 20
1337.376575701718
 30
0.0
 10
443.8195971636073
 20
1334.329352544413
 30
0.0
 10
443.3452218148426
 20
1330.580634032902
 30
0.0
 10
443.5698980101022
 20
1326.981262581177
 30
0.0
 10
444.4201895807868
 20
1323.69014863354
 30
0.0
 10
445.788628338734
 20
1320.477339467318
 30
0.0
 10
447.5045678935991
 20
1317.162918985701
 30
0.0
 10
449.0654416771276
 20
1314.325658411666
 30
0.0
 10
450.6558478844779
 20
1312.346190461803
 30
0.0
 10
451.9762554864817
 20
1311.239542432339
 30
0.0
 10
453.5184090992091
 20
1310.72156846598
 30
0.0
 10
455.3102723357655
 20
1310.885214806646
 30
0.0
 10
457.2541015973792
 20
1311.872573830172
 30
0.0
 10
459.3590141296041
 20
1313.600377018461
 30
0.0
 10
460.7974413388795
 20
1314.965686455924
 30
0.0
 10
461.5851599907518
 20
1315.713363990479
 30
0.0
  0
SPLINE
  5
1CB
330
1F
100
AcDbEntity
  8
0
  6
Continuous
 62
     7
370
    25
100
AcDbSpline
210
0.0
220
0.0
230
1.0
 70
     8
 71
     3
 72
    16
 73
    12
 74
     0
 42
0.000000001
 43
0.00000001
 40
0.0
 40
0.0
 40
0.0
 40
0.0
 40
0.0273111473486931
 40
0.1629098532181215
 40
0.2793791156012559
 40
0.3961067522827565
 40
0.5130476564938736
 40
0.6302553798537064
 40
0.7477815866665467
 40
0.8668266181959837
 40
0.9999999999999999
 40
0.9999999999999999
 40
0.9999999999999999
 40
0.9999999999999999
 10
461.8577666584116
 20
1339.461150996241
 30
0.0
 10
461.8551474582256
 20
1339.228297598404
 30
0.0
 10
461.8395240385137
 20
1337.839336806005
 30
0.0
 10
461.8122993233906
 20
1335.437288772429
 30
0.0
 10
461.7774920293717
 20
1332.380670383519
 30
0.0
 10
461.7455609746473
 20
1329.590295671686
 30
0.0
 10
461.7145400822802
 20
1326.8880481872
 30
0.0
 10
461.6854278928029
 20
1324.367043596434
 30
0.0
 10
461.6576332832616
 20
1321.969127244296
 30
0.0
 10
461.6279215385108
 20
1319.403425468172
 30
0.0
 10
461.6129038321642
 20
1318.135246362514
 30
0.0
 10
461.6049743605817
 20
1317.465637439036
 30
0.0
  0
SPLINE
  5
1CC
330
1F
100
AcDbEntity
  8
0
  6
Continuous
 62
     7
370
    25
100
AcDbSpline
210
0.0
220
0.0
230
1.0
 70
     8
 71
     3
 72
    20
 73
    16
 74
     0
 42
0.000000001
 43
0.00000001
 40
0.0
 40
0.0
 40
0.0
 40
0.0
 40
0.0795051497483
 40
0.1714284865225235
 40
0.2189414164957036
 40
0.2427641067325525
 40
0.2664921343223254
 40
0.3141906035068434
 40
0.3621465350859052
 40
0.4775614656351323
 40
0.5932838277942025
 40
0.70903002154692
 40
0.8250150288842243
 40
0.9412865065933492
 40
1.0
 40
1.0
 40
1.0
 40
1.0
 10
532.8221151561472
 20
1385.672906186967
 30
0.0
 10
532.4343590389819
 20
1385.016412682457
 30
0.0
 10
531.5982818223998
 20
1383.600885660039
 30
0.0
 10
530.5725925045442
 20
1381.701691597555
 30
0.0
 10
529.6340354674127
 20
1380.675155214837
 30
0.0
 10
528.9975152500027
 20
1380.568907885768
 30
0.0
 10
528.3774395312962
 20
1381.015001296982
 30
0.0
 10
527.7815246683873
 20
1382.187219863038
 30
0.0
 10
526.9259711060809
 20
1384.48146488586
 30
0.0
 10
525.9949531590529
 20
1387.789967692863
 30
0.0
 10
524.8831128009103
 20
1391.924584055642
 30
0.0
 10
524.1765187827401
 20
1396.435334072258
 30
0.0
 10
524.1602694470431
 20
1401.053638983156
 30
0.0
 10
524.409673140802
 20
1404.850760102623
 30
0.0
 10
524.805577199894
 20
1406.968388142307
 30
0.0
 10
524.9384166672775
 20
1407.678925391037
 30
0.0
  0
SPLINE
  5
1CD
330
1F
100
AcDbEntity
  8
0
  6
Continuous
 62
     7
370
    25
100
AcDbSpline
210
0.0
220
0.0
230
1.0
 70
     8
 71
     3
 72
    20
 73
    16
 74
     0
 42
0.000000001
 43
0.00000001
 40
0.0
 40
0.0
 40
0.0
 40
0.0
 40
0.0778561850653146
 40
0.16787299960357
 40
0.2144004947495143
 40
0.237729094037751
 40
0.2609649940154674
 40
0.3076741802245317
 40
0.3546354889677582
 40
0.4676566733890977
 40
0.5809789131809563
 40
0.6943244902908314
 40
0.8079039279078192
 40
0.9217638944006604
 40
1.0
 40
1.0
 40
1.0
 40
1.0
 10
532.8221151561472
 20
1385.672906186967
 30
0.0
 10
533.2355649972894
 20
1384.973993828987
 30
0.0
 10
534.1270428543145
 20
1383.467003550749
 30
0.0
 10
535.2268694508023
 20
1381.455276680871
 30
0.0
 10
536.2062704588076
 20
1380.327196408116
 30
0.0
 10
536.84810177513
 20
1380.15326831981
 30
0.0
 10
537.4524938461109
 20
1380.534533909787
 30
0.0
 10
538.0051178733844
 20
1381.645943703976
 30
0.0
 10
538.7753292290869
 20
1383.854119561228
 30
0.0
 10
539.5825847222459
 20
1387.070545813263
 30
0.0
 10
540.5400494523076
 20
1391.095798570335
 30
0.0
 10
541.0757498920073
 20
1395.540060147417
 30
0.0
 10
540.9209729776087
 20
1400.16838017565
 30
0.0
 10
540.4841704866395
 20
1404.270198163581
 30
0.0
 10
539.9433072221777
 20
1406.692414848326
 30
0.0
 10
539.7230266354255
 20
1407.678925391037
 30
0.0
  0
SPLINE
  5
1CE
330
1F
100
AcDbEntity
  8
0
  6
Continuous
 62
     7
370
    25
100
AcDbSpline
210
0.0
220
0.0
230
1.0
 70
     8
 71
     3
 72
    22
 73
    18
 74
     0
 42
0.000000001
 43
0.00000001
 40
0.0
 40
0.0
 40
0.0
 40
0.0
 40
0.0493117740561743
 40
0.1395244917259916
 40
0.233322803161746
 40
0.3144487174846501
 40
0.3914063075629361
 40
0.4711955119361371
 40
0.5593945484222121
 40
0.6539967640593872
 40
0.6979355861572871
 40
0.7373459349219031
 40
0.7733613836410085
 40
0.8089581389886161
 40
0.8606772417157879
 40
0.9237033792026628
 40
0.9999999999999999
 40
0.9999999999999999
 40
0.9999999999999999
 40
0.9999999999999999
 10
540.5431574703454
 20
1407.678925391037
 30
0.0
 10
540.686193553785
 20
1407.019849609604
 30
0.0
 10
541.0909049482207
 20
1405.155037094268
 30
0.0
 10
541.4975344298277
 20
1401.872171070902
 30
0.0
 10
541.781566732086
 20
1398.102339605115
 30
0.0
 10
541.7178353688006
 20
1394.510699267338
 30
0.0
 10
541.336103693317
 20
1391.250484097001
 30
0.0
 10
540.6943512565413
 20
1388.088308917811
 30
0.0
 10
539.8800443192413
 20
1384.837571950878
 30
0.0
 10
539.1369774547677
 20
1382.05831047083
 30
0.0
 10
538.367711369679
 20
1380.138241643819
 30
0.0
 10
537.721895229031
 20
1379.081088925714
 30
0.0
 10
536.9573101643798
 20
1378.621181901671
 30
0.0
 10
536.0587296713754
 20
1378.852554111904
 30
0.0
 10
535.0731593324379
 20
1379.913654176383
 30
0.0
 10
533.9971467856035
 20
1381.721529995371
 30
0.0
 10
533.259378010101
 20
1383.141620269143
 30
0.0
 10
532.8553574093473
 20
1383.919297157329
 30
0.0
  0
SPLINE
  5
1CF
330
1F
100
AcDbEntity
  8
0
  6
Continuous
 62
     7
370
    25
100
AcDbSpline
210
0.0
220
0.0
230
1.0
 70
     8
 71
     3
 72
    22
 73
    18
 74
     0
 42
0.000000001
 43
0.00000001
 40
0.0
 40
0.0
 40
0.0
 40
0.0
 40
0.028113274789417
 40
0.1203375606864064
 40
0.2162273921200887
 40
0.2991622566204461
 40
0.3778358513494326
 40
0.4594041998671102
 40
0.5495699034046615
 40
0.6462815645404866
 40
0.6912001369525697
 40
0.7314892598794435
 40
0.7683077830896702
 40
0.8046982768801673
 40
0.8575706150544412
 40
0.9220021128821559
 40
1.0
 40
1.0
 40
1.0
 40
1.0
 10
524.1025630184229
 20
1407.678925391037
 30
0.0
 10
524.0378424223375
 20
1407.318211093074
 30
0.0
 10
523.7608089313111
 20
1405.774190375221
 30
0.0
 10
523.5184993329665
 20
1402.821458828649
 30
0.0
 10
523.3720196474932
 20
1399.077611549528
 30
0.0
 10
523.5733380196733
 20
1395.471194862448
 30
0.0
 10
524.0792848489692
 20
1392.164163604597
 30
0.0
 10
524.8424127523392
 20
1388.927558352974
 30
0.0
 10
525.7817008827737
 20
1385.583994858354
 30
0.0
 10
526.6317429483745
 20
1382.720384143653
 30
0.0
 10
527.4754225455998
 20
1380.714920411336
 30
0.0
 10
528.162656489842
 20
1379.58719092808
 30
0.0
 10
528.946231735521
 20
1379.04531849976
 30
0.0
 10
529.8378369112687
 20
1379.181911548398
 30
0.0
 10
530.785117666078
 20
1380.140679215364
 30
0.0
 10
531.7946814344299
 20
1381.838136786752
 30
0.0
 10
532.4800386741211
 20
1383.182881421931
 30
0.0
 10
532.8553574093473
 20
1383.919297157329
 30
0.0
  0
SPLINE
  5
1D0
330
1F
100
AcDbEntity
  8
0
  6
Continuous
 62
     7
370
    25
100
AcDbSpline
210
0.0
220
0.0
230
1.0
 70
     8
 71
     3
 72
    14
 73
    10
 74
     0
 42
0.000000001
 43
0.00000001
 40
0.0
 40
0.0
 40
0.0
 40
0.0
 40
0.0126674957756643
 40
0.1725976231589311
 40
0.3328199512938663
 40
0.4934078519843253
 40
0.6544321111984095
 40
0.8175373328760941
 40
1.0
 40
1.0
 40
1.0
 40
1.0
 10
524.2144055109522
 20
1401.059452076236
 30
0.0
 10
524.2288196114678
 20
1400.982393225955
 30
0.0
 10
524.4252151369149
 20
1399.932448182557
 30
0.0
 10
525.0961843660481
 20
1398.002818268987
 30
0.0
 10
526.1231395287406
 20
1395.264762737573
 30
0.0
 10
527.4839601618311
 20
1392.71123602431
 30
0.0
 10
528.9937108728586
 20
1390.273952064341
 30
0.0
 10
530.5519145933501
 20
1387.668459420294
 30
0.0
 10
532.0376400060907
 20
1386.362476063661
 30
0.0
 10
532.8221151561472
 20
1385.672906186967
 30
0.0
  0
SPLINE
  5
1D1
330
1F
100
AcDbEntity
  8
0
  6
Continuous
 62
     7
370
    25
100
AcDbSpline
210
0.0
220
0.0
230
1.0
 70
     8
 71
     3
 72
    20
 73
    16
 74
     0
 42
0.000000001
 43
0.00000001
 40
0.0
 40
0.0
 40
0.0
 40
0.0
 40
0.0789962533442134
 40
0.1703312074075794
 40
0.2175400167132622
 40
0.2412102227219133
 40
0.264786371999968
 40
0.3121795329179751
 40
0.3598285082657416
 40
0.4745046911574872
 40
0.5894863378514389
 40
0.7044916635978193
 40
0.81973427433127
 40
0.9352615217975591
 40
1.0
 40
1.0
 40
1.0
 40
1.0
 10
420.4922376786759
 20
1317.664528409844
 30
0.0
 10
419.7790859496401
 20
1316.985590832625
 30
0.0
 10
418.2413928321937
 20
1315.521670046685
 30
0.0
 10
416.3449426053458
 20
1313.563067529773
 30
0.0
 10
414.6534494543084
 20
1312.482342521207
 30
0.0
 10
413.5426657475927
 20
1312.339488523837
 30
0.0
 10
412.4944621806899
 20
1312.750054766828
 30
0.0
 10
411.5329399998027
 20
1313.888311065161
 30
0.0
 10
410.1901662669254
 20
1316.133947281746
 30
0.0
 10
408.7790529835881
 20
1319.389734433114
 30
0.0
 10
407.1049646720491
 20
1323.461522886155
 30
0.0
 10
406.1579063336809
 20
1327.932526780423
 30
0.0
 10
406.412022113594
 20
1332.55190322088
 30
0.0
 10
407.1012683127339
 20
1336.445871256506
 30
0.0
 10
407.951943036681
 20
1338.664411109248
 30
0.0
 10
408.2574441898777
 20
1339.461150996241
 30
0.0
  0
SPLINE
  5
1D2
330
1F
100
AcDbEntity
  8
0
  6
Continuous
 62
     7
370
    25
100
AcDbSpline
210
0.0
220
0.0
230
1.0
 70
     8
 71
     3
 72
    20
 73
    16
 74
     0
 42
0.000000001
 43
0.00000001
 40
0.0
 40
0.0
 40
0.0
 40
0.0
 40
0.0791390272866559
 40
0.1706390556533759
 40
0.2179331878388357
 40
0.2416461742134235
 40
0.265264933863973
 40
0.3127437508498765
 40
0.3604788446119119
 40
0.4753622875957535
 40
0.5905517464621148
 40
0.7057649271772374
 40
0.8212158217366503
 40
0.9369518674673211
 40
1.0
 40
1.0
 40
1.0
 40
1.0
 10
420.4922376786759
 20
1317.664528409844
 30
0.0
 10
421.1664006091121
 20
1316.989206953259
 30
0.0
 10
422.6200263327322
 20
1315.533083223097
 30
0.0
 10
424.4039773374733
 20
1313.584073898285
 30
0.0
 10
426.0334920639089
 20
1312.512005298864
 30
0.0
 10
427.1362164179244
 20
1312.374920948225
 30
0.0
 10
428.2082192743676
 20
1312.791013629714
 30
0.0
 10
429.2354311592866
 20
1313.934453758515
 30
0.0
 10
430.7077175699858
 20
1316.187427153894
 30
0.0
 10
432.3065349761741
 20
1319.45106403164
 30
0.0
 10
434.2152950787392
 20
1323.532173872765
 30
0.0
 10
435.420134001865
 20
1328.008851840228
 30
0.0
 10
435.4313051804714
 20
1332.627351808423
 30
0.0
 10
434.9711716395991
 20
1336.495334053383
 30
0.0
 10
434.2562481306244
 20
1338.687932483522
 30
0.0
 10
434.0041307867833
 20
1339.461150996241
 30
0.0
  0
SPLINE
  5
1D3
330
1F
100
AcDbEntity
  8
0
  6
Continuous
 62
     7
370
    25
100
AcDbSpline
210
0.0
220
0.0
230
1.0
 70
     8
 71
     3
 72
    22
 73
    18
 74
     0
 42
0.000000001
 43
0.00000001
 40
0.0
 40
0.0
 40
0.0
 40
0.0
 40
0.0333504075705108
 40
0.1250777314057369
 40
0.2204508485282624
 40
0.3029388081722885
 40
0.3811884604278178
 40
0.4623172677306052
 40
0.5519971021340427
 40
0.6481876204270556
 40
0.6928641435117942
 40
0.7329361634771172
 40
0.7695562854849675
 40
0.8057506845629784
 40
0.8583381135514949
 40
0.9224224142207356
 40
1.0
 40
1.0
 40
1.0
 40
1.0
 10
435.4398485760515
 20
1339.461150996241
 30
0.0
 10
435.5759998787707
 20
1339.027424526699
 30
0.0
 10
436.0866232058186
 20
1337.400772056374
 30
0.0
 10
436.5360294248127
 20
1334.364430735761
 30
0.0
 10
436.8025181104171
 20
1330.612322225878
 30
0.0
 10
436.4690923230343
 20
1327.015605479073
 30
0.0
 10
435.6062191242181
 20
1323.732790308097
 30
0.0
 10
434.2978599814753
 20
1320.532927612559
 30
0.0
 10
432.6848209781383
 20
1317.234612656518
 30
0.0
 10
431.2243984482495
 20
1314.411967951935
 30
0.0
 10
429.7715045262997
 20
1312.447222596733
 30
0.0
 10
428.5859697746691
 20
1311.352697552215
 30
0.0
 10
427.2312160569873
 20
1310.848737947319
 30
0.0
 10
425.6866254922104
 20
1311.028525040557
 30
0.0
 10
424.0422787987807
 20
1312.03324257271
 30
0.0
 10
422.2870727239153
 20
1313.779719845595
 30
0.0
 10
421.0947436006902
 20
1315.157756085394
 30
0.0
 10
420.4417944048756
 20
1315.912403134647
 30
0.0
  0
SPLINE
  5
1D4
330
1F
100
AcDbEntity
  8
0
  6
Continuous
 62
     7
370
    25
100
AcDbSpline
210
0.0
220
0.0
230
1.0
 70
     8
 71
     3
 72
    22
 73
    18
 74
     0
 42
0.000000001
 43
0.00000001
 40
0.0
 40
0.0
 40
0.0
 40
0.0
 40
0.0384322338811697
 40
0.1296773329976921
 40
0.2245490589030117
 40
0.3066033665937552
 40
0.3844416483335281
 40
0.4651439489572477
 40
0.554352322610413
 40
0.6500371524817813
 40
0.6944788041795923
 40
0.7343401593424443
 40
0.7707677637089727
 40
0.8067718832369032
 40
0.859082851983493
 40
0.9228302515793267
 40
1.0
 40
1.0
 40
1.0
 40
1.0
 10
406.8713080232396
 20
1339.594123027993
 30
0.0
 10
406.6838914404847
 20
1339.091045069474
 30
0.0
 10
406.0515138720523
 20
1337.393568723122
 30
0.0
 10
405.4059916413634
 20
1334.283933350759
 30
0.0
 10
404.9254855534679
 20
1330.529083033716
 30
0.0
 10
405.0513631089959
 20
1326.933748672755
 30
0.0
 10
405.7254468190788
 20
1323.654894612725
 30
0.0
 10
406.8497090051449
 20
1320.461385251904
 30
0.0
 10
408.2730704893117
 20
1317.170981028648
 30
0.0
 10
409.5711708217028
 20
1314.355527594445
 30
0.0
 10
410.9111455416065
 20
1312.398061898041
 30
0.0
 10
412.0338312158775
 20
1311.309553392611
 30
0.0
 10
413.3597683551504
 20
1310.812581167758
 30
0.0
 10
414.9149435858888
 20
1311.000447991929
 30
0.0
 10
416.6173925939552
 20
1312.013889151619
 30
0.0
 10
418.4734310026205
 20
1313.769779354781
 30
0.0
 10
419.745291721615
 20
1315.154238656388
 30
0.0
 10
420.4417944048756
 20
1315.912403134647
 30
0.0
  0
SPLINE
  5
1D5
330
1F
100
AcDbEntity
  8
0
  6
Continuous
 62
     7
370
    25
100
AcDbSpline
210
0.0
220
0.0
230
1.0
 70
     8
 71
     3
 72
    16
 73
    12
 74
     0
 42
0.000000001
 43
0.00000001
 40
0.0
 40
0.0
 40
0.0
 40
0.0
 40
0.0207120556439272
 40
0.1572307147878666
 40
0.2744901490138841
 40
0.3920097104479309
 40
0.5097439862997625
 40
0.6277468915030502
 40
0.7460704408724064
 40
0.8659231192438157
 40
0.9999999999999999
 40
0.9999999999999999
 40
0.9999999999999999
 40
0.9999999999999999
 10
426.2104281999035
 20
1339.461150996241
 30
0.0
 10
426.2181816173494
 20
1339.28568671315
 30
0.0
 10
426.2770398682169
 20
1337.953690743059
 30
0.0
 10
426.1287007646546
 20
1335.609824793314
 30
0.0
 10
425.7382481820767
 20
1332.555040043751
 30
0.0
 10
425.1860204542645
 20
1329.767153555582
 30
0.0
 10
424.5290724848619
 20
1327.067941860115
 30
0.0
 10
423.7016477355255
 20
1324.550797182433
 30
0.0
 10
422.7851512599981
 20
1322.157180660554
 30
0.0
 10
421.8390562100653
 20
1319.595911916281
 30
0.0
 10
420.9576351800355
 20
1318.331924229781
 30
0.0
 10
420.4922376786759
 20
1317.664528409844
 30
0.0
  0
SPLINE
  5
1D6
330
1F
100
AcDbEntity
  8
0
  6
Continuous
 62
     7
370
    25
100
AcDbSpline
210
0.0
220
0.0
230
1.0
 70
     8
 71
     3
 72
    20
 73
    16
 74
     0
 42
0.000000001
 43
0.00000001
 40
0.0
 40
0.0
 40
0.0
 40
0.0
 40
0.0829675790583403
 40
0.1788941540697272
 40
0.2284762602140848
 40
0.2533364226295448
 40
0.2780977998634122
 40
0.3278735254051785
 40
0.3779179257641269
 40
0.4983591475613445
 40
0.6191211895378251
 40
0.7399081009678715
 40
0.8609442262541538
 40
0.9822792976250281
 40
1.0
 40
1.0
 40
1.0
 40
1.0
 10
420.4922376786759
 20
1387.664528409844
 30
0.0
 10
419.7790859545771
 20
1386.985590830825
 30
0.0
 10
418.2413928477754
 20
1385.521670041004
 30
0.0
 10
416.3449425465814
 20
1383.563067551198
 30
0.0
 10
414.6534495390458
 20
1382.482342490313
 30
0.0
 10
413.542665598787
 20
1382.33948857809
 30
0.0
 10
412.4944629873033
 20
1382.750054472744
 30
0.0
 10
411.5329334290867
 20
1383.888313460787
 30
0.0
 10
410.1902048206034
 20
1386.133933225411
 30
0.0
 10
408.7786727656829
 20
1389.389873057254
 30
0.0
 10
407.1063497481932
 20
1393.461017899444
 30
0.0
 10
406.1527421624065
 20
1397.934409592339
 30
0.0
 10
406.4313564937545
 20
1402.544854074093
 30
0.0
 10
406.9433950677073
 20
1405.831987307029
 30
0.0
 10
407.5442587021886
 20
1407.470162948472
 30
0.0
 10
407.6208303205237
 20
1407.678925391037
 30
0.0
  0
SPLINE
  5
1D7
330
1F
100
AcDbEntity
  8
0
  6
Continuous
 62
     7
370
    25
100
AcDbSpline
210
0.0
220
0.0
230
1.0
 70
     8
 71
     3
 72
    20
 73
    16
 74
     0
 42
0.000000001
 43
0.00000001
 40
0.0
 40
0.0
 40
0.0
 40
0.0
 40
0.0831322648145235
 40
0.1792492484257332
 40
0.2289297721295881
 40
0.2538392805026815
 40
0.2786498076114868
 40
0.3285243350359344
 40
0.3786680705812001
 40
0.4993483611076835
 40
0.6203501086226504
 40
0.74137677495556
 40
0.862653149819534
 40
0.9842290641584539
 40
1.0
 40
1.0
 40
1.0
 40
1.0
 10
420.4922376786759
 20
1387.664528409844
 30
0.0
 10
421.1664006039226
 20
1386.989206951379
 30
0.0
 10
422.620026316353
 20
1385.533083217164
 30
0.0
 10
424.4039773992454
 20
1383.584073920659
 30
0.0
 10
426.0334919748348
 20
1382.512005266602
 30
0.0
 10
427.1362165743459
 20
1382.374921004881
 30
0.0
 10
428.2082184264715
 20
1382.791013322605
 30
0.0
 10
429.235438066294
 20
1383.93445626024
 30
0.0
 10
430.7076770431181
 20
1386.187412475026
 30
0.0
 10
432.3069346537553
 20
1389.451208795227
 30
0.0
 10
434.2138391139478
 20
1393.531646520979
 30
0.0
 10
435.4255624771038
 20
1398.01081803895
 30
0.0
 10
435.4109812604503
 20
1402.619990465907
 30
0.0
 10
435.0943611319168
 20
1405.88128594038
 30
0.0
 10
434.5963170281626
 20
1407.4937708301
 30
0.0
 10
434.5391288101857
 20
1407.678925391037
 30
0.0
  0
SPLINE
  5
1D8
330
1F
100
AcDbEntity
  8
0
  6
Continuous
 62
     7
370
    25
100
AcDbSpline
210
0.0
220
0.0
230
1.0
 70
     8
 71
     3
 72
    21
 73
    17
 74
     0
 42
0.000000001
 43
0.00000001
 40
0.0
 40
0.0
 40
0.0
 40
0.0
 40
0.0871818126044292
 40
0.1866858703053787
 40
0.272746669655243
 40
0.3543855858197485
 40
0.4390283632251978
 40
0.5325925423809157
 40
0.6329494057328382
 40
0.6795610240276508
 40
0.7213687021986454
 40
0.7595749687360356
 40
0.7973370728065439
 40
0.8522022457849583
 40
0.9190622598424317
 40
0.9999999999999999
 40
0.9999999999999999
 40
0.9999999999999999
 40
0.9999999999999999
 10
435.8880967201565
 20
1407.81978841213
 30
0.0
 10
436.1101186580486
 20
1406.688427667035
 30
0.0
 10
436.5855430322852
 20
1404.265800068255
 30
0.0
 10
436.7925226342985
 20
1400.60870257044
 30
0.0
 10
436.4714571677669
 20
1397.016461858799
 30
0.0
 10
435.6055762840516
 20
1393.732557516794
 30
0.0
 10
434.298055351248
 20
1390.532998361691
 30
0.0
 10
432.6847606307816
 20
1387.234590802968
 30
0.0
 10
431.2244056136547
 20
1384.411970546739
 30
0.0
 10
429.7715033832147
 20
1382.447222182789
 30
0.0
 10
428.5859700386414
 20
1381.352697647807
 30
0.0
 10
427.2312159907103
 20
1380.848737923318
 30
0.0
 10
425.6866255188299
 20
1381.028525050196
 30
0.0
 10
424.042278788676
 20
1382.033242569051
 30
0.0
 10
422.2870727273202
 20
1383.779719846828
 30
0.0
 10
421.0947436018949
 20
1385.15775608583
 30
0.0
 10
420.4417944048756
 20
1385.912403134647
 30
0.0
  0
SPLINE
  5
1D9
330
1F
100
AcDbEntity
  8
0
  6
Continuous
 62
     7
370
    25
100
AcDbSpline
210
0.0
220
0.0
230
1.0
 70
     8
 71
     3
 72
    21
 73
    17
 74
     0
 42
0.000000001
 43
0.00000001
 40
0.0
 40
0.0
 40
0.0
 40
0.0
 40
0.0856969066927009
 40
0.1853628303223862
 40
0.2715636270903701
 40
0.3533353474771615
 40
0.4381158155665751
 40
0.5318321980904673
 40
0.6323523146528717
 40
0.6790397573216336
 40
0.7209154451677826
 40
0.7591838628671724
 40
0.7970073955686426
 40
0.8519618192005641
 40
0.918930596242209
 40
1.0
 40
1.0
 40
1.0
 40
1.0
 10
406.2399718587761
 20
1407.678925391037
 30
0.0
 10
405.958337066923
 20
1406.567285566319
 30
0.0
 10
405.3491596280879
 20
1404.162803162449
 30
0.0
 10
404.935084555446
 20
1400.525615064161
 30
0.0
 10
405.0490920666766
 20
1396.934569164889
 30
0.0
 10
405.72606416076
 20
1393.654671576814
 30
0.0
 10
406.8495213847843
 20
1390.461453036211
 30
0.0
 10
408.2731284429689
 20
1387.170960090896
 30
0.0
 10
409.5711639405162
 20
1384.355530080511
 30
0.0
 10
410.9111466393506
 20
1382.398061501444
 30
0.0
 10
412.0338309623758
 20
1381.309553484197
 30
0.0
 10
413.3597684187986
 20
1380.812581144763
 30
0.0
 10
414.914943560325
 20
1381.000448001165
 30
0.0
 10
416.6173926036591
 20
1382.013889148113
 30
0.0
 10
418.4734309993509
 20
1383.769779355963
 30
0.0
 10
419.7452917204579
 20
1385.154238656806
 30
0.0
 10
420.4417944048756
 20
1385.912403134647
 30
0.0
  0
SPLINE
  5
1DA
330
1F
100
AcDbEntity
  8
0
  6
Continuous
 62
     7
370
    25
100
AcDbSpline
210
0.0
220
0.0
230
1.0
 70
     8
 71
     3
 72
    15
 73
    11
 74
     0
 42
0.000000001
 43
0.00000001
 40
0.0
 40
0.0
 40
0.0
 40
0.0
 40
0.0936356611758632
 40
0.2197434482511897
 40
0.3461309916359268
 40
0.4727494517077408
 40
0.5996568118009411
 40
0.726909011748507
 40
0.8558057281980879
 40
1.0
 40
1.0
 40
1.0
 40
1.0
 10
426.1766967201232
 20
1407.678925391037
 30
0.0
 10
426.1564589829782
 20
1406.938511702568
 30
0.0
 10
426.1089652173633
 20
1405.200914562832
 30
0.0
 10
425.7285228933387
 20
1402.555656381728
 30
0.0
 10
425.1886338538424
 20
1399.766987931974
 30
0.0
 10
424.5283700218816
 20
1397.067986378547
 30
0.0
 10
423.7018365155222
 20
1394.550785218544
 30
0.0
 10
422.7851003217584
 20
1392.157183888753
 30
0.0
 10
421.8390707986573
 20
1389.595910991733
 30
0.0
 10
420.9576402211707
 20
1388.3319239103
 30
0.0
 10
420.4922376786759
 20
1387.664528409844
 30
0.0
  0
LINE
  5
1DB
330
1F
100
AcDbEntity
  8
0
  6
Continuous
 62
     7
370
    25
100
AcDbLine
 10
527.8922623378191
 20
1377.750992927824
 30
0.0
 11
528.0913426847192
 21
1377.461150996224
 31
0.0
  0
SPLINE
  5
1DC
330
1F
100
AcDbEntity
  8
0
  6
Continuous
 62
     7
370
    25
100
AcDbSpline
210
0.0
220
0.0
230
1.0
 70
     8
 71
     3
 72
    10
 73
     6
 74
     0
 42
0.000000001
 43
0.00000001
 40
0.0
 40
0.0
 40
0.0
 40
0.0
 40
0.1821494368623733
 40
0.6163562829042278
 40
1.0
 40
1.0
 40
1.0
 40
1.0
 10
530.199885995525
 20
1377.461150996241
 30
0.0
 10
530.370663857659
 20
1377.615734592112
 30
0.0
 10
530.948541067275
 20
1378.138813730817
 30
0.0
 10
531.6935800925877
 20
1379.590299651757
 30
0.0
 10
532.2819045488218
 20
1380.77056401648
 30
0.0
 10
532.557880370593
 20
1381.324211624547
 30
0.0
  0
SPLINE
  5
1DD
330
1F
100
AcDbEntity
  8
0
  6
Continuous
 62
     7
370
    25
100
AcDbSpline
210
0.0
220
0.0
230
1.0
 70
     8
 71
     3
 72
    19
 73
    15
 74
     0
 42
0.000000001
 43
0.00000001
 40
0.0
 40
0.0
 40
0.0
 40
0.0
 40
0.0709516479648004
 40
0.1844932736975636
 40
0.3025477237410359
 40
0.4046527089269878
 40
0.5015114458734234
 40
0.6019340494095289
 40
0.7129412582528392
 40
0.8320075012264377
 40
0.8873088536593454
 40
0.9369106746110836
 40
0.9822396781561806
 40
1.0
 40
1.0
 40
1.0
 40
1.0
 10
543.3047858406919
 20
1407.678925391037
 30
0.0
 10
543.3223610216025
 20
1406.940664162897
 30
0.0
 10
543.3680611956652
 20
1405.020987386804
 30
0.0
 10
543.4474136689302
 20
1401.675893459187
 30
0.0
 10
543.5362269488152
 20
1397.924903142525
 30
0.0
 10
543.6213235570002
 20
1394.318463071657
 30
0.0
 10
543.6990660210363
 20
1391.011666627022
 30
0.0
 10
543.7748664830207
 20
1387.777464608005
 30
0.0
 10
543.8530802061324
 20
1384.434642791789
 30
0.0
 10
543.9198313940109
 20
1381.579941548566
 30
0.0
 10
543.9667264147073
 20
1379.565225228375
 30
0.0
 10
543.9919794835787
 20
1378.471709127733
 30
0.0
 10
544.0036988712973
 20
1377.952423502453
 30
0.0
 10
544.001542472377
 20
1378.030451937697
 30
0.0
 10
544.0009354229495
 20
1378.052417779214
 30
0.0
  0
LINE
  5
1DE
330
1F
100
AcDbEntity
  8
0
  6
Continuous
 62
     7
370
    25
100
AcDbLine
 10
543.7295575376191
 20
1339.268637129824
 30
0.0
 11
542.6854879000191
 21
1339.252841699424
 31
0.0
  0
LINE
  5
1DF
330
1F
100
AcDbEntity
  8
0
  6
Continuous
 62
     7
370
    25
100
AcDbLine
 10
543.7295575376191
 20
1339.268637129824
 30
0.0
 11
543.7284013428191
 21
1339.329665901724
 31
0.0
  0
LINE
  5
1E0
330
1F
100
AcDbEntity
  8
0
  6
Continuous
 62
     7
370
    25
100
AcDbLine
 10
542.6933774749191
 20
1339.237143288024
 30
0.0
 11
543.7295575376191
 21
1339.268637129824
 31
0.0
  0
LINE
  5
1E1
330
1F
100
AcDbEntity
  8
0
  6
Continuous
 62
     7
370
    25
100
AcDbLine
 10
485.0876987397191
 20
1339.461150996224
 30
0.0
 11
485.0876987397191
 21
1337.678925391024
 31
0.0
  0
LINE
  5
1E2
330
1F
100
AcDbEntity
  8
0
  6
Continuous
 62
     7
370
    25
100
AcDbLine
 10
485.0876987397191
 20
1337.678925391024
 30
0.0
 11
487.1611689905192
 21
1337.678925391024
 31
0.0
  0
LINE
  5
1E3
330
1F
100
AcDbEntity
  8
0
  6
Continuous
 62
     7
370
    25
100
AcDbLine
 10
517.0631386892192
 20
1337.678925391024
 30
0.0
 11
519.1305682959191
 21
1337.678925391024
 31
0.0
  0
LINE
  5
1E4
330
1F
100
AcDbEntity
  8
0
  6
Continuous
 62
     7
370
    25
100
AcDbLine
 10
438.3836280416191
 20
1338.494023844124
 30
0.0
 11
438.4173957163191
 21
1339.461150996224
 31
0.0
  0
LINE
  5
1E5
330
1F
100
AcDbEntity
  8
0
  6
Continuous
 62
     7
370
    25
100
AcDbLine
 10
436.4594622124191
 20
1338.561196723024
 30
0.0
 11
438.3836280416191
 21
1338.494023844124
 31
0.0
  0
LINE
  5
1E6
330
1F
100
AcDbEntity
  8
0
  6
Continuous
 62
     7
370
    25
100
AcDbLine
 10
481.7329291870192
 20
1337.717741016924
 30
0.0
 11
481.7323795539191
 21
1337.710304541924
 31
0.0
  0
LINE
  5
1E7
330
1F
100
AcDbEntity
  8
0
  6
Continuous
 62
     7
370
    25
100
AcDbLine
 10
481.7323795539191
 20
1337.710304541924
 30
0.0
 11
481.7629338763192
 21
1339.461150996224
 31
0.0
  0
LINE
  5
1E8
330
1F
100
AcDbEntity
  8
0
  6
Continuous
 62
     7
370
    25
100
AcDbLine
 10
481.7329291870192
 20
1337.717741016924
 30
0.0
 11
481.7633537341192
 21
1339.461150996224
 31
0.0
  0
LINE
  5
1E9
330
1F
100
AcDbEntity
  8
0
  6
Continuous
 62
     7
370
    25
100
AcDbLine
 10
441.7568461240191
 20
1339.461150996224
 30
0.0
 11
441.7384725435192
 21
1338.408294453924
 31
0.0
  0
LINE
  5
1EA
330
1F
100
AcDbEntity
  8
0
  6
Continuous
 62
     7
370
    25
100
AcDbLine
 10
441.7384725435192
 20
1338.408294453924
 30
0.0
 11
444.8991725300191
 21
1338.353132633824
 31
0.0
  0
LINE
  5
1EB
330
1F
100
AcDbEntity
  8
0
  6
Continuous
 62
     7
370
    25
100
AcDbLine
 10
478.8555226850192
 20
1337.760512616624
 30
0.0
 11
481.7323795539191
 21
1337.710304541924
 31
0.0
  0
LINE
  5
1EC
330
1F
100
AcDbEntity
  8
0
  6
Continuous
 62
     7
370
    25
100
AcDbLine
 10
543.2467916747191
 20
1339.461150996224
 30
0.0
 11
543.2501652424191
 21
1339.318371294424
 31
0.0
  0
LINE
  5
1ED
330
1F
100
AcDbEntity
  8
0
  6
Continuous
 62
     7
370
    25
100
AcDbLine
 10
543.2501652424191
 20
1339.318371294424
 30
0.0
 11
543.2493970227191
 21
1339.461150996224
 31
0.0
  0
LINE
  5
1EE
330
1F
100
AcDbEntity
  8
0
  6
Continuous
 62
     7
370
    25
100
AcDbLine
 10
544.8411609838191
 20
1339.355946191324
 30
0.0
 11
543.2501652424191
 21
1339.318371294424
 31
0.0
  0
LINE
  5
1EF
330
1F
100
AcDbEntity
  8
0
  6
Continuous
 62
     7
370
    25
100
AcDbLine
 10
544.8411609838191
 20
1339.355946191324
 30
0.0
 11
544.8405949341192
 21
1339.461150996224
 31
0.0
  0
ELLIPSE
  5
1F0
330
1F
100
AcDbEntity
  8
0
  6
Continuous
 62
     7
370
    25
100
AcDbEllipse
 10
402.2192780054191
 20
1375.216520816724
 30
0.0
 11
0.07530622417425546
 21
3.501772889987364
 31
0.0
210
0.0
220
0.0
230
1.0
 40
0.7319216011
 41
6.264039524149176
 42
7.174025764363616
  0
LINE
  5
1F1
330
1F
100
AcDbEntity
  8
0
  6
Continuous
 62
     7
370
    25
100
AcDbLine
 10
402.3436385165191
 20
1378.716596702024
 30
0.0
 11
412.4328231198191
 21
1378.235408750924
 31
0.0
  0
ELLIPSE
  5
1F2
330
1F
100
AcDbEntity
  8
0
  6
Continuous
 62
     7
370
    25
100
AcDbEllipse
 10
483.1482764008191
 20
1337.127509976124
 30
0.0
 11
5.999347709302015
 21
-0.1048102885905564
 31
0.0
210
0.0
220
0.0
230
1.0
 40
0.0302409428
 41
4.712979869044949
 42
5.236252196975793
  0
LINE
  5
1F3
330
1F
100
AcDbEntity
  8
0
  6
Continuous
 62
     7
370
    25
100
AcDbLine
 10
483.1486517857192
 20
1336.946022145424
 30
0.0
 11
479.0254097555191
 21
1337.017982640324
 31
0.0
  0
LINE
  5
1F4
330
1F
100
AcDbEntity
  8
0
  6
Continuous
 62
     7
370
    25
100
AcDbLine
 10
444.6830599159191
 20
1337.617339280824
 30
0.0
 11
440.2988200716192
 21
1337.693854815624
 31
0.0
  0
ELLIPSE
  5
1F5
330
1F
100
AcDbEntity
  8
0
  6
Continuous
 62
     7
370
    25
100
AcDbEllipse
 10
440.3023627416192
 20
1337.875274266824
 30
0.0
 11
5.999348745440784
 21
-0.1046916763970671
 31
0.0
210
0.0
220
0.0
230
1.0
 40
0.0302409533
 41
4.189053863316145
 42
4.712326191248133
  0
LINE
  5
1F6
330
1F
100
AcDbEntity
  8
0
  6
Continuous
 62
     7
370
    25
100
AcDbLine
 10
437.3013161014192
 20
1337.770452740024
 30
0.0
 11
436.5890783319192
 21
1337.795317053024
 31
0.0
  0
LINE
  5
1F7
330
1F
100
AcDbEntity
  8
0
  6
Continuous
 62
     7
370
    25
100
AcDbLine
 10
406.6040397851191
 20
1338.842098642424
 30
0.0
 11
404.5079041652191
 21
1338.915275009124
 31
0.0
  0
ELLIPSE
  5
1F8
330
1F
100
AcDbEntity
  8
0
  6
Continuous
 62
     7
370
    25
100
AcDbEllipse
 10
440.3117275200192
 20
1337.876166429824
 30
0.0
 11
3.999565830293932
 21
-0.06979445093134018
 31
0.0
210
0.0
220
0.0
230
1.0
 40
0.0302409533
 41
4.189053863336562
 42
4.712326191248226
  0
ELLIPSE
  5
1F9
330
1F
100
AcDbEntity
  8
0
  6
Continuous
 62
     7
370
    25
100
AcDbEllipse
 10
483.1389300452191
 20
1337.128728693424
 30
0.0
 11
3.999565139534752
 21
-0.0698735257270755
 31
0.0
210
0.0
220
0.0
230
1.0
 40
0.0302409428
 41
4.712979869045062
 42
5.236252196965181
  0
LINE
  5
1FA
330
1F
100
AcDbEntity
  8
0
  6
Continuous
 62
     7
370
    25
100
AcDbLine
 10
519.0400673890191
 20
1336.917985359224
 30
0.0
 11
517.3144658029191
 21
1336.917985359224
 31
0.0
  0
LINE
  5
1FB
330
1F
100
AcDbEntity
  8
0
  6
Continuous
 62
     7
370
    25
100
AcDbLine
 10
487.0620175924191
 20
1336.917985359224
 30
0.0
 11
486.1465795748192
 21
1336.917985359224
 31
0.0
  0
ARC
  5
1FC
330
1F
100
AcDbEntity
  8
0
  6
Continuous
 62
     7
370
    25
100
AcDbCircle
 10
405.3508476910191
 20
1310.881106916324
 30
0.0
 40
71.03723791368918
100
AcDbArc
 50
87.54630165139994
 51
89.60562249890002
  0
ARC
  5
1FD
330
1F
100
AcDbEntity
  8
0
  6
Continuous
 62
     7
370
    25
100
AcDbCircle
 10
424.3423805470192
 20
1304.277313361524
 30
0.0
 40
76.73137231162964
100
AcDbArc
 50
88.01629080249997
 51
89.56588688250002
  0
ARC
  5
1FE
330
1F
100
AcDbEntity
  8
0
  6
Continuous
 62
     7
370
    25
100
AcDbCircle
 10
435.0369757666191
 20
1309.465273257824
 30
0.0
 40
71.03723791417998
100
AcDbArc
 50
87.54630165140001
 51
89.60562249889999
  0
LWPOLYLINE
  5
1FF
330
1F
100
AcDbEntity
  8
0
  6
Continuous
 62
     7
370
    25
100
AcDbPolyline
 90
        9
 70
   128
 43
0.0
 10
438.3110297599192
 20
1337.806285411924
 10
438.4067839175192
 20
1337.827976605224
 10
438.4996607301191
 20
1337.885593990524
 10
438.5862473802191
 20
1337.977020380524
 10
438.6633621867192
 20
1338.098896254724
 10
438.7281715172192
 20
1338.246743206924
 10
438.7782939118191
 20
1338.415128507224
 10
438.8118875913192
 20
1338.597864731124
 10
438.8277181348192
 20
1338.788237120524
  0
LWPOLYLINE
  5
200
330
1F
100
AcDbEntity
  8
0
  6
Continuous
 62
     7
370
    25
100
AcDbPolyline
 90
        9
 70
   128
 43
0.0
 10
485.1377988279191
 20
1336.989045615524
 10
485.0427730490192
 20
1337.014066377724
 10
484.9518802547192
 20
1337.074890984824
 10
484.8684603580191
 20
1337.169284398224
 10
484.7955786760191
 20
1337.293778072024
 10
484.7359132922192
 20
1337.443797407524
 10
484.6916566489191
 20
1337.613829849124
 10
484.6644349845192
 20
1337.797627447124
 10
484.6552485762192
 20
1337.988436442524
  0
LWPOLYLINE
  5
201
330
1F
100
AcDbEntity
  8
0
  6
Continuous
 62
     7
370
    25
100
AcDbPolyline
 90
        9
 70
   128
 43
0.0
 10
483.1391803018191
 20
1337.007736806324
 10
483.1395512344192
 20
1337.031865413224
 10
483.1405497388191
 20
1337.091830647824
 10
483.1421391245192
 20
1337.185429049724
 10
483.1442609884191
 20
1337.309221286224
 10
483.1468373613192
 20
1337.458658533324
 10
483.1497735728192
 20
1337.628249624724
 10
483.1529617298191
 20
1337.811762828424
 10
483.1562846817192
 20
1338.002454835624
  0
LWPOLYLINE
  5
202
330
1F
100
AcDbEntity
  8
0
  6
Continuous
 62
     7
370
    25
100
AcDbPolyline
 90
        9
 70
   128
 43
0.0
 10
440.3093657400192
 20
1337.755220129024
 10
440.3097366726191
 20
1337.779348735924
 10
440.3107351770192
 20
1337.839313970524
 10
440.3123245627191
 20
1337.932912372424
 10
440.3144464266192
 20
1338.056704608924
 10
440.3170227995191
 20
1338.206141856024
 10
440.3199590110191
 20
1338.375732947424
 10
440.3231471680191
 20
1338.559246151124
 10
440.3264701199191
 20
1338.749938158324
  0
ELLIPSE
  5
203
330
1F
100
AcDbEntity
  8
0
  6
Continuous
 62
     7
370
    25
100
AcDbEllipse
 10
483.1563797935191
 20
1338.128119520524
 30
0.0
 11
2.99959742452927
 21
-0.0618068436036765
 31
0.0
210
0.0
220
0.0
230
1.0
 40
0.0418767384
 41
4.713220144103277
 42
5.236492472029884
  0
ELLIPSE
  5
204
330
1F
100
AcDbEntity
  8
0
  6
Continuous
 62
     7
370
    25
100
AcDbEllipse
 10
440.3291772684191
 20
1338.875557256824
 30
0.0
 11
2.999925536032606
 21
-0.04296568664472033
 31
0.0
210
0.0
220
0.0
230
1.0
 40
0.0418784082
 41
4.188814040282397
 42
4.712086368197482
  0
LINE
  5
205
330
1F
100
AcDbEntity
  8
0
  6
Continuous
 62
     7
370
    25
100
AcDbLine
 10
547.8540166754192
 20
1339.461150996224
 30
0.0
 11
547.8584783577192
 21
1338.631912056024
 31
0.0
  0
ELLIPSE
  5
206
330
1F
100
AcDbEntity
  8
0
  6
Continuous
 62
     7
370
    25
100
AcDbEllipse
 10
541.8552035122192
 20
1338.699700936524
 30
0.0
 11
6.003274674138538
 21
-0.06784677108106507
 31
0.0
210
0.0
220
0.0
230
1.0
 40
0.0240409134
 41
5.760314056105819
 42
6.283586384028755
  0
LINE
  5
207
330
1F
100
AcDbEntity
  8
0
  6
Continuous
 62
     7
370
    25
100
AcDbLine
 10
547.0555597533191
 20
1338.568848092824
 30
0.0
 11
543.2863362890191
 21
1338.454285641924
 31
0.0
  0
ELLIPSE
  5
208
330
1F
100
AcDbEntity
  8
0
  6
Continuous
 62
     7
370
    25
100
AcDbEllipse
 10
541.8202837574191
 20
1338.700320068024
 30
0.0
 11
4.002183116092399
 21
-0.04523118072074795
 31
0.0
210
0.0
220
0.0
230
1.0
 40
0.0240409134
 41
5.76031405609281
 42
6.283586383977171
  0
LINE
  5
209
330
1F
100
AcDbEntity
  8
0
  6
Continuous
 62
     7
370
    25
100
AcDbLine
 10
441.1681032160192
 20
1378.299659537024
 30
0.0
 11
441.1680808848191
 21
1378.300672585224
 31
0.0
  0
LINE
  5
20A
330
1F
100
AcDbEntity
  8
0
  6
Continuous
 62
     7
370
    25
100
AcDbLine
 10
483.4112785475191
 20
1377.822981962824
 30
0.0
 11
483.4112562163191
 21
1377.823995011024
 31
0.0
  0
LINE
  5
20B
330
1F
100
AcDbEntity
  8
0
  6
Continuous
 62
     7
370
    25
100
AcDbLine
 10
439.9189876368191
 20
1378.305702379824
 30
0.0
 11
439.8703504236191
 21
1378.306926347424
 31
0.0
  0
ELLIPSE
  5
20C
330
1F
100
AcDbEntity
  8
0
  6
Continuous
 62
     7
370
    25
100
AcDbEllipse
 10
403.7248692213192
 20
1374.712699045724
 30
0.0
 11
-0.2915227706008637
 21
3.493190776326742
 31
0.0
210
0.0
220
0.0
230
1.0
 40
0.7290389894999999
 41
6.196541741202196
 42
6.889952818154907
  0
LINE
  5
20D
330
1F
100
AcDbEntity
  8
0
  6
Continuous
 62
     7
370
    25
100
AcDbLine
 10
484.6604807825191
 20
1377.800833457224
 30
0.0
 11
484.7090432249191
 21
1377.800960923424
 31
0.0
  0
ELLIPSE
  5
20E
330
1F
100
AcDbEntity
  8
0
  6
Continuous
 62
     7
370
    25
100
AcDbEllipse
 10
483.4107860119192
 20
1377.762810724424
 30
0.0
 11
2.499949904923483
 21
-0.02821425514969178
 31
0.0
210
0.0
220
0.0
230
1.0
 40
0.0240681357
 41
1.04759861193062
 42
1.57087093986834
  0
ELLIPSE
  5
20F
330
1F
100
AcDbEntity
  8
0
  6
Continuous
 62
     7
370
    25
100
AcDbEllipse
 10
441.1692433479192
 20
1378.239469875324
 30
0.0
 11
2.499950116132482
 21
-0.02825358056645655
 31
0.0
210
0.0
220
0.0
230
1.0
 40
0.024068123
 41
1.571524398340008
 42
2.094796726307347
  0
ARC
  5
210
330
1F
100
AcDbEntity
  8
0
  6
Continuous
 62
     7
370
    25
100
AcDbCircle
 10
429.5013946017191
 20
1292.823880690824
 30
0.0
 40
89.04960384784006
100
AcDbArc
 50
88.19128254840004
 51
90.36393832000002
  0
ARC
  5
211
330
1F
100
AcDbEntity
  8
0
  6
Continuous
 62
     7
370
    25
100
AcDbCircle
 10
484.2992720678192
 20
1292.094967899424
 30
0.0
 40
89.04960384780972
100
AcDbArc
 50
88.1912825484
 51
90.36393832000002
  0
ARC
  5
212
330
1F
100
AcDbEntity
  8
0
  6
Continuous
 62
     7
370
    25
100
AcDbCircle
 10
448.5945320349191
 20
1292.149155809224
 30
0.0
 40
89.04960384791436
100
AcDbArc
 50
88.19128254840001
 51
90.36393832000002
  0
ARC
  5
213
330
1F
100
AcDbEntity
  8
0
  6
Continuous
 62
     7
370
    25
100
AcDbCircle
 10
512.5854015985192
 20
1291.095375482124
 30
0.0
 40
89.04960384816137
100
AcDbArc
 50
88.19128254839997
 51
90.36393832000005
  0
ELLIPSE
  5
214
330
1F
100
AcDbEntity
  8
0
  6
Continuous
 62
     7
370
    25
100
AcDbEllipse
 10
483.1482764008191
 20
1407.127509976124
 30
0.0
 11
5.999347709302015
 21
-0.1048102885905564
 31
0.0
210
0.0
220
0.0
230
1.0
 40
0.0302409428
 41
4.712979869044949
 42
5.23625219697597
  0
LINE
  5
215
330
1F
100
AcDbEntity
  8
0
  6
Continuous
 62
     7
370
    25
100
AcDbLine
 10
483.1486517857192
 20
1406.946022145424
 30
0.0
 11
479.0254097555191
 21
1407.017982640324
 31
0.0
  0
LINE
  5
216
330
1F
100
AcDbEntity
  8
0
  6
Continuous
 62
     7
370
    25
100
AcDbLine
 10
444.6830599159191
 20
1407.617339280824
 30
0.0
 11
441.1542565293191
 21
1407.678925391024
 31
0.0
  0
ELLIPSE
  5
217
330
1F
100
AcDbEntity
  8
0
  6
Continuous
 62
     7
370
    25
100
AcDbEllipse
 10
483.1389300452191
 20
1407.128728693424
 30
0.0
 11
3.999565139534752
 21
-0.0698735257270755
 31
0.0
210
0.0
220
0.0
230
1.0
 40
0.0302409428
 41
4.712979869045062
 42
5.236252196966382
  0
LINE
  5
218
330
1F
100
AcDbEntity
  8
0
  6
Continuous
 62
     7
370
    25
100
AcDbLine
 10
519.0400673890191
 20
1406.917985359224
 30
0.0
 11
517.3144658029191
 21
1406.917985359224
 31
0.0
  0
LINE
  5
219
330
1F
100
AcDbEntity
  8
0
  6
Continuous
 62
     7
370
    25
100
AcDbLine
 10
487.0620175924191
 20
1406.917985359224
 30
0.0
 11
486.1465795748192
 21
1406.917985359224
 31
0.0
  0
LINE
  5
21A
330
1F
100
AcDbEntity
  8
0
  6
Continuous
 62
     7
370
    25
100
AcDbLine
 10
560.5162051192192
 20
1125.561150996324
 30
0.0
 11
360.5162051192192
 21
1125.561150996324
 31
0.0
  0
LINE
  5
21B
330
1F
100
AcDbEntity
  8
0
  6
Continuous
 62
     7
370
    25
100
AcDbLine
 10
560.5162051192192
 20
1135.561150996324
 30
0.0
 11
360.5162051192192
 21
1135.561150996324
 31
0.0
  0
LINE
  5
21C
330
1F
100
AcDbEntity
  8
0
  6
Continuous
 62
     7
370
    25
100
AcDbLine
 10
365.0162051192192
 20
1143.411150996324
 30
0.0
 11
556.0162051192192
 21
1143.411150996324
 31
0.0
  0
LINE
  5
21D
330
1F
100
AcDbEntity
  8
0
  6
Continuous
 62
     7
370
    25
100
AcDbLine
 10
556.0162051192192
 20
1164.561150996324
 30
0.0
 11
365.0162051192192
 21
1164.561150996324
 31
0.0
  0
LINE
  5
21E
330
1F
100
AcDbEntity
  8
0
  6
Continuous
 62
     7
370
    25
100
AcDbLine
 10
366.0162051192192
 20
1165.561150996324
 30
0.0
 11
555.0162051192192
 21
1165.561150996324
 31
0.0
  0
LINE
  5
21F
330
1F
100
AcDbEntity
  8
0
  6
Continuous
 62
     7
370
    25
100
AcDbLine
 10
401.8930363418191
 20
1160.561150996324
 30
0.0
 11
365.0162051192192
 21
1160.561150996324
 31
0.0
  0
LINE
  5
220
330
1F
100
AcDbEntity
  8
0
  6
Continuous
 62
     7
370
    25
100
AcDbLine
 10
556.0162051192192
 20
1160.561150996324
 30
0.0
 11
401.8930363418191
 21
1160.561150996324
 31
0.0
  0
LINE
  5
221
330
1F
100
AcDbEntity
  8
0
  6
Continuous
 62
     7
370
    25
100
AcDbLine
 10
365.0162051192192
 20
1155.061150996324
 30
0.0
 11
556.0162051192192
 21
1155.061150996324
 31
0.0
  0
LINE
  5
222
330
1F
100
AcDbEntity
  8
0
  6
Continuous
 62
     7
370
    25
100
AcDbLine
 10
401.8930363418191
 20
1145.711150996324
 30
0.0
 11
365.0162051192192
 21
1145.711150996324
 31
0.0
  0
LINE
  5
223
330
1F
100
AcDbEntity
  8
0
  6
Continuous
 62
     7
370
    25
100
AcDbLine
 10
556.0162051192192
 20
1145.711150996324
 30
0.0
 11
401.8930363418191
 21
1145.711150996324
 31
0.0
  0
LINE
  5
224
330
1F
100
AcDbEntity
  8
0
  6
Continuous
 62
     7
370
    25
100
AcDbLine
 10
399.1306880750192
 20
1121.061150996324
 30
0.0
 11
560.5162051192192
 21
1121.061150996324
 31
0.0
  0
LINE
  5
225
330
1F
100
AcDbEntity
  8
0
  6
Continuous
 62
     7
370
    25
100
AcDbLine
 10
360.5162051192192
 20
1121.061150996324
 30
0.0
 11
399.1306880750192
 21
1121.061150996324
 31
0.0
  0
LINE
  5
226
330
1F
100
AcDbEntity
  8
0
  6
Continuous
 62
     7
370
    25
100
AcDbLine
 10
560.5162051192192
 20
1117.561150993124
 30
0.0
 11
360.5162051192192
 21
1117.561150993124
 31
0.0
  0
LINE
  5
227
330
1F
100
AcDbEntity
  8
0
  6
Continuous
 62
     7
370
    25
100
AcDbLine
 10
414.4806572245192
 20
970.5611509931241
 30
0.0
 11
560.5162051192192
 21
970.5611509931241
 31
0.0
  0
LINE
  5
228
330
1F
100
AcDbEntity
  8
0
  6
Continuous
 62
     7
370
    25
100
AcDbLine
 10
360.5162051192192
 20
970.5611509931241
 30
0.0
 11
414.4806572245192
 21
970.5611509931241
 31
0.0
  0
LINE
  5
229
330
1F
100
AcDbEntity
  8
0
  6
Continuous
 62
     7
370
    25
100
AcDbLine
 10
521.5942179304192
 20
1137.561150996324
 30
0.0
 11
557.5162051192192
 21
1137.561150996324
 31
0.0
  0
LINE
  5
22A
330
1F
100
AcDbEntity
  8
0
  6
Continuous
 62
     7
370
    25
100
AcDbLine
 10
363.5162051192192
 20
1137.561150996324
 30
0.0
 11
521.5942179304192
 21
1137.561150996324
 31
0.0
  0
LINE
  5
22B
330
1F
100
AcDbEntity
  8
0
  6
Continuous
 62
     7
370
    25
100
AcDbLine
 10
520.6110068396191
 20
1138.711150996324
 30
0.0
 11
555.9547352642192
 21
1138.711150996324
 31
0.0
  0
LINE
  5
22C
330
1F
100
AcDbEntity
  8
0
  6
Continuous
 62
     7
370
    25
100
AcDbLine
 10
365.0776749742191
 20
1138.711150996324
 30
0.0
 11
520.6110068396191
 21
1138.711150996324
 31
0.0
  0
LINE
  5
22D
330
1F
100
AcDbEntity
  8
0
  6
Continuous
 62
     7
370
    25
100
AcDbLine
 10
520.6044132831191
 20
1139.311059613424
 30
0.0
 11
555.9442638203192
 21
1139.311059613424
 31
0.0
  0
LINE
  5
22E
330
1F
100
AcDbEntity
  8
0
  6
Continuous
 62
     7
370
    25
100
AcDbLine
 10
365.0881464181191
 20
1139.311059613424
 30
0.0
 11
520.6044132831191
 21
1139.311059613424
 31
0.0
  0
LINE
  5
22F
330
1F
100
AcDbEntity
  8
0
  6
Continuous
 62
     7
370
    25
100
AcDbLine
 10
520.5978197265191
 20
1139.910968230524
 30
0.0
 11
555.9337923765191
 21
1139.910968230524
 31
0.0
  0
LINE
  5
230
330
1F
100
AcDbEntity
  8
0
  6
Continuous
 62
     7
370
    25
100
AcDbLine
 10
365.0986178619191
 20
1139.910968230524
 30
0.0
 11
520.5978197265191
 21
1139.910968230524
 31
0.0
  0
LINE
  5
231
330
1F
100
AcDbEntity
  8
0
  6
Continuous
 62
     7
370
    25
100
AcDbLine
 10
520.5912261700191
 20
1140.510876847624
 30
0.0
 11
555.9233209326192
 21
1140.510876847624
 31
0.0
  0
LINE
  5
232
330
1F
100
AcDbEntity
  8
0
  6
Continuous
 62
     7
370
    25
100
AcDbLine
 10
365.1090893058191
 20
1140.510876847624
 30
0.0
 11
520.5912261700191
 21
1140.510876847624
 31
0.0
  0
LINE
  5
233
330
1F
100
AcDbEntity
  8
0
  6
Continuous
 62
     7
370
    25
100
AcDbLine
 10
520.5846326135191
 20
1141.110785464724
 30
0.0
 11
555.9128494888191
 21
1141.110785464724
 31
0.0
  0
LINE
  5
234
330
1F
100
AcDbEntity
  8
0
  6
Continuous
 62
     7
370
    25
100
AcDbLine
 10
365.1195607496192
 20
1141.110785464724
 30
0.0
 11
520.5846326135191
 21
1141.110785464724
 31
0.0
  0
LINE
  5
235
330
1F
100
AcDbEntity
  8
0
  6
Continuous
 62
     7
370
    25
100
AcDbLine
 10
520.5780390570192
 20
1141.710694081824
 30
0.0
 11
555.9023780449191
 21
1141.710694081824
 31
0.0
  0
LINE
  5
236
330
1F
100
AcDbEntity
  8
0
  6
Continuous
 62
     7
370
    25
100
AcDbLine
 10
365.1300321935191
 20
1141.710694081824
 30
0.0
 11
520.5780390570192
 21
1141.710694081824
 31
0.0
  0
LINE
  5
237
330
1F
100
AcDbEntity
  8
0
  6
Continuous
 62
     7
370
    25
100
AcDbLine
 10
520.5714455005192
 20
1142.310602698924
 30
0.0
 11
555.8919066010192
 21
1142.310602698924
 31
0.0
  0
LINE
  5
238
330
1F
100
AcDbEntity
  8
0
  6
Continuous
 62
     7
370
    25
100
AcDbLine
 10
365.1405036374191
 20
1142.310602698924
 30
0.0
 11
520.5714455005192
 21
1142.310602698924
 31
0.0
  0
LINE
  5
239
330
1F
100
AcDbEntity
  8
0
  6
Continuous
 62
     7
370
    25
100
AcDbLine
 10
365.1509750812191
 20
1142.910511315924
 30
0.0
 11
520.5648519439192
 21
1142.910511315924
 31
0.0
  0
LINE
  5
23A
330
1F
100
AcDbEntity
  8
0
  6
Continuous
 62
     7
370
    25
100
AcDbLine
 10
520.5582583874192
 20
1143.510419933024
 30
0.0
 11
555.8709637133192
 21
1143.510419933024
 31
0.0
  0
LINE
  5
23B
330
1F
100
AcDbEntity
  8
0
  6
Continuous
 62
     7
370
    25
100
AcDbLine
 10
365.1614465251191
 20
1143.510419933024
 30
0.0
 11
520.5582583874192
 21
1143.510419933024
 31
0.0
  0
LINE
  5
23C
330
1F
100
AcDbEntity
  8
0
  6
Continuous
 62
     7
370
    25
100
AcDbLine
 10
520.5516648309191
 20
1144.110328550124
 30
0.0
 11
555.8604922694192
 21
1144.110328550124
 31
0.0
  0
LINE
  5
23D
330
1F
100
AcDbEntity
  8
0
  6
Continuous
 62
     7
370
    25
100
AcDbLine
 10
365.1719179690191
 20
1144.110328550124
 30
0.0
 11
520.5516648309191
 21
1144.110328550124
 31
0.0
  0
LINE
  5
23E
330
1F
100
AcDbEntity
  8
0
  6
Continuous
 62
     7
370
    25
100
AcDbLine
 10
520.2683913437191
 20
1143.610328550124
 30
0.0
 11
555.4106163322191
 21
1143.610328550124
 31
0.0
  0
LINE
  5
23F
330
1F
100
AcDbEntity
  8
0
  6
Continuous
 62
     7
370
    25
100
AcDbLine
 10
365.6217939062192
 20
1143.610328550124
 30
0.0
 11
520.2683913437191
 21
1143.610328550124
 31
0.0
  0
LINE
  5
240
330
1F
100
AcDbEntity
  8
0
  6
Continuous
 62
     7
370
    25
100
AcDbLine
 10
520.5450712744191
 20
1144.710237167224
 30
0.0
 11
555.8500208256191
 21
1144.710237167224
 31
0.0
  0
LINE
  5
241
330
1F
100
AcDbEntity
  8
0
  6
Continuous
 62
     7
370
    25
100
AcDbLine
 10
365.1823894128191
 20
1144.710237167224
 30
0.0
 11
520.5450712744191
 21
1144.710237167224
 31
0.0
  0
LINE
  5
242
330
1F
100
AcDbEntity
  8
0
  6
Continuous
 62
     7
370
    25
100
AcDbLine
 10
520.2617977872192
 20
1144.210237167224
 30
0.0
 11
555.4001448884192
 21
1144.210237167224
 31
0.0
  0
LINE
  5
243
330
1F
100
AcDbEntity
  8
0
  6
Continuous
 62
     7
370
    25
100
AcDbLine
 10
365.6322653500191
 20
1144.210237167224
 30
0.0
 11
520.2617977872192
 21
1144.210237167224
 31
0.0
  0
LINE
  5
244
330
1F
100
AcDbEntity
  8
0
  6
Continuous
 62
     7
370
    25
100
AcDbLine
 10
520.5384777179191
 20
1145.310145784324
 30
0.0
 11
555.8395493817192
 21
1145.310145784324
 31
0.0
  0
LINE
  5
245
330
1F
100
AcDbEntity
  8
0
  6
Continuous
 62
     7
370
    25
100
AcDbLine
 10
365.1928608567191
 20
1145.310145784324
 30
0.0
 11
520.5384777179191
 21
1145.310145784324
 31
0.0
  0
LINE
  5
246
330
1F
100
AcDbEntity
  8
0
  6
Continuous
 62
     7
370
    25
100
AcDbLine
 10
520.2552042307192
 20
1144.810145784324
 30
0.0
 11
555.3896734445192
 21
1144.810145784324
 31
0.0
  0
LINE
  5
247
330
1F
100
AcDbEntity
  8
0
  6
Continuous
 62
     7
370
    25
100
AcDbLine
 10
365.6427367939191
 20
1144.810145784324
 30
0.0
 11
520.2552042307192
 21
1144.810145784324
 31
0.0
  0
LINE
  5
248
330
1F
100
AcDbEntity
  8
0
  6
Continuous
 62
     7
370
    25
100
AcDbLine
 10
520.2469499813192
 20
1145.561150996324
 30
0.0
 11
555.3765645998192
 21
1145.561150996324
 31
0.0
  0
LINE
  5
249
330
1F
100
AcDbEntity
  8
0
  6
Continuous
 62
     7
370
    25
100
AcDbLine
 10
365.6558456386191
 20
1145.561150996324
 30
0.0
 11
520.2469499813192
 21
1145.561150996324
 31
0.0
  0
LINE
  5
24A
330
1F
100
AcDbEntity
  8
0
  6
Continuous
 62
     7
370
    25
100
AcDbLine
 10
557.5162051192192
 20
1434.678925391024
 30
0.0
 11
363.5162051192192
 21
1434.678925391024
 31
0.0
  0
LINE
  5
24B
330
1F
100
AcDbEntity
  8
0
  6
Continuous
 62
     7
370
    25
100
AcDbLine
 10
555.9547352642192
 20
1433.528925391024
 30
0.0
 11
365.0776749742191
 21
1433.528925391024
 31
0.0
  0
LINE
  5
24C
330
1F
100
AcDbEntity
  8
0
  6
Continuous
 62
     7
370
    25
100
AcDbLine
 10
555.9442638203192
 20
1432.929016773924
 30
0.0
 11
365.0881464181191
 21
1432.929016773924
 31
0.0
  0
LINE
  5
24D
330
1F
100
AcDbEntity
  8
0
  6
Continuous
 62
     7
370
    25
100
AcDbLine
 10
555.9337923765191
 20
1432.329108156824
 30
0.0
 11
365.0986178619191
 21
1432.329108156824
 31
0.0
  0
LINE
  5
24E
330
1F
100
AcDbEntity
  8
0
  6
Continuous
 62
     7
370
    25
100
AcDbLine
 10
555.9233209326192
 20
1431.729199539724
 30
0.0
 11
365.1090893058191
 21
1431.729199539724
 31
0.0
  0
LINE
  5
24F
330
1F
100
AcDbEntity
  8
0
  6
Continuous
 62
     7
370
    25
100
AcDbLine
 10
555.9128494888191
 20
1431.129290922624
 30
0.0
 11
365.1195607496192
 21
1431.129290922624
 31
0.0
  0
LINE
  5
250
330
1F
100
AcDbEntity
  8
0
  6
Continuous
 62
     7
370
    25
100
AcDbLine
 10
555.9023780449191
 20
1430.529382305524
 30
0.0
 11
365.1300321935191
 21
1430.529382305524
 31
0.0
  0
LINE
  5
251
330
1F
100
AcDbEntity
  8
0
  6
Continuous
 62
     7
370
    25
100
AcDbLine
 10
555.8919066010192
 20
1429.929473688424
 30
0.0
 11
365.1405036374191
 21
1429.929473688424
 31
0.0
  0
LINE
  5
252
330
1F
100
AcDbEntity
  8
0
  6
Continuous
 62
     7
370
    25
100
AcDbLine
 10
555.8814351572191
 20
1429.329565071424
 30
0.0
 11
365.1509750812191
 21
1429.329565071424
 31
0.0
  0
LINE
  5
253
330
1F
100
AcDbEntity
  8
0
  6
Continuous
 62
     7
370
    25
100
AcDbLine
 10
555.8709637133192
 20
1428.729656454324
 30
0.0
 11
365.1614465251191
 21
1428.729656454324
 31
0.0
  0
LINE
  5
254
330
1F
100
AcDbEntity
  8
0
  6
Continuous
 62
     7
370
    25
100
AcDbLine
 10
555.8604922694192
 20
1428.129747837224
 30
0.0
 11
365.1719179690191
 21
1428.129747837224
 31
0.0
  0
LINE
  5
255
330
1F
100
AcDbEntity
  8
0
  6
Continuous
 62
     7
370
    25
100
AcDbLine
 10
555.4106163322191
 20
1428.629747837224
 30
0.0
 11
365.6217939062192
 21
1428.629747837224
 31
0.0
  0
LINE
  5
256
330
1F
100
AcDbEntity
  8
0
  6
Continuous
 62
     7
370
    25
100
AcDbLine
 10
555.8500208256191
 20
1427.529839220124
 30
0.0
 11
365.1823894128191
 21
1427.529839220124
 31
0.0
  0
LINE
  5
257
330
1F
100
AcDbEntity
  8
0
  6
Continuous
 62
     7
370
    25
100
AcDbLine
 10
555.4001448884192
 20
1428.029839220124
 30
0.0
 11
365.6322653500191
 21
1428.029839220124
 31
0.0
  0
LINE
  5
258
330
1F
100
AcDbEntity
  8
0
  6
Continuous
 62
     7
370
    25
100
AcDbLine
 10
555.8395493817192
 20
1426.929930603024
 30
0.0
 11
365.1928608567191
 21
1426.929930603024
 31
0.0
  0
LINE
  5
259
330
1F
100
AcDbEntity
  8
0
  6
Continuous
 62
     7
370
    25
100
AcDbLine
 10
555.3896734445192
 20
1427.429930603024
 30
0.0
 11
365.6427367939191
 21
1427.429930603024
 31
0.0
  0
LINE
  5
25A
330
1F
100
AcDbEntity
  8
0
  6
Continuous
 62
     7
370
    25
100
AcDbLine
 10
555.3765645998192
 20
1426.678925391024
 30
0.0
 11
365.6558456386191
 21
1426.678925391024
 31
0.0
  0
LINE
  5
25B
330
1F
100
AcDbEntity
  8
0
  6
Continuous
 62
     7
370
    25
100
AcDbLine
 10
427.2906970099191
 20
1169.561150996324
 30
0.0
 11
438.4824066330192
 21
1169.561150996324
 31
0.0
  0
LINE
  5
25C
330
1F
100
AcDbEntity
  8
0
  6
Continuous
 62
     7
370
    25
100
AcDbLine
 10
438.8865518214192
 20
1168.861150996324
 30
0.0
 11
426.8865518214192
 21
1168.861150996324
 31
0.0
  0
LINE
  5
25D
330
1F
100
AcDbEntity
  8
0
  6
Continuous
 62
     8
370
    25
100
AcDbLine
 10
560.5162051192192
 20
935.5611509931241
 30
0.0
 11
360.5162051192192
 21
935.5611509931241
 31
0.0
  0
LINE
  5
25E
330
1F
100
AcDbEntity
  8
0
  6
Continuous
 62
     8
370
    25
100
AcDbLine
 10
497.5162051192192
 20
929.5611509931241
 30
0.0
 11
423.5162051192192
 21
929.5611509931241
 31
0.0
  0
LINE
  5
25F
330
1F
100
AcDbEntity
  8
0
  6
Continuous
 62
     8
370
    25
100
AcDbLine
 10
757.6412177801192
 20
1485.887421173424
 30
0.0
 11
759.0825769690191
 21
1485.887421173424
 31
0.0
  0
LINE
  5
260
330
1F
100
AcDbEntity
  8
0
  6
Continuous
 62
     8
370
    25
100
AcDbLine
 10
161.9498332694191
 20
1485.887421173424
 30
0.0
 11
757.6412177801192
 21
1485.887421173424
 31
0.0
  0
LINE
  5
261
330
1F
100
AcDbEntity
  8
0
  6
Continuous
 62
     8
370
    25
100
AcDbLine
 10
757.6259496522191
 20
1486.380081903624
 30
0.0
 11
759.0672347751192
 21
1486.380081903624
 31
0.0
  0
LINE
  5
262
330
1F
100
AcDbEntity
  8
0
  6
Continuous
 62
     8
370
    25
100
AcDbLine
 10
161.9651754633192
 20
1486.380081903624
 30
0.0
 11
757.6259496522191
 21
1486.380081903624
 31
0.0
  0
LINE
  5
263
330
1F
100
AcDbEntity
  8
0
  6
Continuous
 62
     8
370
    25
100
AcDbLine
 10
563.0179581509192
 20
1466.179429372724
 30
0.0
 11
563.5151961393192
 21
1466.179429372724
 31
0.0
  0
LINE
  5
264
330
1F
100
AcDbEntity
  8
0
  6
Continuous
 62
     8
370
    25
100
AcDbLine
 10
357.5172140991191
 20
1466.179429372724
 30
0.0
 11
563.0179581509192
 21
1466.179429372724
 31
0.0
  0
LINE
  5
265
330
1F
100
AcDbEntity
  8
0
  6
Continuous
 62
     8
370
    25
100
AcDbLine
 10
562.0237898604191
 20
1465.179429881124
 30
0.0
 11
358.5162051192192
 21
1465.179429881124
 31
0.0
  0
LINE
  5
266
330
1F
100
AcDbEntity
  8
0
  6
Continuous
 62
     8
370
    25
100
AcDbLine
 10
562.5162051192192
 20
1465.179429881124
 30
0.0
 11
562.0237898604191
 21
1465.179429881124
 31
0.0
  0
LINE
  5
267
330
1F
100
AcDbEntity
  8
0
  6
Continuous
 62
     8
370
    25
100
AcDbLine
 10
553.5162051192192
 20
1376.461150996224
 30
0.0
 11
367.5162051192192
 21
1376.461150996224
 31
0.0
  0
ARC
  5
268
330
1F
100
AcDbEntity
  8
0
  6
Continuous
 62
     8
370
    25
100
AcDbCircle
 10
381.3285303891191
 20
1375.245155264024
 30
0.0
 40
2.743035860884084
100
AcDbArc
 50
92.390442331001
 51
126.1123881694006
  0
LINE
  5
269
330
1F
100
AcDbEntity
  8
0
  6
Continuous
 62
     8
370
    25
100
AcDbLine
 10
438.3110297599192
 20
1337.806285411924
 30
0.0
 11
436.5769770600191
 21
1337.866821416824
 31
0.0
  0
LINE
  5
26A
330
1F
100
AcDbEntity
  8
0
  6
Continuous
 62
     8
370
    25
100
AcDbLine
 10
406.6289925892191
 20
1338.912309443724
 30
0.0
 11
404.4998238201191
 21
1338.986639001924
 31
0.0
  0
LINE
  5
26B
330
1F
100
AcDbEntity
  8
0
  6
Continuous
 62
     8
370
    25
100
AcDbLine
 10
483.1391803018191
 20
1337.007736806324
 30
0.0
 11
479.0116900773191
 21
1337.079771442424
 31
0.0
  0
LINE
  5
26C
330
1F
100
AcDbEntity
  8
0
  6
Continuous
 62
     8
370
    25
100
AcDbLine
 10
444.6981297616192
 20
1337.678625636424
 30
0.0
 11
440.3093657400192
 21
1337.755220129024
 31
0.0
  0
LINE
  5
26D
330
1F
100
AcDbEntity
  8
0
  6
Continuous
 62
     8
370
    25
100
AcDbLine
 10
519.0485188009192
 20
1336.989045615524
 30
0.0
 11
517.2909956629192
 21
1336.989045615524
 31
0.0
  0
LINE
  5
26E
330
1F
100
AcDbEntity
  8
0
  6
Continuous
 62
     8
370
    25
100
AcDbLine
 10
487.0712768289192
 20
1336.989045615524
 30
0.0
 11
485.1377988279191
 21
1336.989045615524
 31
0.0
  0
ARC
  5
26F
330
1F
100
AcDbEntity
  8
0
  6
Continuous
 62
     8
370
    25
100
AcDbCircle
 10
409.2642871727192
 20
1374.800308349124
 30
0.0
 40
4.033005631222207
100
AcDbArc
 50
77.27942833400037
 51
92.3771843291993
  0
ARC
  5
270
330
1F
100
AcDbEntity
  8
0
  6
Continuous
 62
     8
370
    25
100
AcDbCircle
 10
405.7587066308191
 20
1326.426696579324
 30
0.0
 40
52.50937091273703
100
AcDbArc
 50
86.35494387339998
 51
93.07549399419995
  0
ARC
  5
271
330
1F
100
AcDbEntity
  8
0
  6
Continuous
 62
     8
370
    25
100
AcDbCircle
 10
405.8709020132192
 20
1340.080651279024
 30
0.0
 40
40.94426108810773
100
AcDbArc
 50
84.04861572439997
 51
93.95077485519994
  0
ARC
  5
272
330
1F
100
AcDbEntity
  8
0
  6
Continuous
 62
     8
370
    25
100
AcDbCircle
 10
424.6605230778191
 20
1341.779688637324
 30
0.0
 40
38.32113620388431
100
AcDbArc
 50
86.59466545779995
 51
93.78055859859998
  0
ARC
  5
273
330
1F
100
AcDbEntity
  8
0
  6
Continuous
 62
     8
370
    25
100
AcDbCircle
 10
434.5602133555192
 20
1282.547087005724
 30
0.0
 40
97.02609755428571
100
AcDbArc
 50
87.51435989129999
 51
90.28829777899999
  0
ARC
  5
274
330
1F
100
AcDbEntity
  8
0
  6
Continuous
 62
     8
370
    25
100
AcDbCircle
 10
438.9606477868191
 20
1375.844903596924
 30
0.0
 40
3.64208259759494
100
AcDbArc
 50
76.63839897879942
 51
93.02990006860101
  0
ARC
  5
275
330
1F
100
AcDbEntity
  8
0
  6
Continuous
 62
     8
370
    25
100
AcDbCircle
 10
409.4090455091191
 20
1279.618324590824
 30
0.0
 40
99.63376779071284
100
AcDbArc
 50
87.55293266139996
 51
89.57772616400001
  0
ARC
  5
276
330
1F
100
AcDbEntity
  8
0
  6
Continuous
 62
     8
370
    25
100
AcDbCircle
 10
413.8555584908191
 20
1375.524244365324
 30
0.0
 40
3.642082597592341
100
AcDbArc
 50
76.63839897870011
 51
93.02990006859952
  0
LINE
  5
277
330
1F
100
AcDbEntity
  8
0
  6
Continuous
 62
     8
370
    25
100
AcDbLine
 10
438.3944287666192
 20
1338.803363308624
 30
0.0
 11
438.8277181348192
 21
1338.788237120524
 31
0.0
  0
LINE
  5
278
330
1F
100
AcDbEntity
  8
0
  6
Continuous
 62
     8
370
    25
100
AcDbLine
 10
438.8277181348192
 20
1338.788237120524
 30
0.0
 11
438.8457568971191
 21
1339.461150996224
 31
0.0
  0
LINE
  5
279
330
1F
100
AcDbEntity
  8
0
  6
Continuous
 62
     8
370
    25
100
AcDbLine
 10
484.6552485762192
 20
1337.988436442524
 30
0.0
 11
485.0876987397191
 21
1337.988436442524
 31
0.0
  0
LINE
  5
27A
330
1F
100
AcDbEntity
  8
0
  6
Continuous
 62
     8
370
    25
100
AcDbLine
 10
484.6671752908192
 20
1339.461150996224
 30
0.0
 11
484.6552485762192
 21
1337.988436442524
 31
0.0
  0
LINE
  5
27B
330
1F
100
AcDbEntity
  8
0
  6
Continuous
 62
     8
370
    25
100
AcDbLine
 10
440.3264701199191
 20
1338.749938158324
 30
0.0
 11
441.7440028957192
 21
1338.725198800424
 31
0.0
  0
LINE
  5
27C
330
1F
100
AcDbEntity
  8
0
  6
Continuous
 62
     8
370
    25
100
AcDbLine
 10
481.7383296362192
 20
1338.027201563124
 30
0.0
 11
483.1562846817192
 21
1338.002454835624
 31
0.0
  0
LINE
  5
27D
330
1F
100
AcDbEntity
  8
0
  6
Continuous
 62
     8
370
    25
100
AcDbLine
 10
440.3455355602191
 20
1339.461150996224
 30
0.0
 11
440.3264701199191
 21
1338.749938158324
 31
0.0
  0
LINE
  5
27E
330
1F
100
AcDbEntity
  8
0
  6
Continuous
 62
     8
370
    25
100
AcDbLine
 10
483.1562846817192
 20
1338.002454835624
 30
0.0
 11
483.1680978689192
 21
1339.461150996224
 31
0.0
  0
LINE
  5
27F
330
1F
100
AcDbEntity
  8
0
  6
Continuous
 62
     8
370
    25
100
AcDbLine
 10
545.2871879181191
 20
1338.613084838824
 30
0.0
 11
543.2020582294191
 21
1338.549709034824
 31
0.0
  0
LINE
  5
280
330
1F
100
AcDbEntity
  8
0
  6
Continuous
 62
     8
370
    25
100
AcDbLine
 10
545.8181302149192
 20
1339.461150996224
 30
0.0
 11
545.8224669877192
 21
1338.655127481024
 31
0.0
  0
ARC
  5
281
330
1F
100
AcDbEntity
  8
0
  6
Continuous
 62
     8
370
    25
100
AcDbCircle
 10
730.3354072369192
 20
1374.303703404624
 30
0.0
 40
289.1949487668492
100
AcDbArc
 50
179.2080886702
 51
179.3744288544
  0
ARC
  5
282
330
1F
100
AcDbEntity
  8
0
  6
Continuous
 62
     8
370
    25
100
AcDbCircle
 10
579.9479036308192
 20
1376.387628755324
 30
0.0
 40
96.54733265119425
100
AcDbArc
 50
179.1475604947001
 51
179.3629077114
  0
ARC
  5
283
330
1F
100
AcDbEntity
  8
0
  6
Continuous
 62
     8
370
    25
100
AcDbCircle
 10
440.0462319703191
 20
1376.882932410424
 30
0.0
 40
1.434814639915828
100
AcDbArc
 50
97.04110440270041
 51
156.2346536877945
  0
ARC
  5
284
330
1F
100
AcDbEntity
  8
0
  6
Continuous
 62
     8
370
    25
100
AcDbCircle
 10
484.6291718190191
 20
1376.690537449424
 30
0.0
 40
1.113292294526006
100
AcDbArc
 50
43.80398499070661
 51
85.8858698693974
  0
ARC
  5
285
330
1F
100
AcDbEntity
  8
0
  6
Continuous
 62
     8
370
    25
100
AcDbCircle
 10
433.2169674129192
 20
1373.770004215724
 30
0.0
 40
5.038236993600295
100
AcDbArc
 50
79.99988981690004
 51
92.06495329749997
  0
ARC
  5
286
330
1F
100
AcDbEntity
  8
0
  6
Continuous
 62
     8
370
    25
100
AcDbCircle
 10
429.8695026876192
 20
1312.994495643924
 30
0.0
 40
65.8865809318486
100
AcDbArc
 50
87.24581238379994
 51
92.6002878404
  0
ARC
  5
287
330
1F
100
AcDbEntity
  8
0
  6
Continuous
 62
     8
370
    25
100
AcDbCircle
 10
429.9306560080191
 20
1329.590431470124
 30
0.0
 40
51.37604439914939
100
AcDbArc
 50
85.40896086939999
 51
93.29692205830004
  0
ARC
  5
288
330
1F
100
AcDbEntity
  8
0
  6
Continuous
 62
     8
370
    25
100
AcDbCircle
 10
488.0148448791191
 20
1373.041091424324
 30
0.0
 40
5.038236993603637
100
AcDbArc
 50
79.9998898169004
 51
92.06495329749995
  0
ARC
  5
289
330
1F
100
AcDbEntity
  8
0
  6
Continuous
 62
     8
370
    25
100
AcDbCircle
 10
484.6673801537191
 20
1312.265582852624
 30
0.0
 40
65.88658093177676
100
AcDbArc
 50
87.2458123838
 51
92.60028784039996
  0
ARC
  5
28A
330
1F
100
AcDbEntity
  8
0
  6
Continuous
 62
     8
370
    25
100
AcDbCircle
 10
484.7285334742191
 20
1328.861518678824
 30
0.0
 40
51.37604439911205
100
AcDbArc
 50
85.40896086939996
 51
93.29692205830003
  0
ARC
  5
28B
330
1F
100
AcDbEntity
  8
0
  6
Continuous
 62
     8
370
    25
100
AcDbCircle
 10
449.0237934412191
 20
1328.915706588724
 30
0.0
 40
51.37604439911647
100
AcDbArc
 50
85.40896086939999
 51
93.29692205829998
  0
ARC
  5
28C
330
1F
100
AcDbEntity
  8
0
  6
Continuous
 62
     8
370
    25
100
AcDbCircle
 10
513.0146630049192
 20
1327.861926261824
 30
0.0
 40
51.37604439911717
100
AcDbArc
 50
85.40896086940005
 51
93.29692205829994
  0
ARC
  5
28D
330
1F
100
AcDbEntity
  8
0
  6
Continuous
 62
     8
370
    25
100
AcDbCircle
 10
545.8336266753191
 20
1339.654964031424
 30
0.0
 40
0.9998988279508212
100
AcDbArc
 50
191.1765380668067
 51
269.3605190293006
  0
ARC
  5
28E
330
1F
100
AcDbEntity
  8
0
  6
Continuous
 62
     8
370
    25
100
AcDbCircle
 10
489.0457501822192
 20
1341.894805268424
 30
0.0
 40
36.97823770994062
100
AcDbArc
 50
85.37178493369993
 51
90.27358172950004
  0
ARC
  5
28F
330
1F
100
AcDbEntity
  8
0
  6
Continuous
 62
     8
370
    25
100
AcDbCircle
 10
498.5043883166192
 20
1317.587533059324
 30
0.0
 40
60.94059444900817
100
AcDbArc
 50
87.08681288439999
 51
92.76008031210004
  0
ARC
  5
290
330
1F
100
AcDbEntity
  8
0
  6
Continuous
 62
     8
370
    25
100
AcDbCircle
 10
501.8074506847191
 20
1373.915789609424
 30
0.0
 40
4.538256339299432
100
AcDbArc
 50
79.4700530268006
 51
92.60027423980037
  0
ARC
  5
291
330
1F
100
AcDbEntity
  8
0
  6
Continuous
 62
     8
370
    25
100
AcDbCircle
 10
545.3687374411192
 20
1339.531246152324
 30
0.0
 40
0.9217757440429636
100
AcDbArc
 50
191.5252706523114
 51
264.924405153903
  0
ARC
  5
292
330
1F
100
AcDbEntity
  8
0
  6
Continuous
 62
     8
370
    25
100
AcDbCircle
 10
516.7647239049192
 20
1252.594029572524
 30
0.0
 40
125.2422931312085
100
AcDbArc
 50
88.2018225135
 51
89.82090986559999
  0
ARC
  5
293
330
1F
100
AcDbEntity
  8
0
  6
Continuous
 62
     8
370
    25
100
AcDbCircle
 10
520.9005881178191
 20
1373.241064727924
 30
0.0
 40
4.538256339334321
100
AcDbArc
 50
79.4700530268999
 51
92.6002742396999
  0
LINE
  5
294
330
1F
100
AcDbEntity
  8
0
  6
Continuous
 62
     8
370
    25
100
AcDbLine
 10
483.1391803018191
 20
1407.007736806324
 30
0.0
 11
479.0116900773191
 21
1407.079771442424
 31
0.0
  0
LINE
  5
295
330
1F
100
AcDbEntity
  8
0
  6
Continuous
 62
     8
370
    25
100
AcDbLine
 10
519.0485188009192
 20
1406.989045615524
 30
0.0
 11
517.2909956629192
 21
1406.989045615524
 31
0.0
  0
LINE
  5
296
330
1F
100
AcDbEntity
  8
0
  6
Continuous
 62
     8
370
    25
100
AcDbLine
 10
487.0712768289192
 20
1406.989045615524
 30
0.0
 11
485.1377988279191
 21
1406.989045615524
 31
0.0
  0
LWPOLYLINE
  5
297
330
1F
100
AcDbEntity
  8
0
  6
Continuous
 62
     8
370
    25
100
AcDbPolyline
 90
        8
 70
   128
 43
0.0
 10
485.1377988279191
 20
1406.989045615524
 10
485.0427730490192
 20
1407.014066377724
 10
484.9518802547192
 20
1407.074890984824
 10
484.8684603580191
 20
1407.169284398224
 10
484.7955786760191
 20
1407.293778072024
 10
484.7359132922192
 20
1407.443797407524
 10
484.6916566489191
 20
1407.613829849124
 10
484.6798006535191
 20
1407.678925391024
  0
LWPOLYLINE
  5
298
330
1F
100
AcDbEntity
  8
0
  6
Continuous
 62
     8
370
    25
100
AcDbPolyline
 90
        8
 70
   128
 43
0.0
 10
483.1391803018191
 20
1407.007736806324
 10
483.1395512344192
 20
1407.031865413224
 10
483.1405497388191
 20
1407.091830647824
 10
483.1421391245192
 20
1407.185429049724
 10
483.1442609884191
 20
1407.309221286224
 10
483.1468373613192
 20
1407.458658533324
 10
483.1497735728192
 20
1407.628249624724
 10
483.1506529301191
 20
1407.678925391024
  0
LINE
  5
299
330
1F
100
AcDbEntity
  8
0
  6
Continuous
 62
     8
370
    25
100
AcDbLine
 10
520.6287721216191
 20
1138.670953389924
 30
0.0
 11
555.9829488925192
 21
1138.670953389924
 31
0.0
  0
LINE
  5
29A
330
1F
100
AcDbEntity
  8
0
  6
Continuous
 62
     8
370
    25
100
AcDbLine
 10
365.0494613459191
 20
1138.670953389924
 30
0.0
 11
520.6287721216191
 21
1138.670953389924
 31
0.0
  0
LINE
  5
29B
330
1F
100
AcDbEntity
  8
0
  6
Continuous
 62
     8
370
    25
100
AcDbLine
 10
520.6221785650191
 20
1139.270862007024
 30
0.0
 11
555.9724774487191
 21
1139.270862007024
 31
0.0
  0
LINE
  5
29C
330
1F
100
AcDbEntity
  8
0
  6
Continuous
 62
     8
370
    25
100
AcDbLine
 10
365.0599327897191
 20
1139.270862007024
 30
0.0
 11
520.6221785650191
 21
1139.270862007024
 31
0.0
  0
LINE
  5
29D
330
1F
100
AcDbEntity
  8
0
  6
Continuous
 62
     8
370
    25
100
AcDbLine
 10
520.6155850085191
 20
1139.870770624124
 30
0.0
 11
555.9620060048192
 21
1139.870770624124
 31
0.0
  0
LINE
  5
29E
330
1F
100
AcDbEntity
  8
0
  6
Continuous
 62
     8
370
    25
100
AcDbLine
 10
365.0704042336191
 20
1139.870770624124
 30
0.0
 11
520.6155850085191
 21
1139.870770624124
 31
0.0
  0
LINE
  5
29F
330
1F
100
AcDbEntity
  8
0
  6
Continuous
 62
     8
370
    25
100
AcDbLine
 10
520.6089914520192
 20
1140.470679241224
 30
0.0
 11
555.9515345609192
 21
1140.470679241224
 31
0.0
  0
LINE
  5
2A0
330
1F
100
AcDbEntity
  8
0
  6
Continuous
 62
     8
370
    25
100
AcDbLine
 10
365.0808756775191
 20
1140.470679241224
 30
0.0
 11
520.6089914520192
 21
1140.470679241224
 31
0.0
  0
LINE
  5
2A1
330
1F
100
AcDbEntity
  8
0
  6
Continuous
 62
     8
370
    25
100
AcDbLine
 10
520.6023978955192
 20
1141.070587858324
 30
0.0
 11
555.9410631171191
 21
1141.070587858324
 31
0.0
  0
LINE
  5
2A2
330
1F
100
AcDbEntity
  8
0
  6
Continuous
 62
     8
370
    25
100
AcDbLine
 10
365.0913471213191
 20
1141.070587858324
 30
0.0
 11
520.6023978955192
 21
1141.070587858324
 31
0.0
  0
LINE
  5
2A3
330
1F
100
AcDbEntity
  8
0
  6
Continuous
 62
     8
370
    25
100
AcDbLine
 10
520.5958043390192
 20
1141.670496475424
 30
0.0
 11
555.9305916732192
 21
1141.670496475424
 31
0.0
  0
LINE
  5
2A4
330
1F
100
AcDbEntity
  8
0
  6
Continuous
 62
     8
370
    25
100
AcDbLine
 10
365.1018185652191
 20
1141.670496475424
 30
0.0
 11
520.5958043390192
 21
1141.670496475424
 31
0.0
  0
LINE
  5
2A5
330
1F
100
AcDbEntity
  8
0
  6
Continuous
 62
     8
370
    25
100
AcDbLine
 10
520.5892107824192
 20
1142.270405092424
 30
0.0
 11
555.9201202294191
 21
1142.270405092424
 31
0.0
  0
LINE
  5
2A6
330
1F
100
AcDbEntity
  8
0
  6
Continuous
 62
     8
370
    25
100
AcDbLine
 10
365.1122900090191
 20
1142.270405092424
 30
0.0
 11
520.5892107824192
 21
1142.270405092424
 31
0.0
  0
LINE
  5
2A7
330
1F
100
AcDbEntity
  8
0
  6
Continuous
 62
     8
370
    25
100
AcDbLine
 10
520.5826172259192
 20
1142.870313709524
 30
0.0
 11
555.9096487855192
 21
1142.870313709524
 31
0.0
  0
LINE
  5
2A8
330
1F
100
AcDbEntity
  8
0
  6
Continuous
 62
     8
370
    25
100
AcDbLine
 10
365.1227614529191
 20
1142.870313709524
 30
0.0
 11
520.5826172259192
 21
1142.870313709524
 31
0.0
  0
LINE
  5
2A9
330
1F
100
AcDbEntity
  8
0
  6
Continuous
 62
     8
370
    25
100
AcDbLine
 10
520.5760236694191
 20
1143.470222326624
 30
0.0
 11
555.8991773416192
 21
1143.470222326624
 31
0.0
  0
LINE
  5
2AA
330
1F
100
AcDbEntity
  8
0
  6
Continuous
 62
     8
370
    25
100
AcDbLine
 10
365.1332328968191
 20
1143.470222326624
 30
0.0
 11
520.5760236694191
 21
1143.470222326624
 31
0.0
  0
LINE
  5
2AB
330
1F
100
AcDbEntity
  8
0
  6
Continuous
 62
     8
370
    25
100
AcDbLine
 10
520.5694301129191
 20
1144.070130943724
 30
0.0
 11
555.8887058978191
 21
1144.070130943724
 31
0.0
  0
LINE
  5
2AC
330
1F
100
AcDbEntity
  8
0
  6
Continuous
 62
     8
370
    25
100
AcDbLine
 10
365.1437043406191
 20
1144.070130943724
 30
0.0
 11
520.5694301129191
 21
1144.070130943724
 31
0.0
  0
LINE
  5
2AD
330
1F
100
AcDbEntity
  8
0
  6
Continuous
 62
     8
370
    25
100
AcDbLine
 10
520.5628365564191
 20
1144.670039560824
 30
0.0
 11
555.8782344539192
 21
1144.670039560824
 31
0.0
  0
LINE
  5
2AE
330
1F
100
AcDbEntity
  8
0
  6
Continuous
 62
     8
370
    25
100
AcDbLine
 10
365.1541757845191
 20
1144.670039560824
 30
0.0
 11
520.5628365564191
 21
1144.670039560824
 31
0.0
  0
LINE
  5
2AF
330
1F
100
AcDbEntity
  8
0
  6
Continuous
 62
     8
370
    25
100
AcDbLine
 10
520.5562429998191
 20
1145.269948177924
 30
0.0
 11
555.8677630100192
 21
1145.269948177924
 31
0.0
  0
LINE
  5
2B0
330
1F
100
AcDbEntity
  8
0
  6
Continuous
 62
     8
370
    25
100
AcDbLine
 10
365.1646472284191
 20
1145.269948177924
 30
0.0
 11
520.5562429998191
 21
1145.269948177924
 31
0.0
  0
LINE
  5
2B1
330
1F
100
AcDbEntity
  8
0
  6
Continuous
 62
     8
370
    25
100
AcDbLine
 10
555.9829488925192
 20
1433.569122997424
 30
0.0
 11
365.0494613459191
 21
1433.569122997424
 31
0.0
  0
LINE
  5
2B2
330
1F
100
AcDbEntity
  8
0
  6
Continuous
 62
     8
370
    25
100
AcDbLine
 10
555.9724774487191
 20
1432.969214380324
 30
0.0
 11
365.0599327897191
 21
1432.969214380324
 31
0.0
  0
LINE
  5
2B3
330
1F
100
AcDbEntity
  8
0
  6
Continuous
 62
     8
370
    25
100
AcDbLine
 10
555.9620060048192
 20
1432.369305763224
 30
0.0
 11
365.0704042336191
 21
1432.369305763224
 31
0.0
  0
LINE
  5
2B4
330
1F
100
AcDbEntity
  8
0
  6
Continuous
 62
     8
370
    25
100
AcDbLine
 10
555.9515345609192
 20
1431.769397146124
 30
0.0
 11
365.0808756775191
 21
1431.769397146124
 31
0.0
  0
LINE
  5
2B5
330
1F
100
AcDbEntity
  8
0
  6
Continuous
 62
     8
370
    25
100
AcDbLine
 10
555.9410631171191
 20
1431.169488529024
 30
0.0
 11
365.0913471213191
 21
1431.169488529024
 31
0.0
  0
LINE
  5
2B6
330
1F
100
AcDbEntity
  8
0
  6
Continuous
 62
     8
370
    25
100
AcDbLine
 10
555.9305916732192
 20
1430.569579911924
 30
0.0
 11
365.1018185652191
 21
1430.569579911924
 31
0.0
  0
LINE
  5
2B7
330
1F
100
AcDbEntity
  8
0
  6
Continuous
 62
     8
370
    25
100
AcDbLine
 10
555.9201202294191
 20
1429.969671294924
 30
0.0
 11
365.1122900090191
 21
1429.969671294924
 31
0.0
  0
LINE
  5
2B8
330
1F
100
AcDbEntity
  8
0
  6
Continuous
 62
     8
370
    25
100
AcDbLine
 10
555.9096487855192
 20
1429.369762677824
 30
0.0
 11
365.1227614529191
 21
1429.369762677824
 31
0.0
  0
LINE
  5
2B9
330
1F
100
AcDbEntity
  8
0
  6
Continuous
 62
     8
370
    25
100
AcDbLine
 10
555.8991773416192
 20
1428.769854060724
 30
0.0
 11
365.1332328968191
 21
1428.769854060724
 31
0.0
  0
LINE
  5
2BA
330
1F
100
AcDbEntity
  8
0
  6
Continuous
 62
     8
370
    25
100
AcDbLine
 10
555.8887058978191
 20
1428.169945443624
 30
0.0
 11
365.1437043406191
 21
1428.169945443624
 31
0.0
  0
LINE
  5
2BB
330
1F
100
AcDbEntity
  8
0
  6
Continuous
 62
     8
370
    25
100
AcDbLine
 10
555.8782344539192
 20
1427.570036826524
 30
0.0
 11
365.1541757845191
 21
1427.570036826524
 31
0.0
  0
LINE
  5
2BC
330
1F
100
AcDbEntity
  8
0
  6
Continuous
 62
     8
370
    25
100
AcDbLine
 10
555.8677630100192
 20
1426.970128209424
 30
0.0
 11
365.1646472284191
 21
1426.970128209424
 31
0.0
  0
LINE
  5
2BD
330
1F
100
AcDbEntity
  8
FORMAT
370
    25
100
AcDbLine
 10
360.5162051192192
 20
1135.561150996324
 30
0.0
 11
360.5162051192192
 21
1436.178925391024
 31
0.0
  0
LINE
  5
2BE
330
1F
100
AcDbEntity
  8
FORMAT
370
    25
100
AcDbLine
 10
560.5162051192192
 20
1135.561150996324
 30
0.0
 11
560.5162051192192
 21
1436.178925391024
 31
0.0
  0
CIRCLE
  5
2BF
330
1F
100
AcDbEntity
  8
0
  6
Continuous
 62
     7
370
    25
100
AcDbCircle
 10
460.5162051192192
 20
421.8782726404241
 30
0.0
 40
298.766738890511
  0
CIRCLE
  5
2C0
330
1F
100
AcDbEntity
  8
0
  6
Continuous
 62
     7
370
    25
100
AcDbCircle
 10
460.5162051192192
 20
421.8782726404241
 30
0.0
 40
298.55102965586
  0
ENDSEC
  0
SECTION
  2
OBJECTS
  0
DICTIONARY
  5
C
330
0
100
AcDbDictionary
281
     1
  3
ACAD_GROUP
350
D
  3
ACAD_LAYOUT
350
1A
  3
ACAD_MLINESTYLE
350
17
  3
ACAD_PLOTSETTINGS
350
19
  3
ACAD_PLOTSTYLENAME
350
E
  3
ACAD_SCALELIST
350
47
  3
APPDATA
350
2E3
  3
DWGPROPS
350
2E6
  0
DICTIONARY
  5
2E4
330
1F
100
AcDbDictionary
280
     1
281
     1
  3
DIM_BOUNDING_BOXES_V1
360
2E5
  0
DICTIONARY
  5
D
102
{ACAD_REACTORS
330
C
102
}
330
C
100
AcDbDictionary
281
     1
  0
DICTIONARY
  5
1A
102
{ACAD_REACTORS
330
C
102
}
330
C
100
AcDbDictionary
281
     1
  3
Layout1
350
1E
  3
Layout2
350
26
  3
Model
350
22
  0
DICTIONARY
  5
17
102
{ACAD_REACTORS
330
C
102
}
330
C
100
AcDbDictionary
281
     1
  3
Standard
350
18
  0
DICTIONARY
  5
19
102
{ACAD_REACTORS
330
C
102
}
330
C
100
AcDbDictionary
281
     1
  0
ACDBDICTIONARYWDFLT
  5
E
102
{ACAD_REACTORS
330
C
102
}
330
C
100
AcDbDictionary
281
     1
  3
Normal
350
F
100
AcDbDictionaryWithDefault
340
F
  0
DICTIONARY
  5
47
102
{ACAD_REACTORS
330
C
102
}
330
C
100
AcDbDictionary
281
     1
  3
A0
350
48
  3
A1
350
49
  3
A2
350
4A
  3
A3
350
4B
  3
A4
350
4C
  3
A5
350
4D
  3
A6
350
4E
  3
A7
350
4F
  3
A8
350
50
  3
A9
350
51
  3
B0
350
52
  3
B1
350
53
  3
B2
350
54
  3
B3
350
55
  3
B4
350
56
  3
B5
350
57
  3
B6
350
58
  3
B7
350
59
  3
B8
350
5A
  3
B9
350
5B
  3
C0
350
5C
  3
C1
350
5D
  3
C2
350
5E
  3
C3
350
5F
  3
C4
350
60
  3
C5
350
61
  3
C6
350
62
  3
C7
350
63
  3
C8
350
64
  3
C9
350
65
  3
D0
350
66
  3
D1
350
67
  3
D2
350
68
  0
DICTIONARY
  5
2E3
102
{ACAD_REACTORS
330
C
102
}
330
C
100
AcDbDictionary
281
     1
  0
XRECORD
  5
2E6
102
{ACAD_REACTORS
330
C
102
}
330
C
100
AcDbXrecord
280
     1
  1
DWGPROPS COOKIE
  2

  3

  4

  6

  7

  8
eakin
  9

300
=
301
=
302
=
303
=
304
=
305
=
306
=
307
=
308
=
309
=
 40
0.0
 41
2459936.530389028
 42
2459936.531002998
  1

 90
        0
  0
DICTIONARY
  5
2E5
102
{ACAD_REACTORS
330
2E4
102
}
330
2E4
100
AcDbDictionary
281
     1
  0
LAYOUT
  5
1E
102
{ACAD_REACTORS
330
1A
102
}
330
1A
100
AcDbPlotSettings
  1

  2
none_device
  4

  6

 40
0.0
 41
0.0
 42
0.0
 43
0.0
 44
0.0
 45
0.0
 46
0.0
 47
0.0
 48
0.0
 49
0.0
140
0.0
141
0.0
142
1.0
143
1.0
 70
   688
 72
     1
 73
     0
 74
     5
  7

 75
    16
147
1.0
148
0.0
149
0.0
100
AcDbLayout
  1
Layout1
 70
     1
 71
     1
 10
0.0
 20
0.0
 11
420.0
 21
297.0
 12
0.0
 22
0.0
 32
0.0
 14
1.000000000000000E+20
 24
1.000000000000000E+20
 34
1.000000000000000E+20
 15
-1.000000000000000E+20
 25
-1.000000000000000E+20
 35
-1.000000000000000E+20
146
0.0
 13
0.0
 23
0.0
 33
0.0
 16
1.0
 26
0.0
 36
0.0
 17
0.0
 27
1.0
 37
0.0
 76
     0
330
1B
  0
LAYOUT
  5
26
102
{ACAD_REACTORS
330
1A
102
}
330
1A
100
AcDbPlotSettings
  1

  2
none_device
  4

  6

 40
0.0
 41
0.0
 42
0.0
 43
0.0
 44
0.0
 45
0.0
 46
0.0
 47
0.0
 48
0.0
 49
0.0
140
0.0
141
0.0
142
1.0
143
1.0
 70
   688
 72
     1
 73
     0
 74
     5
  7

 75
    16
147
1.0
148
0.0
149
0.0
100
AcDbLayout
  1
Layout2
 70
     1
 71
     2
 10
0.0
 20
0.0
 11
0.0
 21
0.0
 12
0.0
 22
0.0
 32
0.0
 14
0.0
 24
0.0
 34
0.0
 15
0.0
 25
0.0
 35
0.0
146
0.0
 13
0.0
 23
0.0
 33
0.0
 16
1.0
 26
0.0
 36
0.0
 17
0.0
 27
1.0
 37
0.0
 76
     0
330
23
  0
LAYOUT
  5
22
102
{ACAD_REACTORS
330
1A
102
}
330
1A
100
AcDbPlotSettings
  1

  2
none_device
  4
Letter_(8.50_x_11.00_Inches)
  6

 40
6.35
 41
6.35
 42
6.35000508
 43
6.35000508
 44
215.9
 45
279.4
 46
0.0
 47
0.0
 48
0.0
 49
0.0
140
0.0
141
0.0
142
1.0
143
1.0
 70
  1712
 72
     1
 73
     0
 74
     0
  7

 75
     0
147
1.0
148
0.0
149
0.0
100
AcDbLayout
  1
Model
 70
     1
 71
     0
 10
0.0
 20
0.0
 11
420.0
 21
297.0
 12
0.0
 22
0.0
 32
0.0
 14
161.7494662287082
 24
123.1115337499131
 34
0.0
 15
759.2829440097303
 25
1506.206828890224
 35
0.0
146
0.0
 13
0.0
 23
0.0
 33
0.0
 16
1.0
 26
0.0
 36
0.0
 17
0.0
 27
1.0
 37
0.0
 76
     0
330
1F
331
29
  0
MLINESTYLE
  5
18
102
{ACAD_REACTORS
330
17
102
}
330
17
100
AcDbMlineStyle
  2
Standard
 70
     0
  3

 62
   256
 51
90.0
 52
90.0
 71
     2
 49
0.5
 62
   256
  6
BYLAYER
 49
-0.5
 62
   256
  6
BYLAYER
  0
ACDBPLACEHOLDER
  5
F
102
{ACAD_REACTORS
330
E
102
}
330
E
  0
SCALE
  5
48
102
{ACAD_REACTORS
330
47
102
}
330
47
100
AcDbScale
 70
     0
300
1:1
140
1.0
141
1.0
290
     1
  0
SCALE
  5
49
102
{ACAD_REACTORS
330
47
102
}
330
47
100
AcDbScale
 70
     0
300
1:2
140
1.0
141
2.0
290
     0
  0
SCALE
  5
4A
102
{ACAD_REACTORS
330
47
102
}
330
47
100
AcDbScale
 70
     0
300
1:4
140
1.0
141
4.0
290
     0
  0
SCALE
  5
4B
102
{ACAD_REACTORS
330
47
102
}
330
47
100
AcDbScale
 70
     0
300
1:5
140
1.0
141
5.0
290
     0
  0
SCALE
  5
4C
102
{ACAD_REACTORS
330
47
102
}
330
47
100
AcDbScale
 70
     0
300
1:8
140
1.0
141
8.0
290
     0
  0
SCALE
  5
4D
102
{ACAD_REACTORS
330
47
102
}
330
47
100
AcDbScale
 70
     0
300
1:10
140
1.0
141
10.0
290
     0
  0
SCALE
  5
4E
102
{ACAD_REACTORS
330
47
102
}
330
47
100
AcDbScale
 70
     0
300
1:16
140
1.0
141
16.0
290
     0
  0
SCALE
  5
4F
102
{ACAD_REACTORS
330
47
102
}
330
47
100
AcDbScale
 70
     0
300
1:20
140
1.0
141
20.0
290
     0
  0
SCALE
  5
50
102
{ACAD_REACTORS
330
47
102
}
330
47
100
AcDbScale
 70
     0
300
1:30
140
1.0
141
30.0
290
     0
  0
SCALE
  5
51
102
{ACAD_REACTORS
330
47
102
}
330
47
100
AcDbScale
 70
     0
300
1:40
140
1.0
141
40.0
290
     0
  0
SCALE
  5
52
102
{ACAD_REACTORS
330
47
102
}
330
47
100
AcDbScale
 70
     0
300
1:50
140
1.0
141
50.0
290
     0
  0
SCALE
  5
53
102
{ACAD_REACTORS
330
47
102
}
330
47
100
AcDbScale
 70
     0
300
1:100
140
1.0
141
100.0
290
     0
  0
SCALE
  5
54
102
{ACAD_REACTORS
330
47
102
}
330
47
100
AcDbScale
 70
     0
300
2:1
140
2.0
141
1.0
290
     0
  0
SCALE
  5
55
102
{ACAD_REACTORS
330
47
102
}
330
47
100
AcDbScale
 70
     0
300
4:1
140
4.0
141
1.0
290
     0
  0
SCALE
  5
56
102
{ACAD_REACTORS
330
47
102
}
330
47
100
AcDbScale
 70
     0
300
8:1
140
8.0
141
1.0
290
     0
  0
SCALE
  5
57
102
{ACAD_REACTORS
330
47
102
}
330
47
100
AcDbScale
 70
     0
300
10:1
140
10.0
141
1.0
290
     0
  0
SCALE
  5
58
102
{ACAD_REACTORS
330
47
102
}
330
47
100
AcDbScale
 70
     0
300
100:1
140
100.0
141
1.0
290
     0
  0
SCALE
  5
59
102
{ACAD_REACTORS
330
47
102
}
330
47
100
AcDbScale
 70
     0
300
1/128" = 1'-0"
140
0.0078125
141
12.0
290
     0
  0
SCALE
  5
5A
102
{ACAD_REACTORS
330
47
102
}
330
47
100
AcDbScale
 70
     0
300
1/64" = 1'-0"
140
0.015625
141
12.0
290
     0
  0
SCALE
  5
5B
102
{ACAD_REACTORS
330
47
102
}
330
47
100
AcDbScale
 70
     0
300
1/32" = 1'-0"
140
0.03125
141
12.0
290
     0
  0
SCALE
  5
5C
102
{ACAD_REACTORS
330
47
102
}
330
47
100
AcDbScale
 70
     0
300
1/16" = 1'-0"
140
0.0625
141
12.0
290
     0
  0
SCALE
  5
5D
102
{ACAD_REACTORS
330
47
102
}
330
47
100
AcDbScale
 70
     0
300
3/32" = 1'-0"
140
0.09375
141
12.0
290
     0
  0
SCALE
  5
5E
102
{ACAD_REACTORS
330
47
102
}
330
47
100
AcDbScale
 70
     0
300
1/8" = 1'-0"
140
0.125
141
12.0
290
     0
  0
SCALE
  5
5F
102
{ACAD_REACTORS
330
47
102
}
330
47
100
AcDbScale
 70
     0
300
3/16" = 1'-0"
140
0.1875
141
12.0
290
     0
  0
SCALE
  5
60
102
{ACAD_REACTORS
330
47
102
}
330
47
100
AcDbScale
 70
     0
300
1/4" = 1'-0"
140
0.25
141
12.0
290
     0
  0
SCALE
  5
61
102
{ACAD_REACTORS
330
47
102
}
330
47
100
AcDbScale
 70
     0
300
3/8" = 1'-0"
140
0.375
141
12.0
290
     0
  0
SCALE
  5
62
102
{ACAD_REACTORS
330
47
102
}
330
47
100
AcDbScale
 70
     0
300
1/2" = 1'-0"
140
0.5
141
12.0
290
     0
  0
SCALE
  5
63
102
{ACAD_REACTORS
330
47
102
}
330
47
100
AcDbScale
 70
     0
300
3/4" = 1'-0"
140
0.75
141
12.0
290
     0
  0
SCALE
  5
64
102
{ACAD_REACTORS
330
47
102
}
330
47
100
AcDbScale
 70
     0
300
1" = 1'-0"
140
1.0
141
12.0
290
     0
  0
SCALE
  5
65
102
{ACAD_REACTORS
330
47
102
}
330
47
100
AcDbScale
 70
     0
300
1-1/2" = 1'-0"
140
1.5
141
12.0
290
     0
  0
SCALE
  5
66
102
{ACAD_REACTORS
330
47
102
}
330
47
100
AcDbScale
 70
     0
300
3" = 1'-0"
140
3.0
141
12.0
290
     0
  0
SCALE
  5
67
102
{ACAD_REACTORS
330
47
102
}
330
47
100
AcDbScale
 70
     0
300
6" = 1'-0"
140
6.0
141
12.0
290
     0
  0
SCALE
  5
68
102
{ACAD_REACTORS
330
47
102
}
330
47
100
AcDbScale
 70
     0
300
1'-0" = 1'-0"
140
12.0
141
12.0
290
     0
  0
ENDSEC
  0
EOF
