  0
SECTION
  2
HEADER
  9
$ACADVER
  1
AC1015
  9
$ACADMAINTVER
 70
     6
  9
$DWGCODEPAGE
  3
ANSI_1254
  9
$INSBASE
 10
0.0
 20
0.0
 30
0.0
  9
$EXTMIN
 10
-336.6517728067213
 20
73.41075892266966
 30
0.0
  9
$EXTMAX
 10
459.1149660837783
 20
737.0107589229697
 30
0.0
  9
$LIMMIN
 10
0.0
 20
0.0
  9
$LIMMAX
 10
420.0
 20
297.0
  9
$ORTHOMODE
 70
     0
  9
$REGENMODE
 70
     1
  9
$FILLMODE
 70
     1
  9
$QTEXTMODE
 70
     0
  9
$MIRRTEXT
 70
     1
  9
$LTSCALE
 40
1.0
  9
$ATTMODE
 70
     1
  9
$TEXTSIZE
 40
3.5
  9
$TRACEWID
 40
1.0
  9
$TEXTSTYLE
  7
Standard
  9
$CLAYER
  8
0
  9
$CELTYPE
  6
ByLayer
  9
$CECOLOR
 62
   256
  9
$CELTSCALE
 40
1.0
  9
$DISPSILH
 70
     0
  9
$DIMSCALE
 40
1.0
  9
$DIMASZ
 40
3.302
  9
$DIMEXO
 40
1.0
  9
$DIMDLI
 40
3.75
  9
$DIMRND
 40
0.0
  9
$DIMDLE
 40
0.0
  9
$DIMEXE
 40
1.0
  9
$DIMTP
 40
0.0
  9
$DIMTM
 40
0.0
  9
$DIMTXT
 40
3.5
  9
$DIMCEN
 40
2.5
  9
$DIMTSZ
 40
0.0
  9
$DIMTOL
 70
     0
  9
$DIMLIM
 70
     0
  9
$DIMTIH
 70
     1
  9
$DIMTOH
 70
     1
  9
$DIMSE1
 70
     0
  9
$DIMSE2
 70
     0
  9
$DIMTAD
 70
     1
  9
$DIMZIN
 70
     1
  9
$DIMBLK
  1

  9
$DIMASO
 70
     1
  9
$DIMSHO
 70
     1
  9
$DIMPOST
  1

  9
$DIMAPOST
  1

  9
$DIMALT
 70
     0
  9
$DIMALTD
 70
     3
  9
$DIMALTF
 40
0.0393700787
  9
$DIMLFAC
 40
10.0
  9
$DIMTOFL
 70
     1
  9
$DIMTVP
 40
0.0
  9
$DIMTIX
 70
     0
  9
$DIMSOXD
 70
     0
  9
$DIMSAH
 70
     0
  9
$DIMBLK1
  1

  9
$DIMBLK2
  1

  9
$DIMSTYLE
  2
ISO-25
  9
$DIMCLRD
 70
     0
  9
$DIMCLRE
 70
     0
  9
$DIMCLRT
 70
     0
  9
$DIMTFAC
 40
1.0
  9
$DIMGAP
 40
1.524
  9
$DIMJUST
 70
     0
  9
$DIMSD1
 70
     0
  9
$DIMSD2
 70
     0
  9
$DIMTOLJ
 70
     0
  9
$DIMTZIN
 70
     1
  9
$DIMALTZ
 70
     0
  9
$DIMALTTZ
 70
     0
  9
$DIMUPT
 70
     0
  9
$DIMDEC
 70
     2
  9
$DIMTDEC
 70
     2
  9
$DIMALTU
 70
     2
  9
$DIMALTTD
 70
     3
  9
$DIMTXSTY
  7
Standard
  9
$DIMAUNIT
 70
     0
  9
$DIMADEC
 70
     2
  9
$DIMALTRND
 40
0.0
  9
$DIMAZIN
 70
     0
  9
$DIMDSEP
 70
    44
  9
$DIMATFIT
 70
     3
  9
$DIMFRAC
 70
     0
  9
$DIMLDRBLK
  1

  9
$DIMLUNIT
 70
     2
  9
$DIMLWD
 70
    -2
  9
$DIMLWE
 70
    -2
  9
$DIMTMOVE
 70
     0
  9
$LUNITS
 70
     2
  9
$LUPREC
 70
     2
  9
$SKETCHINC
 40
1.0
  9
$FILLETRAD
 40
10.0
  9
$AUNITS
 70
     0
  9
$AUPREC
 70
     2
  9
$MENU
  1
.
  9
$ELEVATION
 40
0.0
  9
$PELEVATION
 40
0.0
  9
$THICKNESS
 40
0.0
  9
$LIMCHECK
 70
     0
  9
$CHAMFERA
 40
0.0
  9
$CHAMFERB
 40
0.0
  9
$CHAMFERC
 40
0.0
  9
$CHAMFERD
 40
0.0
  9
$SKPOLY
 70
     0
  9
$TDCREATE
 40
2459935.558370254
  9
$TDUCREATE
 40
2459935.433370254
  9
$TDUPDATE
 40
2459935.717997766
  9
$TDUUPDATE
 40
2459935.592997766
  9
$TDINDWG
 40
0.0003810069
  9
$TDUSRTIMER
 40
0.0003809954
  9
$USRTIMER
 70
     1
  9
$ANGBASE
 50
0.0
  9
$ANGDIR
 70
     0
  9
$PDMODE
 70
     0
  9
$PDSIZE
 40
-1.0
  9
$PLINEWID
 40
0.0
  9
$SPLFRAME
 70
     0
  9
$SPLINETYPE
 70
     6
  9
$SPLINESEGS
 70
     8
  9
$HANDSEED
  5
364
  9
$SURFTAB1
 70
     6
  9
$SURFTAB2
 70
     6
  9
$SURFTYPE
 70
     6
  9
$SURFU
 70
     6
  9
$SURFV
 70
     6
  9
$UCSBASE
  2

  9
$UCSNAME
  2

  9
$UCSORG
 10
0.0
 20
0.0
 30
0.0
  9
$UCSXDIR
 10
1.0
 20
0.0
 30
0.0
  9
$UCSYDIR
 10
0.0
 20
1.0
 30
0.0
  9
$UCSORTHOREF
  2

  9
$UCSORTHOVIEW
 70
     0
  9
$UCSORGTOP
 10
0.0
 20
0.0
 30
0.0
  9
$UCSORGBOTTOM
 10
0.0
 20
0.0
 30
0.0
  9
$UCSORGLEFT
 10
0.0
 20
0.0
 30
0.0
  9
$UCSORGRIGHT
 10
0.0
 20
0.0
 30
0.0
  9
$UCSORGFRONT
 10
0.0
 20
0.0
 30
0.0
  9
$UCSORGBACK
 10
0.0
 20
0.0
 30
0.0
  9
$PUCSBASE
  2

  9
$PUCSNAME
  2

  9
$PUCSORG
 10
0.0
 20
0.0
 30
0.0
  9
$PUCSXDIR
 10
1.0
 20
0.0
 30
0.0
  9
$PUCSYDIR
 10
0.0
 20
1.0
 30
0.0
  9
$PUCSORTHOREF
  2

  9
$PUCSORTHOVIEW
 70
     0
  9
$PUCSORGTOP
 10
0.0
 20
0.0
 30
0.0
  9
$PUCSORGBOTTOM
 10
0.0
 20
0.0
 30
0.0
  9
$PUCSORGLEFT
 10
0.0
 20
0.0
 30
0.0
  9
$PUCSORGRIGHT
 10
0.0
 20
0.0
 30
0.0
  9
$PUCSORGFRONT
 10
0.0
 20
0.0
 30
0.0
  9
$PUCSORGBACK
 10
0.0
 20
0.0
 30
0.0
  9
$USERI1
 70
     0
  9
$USERI2
 70
     0
  9
$USERI3
 70
     0
  9
$USERI4
 70
     0
  9
$USERI5
 70
     0
  9
$USERR1
 40
0.0
  9
$USERR2
 40
0.0
  9
$USERR3
 40
0.0
  9
$USERR4
 40
0.0
  9
$USERR5
 40
0.0
  9
$WORLDVIEW
 70
     1
  9
$SHADEDGE
 70
     3
  9
$SHADEDIF
 70
    70
  9
$TILEMODE
 70
     1
  9
$MAXACTVP
 70
    64
  9
$PINSBASE
 10
0.0
 20
0.0
 30
0.0
  9
$PLIMCHECK
 70
     0
  9
$PEXTMIN
 10
1.000000000000000E+20
 20
1.000000000000000E+20
 30
1.000000000000000E+20
  9
$PEXTMAX
 10
-1.000000000000000E+20
 20
-1.000000000000000E+20
 30
-1.000000000000000E+20
  9
$PLIMMIN
 10
0.0
 20
0.0
  9
$PLIMMAX
 10
0.0
 20
0.0
  9
$UNITMODE
 70
     0
  9
$VISRETAIN
 70
     1
  9
$PLINEGEN
 70
     0
  9
$PSLTSCALE
 70
     1
  9
$TREEDEPTH
 70
  3020
  9
$CMLSTYLE
  2
Standard
  9
$CMLJUST
 70
     0
  9
$CMLSCALE
 40
20.0
  9
$PROXYGRAPHICS
 70
     1
  9
$MEASUREMENT
 70
     1
  9
$CELWEIGHT
370
    -1
  9
$ENDCAPS
280
     0
  9
$JOINSTYLE
280
     0
  9
$LWDISPLAY
290
     1
  9
$INSUNITS
 70
     4
  9
$HYPERLINKBASE
  1

  9
$STYLESHEET
  1

  9
$XEDIT
290
     1
  9
$CEPSNTYPE
380
     0
  9
$PSTYLEMODE
290
     1
  9
$FINGERPRINTGUID
  2
{8943a407-7eb0-4e55-a5dc-6fd72aa8c244}
  9
$VERSIONGUID
  2
{FAEB1C32-E019-11D5-929B-00C0DF256EC4}
  9
$EXTNAMES
290
     1
  9
$PSVPSCALE
 40
0.0
  9
$OLESTARTUP
290
     0
  0
ENDSEC
  0
SECTION
  2
CLASSES
  0
CLASS
  1
ACDBDICTIONARYWDFLT
  2
AcDbDictionaryWithDefault
  3
ObjectDBX Classes
 90
        0
280
     0
281
     0
  0
CLASS
  1
VISUALSTYLE
  2
AcDbVisualStyle
  3
ObjectDBX Classes
 90
     4095
280
     0
281
     0
  0
CLASS
  1
MATERIAL
  2
AcDbMaterial
  3
ObjectDBX Classes
 90
     1153
280
     0
281
     0
  0
CLASS
  1
SCALE
  2
AcDbScale
  3
ObjectDBX Classes
 90
     1153
280
     0
281
     0
  0
CLASS
  1
TABLESTYLE
  2
AcDbTableStyle
  3
ObjectDBX Classes
 90
     4095
280
     0
281
     0
  0
CLASS
  1
MLEADERSTYLE
  2
AcDbMLeaderStyle
  3
ACDB_MLEADERSTYLE_CLASS
 90
     4095
280
     0
281
     0
  0
CLASS
  1
SUN
  2
AcDbSun
  3
SCENEOE
 90
     1153
280
     0
281
     0
  0
CLASS
  1
ACDBPLACEHOLDER
  2
AcDbPlaceHolder
  3
ObjectDBX Classes
 90
        0
280
     0
281
     0
  0
CLASS
  1
LAYOUT
  2
AcDbLayout
  3
ObjectDBX Classes
 90
        0
280
     0
281
     0
  0
ENDSEC
  0
SECTION
  2
TABLES
  0
TABLE
  2
VPORT
  5
8
330
0
100
AcDbSymbolTable
 70
     1
  0
VPORT
  5
29
330
8
100
AcDbSymbolTableRecord
100
AcDbViewportTableRecord
  2
*Active
 70
     0
 10
0.0
 20
0.0
 11
1.0
 21
1.0
 12
106.1166631175629
 22
255.5099546370967
 13
0.0
 23
0.0
 14
10.0
 24
10.0
 15
10.0
 25
10.0
 16
0.0
 26
0.0
 36
1.0
 17
0.0
 27
0.0
 37
0.0
 40
1770.257949829102
 41
2.225806451612903
 42
50.0
 43
0.0
 44
0.0
 50
0.0
 51
0.0
 71
    16
 72
  2000
 73
     1
 74
     3
 75
     0
 76
     0
 77
     0
 78
     0
281
     0
 65
     1
110
0.0
120
0.0
130
0.0
111
1.0
121
0.0
131
0.0
112
0.0
122
1.0
132
0.0
 79
     0
146
0.0
  0
ENDTAB
  0
TABLE
  2
LTYPE
  5
5
330
0
100
AcDbSymbolTable
 70
     6
  0
LTYPE
  5
14
330
5
100
AcDbSymbolTableRecord
100
AcDbLinetypeTableRecord
  2
ByBlock
 70
     0
  3

 72
    65
 73
     0
 40
0.0
  0
LTYPE
  5
15
330
5
100
AcDbSymbolTableRecord
100
AcDbLinetypeTableRecord
  2
ByLayer
 70
     0
  3

 72
    65
 73
     0
 40
0.0
  0
LTYPE
  5
16
330
5
100
AcDbSymbolTableRecord
100
AcDbLinetypeTableRecord
  2
Continuous
 70
     0
  3
Solid line
 72
    65
 73
     0
 40
0.0
  0
LTYPE
  5
6E
330
5
100
AcDbSymbolTableRecord
100
AcDbLinetypeTableRecord
  2
HIDDEN
 70
     0
  3
Hidden __ __ __ __ __ __ __ __ __ __ __ __ __ __
 72
    65
 73
     2
 40
1.905
 49
1.27
 74
     0
 49
-0.635
 74
     0
  0
LTYPE
  5
6F
330
5
100
AcDbSymbolTableRecord
100
AcDbLinetypeTableRecord
  2
PHANTOM
 70
     0
  3
Phantom ______  __  __  ______  __  __  ______
 72
    65
 73
     6
 40
12.7
 49
6.35
 74
     0
 49
-1.27
 74
     0
 49
1.27
 74
     0
 49
-1.27
 74
     0
 49
1.27
 74
     0
 49
-1.27
 74
     0
  0
LTYPE
  5
70
330
5
100
AcDbSymbolTableRecord
100
AcDbLinetypeTableRecord
  2
CENTER
 70
     0
  3
Center ____ _ ____ _ ____ _ ____ _ ____ _ ____
 72
    65
 73
     4
 40
10.16
 49
6.35
 74
     0
 49
-1.27
 74
     0
 49
1.27
 74
     0
 49
-1.27
 74
     0
  0
LTYPE
  5
71
330
5
100
AcDbSymbolTableRecord
100
AcDbLinetypeTableRecord
  2
CENTERX2
 70
     0
  3
Center (2x) ________  __  ________  __  _____
 72
    65
 73
     4
 40
20.32
 49
12.7
 74
     0
 49
-2.54
 74
     0
 49
2.54
 74
     0
 49
-2.54
 74
     0
  0
LTYPE
  5
72
330
5
100
AcDbSymbolTableRecord
100
AcDbLinetypeTableRecord
  2
DOT2
 70
     0
  3
Dot (.5x) ........................................
 72
    65
 73
     2
 40
0.635
 49
0.0
 74
     0
 49
-0.635
 74
     0
  0
ENDTAB
  0
TABLE
  2
LAYER
  5
2
330
0
100
AcDbSymbolTable
 70
     5
  0
LAYER
  5
10
330
2
100
AcDbSymbolTableRecord
100
AcDbLayerTableRecord
  2
0
 70
     0
 62
     7
  6
Continuous
370
    -3
390
F
  0
LAYER
  5
73
330
2
100
AcDbSymbolTableRecord
100
AcDbLayerTableRecord
  2
FORMAT
 70
     0
 62
     7
  6
Continuous
370
    -3
390
F
  0
LAYER
  5
74
330
2
100
AcDbSymbolTableRecord
100
AcDbLayerTableRecord
  2
SLD-0
 70
     0
 62
   179
  6
Continuous
370
    -3
390
F
  0
LAYER
  5
75
330
2
100
AcDbSymbolTableRecord
100
AcDbLayerTableRecord
  2
AAA_EKSEN
 70
     0
 62
     1
  6
CENTER
370
    -3
390
F
  0
LAYER
  5
76
330
2
100
AcDbSymbolTableRecord
100
AcDbLayerTableRecord
  2
03
 70
     0
 62
     3
  6
HIDDEN
370
    -3
390
F
  0
ENDTAB
  0
TABLE
  2
STYLE
  5
3
330
0
100
AcDbSymbolTable
 70
     1
  0
STYLE
  5
11
330
3
100
AcDbSymbolTableRecord
100
AcDbTextStyleTableRecord
  2
Standard
 70
     0
 40
0.0
 41
1.0
 50
0.0
 71
     0
 42
3.5
  3
txt
  4

  0
ENDTAB
  0
TABLE
  2
VIEW
  5
6
330
0
100
AcDbSymbolTable
 70
     0
  0
ENDTAB
  0
TABLE
  2
UCS
  5
7
330
0
100
AcDbSymbolTable
 70
     0
  0
ENDTAB
  0
TABLE
  2
APPID
  5
9
330
0
100
AcDbSymbolTable
 70
     1
  0
APPID
  5
12
330
9
100
AcDbSymbolTableRecord
100
AcDbRegAppTableRecord
  2
ACAD
 70
     0
  0
ENDTAB
  0
TABLE
  2
DIMSTYLE
  5
A
330
0
100
AcDbSymbolTable
 70
     1
100
AcDbDimStyleTable
  0
DIMSTYLE
105
27
330
A
100
AcDbSymbolTableRecord
100
AcDbDimStyleTableRecord
  2
ISO-25
 70
     0
 41
2.5
 42
0.625
 43
3.75
 44
1.25
 73
     0
 74
     0
 77
     1
 78
     8
140
2.5
141
2.5
143
0.0393700787
147
0.625
171
     3
172
     1
178
     0
271
     2
272
     2
274
     3
278
    44
283
     0
284
     8
340
11
  0
ENDTAB
  0
TABLE
  2
BLOCK_RECORD
  5
1
330
0
100
AcDbSymbolTable
 70
     1
  0
BLOCK_RECORD
  5
1F
102
{ACAD_XDICTIONARY
360
361
102
}
330
1
100
AcDbSymbolTableRecord
100
AcDbBlockTableRecord
  2
*Model_Space
340
22
  0
BLOCK_RECORD
  5
1B
330
1
100
AcDbSymbolTableRecord
100
AcDbBlockTableRecord
  2
*Paper_Space
340
1E
  0
BLOCK_RECORD
  5
23
330
1
100
AcDbSymbolTableRecord
100
AcDbBlockTableRecord
  2
*Paper_Space0
340
26
  0
ENDTAB
  0
ENDSEC
  0
SECTION
  2
BLOCKS
  0
BLOCK
  5
20
330
1F
100
AcDbEntity
  8
0
100
AcDbBlockBegin
  2
*Model_Space
 70
     0
 10
0.0
 20
0.0
 30
0.0
  3
*Model_Space
  1

  0
ENDBLK
  5
21
330
1F
100
AcDbEntity
  8
0
100
AcDbBlockEnd
  0
BLOCK
  5
1C
330
1B
100
AcDbEntity
 67
     1
  8
0
100
AcDbBlockBegin
  2
*Paper_Space
 70
     0
 10
0.0
 20
0.0
 30
0.0
  3
*Paper_Space
  1

  0
ENDBLK
  5
1D
330
1B
100
AcDbEntity
 67
     1
  8
0
100
AcDbBlockEnd
  0
BLOCK
  5
24
330
23
100
AcDbEntity
  8
0
100
AcDbBlockBegin
  2
*Paper_Space0
 70
     0
 10
0.0
 20
0.0
 30
0.0
  3
*Paper_Space0
  1

  0
ENDBLK
  5
25
330
23
100
AcDbEntity
  8
0
100
AcDbBlockEnd
  0
ENDSEC
  0
SECTION
  2
ENTITIES
  0
LWPOLYLINE
  5
77
330
1F
100
AcDbEntity
  8
0
  6
CENTERX2
 62
     7
100
AcDbPolyline
 90
       17
 70
   128
 43
0.0
 10
210.7626683489788
 20
552.1927572830697
 10
210.5848573227788
 20
551.8609663042696
 10
210.5305413891788
 20
551.4758594262696
 10
210.6079896566788
 20
551.0960656803697
 10
210.8054113285788
 20
550.7794052213696
 10
211.0927507449787
 20
550.5740867337697
 10
211.4262630844788
 20
550.5113680959696
 10
211.7551741165788
 20
550.6007976521696
 10
212.0294101184787
 20
550.8287605629696
 10
212.2072211445787
 20
551.1605515417697
 10
212.2615370781788
 20
551.5456584196697
 10
212.1840888107788
 20
551.9254521656696
 10
211.9866671388787
 20
552.2421126246697
 10
211.6993277224788
 20
552.4474311122697
 10
211.3658153829788
 20
552.5101497500697
 10
211.0369043507787
 20
552.4207201938697
 10
210.7626683489788
 20
552.1927572830697
  0
LWPOLYLINE
  5
78
330
1F
100
AcDbEntity
  8
0
  6
Continuous
 62
     7
100
AcDbPolyline
 90
       17
 70
   128
 43
0.0
 10
233.9138545092787
 20
215.9738042493697
 10
233.9116579161788
 20
216.6960034286697
 10
233.9207632955788
 20
217.2147275441696
 10
233.9397844357787
 20
217.4510055515697
 10
233.9658255407787
 20
217.3688662660697
 10
233.9949220882788
 20
216.9808146491697
 10
234.0226443928788
 20
216.3459280420697
 10
234.0447719847788
 20
215.5608621753697
 10
234.0579361388787
 20
214.7451362105697
 10
234.0601327318788
 20
214.0229370312697
 10
234.0510273525788
 20
213.5042129157697
 10
234.0320062123787
 20
213.2679349083697
 10
234.0059651073788
 20
213.3500741938697
 10
233.9768685597787
 20
213.7381258106697
 10
233.9491462552787
 20
214.3730124178697
 10
233.9270186633788
 20
215.1580782845697
 10
233.9138545092787
 20
215.9738042493697
  0
LINE
  5
79
330
1F
100
AcDbEntity
  8
0
  6
Continuous
 62
     7
100
AcDbLine
 10
210.5300138298787
 20
550.9334086537697
 30
0.0
 11
211.3960392336787
 21
550.3560583846697
 31
0.0
  0
LINE
  5
7A
330
1F
100
AcDbEntity
  8
0
  6
Continuous
 62
     7
100
AcDbLine
 10
211.3960392336787
 20
550.3560583846697
 30
0.0
 11
212.2620646374787
 21
550.9334086537697
 31
0.0
  0
LINE
  5
7B
330
1F
100
AcDbEntity
  8
0
  6
Continuous
 62
     7
100
AcDbLine
 10
212.2620646374787
 20
550.9334086537697
 30
0.0
 11
212.2620646374787
 21
552.0881091921697
 31
0.0
  0
LINE
  5
7C
330
1F
100
AcDbEntity
  8
0
  6
Continuous
 62
     7
100
AcDbLine
 10
212.2620646374787
 20
552.0881091921697
 30
0.0
 11
211.3960392336787
 21
552.6654594613697
 31
0.0
  0
LINE
  5
7D
330
1F
100
AcDbEntity
  8
0
  6
Continuous
 62
     7
100
AcDbLine
 10
211.3960392336787
 20
552.6654594613697
 30
0.0
 11
210.5300138298787
 21
552.0881091921697
 31
0.0
  0
LINE
  5
7E
330
1F
100
AcDbEntity
  8
0
  6
Continuous
 62
     7
100
AcDbLine
 10
210.5300138298787
 20
552.0881091921697
 30
0.0
 11
210.5300138298787
 21
550.9334086537697
 31
0.0
  0
LINE
  5
7F
330
1F
100
AcDbEntity
  8
0
  6
CENTERX2
 62
     7
100
AcDbLine
 10
234.0701762285788
 20
210.9602782206697
 30
0.0
 11
233.9016144195788
 21
219.7586622392697
 31
0.0
  0
SPLINE
  5
80
330
1F
100
AcDbEntity
  8
0
  6
Continuous
 62
     7
370
    25
100
AcDbSpline
210
0.0
220
0.0
230
1.0
 70
     8
 71
     3
 72
    18
 73
    14
 74
     0
 42
0.000000001
 43
0.00000001
 40
0.0
 40
0.0
 40
0.0
 40
0.0
 40
0.0630248033473296
 40
0.1535295275583576
 40
0.2410533808935859
 40
0.331278783864492
 40
0.4367278072477717
 40
0.5491142904121079
 40
0.6708254698734458
 40
0.7789419142814659
 40
0.8804894338973386
 40
0.9794697110033068
 40
1.0
 40
1.0
 40
1.0
 40
1.0
 10
184.348227193294
 20
615.6552761109215
 30
0.0
 10
184.5603062152223
 20
615.8345153432286
 30
0.0
 10
185.0769344363732
 20
616.2711452602534
 30
0.0
 10
185.7095861066497
 20
617.1298090884417
 30
0.0
 10
186.2662512507053
 20
618.1671088848245
 30
0.0
 10
186.6719922859045
 20
619.3476076419466
 30
0.0
 10
186.9100257914376
 20
620.6942395992119
 30
0.0
 10
186.926051551216
 20
622.2118395227806
 30
0.0
 10
186.674651089712
 20
623.7128033870551
 30
0.0
 10
186.1763983155003
 20
625.0892326783601
 30
0.0
 10
185.4692225258157
 20
626.2425642605665
 30
0.0
 10
184.8490862067409
 20
627.0089882806467
 30
0.0
 10
184.4216541963308
 20
627.3161406128079
 30
0.0
 10
184.348227193294
 20
627.3689052038469
 30
0.0
  0
SPLINE
  5
81
330
1F
100
AcDbEntity
  8
0
  6
Continuous
 62
     7
370
    25
100
AcDbSpline
210
0.0
220
0.0
230
1.0
 70
     8
 71
     3
 72
    18
 73
    14
 74
     0
 42
0.000000001
 43
0.00000001
 40
0.0
 40
0.0
 40
0.0
 40
0.0
 40
0.0396734470197247
 40
0.1302121722593088
 40
0.2219416484927758
 40
0.3181099337753138
 40
0.4218929621708427
 40
0.5334469871501701
 40
0.653578953694788
 40
0.7628663512356785
 40
0.8652740253472118
 40
0.9645228386050406
 40
1.0
 40
1.0
 40
1.0
 40
1.0
 10
136.3482271932938
 20
627.3609345805594
 30
0.0
 10
136.2104229038775
 20
627.2536710686518
 30
0.0
 10
135.7581356130192
 20
626.9016216265474
 30
0.0
 10
135.1483601998855
 20
626.1297736199583
 30
0.0
 10
134.5267540695805
 20
625.0794501197192
 30
0.0
 10
134.0773549520492
 20
623.8755475940737
 30
0.0
 10
133.8072674634525
 20
622.5226197298405
 30
0.0
 10
133.7572964480559
 20
621.0256322072032
 30
0.0
 10
133.9693285318582
 20
619.5234698697222
 30
0.0
 10
134.4295052764678
 20
618.1322925385738
 30
0.0
 10
135.1035679138654
 20
616.9477174514302
 30
0.0
 10
135.7505191718064
 20
616.115623002205
 30
0.0
 10
136.2236408640536
 20
615.7579527058014
 30
0.0
 10
136.3482271932938
 20
615.6637679959531
 30
0.0
  0
LINE
  5
82
330
1F
100
AcDbEntity
  8
0
  6
Continuous
 62
     7
370
    25
100
AcDbLine
 10
-292.6517728067212
 20
677.0107589229697
 30
0.0
 11
-289.6517728067212
 21
680.0107589229697
 31
0.0
  0
LINE
  5
83
330
1F
100
AcDbEntity
  8
0
  6
Continuous
 62
     7
370
    25
100
AcDbLine
 10
-289.6517728067212
 20
734.0107589229697
 30
0.0
 11
-292.6517728067212
 21
737.0107589229697
 31
0.0
  0
LINE
  5
84
330
1F
100
AcDbEntity
  8
0
  6
Continuous
 62
     7
370
    25
100
AcDbLine
 10
-292.6517728067212
 20
737.0107589229697
 30
0.0
 11
-294.6517728067212
 21
737.0107589229697
 31
0.0
  0
LINE
  5
85
330
1F
100
AcDbEntity
  8
0
  6
Continuous
 62
     7
370
    25
100
AcDbLine
 10
-294.6517728067212
 20
677.0107589229697
 30
0.0
 11
-292.6517728067212
 21
677.0107589229697
 31
0.0
  0
LINE
  5
86
330
1F
100
AcDbEntity
  8
0
  6
Continuous
 62
     7
370
    25
100
AcDbLine
 10
-294.6517728067212
 20
734.5107589229697
 30
0.0
 11
-296.6517728067212
 21
734.5107589229697
 31
0.0
  0
LINE
  5
87
330
1F
100
AcDbEntity
  8
0
  6
Continuous
 62
     7
370
    25
100
AcDbLine
 10
-296.6517728067212
 20
679.5107589229697
 30
0.0
 11
-294.6517728067212
 21
679.5107589229697
 31
0.0
  0
LINE
  5
88
330
1F
100
AcDbEntity
  8
0
  6
Continuous
 62
     7
370
    25
100
AcDbLine
 10
-335.6517728067212
 20
731.0107589229697
 30
0.0
 11
-336.6517728067212
 21
730.0107589229697
 31
0.0
  0
LINE
  5
89
330
1F
100
AcDbEntity
  8
0
  6
Continuous
 62
     7
370
    25
100
AcDbLine
 10
-336.6517728067212
 20
684.0107589229697
 30
0.0
 11
-335.6517728067212
 21
683.0107589229697
 31
0.0
  0
LINE
  5
8A
330
1F
100
AcDbEntity
  8
0
  6
Continuous
 62
     7
370
    25
100
AcDbLine
 10
-296.6517728067212
 20
731.0107589229697
 30
0.0
 11
-335.6517728067212
 21
731.0107589229697
 31
0.0
  0
LINE
  5
8B
330
1F
100
AcDbEntity
  8
0
  6
Continuous
 62
     7
370
    25
100
AcDbLine
 10
-335.6517728067212
 20
683.0107589229697
 30
0.0
 11
-296.6517728067212
 21
683.0107589229697
 31
0.0
  0
LINE
  5
8C
330
1F
100
AcDbEntity
  8
0
  6
Continuous
 62
     7
370
    25
100
AcDbLine
 10
136.3482271932787
 20
677.0107589229697
 30
0.0
 11
136.3482271932787
 21
611.4907341321697
 31
0.0
  0
LINE
  5
8D
330
1F
100
AcDbEntity
  8
0
  6
Continuous
 62
     7
370
    25
100
AcDbLine
 10
184.3482271932787
 20
611.4907341321697
 30
0.0
 11
184.3482271932787
 21
677.0107589229697
 31
0.0
  0
LINE
  5
8E
330
1F
100
AcDbEntity
  8
0
  6
Continuous
 62
     7
370
    25
100
AcDbLine
 10
211.8482271932787
 20
737.0107589229697
 30
0.0
 11
210.3482271932787
 21
735.5107589229697
 31
0.0
  0
LINE
  5
8F
330
1F
100
AcDbEntity
  8
0
  6
Continuous
 62
     7
370
    25
100
AcDbLine
 10
210.3482271932787
 20
678.5107589229697
 30
0.0
 11
211.8482271932787
 21
677.0107589229697
 31
0.0
  0
LINE
  5
90
330
1F
100
AcDbEntity
  8
0
  6
Continuous
 62
     7
370
    25
100
AcDbLine
 10
211.8482271932787
 20
677.0107589229697
 30
0.0
 11
213.3482271932787
 21
677.0107589229697
 31
0.0
  0
LINE
  5
91
330
1F
100
AcDbEntity
  8
0
  6
Continuous
 62
     7
370
    25
100
AcDbLine
 10
213.3482271932787
 20
737.0107589229697
 30
0.0
 11
211.8482271932787
 21
737.0107589229697
 31
0.0
  0
LINE
  5
92
330
1F
100
AcDbEntity
  8
0
  6
Continuous
 62
     7
370
    25
100
AcDbLine
 10
184.3482271932787
 20
677.0107589229697
 30
0.0
 11
210.3482271932787
 21
677.0107589229697
 31
0.0
  0
LINE
  5
93
330
1F
100
AcDbEntity
  8
0
  6
Continuous
 62
     7
370
    25
100
AcDbLine
 10
-289.6517728067212
 20
677.0107589229697
 30
0.0
 11
136.3482271932787
 21
677.0107589229697
 31
0.0
  0
LINE
  5
94
330
1F
100
AcDbEntity
  8
0
  6
Continuous
 62
     7
370
    25
100
AcDbLine
 10
210.3482271932787
 20
737.0107589229697
 30
0.0
 11
-289.6517728067212
 21
737.0107589229697
 31
0.0
  0
SPLINE
  5
95
330
1F
100
AcDbEntity
  8
0
  6
Continuous
 62
     7
370
    25
100
AcDbSpline
210
0.0
220
0.0
230
1.0
 70
     8
 71
     3
 72
    15
 73
    11
 74
     0
 42
0.000000001
 43
0.00000001
 40
0.0
 40
0.0
 40
0.0
 40
0.0
 40
0.0496060618267945
 40
0.1959853314110692
 40
0.344858857262809
 40
0.497260604020349
 40
0.6535849283391435
 40
0.813389377044006
 40
0.9752117297017259
 40
1.0
 40
1.0
 40
1.0
 40
1.0
 10
214.2094632927602
 20
547.8847801790014
 30
0.0
 10
214.3116104363402
 20
547.9705958723613
 30
0.0
 10
214.715176876609
 20
548.3096394586503
 30
0.0
 10
215.2153033105243
 20
549.1148509232323
 30
0.0
 10
215.6609039178771
 20
550.2415181883475
 30
0.0
 10
215.8148676916303
 20
551.4815842838927
 30
0.0
 10
215.673094267657
 20
552.7552554647154
 30
0.0
 10
215.1938545197747
 20
553.9554495499864
 30
0.0
 10
214.6837104848216
 20
554.7674098756253
 30
0.0
 10
214.29297238637
 20
555.0813542215899
 30
0.0
 10
214.2410690089158
 20
555.1230567634018
 30
0.0
  0
LINE
  5
96
330
1F
100
AcDbEntity
  8
0
  6
Continuous
 62
     7
370
    25
100
AcDbLine
 10
211.3482271932787
 20
546.7607589229697
 30
0.0
 11
211.5982271932787
 21
546.7607589229697
 31
0.0
  0
LINE
  5
97
330
1F
100
AcDbEntity
  8
0
  6
Continuous
 62
     7
370
    25
100
AcDbLine
 10
211.5982271932787
 20
556.2607589229697
 30
0.0
 11
211.3482271932787
 21
556.2607589229697
 31
0.0
  0
LINE
  5
98
330
1F
100
AcDbEntity
  8
0
  6
Continuous
 62
     7
370
    25
100
AcDbLine
 10
58.34822719327872
 20
556.2607589229697
 30
0.0
 11
57.84822719327872
 21
556.2607589229697
 31
0.0
  0
LINE
  5
99
330
1F
100
AcDbEntity
  8
0
  6
Continuous
 62
     7
370
    25
100
AcDbLine
 10
57.84822719327872
 20
546.7607589229697
 30
0.0
 11
58.34822719327872
 21
546.7607589229697
 31
0.0
  0
ARC
  5
9A
330
1F
100
AcDbEntity
  8
0
  6
Continuous
 62
     7
370
    25
100
AcDbCircle
 10
59.05875108907878
 20
552.9348718536696
 30
0.0
 40
3.539335092961979
100
AcDbArc
 50
109.9999999999997
 51
167.8862128145004
  0
ARC
  5
9B
330
1F
100
AcDbEntity
  8
0
  6
Continuous
 62
     7
370
    25
100
AcDbCircle
 10
59.05875108907878
 20
550.0866459923697
 30
0.0
 40
3.539335092961926
100
AcDbArc
 50
192.1137871854996
 51
249.9999999999997
  0
LINE
  5
9C
330
1F
100
AcDbEntity
  8
0
  6
Continuous
 62
     7
370
    25
100
AcDbLine
 10
80.34822719327872
 20
73.61075891986967
 30
0.0
 11
80.34822719327872
 21
73.41075892266966
 31
0.0
  0
LINE
  5
9D
330
1F
100
AcDbEntity
  8
0
  6
Continuous
 62
     7
370
    25
100
AcDbLine
 10
240.3482271932787
 20
73.41075892266966
 30
0.0
 11
240.3482271932787
 21
73.61075891986967
 31
0.0
  0
LINE
  5
9E
330
1F
100
AcDbEntity
  8
0
  6
Continuous
 62
     7
370
    25
100
AcDbLine
 10
211.3482271932787
 20
268.6107589229697
 30
0.0
 11
211.3482271932787
 21
270.7107589230696
 31
0.0
  0
LINE
  5
9F
330
1F
100
AcDbEntity
  8
0
  6
Continuous
 62
     7
370
    25
100
AcDbLine
 10
199.3482271932787
 20
270.7107589230696
 30
0.0
 11
199.3482271932787
 21
268.6107589229697
 31
0.0
  0
LINE
  5
A0
330
1F
100
AcDbEntity
  8
0
  6
Continuous
 62
     7
370
    25
100
AcDbLine
 10
211.3482271932787
 20
270.7107589230696
 30
0.0
 11
210.9440820048787
 21
271.4107589230697
 31
0.0
  0
LINE
  5
A1
330
1F
100
AcDbEntity
  8
0
  6
Continuous
 62
     7
370
    25
100
AcDbLine
 10
199.7523723816788
 20
271.4107589230697
 30
0.0
 11
199.3482271932787
 21
270.7107589230696
 31
0.0
  0
LINE
  5
A2
330
1F
100
AcDbEntity
  8
0
  6
Continuous
 62
     7
370
    25
100
AcDbLine
 10
58.35533642267876
 20
554.6886982358697
 30
0.0
 11
58.34822719327872
 21
554.6763846894696
 31
0.0
  0
LINE
  5
A3
330
1F
100
AcDbEntity
  8
0
  6
Continuous
 62
     7
370
    25
100
AcDbLine
 10
58.34822719327872
 20
548.3451331565697
 30
0.0
 11
58.35527328277874
 21
548.3329289715697
 31
0.0
  0
ARC
  5
A4
330
1F
100
AcDbEntity
  8
0
  6
Continuous
 62
     7
370
    25
100
AcDbCircle
 10
-138.1685116972212
 20
591.4642783151696
 30
0.0
 40
0.2499999999994393
100
AcDbArc
 50
97.88371790980415
 51
258.5488820209059
  0
ARC
  5
A5
330
1F
100
AcDbEntity
  8
0
  6
Continuous
 62
     7
370
    25
100
AcDbCircle
 10
458.8649660837789
 20
591.4642783151696
 30
0.0
 40
0.2499999999994506
100
AcDbArc
 50
281.4511179792194
 51
82.11628209020876
  0
ARC
  5
A6
330
1F
100
AcDbEntity
  8
0
  6
Continuous
 62
     7
370
    25
100
AcDbCircle
 10
58.34822719327872
 20
1561.61075892297
 30
0.0
 40
990.0999999999966
100
AcDbArc
 50
258.5488820208
 51
269.9421896991
  0
ARC
  5
A7
330
1F
100
AcDbEntity
  8
0
  6
Continuous
 62
     7
370
    25
100
AcDbCircle
 10
262.3482271932787
 20
1561.61075892297
 30
0.0
 40
990.0999999999966
100
AcDbArc
 50
270.0578103009
 51
281.4511179792
  0
ARC
  5
A8
330
1F
100
AcDbEntity
  8
0
  6
Continuous
 62
     7
370
    25
100
AcDbCircle
 10
149.5284621433788
 20
-1486.19276532843
 30
0.0
 40
2097.731427750647
100
AcDbArc
 50
90.3873106882
 51
97.8837179097
  0
ARC
  5
A9
330
1F
100
AcDbEntity
  8
0
  6
Continuous
 62
     7
370
    25
100
AcDbCircle
 10
171.1679922431788
 20
-1486.19276532843
 30
0.0
 40
2097.731427750646
100
AcDbArc
 50
82.11628209029999
 51
89.6126893118
  0
ARC
  5
AA
330
1F
100
AcDbEntity
  8
0
  6
Continuous
 62
     7
370
    25
100
AcDbCircle
 10
57.34822719327872
 20
570.5112634130696
 30
0.0
 40
1.000000000000003
100
AcDbArc
 50
0.0
 51
89.94218969910214
  0
ARC
  5
AB
330
1F
100
AcDbEntity
  8
0
  6
Continuous
 62
     7
370
    25
100
AcDbCircle
 10
263.3482271932787
 20
570.5112634130696
 30
0.0
 40
1.000000000000003
100
AcDbArc
 50
90.05781030089786
 51
180.0
  0
LINE
  5
AC
330
1F
100
AcDbEntity
  8
0
  6
Continuous
 62
     7
370
    25
100
AcDbLine
 10
58.34822719327872
 20
546.7607589229697
 30
0.0
 11
58.34822719327872
 21
541.5107589229697
 31
0.0
  0
LINE
  5
AD
330
1F
100
AcDbEntity
  8
0
  6
Continuous
 62
     7
370
    25
100
AcDbLine
 10
58.34822719327872
 20
570.5112634130696
 30
0.0
 11
58.34822719327872
 21
556.2607589229697
 31
0.0
  0
LINE
  5
AE
330
1F
100
AcDbEntity
  8
0
  6
Continuous
 62
     7
370
    25
100
AcDbLine
 10
262.3482271932787
 20
541.5107589229697
 30
0.0
 11
262.3482271932787
 21
570.5112634130696
 31
0.0
  0
ARC
  5
AF
330
1F
100
AcDbEntity
  8
0
  6
Continuous
 62
     7
370
    25
100
AcDbCircle
 10
252.3482271932787
 20
479.5107589229697
 30
0.0
 40
1.0
100
AcDbArc
 50
0.0
 51
90.0
  0
ARC
  5
B0
330
1F
100
AcDbEntity
  8
0
  6
Continuous
 62
     7
370
    25
100
AcDbCircle
 10
68.34822719327872
 20
479.5107589229697
 30
0.0
 40
1.0
100
AcDbArc
 50
90.0
 51
180.0
  0
LINE
  5
B1
330
1F
100
AcDbEntity
  8
0
  6
Continuous
 62
     7
370
    25
100
AcDbLine
 10
253.3482271932787
 20
442.5107589229697
 30
0.0
 11
253.3482271932787
 21
479.5107589229697
 31
0.0
  0
LINE
  5
B2
330
1F
100
AcDbEntity
  8
0
  6
Continuous
 62
     7
370
    25
100
AcDbLine
 10
67.34822719327872
 20
479.5107589229697
 30
0.0
 11
67.34822719327872
 21
442.5107589229697
 31
0.0
  0
LINE
  5
B3
330
1F
100
AcDbEntity
  8
0
  6
Continuous
 62
     7
370
    25
100
AcDbLine
 10
253.3482271932787
 20
372.5107589229697
 30
0.0
 11
253.3482271932787
 21
409.5107589229697
 31
0.0
  0
LINE
  5
B4
330
1F
100
AcDbEntity
  8
0
  6
Continuous
 62
     7
370
    25
100
AcDbLine
 10
67.34822719327872
 20
409.5107589229697
 30
0.0
 11
67.34822719327872
 21
372.5107589229697
 31
0.0
  0
ARC
  5
B5
330
1F
100
AcDbEntity
  8
0
  6
Continuous
 62
     7
370
    25
100
AcDbCircle
 10
252.3482271932787
 20
409.5107589229697
 30
0.0
 40
1.0
100
AcDbArc
 50
0.0
 51
90.0
  0
ARC
  5
B6
330
1F
100
AcDbEntity
  8
0
  6
Continuous
 62
     7
370
    25
100
AcDbCircle
 10
68.34822719327872
 20
409.5107589229697
 30
0.0
 40
1.0
100
AcDbArc
 50
90.0
 51
180.0
  0
LINE
  5
B7
330
1F
100
AcDbEntity
  8
0
  6
Continuous
 62
     7
370
    25
100
AcDbLine
 10
134.9192728362788
 20
357.1788996079697
 30
0.0
 11
134.9563220261788
 21
357.4594982995696
 31
0.0
  0
SPLINE
  5
B8
330
1F
100
AcDbEntity
  8
0
  6
Continuous
 62
     7
370
    25
100
AcDbSpline
210
0.0
220
0.0
230
1.0
 70
     8
 71
     3
 72
    14
 73
    10
 74
     0
 42
0.000000001
 43
0.00000001
 40
0.0
 40
0.0
 40
0.0
 40
0.0
 40
0.1917898868556184
 40
0.404823610323039
 40
0.5224325916844533
 40
0.6224801912522658
 40
0.7205096422718197
 40
0.8487305232678121
 40
1.0
 40
1.0
 40
1.0
 40
1.0
 10
135.0433839719627
 20
358.118877576154
 30
0.0
 10
135.1754300182346
 20
358.9807814088064
 30
0.0
 10
135.4541483493055
 20
360.8000588848302
 30
0.0
 10
135.507673386402
 20
363.2123817114265
 30
0.0
 10
135.447108931377
 20
365.2559518611879
 30
0.0
 10
135.3382016290087
 20
366.7987096384203
 30
0.0
 10
135.1546010094497
 20
368.4494657426006
 30
0.0
 10
134.8269482377876
 20
370.3734404144469
 30
0.0
 10
134.3929150824519
 20
371.7601990366506
 30
0.0
 10
134.1580019039588
 20
372.5107589230087
 30
0.0
  0
SPLINE
  5
B9
330
1F
100
AcDbEntity
  8
0
  6
Continuous
 62
     7
370
    25
100
AcDbSpline
210
0.0
220
0.0
230
1.0
 70
     8
 71
     3
 72
    12
 73
     8
 74
     0
 42
0.000000001
 43
0.00000001
 40
0.0
 40
0.0
 40
0.0
 40
0.0
 40
0.0356993851213224
 40
0.2306232208500517
 40
0.4744307733061324
 40
0.7678050060571837
 40
0.9999999999999999
 40
0.9999999999999999
 40
0.9999999999999999
 40
0.9999999999999999
 10
186.5505396095185
 20
372.5107589230086
 30
0.0
 10
186.4852708767028
 20
372.346308130174
 30
0.0
 10
186.0636253684785
 20
371.2839320868334
 30
0.0
 10
185.621201631919
 20
369.0528818642621
 30
0.0
 10
185.2215419070498
 20
365.6664656851016
 30
0.0
 10
185.1265656712087
 20
362.1244440377833
 30
0.0
 10
185.4592982304059
 20
359.7307202210883
 30
0.0
 10
185.6062985314954
 20
358.6731798270002
 30
0.0
  0
LINE
  5
BA
330
1F
100
AcDbEntity
  8
0
  6
Continuous
 62
     7
370
    25
100
AcDbLine
 10
185.7494205006788
 20
357.4216581212697
 30
0.0
 11
185.7771819659788
 21
357.1788996079697
 31
0.0
  0
SPLINE
  5
BB
330
1F
100
AcDbEntity
  8
0
  6
Continuous
 62
     7
370
    25
100
AcDbSpline
210
0.0
220
0.0
230
1.0
 70
     8
 71
     3
 72
    16
 73
    12
 74
     0
 42
0.000000001
 43
0.00000001
 40
0.0
 40
0.0
 40
0.0
 40
0.0
 40
0.0108915398430427
 40
0.1259113883608839
 40
0.2335746090865673
 40
0.3349191046813293
 40
0.4821073661630844
 40
0.6345800078150247
 40
0.7405772127974921
 40
0.8581359459600781
 40
1.0
 40
1.0
 40
1.0
 40
1.0
 10
217.8850088638375
 20
372.5107589230086
 30
0.0
 10
217.850525034744
 20
372.3982233116611
 30
0.0
 10
217.4518755453502
 20
371.0972580423808
 30
0.0
 10
217.5212260168373
 20
368.5406485896003
 30
0.0
 10
217.6118508346235
 20
365.0711217195558
 30
0.0
 10
218.1274523590721
 20
361.2546608057119
 30
0.0
 10
219.1572729787675
 20
357.0508163411572
 30
0.0
 10
220.6594886150978
 20
352.9352520531743
 30
0.0
 10
222.3376254952483
 20
349.2839209871664
 30
0.0
 10
224.2325511934941
 20
345.9081388123764
 30
0.0
 10
225.8486830517179
 20
343.6730800292113
 30
0.0
 10
226.7324566775548
 20
342.4508493091711
 30
0.0
  0
SPLINE
  5
BC
330
1F
100
AcDbEntity
  8
0
  6
Continuous
 62
     7
370
    25
100
AcDbSpline
210
0.0
220
0.0
230
1.0
 70
     8
 71
     3
 72
     9
 73
     5
 74
     0
 42
0.000000001
 43
0.00000001
 40
0.0
 40
0.0
 40
0.0
 40
0.0
 40
0.3291145788252053
 40
1.0
 40
1.0
 40
1.0
 40
1.0
 10
231.2848874953629
 20
345.9492556185077
 30
0.0
 10
231.5833469636763
 20
345.5852435587624
 30
0.0
 10
232.4902027747401
 20
344.4792091161536
 30
0.0
 10
233.3970026799784
 20
343.3945651920883
 30
0.0
 10
234.0053615163255
 20
342.6668933962671
 30
0.0
  0
SPLINE
  5
BD
330
1F
100
AcDbEntity
  8
0
  6
Continuous
 62
     7
370
    25
100
AcDbSpline
210
0.0
220
0.0
230
1.0
 70
     8
 71
     3
 72
    10
 73
     6
 74
     0
 42
0.000000001
 43
0.00000001
 40
0.0
 40
0.0
 40
0.0
 40
0.0
 40
0.0112574238763046
 40
0.4628758489357903
 40
1.0
 40
1.0
 40
1.0
 40
1.0
 10
238.4026012534961
 20
347.140578205945
 30
0.0
 10
238.4172747621183
 20
347.1187353161268
 30
0.0
 10
239.02061108799
 20
346.220612772382
 30
0.0
 10
240.4643926600055
 20
344.3412840512786
 30
0.0
 10
241.9892590622738
 20
342.5769989580341
 30
0.0
 10
242.8176269222033
 20
341.6185693770411
 30
0.0
  0
SPLINE
  5
BE
330
1F
100
AcDbEntity
  8
0
  6
Continuous
 62
     7
370
    25
100
AcDbSpline
210
0.0
220
0.0
230
1.0
 70
     8
 71
     3
 72
    10
 73
     6
 74
     0
 42
0.000000001
 43
0.00000001
 40
0.0
 40
0.0
 40
0.0
 40
0.0
 40
0.0112574238762971
 40
0.4628758489357958
 40
1.0
 40
1.0
 40
1.0
 40
1.0
 10
238.4026012534948
 20
487.1405782059452
 30
0.0
 10
238.4172747621169
 20
487.1187353161271
 30
0.0
 10
239.0206110879891
 20
486.2206127723846
 30
0.0
 10
240.4643926600039
 20
484.3412840512775
 30
0.0
 10
241.9892590622725
 20
482.5769989580338
 30
0.0
 10
242.8176269222022
 20
481.6185693770412
 30
0.0
  0
SPLINE
  5
BF
330
1F
100
AcDbEntity
  8
0
  6
Continuous
 62
     7
370
    25
100
AcDbSpline
210
0.0
220
0.0
230
1.0
 70
     8
 71
     3
 72
    16
 73
    12
 74
     0
 42
0.000000001
 43
0.00000001
 40
0.0
 40
0.0
 40
0.0
 40
0.0
 40
0.0265666909605851
 40
0.1397637327998262
 40
0.2457207329009194
 40
0.345459145495311
 40
0.4903148030874091
 40
0.6403710952736843
 40
0.7446884822452193
 40
0.8603841731007789
 40
1.0
 40
1.0
 40
1.0
 40
1.0
 10
218.0331363475143
 20
513.0107589230086
 30
0.0
 10
217.9445365905168
 20
512.7323959673911
 30
0.0
 10
217.4784253694583
 20
511.2679664752862
 30
0.0
 10
217.5096468217621
 20
508.5426989002972
 30
0.0
 10
217.6146334753157
 20
505.0706290015438
 30
0.0
 10
218.1263518453087
 20
501.2548556720326
 30
0.0
 10
219.1576301315558
 20
497.0507531006485
 30
0.0
 10
220.659424128066
 20
492.9352634717966
 30
0.0
 10
222.3376417185614
 20
489.2839181145285
 30
0.0
 10
224.2325459348175
 20
485.9081397435226
 30
0.0
 10
225.8486811926548
 20
483.6730803583926
 30
0.0
 10
226.7324566775536
 20
482.4508493091712
 30
0.0
  0
SPLINE
  5
C0
330
1F
100
AcDbEntity
  8
0
  6
Continuous
 62
     7
370
    25
100
AcDbSpline
210
0.0
220
0.0
230
1.0
 70
     8
 71
     3
 72
     9
 73
     5
 74
     0
 42
0.000000001
 43
0.00000001
 40
0.0
 40
0.0
 40
0.0
 40
0.0
 40
0.3291145788252039
 40
1.0
 40
1.0
 40
1.0
 40
1.0
 10
231.2848874953617
 20
485.9492556185079
 30
0.0
 10
231.5833469636751
 20
485.5852435587627
 30
0.0
 10
232.4902027747388
 20
484.4792091161542
 30
0.0
 10
233.3970026799772
 20
483.3945651920887
 30
0.0
 10
234.0053615163242
 20
482.6668933962673
 30
0.0
  0
SPLINE
  5
C1
330
1F
100
AcDbEntity
  8
0
  6
Continuous
 62
     7
370
    25
100
AcDbSpline
210
0.0
220
0.0
230
1.0
 70
     8
 71
     3
 72
    12
 73
     8
 74
     0
 42
0.000000001
 43
0.00000001
 40
0.0
 40
0.0
 40
0.0
 40
0.0
 40
0.0693350437270096
 40
0.2574597636079199
 40
0.4927630929271799
 40
0.7759041728789258
 40
1.0
 40
1.0
 40
1.0
 40
1.0
 10
186.743759614474
 20
513.0107589230086
 30
0.0
 10
186.6100438726755
 20
512.6800746539063
 30
0.0
 10
186.1135211703948
 20
511.4521545549854
 30
0.0
 10
185.6137125901921
 20
509.0536848116481
 30
0.0
 10
185.2242382870189
 20
505.6661765892032
 30
0.0
 10
185.126013041889
 20
502.1245032886576
 30
0.0
 10
185.4591288930861
 20
499.7307383768099
 30
0.0
 10
185.6062985314942
 20
498.6731798270006
 30
0.0
  0
LINE
  5
C2
330
1F
100
AcDbEntity
  8
0
  6
Continuous
 62
     7
370
    25
100
AcDbLine
 10
185.7494205006788
 20
497.4216581212697
 30
0.0
 11
185.7771819659788
 21
497.1788996079696
 31
0.0
  0
LINE
  5
C3
330
1F
100
AcDbEntity
  8
0
  6
Continuous
 62
     7
370
    25
100
AcDbLine
 10
134.9192728362788
 20
497.1788996079696
 30
0.0
 11
134.9563220261788
 21
497.4594982995696
 31
0.0
  0
SPLINE
  5
C4
330
1F
100
AcDbEntity
  8
0
  6
Continuous
 62
     7
370
    25
100
AcDbSpline
210
0.0
220
0.0
230
1.0
 70
     8
 71
     3
 72
    15
 73
    11
 74
     0
 42
0.000000001
 43
0.00000001
 40
0.0
 40
0.0
 40
0.0
 40
0.0
 40
0.1861016874853063
 40
0.3928171513638277
 40
0.5069380273580116
 40
0.6040183657099601
 40
0.6991404107619646
 40
0.8235584534201307
 40
0.9780731499956493
 40
1.0
 40
1.0
 40
1.0
 40
1.0
 10
135.0433839719615
 20
498.1188775761543
 30
0.0
 10
135.1754494929385
 20
498.980788475093
 30
0.0
 10
135.4542089305585
 20
500.8000808663955
 30
0.0
 10
135.5074510956883
 20
503.2123010544996
 30
0.0
 10
135.4475130740647
 20
505.2560985020758
 30
0.0
 10
135.3369304293537
 20
506.7982483908187
 30
0.0
 10
135.1598755256231
 20
508.4513795709511
 30
0.0
 10
134.7906665774666
 20
510.4033926165823
 30
0.0
 10
134.4193405648408
 20
511.9827897135598
 30
0.0
 10
134.0296293021424
 20
512.8453019689136
 30
0.0
 10
133.9811988696971
 20
512.9524886107033
 30
0.0
  0
LINE
  5
C5
330
1F
100
AcDbEntity
  8
0
  6
Continuous
 62
     7
370
    25
100
AcDbLine
 10
134.9192728362788
 20
427.1788996079697
 30
0.0
 11
134.9563220261788
 21
427.4594982995696
 31
0.0
  0
SPLINE
  5
C6
330
1F
100
AcDbEntity
  8
0
  6
Continuous
 62
     7
370
    25
100
AcDbSpline
210
0.0
220
0.0
230
1.0
 70
     8
 71
     3
 72
    14
 73
    10
 74
     0
 42
0.000000001
 43
0.00000001
 40
0.0
 40
0.0
 40
0.0
 40
0.0
 40
0.1917898868556089
 40
0.4048236103230362
 40
0.5224325916844524
 40
0.6224801912522667
 40
0.7205096422718256
 40
0.8487305232678134
 40
1.0
 40
1.0
 40
1.0
 40
1.0
 10
135.0433839719688
 20
428.1188775761542
 30
0.0
 10
135.1754300182406
 20
428.9807814088065
 30
0.0
 10
135.4541483493115
 20
430.8000588848304
 30
0.0
 10
135.5076733864081
 20
433.2123817114265
 30
0.0
 10
135.447108931383
 20
435.2559518611879
 30
0.0
 10
135.3382016290147
 20
436.7987096384203
 30
0.0
 10
135.1546010094557
 20
438.449465742601
 30
0.0
 10
134.8269482377937
 20
440.373440414447
 30
0.0
 10
134.3929150824579
 20
441.7601990366508
 30
0.0
 10
134.158001903965
 20
442.5107589230087
 30
0.0
  0
SPLINE
  5
C7
330
1F
100
AcDbEntity
  8
0
  6
Continuous
 62
     7
370
    25
100
AcDbSpline
210
0.0
220
0.0
230
1.0
 70
     8
 71
     3
 72
    12
 73
     8
 74
     0
 42
0.000000001
 43
0.00000001
 40
0.0
 40
0.0
 40
0.0
 40
0.0
 40
0.0356993851213135
 40
0.2306232208500439
 40
0.4744307733061261
 40
0.7678050060571824
 40
1.0
 40
1.0
 40
1.0
 40
1.0
 10
186.5505396095244
 20
442.5107589230087
 30
0.0
 10
186.4852708767088
 20
442.346308130174
 30
0.0
 10
186.0636253684846
 20
441.2839320868338
 30
0.0
 10
185.621201631925
 20
439.0528818642621
 30
0.0
 10
185.2215419070559
 20
435.6664656851019
 30
0.0
 10
185.1265656712146
 20
432.1244440377833
 30
0.0
 10
185.4592982304119
 20
429.7307202210883
 30
0.0
 10
185.6062985315016
 20
428.6731798270004
 30
0.0
  0
LINE
  5
C8
330
1F
100
AcDbEntity
  8
0
  6
Continuous
 62
     7
370
    25
100
AcDbLine
 10
185.7494205006788
 20
427.4216581212697
 30
0.0
 11
185.7771819659788
 21
427.1788996079697
 31
0.0
  0
SPLINE
  5
C9
330
1F
100
AcDbEntity
  8
0
  6
Continuous
 62
     7
370
    25
100
AcDbSpline
210
0.0
220
0.0
230
1.0
 70
     8
 71
     3
 72
    16
 73
    12
 74
     0
 42
0.000000001
 43
0.00000001
 40
0.0
 40
0.0
 40
0.0
 40
0.0
 40
0.0108915398430392
 40
0.1259113883608808
 40
0.2335746090865646
 40
0.3349191046813253
 40
0.482107366163081
 40
0.6345800078150219
 40
0.7405772127974897
 40
0.8581359459600761
 40
1.0
 40
1.0
 40
1.0
 40
1.0
 10
217.8850088638434
 20
442.5107589230087
 30
0.0
 10
217.8505250347501
 20
442.3982233116614
 30
0.0
 10
217.4518755453562
 20
441.0972580423809
 30
0.0
 10
217.5212260168435
 20
438.5406485896008
 30
0.0
 10
217.6118508346296
 20
435.0711217195559
 30
0.0
 10
218.1274523590782
 20
431.254660805712
 30
0.0
 10
219.1572729787737
 20
427.0508163411577
 30
0.0
 10
220.6594886151038
 20
422.9352520531746
 30
0.0
 10
222.3376254952543
 20
419.2839209871664
 30
0.0
 10
224.2325511935003
 20
415.9081388123765
 30
0.0
 10
225.8486830517239
 20
413.6730800292115
 30
0.0
 10
226.7324566775608
 20
412.4508493091713
 30
0.0
  0
SPLINE
  5
CA
330
1F
100
AcDbEntity
  8
0
  6
Continuous
 62
     7
370
    25
100
AcDbSpline
210
0.0
220
0.0
230
1.0
 70
     8
 71
     3
 72
     9
 73
     5
 74
     0
 42
0.000000001
 43
0.00000001
 40
0.0
 40
0.0
 40
0.0
 40
0.0
 40
0.3291145419721589
 40
0.9999999999999999
 40
0.9999999999999999
 40
0.9999999999999999
 40
0.9999999999999999
 10
231.284887644814
 20
415.9492554366246
 30
0.0
 10
231.5833470633119
 20
415.5852434377225
 30
0.0
 10
232.4902028245597
 20
414.4792090561333
 30
0.0
 10
233.397002679985
 20
413.3945651919122
 30
0.0
 10
234.0053615163315
 20
412.6668933962673
 30
0.0
  0
SPLINE
  5
CB
330
1F
100
AcDbEntity
  8
0
  6
Continuous
 62
     7
370
    25
100
AcDbSpline
210
0.0
220
0.0
230
1.0
 70
     8
 71
     3
 72
    10
 73
     6
 74
     0
 42
0.000000001
 43
0.00000001
 40
0.0
 40
0.0
 40
0.0
 40
0.0
 40
0.0112574238762971
 40
0.4628758489357958
 40
1.0
 40
1.0
 40
1.0
 40
1.0
 10
238.4026012535022
 20
417.1405782059451
 30
0.0
 10
238.4172747621243
 20
417.1187353161268
 30
0.0
 10
239.0206110879964
 20
416.220612772383
 30
0.0
 10
240.4643926600113
 20
414.3412840512784
 30
0.0
 10
241.9892590622799
 20
412.576998958034
 30
0.0
 10
242.8176269222095
 20
411.6185693770412
 30
0.0
  0
SPLINE
  5
CC
330
1F
100
AcDbEntity
  8
0
  6
Continuous
 62
     7
370
    25
100
AcDbSpline
210
0.0
220
0.0
230
1.0
 70
     8
 71
     3
 72
    10
 73
     6
 74
     0
 42
0.000000001
 43
0.00000001
 40
0.0
 40
0.0
 40
0.0
 40
0.0
 40
0.5371241276971978
 40
0.9887425331095953
 40
1.0
 40
1.0
 40
1.0
 40
1.0
 10
77.87882746437549
 20
341.618569377061
 30
0.0
 10
78.70719532500914
 20
342.5769989577478
 30
0.0
 10
80.23206172857408
 20
344.3412840504284
 30
0.0
 10
81.67584335746983
 20
346.2206128558686
 30
0.0
 10
82.27917973806768
 20
347.1187354848831
 30
0.0
 10
82.29385330334674
 20
347.1405784591333
 30
0.0
  0
SPLINE
  5
CD
330
1F
100
AcDbEntity
  8
0
  6
Continuous
 62
     7
370
    25
100
AcDbSpline
210
0.0
220
0.0
230
1.0
 70
     8
 71
     3
 72
    16
 73
    12
 74
     0
 42
0.000000001
 43
0.00000001
 40
0.0
 40
0.0
 40
0.0
 40
0.0
 40
0.1418640540399911
 40
0.2594227872026547
 40
0.3654199921851938
 40
0.5178926338372372
 40
0.6650808953190903
 40
0.7664253909139196
 40
0.8740886116396736
 40
0.9891084601575906
 40
1.0
 40
1.0
 40
1.0
 40
1.0
 10
93.96399794905028
 20
342.4508493091912
 30
0.0
 10
94.84777157488713
 20
343.6730800292312
 30
0.0
 10
96.46390343311066
 20
345.9081388123961
 30
0.0
 10
98.35882913135674
 20
349.2839209871856
 30
0.0
 10
100.0369660115075
 20
352.9352520531938
 30
0.0
 10
101.5391816478379
 20
357.0508163411771
 30
0.0
 10
102.5690022675333
 20
361.2546608057315
 30
0.0
 10
103.0846037919823
 20
365.0711217195754
 30
0.0
 10
103.1752286097681
 20
368.5406485896201
 30
0.0
 10
103.244579081257
 20
371.0972580423938
 30
0.0
 10
102.8459295918658
 20
372.3982233116678
 30
0.0
 10
102.8114457627746
 20
372.5107589230086
 30
0.0
  0
SPLINE
  5
CE
330
1F
100
AcDbEntity
  8
0
  6
Continuous
 62
     7
370
    25
100
AcDbSpline
210
0.0
220
0.0
230
1.0
 70
     8
 71
     3
 72
     9
 73
     5
 74
     0
 42
0.000000001
 43
0.00000001
 40
0.0
 40
0.0
 40
0.0
 40
0.0
 40
0.6708854580279183
 40
1.0
 40
1.0
 40
1.0
 40
1.0
 10
86.69109311027955
 20
342.6668933962885
 30
0.0
 10
87.29945194662628
 20
343.3945651919335
 30
0.0
 10
88.20625180205138
 20
344.4792090561543
 30
0.0
 10
89.1131075632992
 20
345.5852434377434
 30
0.0
 10
89.41156698179691
 20
345.9492554366453
 30
0.0
  0
SPLINE
  5
CF
330
1F
100
AcDbEntity
  8
0
  6
Continuous
 62
     7
370
    25
100
AcDbSpline
210
0.0
220
0.0
230
1.0
 70
     8
 71
     3
 72
    10
 73
     6
 74
     0
 42
0.000000001
 43
0.00000001
 40
0.0
 40
0.0
 40
0.0
 40
0.0
 40
0.537124127697198
 40
0.9887425331095887
 40
1.0
 40
1.0
 40
1.0
 40
1.0
 10
77.87882746438788
 20
411.618569377061
 30
0.0
 10
78.70719532502153
 20
412.5769989577478
 30
0.0
 10
80.23206172858636
 20
414.3412840504284
 30
0.0
 10
81.67584335748256
 20
416.2206128558686
 30
0.0
 10
82.27917973808007
 20
417.1187354848832
 30
0.0
 10
82.29385330335913
 20
417.1405784591333
 30
0.0
  0
SPLINE
  5
D0
330
1F
100
AcDbEntity
  8
0
  6
Continuous
 62
     7
370
    25
100
AcDbSpline
210
0.0
220
0.0
230
1.0
 70
     8
 71
     3
 72
    16
 73
    12
 74
     0
 42
0.000000001
 43
0.00000001
 40
0.0
 40
0.0
 40
0.0
 40
0.0
 40
0.1418640540399906
 40
0.2594227872026537
 40
0.3654199921851908
 40
0.5178926338372336
 40
0.6650808953190878
 40
0.7664253909139166
 40
0.8740886116396686
 40
0.9891084601575868
 40
1.0
 40
1.0
 40
1.0
 40
1.0
 10
93.96399794906267
 20
412.4508493091911
 30
0.0
 10
94.84777157489953
 20
413.6730800292311
 30
0.0
 10
96.46390343312316
 20
415.908138812396
 30
0.0
 10
98.35882913136902
 20
419.2839209871858
 30
0.0
 10
100.0369660115199
 20
422.9352520531937
 30
0.0
 10
101.5391816478503
 20
427.0508163411769
 30
0.0
 10
102.5690022675458
 20
431.2546608057312
 30
0.0
 10
103.0846037919948
 20
435.0711217195754
 30
0.0
 10
103.1752286097804
 20
438.5406485896204
 30
0.0
 10
103.2445790812694
 20
441.0972580423932
 30
0.0
 10
102.8459295918782
 20
442.3982233116681
 30
0.0
 10
102.811445762787
 20
442.5107589230087
 30
0.0
  0
SPLINE
  5
D1
330
1F
100
AcDbEntity
  8
0
  6
Continuous
 62
     7
370
    25
100
AcDbSpline
210
0.0
220
0.0
230
1.0
 70
     8
 71
     3
 72
     9
 73
     5
 74
     0
 42
0.000000001
 43
0.00000001
 40
0.0
 40
0.0
 40
0.0
 40
0.0
 40
0.6708854580279363
 40
0.9999999999999999
 40
0.9999999999999999
 40
0.9999999999999999
 40
0.9999999999999999
 10
86.69109311029194
 20
412.6668933962884
 30
0.0
 10
87.29945194663867
 20
413.3945651919335
 30
0.0
 10
88.20625180206389
 20
414.4792090561543
 30
0.0
 10
89.11310756331159
 20
415.5852434377431
 30
0.0
 10
89.4115669818093
 20
415.9492554366453
 30
0.0
  0
SPLINE
  5
D2
330
1F
100
AcDbEntity
  8
0
  6
Continuous
 62
     7
370
    25
100
AcDbSpline
210
0.0
220
0.0
230
1.0
 70
     8
 71
     3
 72
    16
 73
    12
 74
     0
 42
0.000000001
 43
0.00000001
 40
0.0
 40
0.0
 40
0.0
 40
0.0
 40
0.1396158268992855
 40
0.2553115177549192
 40
0.3596289047265215
 40
0.5096851969128956
 40
0.6545408545050893
 40
0.7542792670995471
 40
0.8602362672007062
 40
0.9734333090400218
 40
1.0
 40
1.0
 40
1.0
 40
1.0
 10
93.96399794906176
 20
482.4508493091911
 30
0.0
 10
94.84777343396036
 20
483.6730803584123
 30
0.0
 10
96.46390869179777
 20
485.9081397435419
 30
0.0
 10
98.35881290805378
 20
489.2839181145479
 30
0.0
 10
100.0370304985494
 20
492.9352634718156
 30
0.0
 10
101.5388244950598
 20
497.0507531006685
 30
0.0
 10
102.570102781307
 20
501.2548556720519
 30
0.0
 10
103.0818211513003
 20
505.0706290015632
 30
0.0
 10
103.1868078048536
 20
508.5426989003169
 30
0.0
 10
103.2180292571589
 20
511.2679664752991
 30
0.0
 10
102.7519180361031
 20
512.7323959673977
 30
0.0
 10
102.6633182791079
 20
513.0107589230086
 30
0.0
  0
SPLINE
  5
D3
330
1F
100
AcDbEntity
  8
0
  6
Continuous
 62
     7
370
    25
100
AcDbSpline
210
0.0
220
0.0
230
1.0
 70
     8
 71
     3
 72
     9
 73
     5
 74
     0
 42
0.000000001
 43
0.00000001
 40
0.0
 40
0.0
 40
0.0
 40
0.0
 40
0.6708854580279363
 40
0.9999999999999999
 40
0.9999999999999999
 40
0.9999999999999999
 40
0.9999999999999999
 10
86.69109311029115
 20
482.6668933962883
 30
0.0
 10
87.29945194663765
 20
483.3945651919333
 30
0.0
 10
88.20625180206287
 20
484.4792090561542
 30
0.0
 10
89.11310756331056
 20
485.5852434377431
 30
0.0
 10
89.41156698180828
 20
485.9492554366453
 30
0.0
  0
SPLINE
  5
D4
330
1F
100
AcDbEntity
  8
0
  6
Continuous
 62
     7
370
    25
100
AcDbSpline
210
0.0
220
0.0
230
1.0
 70
     8
 71
     3
 72
    10
 73
     6
 74
     0
 42
0.000000001
 43
0.00000001
 40
0.0
 40
0.0
 40
0.0
 40
0.0
 40
0.5371241276971976
 40
0.9887425331095888
 40
1.0
 40
1.0
 40
1.0
 40
1.0
 10
77.87882746438697
 20
481.6185693770611
 30
0.0
 10
78.7071953250205
 20
482.5769989577475
 30
0.0
 10
80.23206172858545
 20
484.341284050428
 30
0.0
 10
81.67584335748143
 20
486.2206128558695
 30
0.0
 10
82.27917973807905
 20
487.1187354848832
 30
0.0
 10
82.2938533033581
 20
487.1405784591333
 30
0.0
  0
LINE
  5
D5
330
1F
100
AcDbEntity
  8
0
  6
Continuous
 62
     7
370
    25
100
AcDbLine
 10
108.0740934032788
 20
410.5107589229697
 30
0.0
 11
108.0204935317788
 21
412.0456584196696
 31
0.0
  0
LINE
  5
D6
330
1F
100
AcDbEntity
  8
0
  6
Continuous
 62
     7
370
    25
100
AcDbLine
 10
100.9530894273788
 20
412.0456584196696
 30
0.0
 11
100.8994895557788
 21
410.5107589229697
 31
0.0
  0
ARC
  5
D7
330
1F
100
AcDbEntity
  8
0
  6
Continuous
 62
     7
370
    25
100
AcDbCircle
 10
101.9524802543788
 20
412.0107589229697
 30
0.0
 40
1.000000000000075
100
AcDbArc
 50
90.0
 51
177.9999999999998
  0
ARC
  5
D8
330
1F
100
AcDbEntity
  8
0
  6
Continuous
 62
     7
370
    25
100
AcDbCircle
 10
107.0211027047787
 20
412.0107589229697
 30
0.0
 40
1.000000000000075
100
AcDbArc
 50
2.000000000000244
 51
90.0
  0
LINE
  5
D9
330
1F
100
AcDbEntity
  8
0
  6
Continuous
 62
     7
370
    25
100
AcDbLine
 10
120.0449725193788
 20
412.0456584196696
 30
0.0
 11
119.9913726478787
 21
410.5107589229697
 31
0.0
  0
ARC
  5
DA
330
1F
100
AcDbEntity
  8
0
  6
Continuous
 62
     7
370
    25
100
AcDbCircle
 10
121.0443633463788
 20
412.0107589229697
 30
0.0
 40
1.0
100
AcDbArc
 50
90.0
 51
177.9999999999995
  0
LINE
  5
DB
330
1F
100
AcDbEntity
  8
0
  6
Continuous
 62
     7
370
    25
100
AcDbLine
 10
137.7725782130788
 20
410.5107589229697
 30
0.0
 11
137.7189783415788
 21
412.0456584196696
 31
0.0
  0
LWPOLYLINE
  5
DC
330
1F
100
AcDbEntity
  8
0
  6
Continuous
 62
     7
370
    25
100
AcDbPolyline
 90
        3
 70
   128
 43
0.0
 10
131.6509650641788
 20
413.0107589229697
 10
131.4601560687788
 20
412.9923861064697
 10
131.3568491647787
 20
412.9665286848697
  0
ARC
  5
DD
330
1F
100
AcDbEntity
  8
0
  6
Continuous
 62
     7
370
    25
100
AcDbCircle
 10
136.7195875145787
 20
412.0107589229697
 30
0.0
 40
1.000000000000075
100
AcDbArc
 50
2.000000000000244
 51
90.0
  0
LINE
  5
DE
330
1F
100
AcDbEntity
  8
0
  6
Continuous
 62
     7
370
    25
100
AcDbLine
 10
112.6702874809788
 20
410.5107589229697
 30
0.0
 11
112.6294841066788
 21
411.6792146848696
 31
0.0
  0
LINE
  5
DF
330
1F
100
AcDbEntity
  8
0
  6
Continuous
 62
     7
370
    25
100
AcDbLine
 10
176.6634511783788
 20
410.5107589229697
 30
0.0
 11
176.6098513068788
 21
412.0456584196696
 31
0.0
  0
ARC
  5
E0
330
1F
100
AcDbEntity
  8
0
  6
Continuous
 62
     7
370
    25
100
AcDbCircle
 10
175.6104604798787
 20
412.0107589229697
 30
0.0
 40
1.000000000000075
100
AcDbArc
 50
2.000000000000244
 51
90.0
  0
LINE
  5
E1
330
1F
100
AcDbEntity
  8
0
  6
Continuous
 62
     7
370
    25
100
AcDbLine
 10
140.9545587284788
 20
410.5107589229697
 30
0.0
 11
140.9009588569787
 21
412.0456584196696
 31
0.0
  0
ARC
  5
E2
330
1F
100
AcDbEntity
  8
0
  6
Continuous
 62
     7
370
    25
100
AcDbCircle
 10
139.9015680298787
 20
412.0107589229697
 30
0.0
 40
1.0
100
AcDbArc
 50
2.000000000000471
 51
90.0
  0
LWPOLYLINE
  5
E3
330
1F
100
AcDbEntity
  8
0
  6
Continuous
 62
     7
370
    25
100
AcDbPolyline
 90
        3
 70
   128
 43
0.0
 10
189.6337211214787
 20
413.0107589229697
 10
189.4429121260788
 20
412.9923861064697
 10
189.3396052221788
 20
412.9665286848697
  0
LINE
  5
E4
330
1F
100
AcDbEntity
  8
0
  6
Continuous
 62
     7
370
    25
100
AcDbLine
 10
108.0740934032788
 20
480.5107589229697
 30
0.0
 11
108.0204935317788
 21
482.0456584196697
 31
0.0
  0
LINE
  5
E5
330
1F
100
AcDbEntity
  8
0
  6
Continuous
 62
     7
370
    25
100
AcDbLine
 10
100.9530894273788
 20
482.0456584196697
 30
0.0
 11
100.8994895557788
 21
480.5107589229697
 31
0.0
  0
ARC
  5
E6
330
1F
100
AcDbEntity
  8
0
  6
Continuous
 62
     7
370
    25
100
AcDbCircle
 10
101.9524802543788
 20
482.0107589229697
 30
0.0
 40
1.000000000000074
100
AcDbArc
 50
90.0
 51
177.9999999999998
  0
ARC
  5
E7
330
1F
100
AcDbEntity
  8
0
  6
Continuous
 62
     7
370
    25
100
AcDbCircle
 10
107.0211027047787
 20
482.0107589229697
 30
0.0
 40
1.0
100
AcDbArc
 50
2.000000000000471
 51
90.0
  0
LINE
  5
E8
330
1F
100
AcDbEntity
  8
0
  6
Continuous
 62
     7
370
    25
100
AcDbLine
 10
120.0449725193788
 20
482.0456584196697
 30
0.0
 11
119.9913726478787
 21
480.5107589229697
 31
0.0
  0
ARC
  5
E9
330
1F
100
AcDbEntity
  8
0
  6
Continuous
 62
     7
370
    25
100
AcDbCircle
 10
121.0443633463788
 20
482.0107589229697
 30
0.0
 40
1.0
100
AcDbArc
 50
90.0
 51
177.9999999999995
  0
LINE
  5
EA
330
1F
100
AcDbEntity
  8
0
  6
Continuous
 62
     7
370
    25
100
AcDbLine
 10
137.7725782130788
 20
480.5107589229697
 30
0.0
 11
137.7189783415788
 21
482.0456584196697
 31
0.0
  0
LWPOLYLINE
  5
EB
330
1F
100
AcDbEntity
  8
0
  6
Continuous
 62
     7
370
    25
100
AcDbPolyline
 90
        3
 70
   128
 43
0.0
 10
131.6509650641788
 20
483.0107589229697
 10
131.4601560687788
 20
482.9923861064697
 10
131.3568491649788
 20
482.9665286849697
  0
ARC
  5
EC
330
1F
100
AcDbEntity
  8
0
  6
Continuous
 62
     7
370
    25
100
AcDbCircle
 10
136.7195875145787
 20
482.0107589229697
 30
0.0
 40
1.000000000000074
100
AcDbArc
 50
2.000000000000244
 51
90.0
  0
LINE
  5
ED
330
1F
100
AcDbEntity
  8
0
  6
Continuous
 62
     7
370
    25
100
AcDbLine
 10
112.6702874809788
 20
480.5107589229697
 30
0.0
 11
112.6294841052787
 21
481.6792147255696
 31
0.0
  0
LINE
  5
EE
330
1F
100
AcDbEntity
  8
0
  6
Continuous
 62
     7
370
    25
100
AcDbLine
 10
176.6634511783788
 20
480.5107589229697
 30
0.0
 11
176.6098513068788
 21
482.0456584196697
 31
0.0
  0
ARC
  5
EF
330
1F
100
AcDbEntity
  8
0
  6
Continuous
 62
     7
370
    25
100
AcDbCircle
 10
175.6104604798787
 20
482.0107589229697
 30
0.0
 40
1.000000000000074
100
AcDbArc
 50
2.000000000000244
 51
90.0
  0
LINE
  5
F0
330
1F
100
AcDbEntity
  8
0
  6
Continuous
 62
     7
370
    25
100
AcDbLine
 10
140.9545587284788
 20
480.5107589229697
 30
0.0
 11
140.9009588569787
 21
482.0456584196697
 31
0.0
  0
ARC
  5
F1
330
1F
100
AcDbEntity
  8
0
  6
Continuous
 62
     7
370
    25
100
AcDbCircle
 10
139.9015680298787
 20
482.0107589229697
 30
0.0
 40
1.0
100
AcDbArc
 50
2.000000000000471
 51
90.0
  0
LWPOLYLINE
  5
F2
330
1F
100
AcDbEntity
  8
0
  6
Continuous
 62
     7
370
    25
100
AcDbPolyline
 90
        3
 70
   128
 43
0.0
 10
189.6337211214787
 20
483.0107589229697
 10
189.4429121260788
 20
482.9923861064697
 10
189.3396052221788
 20
482.9665286848697
  0
LINE
  5
F3
330
1F
100
AcDbEntity
  8
0
  6
Continuous
 62
     7
370
    25
100
AcDbLine
 10
132.1157239636788
 20
480.5107589229697
 30
0.0
 11
132.0621240920788
 21
482.0456584196697
 31
0.0
  0
LINE
  5
F4
330
1F
100
AcDbEntity
  8
0
  6
Continuous
 62
     7
370
    25
100
AcDbLine
 10
124.9840395539787
 20
481.7398108141697
 30
0.0
 11
124.9411201161788
 21
480.5107589229697
 31
0.0
  0
ARC
  5
F5
330
1F
100
AcDbEntity
  8
0
  6
Continuous
 62
     7
370
    25
100
AcDbCircle
 10
131.0627332650788
 20
482.0107589229697
 30
0.0
 40
1.0
100
AcDbArc
 50
2.000000000000471
 51
90.0
  0
LINE
  5
F6
330
1F
100
AcDbEntity
  8
0
  6
Continuous
 62
     7
370
    25
100
AcDbLine
 10
186.9164995055788
 20
480.5107589229697
 30
0.0
 11
186.8628996340788
 21
482.0456584196697
 31
0.0
  0
LINE
  5
F7
330
1F
100
AcDbEntity
  8
0
  6
Continuous
 62
     7
370
    25
100
AcDbLine
 10
179.7954955296788
 20
482.0456584196697
 30
0.0
 11
179.7418956581788
 21
480.5107589229697
 31
0.0
  0
ARC
  5
F8
330
1F
100
AcDbEntity
  8
0
  6
Continuous
 62
     7
370
    25
100
AcDbCircle
 10
185.8635088070788
 20
482.0107589229697
 30
0.0
 40
1.0
100
AcDbArc
 50
2.000000000000471
 51
90.0
  0
ARC
  5
F9
330
1F
100
AcDbEntity
  8
0
  6
Continuous
 62
     7
370
    25
100
AcDbCircle
 10
180.7948863566787
 20
482.0107589229697
 30
0.0
 40
1.000000000000074
100
AcDbArc
 50
90.0
 51
177.9999999999998
  0
LINE
  5
FA
330
1F
100
AcDbEntity
  8
0
  6
Continuous
 62
     7
370
    25
100
AcDbLine
 10
151.2076070556787
 20
480.5107589229697
 30
0.0
 11
151.1540071841788
 21
482.0456584196697
 31
0.0
  0
LINE
  5
FB
330
1F
100
AcDbEntity
  8
0
  6
Continuous
 62
     7
370
    25
100
AcDbLine
 10
144.0866030797788
 20
482.0456584196697
 30
0.0
 11
144.0330032081788
 21
480.5107589229697
 31
0.0
  0
ARC
  5
FC
330
1F
100
AcDbEntity
  8
0
  6
Continuous
 62
     7
370
    25
100
AcDbCircle
 10
145.0859939067788
 20
482.0107589229697
 30
0.0
 40
1.0
100
AcDbArc
 50
90.0
 51
177.9999999999995
  0
LINE
  5
FD
330
1F
100
AcDbEntity
  8
0
  6
Continuous
 62
     7
370
    25
100
AcDbLine
 10
215.2007707530788
 20
480.5107589229697
 30
0.0
 11
215.1471708815787
 21
482.0456584196697
 31
0.0
  0
LINE
  5
FE
330
1F
100
AcDbEntity
  8
0
  6
Continuous
 62
     7
370
    25
100
AcDbLine
 10
208.0669702813788
 20
481.6792147254696
 30
0.0
 11
208.0261669055787
 21
480.5107589229697
 31
0.0
  0
ARC
  5
FF
330
1F
100
AcDbEntity
  8
0
  6
Continuous
 62
     7
370
    25
100
AcDbCircle
 10
214.1477800544787
 20
482.0107589229697
 30
0.0
 40
1.0
100
AcDbArc
 50
2.000000000000471
 51
90.0
  0
LINE
  5
100
330
1F
100
AcDbEntity
  8
0
  6
Continuous
 62
     7
370
    25
100
AcDbLine
 10
190.0984800209787
 20
480.5107589229697
 30
0.0
 11
190.0448801493787
 21
482.0456584196697
 31
0.0
  0
ARC
  5
101
330
1F
100
AcDbEntity
  8
0
  6
Continuous
 62
     7
370
    25
100
AcDbCircle
 10
189.0454893223788
 20
482.0107589229697
 30
0.0
 40
1.0
100
AcDbArc
 50
2.000000000000471
 51
90.0
  0
LINE
  5
102
330
1F
100
AcDbEntity
  8
0
  6
Continuous
 62
     7
370
    25
100
AcDbLine
 10
200.7050817387787
 20
480.5107589229697
 30
0.0
 11
200.6514818671787
 21
482.0456584196697
 31
0.0
  0
LINE
  5
103
330
1F
100
AcDbEntity
  8
0
  6
Continuous
 62
     7
370
    25
100
AcDbLine
 10
193.5840777627787
 20
482.0456584196697
 30
0.0
 11
193.5304778912788
 21
480.5107589229697
 31
0.0
  0
ARC
  5
104
330
1F
100
AcDbEntity
  8
0
  6
Continuous
 62
     7
370
    25
100
AcDbCircle
 10
199.6520910401788
 20
482.0107589229697
 30
0.0
 40
1.000000000000074
100
AcDbArc
 50
2.000000000000244
 51
90.0
  0
LINE
  5
105
330
1F
100
AcDbEntity
  8
0
  6
Continuous
 62
     7
370
    25
100
AcDbLine
 10
219.7969648307787
 20
480.5107589229697
 30
0.0
 11
219.7433649592788
 21
482.0456584196697
 31
0.0
  0
ARC
  5
106
330
1F
100
AcDbEntity
  8
0
  6
Continuous
 62
     7
370
    25
100
AcDbCircle
 10
218.7439741322788
 20
482.0107589229697
 30
0.0
 40
1.0
100
AcDbArc
 50
2.000000000000471
 51
90.0
  0
LINE
  5
107
330
1F
100
AcDbEntity
  8
0
  6
Continuous
 62
     7
370
    25
100
AcDbLine
 10
132.1157239636788
 20
410.5107589229697
 30
0.0
 11
132.0621240920788
 21
412.0456584196696
 31
0.0
  0
LINE
  5
108
330
1F
100
AcDbEntity
  8
0
  6
Continuous
 62
     7
370
    25
100
AcDbLine
 10
124.9840395539787
 20
411.7398108141697
 30
0.0
 11
124.9411201161788
 21
410.5107589229697
 31
0.0
  0
ARC
  5
109
330
1F
100
AcDbEntity
  8
0
  6
Continuous
 62
     7
370
    25
100
AcDbCircle
 10
131.0627332650788
 20
412.0107589229697
 30
0.0
 40
1.0
100
AcDbArc
 50
2.000000000000471
 51
90.0
  0
LINE
  5
10A
330
1F
100
AcDbEntity
  8
0
  6
Continuous
 62
     7
370
    25
100
AcDbLine
 10
186.9164995055788
 20
410.5107589229697
 30
0.0
 11
186.8628996340788
 21
412.0456584196696
 31
0.0
  0
LINE
  5
10B
330
1F
100
AcDbEntity
  8
0
  6
Continuous
 62
     7
370
    25
100
AcDbLine
 10
179.7954955296788
 20
412.0456584196696
 30
0.0
 11
179.7418956581788
 21
410.5107589229697
 31
0.0
  0
ARC
  5
10C
330
1F
100
AcDbEntity
  8
0
  6
Continuous
 62
     7
370
    25
100
AcDbCircle
 10
185.8635088070788
 20
412.0107589229697
 30
0.0
 40
1.000000000000076
100
AcDbArc
 50
2.000000000000244
 51
90.0
  0
ARC
  5
10D
330
1F
100
AcDbEntity
  8
0
  6
Continuous
 62
     7
370
    25
100
AcDbCircle
 10
180.7948863566787
 20
412.0107589229697
 30
0.0
 40
1.0
100
AcDbArc
 50
90.0
 51
177.9999999999995
  0
LINE
  5
10E
330
1F
100
AcDbEntity
  8
0
  6
Continuous
 62
     7
370
    25
100
AcDbLine
 10
151.2076070556787
 20
410.5107589229697
 30
0.0
 11
151.1540071841788
 21
412.0456584196696
 31
0.0
  0
LINE
  5
10F
330
1F
100
AcDbEntity
  8
0
  6
Continuous
 62
     7
370
    25
100
AcDbLine
 10
144.0866030796788
 20
412.0456584196696
 30
0.0
 11
144.0330032081788
 21
410.5107589229697
 31
0.0
  0
ARC
  5
110
330
1F
100
AcDbEntity
  8
0
  6
Continuous
 62
     7
370
    25
100
AcDbCircle
 10
145.0859939067788
 20
412.0107589229697
 30
0.0
 40
1.000000000000076
100
AcDbArc
 50
90.0
 51
177.9999999999998
  0
LINE
  5
111
330
1F
100
AcDbEntity
  8
0
  6
Continuous
 62
     7
370
    25
100
AcDbLine
 10
215.2007707530788
 20
410.5107589229697
 30
0.0
 11
215.1471708815787
 21
412.0456584196696
 31
0.0
  0
LINE
  5
112
330
1F
100
AcDbEntity
  8
0
  6
Continuous
 62
     7
370
    25
100
AcDbLine
 10
208.0669702798788
 20
411.6792146848696
 30
0.0
 11
208.0261669055787
 21
410.5107589229697
 31
0.0
  0
ARC
  5
113
330
1F
100
AcDbEntity
  8
0
  6
Continuous
 62
     7
370
    25
100
AcDbCircle
 10
214.1477800544787
 20
412.0107589229697
 30
0.0
 40
1.0
100
AcDbArc
 50
2.000000000000471
 51
90.0
  0
LINE
  5
114
330
1F
100
AcDbEntity
  8
0
  6
Continuous
 62
     7
370
    25
100
AcDbLine
 10
190.0984800208788
 20
410.5107589229697
 30
0.0
 11
190.0448801493787
 21
412.0456584196696
 31
0.0
  0
ARC
  5
115
330
1F
100
AcDbEntity
  8
0
  6
Continuous
 62
     7
370
    25
100
AcDbCircle
 10
189.0454893223788
 20
412.0107589229697
 30
0.0
 40
1.000000000000076
100
AcDbArc
 50
2.000000000000244
 51
90.0
  0
LINE
  5
116
330
1F
100
AcDbEntity
  8
0
  6
Continuous
 62
     7
370
    25
100
AcDbLine
 10
200.7050817386788
 20
410.5107589229697
 30
0.0
 11
200.6514818671787
 21
412.0456584196696
 31
0.0
  0
LINE
  5
117
330
1F
100
AcDbEntity
  8
0
  6
Continuous
 62
     7
370
    25
100
AcDbLine
 10
193.5840777627787
 20
412.0456584196696
 30
0.0
 11
193.5304778912788
 21
410.5107589229697
 31
0.0
  0
ARC
  5
118
330
1F
100
AcDbEntity
  8
0
  6
Continuous
 62
     7
370
    25
100
AcDbCircle
 10
199.6520910401788
 20
412.0107589229697
 30
0.0
 40
1.0
100
AcDbArc
 50
2.000000000000471
 51
90.0
  0
LINE
  5
119
330
1F
100
AcDbEntity
  8
0
  6
Continuous
 62
     7
370
    25
100
AcDbLine
 10
219.7969648307787
 20
410.5107589229697
 30
0.0
 11
219.7433649592788
 21
412.0456584196696
 31
0.0
  0
ARC
  5
11A
330
1F
100
AcDbEntity
  8
0
  6
Continuous
 62
     7
370
    25
100
AcDbCircle
 10
218.7439741321788
 20
412.0107589229697
 30
0.0
 40
1.0
100
AcDbArc
 50
2.000000000000471
 51
90.0
  0
LINE
  5
11B
330
1F
100
AcDbEntity
  8
0
  6
Continuous
 62
     7
370
    25
100
AcDbLine
 10
64.84822719327872
 20
516.7107589229697
 30
0.0
 11
64.84822719327872
 21
514.0107589229697
 31
0.0
  0
LINE
  5
11C
330
1F
100
AcDbEntity
  8
0
  6
Continuous
 62
     7
370
    25
100
AcDbLine
 10
255.8482271932787
 20
514.0107589229697
 30
0.0
 11
255.8482271932787
 21
516.7107589229697
 31
0.0
  0
LINE
  5
11D
330
1F
100
AcDbEntity
  8
0
  6
Continuous
 62
     7
370
    25
100
AcDbLine
 10
64.84822719327872
 20
514.0107589229697
 30
0.0
 11
65.84822719327872
 21
513.0107589229697
 31
0.0
  0
LINE
  5
11E
330
1F
100
AcDbEntity
  8
0
  6
Continuous
 62
     7
370
    25
100
AcDbLine
 10
254.8482271932787
 20
513.0107589229697
 30
0.0
 11
255.8482271932787
 21
514.0107589229697
 31
0.0
  0
LINE
  5
11F
330
1F
100
AcDbEntity
  8
0
  6
Continuous
 62
     7
370
    25
100
AcDbLine
 10
255.8482271932787
 20
516.7107589229697
 30
0.0
 11
255.5482271932788
 21
517.0107589229697
 31
0.0
  0
LINE
  5
120
330
1F
100
AcDbEntity
  8
0
  6
Continuous
 62
     7
370
    25
100
AcDbLine
 10
65.14822719327879
 20
517.0107589229697
 30
0.0
 11
64.84822719327872
 21
516.7107589229697
 31
0.0
  0
LINE
  5
121
330
1F
100
AcDbEntity
  8
0
  6
Continuous
 62
     7
370
    25
100
AcDbLine
 10
64.84822719327872
 20
534.4607589229697
 30
0.0
 11
65.04642021937877
 21
534.2625658969696
 31
0.0
  0
LINE
  5
122
330
1F
100
AcDbEntity
  8
0
  6
Continuous
 62
     7
370
    25
100
AcDbLine
 10
255.6500341672788
 20
534.2625658969696
 30
0.0
 11
255.8482271932787
 21
534.4607589229697
 31
0.0
  0
LINE
  5
123
330
1F
100
AcDbEntity
  8
0
  6
Continuous
 62
     7
370
    25
100
AcDbLine
 10
64.84822719327872
 20
539.7107589229697
 30
0.0
 11
64.84822719327872
 21
534.4607589229697
 31
0.0
  0
LINE
  5
124
330
1F
100
AcDbEntity
  8
0
  6
Continuous
 62
     7
370
    25
100
AcDbLine
 10
255.8482271932787
 20
534.4607589229697
 30
0.0
 11
255.8482271932787
 21
539.7107589229697
 31
0.0
  0
LINE
  5
125
330
1F
100
AcDbEntity
  8
0
  6
Continuous
 62
     7
370
    25
100
AcDbLine
 10
255.8482271932787
 20
531.5607589229696
 30
0.0
 11
255.5482271932788
 21
531.8607589229696
 31
0.0
  0
LINE
  5
126
330
1F
100
AcDbEntity
  8
0
  6
Continuous
 62
     7
370
    25
100
AcDbLine
 10
65.14822719327879
 20
531.8607589229696
 30
0.0
 11
64.84822719327872
 21
531.5607589229696
 31
0.0
  0
LINE
  5
127
330
1F
100
AcDbEntity
  8
0
  6
Continuous
 62
     7
370
    25
100
AcDbLine
 10
64.84822719327872
 20
522.8107589229696
 30
0.0
 11
65.14822719327879
 21
522.5107589229697
 31
0.0
  0
LINE
  5
128
330
1F
100
AcDbEntity
  8
0
  6
Continuous
 62
     7
370
    25
100
AcDbLine
 10
255.5482271932788
 20
522.5107589229697
 30
0.0
 11
255.8482271932787
 21
522.8107589229696
 31
0.0
  0
LINE
  5
129
330
1F
100
AcDbEntity
  8
0
  6
Continuous
 62
     7
370
    25
100
AcDbLine
 10
64.84822719327872
 20
531.5607589229696
 30
0.0
 11
64.84822719327872
 21
522.8107589229696
 31
0.0
  0
LINE
  5
12A
330
1F
100
AcDbEntity
  8
0
  6
Continuous
 62
     7
370
    25
100
AcDbLine
 10
255.8482271932787
 20
522.8107589229696
 30
0.0
 11
255.8482271932787
 21
531.5607589229696
 31
0.0
  0
LINE
  5
12B
330
1F
100
AcDbEntity
  8
0
  6
Continuous
 62
     7
370
    25
100
AcDbLine
 10
255.8482271932787
 20
539.7107589229697
 30
0.0
 11
255.5482271932788
 21
540.0107589229697
 31
0.0
  0
LINE
  5
12C
330
1F
100
AcDbEntity
  8
0
  6
Continuous
 62
     7
370
    25
100
AcDbLine
 10
65.14822719327879
 20
540.0107589229697
 30
0.0
 11
64.84822719327872
 21
539.7107589229697
 31
0.0
  0
LINE
  5
12D
330
1F
100
AcDbEntity
  8
0
  6
Continuous
 62
     7
370
    25
100
AcDbLine
 10
253.5982271932787
 20
531.8607589229696
 30
0.0
 11
253.5982271932787
 21
532.0107589229697
 31
0.0
  0
LINE
  5
12E
330
1F
100
AcDbEntity
  8
0
  6
Continuous
 62
     7
370
    25
100
AcDbLine
 10
67.09822719327872
 20
532.0107589229697
 30
0.0
 11
67.09822719327872
 21
531.8607589229696
 31
0.0
  0
LINE
  5
12F
330
1F
100
AcDbEntity
  8
0
  6
Continuous
 62
     7
370
    25
100
AcDbLine
 10
67.34822719327872
 20
522.5107589229697
 30
0.0
 11
67.34822719327872
 21
522.4602486657697
 31
0.0
  0
LINE
  5
130
330
1F
100
AcDbEntity
  8
0
  6
Continuous
 62
     7
370
    25
100
AcDbLine
 10
67.34822719327872
 20
517.5612691802696
 30
0.0
 11
67.34822719327872
 21
517.0107589229697
 31
0.0
  0
LINE
  5
131
330
1F
100
AcDbEntity
  8
0
  6
Continuous
 62
     7
370
    25
100
AcDbLine
 10
253.3482271932787
 20
517.0107589229697
 30
0.0
 11
253.3482271932787
 21
517.5612691802696
 31
0.0
  0
LINE
  5
132
330
1F
100
AcDbEntity
  8
0
  6
Continuous
 62
     7
370
    25
100
AcDbLine
 10
253.3482271932787
 20
522.4602486657697
 30
0.0
 11
253.3482271932787
 21
522.5107589229697
 31
0.0
  0
LINE
  5
133
330
1F
100
AcDbEntity
  8
0
  6
Continuous
 62
     7
370
    25
100
AcDbLine
 10
175.3482271932787
 20
268.6107589229697
 30
0.0
 11
175.3482271932787
 21
349.6795726952697
 31
0.0
  0
LINE
  5
134
330
1F
100
AcDbEntity
  8
0
  6
Continuous
 62
     7
370
    25
100
AcDbLine
 10
175.3482271932787
 20
410.5107589229697
 30
0.0
 11
175.3482271932787
 21
419.6795726952697
 31
0.0
  0
LINE
  5
135
330
1F
100
AcDbEntity
  8
0
  6
Continuous
 62
     7
370
    25
100
AcDbLine
 10
175.3482271932787
 20
480.5107589229697
 30
0.0
 11
175.3482271932787
 21
489.6795726952697
 31
0.0
  0
LINE
  5
136
330
1F
100
AcDbEntity
  8
0
  6
Continuous
 62
     7
370
    25
100
AcDbLine
 10
145.3482271932787
 20
489.6795726952697
 30
0.0
 11
145.3482271932787
 21
483.0107589229697
 31
0.0
  0
LINE
  5
137
330
1F
100
AcDbEntity
  8
0
  6
Continuous
 62
     7
370
    25
100
AcDbLine
 10
145.3482271932787
 20
419.6795726952697
 30
0.0
 11
145.3482271932787
 21
413.0107589229697
 31
0.0
  0
LINE
  5
138
330
1F
100
AcDbEntity
  8
0
  6
Continuous
 62
     7
370
    25
100
AcDbLine
 10
145.3482271932787
 20
349.6795726951697
 30
0.0
 11
145.3482271932787
 21
268.6107589229697
 31
0.0
  0
LINE
  5
139
330
1F
100
AcDbEntity
  8
0
  6
Continuous
 62
     7
370
    25
100
AcDbLine
 10
260.3482271932787
 20
228.6107589229697
 30
0.0
 11
260.3482271932787
 21
238.6107589229697
 31
0.0
  0
LINE
  5
13A
330
1F
100
AcDbEntity
  8
0
  6
Continuous
 62
     7
370
    25
100
AcDbLine
 10
60.34822719327872
 20
238.6107589229697
 30
0.0
 11
60.34822719327872
 21
228.6107589229697
 31
0.0
  0
LINE
  5
13B
330
1F
100
AcDbEntity
  8
0
  6
Continuous
 62
     7
370
    25
100
AcDbLine
 10
255.8482271932787
 20
242.4107589230697
 30
0.0
 11
255.8482271932787
 21
246.4607589229697
 31
0.0
  0
LINE
  5
13C
330
1F
100
AcDbEntity
  8
0
  6
Continuous
 62
     7
370
    25
100
AcDbLine
 10
64.84822719327872
 20
246.4607589229697
 30
0.0
 11
64.84822719327872
 21
242.4107589230697
 31
0.0
  0
LINE
  5
13D
330
1F
100
AcDbEntity
  8
0
  6
Continuous
 62
     7
370
    25
100
AcDbLine
 10
255.8482271932787
 20
248.7607589229697
 30
0.0
 11
255.8482271932787
 21
258.1107589229697
 31
0.0
  0
LINE
  5
13E
330
1F
100
AcDbEntity
  8
0
  6
Continuous
 62
     7
370
    25
100
AcDbLine
 10
64.84822719327872
 20
258.1107589229697
 30
0.0
 11
64.84822719327872
 21
248.7607589229697
 31
0.0
  0
LINE
  5
13F
330
1F
100
AcDbEntity
  8
0
  6
Continuous
 62
     7
370
    25
100
AcDbLine
 10
255.8482271932787
 20
267.6107589229697
 30
0.0
 11
254.8482271932787
 21
268.6107589229697
 31
0.0
  0
LINE
  5
140
330
1F
100
AcDbEntity
  8
0
  6
Continuous
 62
     7
370
    25
100
AcDbLine
 10
65.84822719327872
 20
268.6107589229697
 30
0.0
 11
64.84822719327872
 21
267.6107589229697
 31
0.0
  0
LINE
  5
141
330
1F
100
AcDbEntity
  8
0
  6
Continuous
 62
     7
370
    25
100
AcDbLine
 10
255.8482271932787
 20
263.6107589229697
 30
0.0
 11
255.8482271932787
 21
267.6107589229697
 31
0.0
  0
LINE
  5
142
330
1F
100
AcDbEntity
  8
0
  6
Continuous
 62
     7
370
    25
100
AcDbLine
 10
64.84822719327872
 20
267.6107589229697
 30
0.0
 11
64.84822719327872
 21
263.6107589229697
 31
0.0
  0
LINE
  5
143
330
1F
100
AcDbEntity
  8
0
  6
Continuous
 62
     7
370
    25
100
AcDbLine
 10
67.34822719327872
 20
240.4107589230697
 30
0.0
 11
67.34822719327872
 21
238.6107589229697
 31
0.0
  0
LINE
  5
144
330
1F
100
AcDbEntity
  8
0
  6
Continuous
 62
     7
370
    25
100
AcDbLine
 10
253.3482271932787
 20
238.6107589229697
 30
0.0
 11
253.3482271932787
 21
240.4107589230697
 31
0.0
  0
LINE
  5
145
330
1F
100
AcDbEntity
  8
0
  6
Continuous
 62
     7
370
    25
100
AcDbLine
 10
67.59822719327872
 20
259.9232903302697
 30
0.0
 11
67.59822719327872
 21
258.1107589229697
 31
0.0
  0
LINE
  5
146
330
1F
100
AcDbEntity
  8
0
  6
Continuous
 62
     7
370
    25
100
AcDbLine
 10
253.0982271932787
 20
258.1107589229697
 30
0.0
 11
253.0982271932787
 21
259.9232903302697
 31
0.0
  0
LINE
  5
147
330
1F
100
AcDbEntity
  8
0
  6
Continuous
 62
     7
370
    25
100
AcDbLine
 10
260.3482271932787
 20
224.1107589229697
 30
0.0
 11
260.3482271932787
 21
228.6107589229697
 31
0.0
  0
LINE
  5
148
330
1F
100
AcDbEntity
  8
0
  6
Continuous
 62
     7
370
    25
100
AcDbLine
 10
60.34822719327872
 20
228.6107589229697
 30
0.0
 11
60.34822719327872
 21
224.1107589229697
 31
0.0
  0
LINE
  5
149
330
1F
100
AcDbEntity
  8
0
  6
Continuous
 62
     7
370
    25
100
AcDbLine
 10
60.34822719327872
 20
224.1107589229697
 30
0.0
 11
63.84822719017882
 21
220.6107589198697
 31
0.0
  0
LINE
  5
14A
330
1F
100
AcDbEntity
  8
0
  6
Continuous
 62
     7
370
    25
100
AcDbLine
 10
256.8482271964788
 20
220.6107589198697
 30
0.0
 11
260.3482271932787
 21
224.1107589229697
 31
0.0
  0
LINE
  5
14B
330
1F
100
AcDbEntity
  8
0
  6
Continuous
 62
     7
370
    25
100
AcDbLine
 10
260.3482271932787
 20
73.61075891986967
 30
0.0
 11
260.3482271932787
 21
220.6107589198697
 31
0.0
  0
LINE
  5
14C
330
1F
100
AcDbEntity
  8
0
  6
Continuous
 62
     7
370
    25
100
AcDbLine
 10
60.34822719327872
 20
220.6107589198697
 30
0.0
 11
60.34822719327872
 21
73.61075891986967
 31
0.0
  0
LINE
  5
14D
330
1F
100
AcDbEntity
  8
0
  6
Continuous
 62
     7
370
    25
100
AcDbLine
 10
63.34822719327872
 20
242.4107589230697
 30
0.0
 11
63.34822719327872
 21
240.4107589230697
 31
0.0
  0
LINE
  5
14E
330
1F
100
AcDbEntity
  8
0
  6
Continuous
 62
     7
370
    25
100
AcDbLine
 10
257.3482271932787
 20
240.4107589230697
 30
0.0
 11
257.3482271932787
 21
242.4107589230697
 31
0.0
  0
ARC
  5
14F
330
1F
100
AcDbEntity
  8
0
  6
Continuous
 62
     7
370
    25
100
AcDbCircle
 10
64.96205426757876
 20
246.5303020085697
 30
0.0
 40
0.0299999999999727
100
AcDbArc
 50
89.99999999978289
 51
199.8720131232223
  0
ARC
  5
150
330
1F
100
AcDbEntity
  8
0
  6
Continuous
 62
     7
370
    25
100
AcDbCircle
 10
255.7344001189788
 20
246.5303020085697
 30
0.0
 40
0.0300000000000567
100
AcDbArc
 50
340.1279868769026
 51
90.0
  0
LINE
  5
151
330
1F
100
AcDbEntity
  8
0
  6
Continuous
 62
     7
370
    25
100
AcDbLine
 10
64.93384063927874
 20
246.5201044021697
 30
0.0
 11
64.95820811977876
 21
246.4607589229697
 31
0.0
  0
LINE
  5
152
330
1F
100
AcDbEntity
  8
0
  6
Continuous
 62
     7
370
    25
100
AcDbLine
 10
255.7382462667788
 20
246.4607589229697
 30
0.0
 11
255.7626137472788
 21
246.5201044021697
 31
0.0
  0
ARC
  5
153
330
1F
100
AcDbEntity
  8
0
  6
Continuous
 62
     7
370
    25
100
AcDbCircle
 10
64.97252571147874
 20
247.1302106256697
 30
0.0
 40
0.030000000000003
100
AcDbArc
 50
90.0
 51
199.8720131234265
  0
ARC
  5
154
330
1F
100
AcDbEntity
  8
0
  6
Continuous
 62
     7
370
    25
100
AcDbCircle
 10
255.7239286750788
 20
247.1302106256697
 30
0.0
 40
0.0299999999999861
100
AcDbArc
 50
340.1279868766756
 51
90.0
  0
ARC
  5
155
330
1F
100
AcDbEntity
  8
0
  6
Continuous
 62
     7
370
    25
100
AcDbCircle
 10
65.6496527913788
 20
247.3749531793697
 30
0.0
 40
0.750000000000133
100
AcDbArc
 50
199.8720131232018
 51
252.3620288915035
  0
ARC
  5
156
330
1F
100
AcDbEntity
  8
0
  6
Continuous
 62
     7
370
    25
100
AcDbCircle
 10
255.0468015951787
 20
247.3749531793697
 30
0.0
 40
0.7499999999999849
100
AcDbArc
 50
287.6379711084991
 51
340.1279868767994
  0
ARC
  5
157
330
1F
100
AcDbEntity
  8
0
  6
Continuous
 62
     7
370
    25
100
AcDbCircle
 10
64.98299715527878
 20
247.7301192427697
 30
0.0
 40
0.0299999999999861
100
AcDbArc
 50
90.0
 51
199.8720131232733
  0
ARC
  5
158
330
1F
100
AcDbEntity
  8
0
  6
Continuous
 62
     7
370
    25
100
AcDbCircle
 10
255.7134572312788
 20
247.7301192427697
 30
0.0
 40
0.0299999999999861
100
AcDbArc
 50
340.1279868767267
 51
90.0
  0
ARC
  5
159
330
1F
100
AcDbEntity
  8
0
  6
Continuous
 62
     7
370
    25
100
AcDbCircle
 10
65.66012423527877
 20
247.9748617964697
 30
0.0
 40
0.7500000000000538
100
AcDbArc
 50
199.8720131231998
 51
252.3620288915022
  0
ARC
  5
15A
330
1F
100
AcDbEntity
  8
0
  6
Continuous
 62
     7
370
    25
100
AcDbCircle
 10
255.0363301512788
 20
247.9748617964697
 30
0.0
 40
0.7499999999999375
100
AcDbArc
 50
287.6379711085004
 51
340.1279868767994
  0
ARC
  5
15B
330
1F
100
AcDbEntity
  8
0
  6
Continuous
 62
     7
370
    25
100
AcDbCircle
 10
64.99346859917875
 20
248.3300278598697
 30
0.0
 40
0.0299999999999727
100
AcDbArc
 50
90.0
 51
199.8720131231202
  0
ARC
  5
15C
330
1F
100
AcDbEntity
  8
0
  6
Continuous
 62
     7
370
    25
100
AcDbCircle
 10
255.7029857873788
 20
248.3300278598697
 30
0.0
 40
0.0299999999999727
100
AcDbArc
 50
340.1279868768798
 51
90.0
  0
ARC
  5
15D
330
1F
100
AcDbEntity
  8
0
  6
Continuous
 62
     7
370
    25
100
AcDbCircle
 10
65.67059567917875
 20
248.5747704135697
 30
0.0
 40
0.7500000000000262
100
AcDbArc
 50
199.8720131232027
 51
252.3620288915016
  0
ARC
  5
15E
330
1F
100
AcDbEntity
  8
0
  6
Continuous
 62
     7
370
    25
100
AcDbCircle
 10
255.0258587074787
 20
248.5747704135697
 30
0.0
 40
0.7500000000000092
100
AcDbArc
 50
287.6379711084991
 51
340.1279868767973
  0
ARC
  5
15F
330
1F
100
AcDbEntity
  8
0
  6
Continuous
 62
     7
370
    25
100
AcDbCircle
 10
65.68106712297879
 20
249.1746790306697
 30
0.0
 40
0.7499999999999917
100
AcDbArc
 50
213.4970106131012
 51
252.3620288915003
  0
ARC
  5
160
330
1F
100
AcDbEntity
  8
0
  6
Continuous
 62
     7
370
    25
100
AcDbCircle
 10
255.0153872635788
 20
249.1746790306697
 30
0.0
 40
0.7499999999999917
100
AcDbArc
 50
287.6379711084998
 51
326.5029893868988
  0
LINE
  5
161
330
1F
100
AcDbEntity
  8
0
  6
Continuous
 62
     7
370
    25
100
AcDbLine
 10
255.2757966492787
 20
246.5603020085697
 30
0.0
 11
255.2740527378787
 21
246.6602106256697
 31
0.0
  0
LINE
  5
162
330
1F
100
AcDbEntity
  8
0
  6
Continuous
 62
     7
370
    25
100
AcDbLine
 10
65.42240164867871
 20
246.6602106256697
 30
0.0
 11
65.42065773727882
 21
246.5603020085697
 31
0.0
  0
LINE
  5
163
330
1F
100
AcDbEntity
  8
0
  6
Continuous
 62
     7
370
    25
100
AcDbLine
 10
255.2653252054788
 20
247.1602106256697
 30
0.0
 11
255.2635812940788
 21
247.2601192427697
 31
0.0
  0
LINE
  5
164
330
1F
100
AcDbEntity
  8
0
  6
Continuous
 62
     7
370
    25
100
AcDbLine
 10
65.4328730925788
 20
247.2601192427697
 30
0.0
 11
65.43112918117879
 21
247.1602106256697
 31
0.0
  0
LINE
  5
165
330
1F
100
AcDbEntity
  8
0
  6
Continuous
 62
     7
370
    25
100
AcDbLine
 10
255.2548537615787
 20
247.7601192427697
 30
0.0
 11
255.2531098501788
 21
247.8600278598697
 31
0.0
  0
LINE
  5
166
330
1F
100
AcDbEntity
  8
0
  6
Continuous
 62
     7
370
    25
100
AcDbLine
 10
65.44334453637873
 20
247.8600278598697
 30
0.0
 11
65.44160062497872
 21
247.7601192427697
 31
0.0
  0
LINE
  5
167
330
1F
100
AcDbEntity
  8
0
  6
Continuous
 62
     7
370
    25
100
AcDbLine
 10
255.2443823176787
 20
248.3600278598697
 30
0.0
 11
255.2426384063788
 21
248.4599364769697
 31
0.0
  0
LINE
  5
168
330
1F
100
AcDbEntity
  8
0
  6
Continuous
 62
     7
370
    25
100
AcDbLine
 10
65.45381598027882
 20
248.4599364769697
 30
0.0
 11
65.4520720688788
 21
248.3600278598697
 31
0.0
  0
LINE
  5
169
330
1F
100
AcDbEntity
  8
0
  6
Continuous
 62
     7
370
    25
100
AcDbLine
 10
257.3482271932787
 20
540.0107589229697
 30
0.0
 11
257.3482271932787
 21
541.5107589229697
 31
0.0
  0
LINE
  5
16A
330
1F
100
AcDbEntity
  8
0
  6
Continuous
 62
     7
370
    25
100
AcDbLine
 10
63.34822719327872
 20
541.5107589229697
 30
0.0
 11
63.34822719327872
 21
540.0107589229697
 31
0.0
  0
ARC
  5
16B
330
1F
100
AcDbEntity
  8
0
  6
Continuous
 62
     7
370
    25
100
AcDbCircle
 10
255.7029857873788
 20
534.0914899862696
 30
0.0
 40
0.0299999999999727
100
AcDbArc
 50
270.0
 51
19.87201312337542
  0
ARC
  5
16C
330
1F
100
AcDbEntity
  8
0
  6
Continuous
 62
     7
370
    25
100
AcDbCircle
 10
64.99346859917875
 20
534.0914899862696
 30
0.0
 40
0.0299999999999727
100
AcDbArc
 50
160.1279868766246
 51
270.0
  0
ARC
  5
16D
330
1F
100
AcDbEntity
  8
0
  6
Continuous
 62
     7
370
    25
100
AcDbCircle
 10
255.0258587074787
 20
533.8467474324697
 30
0.0
 40
0.7500000000001451
100
AcDbArc
 50
19.87201312320183
 51
33.67109312779644
  0
ARC
  5
16E
330
1F
100
AcDbEntity
  8
0
  6
Continuous
 62
     7
370
    25
100
AcDbCircle
 10
65.67059567917875
 20
533.8467474324697
 30
0.0
 40
0.7500000000000523
100
AcDbArc
 50
146.3289068725938
 51
160.1279868768063
  0
ARC
  5
16F
330
1F
100
AcDbEntity
  8
0
  6
Continuous
 62
     7
370
    25
100
AcDbCircle
 10
255.6925143435788
 20
533.4915813691696
 30
0.0
 40
0.0299999999999933
100
AcDbArc
 50
270.0
 51
19.87201312337542
  0
ARC
  5
170
330
1F
100
AcDbEntity
  8
0
  6
Continuous
 62
     7
370
    25
100
AcDbCircle
 10
65.00394004307873
 20
533.4915813691696
 30
0.0
 40
0.0299999999999933
100
AcDbArc
 50
160.1279868766246
 51
270.0
  0
ARC
  5
171
330
1F
100
AcDbEntity
  8
0
  6
Continuous
 62
     7
370
    25
100
AcDbCircle
 10
255.0153872635788
 20
533.2468388154697
 30
0.0
 40
0.7500000000000127
100
AcDbArc
 50
19.87201312319661
 51
72.36202889150287
  0
ARC
  5
172
330
1F
100
AcDbEntity
  8
0
  6
Continuous
 62
     7
370
    25
100
AcDbCircle
 10
65.68106712297879
 20
533.2468388154697
 30
0.0
 40
0.7500000000001185
100
AcDbArc
 50
107.6379711084971
 51
160.1279868767982
  0
ARC
  5
173
330
1F
100
AcDbEntity
  8
0
  6
Continuous
 62
     7
370
    25
100
AcDbCircle
 10
255.6820428996788
 20
532.8916727520697
 30
0.0
 40
0.0299999999999933
100
AcDbArc
 50
270.0
 51
19.87201312337542
  0
ARC
  5
174
330
1F
100
AcDbEntity
  8
0
  6
Continuous
 62
     7
370
    25
100
AcDbCircle
 10
65.01441148687877
 20
532.8916727520697
 30
0.0
 40
0.0300000000001002
100
AcDbArc
 50
160.1279868766984
 51
270.0
  0
ARC
  5
175
330
1F
100
AcDbEntity
  8
0
  6
Continuous
 62
     7
370
    25
100
AcDbCircle
 10
255.0049158197787
 20
532.6469301983697
 30
0.0
 40
0.7500000000000127
100
AcDbArc
 50
19.87201312319661
 51
72.36202889150287
  0
ARC
  5
176
330
1F
100
AcDbEntity
  8
0
  6
Continuous
 62
     7
370
    25
100
AcDbCircle
 10
65.69153856687876
 20
532.6469301983697
 30
0.0
 40
0.7500000000000117
100
AcDbArc
 50
107.6379711084971
 51
160.1279868768034
  0
ARC
  5
177
330
1F
100
AcDbEntity
  8
0
  6
Continuous
 62
     7
370
    25
100
AcDbCircle
 10
255.6715714557788
 20
532.2917641349696
 30
0.0
 40
0.0300000000000616
100
AcDbArc
 50
270.0
 51
19.87201312309742
  0
ARC
  5
178
330
1F
100
AcDbEntity
  8
0
  6
Continuous
 62
     7
370
    25
100
AcDbCircle
 10
65.02488293077874
 20
532.2917641349696
 30
0.0
 40
0.0299999999999727
100
AcDbArc
 50
160.1279868768288
 51
270.0
  0
ARC
  5
179
330
1F
100
AcDbEntity
  8
0
  6
Continuous
 62
     7
370
    25
100
AcDbCircle
 10
254.9944443758787
 20
532.0470215812697
 30
0.0
 40
0.7500000000001185
100
AcDbArc
 50
19.87201312320183
 51
72.36202889150024
  0
ARC
  5
17A
330
1F
100
AcDbEntity
  8
0
  6
Continuous
 62
     7
370
    25
100
AcDbCircle
 10
65.7020100106788
 20
532.0470215812697
 30
0.0
 40
0.7500000000000127
100
AcDbArc
 50
107.6379711084998
 51
160.1279868768034
  0
LINE
  5
17B
330
1F
100
AcDbEntity
  8
0
  6
Continuous
 62
     7
370
    25
100
AcDbLine
 10
65.4520720688788
 20
534.0614899862696
 30
0.0
 11
65.45381598027882
 21
533.9615813691696
 31
0.0
  0
LINE
  5
17C
330
1F
100
AcDbEntity
  8
0
  6
Continuous
 62
     7
370
    25
100
AcDbLine
 10
255.2426384063788
 20
533.9615813691696
 30
0.0
 11
255.2443823176787
 21
534.0614899862696
 31
0.0
  0
LINE
  5
17D
330
1F
100
AcDbEntity
  8
0
  6
Continuous
 62
     7
370
    25
100
AcDbLine
 10
65.46254351267874
 20
533.4615813691696
 30
0.0
 11
65.46428742407875
 21
533.3616727520696
 31
0.0
  0
LINE
  5
17E
330
1F
100
AcDbEntity
  8
0
  6
Continuous
 62
     7
370
    25
100
AcDbLine
 10
255.2321669624788
 20
533.3616727520696
 30
0.0
 11
255.2339108738788
 21
533.4615813691696
 31
0.0
  0
LINE
  5
17F
330
1F
100
AcDbEntity
  8
0
  6
Continuous
 62
     7
370
    25
100
AcDbLine
 10
65.47301495657882
 20
532.8616727520696
 30
0.0
 11
65.47475886797872
 21
532.7617641349697
 31
0.0
  0
LINE
  5
180
330
1F
100
AcDbEntity
  8
0
  6
Continuous
 62
     7
370
    25
100
AcDbLine
 10
255.2216955185788
 20
532.7617641349697
 30
0.0
 11
255.2234394299787
 21
532.8616727520696
 31
0.0
  0
LINE
  5
181
330
1F
100
AcDbEntity
  8
0
  6
Continuous
 62
     7
370
    25
100
AcDbLine
 10
65.4834864004788
 20
532.2617641349697
 30
0.0
 11
65.48786771267874
 21
532.0107589229697
 31
0.0
  0
LINE
  5
182
330
1F
100
AcDbEntity
  8
0
  6
Continuous
 62
     7
370
    25
100
AcDbLine
 10
255.2085866738788
 20
532.0107589229697
 30
0.0
 11
255.2129679861788
 21
532.2617641349697
 31
0.0
  0
ARC
  5
183
330
1F
100
AcDbEntity
  8
0
  6
Continuous
 62
     7
370
    25
100
AcDbCircle
 10
252.8482271932787
 20
262.4107589230697
 30
0.0
 40
2.499999999999985
100
AcDbArc
 50
275.7391704771987
 51
28.68540201239952
  0
ARC
  5
184
330
1F
100
AcDbEntity
  8
0
  6
Continuous
 62
     7
370
    25
100
AcDbCircle
 10
67.84822719327872
 20
262.4107589230697
 30
0.0
 40
2.500000000000065
100
AcDbArc
 50
151.3145979876006
 51
264.2608295226994
  0
LINE
  5
185
330
1F
100
AcDbEntity
  8
0
  6
Continuous
 62
     7
370
    25
100
AcDbLine
 10
67.84822719327872
 20
259.9107589230697
 30
0.0
 11
252.8482271932787
 21
259.9107589230697
 31
0.0
  0
ARC
  5
186
330
1F
100
AcDbEntity
  8
0
  6
Continuous
 62
     7
370
    25
100
AcDbCircle
 10
252.8482271932787
 20
520.0107589229697
 30
0.0
 40
2.500000000000003
100
AcDbArc
 50
281.5369590327998
 51
78.46304096720026
  0
ARC
  5
187
330
1F
100
AcDbEntity
  8
0
  6
Continuous
 62
     7
370
    25
100
AcDbCircle
 10
67.84822719327872
 20
520.0107589229697
 30
0.0
 40
2.500000000000046
100
AcDbArc
 50
101.5369590327992
 51
258.4630409672008
  0
CIRCLE
  5
188
330
1F
100
AcDbEntity
  8
0
  6
Continuous
 62
     7
370
    25
100
AcDbCircle
 10
160.3482271932787
 20
621.5107589229697
 30
0.0
 40
3.846589333333312
  0
LINE
  5
189
330
1F
100
AcDbEntity
  8
0
  6
Continuous
 62
     7
370
    25
100
AcDbLine
 10
162.6086249401787
 20
621.9839770115697
 30
0.0
 11
161.0686071804788
 21
623.7049298387697
 31
0.0
  0
LINE
  5
18A
330
1F
100
AcDbEntity
  8
0
  6
Continuous
 62
     7
370
    25
100
AcDbLine
 10
158.8082094335788
 20
623.2317117501697
 30
0.0
 11
158.0878294464787
 21
621.0375408343697
 31
0.0
  0
LINE
  5
18B
330
1F
100
AcDbEntity
  8
0
  6
Continuous
 62
     7
370
    25
100
AcDbLine
 10
158.0878294464787
 20
621.0375408343697
 30
0.0
 11
159.6278472060787
 21
619.3165880072697
 31
0.0
  0
LINE
  5
18C
330
1F
100
AcDbEntity
  8
0
  6
Continuous
 62
     7
370
    25
100
AcDbLine
 10
159.6278472060787
 20
619.3165880072697
 30
0.0
 11
161.8882449529788
 21
619.7898060958696
 31
0.0
  0
LINE
  5
18D
330
1F
100
AcDbEntity
  8
0
  6
Continuous
 62
     7
370
    25
100
AcDbLine
 10
161.8882449529788
 20
619.7898060958696
 30
0.0
 11
162.6086249401787
 21
621.9839770115697
 31
0.0
  0
LINE
  5
18E
330
1F
100
AcDbEntity
  8
0
  6
Continuous
 62
     7
370
    25
100
AcDbLine
 10
161.0686071804788
 20
623.7049298387697
 30
0.0
 11
158.8082094335788
 21
623.2317117501697
 31
0.0
  0
CIRCLE
  5
18F
330
1F
100
AcDbEntity
  8
0
  6
Continuous
 62
     7
370
    25
100
AcDbCircle
 10
160.3482271932787
 20
621.5107589229697
 30
0.0
 40
6.999999999999953
  0
ARC
  5
190
330
1F
100
AcDbEntity
  8
0
  6
Continuous
 62
     7
370
    25
100
AcDbCircle
 10
171.2923932652787
 20
621.5107589229697
 30
0.0
 40
13.34540595840174
100
AcDbArc
 50
348.0425528512
 51
11.95744714880006
  0
ARC
  5
191
330
1F
100
AcDbEntity
  8
0
  6
Continuous
 62
     7
370
    25
100
AcDbCircle
 10
173.9410541104787
 20
621.5107589229697
 30
0.0
 40
11.67488679069087
100
AcDbArc
 50
333.0516391658995
 51
26.94836083409996
  0
ARC
  5
192
330
1F
100
AcDbEntity
  8
0
  6
Continuous
 62
     7
370
    25
100
AcDbCircle
 10
149.5448373726788
 20
621.5107589229697
 30
0.0
 40
13.48315915746109
100
AcDbArc
 50
168.1664951037
 51
191.8335048963
  0
ARC
  5
193
330
1F
100
AcDbEntity
  8
0
  6
Continuous
 62
     7
370
    25
100
AcDbCircle
 10
146.9767858982788
 20
621.5107589229697
 30
0.0
 40
11.8726572487338
100
AcDbArc
 50
153.5358193266003
 51
206.4641806733997
  0
LINE
  5
194
330
1F
100
AcDbEntity
  8
0
  6
Continuous
 62
     7
370
    25
100
AcDbLine
 10
-292.6517728067212
 20
677.0107589229697
 30
0.0
 11
-292.6517728067212
 21
737.0107589229697
 31
0.0
  0
LINE
  5
195
330
1F
100
AcDbEntity
  8
0
  6
Continuous
 62
     7
370
    25
100
AcDbLine
 10
-294.6517728067212
 20
677.0107589229697
 30
0.0
 11
-294.6517728067212
 21
737.0107589229697
 31
0.0
  0
LINE
  5
196
330
1F
100
AcDbEntity
  8
0
  6
Continuous
 62
     7
370
    25
100
AcDbLine
 10
-296.6517728067212
 20
679.5107589229697
 30
0.0
 11
-296.6517728067212
 21
734.5107589229697
 31
0.0
  0
LINE
  5
197
330
1F
100
AcDbEntity
  8
0
  6
Continuous
 62
     7
370
    25
100
AcDbLine
 10
-336.6517728067212
 20
684.0107589229697
 30
0.0
 11
-336.6517728067212
 21
730.0107589229697
 31
0.0
  0
LINE
  5
198
330
1F
100
AcDbEntity
  8
0
  6
Continuous
 62
     7
370
    25
100
AcDbLine
 10
-335.6517728067212
 20
731.0107589229697
 30
0.0
 11
-335.6517728067212
 21
683.0107589229697
 31
0.0
  0
SPLINE
  5
199
330
1F
100
AcDbEntity
  8
0
  6
Continuous
 62
     7
370
    25
100
AcDbSpline
210
0.0
220
0.0
230
1.0
 70
     8
 71
     3
 72
    18
 73
    14
 74
     0
 42
0.000000001
 43
0.00000001
 40
0.0
 40
0.0
 40
0.0
 40
0.0
 40
0.0667359717959932
 40
0.1356290417641027
 40
0.2261221393248976
 40
0.3191066705255611
 40
0.4423549720819465
 40
0.5691596901148392
 40
0.6680883014090001
 40
0.7695994137500068
 40
0.8523785653874203
 40
0.937452862306986
 40
1.0
 40
1.0
 40
1.0
 40
1.0
 10
160.3482271932938
 20
689.0107589230076
 30
0.0
 10
161.2371561579074
 20
688.9719332008171
 30
0.0
 10
163.0437468229156
 20
688.8930267976466
 30
0.0
 10
165.9547871988557
 20
688.2253390424544
 30
0.0
 10
168.9984329383893
 20
687.1104201862901
 30
0.0
 10
172.3767756341952
 20
685.4242560762259
 30
0.0
 10
175.7571279873074
 20
683.3636992249089
 30
0.0
 10
178.7237572285323
 20
681.3086893118686
 30
0.0
 10
181.0438242949634
 20
679.5921412481796
 30
0.0
 10
182.6409476710251
 20
678.361948258839
 30
0.0
 10
183.7042680750945
 20
677.5247598007908
 30
0.0
 10
184.2778831186746
 20
677.0670937328523
 30
0.0
 10
184.2977009540352
 20
677.0511795983052
 30
0.0
 10
184.3060977622653
 20
677.0444367864138
 30
0.0
  0
SPLINE
  5
19A
330
1F
100
AcDbEntity
  8
0
  6
Continuous
 62
     7
370
    25
100
AcDbSpline
210
0.0
220
0.0
230
1.0
 70
     8
 71
     3
 72
    20
 73
    16
 74
     0
 42
0.000000001
 43
0.00000001
 40
0.0
 40
0.0
 40
0.0
 40
0.0
 40
0.016939503626774
 40
0.1023427480605653
 40
0.1809533353852741
 40
0.2614948116537644
 40
0.3476380080689852
 40
0.4355256802343748
 40
0.5393731729259961
 40
0.6453640032605827
 40
0.7406999673301708
 40
0.8381884752692945
 40
0.9049845838075181
 40
0.973544929223508
 40
1.0
 40
1.0
 40
1.0
 40
1.0
 10
136.38520177201
 20
677.0403127551369
 30
0.0
 10
136.3737395925382
 20
677.0311513080297
 30
0.0
 10
136.3044889833255
 20
676.9758009451259
 30
0.0
 10
136.6309392895765
 20
677.2370752978555
 30
0.0
 10
137.3508279331024
 20
677.8083314763647
 30
0.0
 10
138.4842496998291
 20
678.6946533429934
 30
0.0
 10
140.0048125087825
 20
679.8551806473724
 30
0.0
 10
142.0129182615919
 20
681.3322250313861
 30
0.0
 10
144.5168515495369
 20
683.0700423159069
 30
0.0
 10
147.4362504665007
 20
684.9050789218559
 30
0.0
 10
150.6153367850201
 20
686.6126444595479
 30
0.0
 10
153.6603464632514
 20
687.8817868662701
 30
0.0
 10
156.5960472870039
 20
688.6813441522722
 30
0.0
 10
158.7318887482587
 20
688.9816807097945
 30
0.0
 10
159.9962046647838
 20
689.0044259757394
 30
0.0
 10
160.3482271932938
 20
689.0107589230076
 30
0.0
  0
LINE
  5
19B
330
1F
100
AcDbEntity
  8
0
  6
Continuous
 62
     7
370
    25
100
AcDbLine
 10
211.8482271932787
 20
737.0107589229697
 30
0.0
 11
211.8482271932787
 21
677.0107589229697
 31
0.0
  0
LINE
  5
19C
330
1F
100
AcDbEntity
  8
0
  6
Continuous
 62
     7
370
    25
100
AcDbLine
 10
213.3482271932787
 20
737.0107589229697
 30
0.0
 11
213.3482271932787
 21
677.0107589229697
 31
0.0
  0
LINE
  5
19D
330
1F
100
AcDbEntity
  8
0
  6
Continuous
 62
     7
370
    25
100
AcDbLine
 10
-289.6517728067212
 20
737.0107589229697
 30
0.0
 11
-289.6517728067212
 21
677.0107589229697
 31
0.0
  0
LINE
  5
19E
330
1F
100
AcDbEntity
  8
0
  6
Continuous
 62
     7
370
    25
100
AcDbLine
 10
210.3482271932787
 20
737.0107589229697
 30
0.0
 11
210.3482271932787
 21
677.0107589229697
 31
0.0
  0
LWPOLYLINE
  5
19F
330
1F
100
AcDbEntity
  8
0
  6
Continuous
 62
     7
370
    25
100
AcDbPolyline
 90
       11
 70
   128
 43
0.0
 10
207.8782721084788
 20
549.4830149657696
 10
207.5424340191788
 20
550.7171034737696
 10
207.5073955556787
 20
552.0100537756697
 10
207.7757553602788
 20
553.2659736624696
 10
208.3276104141788
 20
554.3917173015697
 10
209.1220321524788
 20
555.3037934372696
 10
210.1001019491788
 20
555.9345575550697
 10
211.1892808416787
 20
556.2372287658696
 10
212.3087894143788
 20
556.1893593305697
 10
213.3755988376788
 20
555.7944995061696
 10
214.2474094663788
 20
555.1446197319697
  0
ARC
  5
1A0
330
1F
100
AcDbEntity
  8
0
  6
Continuous
 62
     7
370
    25
100
AcDbCircle
 10
211.5734329832787
 20
550.7036599981697
 30
0.0
 40
3.891553441150986
100
AcDbArc
 50
198.2802541660997
 51
312.9419228689001
  0
LWPOLYLINE
  5
1A1
330
1F
100
AcDbEntity
  8
0
  6
Continuous
 62
     7
370
    25
100
AcDbPolyline
 90
       17
 70
   128
 43
0.0
 10
211.0262572995788
 20
550.5857422576696
 10
210.8488683620787
 20
551.4060201020696
 10
210.9568335655788
 20
552.2422434824697
 10
211.3337161864788
 20
552.9671049695696
 10
211.9221392621788
 20
553.4702509728697
 10
212.6325207135787
 20
553.6750820744696
 10
213.3567114041788
 20
553.5504145959696
 10
213.9844598662788
 20
553.1152280306696
 10
214.4201970869788
 20
552.4357755882697
 10
214.5975860244788
 20
551.6154977439696
 10
214.4896208209788
 20
550.7792743635696
 10
214.1127382000788
 20
550.0544128764697
 10
213.5243151243787
 20
549.5512668730696
 10
212.8139336729788
 20
549.3464357714697
 10
212.0897429823788
 20
549.4711032500697
 10
211.4619945202787
 20
549.9062898153697
 10
211.0262572995788
 20
550.5857422576696
  0
LINE
  5
1A2
330
1F
100
AcDbEntity
  8
0
  6
Continuous
 62
     7
370
    25
100
AcDbLine
 10
214.2181199501788
 20
551.3679506811696
 30
0.0
 11
213.5777797531788
 21
552.9342475589697
 31
0.0
  0
LINE
  5
1A3
330
1F
100
AcDbEntity
  8
0
  6
Continuous
 62
     7
370
    25
100
AcDbLine
 10
213.5777797531788
 20
552.9342475589697
 30
0.0
 11
212.0828869962787
 21
553.0770558007696
 31
0.0
  0
LINE
  5
1A4
330
1F
100
AcDbEntity
  8
0
  6
Continuous
 62
     7
370
    25
100
AcDbLine
 10
212.0828869962787
 20
553.0770558007696
 30
0.0
 11
211.2283344363788
 21
551.6535671648696
 31
0.0
  0
LINE
  5
1A5
330
1F
100
AcDbEntity
  8
0
  6
Continuous
 62
     7
370
    25
100
AcDbLine
 10
211.2283344363788
 20
551.6535671648696
 30
0.0
 11
211.8686746334788
 21
550.0872702870697
 31
0.0
  0
LINE
  5
1A6
330
1F
100
AcDbEntity
  8
0
  6
Continuous
 62
     7
370
    25
100
AcDbLine
 10
211.8686746334788
 20
550.0872702870697
 30
0.0
 11
213.3635673902787
 21
549.9444620451696
 31
0.0
  0
LINE
  5
1A7
330
1F
100
AcDbEntity
  8
0
  6
Continuous
 62
     7
370
    25
100
AcDbLine
 10
213.3635673902787
 20
549.9444620451696
 30
0.0
 11
214.2181199501788
 21
551.3679506811696
 31
0.0
  0
LWPOLYLINE
  5
1A8
330
1F
100
AcDbEntity
  8
0
  6
Continuous
 62
     7
370
    25
100
AcDbPolyline
 90
        9
 70
   128
 43
0.0
 10
207.6282721084788
 20
549.4830149657696
 10
207.2924340191788
 20
550.7171034737696
 10
207.2573955556787
 20
552.0100537756697
 10
207.5257553602788
 20
553.2659736624696
 10
208.0776104141788
 20
554.3917173015697
 10
208.8720321524788
 20
555.3037934372696
 10
209.8501019491788
 20
555.9345575550697
 10
210.9392808416787
 20
556.2372287658696
 10
211.3482271932787
 20
556.2607589229697
  0
ARC
  5
1A9
330
1F
100
AcDbEntity
  8
0
  6
Continuous
 62
     7
370
    25
100
AcDbCircle
 10
211.4890123224787
 20
550.8559234041697
 30
0.0
 40
4.097583749032578
100
AcDbArc
 50
199.5757714229997
 51
268.0310392431999
  0
LINE
  5
1AA
330
1F
100
AcDbEntity
  8
0
  6
Continuous
 62
     7
370
    25
100
AcDbLine
 10
212.5777797531788
 20
552.9342475589697
 30
0.0
 11
213.5777797531788
 21
552.9342475589697
 31
0.0
  0
LINE
  5
1AB
330
1F
100
AcDbEntity
  8
0
  6
Continuous
 62
     7
370
    25
100
AcDbLine
 10
212.5777797531788
 20
552.9342475589697
 30
0.0
 11
212.0286482635788
 21
552.9867065077697
 31
0.0
  0
LINE
  5
1AC
330
1F
100
AcDbEntity
  8
0
  6
Continuous
 62
     7
370
    25
100
AcDbLine
 10
212.4178061230788
 20
550.0348113382697
 30
0.0
 11
213.2181199501788
 21
551.3679506811696
 31
0.0
  0
LINE
  5
1AD
330
1F
100
AcDbEntity
  8
0
  6
Continuous
 62
     7
370
    25
100
AcDbLine
 10
213.2181199501788
 20
551.3679506811696
 30
0.0
 11
214.2181199501788
 21
551.3679506811696
 31
0.0
  0
LINE
  5
1AE
330
1F
100
AcDbEntity
  8
0
  6
Continuous
 62
     7
370
    25
100
AcDbLine
 10
213.2181199501788
 20
551.3679506811696
 30
0.0
 11
212.5777797531788
 21
552.9342475589697
 31
0.0
  0
LINE
  5
1AF
330
1F
100
AcDbEntity
  8
0
  6
Continuous
 62
     7
370
    25
100
AcDbLine
 10
58.34822719327872
 20
556.2607589229697
 30
0.0
 11
58.34822719327872
 21
546.7607589229697
 31
0.0
  0
LINE
  5
1B0
330
1F
100
AcDbEntity
  8
0
  6
Continuous
 62
     7
370
    25
100
AcDbLine
 10
57.84822719327872
 20
556.2607589229697
 30
0.0
 11
57.84822719327872
 21
546.7607589229697
 31
0.0
  0
LINE
  5
1B1
330
1F
100
AcDbEntity
  8
0
  6
Continuous
 62
     7
370
    25
100
AcDbLine
 10
55.59822719327872
 20
553.6776149229697
 30
0.0
 11
55.59822719327872
 21
549.3439029229696
 31
0.0
  0
LINE
  5
1B2
330
1F
100
AcDbEntity
  8
0
  6
Continuous
 62
     7
370
    25
100
AcDbLine
 10
93.44822719327874
 20
247.9107589230697
 30
0.0
 11
92.84822719327872
 21
247.9107589230697
 31
0.0
  0
LINE
  5
1B3
330
1F
100
AcDbEntity
  8
0
  6
Continuous
 62
     7
370
    25
100
AcDbLine
 10
93.94822719327874
 20
247.9107589230697
 30
0.0
 11
93.94822719327874
 21
242.4107589230697
 31
0.0
  0
LINE
  5
1B4
330
1F
100
AcDbEntity
  8
0
  6
Continuous
 62
     7
370
    25
100
AcDbLine
 10
93.94822719327874
 20
240.4107589230697
 30
0.0
 11
93.94822719327874
 21
238.6107589229697
 31
0.0
  0
SPLINE
  5
1B5
330
1F
100
AcDbEntity
  8
0
  6
Continuous
 62
     7
370
    25
100
AcDbSpline
210
0.0
220
0.0
230
1.0
 70
    24
 71
     3
 72
    11
 73
     7
 74
     0
 42
0.000000001
 43
0.00000001
 40
0.0
 40
0.0
 40
0.0
 40
0.0
 40
0.2499999999999631
 40
0.5000000000000198
 40
0.7500000000000124
 40
1.0
 40
1.0
 40
1.0
 40
1.0
 10
93.94822719329125
 20
247.9107589230816
 30
0.0
 10
93.94071140689755
 20
247.9107589230816
 30
0.0
 10
93.92567983411027
 20
247.9107589230816
 30
0.0
 10
93.81005522754901
 20
247.9107589230815
 30
0.0
 10
93.64478275900058
 20
247.9107589230817
 30
0.0
 10
93.51374571519432
 20
247.9107589230815
 30
0.0
 10
93.44822719329125
 20
247.9107589230816
 30
0.0
  0
LINE
  5
1B6
330
1F
100
AcDbEntity
  8
0
  6
Continuous
 62
     7
370
    25
100
AcDbLine
 10
92.84822719327872
 20
247.9107589230697
 30
0.0
 11
92.34822719327872
 21
247.9107589230697
 31
0.0
  0
LINE
  5
1B7
330
1F
100
AcDbEntity
  8
0
  6
Continuous
 62
     7
370
    25
100
AcDbLine
 10
92.34822719327872
 20
220.6107589198697
 30
0.0
 11
92.34822719327872
 21
220.9157691181697
 31
0.0
  0
LINE
  5
1B8
330
1F
100
AcDbEntity
  8
0
  6
Continuous
 62
     7
370
    25
100
AcDbLine
 10
92.34822719327872
 20
238.6107589229697
 30
0.0
 11
92.34822719327872
 21
240.4107589230697
 31
0.0
  0
LINE
  5
1B9
330
1F
100
AcDbEntity
  8
0
  6
Continuous
 62
     7
370
    25
100
AcDbLine
 10
92.34822719327872
 20
242.4107589230697
 30
0.0
 11
92.34822719327872
 21
247.9107589230697
 31
0.0
  0
LINE
  5
1BA
330
1F
100
AcDbEntity
  8
0
  6
Continuous
 62
     7
370
    25
100
AcDbLine
 10
80.34822719327872
 20
73.41075892266966
 30
0.0
 11
240.3482271932787
 21
73.41075892266966
 31
0.0
  0
LINE
  5
1BB
330
1F
100
AcDbEntity
  8
0
  6
Continuous
 62
     7
370
    25
100
AcDbLine
 10
211.3482271932787
 20
270.7107589230696
 30
0.0
 11
199.3482271932787
 21
270.7107589230696
 31
0.0
  0
LINE
  5
1BC
330
1F
100
AcDbEntity
  8
0
  6
Continuous
 62
     7
370
    25
100
AcDbLine
 10
199.7523723816788
 20
271.4107589230697
 30
0.0
 11
210.9440820048787
 21
271.4107589230697
 31
0.0
  0
LINE
  5
1BD
330
1F
100
AcDbEntity
  8
0
  6
Continuous
 62
     7
370
    25
100
AcDbLine
 10
138.6975920986788
 20
611.4907341321697
 30
0.0
 11
135.3482271932787
 21
611.4907341321697
 31
0.0
  0
LINE
  5
1BE
330
1F
100
AcDbEntity
  8
0
  6
Continuous
 62
     7
370
    25
100
AcDbLine
 10
185.3482271932787
 20
611.4907341321697
 30
0.0
 11
138.6975920986788
 21
611.4907341321697
 31
0.0
  0
SPLINE
  5
1BF
330
1F
100
AcDbEntity
  8
0
  6
Continuous
 62
     7
370
    25
100
AcDbSpline
210
0.0
220
0.0
230
1.0
 70
     8
 71
     3
 72
    17
 73
    13
 74
     0
 42
0.000000001
 43
0.00000001
 40
0.0
 40
0.0
 40
0.0
 40
0.0
 40
0.0369921518864324
 40
0.1443073033746767
 40
0.2516445418064862
 40
0.3590337864186242
 40
0.4664238309106014
 40
0.5737621426463274
 40
0.6810769614634488
 40
0.7884331723431466
 40
0.8958310660664689
 40
1.0
 40
1.0
 40
1.0
 40
1.0
 10
58.34966565332354
 20
548.154312152979
 30
0.0
 10
58.34927273346875
 20
548.1423990902164
 30
0.0
 10
58.34773994335546
 20
548.0959259364645
 30
0.0
 10
58.35824350092457
 20
548.4115879317653
 30
0.0
 10
58.37671466506663
 20
549.0680602980053
 30
0.0
 10
58.39593333771938
 20
550.0258420191807
 30
0.0
 10
58.40644671235873
 20
551.1443794109725
 30
0.0
 10
58.40393850314217
 20
552.3052730960515
 30
0.0
 10
58.38935924139867
 20
553.3780416229379
 30
0.0
 10
58.36943554529591
 20
554.2327883372666
 30
0.0
 10
58.35185974357557
 20
554.8046902541885
 30
0.0
 10
58.34954656866591
 20
554.8720410738201
 30
0.0
 10
58.34840763319585
 20
554.905202525255
 30
0.0
  0
LINE
  5
1C0
330
1F
100
AcDbEntity
  8
0
  6
Continuous
 62
     7
370
    25
100
AcDbLine
 10
58.34822719327872
 20
541.5107589229697
 30
0.0
 11
262.3482271932787
 21
541.5107589229697
 31
0.0
  0
LINE
  5
1C1
330
1F
100
AcDbEntity
  8
0
  6
Continuous
 62
     7
370
    25
100
AcDbLine
 10
68.34822719327872
 20
480.5107589229697
 30
0.0
 11
252.3482271932787
 21
480.5107589229697
 31
0.0
  0
LINE
  5
1C2
330
1F
100
AcDbEntity
  8
0
  6
Continuous
 62
     7
370
    25
100
AcDbLine
 10
253.3482271932787
 20
442.5107589229697
 30
0.0
 11
67.34822719327872
 21
442.5107589229697
 31
0.0
  0
LINE
  5
1C3
330
1F
100
AcDbEntity
  8
0
  6
Continuous
 62
     7
370
    25
100
AcDbLine
 10
253.3482271932787
 20
372.5107589229697
 30
0.0
 11
67.34822719327872
 21
372.5107589229697
 31
0.0
  0
LINE
  5
1C4
330
1F
100
AcDbEntity
  8
0
  6
Continuous
 62
     7
370
    25
100
AcDbLine
 10
68.34822719327872
 20
410.5107589229697
 30
0.0
 11
252.3482271932787
 21
410.5107589229697
 31
0.0
  0
SPLINE
  5
1C5
330
1F
100
AcDbEntity
  8
0
  6
Continuous
 62
     7
370
    25
100
AcDbSpline
210
0.0
220
0.0
230
1.0
 70
     8
 71
     3
 72
    22
 73
    18
 74
     0
 42
0.000000001
 43
0.00000001
 40
0.0
 40
0.0
 40
0.0
 40
0.0
 40
0.0890358954785761
 40
0.1754791113781356
 40
0.2653580984645558
 40
0.3430941994045938
 40
0.4168361478360319
 40
0.4932913927089135
 40
0.5778050682752265
 40
0.6684543687523884
 40
0.7105572250136157
 40
0.7483208283606223
 40
0.7828313861818375
 40
0.8169407455639672
 40
0.8664987865881402
 40
0.9268914025165936
 40
1.0
 40
1.0
 40
1.0
 40
1.0
 10
133.1924214702325
 20
372.5616363930883
 30
0.0
 10
133.6064144472783
 20
371.3356363934515
 30
0.0
 10
134.422345138359
 20
368.9193368849278
 30
0.0
 10
135.102543086589
 20
365.0576539534395
 30
0.0
 10
135.3948610870688
 20
361.293516057436
 30
0.0
 10
135.1059467166391
 20
357.6942547965311
 30
0.0
 10
134.2791188075076
 20
354.4088909205938
 30
0.0
 10
133.0069995915057
 20
351.2082079079707
 30
0.0
 10
131.4309194641387
 20
347.9096055995143
 30
0.0
 10
130.0022022336407
 20
345.0869575653811
 30
0.0
 10
128.5712866105781
 20
343.1233422734454
 30
0.0
 10
127.3979342927651
 20
342.0304292727968
 30
0.0
 10
126.0486536339284
 20
341.5293230737592
 30
0.0
 10
124.5017699131163
 20
341.7133852131532
 30
0.0
 10
122.8457817533301
 20
342.7237554735714
 30
0.0
 10
121.0705249100088
 20
344.477179508242
 30
0.0
 10
119.8624073238922
 20
345.8601943135506
 30
0.0
 10
119.2008119716196
 20
346.617567749573
 30
0.0
  0
SPLINE
  5
1C6
330
1F
100
AcDbEntity
  8
0
  6
Continuous
 62
     7
370
    25
100
AcDbSpline
210
0.0
220
0.0
230
1.0
 70
     8
 71
     3
 72
    20
 73
    16
 74
     0
 42
0.000000001
 43
0.00000001
 40
0.0
 40
0.0
 40
0.0
 40
0.0
 40
0.0743427697282264
 40
0.1602973963164287
 40
0.2047252456229831
 40
0.2270010954288129
 40
0.2491884291650225
 40
0.2937897703636764
 40
0.3386318565653416
 40
0.4465527350516503
 40
0.5547610831854721
 40
0.6629917154944058
 40
0.7714456548896421
 40
0.8801674637367473
 40
1.0
 40
1.0
 40
1.0
 40
1.0
 10
119.2314438904941
 20
348.371934524436
 30
0.0
 10
118.5258524245274
 20
347.6939387547452
 30
0.0
 10
117.0044606971135
 20
346.2320486880673
 30
0.0
 10
115.1298474344339
 20
344.2757432380772
 30
0.0
 10
113.450295084796
 20
343.1979694322757
 30
0.0
 10
112.3409408969017
 20
343.0578211363364
 30
0.0
 10
111.2879163354472
 20
343.4716796133221
 30
0.0
 10
110.3133618058216
 20
344.6139854569388
 30
0.0
 10
108.9449296829301
 20
346.8661791881116
 30
0.0
 10
107.4970330798656
 20
350.1299557328272
 30
0.0
 10
105.7754119362951
 20
354.2120651695134
 30
0.0
 10
104.7820415625542
 20
358.6899775290802
 30
0.0
 10
104.9674030997708
 20
363.3210042285029
 30
0.0
 10
105.8134302286012
 20
368.0205691227171
 30
0.0
 10
106.9555156578458
 20
370.9996728478336
 30
0.0
 10
107.5543185095247
 20
372.5616363930885
 30
0.0
  0
SPLINE
  5
1C7
330
1F
100
AcDbEntity
  8
0
  6
Continuous
 62
     7
370
    25
100
AcDbSpline
210
0.0
220
0.0
230
1.0
 70
     8
 71
     3
 72
    20
 73
    16
 74
     0
 42
0.000000001
 43
0.00000001
 40
0.0
 40
0.0
 40
0.0
 40
0.0
 40
0.0743427697282272
 40
0.1602973963164284
 40
0.2047252456229816
 40
0.2270010954288124
 40
0.2491884291650223
 40
0.2937897703636759
 40
0.3386318565653416
 40
0.4465527350516509
 40
0.5547610831854722
 40
0.6629917154944062
 40
0.7714456548896427
 40
0.8801674637367489
 40
1.0
 40
1.0
 40
1.0
 40
1.0
 10
119.2314438904941
 20
348.371934524436
 30
0.0
 10
119.9133592224712
 20
347.6939387547451
 30
0.0
 10
121.3837006238443
 20
346.2320486880672
 30
0.0
 10
123.1899981948491
 20
344.275743238077
 30
0.0
 10
124.8319138538506
 20
343.197969432276
 30
0.0
 10
125.9363739554076
 20
343.0578211363363
 30
0.0
 10
127.0038507733391
 20
343.4716796133217
 30
0.0
 10
128.0182955020188
 20
344.6139854569387
 30
0.0
 10
129.4653759630473
 20
346.8661791881113
 30
0.0
 10
131.0272461545026
 20
350.1299557328273
 30
0.0
 10
132.8914177007516
 20
354.212065169513
 30
0.0
 10
134.0411602198053
 20
358.6899775290799
 30
0.0
 10
134.0175176984694
 20
363.3210042285028
 30
0.0
 10
133.3356029920214
 20
368.0205691227168
 30
0.0
 10
132.2975501572537
 20
370.9996728478332
 30
0.0
 10
131.7532922744931
 20
372.5616363930883
 30
0.0
  0
SPLINE
  5
1C8
330
1F
100
AcDbEntity
  8
0
  6
Continuous
 62
     7
370
    25
100
AcDbSpline
210
0.0
220
0.0
230
1.0
 70
     8
 71
     3
 72
    22
 73
    18
 74
     0
 42
0.000000001
 43
0.00000001
 40
0.0
 40
0.0
 40
0.0
 40
0.0
 40
0.0890358954785765
 40
0.175479111378136
 40
0.2653580984645553
 40
0.3430941994045945
 40
0.4168361478360326
 40
0.4932913927089135
 40
0.5778050682752275
 40
0.6684543687523887
 40
0.7105572250136168
 40
0.7483208283606225
 40
0.7828313861818368
 40
0.8169407455639678
 40
0.8664987865881414
 40
0.9268914025165945
 40
1.0
 40
1.0
 40
1.0
 40
1.0
 10
106.1151893137853
 20
372.5616363930885
 30
0.0
 10
105.6583834733552
 20
371.3356363934518
 30
0.0
 10
104.7580737441144
 20
368.919336884928
 30
0.0
 10
103.9430228563837
 20
365.0576539534399
 30
0.0
 10
103.5192582641023
 20
361.2935160574361
 30
0.0
 10
103.6824836616993
 20
357.6942547965313
 30
0.0
 10
104.3945841362226
 20
354.4088909205939
 30
0.0
 10
105.5549330385246
 20
351.2082079079712
 30
0.0
 10
107.0158234350329
 20
347.9096055995145
 30
0.0
 10
108.3459716241747
 20
345.0869575653812
 30
0.0
 10
109.7083162902569
 20
343.1233422734458
 30
0.0
 10
110.8435032450999
 20
342.0304292727968
 30
0.0
 10
112.1752848898691
 20
341.5293230737592
 30
0.0
 10
113.7285962022231
 20
341.7133852131533
 30
0.0
 10
115.4198672689746
 20
342.7237554735714
 30
0.0
 10
117.256355028832
 20
344.477179508242
 30
0.0
 10
118.5127685561686
 20
345.8601943135507
 30
0.0
 10
119.2008119716196
 20
346.617567749573
 30
0.0
  0
SPLINE
  5
1C9
330
1F
100
AcDbEntity
  8
0
  6
Continuous
 62
     7
370
    25
100
AcDbSpline
210
0.0
220
0.0
230
1.0
 70
     8
 71
     3
 72
    16
 73
    12
 74
     0
 42
0.000000001
 43
0.00000001
 40
0.0
 40
0.0
 40
0.0
 40
0.0
 40
0.0937716891613428
 40
0.2201053937544434
 40
0.3286167050811735
 40
0.4373687368638833
 40
0.5463194643265937
 40
0.6555187800872923
 40
0.7650148184031954
 40
0.8759259052759178
 40
1.0
 40
1.0
 40
1.0
 40
1.0
 10
124.5954281020969
 20
372.5107589230087
 30
0.0
 10
124.6514944818412
 20
371.6556108300435
 30
0.0
 10
124.7830961699455
 20
369.6483663258244
 30
0.0
 10
124.6701625675364
 20
366.6123312666919
 30
0.0
 10
124.3031640783119
 20
363.5361921156408
 30
0.0
 10
123.7856987871922
 20
360.7201229308419
 30
0.0
 10
123.1589354376688
 20
357.9867003890522
 30
0.0
 10
122.3607525118028
 20
355.4264014380444
 30
0.0
 10
121.4719071643923
 20
352.984852305842
 30
0.0
 10
120.5554489651568
 20
350.374134314545
 30
0.0
 10
119.6889581280655
 20
349.0638011403329
 30
0.0
 10
119.2314438904941
 20
348.371934524436
 30
0.0
  0
SPLINE
  5
1CA
330
1F
100
AcDbEntity
  8
0
  6
Continuous
 62
     7
370
    25
100
AcDbSpline
210
0.0
220
0.0
230
1.0
 70
     8
 71
     3
 72
    20
 73
    16
 74
     0
 42
0.000000001
 43
0.00000001
 40
0.0
 40
0.0
 40
0.0
 40
0.0
 40
0.0743427697282266
 40
0.1602973963164293
 40
0.2047252456229827
 40
0.2270010954288134
 40
0.2491884291650225
 40
0.2937897703636768
 40
0.3386318565653415
 40
0.4465527350516509
 40
0.5547610831854726
 40
0.6629917154944058
 40
0.7714456548896422
 40
0.8801674637367485
 40
1.0
 40
1.0
 40
1.0
 40
1.0
 10
201.4650109117966
 20
348.371934524436
 30
0.0
 10
200.7830955798197
 20
347.6939387547452
 30
0.0
 10
199.3127541784464
 20
346.232048688067
 30
0.0
 10
197.5064566074416
 20
344.2757432380773
 30
0.0
 10
195.8645409484402
 20
343.1979694322757
 30
0.0
 10
194.7600808468832
 20
343.0578211363363
 30
0.0
 10
193.6926040289516
 20
343.4716796133221
 30
0.0
 10
192.678159300272
 20
344.6139854569388
 30
0.0
 10
191.2310788392435
 20
346.8661791881117
 30
0.0
 10
189.6692086477882
 20
350.1299557328274
 30
0.0
 10
187.8050371015393
 20
354.2120651695132
 30
0.0
 10
186.6552945824857
 20
358.6899775290804
 30
0.0
 10
186.6789371038216
 20
363.3210042285031
 30
0.0
 10
187.3608518102697
 20
368.0205691227169
 30
0.0
 10
188.3989046450374
 20
370.9996728478335
 30
0.0
 10
188.9431625277979
 20
372.5616363930885
 30
0.0
  0
SPLINE
  5
1CB
330
1F
100
AcDbEntity
  8
0
  6
Continuous
 62
     7
370
    25
100
AcDbSpline
210
0.0
220
0.0
230
1.0
 70
     8
 71
     3
 72
    20
 73
    16
 74
     0
 42
0.000000001
 43
0.00000001
 40
0.0
 40
0.0
 40
0.0
 40
0.0
 40
0.0743427697282272
 40
0.1602973963164282
 40
0.2047252456229824
 40
0.2270010954288125
 40
0.2491884291650217
 40
0.2937897703636759
 40
0.3386318565653414
 40
0.4465527350516508
 40
0.5547610831854726
 40
0.6629917154944049
 40
0.7714456548896428
 40
0.8801674637367489
 40
1.0
 40
1.0
 40
1.0
 40
1.0
 10
201.4650109117966
 20
348.371934524436
 30
0.0
 10
202.1706023777634
 20
347.6939387547452
 30
0.0
 10
203.6919941051774
 20
346.2320486880673
 30
0.0
 10
205.5666073678568
 20
344.2757432380771
 30
0.0
 10
207.2461597174947
 20
343.197969432276
 30
0.0
 10
208.355513905389
 20
343.0578211363361
 30
0.0
 10
209.4085384668435
 20
343.4716796133221
 30
0.0
 10
210.3830929964691
 20
344.6139854569386
 30
0.0
 10
211.7515251193606
 20
346.8661791881115
 30
0.0
 10
213.1994217224253
 20
350.1299557328274
 30
0.0
 10
214.9210428659958
 20
354.2120651695132
 30
0.0
 10
215.9144132397369
 20
358.6899775290801
 30
0.0
 10
215.7290517025202
 20
363.3210042285027
 30
0.0
 10
214.8830245736898
 20
368.0205691227168
 30
0.0
 10
213.7409391444454
 20
370.9996728478334
 30
0.0
 10
213.1421362927665
 20
372.5616363930883
 30
0.0
  0
SPLINE
  5
1CC
330
1F
100
AcDbEntity
  8
0
  6
Continuous
 62
     7
370
    25
100
AcDbSpline
210
0.0
220
0.0
230
1.0
 70
     8
 71
     3
 72
    22
 73
    18
 74
     0
 42
0.000000001
 43
0.00000001
 40
0.0
 40
0.0
 40
0.0
 40
0.0
 40
0.0890358954785762
 40
0.1754791113781356
 40
0.265358098464556
 40
0.3430941994045942
 40
0.4168361478360325
 40
0.4932913927089138
 40
0.577805068275227
 40
0.6684543687523887
 40
0.7105572250136163
 40
0.7483208283606222
 40
0.7828313861818377
 40
0.8169407455639676
 40
0.8664987865881412
 40
0.9268914025165941
 40
1.0
 40
1.0
 40
1.0
 40
1.0
 10
214.5812654885058
 20
372.5616363930883
 30
0.0
 10
215.0380713289359
 20
371.3356363934515
 30
0.0
 10
215.9383810581768
 20
368.9193368849277
 30
0.0
 10
216.7534319459073
 20
365.0576539534396
 30
0.0
 10
217.1771965381887
 20
361.293516057436
 30
0.0
 10
217.0139711405916
 20
357.694254796531
 30
0.0
 10
216.3018706660682
 20
354.4088909205936
 30
0.0
 10
215.1415217637663
 20
351.2082079079707
 30
0.0
 10
213.680631367258
 20
347.9096055995146
 30
0.0
 10
212.350483178116
 20
345.086957565381
 30
0.0
 10
210.9881385120337
 20
343.1233422734456
 30
0.0
 10
209.8529515571907
 20
342.0304292727967
 30
0.0
 10
208.5211699124219
 20
341.5293230737591
 30
0.0
 10
206.9678586000676
 20
341.7133852131533
 30
0.0
 10
205.2765875333162
 20
342.7237554735711
 30
0.0
 10
203.4400997734587
 20
344.477179508242
 30
0.0
 10
202.1836862461222
 20
345.8601943135506
 30
0.0
 10
201.4956428306712
 20
346.617567749573
 30
0.0
  0
SPLINE
  5
1CD
330
1F
100
AcDbEntity
  8
0
  6
Continuous
 62
     7
370
    25
100
AcDbSpline
210
0.0
220
0.0
230
1.0
 70
     8
 71
     3
 72
    22
 73
    18
 74
     0
 42
0.000000001
 43
0.00000001
 40
0.0
 40
0.0
 40
0.0
 40
0.0
 40
0.0890358954785764
 40
0.175479111378136
 40
0.2653580984645552
 40
0.3430941994045944
 40
0.4168361478360325
 40
0.4932913927089135
 40
0.5778050682752272
 40
0.6684543687523881
 40
0.7105572250136168
 40
0.7483208283606223
 40
0.7828313861818375
 40
0.8169407455639671
 40
0.8664987865881403
 40
0.9268914025165941
 40
1.0
 40
1.0
 40
1.0
 40
1.0
 10
187.5040333320586
 20
372.5616363930885
 30
0.0
 10
187.0900403550127
 20
371.3356363934518
 30
0.0
 10
186.274109663932
 20
368.9193368849279
 30
0.0
 10
185.593911715702
 20
365.0576539534401
 30
0.0
 10
185.3015937152221
 20
361.2935160574361
 30
0.0
 10
185.5905080856518
 20
357.6942547965314
 30
0.0
 10
186.4173359947832
 20
354.4088909205939
 30
0.0
 10
187.689455210785
 20
351.208207907971
 30
0.0
 10
189.2655353381521
 20
347.9096055995146
 30
0.0
 10
190.6942525686501
 20
345.0869575653812
 30
0.0
 10
192.1251681917125
 20
343.1233422734458
 30
0.0
 10
193.2985205095258
 20
342.0304292727968
 30
0.0
 10
194.6478011683622
 20
341.5293230737593
 30
0.0
 10
196.1946848891745
 20
341.7133852131529
 30
0.0
 10
197.8506730489606
 20
342.7237554735714
 30
0.0
 10
199.625929892282
 20
344.4771795082421
 30
0.0
 10
200.8340474783986
 20
345.8601943135506
 30
0.0
 10
201.4956428306712
 20
346.617567749573
 30
0.0
  0
SPLINE
  5
1CE
330
1F
100
AcDbEntity
  8
0
  6
Continuous
 62
     7
370
    25
100
AcDbSpline
210
0.0
220
0.0
230
1.0
 70
     8
 71
     3
 72
    16
 73
    12
 74
     0
 42
0.000000001
 43
0.00000001
 40
0.0
 40
0.0
 40
0.0
 40
0.0
 40
0.0937716891613431
 40
0.2201053937544442
 40
0.3286167050811736
 40
0.4373687368638847
 40
0.5463194643265951
 40
0.6555187800872935
 40
0.7650148184031984
 40
0.8759259052759208
 40
1.0
 40
1.0
 40
1.0
 40
1.0
 10
196.1010267001942
 20
372.5107589230086
 30
0.0
 10
196.0449603204499
 20
371.6556108300434
 30
0.0
 10
195.9133586323456
 20
369.6483663258243
 30
0.0
 10
196.0262922347547
 20
366.612331266692
 30
0.0
 10
196.3932907239791
 20
363.5361921156408
 30
0.0
 10
196.9107560150987
 20
360.7201229308421
 30
0.0
 10
197.5375193646222
 20
357.986700389052
 30
0.0
 10
198.3357022904881
 20
355.4264014380444
 30
0.0
 10
199.2245476378987
 20
352.9848523058421
 30
0.0
 10
200.141005837134
 20
350.3741343145449
 30
0.0
 10
201.0074966742254
 20
349.063801140333
 30
0.0
 10
201.4650109117966
 20
348.371934524436
 30
0.0
  0
SPLINE
  5
1CF
330
1F
100
AcDbEntity
  8
0
  6
Continuous
 62
     7
370
    25
100
AcDbSpline
210
0.0
220
0.0
230
1.0
 70
     8
 71
     3
 72
    20
 73
    16
 74
     0
 42
0.000000001
 43
0.00000001
 40
0.0
 40
0.0
 40
0.0
 40
0.0
 40
0.0743427697282264
 40
0.1602973963164285
 40
0.2047252456229828
 40
0.2270010954288131
 40
0.2491884291650225
 40
0.2937897703636749
 40
0.338631856565341
 40
0.4465527350516494
 40
0.5547610831854712
 40
0.6629917154944048
 40
0.7714456548896413
 40
0.8801674637367477
 40
1.0
 40
1.0
 40
1.0
 40
1.0
 10
231.5645853975557
 20
348.371934524436
 30
0.0
 10
231.1845508194066
 20
347.6939387547452
 30
0.0
 10
230.365122735005
 20
346.2320486880673
 30
0.0
 10
229.3616984291268
 20
344.2757432380768
 30
0.0
 10
228.4354675348862
 20
343.1979694322758
 30
0.0
 10
227.8006328000073
 20
343.0578211363362
 30
0.0
 10
227.1759807576534
 20
343.4716796133223
 30
0.0
 10
226.5672602033103
 20
344.6139854569387
 30
0.0
 10
225.6863802704019
 20
346.8661791881119
 30
0.0
 10
224.7188314129879
 20
350.1299557328273
 30
0.0
 10
223.560249955586
 20
354.2120651695132
 30
0.0
 10
222.8061643025216
 20
358.6899775290804
 30
0.0
 10
222.7264458012273
 20
363.3210042285031
 30
0.0
 10
223.0253990893198
 20
368.0205691227169
 30
0.0
 10
223.5646559264803
 20
370.9996728478335
 30
0.0
 10
223.8473918091128
 20
372.5616363930885
 30
0.0
  0
SPLINE
  5
1D0
330
1F
100
AcDbEntity
  8
0
  6
Continuous
 62
     7
370
    25
100
AcDbSpline
210
0.0
220
0.0
230
1.0
 70
     8
 71
     3
 72
    20
 73
    16
 74
     0
 42
0.000000001
 43
0.00000001
 40
0.0
 40
0.0
 40
0.0
 40
0.0
 40
0.0743427697282267
 40
0.1602973963164293
 40
0.2047252456229816
 40
0.2270010954288125
 40
0.2491884291650218
 40
0.2937897703636765
 40
0.3386318565653422
 40
0.4465527350516517
 40
0.5547610831854726
 40
0.6629917154944053
 40
0.7714456548896429
 40
0.8801674637367489
 40
1.0
 40
1.0
 40
1.0
 40
1.0
 10
231.5645853975557
 20
348.371934524436
 30
0.0
 10
231.9856282427019
 20
347.6939387547451
 30
0.0
 10
232.893478085549
 20
346.2320486880672
 30
0.0
 10
234.0152286403614
 20
344.2757432380772
 30
0.0
 10
235.0066481950136
 20
343.1979694322757
 30
0.0
 10
235.6499597360852
 20
343.0578211363362
 30
0.0
 10
236.2495797359369
 20
343.471679613322
 30
0.0
 10
236.7892084387944
 20
344.6139854569386
 30
0.0
 10
237.5338654541187
 20
346.8661791881115
 30
0.0
 10
238.3040062657188
 20
350.1299557328272
 30
0.0
 10
239.2156831830423
 20
354.2120651695129
 30
0.0
 10
239.6989243355366
 20
358.6899775290801
 30
0.0
 10
239.4985372847756
 20
363.3210042285028
 30
0.0
 10
238.9153329429637
 20
368.0205691227169
 30
0.0
 10
238.1958863665262
 20
370.9996728478332
 30
0.0
 10
237.81867582643
 20
372.5616363930883
 30
0.0
  0
SPLINE
  5
1D1
330
1F
100
AcDbEntity
  8
0
  6
Continuous
 62
     7
370
    25
100
AcDbSpline
210
0.0
220
0.0
230
1.0
 70
     8
 71
     3
 72
    22
 73
    18
 74
     0
 42
0.000000001
 43
0.00000001
 40
0.0
 40
0.0
 40
0.0
 40
0.0
 40
0.0890358954785763
 40
0.1754791113781357
 40
0.2653580984645561
 40
0.3430941994045943
 40
0.4168361478360326
 40
0.4932913927089145
 40
0.5778050682752269
 40
0.6684543687523891
 40
0.710557225013616
 40
0.7483208283606235
 40
0.782831386181838
 40
0.8169407455639689
 40
0.8664987865881408
 40
0.9268914025165943
 40
1.0
 40
1.0
 40
1.0
 40
1.0
 10
238.6495574549886
 20
372.5616363930883
 30
0.0
 10
238.938012448128
 20
371.3356363934515
 30
0.0
 10
239.5065227730551
 20
368.9193368849277
 30
0.0
 10
240.0549500034112
 20
365.0576539534396
 30
0.0
 10
240.3755013299987
 20
361.293516057436
 30
0.0
 10
240.3538296650564
 20
357.694254796531
 30
0.0
 10
240.0089361796548
 20
354.4088909205936
 30
0.0
 10
239.4035390492591
 20
351.2082079079711
 30
0.0
 10
238.6265984076973
 20
347.9096055995142
 30
0.0
 10
237.915545855195
 20
345.0869575653812
 30
0.0
 10
237.1685852559743
 20
343.1233422734454
 30
0.0
 10
236.5352195445998
 20
342.0304292727968
 30
0.0
 10
235.7764181139731
 20
341.5293230737592
 30
0.0
 10
234.8759024379432
 20
341.7133852131532
 30
0.0
 10
233.8790760364473
 20
342.7237554735711
 30
0.0
 10
232.7834276477854
 20
344.4771795082419
 30
0.0
 10
232.0301532849001
 20
345.8601943135507
 30
0.0
 10
231.6176414373796
 20
346.617567749573
 30
0.0
  0
SPLINE
  5
1D2
330
1F
100
AcDbEntity
  8
0
  6
Continuous
 62
     7
370
    25
100
AcDbSpline
210
0.0
220
0.0
230
1.0
 70
     8
 71
     3
 72
    22
 73
    18
 74
     0
 42
0.000000001
 43
0.00000001
 40
0.0
 40
0.0
 40
0.0
 40
0.0
 40
0.0890358954785763
 40
0.1754791113781361
 40
0.2653580984645552
 40
0.3430941994045943
 40
0.4168361478360324
 40
0.4932913927089136
 40
0.577805068275227
 40
0.6684543687523874
 40
0.7105572250136164
 40
0.7483208283606217
 40
0.782831386181837
 40
0.8169407455639672
 40
0.8664987865881398
 40
0.9268914025165944
 40
1.0
 40
1.0
 40
1.0
 40
1.0
 10
223.016510180554
 20
372.5616363930885
 30
0.0
 10
222.8022092420134
 20
371.3356363934518
 30
0.0
 10
222.3798476982738
 20
368.919336884928
 30
0.0
 10
222.0649926106827
 20
365.0576539534399
 30
0.0
 10
221.9721134595774
 20
361.2935160574361
 30
0.0
 10
222.2114848114168
 20
357.6942547965316
 30
0.0
 10
222.7550920425817
 20
354.4088909205938
 30
0.0
 10
223.5540810350836
 20
351.2082079079711
 30
0.0
 10
224.5305361430025
 20
347.9096055995144
 30
0.0
 10
225.4123152831872
 20
345.0869575653816
 30
0.0
 10
226.278044263821
 20
343.1233422734456
 30
0.0
 10
226.9775143229494
 20
342.0304292727969
 30
0.0
 10
227.7666249350233
 20
341.5293230737592
 30
0.0
 10
228.6560076959323
 20
341.7133852131533
 30
0.0
 10
229.5917223099256
 20
342.7237554735714
 30
0.0
 10
230.581315640153
 20
344.477179508242
 30
0.0
 10
231.2509389790462
 20
345.8601943135507
 30
0.0
 10
231.6176414373796
 20
346.617567749573
 30
0.0
  0
SPLINE
  5
1D3
330
1F
100
AcDbEntity
  8
0
  6
Continuous
 62
     7
370
    25
100
AcDbSpline
210
0.0
220
0.0
230
1.0
 70
     8
 71
     3
 72
    14
 73
    10
 74
     0
 42
0.000000001
 43
0.00000001
 40
0.0
 40
0.0
 40
0.0
 40
0.0
 40
0.0047997594983688
 40
0.1660043188079359
 40
0.3275034073231279
 40
0.4893709815242402
 40
0.6516783914503957
 40
0.816083346362741
 40
1.0
 40
1.0
 40
1.0
 40
1.0
 10
222.8107578611282
 20
363.642576904109
 30
0.0
 10
222.8165658558679
 20
363.6136045503122
 30
0.0
 10
223.0174409644478
 20
362.6115677070276
 30
0.0
 10
223.7000032916594
 20
360.7273324369748
 30
0.0
 10
224.7556219374476
 20
357.984762525739
 30
0.0
 10
226.1461699841778
 20
355.4269222196945
 30
0.0
 10
227.6835288170732
 20
352.9847117840653
 30
0.0
 10
229.2714731840939
 20
350.3741745596511
 30
0.0
 10
230.7721930524774
 20
349.0638150471596
 30
0.0
 10
231.5645853975557
 20
348.371934524436
 30
0.0
  0
SPLINE
  5
1D4
330
1F
100
AcDbEntity
  8
0
  6
Continuous
 62
     7
370
    25
100
AcDbSpline
210
0.0
220
0.0
230
1.0
 70
    24
 71
     3
 72
    19
 73
    15
 74
     0
 42
0.000000001
 43
0.00000001
 40
0.0
 40
0.0
 40
0.0
 40
0.0
 40
0.1120824379165598
 40
0.2209010927668545
 40
0.3340448527747578
 40
0.4319025949882204
 40
0.524732316220165
 40
0.6209776585149697
 40
0.7273673201659924
 40
0.8414807857328731
 40
0.894481777609732
 40
0.9420203204063822
 40
0.985463781424785
 40
1.0
 40
1.0
 40
1.0
 40
1.0
 10
241.7370712115683
 20
372.5616363930885
 30
0.0
 10
241.7798840821225
 20
371.3356361881299
 30
0.0
 10
241.8642631344139
 20
368.9193362749414
 30
0.0
 10
241.9991159689358
 20
365.0576563496506
 30
0.0
 10
242.1305629537151
 20
361.2935072002376
 30
0.0
 10
242.256250656869
 20
357.6942822981731
 30
0.0
 10
242.3709824997129
 20
354.4087921868786
 30
0.0
 10
242.482735340983
 20
351.2086095191813
 30
0.0
 10
242.5979993602074
 20
347.9078798702659
 30
0.0
 10
242.696321102658
 20
345.0923135502347
 30
0.0
 10
242.7653654199868
 20
343.1151429914613
 30
0.0
 10
242.8023107218316
 20
342.0571679702174
 30
0.0
 10
242.8193183551739
 20
341.5701330740881
 30
0.0
 10
242.8162540892878
 20
341.65788216813
 30
0.0
 10
242.8154858401527
 20
341.6798819449435
 30
0.0
  0
SPLINE
  5
1D5
330
1F
100
AcDbEntity
  8
0
  6
Continuous
 62
     7
370
    25
100
AcDbSpline
210
0.0
220
0.0
230
1.0
 70
     8
 71
     3
 72
    20
 73
    16
 74
     0
 42
0.000000001
 43
0.00000001
 40
0.0
 40
0.0
 40
0.0
 40
0.0
 40
0.0743427697282267
 40
0.1602973963164286
 40
0.2047252456229825
 40
0.2270010954288129
 40
0.2491884291650228
 40
0.2937897703636763
 40
0.3386318565653416
 40
0.4465527350516504
 40
0.5547610831854722
 40
0.6629917154944056
 40
0.771445654889642
 40
0.8801674637367484
 40
1.0
 40
1.0
 40
1.0
 40
1.0
 10
160.3482274332999
 20
348.371934524436
 30
0.0
 10
159.5471500100047
 20
347.6939387547452
 30
0.0
 10
157.8198720827559
 20
346.2320486880674
 30
0.0
 10
155.6946972220652
 20
344.2757432380771
 30
0.0
 10
153.7770467731725
 20
343.1979694322758
 30
0.0
 10
152.4989004972219
 20
343.0578211363363
 30
0.0
 10
151.2746284550165
 20
343.4716796133223
 30
0.0
 10
150.1262791978158
 20
344.6139854569388
 30
0.0
 10
148.500742249583
 20
346.8661791881118
 30
0.0
 10
146.7630525805689
 20
350.1299557328274
 30
0.0
 10
144.6927942058435
 20
354.2120651695133
 30
0.0
 10
143.4554674002848
 20
358.6899775290802
 30
0.0
 10
143.5761359497518
 20
363.3210042285029
 30
0.0
 10
144.458293579656
 20
368.0205691227169
 30
0.0
 10
145.716996993254
 20
370.9996728478335
 30
0.0
 10
146.3769434159827
 20
372.5616363930885
 30
0.0
  0
SPLINE
  5
1D6
330
1F
100
AcDbEntity
  8
0
  6
Continuous
 62
     7
370
    25
100
AcDbSpline
210
0.0
220
0.0
230
1.0
 70
     8
 71
     3
 72
    20
 73
    16
 74
     0
 42
0.000000001
 43
0.00000001
 40
0.0
 40
0.0
 40
0.0
 40
0.0
 40
0.0743427697282271
 40
0.1602973963164284
 40
0.2047252456229821
 40
0.2270010954288125
 40
0.2491884291650222
 40
0.2937897703636759
 40
0.3386318565653416
 40
0.4465527350516512
 40
0.5547610831854723
 40
0.6629917154944048
 40
0.7714456548896427
 40
0.8801674637367488
 40
0.9999999999999999
 40
0.9999999999999999
 40
0.9999999999999999
 40
0.9999999999999999
 10
160.3482274332999
 20
348.371934524436
 30
0.0
 10
161.1493048565951
 20
347.6939387547451
 30
0.0
 10
162.8765827838439
 20
346.2320486880673
 30
0.0
 10
165.0017576445345
 20
344.2757432380771
 30
0.0
 10
166.9194080934271
 20
343.1979694322758
 30
0.0
 10
168.1975543693777
 20
343.0578211363362
 30
0.0
 10
169.4218264115832
 20
343.471679613322
 30
0.0
 10
170.5701756687838
 20
344.6139854569386
 30
0.0
 10
172.1957126170167
 20
346.8661791881115
 30
0.0
 10
173.9334022860309
 20
350.1299557328272
 30
0.0
 10
176.0036606607563
 20
354.2120651695129
 30
0.0
 10
177.2409874663151
 20
358.6899775290801
 30
0.0
 10
177.1203189168482
 20
363.3210042285028
 30
0.0
 10
176.238161286944
 20
368.0205691227168
 30
0.0
 10
174.979457873346
 20
370.9996728478334
 30
0.0
 10
174.3195114506173
 20
372.5616363930883
 30
0.0
  0
SPLINE
  5
1D7
330
1F
100
AcDbEntity
  8
0
  6
Continuous
 62
     7
370
    25
100
AcDbSpline
210
0.0
220
0.0
230
1.0
 70
     8
 71
     3
 72
    22
 73
    18
 74
     0
 42
0.000000001
 43
0.00000001
 40
0.0
 40
0.0
 40
0.0
 40
0.0
 40
0.0890358954785763
 40
0.1754791113781356
 40
0.2653580984645559
 40
0.3430941994045941
 40
0.4168361478360323
 40
0.4932913927089139
 40
0.5778050682752268
 40
0.6684543687523885
 40
0.7105572250136162
 40
0.7483208283606225
 40
0.7828313861818373
 40
0.8169407455639677
 40
0.8664987865881407
 40
0.9268914025165942
 40
1.0
 40
1.0
 40
1.0
 40
1.0
 10
175.9812747077348
 20
372.5616363930883
 30
0.0
 10
176.4840306394146
 20
371.3356363934515
 30
0.0
 10
177.4749025080813
 20
368.9193368849277
 30
0.0
 10
178.3381848260286
 20
365.0576539534396
 30
0.0
 10
178.7516153037212
 20
361.293516057436
 30
0.0
 10
178.4905722869397
 20
357.694254796531
 30
0.0
 10
177.602071570373
 20
354.4088909205936
 30
0.0
 10
176.1976854474751
 20
351.2082079079707
 30
0.0
 10
174.4442896979947
 20
347.9096055995144
 30
0.0
 10
172.8514580053077
 20
345.0869575653811
 30
0.0
 10
171.2387684254533
 20
343.1233422734456
 30
0.0
 10
169.9059326549503
 20
342.0304292727967
 30
0.0
 10
168.3580206122494
 20
341.5293230737591
 30
0.0
 10
166.5681221753107
 20
341.7133852131534
 30
0.0
 10
164.6355811598216
 20
342.7237554735713
 30
0.0
 10
162.5503394409322
 20
344.477179508242
 30
0.0
 10
161.1274417391538
 20
345.8601943135508
 30
0.0
 10
160.3482274332999
 20
346.617567749573
 30
0.0
  0
SPLINE
  5
1D8
330
1F
100
AcDbEntity
  8
0
  6
Continuous
 62
     7
370
    25
100
AcDbSpline
210
0.0
220
0.0
230
1.0
 70
     8
 71
     3
 72
    22
 73
    18
 74
     0
 42
0.000000001
 43
0.00000001
 40
0.0
 40
0.0
 40
0.0
 40
0.0
 40
0.0890358954785766
 40
0.1754791113781362
 40
0.2653580984645553
 40
0.3430941994045944
 40
0.4168361478360324
 40
0.4932913927089135
 40
0.577805068275227
 40
0.6684543687523881
 40
0.7105572250136163
 40
0.7483208283606224
 40
0.7828313861818371
 40
0.8169407455639675
 40
0.8664987865881406
 40
0.9268914025165945
 40
1.0
 40
1.0
 40
1.0
 40
1.0
 10
144.7151801588653
 20
372.5616363930885
 30
0.0
 10
144.2124242271854
 20
371.3356363934515
 30
0.0
 10
143.2215523585187
 20
368.9193368849279
 30
0.0
 10
142.3582700405714
 20
365.05765395344
 30
0.0
 10
141.9448395628787
 20
361.293516057436
 30
0.0
 10
142.2058825796602
 20
357.6942547965314
 30
0.0
 10
143.0943832962269
 20
354.4088909205938
 30
0.0
 10
144.4987694191246
 20
351.2082079079711
 30
0.0
 10
146.252165168605
 20
347.9096055995145
 30
0.0
 10
147.8449968612921
 20
345.0869575653813
 30
0.0
 10
149.4576864411464
 20
343.1233422734456
 30
0.0
 10
150.7905222116493
 20
342.0304292727968
 30
0.0
 10
152.3384342543501
 20
341.5293230737592
 30
0.0
 10
154.128332691289
 20
341.7133852131533
 30
0.0
 10
156.060873706778
 20
342.7237554735713
 30
0.0
 10
158.1461154256675
 20
344.4771795082419
 30
0.0
 10
159.5690131274458
 20
345.8601943135506
 30
0.0
 10
160.3482274332999
 20
346.617567749573
 30
0.0
  0
SPLINE
  5
1D9
330
1F
100
AcDbEntity
  8
0
  6
Continuous
 62
     7
370
    25
100
AcDbSpline
210
0.0
220
0.0
230
1.0
 70
    24
 71
     3
 72
    16
 73
    12
 74
     0
 42
0.000000001
 43
0.00000001
 40
0.0
 40
0.0
 40
0.0
 40
0.0
 40
0.0937716891613433
 40
0.2201053937544446
 40
0.3286167050811739
 40
0.4373687368638852
 40
0.5463194643265952
 40
0.6555187800872947
 40
0.7650148184031994
 40
0.8759259052759224
 40
1.0
 40
1.0
 40
1.0
 40
1.0
 10
160.3482274333001
 20
372.5107589230086
 30
0.0
 10
160.3482274333001
 20
371.6556108300435
 30
0.0
 10
160.3482274333001
 20
369.6483663258242
 30
0.0
 10
160.3482274333001
 20
366.6123312666921
 30
0.0
 10
160.3482274333001
 20
363.5361921156406
 30
0.0
 10
160.3482274332999
 20
360.7201229308422
 30
0.0
 10
160.3482274332999
 20
357.9867003890519
 30
0.0
 10
160.3482274332999
 20
355.4264014380444
 30
0.0
 10
160.3482274332999
 20
352.9848523058419
 30
0.0
 10
160.3482274332999
 20
350.3741343145449
 30
0.0
 10
160.3482274332999
 20
349.0638011403329
 30
0.0
 10
160.3482274332999
 20
348.371934524436
 30
0.0
  0
SPLINE
  5
1DA
330
1F
100
AcDbEntity
  8
0
  6
Continuous
 62
     7
370
    25
100
AcDbSpline
210
0.0
220
0.0
230
1.0
 70
     8
 71
     3
 72
    20
 73
    16
 74
     0
 42
0.000000001
 43
0.00000001
 40
0.0
 40
0.0
 40
0.0
 40
0.0
 40
0.0743427697282267
 40
0.1602973963164286
 40
0.204725245622982
 40
0.2270010954288124
 40
0.2491884291650224
 40
0.293789770363675
 40
0.3386318565653424
 40
0.4465527350516491
 40
0.554761083185472
 40
0.6629917154944042
 40
0.7714456548896406
 40
0.880167463736747
 40
1.0
 40
1.0
 40
1.0
 40
1.0
 10
160.3482274332986
 20
488.3719345244363
 30
0.0
 10
159.5471500100033
 20
487.6939387547455
 30
0.0
 10
157.8198720827545
 20
486.2320486880677
 30
0.0
 10
155.694697222064
 20
484.2757432380769
 30
0.0
 10
153.7770467731713
 20
483.1979694322764
 30
0.0
 10
152.4989004972207
 20
483.0578211363364
 30
0.0
 10
151.2746284550152
 20
483.4716796133224
 30
0.0
 10
150.1262791978145
 20
484.6139854569392
 30
0.0
 10
148.5007422495819
 20
486.8661791881117
 30
0.0
 10
146.7630525805677
 20
490.1299557328275
 30
0.0
 10
144.6927942058422
 20
494.2120651695136
 30
0.0
 10
143.4554674002836
 20
498.6899775290804
 30
0.0
 10
143.5761359497504
 20
503.3210042285033
 30
0.0
 10
144.4582935796548
 20
508.0205691227171
 30
0.0
 10
145.7169969932528
 20
510.9996728478338
 30
0.0
 10
146.3769434159814
 20
512.5616363930887
 30
0.0
  0
SPLINE
  5
1DB
330
1F
100
AcDbEntity
  8
0
  6
Continuous
 62
     7
370
    25
100
AcDbSpline
210
0.0
220
0.0
230
1.0
 70
     8
 71
     3
 72
    20
 73
    16
 74
     0
 42
0.000000001
 43
0.00000001
 40
0.0
 40
0.0
 40
0.0
 40
0.0
 40
0.0743427697282263
 40
0.1602973963164293
 40
0.2047252456229824
 40
0.2270010954288129
 40
0.249188429165023
 40
0.2937897703636759
 40
0.3386318565653416
 40
0.4465527350516512
 40
0.5547610831854723
 40
0.6629917154944049
 40
0.7714456548896415
 40
0.8801674637367477
 40
1.0
 40
1.0
 40
1.0
 40
1.0
 10
160.3482274332986
 20
488.3719345244363
 30
0.0
 10
161.1493048565939
 20
487.6939387547455
 30
0.0
 10
162.8765827838427
 20
486.2320486880677
 30
0.0
 10
165.0017576445332
 20
484.2757432380772
 30
0.0
 10
166.9194080934259
 20
483.1979694322762
 30
0.0
 10
168.1975543693765
 20
483.0578211363364
 30
0.0
 10
169.4218264115818
 20
483.4716796133224
 30
0.0
 10
170.5701756687827
 20
484.6139854569388
 30
0.0
 10
172.1957126170155
 20
486.8661791881117
 30
0.0
 10
173.9334022860296
 20
490.1299557328275
 30
0.0
 10
176.003660660755
 20
494.2120651695132
 30
0.0
 10
177.2409874663138
 20
498.6899775290802
 30
0.0
 10
177.1203189168468
 20
503.3210042285032
 30
0.0
 10
176.2381612869428
 20
508.0205691227168
 30
0.0
 10
174.9794578733447
 20
510.9996728478336
 30
0.0
 10
174.3195114506161
 20
512.5616363930885
 30
0.0
  0
LINE
  5
1DC
330
1F
100
AcDbEntity
  8
0
  6
Continuous
 62
     7
370
    25
100
AcDbLine
 10
175.9812747077788
 20
512.5616363930696
 30
0.0
 11
174.3195114505787
 21
512.5616363930696
 31
0.0
  0
LINE
  5
1DD
330
1F
100
AcDbEntity
  8
0
  6
Continuous
 62
     7
370
    25
100
AcDbLine
 10
146.3769434159788
 20
512.5616363930696
 30
0.0
 11
144.7151801588788
 21
512.5616363930696
 31
0.0
  0
SPLINE
  5
1DE
330
1F
100
AcDbEntity
  8
0
  6
Continuous
 62
     7
370
    25
100
AcDbSpline
210
0.0
220
0.0
230
1.0
 70
     8
 71
     3
 72
    22
 73
    18
 74
     0
 42
0.000000001
 43
0.00000001
 40
0.0
 40
0.0
 40
0.0
 40
0.0
 40
0.0890358954785762
 40
0.1754791113781366
 40
0.2653580984645556
 40
0.3430941994045949
 40
0.4168361478360318
 40
0.4932913927089123
 40
0.5778050682752263
 40
0.6684543687523888
 40
0.7105572250136155
 40
0.7483208283606226
 40
0.7828313861818372
 40
0.8169407455639677
 40
0.8664987865881406
 40
0.9268914025165933
 40
1.0
 40
1.0
 40
1.0
 40
1.0
 10
175.9812747077335
 20
512.5616363930885
 30
0.0
 10
176.4840306394133
 20
511.3356363934516
 30
0.0
 10
177.47490250808
 20
508.9193368849282
 30
0.0
 10
178.3381848260274
 20
505.0576539534396
 30
0.0
 10
178.75161530372
 20
501.2935160574361
 30
0.0
 10
178.4905722869386
 20
497.6942547965314
 30
0.0
 10
177.6020715703718
 20
494.408890920594
 30
0.0
 10
176.1976854474739
 20
491.2082079079711
 30
0.0
 10
174.4442896979934
 20
487.9096055995146
 30
0.0
 10
172.8514580053064
 20
485.0869575653813
 30
0.0
 10
171.2387684254519
 20
483.1233422734456
 30
0.0
 10
169.9059326549491
 20
482.0304292727969
 30
0.0
 10
168.3580206122482
 20
481.5293230737593
 30
0.0
 10
166.5681221753093
 20
481.7133852131533
 30
0.0
 10
164.6355811598204
 20
482.7237554735713
 30
0.0
 10
162.5503394409309
 20
484.4771795082423
 30
0.0
 10
161.1274417391525
 20
485.8601943135508
 30
0.0
 10
160.3482274332986
 20
486.6175677495733
 30
0.0
  0
SPLINE
  5
1DF
330
1F
100
AcDbEntity
  8
0
  6
Continuous
 62
     7
370
    25
100
AcDbSpline
210
0.0
220
0.0
230
1.0
 70
     8
 71
     3
 72
    22
 73
    18
 74
     0
 42
0.000000001
 43
0.00000001
 40
0.0
 40
0.0
 40
0.0
 40
0.0
 40
0.0890358954785765
 40
0.1754791113781348
 40
0.2653580984645563
 40
0.343094199404593
 40
0.4168361478360321
 40
0.4932913927089143
 40
0.5778050682752256
 40
0.6684543687523876
 40
0.7105572250136158
 40
0.7483208283606226
 40
0.7828313861818372
 40
0.8169407455639678
 40
0.86649878658814
 40
0.9268914025165946
 40
1.0
 40
1.0
 40
1.0
 40
1.0
 10
144.7151801588641
 20
512.5616363930887
 30
0.0
 10
144.2124242271841
 20
511.335636393452
 30
0.0
 10
143.2215523585174
 20
508.9193368849283
 30
0.0
 10
142.3582700405701
 20
505.0576539534401
 30
0.0
 10
141.9448395628774
 20
501.2935160574365
 30
0.0
 10
142.2058825796588
 20
497.6942547965315
 30
0.0
 10
143.0943832962256
 20
494.408890920594
 30
0.0
 10
144.4987694191233
 20
491.2082079079713
 30
0.0
 10
146.2521651686037
 20
487.9096055995147
 30
0.0
 10
147.8449968612908
 20
485.0869575653815
 30
0.0
 10
149.4576864411451
 20
483.1233422734459
 30
0.0
 10
150.790522211648
 20
482.0304292727971
 30
0.0
 10
152.3384342543488
 20
481.5293230737594
 30
0.0
 10
154.1283326912877
 20
481.7133852131537
 30
0.0
 10
156.0608737067768
 20
482.7237554735713
 30
0.0
 10
158.1461154256662
 20
484.4771795082424
 30
0.0
 10
159.5690131274447
 20
485.8601943135509
 30
0.0
 10
160.3482274332986
 20
486.6175677495735
 30
0.0
  0
SPLINE
  5
1E0
330
1F
100
AcDbEntity
  8
0
  6
Continuous
 62
     7
370
    25
100
AcDbSpline
210
0.0
220
0.0
230
1.0
 70
    24
 71
     3
 72
    16
 73
    12
 74
     0
 42
0.000000001
 43
0.00000001
 40
0.0
 40
0.0
 40
0.0
 40
0.0
 40
0.110006950125229
 40
0.2340773611993856
 40
0.3406446707377678
 40
0.4474483881771401
 40
0.5544472416237735
 40
0.6616902298594439
 40
0.7692246248065543
 40
0.878148717433311
 40
1.0
 40
1.0
 40
1.0
 40
1.0
 10
160.3482274332988
 20
513.0107589230086
 30
0.0
 10
160.3482274332988
 20
511.9894348894223
 30
0.0
 10
160.3482274332988
 20
509.816219156787
 30
0.0
 10
160.3482274332988
 20
506.6124934265376
 30
0.0
 10
160.3482274332987
 20
503.5361513872659
 30
0.0
 10
160.3482274332987
 20
500.7201338754551
 30
0.0
 10
160.3482274332987
 20
497.9866974472192
 30
0.0
 10
160.3482274332987
 20
495.426402228633
 30
0.0
 10
160.3482274332987
 20
492.9848520925188
 30
0.0
 10
160.3482274332986
 20
490.3741343756404
 30
0.0
 10
160.3482274332986
 20
489.063801161445
 30
0.0
 10
160.3482274332986
 20
488.3719345244363
 30
0.0
  0
LINE
  5
1E1
330
1F
100
AcDbEntity
  8
0
  6
Continuous
 62
     7
370
    25
100
AcDbLine
 10
174.1622527930788
 20
512.5708439045696
 30
0.0
 11
173.8716004652788
 21
513.0107589229697
 31
0.0
  0
LINE
  5
1E2
330
1F
100
AcDbEntity
  8
0
  6
Continuous
 62
     7
370
    25
100
AcDbLine
 10
174.3195114505787
 20
512.5616363930696
 30
0.0
 11
174.1622527930788
 21
512.5708439045696
 31
0.0
  0
LINE
  5
1E3
330
1F
100
AcDbEntity
  8
0
  6
Continuous
 62
     7
370
    25
100
AcDbLine
 10
146.5342020735787
 20
512.5708439045696
 30
0.0
 11
146.3769434159788
 21
512.5616363930696
 31
0.0
  0
LINE
  5
1E4
330
1F
100
AcDbEntity
  8
0
  6
Continuous
 62
     7
370
    25
100
AcDbLine
 10
146.8248544013787
 20
513.0107589229697
 30
0.0
 11
146.5342020735787
 21
512.5708439045696
 31
0.0
  0
LINE
  5
1E5
330
1F
100
AcDbEntity
  8
0
  6
Continuous
 62
     7
370
    25
100
AcDbLine
 10
175.8579010721787
 20
512.5708439045696
 30
0.0
 11
174.1622527930788
 21
512.5708439045696
 31
0.0
  0
LINE
  5
1E6
330
1F
100
AcDbEntity
  8
0
  6
Continuous
 62
     7
370
    25
100
AcDbLine
 10
175.9812747077788
 20
512.5616363930696
 30
0.0
 11
175.8579010721787
 21
512.5708439045696
 31
0.0
  0
LINE
  5
1E7
330
1F
100
AcDbEntity
  8
0
  6
Continuous
 62
     7
370
    25
100
AcDbLine
 10
146.5342020735787
 20
512.5708439045696
 30
0.0
 11
144.8385537943788
 21
512.5708439045696
 31
0.0
  0
LINE
  5
1E8
330
1F
100
AcDbEntity
  8
0
  6
Continuous
 62
     7
370
    25
100
AcDbLine
 10
144.8385537943788
 20
512.5708439045696
 30
0.0
 11
144.7151801588788
 21
512.5616363930696
 31
0.0
  0
LINE
  5
1E9
330
1F
100
AcDbEntity
  8
0
  6
Continuous
 62
     7
370
    25
100
AcDbLine
 10
175.8579010721787
 20
512.5708439045696
 30
0.0
 11
175.5974077786788
 21
513.0107589229697
 31
0.0
  0
LINE
  5
1EA
330
1F
100
AcDbEntity
  8
0
  6
Continuous
 62
     7
370
    25
100
AcDbLine
 10
145.0990470878787
 20
513.0107589229697
 30
0.0
 11
144.8385537943788
 21
512.5708439045696
 31
0.0
  0
LINE
  5
1EB
330
1F
100
AcDbEntity
  8
0
  6
Continuous
 62
     7
370
    25
100
AcDbLine
 10
240.9854264269787
 20
513.0107589229697
 30
0.0
 11
241.2095732343788
 21
512.5708439045696
 31
0.0
  0
LINE
  5
1EC
330
1F
100
AcDbEntity
  8
0
  6
Continuous
 62
     7
370
    25
100
AcDbLine
 10
241.2095732343788
 20
512.5708439045696
 30
0.0
 11
241.7370712115787
 21
512.5616363930696
 31
0.0
  0
SPLINE
  5
1ED
330
1F
100
AcDbEntity
  8
0
  6
Continuous
 62
     7
370
    25
100
AcDbSpline
210
0.0
220
0.0
230
1.0
 70
    24
 71
     3
 72
    19
 73
    15
 74
     0
 42
0.000000001
 43
0.00000001
 40
0.0
 40
0.0
 40
0.0
 40
0.0
 40
0.1120824379165596
 40
0.2209010927668527
 40
0.334044852774759
 40
0.4319025949882184
 40
0.5247323162201644
 40
0.6209776585149704
 40
0.7273673201659903
 40
0.8414807857328722
 40
0.894481777609731
 40
0.942020320406382
 40
0.9854637814247849
 40
1.0
 40
1.0
 40
1.0
 40
1.0
 10
241.737071211567
 20
512.5616363930887
 30
0.0
 10
241.7798840821213
 20
511.3356361881301
 30
0.0
 10
241.8642631344127
 20
508.9193362749414
 30
0.0
 10
241.9991159689346
 20
505.0576563496512
 30
0.0
 10
242.1305629537138
 20
501.2935072002379
 30
0.0
 10
242.2562506568678
 20
497.6942822981732
 30
0.0
 10
242.3709824997118
 20
494.4087921868789
 30
0.0
 10
242.4827353409819
 20
491.2086095191812
 30
0.0
 10
242.5979993602062
 20
487.9078798702661
 30
0.0
 10
242.6963211026567
 20
485.0923135502352
 30
0.0
 10
242.7653654199855
 20
483.1151429914613
 30
0.0
 10
242.8023107218304
 20
482.0571679702178
 30
0.0
 10
242.8193183551725
 20
481.5701330740877
 30
0.0
 10
242.8162540892864
 20
481.6578821681302
 30
0.0
 10
242.8154858401514
 20
481.6798819449436
 30
0.0
  0
SPLINE
  5
1EE
330
1F
100
AcDbEntity
  8
0
  6
Continuous
 62
     7
370
    25
100
AcDbSpline
210
0.0
220
0.0
230
1.0
 70
     8
 71
     3
 72
    20
 73
    16
 74
     0
 42
0.000000001
 43
0.00000001
 40
0.0
 40
0.0
 40
0.0
 40
0.0
 40
0.0743427697282264
 40
0.1602973963164286
 40
0.2047252456229824
 40
0.2270010954288128
 40
0.2491884291650222
 40
0.2937897703636739
 40
0.338631856565342
 40
0.4465527350516482
 40
0.5547610831854712
 40
0.6629917154944037
 40
0.7714456548896402
 40
0.8801674637367466
 40
1.0
 40
1.0
 40
1.0
 40
1.0
 10
231.5645853975544
 20
488.3719345244363
 30
0.0
 10
231.1845508194053
 20
487.6939387547454
 30
0.0
 10
230.3651227350036
 20
486.2320486880674
 30
0.0
 10
229.3616984291257
 20
484.2757432380774
 30
0.0
 10
228.435467534885
 20
483.1979694322762
 30
0.0
 10
227.800632800006
 20
483.0578211363365
 30
0.0
 10
227.1759807576522
 20
483.4716796133224
 30
0.0
 10
226.567260203309
 20
484.6139854569392
 30
0.0
 10
225.6863802704005
 20
486.8661791881117
 30
0.0
 10
224.7188314129868
 20
490.1299557328273
 30
0.0
 10
223.5602499555847
 20
494.2120651695136
 30
0.0
 10
222.8061643025203
 20
498.6899775290804
 30
0.0
 10
222.7264458012261
 20
503.3210042285033
 30
0.0
 10
223.0253990893185
 20
508.0205691227168
 30
0.0
 10
223.564655926479
 20
510.9996728478337
 30
0.0
 10
223.8473918091114
 20
512.5616363930887
 30
0.0
  0
SPLINE
  5
1EF
330
1F
100
AcDbEntity
  8
0
  6
Continuous
 62
     7
370
    25
100
AcDbSpline
210
0.0
220
0.0
230
1.0
 70
     8
 71
     3
 72
    20
 73
    16
 74
     0
 42
0.000000001
 43
0.00000001
 40
0.0
 40
0.0
 40
0.0
 40
0.0
 40
0.0743427697282259
 40
0.1602973963164301
 40
0.2047252456229819
 40
0.2270010954288128
 40
0.2491884291650226
 40
0.2937897703636765
 40
0.3386318565653422
 40
0.4465527350516517
 40
0.5547610831854727
 40
0.6629917154944054
 40
0.7714456548896418
 40
0.8801674637367477
 40
1.0
 40
1.0
 40
1.0
 40
1.0
 10
231.5645853975544
 20
488.3719345244363
 30
0.0
 10
231.9856282427006
 20
487.6939387547451
 30
0.0
 10
232.8934780855478
 20
486.2320486880676
 30
0.0
 10
234.0152286403603
 20
484.2757432380772
 30
0.0
 10
235.0066481950124
 20
483.197969432276
 30
0.0
 10
235.6499597360839
 20
483.0578211363364
 30
0.0
 10
236.2495797359355
 20
483.4716796133222
 30
0.0
 10
236.789208438793
 20
484.6139854569387
 30
0.0
 10
237.5338654541175
 20
486.8661791881117
 30
0.0
 10
238.3040062657177
 20
490.1299557328273
 30
0.0
 10
239.2156831830411
 20
494.2120651695134
 30
0.0
 10
239.6989243355354
 20
498.6899775290802
 30
0.0
 10
239.4985372847742
 20
503.3210042285028
 30
0.0
 10
238.9153329429626
 20
508.0205691227171
 30
0.0
 10
238.195886366525
 20
510.9996728478337
 30
0.0
 10
237.8186758264287
 20
512.5616363930885
 30
0.0
  0
LINE
  5
1F0
330
1F
100
AcDbEntity
  8
0
  6
Continuous
 62
     7
370
    25
100
AcDbLine
 10
238.6495574549788
 20
512.5616363930696
 30
0.0
 11
237.8186758263788
 21
512.5616363930696
 31
0.0
  0
SPLINE
  5
1F1
330
1F
100
AcDbEntity
  8
0
  6
Continuous
 62
     7
370
    25
100
AcDbSpline
210
0.0
220
0.0
230
1.0
 70
     8
 71
     3
 72
    22
 73
    18
 74
     0
 42
0.000000001
 43
0.00000001
 40
0.0
 40
0.0
 40
0.0
 40
0.0
 40
0.0890358954785762
 40
0.1754791113781368
 40
0.2653580984645559
 40
0.3430941994045953
 40
0.4168361478360323
 40
0.4932913927089129
 40
0.5778050682752264
 40
0.6684543687523895
 40
0.7105572250136154
 40
0.7483208283606237
 40
0.7828313861818381
 40
0.816940745563969
 40
0.866498786588141
 40
0.9268914025165936
 40
1.0
 40
1.0
 40
1.0
 40
1.0
 10
238.6495574549874
 20
512.5616363930885
 30
0.0
 10
238.9380124481269
 20
511.3356363934518
 30
0.0
 10
239.5065227730537
 20
508.919336884928
 30
0.0
 10
240.05495000341
 20
505.0576539534397
 30
0.0
 10
240.3755013299973
 20
501.2935160574361
 30
0.0
 10
240.3538296650553
 20
497.6942547965313
 30
0.0
 10
240.0089361796535
 20
494.4088909205939
 30
0.0
 10
239.4035390492577
 20
491.2082079079711
 30
0.0
 10
238.6265984076961
 20
487.9096055995146
 30
0.0
 10
237.9155458551938
 20
485.0869575653813
 30
0.0
 10
237.1685852559732
 20
483.1233422734456
 30
0.0
 10
236.5352195445987
 20
482.0304292727969
 30
0.0
 10
235.7764181139718
 20
481.5293230737591
 30
0.0
 10
234.8759024379418
 20
481.7133852131533
 30
0.0
 10
233.8790760364461
 20
482.7237554735715
 30
0.0
 10
232.783427647784
 20
484.4771795082419
 30
0.0
 10
232.0301532848988
 20
485.8601943135508
 30
0.0
 10
231.6176414373784
 20
486.6175677495733
 30
0.0
  0
SPLINE
  5
1F2
330
1F
100
AcDbEntity
  8
0
  6
Continuous
 62
     7
370
    25
100
AcDbSpline
210
0.0
220
0.0
230
1.0
 70
     8
 71
     3
 72
    22
 73
    18
 74
     0
 42
0.000000001
 43
0.00000001
 40
0.0
 40
0.0
 40
0.0
 40
0.0
 40
0.0890358954785762
 40
0.1754791113781348
 40
0.2653580984645562
 40
0.3430941994045929
 40
0.4168361478360321
 40
0.4932913927089143
 40
0.5778050682752255
 40
0.6684543687523868
 40
0.7105572250136158
 40
0.748320828360622
 40
0.7828313861818371
 40
0.8169407455639675
 40
0.8664987865881391
 40
0.9268914025165944
 40
1.0
 40
1.0
 40
1.0
 40
1.0
 10
223.0165101805527
 20
512.5616363930887
 30
0.0
 10
222.8022092420122
 20
511.335636393452
 30
0.0
 10
222.3798476982724
 20
508.9193368849283
 30
0.0
 10
222.0649926106814
 20
505.0576539534401
 30
0.0
 10
221.9721134595761
 20
501.2935160574362
 30
0.0
 10
222.2114848114155
 20
497.6942547965315
 30
0.0
 10
222.7550920425805
 20
494.408890920594
 30
0.0
 10
223.5540810350824
 20
491.2082079079713
 30
0.0
 10
224.5305361430012
 20
487.9096055995147
 30
0.0
 10
225.4123152831861
 20
485.0869575653816
 30
0.0
 10
226.2780442638198
 20
483.1233422734459
 30
0.0
 10
226.9775143229481
 20
482.0304292727969
 30
0.0
 10
227.766624935022
 20
481.5293230737594
 30
0.0
 10
228.6560076959311
 20
481.7133852131537
 30
0.0
 10
229.5917223099243
 20
482.7237554735714
 30
0.0
 10
230.5813156401517
 20
484.4771795082423
 30
0.0
 10
231.2509389790449
 20
485.8601943135508
 30
0.0
 10
231.6176414373784
 20
486.6175677495733
 30
0.0
  0
LINE
  5
1F3
330
1F
100
AcDbEntity
  8
0
  6
Continuous
 62
     7
370
    25
100
AcDbLine
 10
223.8473918090788
 20
512.5616363930696
 30
0.0
 11
223.0165101805787
 21
512.5616363930696
 31
0.0
  0
LINE
  5
1F4
330
1F
100
AcDbEntity
  8
0
  6
Continuous
 62
     7
370
    25
100
AcDbLine
 10
222.5575001669788
 20
513.0107589229697
 30
0.0
 11
222.6213703495788
 21
512.5708439045696
 31
0.0
  0
LINE
  5
1F5
330
1F
100
AcDbEntity
  8
0
  6
Continuous
 62
     7
370
    25
100
AcDbLine
 10
222.6213703495788
 20
512.5708439045696
 30
0.0
 11
223.0165101805787
 21
512.5616363930696
 31
0.0
  0
SPLINE
  5
1F6
330
1F
100
AcDbEntity
  8
0
  6
Continuous
 62
     7
370
    25
100
AcDbSpline
210
0.0
220
0.0
230
1.0
 70
     8
 71
     3
 72
    14
 73
    10
 74
     0
 42
0.000000001
 43
0.00000001
 40
0.0
 40
0.0
 40
0.0
 40
0.0
 40
0.0047997594983717
 40
0.1660043188079355
 40
0.3275034073231326
 40
0.4893709815242419
 40
0.651678391450397
 40
0.8160833463627395
 40
1.0
 40
1.0
 40
1.0
 40
1.0
 10
222.8107578611271
 20
503.6425769041091
 30
0.0
 10
222.8165658558668
 20
503.6136045503127
 30
0.0
 10
223.0174409644467
 20
502.6115677070277
 30
0.0
 10
223.7000032916582
 20
500.7273324369751
 30
0.0
 10
224.7556219374462
 20
497.984762525739
 30
0.0
 10
226.1461699841766
 20
495.4269222196947
 30
0.0
 10
227.683528817072
 20
492.9847117840654
 30
0.0
 10
229.2714731840927
 20
490.3741745596512
 30
0.0
 10
230.7721930524762
 20
489.0638150471598
 30
0.0
 10
231.5645853975544
 20
488.3719345244363
 30
0.0
  0
LINE
  5
1F7
330
1F
100
AcDbEntity
  8
0
  6
Continuous
 62
     7
370
    25
100
AcDbLine
 10
223.4691944891788
 20
512.5708439045696
 30
0.0
 11
223.8473918090788
 21
512.5616363930696
 31
0.0
  0
LINE
  5
1F8
330
1F
100
AcDbEntity
  8
0
  6
Continuous
 62
     7
370
    25
100
AcDbLine
 10
223.4204038236787
 20
513.0107589229697
 30
0.0
 11
223.4691944891788
 21
512.5708439045696
 31
0.0
  0
LINE
  5
1F9
330
1F
100
AcDbEntity
  8
0
  6
Continuous
 62
     7
370
    25
100
AcDbLine
 10
223.4691944891788
 20
512.5708439045696
 30
0.0
 11
222.6213703495788
 21
512.5708439045696
 31
0.0
  0
LINE
  5
1FA
330
1F
100
AcDbEntity
  8
0
  6
Continuous
 62
     7
370
    25
100
AcDbLine
 10
238.1310439885788
 20
512.5708439045696
 30
0.0
 11
237.8066805123788
 21
513.0107589229697
 31
0.0
  0
LINE
  5
1FB
330
1F
100
AcDbEntity
  8
0
  6
Continuous
 62
     7
370
    25
100
AcDbLine
 10
238.6495574549788
 20
512.5616363930696
 30
0.0
 11
238.1310439885788
 21
512.5708439045696
 31
0.0
  0
LINE
  5
1FC
330
1F
100
AcDbEntity
  8
0
  6
Continuous
 62
     7
370
    25
100
AcDbLine
 10
237.2832198489788
 20
512.5708439045696
 30
0.0
 11
236.9437768556787
 21
513.0107589229697
 31
0.0
  0
LINE
  5
1FD
330
1F
100
AcDbEntity
  8
0
  6
Continuous
 62
     7
370
    25
100
AcDbLine
 10
237.8186758263788
 20
512.5616363930696
 30
0.0
 11
237.2832198489788
 21
512.5708439045696
 31
0.0
  0
LINE
  5
1FE
330
1F
100
AcDbEntity
  8
0
  6
Continuous
 62
     7
370
    25
100
AcDbLine
 10
238.1310439885788
 20
512.5708439045696
 30
0.0
 11
237.2832198489788
 21
512.5708439045696
 31
0.0
  0
SPLINE
  5
1FF
330
1F
100
AcDbEntity
  8
0
  6
Continuous
 62
     7
370
    25
100
AcDbSpline
210
0.0
220
0.0
230
1.0
 70
     8
 71
     3
 72
    22
 73
    18
 74
     0
 42
0.000000001
 43
0.00000001
 40
0.0
 40
0.0
 40
0.0
 40
0.0
 40
0.0890358954785764
 40
0.1754791113781348
 40
0.2653580984645564
 40
0.3430941994045931
 40
0.4168361478360323
 40
0.4932913927089143
 40
0.5778050682752257
 40
0.6684543687523876
 40
0.7105572250136164
 40
0.7483208283606226
 40
0.7828313861818378
 40
0.8169407455639677
 40
0.8664987865881397
 40
0.9268914025165941
 40
1.0
 40
1.0
 40
1.0
 40
1.0
 10
187.5040333320575
 20
512.5616363930887
 30
0.0
 10
187.0900403550114
 20
511.335636393452
 30
0.0
 10
186.2741096639307
 20
508.9193368849283
 30
0.0
 10
185.5939117157008
 20
505.0576539534401
 30
0.0
 10
185.3015937152209
 20
501.2935160574366
 30
0.0
 10
185.5905080856505
 20
497.6942547965315
 30
0.0
 10
186.4173359947821
 20
494.408890920594
 30
0.0
 10
187.6894552107839
 20
491.2082079079714
 30
0.0
 10
189.2655353381508
 20
487.9096055995146
 30
0.0
 10
190.6942525686489
 20
485.0869575653816
 30
0.0
 10
192.1251681917113
 20
483.123342273446
 30
0.0
 10
193.2985205095245
 20
482.0304292727969
 30
0.0
 10
194.647801168361
 20
481.5293230737595
 30
0.0
 10
196.1946848891731
 20
481.7133852131533
 30
0.0
 10
197.8506730489593
 20
482.7237554735714
 30
0.0
 10
199.6259298922806
 20
484.4771795082424
 30
0.0
 10
200.8340474783973
 20
485.8601943135508
 30
0.0
 10
201.4956428306699
 20
486.6175677495733
 30
0.0
  0
LINE
  5
200
330
1F
100
AcDbEntity
  8
0
  6
Continuous
 62
     7
370
    25
100
AcDbLine
 10
187.4606494519787
 20
513.0107589229697
 30
0.0
 11
187.3471290459788
 21
512.5708439045696
 31
0.0
  0
LINE
  5
201
330
1F
100
AcDbEntity
  8
0
  6
Continuous
 62
     7
370
    25
100
AcDbLine
 10
187.3471290459788
 20
512.5708439045696
 30
0.0
 11
187.5040333320787
 21
512.5616363930696
 31
0.0
  0
SPLINE
  5
202
330
1F
100
AcDbEntity
  8
0
  6
Continuous
 62
     7
370
    25
100
AcDbSpline
210
0.0
220
0.0
230
1.0
 70
     8
 71
     3
 72
    20
 73
    16
 74
     0
 42
0.000000001
 43
0.00000001
 40
0.0
 40
0.0
 40
0.0
 40
0.0
 40
0.0743427697282268
 40
0.1602973963164294
 40
0.2047252456229824
 40
0.2270010954288131
 40
0.2491884291650222
 40
0.2937897703636756
 40
0.3386318565653424
 40
0.4465527350516496
 40
0.5547610831854723
 40
0.6629917154944045
 40
0.7714456548896408
 40
0.8801674637367471
 40
0.9999999999999999
 40
0.9999999999999999
 40
0.9999999999999999
 40
0.9999999999999999
 10
201.4650109117955
 20
488.3719345244363
 30
0.0
 10
200.7830955798185
 20
487.6939387547455
 30
0.0
 10
199.3127541784452
 20
486.2320486880674
 30
0.0
 10
197.5064566074404
 20
484.2757432380774
 30
0.0
 10
195.864540948439
 20
483.1979694322762
 30
0.0
 10
194.7600808468819
 20
483.0578211363365
 30
0.0
 10
193.6926040289504
 20
483.4716796133225
 30
0.0
 10
192.6781593002706
 20
484.6139854569391
 30
0.0
 10
191.2310788392423
 20
486.8661791881121
 30
0.0
 10
189.6692086477869
 20
490.1299557328275
 30
0.0
 10
187.805037101538
 20
494.2120651695137
 30
0.0
 10
186.6552945824844
 20
498.6899775290802
 30
0.0
 10
186.6789371038202
 20
503.3210042285033
 30
0.0
 10
187.3608518102684
 20
508.0205691227171
 30
0.0
 10
188.3989046450362
 20
510.9996728478337
 30
0.0
 10
188.9431625277966
 20
512.5616363930887
 30
0.0
  0
SPLINE
  5
203
330
1F
100
AcDbEntity
  8
0
  6
Continuous
 62
     7
370
    25
100
AcDbSpline
210
0.0
220
0.0
230
1.0
 70
     8
 71
     3
 72
    20
 73
    16
 74
     0
 42
0.000000001
 43
0.00000001
 40
0.0
 40
0.0
 40
0.0
 40
0.0
 40
0.0743427697282263
 40
0.160297396316429
 40
0.2047252456229826
 40
0.2270010954288127
 40
0.2491884291650223
 40
0.2937897703636758
 40
0.3386318565653412
 40
0.4465527350516506
 40
0.5547610831854723
 40
0.6629917154944048
 40
0.7714456548896413
 40
0.8801674637367476
 40
1.0
 40
1.0
 40
1.0
 40
1.0
 10
201.4650109117955
 20
488.3719345244363
 30
0.0
 10
202.1706023777622
 20
487.6939387547454
 30
0.0
 10
203.6919941051761
 20
486.2320486880674
 30
0.0
 10
205.5666073678556
 20
484.2757432380774
 30
0.0
 10
207.2461597174935
 20
483.1979694322758
 30
0.0
 10
208.3555139053877
 20
483.0578211363367
 30
0.0
 10
209.4085384668423
 20
483.471679613322
 30
0.0
 10
210.3830929964679
 20
484.6139854569388
 30
0.0
 10
211.7515251193594
 20
486.866179188112
 30
0.0
 10
213.1994217224239
 20
490.1299557328273
 30
0.0
 10
214.9210428659945
 20
494.2120651695134
 30
0.0
 10
215.9144132397355
 20
498.6899775290802
 30
0.0
 10
215.729051702519
 20
503.3210042285029
 30
0.0
 10
214.8830245736885
 20
508.0205691227168
 30
0.0
 10
213.740939144444
 20
510.9996728478336
 30
0.0
 10
213.1421362927653
 20
512.5616363930885
 30
0.0
  0
LINE
  5
204
330
1F
100
AcDbEntity
  8
0
  6
Continuous
 62
     7
370
    25
100
AcDbLine
 10
214.5812654884787
 20
512.5616363930696
 30
0.0
 11
213.1421362927788
 21
512.5616363930696
 31
0.0
  0
SPLINE
  5
205
330
1F
100
AcDbEntity
  8
0
  6
Continuous
 62
     7
370
    25
100
AcDbSpline
210
0.0
220
0.0
230
1.0
 70
     8
 71
     3
 72
    22
 73
    18
 74
     0
 42
0.000000001
 43
0.00000001
 40
0.0
 40
0.0
 40
0.0
 40
0.0
 40
0.0890358954785762
 40
0.1754791113781367
 40
0.2653580984645557
 40
0.3430941994045951
 40
0.4168361478360321
 40
0.4932913927089121
 40
0.5778050682752264
 40
0.6684543687523892
 40
0.7105572250136156
 40
0.7483208283606222
 40
0.7828313861818377
 40
0.8169407455639677
 40
0.8664987865881411
 40
0.9268914025165932
 40
1.0
 40
1.0
 40
1.0
 40
1.0
 10
214.5812654885044
 20
512.5616363930885
 30
0.0
 10
215.0380713289346
 20
511.3356363934518
 30
0.0
 10
215.9383810581754
 20
508.9193368849279
 30
0.0
 10
216.7534319459061
 20
505.0576539534401
 30
0.0
 10
217.1771965381874
 20
501.2935160574361
 30
0.0
 10
217.0139711405903
 20
497.6942547965311
 30
0.0
 10
216.301870666067
 20
494.408890920594
 30
0.0
 10
215.1415217637651
 20
491.2082079079711
 30
0.0
 10
213.6806313672566
 20
487.9096055995145
 30
0.0
 10
212.3504831781149
 20
485.0869575653813
 30
0.0
 10
210.9881385120325
 20
483.1233422734456
 30
0.0
 10
209.8529515571895
 20
482.0304292727969
 30
0.0
 10
208.5211699124205
 20
481.5293230737591
 30
0.0
 10
206.9678586000664
 20
481.7133852131536
 30
0.0
 10
205.2765875333149
 20
482.7237554735714
 30
0.0
 10
203.4400997734574
 20
484.477179508242
 30
0.0
 10
202.1836862461209
 20
485.8601943135508
 30
0.0
 10
201.4956428306699
 20
486.6175677495735
 30
0.0
  0
LINE
  5
206
330
1F
100
AcDbEntity
  8
0
  6
Continuous
 62
     7
370
    25
100
AcDbLine
 10
188.9431625277788
 20
512.5616363930696
 30
0.0
 11
187.5040333320787
 21
512.5616363930696
 31
0.0
  0
SPLINE
  5
207
330
1F
100
AcDbEntity
  8
0
  6
Continuous
 62
     7
370
    25
100
AcDbSpline
210
0.0
220
0.0
230
1.0
 70
     8
 71
     3
 72
    16
 73
    12
 74
     0
 42
0.000000001
 43
0.00000001
 40
0.0
 40
0.0
 40
0.0
 40
0.0
 40
0.110006950125229
 40
0.2340773611993855
 40
0.3406446707377678
 40
0.4474483881771399
 40
0.5544472416237737
 40
0.661690229859443
 40
0.7692246248065537
 40
0.8781487174333097
 40
1.0
 40
1.0
 40
1.0
 40
1.0
 10
196.1264300239332
 20
513.0107589230086
 30
0.0
 10
196.0580249180778
 20
511.9894348894223
 30
0.0
 10
195.9124696904038
 20
509.8162191567866
 30
0.0
 10
196.0250130833647
 20
506.612493426538
 30
0.0
 10
196.3936119980738
 20
503.5361513872655
 30
0.0
 10
196.9106696816622
 20
500.7201338754551
 30
0.0
 10
197.5375425704264
 20
497.9866974472189
 30
0.0
 10
198.3356960541556
 20
495.4264022286335
 30
0.0
 10
199.2245493206377
 20
492.9848520925185
 30
0.0
 10
200.1410053551999
 20
490.3741343756408
 30
0.0
 10
201.0074965076907
 20
489.063801161445
 30
0.0
 10
201.4650109117955
 20
488.3719345244364
 30
0.0
  0
LINE
  5
208
330
1F
100
AcDbEntity
  8
0
  6
Continuous
 62
     7
370
    25
100
AcDbLine
 10
188.8156035315787
 20
512.5708439045696
 30
0.0
 11
188.9431625277788
 21
512.5616363930696
 31
0.0
  0
LINE
  5
209
330
1F
100
AcDbEntity
  8
0
  6
Continuous
 62
     7
370
    25
100
AcDbLine
 10
188.9552424274788
 20
513.0107589229697
 30
0.0
 11
188.8156035315787
 21
512.5708439045696
 31
0.0
  0
LINE
  5
20A
330
1F
100
AcDbEntity
  8
0
  6
Continuous
 62
     7
370
    25
100
AcDbLine
 10
188.8156035315787
 20
512.5708439045696
 30
0.0
 11
187.3471290459788
 21
512.5708439045696
 31
0.0
  0
LINE
  5
20B
330
1F
100
AcDbEntity
  8
0
  6
Continuous
 62
     7
370
    25
100
AcDbLine
 10
212.7421973117788
 20
512.5708439045696
 30
0.0
 11
212.3784116084788
 21
513.0107589229697
 31
0.0
  0
LINE
  5
20C
330
1F
100
AcDbEntity
  8
0
  6
Continuous
 62
     7
370
    25
100
AcDbLine
 10
213.1421362927788
 20
512.5616363930696
 30
0.0
 11
212.7421973117788
 21
512.5708439045696
 31
0.0
  0
LINE
  5
20D
330
1F
100
AcDbEntity
  8
0
  6
Continuous
 62
     7
370
    25
100
AcDbLine
 10
214.2106717973787
 20
512.5708439045696
 30
0.0
 11
212.7421973117788
 21
512.5708439045696
 31
0.0
  0
LINE
  5
20E
330
1F
100
AcDbEntity
  8
0
  6
Continuous
 62
     7
370
    25
100
AcDbLine
 10
214.5812654884787
 20
512.5616363930696
 30
0.0
 11
214.2106717973787
 21
512.5708439045696
 31
0.0
  0
LINE
  5
20F
330
1F
100
AcDbEntity
  8
0
  6
Continuous
 62
     7
370
    25
100
AcDbLine
 10
214.2106717973787
 20
512.5708439045696
 30
0.0
 11
213.8730045839787
 21
513.0107589229697
 31
0.0
  0
SPLINE
  5
210
330
1F
100
AcDbEntity
  8
0
  6
Continuous
 62
     7
370
    25
100
AcDbSpline
210
0.0
220
0.0
230
1.0
 70
     8
 71
     3
 72
    20
 73
    16
 74
     0
 42
0.000000001
 43
0.00000001
 40
0.0
 40
0.0
 40
0.0
 40
0.0
 40
0.0743427697282265
 40
0.1602973963164288
 40
0.2047252456229826
 40
0.2270010954288125
 40
0.2491884291650221
 40
0.2937897703636752
 40
0.3386318565653424
 40
0.446552735051649
 40
0.5547610831854719
 40
0.6629917154944045
 40
0.7714456548896408
 40
0.8801674637367473
 40
0.9999999999999999
 40
0.9999999999999999
 40
0.9999999999999999
 40
0.9999999999999999
 10
119.2314438904929
 20
488.3719345244363
 30
0.0
 10
118.5258524245261
 20
487.6939387547455
 30
0.0
 10
117.0044606971121
 20
486.2320486880676
 30
0.0
 10
115.1298474344328
 20
484.2757432380774
 30
0.0
 10
113.4502950847948
 20
483.1979694322766
 30
0.0
 10
112.3409408969005
 20
483.0578211363365
 30
0.0
 10
111.287916335446
 20
483.4716796133222
 30
0.0
 10
110.3133618058203
 20
484.6139854569394
 30
0.0
 10
108.944929682929
 20
486.8661791881117
 30
0.0
 10
107.4970330798642
 20
490.1299557328276
 30
0.0
 10
105.7754119362939
 20
494.2120651695134
 30
0.0
 10
104.782041562553
 20
498.6899775290806
 30
0.0
 10
104.9674030997695
 20
503.3210042285032
 30
0.0
 10
105.8134302286001
 20
508.0205691227171
 30
0.0
 10
106.9555156578446
 20
510.9996728478338
 30
0.0
 10
107.5543185095233
 20
512.5616363930887
 30
0.0
  0
SPLINE
  5
211
330
1F
100
AcDbEntity
  8
0
  6
Continuous
 62
     7
370
    25
100
AcDbSpline
210
0.0
220
0.0
230
1.0
 70
     8
 71
     3
 72
    20
 73
    16
 74
     0
 42
0.000000001
 43
0.00000001
 40
0.0
 40
0.0
 40
0.0
 40
0.0
 40
0.0743427697282264
 40
0.1602973963164293
 40
0.204725245622982
 40
0.2270010954288128
 40
0.2491884291650231
 40
0.2937897703636758
 40
0.3386318565653414
 40
0.4465527350516508
 40
0.5547610831854722
 40
0.6629917154944048
 40
0.7714456548896415
 40
0.8801674637367476
 40
1.0
 40
1.0
 40
1.0
 40
1.0
 10
119.2314438904929
 20
488.3719345244363
 30
0.0
 10
119.9133592224699
 20
487.6939387547455
 30
0.0
 10
121.3837006238431
 20
486.2320486880676
 30
0.0
 10
123.1899981948478
 20
484.275743238077
 30
0.0
 10
124.8319138538493
 20
483.197969432276
 30
0.0
 10
125.9363739554063
 20
483.0578211363365
 30
0.0
 10
127.0038507733378
 20
483.471679613322
 30
0.0
 10
128.0182955020176
 20
484.6139854569391
 30
0.0
 10
129.465375963046
 20
486.8661791881117
 30
0.0
 10
131.0272461545013
 20
490.1299557328273
 30
0.0
 10
132.8914177007503
 20
494.2120651695134
 30
0.0
 10
134.0411602198041
 20
498.6899775290802
 30
0.0
 10
134.0175176984682
 20
503.3210042285032
 30
0.0
 10
133.3356029920201
 20
508.0205691227168
 30
0.0
 10
132.2975501572524
 20
510.9996728478336
 30
0.0
 10
131.753292274492
 20
512.5616363930885
 30
0.0
  0
LINE
  5
212
330
1F
100
AcDbEntity
  8
0
  6
Continuous
 62
     7
370
    25
100
AcDbLine
 10
133.1924214702788
 20
512.5616363930696
 30
0.0
 11
131.7532922744788
 21
512.5616363930696
 31
0.0
  0
SPLINE
  5
213
330
1F
100
AcDbEntity
  8
0
  6
Continuous
 62
     7
370
    25
100
AcDbSpline
210
0.0
220
0.0
230
1.0
 70
     8
 71
     3
 72
    22
 73
    18
 74
     0
 42
0.000000001
 43
0.00000001
 40
0.0
 40
0.0
 40
0.0
 40
0.0
 40
0.0890358954785761
 40
0.1754791113781367
 40
0.2653580984645555
 40
0.3430941994045947
 40
0.4168361478360316
 40
0.493291392708912
 40
0.5778050682752259
 40
0.6684543687523888
 40
0.7105572250136152
 40
0.7483208283606225
 40
0.7828313861818377
 40
0.8169407455639675
 40
0.8664987865881403
 40
0.9268914025165929
 40
1.0
 40
1.0
 40
1.0
 40
1.0
 10
133.1924214702311
 20
512.5616363930885
 30
0.0
 10
133.6064144472772
 20
511.3356363934518
 30
0.0
 10
134.4223451383579
 20
508.919336884928
 30
0.0
 10
135.1025430865877
 20
505.0576539534397
 30
0.0
 10
135.3948610870675
 20
501.2935160574361
 30
0.0
 10
135.1059467166378
 20
497.6942547965313
 30
0.0
 10
134.2791188075063
 20
494.4088909205936
 30
0.0
 10
133.0069995915044
 20
491.2082079079714
 30
0.0
 10
131.4309194641376
 20
487.9096055995145
 30
0.0
 10
130.0022022336394
 20
485.0869575653813
 30
0.0
 10
128.5712866105769
 20
483.1233422734456
 30
0.0
 10
127.3979342927638
 20
482.0304292727969
 30
0.0
 10
126.0486536339272
 20
481.5293230737591
 30
0.0
 10
124.501769913115
 20
481.7133852131533
 30
0.0
 10
122.8457817533289
 20
482.7237554735715
 30
0.0
 10
121.0705249100075
 20
484.477179508242
 30
0.0
 10
119.8624073238908
 20
485.8601943135508
 30
0.0
 10
119.2008119716184
 20
486.6175677495733
 30
0.0
  0
SPLINE
  5
214
330
1F
100
AcDbEntity
  8
0
  6
Continuous
 62
     7
370
    25
100
AcDbSpline
210
0.0
220
0.0
230
1.0
 70
     8
 71
     3
 72
    22
 73
    18
 74
     0
 42
0.000000001
 43
0.00000001
 40
0.0
 40
0.0
 40
0.0
 40
0.0
 40
0.0890358954785764
 40
0.1754791113781347
 40
0.2653580984645563
 40
0.3430941994045929
 40
0.4168361478360321
 40
0.4932913927089143
 40
0.5778050682752259
 40
0.6684543687523882
 40
0.7105572250136165
 40
0.7483208283606227
 40
0.782831386181837
 40
0.8169407455639681
 40
0.8664987865881406
 40
0.9268914025165945
 40
1.0
 40
1.0
 40
1.0
 40
1.0
 10
106.1151893137842
 20
512.5616363930887
 30
0.0
 10
105.658383473354
 20
511.335636393452
 30
0.0
 10
104.7580737441132
 20
508.9193368849283
 30
0.0
 10
103.9430228563824
 20
505.0576539534401
 30
0.0
 10
103.5192582641012
 20
501.2935160574366
 30
0.0
 10
103.682483661698
 20
497.6942547965315
 30
0.0
 10
104.3945841362214
 20
494.408890920594
 30
0.0
 10
105.5549330385232
 20
491.2082079079713
 30
0.0
 10
107.0158234350316
 20
487.9096055995146
 30
0.0
 10
108.3459716241734
 20
485.0869575653817
 30
0.0
 10
109.7083162902557
 20
483.1233422734459
 30
0.0
 10
110.8435032450988
 20
482.0304292727969
 30
0.0
 10
112.1752848898677
 20
481.5293230737595
 30
0.0
 10
113.7285962022219
 20
481.7133852131533
 30
0.0
 10
115.4198672689735
 20
482.7237554735714
 30
0.0
 10
117.2563550288307
 20
484.4771795082423
 30
0.0
 10
118.5127685561673
 20
485.8601943135508
 30
0.0
 10
119.2008119716184
 20
486.6175677495733
 30
0.0
  0
LINE
  5
215
330
1F
100
AcDbEntity
  8
0
  6
Continuous
 62
     7
370
    25
100
AcDbLine
 10
107.5543185094788
 20
512.5616363930696
 30
0.0
 11
106.1151893137787
 21
512.5616363930696
 31
0.0
  0
LINE
  5
216
330
1F
100
AcDbEntity
  8
0
  6
Continuous
 62
     7
370
    25
100
AcDbLine
 10
133.3493257562787
 20
512.5708439045696
 30
0.0
 11
133.2358053503788
 21
513.0107589229697
 31
0.0
  0
LINE
  5
217
330
1F
100
AcDbEntity
  8
0
  6
Continuous
 62
     7
370
    25
100
AcDbLine
 10
133.1924214702788
 20
512.5616363930696
 30
0.0
 11
133.3493257562787
 21
512.5708439045696
 31
0.0
  0
SPLINE
  5
218
330
1F
100
AcDbEntity
  8
0
  6
Continuous
 62
     7
370
    25
100
AcDbSpline
210
0.0
220
0.0
230
1.0
 70
     8
 71
     3
 72
    16
 73
    12
 74
     0
 42
0.000000001
 43
0.00000001
 40
0.0
 40
0.0
 40
0.0
 40
0.0
 40
0.1100069501252287
 40
0.2340773611993848
 40
0.3406446707377677
 40
0.4474483881771387
 40
0.5544472416237725
 40
0.6616902298594419
 40
0.7692246248065506
 40
0.8781487174333067
 40
0.9999999999999999
 40
0.9999999999999999
 40
0.9999999999999999
 40
0.9999999999999999
 10
124.5700247783554
 20
513.0107589230086
 30
0.0
 10
124.6384298842108
 20
511.9894348894225
 30
0.0
 10
124.7839851118848
 20
509.8162191567869
 30
0.0
 10
124.6714417189238
 20
506.612493426538
 30
0.0
 10
124.3028428042146
 20
503.5361513872659
 30
0.0
 10
123.7857851206263
 20
500.7201338754551
 30
0.0
 10
123.158912231862
 20
497.9866974472192
 30
0.0
 10
122.3607587481329
 20
495.4264022286332
 30
0.0
 10
121.4719054816505
 20
492.9848520925187
 30
0.0
 10
120.5554494470884
 20
490.3741343756404
 30
0.0
 10
119.6889582945977
 20
489.0638011614448
 30
0.0
 10
119.2314438904929
 20
488.3719345244363
 30
0.0
  0
LINE
  5
219
330
1F
100
AcDbEntity
  8
0
  6
Continuous
 62
     7
370
    25
100
AcDbLine
 10
131.8808512706788
 20
512.5708439045696
 30
0.0
 11
131.7412123748787
 21
513.0107589229697
 31
0.0
  0
LINE
  5
21A
330
1F
100
AcDbEntity
  8
0
  6
Continuous
 62
     7
370
    25
100
AcDbLine
 10
131.7532922744788
 20
512.5616363930696
 30
0.0
 11
131.8808512706788
 21
512.5708439045696
 31
0.0
  0
LINE
  5
21B
330
1F
100
AcDbEntity
  8
0
  6
Continuous
 62
     7
370
    25
100
AcDbLine
 10
133.3493257562787
 20
512.5708439045696
 30
0.0
 11
131.8808512706788
 21
512.5708439045696
 31
0.0
  0
LINE
  5
21C
330
1F
100
AcDbEntity
  8
0
  6
Continuous
 62
     7
370
    25
100
AcDbLine
 10
107.9542574905788
 20
512.5708439045696
 30
0.0
 11
107.5543185094788
 21
512.5616363930696
 31
0.0
  0
LINE
  5
21D
330
1F
100
AcDbEntity
  8
0
  6
Continuous
 62
     7
370
    25
100
AcDbLine
 10
108.3180431937787
 20
513.0107589229697
 30
0.0
 11
107.9542574905788
 21
512.5708439045696
 31
0.0
  0
LINE
  5
21E
330
1F
100
AcDbEntity
  8
0
  6
Continuous
 62
     7
370
    25
100
AcDbLine
 10
107.9542574905788
 20
512.5708439045696
 30
0.0
 11
106.4857830048787
 21
512.5708439045696
 31
0.0
  0
LINE
  5
21F
330
1F
100
AcDbEntity
  8
0
  6
Continuous
 62
     7
370
    25
100
AcDbLine
 10
106.4857830048787
 20
512.5708439045696
 30
0.0
 11
106.1151893137787
 21
512.5616363930696
 31
0.0
  0
LINE
  5
220
330
1F
100
AcDbEntity
  8
0
  6
Continuous
 62
     7
370
    25
100
AcDbLine
 10
106.8234502182788
 20
513.0107589229697
 30
0.0
 11
106.4857830048787
 21
512.5708439045696
 31
0.0
  0
SPLINE
  5
221
330
1F
100
AcDbEntity
  8
0
  6
Continuous
 62
     7
370
    25
100
AcDbSpline
210
0.0
220
0.0
230
1.0
 70
     8
 71
     3
 72
    22
 73
    18
 74
     0
 42
0.000000001
 43
0.00000001
 40
0.0
 40
0.0
 40
0.0
 40
0.0
 40
0.0890358954785761
 40
0.1754791113781367
 40
0.2653580984645555
 40
0.3430941994045947
 40
0.4168361478360316
 40
0.493291392708912
 40
0.5778050682752259
 40
0.6684543687523888
 40
0.7105572250136152
 40
0.7483208283606225
 40
0.7828313861818377
 40
0.8169407455639675
 40
0.8664987865881403
 40
0.9268914025165929
 40
1.0
 40
1.0
 40
1.0
 40
1.0
 10
133.1924214702384
 20
442.5616363930885
 30
0.0
 10
133.6064144472845
 20
441.3356363934516
 30
0.0
 10
134.4223451383651
 20
438.9193368849279
 30
0.0
 10
135.102543086595
 20
435.0576539534399
 30
0.0
 10
135.3948610870748
 20
431.293516057436
 30
0.0
 10
135.1059467166452
 20
427.6942547965313
 30
0.0
 10
134.2791188075137
 20
424.4088909205938
 30
0.0
 10
133.0069995915118
 20
421.2082079079713
 30
0.0
 10
131.4309194641447
 20
417.9096055995145
 30
0.0
 10
130.0022022336468
 20
415.0869575653811
 30
0.0
 10
128.5712866105841
 20
413.1233422734458
 30
0.0
 10
127.397934292771
 20
412.0304292727968
 30
0.0
 10
126.0486536339346
 20
411.5293230737593
 30
0.0
 10
124.5017699131223
 20
411.7133852131533
 30
0.0
 10
122.8457817533363
 20
412.7237554735716
 30
0.0
 10
121.0705249100148
 20
414.477179508242
 30
0.0
 10
119.8624073238982
 20
415.8601943135509
 30
0.0
 10
119.2008119716256
 20
416.6175677495733
 30
0.0
  0
SPLINE
  5
222
330
1F
100
AcDbEntity
  8
0
  6
Continuous
 62
     7
370
    25
100
AcDbSpline
210
0.0
220
0.0
230
1.0
 70
     8
 71
     3
 72
    20
 73
    16
 74
     0
 42
0.000000001
 43
0.00000001
 40
0.0
 40
0.0
 40
0.0
 40
0.0
 40
0.0743427697282265
 40
0.1602973963164288
 40
0.2047252456229826
 40
0.2270010954288125
 40
0.2491884291650221
 40
0.2937897703636752
 40
0.3386318565653424
 40
0.446552735051649
 40
0.5547610831854719
 40
0.6629917154944045
 40
0.7714456548896408
 40
0.8801674637367473
 40
0.9999999999999999
 40
0.9999999999999999
 40
0.9999999999999999
 40
0.9999999999999999
 10
119.2314438905003
 20
418.3719345244363
 30
0.0
 10
118.5258524245334
 20
417.6939387547453
 30
0.0
 10
117.0044606971194
 20
416.2320486880676
 30
0.0
 10
115.12984743444
 20
414.2757432380772
 30
0.0
 10
113.4502950848021
 20
413.1979694322765
 30
0.0
 10
112.3409408969078
 20
413.0578211363364
 30
0.0
 10
111.2879163354534
 20
413.4716796133222
 30
0.0
 10
110.3133618058275
 20
414.6139854569392
 30
0.0
 10
108.9449296829363
 20
416.8661791881118
 30
0.0
 10
107.4970330798716
 20
420.1299557328276
 30
0.0
 10
105.7754119363012
 20
424.2120651695133
 30
0.0
 10
104.7820415625602
 20
428.6899775290805
 30
0.0
 10
104.9674030997768
 20
433.3210042285031
 30
0.0
 10
105.8134302286073
 20
438.0205691227171
 30
0.0
 10
106.9555156578517
 20
440.9996728478337
 30
0.0
 10
107.5543185095306
 20
442.5616363930887
 30
0.0
  0
SPLINE
  5
223
330
1F
100
AcDbEntity
  8
0
  6
Continuous
 62
     7
370
    25
100
AcDbSpline
210
0.0
220
0.0
230
1.0
 70
     8
 71
     3
 72
    20
 73
    16
 74
     0
 42
0.000000001
 43
0.00000001
 40
0.0
 40
0.0
 40
0.0
 40
0.0
 40
0.0743427697282264
 40
0.1602973963164293
 40
0.204725245622982
 40
0.2270010954288128
 40
0.2491884291650231
 40
0.2937897703636758
 40
0.3386318565653414
 40
0.4465527350516508
 40
0.5547610831854722
 40
0.6629917154944048
 40
0.7714456548896415
 40
0.8801674637367476
 40
1.0
 40
1.0
 40
1.0
 40
1.0
 10
119.2314438905003
 20
418.3719345244363
 30
0.0
 10
119.9133592224771
 20
417.6939387547454
 30
0.0
 10
121.3837006238504
 20
416.2320486880676
 30
0.0
 10
123.1899981948552
 20
414.2757432380769
 30
0.0
 10
124.8319138538566
 20
413.1979694322761
 30
0.0
 10
125.9363739554137
 20
413.0578211363365
 30
0.0
 10
127.0038507733451
 20
413.471679613322
 30
0.0
 10
128.0182955020249
 20
414.613985456939
 30
0.0
 10
129.4653759630532
 20
416.8661791881116
 30
0.0
 10
131.0272461545086
 20
420.1299557328273
 30
0.0
 10
132.8914177007576
 20
424.2120651695132
 30
0.0
 10
134.0411602198112
 20
428.6899775290801
 30
0.0
 10
134.0175176984754
 20
433.3210042285031
 30
0.0
 10
133.3356029920274
 20
438.0205691227169
 30
0.0
 10
132.2975501572597
 20
440.9996728478335
 30
0.0
 10
131.7532922744992
 20
442.5616363930885
 30
0.0
  0
SPLINE
  5
224
330
1F
100
AcDbEntity
  8
0
  6
Continuous
 62
     7
370
    25
100
AcDbSpline
210
0.0
220
0.0
230
1.0
 70
     8
 71
     3
 72
    22
 73
    18
 74
     0
 42
0.000000001
 43
0.00000001
 40
0.0
 40
0.0
 40
0.0
 40
0.0
 40
0.0890358954785764
 40
0.1754791113781347
 40
0.2653580984645563
 40
0.3430941994045929
 40
0.4168361478360321
 40
0.4932913927089143
 40
0.5778050682752259
 40
0.6684543687523882
 40
0.7105572250136165
 40
0.7483208283606227
 40
0.782831386181837
 40
0.8169407455639681
 40
0.8664987865881406
 40
0.9268914025165945
 40
1.0
 40
1.0
 40
1.0
 40
1.0
 10
106.1151893137915
 20
442.5616363930886
 30
0.0
 10
105.6583834733613
 20
441.3356363934519
 30
0.0
 10
104.7580737441203
 20
438.9193368849283
 30
0.0
 10
103.9430228563897
 20
435.0576539534403
 30
0.0
 10
103.5192582641083
 20
431.2935160574364
 30
0.0
 10
103.6824836617054
 20
427.6942547965317
 30
0.0
 10
104.3945841362287
 20
424.408890920594
 30
0.0
 10
105.5549330385305
 20
421.2082079079714
 30
0.0
 10
107.015823435039
 20
417.9096055995146
 30
0.0
 10
108.3459716241807
 20
415.0869575653817
 30
0.0
 10
109.708316290263
 20
413.1233422734459
 30
0.0
 10
110.843503245106
 20
412.0304292727968
 30
0.0
 10
112.175284889875
 20
411.5293230737594
 30
0.0
 10
113.728596202229
 20
411.7133852131534
 30
0.0
 10
115.4198672689806
 20
412.7237554735714
 30
0.0
 10
117.256355028838
 20
414.4771795082422
 30
0.0
 10
118.5127685561746
 20
415.8601943135509
 30
0.0
 10
119.2008119716256
 20
416.6175677495733
 30
0.0
  0
SPLINE
  5
225
330
1F
100
AcDbEntity
  8
0
  6
Continuous
 62
     7
370
    25
100
AcDbSpline
210
0.0
220
0.0
230
1.0
 70
     8
 71
     3
 72
    16
 73
    12
 74
     0
 42
0.000000001
 43
0.00000001
 40
0.0
 40
0.0
 40
0.0
 40
0.0
 40
0.0937716891613392
 40
0.2201053937544383
 40
0.3286167050811708
 40
0.4373687368638792
 40
0.5463194643265938
 40
0.6555187800872913
 40
0.7650148184031946
 40
0.875925905275916
 40
1.0
 40
1.0
 40
1.0
 40
1.0
 10
124.5954281021029
 20
442.5107589230087
 30
0.0
 10
124.6514944818473
 20
441.6556108300434
 30
0.0
 10
124.7830961699515
 20
439.6483663258243
 30
0.0
 10
124.6701625675424
 20
436.6123312666923
 30
0.0
 10
124.303164078318
 20
433.5361921156409
 30
0.0
 10
123.7856987871983
 20
430.7201229308423
 30
0.0
 10
123.1589354376748
 20
427.9867003890521
 30
0.0
 10
122.3607525118089
 20
425.4264014380445
 30
0.0
 10
121.4719071643983
 20
422.9848523058419
 30
0.0
 10
120.5554489651628
 20
420.3741343145456
 30
0.0
 10
119.6889581280715
 20
419.0638011403332
 30
0.0
 10
119.2314438905003
 20
418.3719345244363
 30
0.0
  0
SPLINE
  5
226
330
1F
100
AcDbEntity
  8
0
  6
Continuous
 62
     7
370
    25
100
AcDbSpline
210
0.0
220
0.0
230
1.0
 70
     8
 71
     3
 72
    22
 73
    18
 74
     0
 42
0.000000001
 43
0.00000001
 40
0.0
 40
0.0
 40
0.0
 40
0.0
 40
0.0890358954785764
 40
0.1754791113781348
 40
0.2653580984645564
 40
0.3430941994045931
 40
0.4168361478360323
 40
0.4932913927089143
 40
0.5778050682752257
 40
0.6684543687523876
 40
0.7105572250136164
 40
0.7483208283606226
 40
0.7828313861818378
 40
0.8169407455639677
 40
0.8664987865881397
 40
0.9268914025165941
 40
1.0
 40
1.0
 40
1.0
 40
1.0
 10
187.5040333320646
 20
442.5616363930886
 30
0.0
 10
187.0900403550187
 20
441.3356363934519
 30
0.0
 10
186.2741096639381
 20
438.9193368849282
 30
0.0
 10
185.593911715708
 20
435.05765395344
 30
0.0
 10
185.3015937152283
 20
431.2935160574367
 30
0.0
 10
185.5905080856578
 20
427.6942547965315
 30
0.0
 10
186.4173359947893
 20
424.408890920594
 30
0.0
 10
187.689455210791
 20
421.2082079079714
 30
0.0
 10
189.2655353381581
 20
417.9096055995147
 30
0.0
 10
190.6942525686561
 20
415.0869575653812
 30
0.0
 10
192.1251681917186
 20
413.1233422734459
 30
0.0
 10
193.2985205095317
 20
412.0304292727968
 30
0.0
 10
194.6478011683682
 20
411.5293230737594
 30
0.0
 10
196.1946848891804
 20
411.7133852131534
 30
0.0
 10
197.8506730489667
 20
412.7237554735714
 30
0.0
 10
199.625929892288
 20
414.4771795082422
 30
0.0
 10
200.8340474784047
 20
415.8601943135509
 30
0.0
 10
201.4956428306772
 20
416.6175677495733
 30
0.0
  0
SPLINE
  5
227
330
1F
100
AcDbEntity
  8
0
  6
Continuous
 62
     7
370
    25
100
AcDbSpline
210
0.0
220
0.0
230
1.0
 70
     8
 71
     3
 72
    20
 73
    16
 74
     0
 42
0.000000001
 43
0.00000001
 40
0.0
 40
0.0
 40
0.0
 40
0.0
 40
0.0743427697282267
 40
0.1602973963164293
 40
0.2047252456229822
 40
0.227001095428813
 40
0.2491884291650221
 40
0.2937897703636754
 40
0.3386318565653422
 40
0.4465527350516493
 40
0.554761083185472
 40
0.6629917154944043
 40
0.7714456548896407
 40
0.8801674637367473
 40
1.0
 40
1.0
 40
1.0
 40
1.0
 10
201.4650109118028
 20
418.3719345244363
 30
0.0
 10
200.7830955798257
 20
417.6939387547454
 30
0.0
 10
199.3127541784525
 20
416.2320486880677
 30
0.0
 10
197.5064566074477
 20
414.2757432380772
 30
0.0
 10
195.8645409484462
 20
413.1979694322763
 30
0.0
 10
194.7600808468892
 20
413.0578211363363
 30
0.0
 10
193.6926040289577
 20
413.4716796133223
 30
0.0
 10
192.678159300278
 20
414.6139854569391
 30
0.0
 10
191.2310788392496
 20
416.8661791881117
 30
0.0
 10
189.6692086477942
 20
420.1299557328277
 30
0.0
 10
187.8050371015453
 20
424.212065169513
 30
0.0
 10
186.6552945824917
 20
428.6899775290807
 30
0.0
 10
186.6789371038276
 20
433.3210042285029
 30
0.0
 10
187.3608518102757
 20
438.0205691227171
 30
0.0
 10
188.3989046450433
 20
440.9996728478336
 30
0.0
 10
188.9431625278039
 20
442.5616363930886
 30
0.0
  0
SPLINE
  5
228
330
1F
100
AcDbEntity
  8
0
  6
Continuous
 62
     7
370
    25
100
AcDbSpline
210
0.0
220
0.0
230
1.0
 70
     8
 71
     3
 72
    20
 73
    16
 74
     0
 42
0.000000001
 43
0.00000001
 40
0.0
 40
0.0
 40
0.0
 40
0.0
 40
0.0743427697282263
 40
0.160297396316429
 40
0.2047252456229826
 40
0.2270010954288127
 40
0.2491884291650223
 40
0.2937897703636758
 40
0.3386318565653412
 40
0.4465527350516506
 40
0.5547610831854723
 40
0.6629917154944048
 40
0.7714456548896413
 40
0.8801674637367476
 40
1.0
 40
1.0
 40
1.0
 40
1.0
 10
201.4650109118028
 20
418.3719345244363
 30
0.0
 10
202.1706023777695
 20
417.6939387547453
 30
0.0
 10
203.6919941051834
 20
416.2320486880675
 30
0.0
 10
205.5666073678628
 20
414.2757432380773
 30
0.0
 10
207.2461597175009
 20
413.197969432276
 30
0.0
 10
208.3555139053951
 20
413.0578211363365
 30
0.0
 10
209.4085384668496
 20
413.471679613322
 30
0.0
 10
210.3830929964753
 20
414.6139854569387
 30
0.0
 10
211.7515251193666
 20
416.8661791881118
 30
0.0
 10
213.1994217224313
 20
420.1299557328273
 30
0.0
 10
214.9210428660018
 20
424.2120651695132
 30
0.0
 10
215.9144132397428
 20
428.6899775290802
 30
0.0
 10
215.7290517025264
 20
433.3210042285029
 30
0.0
 10
214.8830245736959
 20
438.0205691227168
 30
0.0
 10
213.7409391444513
 20
440.9996728478335
 30
0.0
 10
213.1421362927725
 20
442.5616363930885
 30
0.0
  0
SPLINE
  5
229
330
1F
100
AcDbEntity
  8
0
  6
Continuous
 62
     7
370
    25
100
AcDbSpline
210
0.0
220
0.0
230
1.0
 70
     8
 71
     3
 72
    22
 73
    18
 74
     0
 42
0.000000001
 43
0.00000001
 40
0.0
 40
0.0
 40
0.0
 40
0.0
 40
0.0890358954785762
 40
0.1754791113781367
 40
0.2653580984645557
 40
0.3430941994045951
 40
0.4168361478360321
 40
0.4932913927089121
 40
0.5778050682752264
 40
0.6684543687523892
 40
0.7105572250136156
 40
0.7483208283606222
 40
0.7828313861818377
 40
0.8169407455639677
 40
0.8664987865881411
 40
0.9268914025165932
 40
1.0
 40
1.0
 40
1.0
 40
1.0
 10
214.5812654885117
 20
442.5616363930885
 30
0.0
 10
215.0380713289419
 20
441.3356363934516
 30
0.0
 10
215.9383810581827
 20
438.9193368849279
 30
0.0
 10
216.7534319459135
 20
435.05765395344
 30
0.0
 10
217.1771965381947
 20
431.293516057436
 30
0.0
 10
217.0139711405977
 20
427.6942547965313
 30
0.0
 10
216.3018706660743
 20
424.4088909205941
 30
0.0
 10
215.1415217637723
 20
421.2082079079709
 30
0.0
 10
213.680631367264
 20
417.9096055995145
 30
0.0
 10
212.3504831781222
 20
415.0869575653812
 30
0.0
 10
210.9881385120398
 20
413.1233422734458
 30
0.0
 10
209.8529515571969
 20
412.0304292727968
 30
0.0
 10
208.5211699124278
 20
411.5293230737592
 30
0.0
 10
206.9678586000737
 20
411.7133852131534
 30
0.0
 10
205.2765875333222
 20
412.7237554735714
 30
0.0
 10
203.4400997734648
 20
414.4771795082421
 30
0.0
 10
202.1836862461282
 20
415.8601943135509
 30
0.0
 10
201.4956428306772
 20
416.6175677495734
 30
0.0
  0
SPLINE
  5
22A
330
1F
100
AcDbEntity
  8
0
  6
Continuous
 62
     7
370
    25
100
AcDbSpline
210
0.0
220
0.0
230
1.0
 70
     8
 71
     3
 72
    16
 73
    12
 74
     0
 42
0.000000001
 43
0.00000001
 40
0.0
 40
0.0
 40
0.0
 40
0.0
 40
0.0937716891613394
 40
0.220105393754439
 40
0.3286167050811709
 40
0.4373687368638805
 40
0.5463194643265951
 40
0.6555187800872923
 40
0.7650148184031977
 40
0.8759259052759188
 40
0.9999999999999999
 40
0.9999999999999999
 40
0.9999999999999999
 40
0.9999999999999999
 10
196.1010267002004
 20
442.5107589230088
 30
0.0
 10
196.044960320456
 20
441.6556108300434
 30
0.0
 10
195.9133586323517
 20
439.6483663258243
 30
0.0
 10
196.0262922347606
 20
436.6123312666921
 30
0.0
 10
196.3932907239852
 20
433.5361921156408
 30
0.0
 10
196.9107560151049
 20
430.7201229308423
 30
0.0
 10
197.5375193646281
 20
427.9867003890522
 30
0.0
 10
198.3357022904942
 20
425.4264014380445
 30
0.0
 10
199.2245476379046
 20
422.9848523058421
 30
0.0
 10
200.1410058371401
 20
420.3741343145451
 30
0.0
 10
201.0074966742314
 20
419.063801140333
 30
0.0
 10
201.4650109118028
 20
418.3719345244363
 30
0.0
  0
SPLINE
  5
22B
330
1F
100
AcDbEntity
  8
0
  6
Continuous
 62
     7
370
    25
100
AcDbSpline
210
0.0
220
0.0
230
1.0
 70
     8
 71
     3
 72
    22
 73
    18
 74
     0
 42
0.000000001
 43
0.00000001
 40
0.0
 40
0.0
 40
0.0
 40
0.0
 40
0.0890358954785762
 40
0.1754791113781347
 40
0.2653580984645562
 40
0.3430941994045927
 40
0.4168361478360323
 40
0.4932913927089145
 40
0.5778050682752257
 40
0.668454368752387
 40
0.710557225013616
 40
0.7483208283606221
 40
0.7828313861818372
 40
0.8169407455639676
 40
0.8664987865881392
 40
0.9268914025165944
 40
1.0
 40
1.0
 40
1.0
 40
1.0
 10
223.01651018056
 20
442.5616363930886
 30
0.0
 10
222.8022092420196
 20
441.3356363934519
 30
0.0
 10
222.3798476982798
 20
438.919336884928
 30
0.0
 10
222.0649926106888
 20
435.0576539534403
 30
0.0
 10
221.9721134595833
 20
431.2935160574362
 30
0.0
 10
222.2114848114227
 20
427.6942547965316
 30
0.0
 10
222.7550920425878
 20
424.4088909205941
 30
0.0
 10
223.5540810350898
 20
421.2082079079713
 30
0.0
 10
224.5305361430086
 20
417.9096055995147
 30
0.0
 10
225.4123152831933
 20
415.0869575653812
 30
0.0
 10
226.2780442638272
 20
413.1233422734459
 30
0.0
 10
226.9775143229555
 20
412.0304292727968
 30
0.0
 10
227.7666249350294
 20
411.5293230737594
 30
0.0
 10
228.6560076959385
 20
411.7133852131536
 30
0.0
 10
229.5917223099315
 20
412.7237554735715
 30
0.0
 10
230.581315640159
 20
414.4771795082422
 30
0.0
 10
231.2509389790521
 20
415.8601943135509
 30
0.0
 10
231.6176414373856
 20
416.6175677495733
 30
0.0
  0
SPLINE
  5
22C
330
1F
100
AcDbEntity
  8
0
  6
Continuous
 62
     7
370
    25
100
AcDbSpline
210
0.0
220
0.0
230
1.0
 70
     8
 71
     3
 72
    20
 73
    16
 74
     0
 42
0.000000001
 43
0.00000001
 40
0.0
 40
0.0
 40
0.0
 40
0.0
 40
0.0743427697282264
 40
0.1602973963164286
 40
0.2047252456229824
 40
0.2270010954288128
 40
0.2491884291650222
 40
0.2937897703636739
 40
0.338631856565342
 40
0.4465527350516482
 40
0.5547610831854712
 40
0.6629917154944037
 40
0.7714456548896402
 40
0.8801674637367466
 40
1.0
 40
1.0
 40
1.0
 40
1.0
 10
231.5645853975617
 20
418.3719345244363
 30
0.0
 10
231.1845508194127
 20
417.6939387547454
 30
0.0
 10
230.3651227350109
 20
416.2320486880676
 30
0.0
 10
229.361698429133
 20
414.2757432380773
 30
0.0
 10
228.4354675348923
 20
413.1979694322761
 30
0.0
 10
227.8006328000134
 20
413.0578211363365
 30
0.0
 10
227.1759807576594
 20
413.4716796133223
 30
0.0
 10
226.5672602033163
 20
414.6139854569392
 30
0.0
 10
225.6863802704079
 20
416.8661791881118
 30
0.0
 10
224.7188314129939
 20
420.1299557328275
 30
0.0
 10
223.5602499555921
 20
424.2120651695134
 30
0.0
 10
222.8061643025276
 20
428.6899775290804
 30
0.0
 10
222.7264458012335
 20
433.3210042285034
 30
0.0
 10
223.0253990893258
 20
438.0205691227169
 30
0.0
 10
223.5646559264864
 20
440.9996728478336
 30
0.0
 10
223.8473918091187
 20
442.5616363930886
 30
0.0
  0
SPLINE
  5
22D
330
1F
100
AcDbEntity
  8
0
  6
Continuous
 62
     7
370
    25
100
AcDbSpline
210
0.0
220
0.0
230
1.0
 70
     8
 71
     3
 72
    20
 73
    16
 74
     0
 42
0.000000001
 43
0.00000001
 40
0.0
 40
0.0
 40
0.0
 40
0.0
 40
0.0743427697282259
 40
0.1602973963164301
 40
0.2047252456229819
 40
0.2270010954288128
 40
0.2491884291650226
 40
0.2937897703636765
 40
0.3386318565653422
 40
0.4465527350516517
 40
0.5547610831854727
 40
0.6629917154944054
 40
0.7714456548896418
 40
0.8801674637367477
 40
1.0
 40
1.0
 40
1.0
 40
1.0
 10
231.5645853975617
 20
418.3719345244363
 30
0.0
 10
231.985628242708
 20
417.6939387547453
 30
0.0
 10
232.8934780855551
 20
416.2320486880676
 30
0.0
 10
234.0152286403675
 20
414.2757432380772
 30
0.0
 10
235.0066481950197
 20
413.197969432276
 30
0.0
 10
235.6499597360912
 20
413.0578211363364
 30
0.0
 10
236.2495797359428
 20
413.4716796133222
 30
0.0
 10
236.7892084388003
 20
414.6139854569387
 30
0.0
 10
237.5338654541247
 20
416.8661791881118
 30
0.0
 10
238.304006265725
 20
420.1299557328273
 30
0.0
 10
239.2156831830484
 20
424.2120651695133
 30
0.0
 10
239.6989243355428
 20
428.6899775290802
 30
0.0
 10
239.4985372847815
 20
433.3210042285028
 30
0.0
 10
238.9153329429698
 20
438.0205691227169
 30
0.0
 10
238.1958863665324
 20
440.9996728478335
 30
0.0
 10
237.818675826436
 20
442.5616363930885
 30
0.0
  0
SPLINE
  5
22E
330
1F
100
AcDbEntity
  8
0
  6
Continuous
 62
     7
370
    25
100
AcDbSpline
210
0.0
220
0.0
230
1.0
 70
     8
 71
     3
 72
    22
 73
    18
 74
     0
 42
0.000000001
 43
0.00000001
 40
0.0
 40
0.0
 40
0.0
 40
0.0
 40
0.0890358954785762
 40
0.1754791113781368
 40
0.2653580984645559
 40
0.3430941994045953
 40
0.4168361478360323
 40
0.4932913927089129
 40
0.5778050682752264
 40
0.6684543687523895
 40
0.7105572250136154
 40
0.7483208283606237
 40
0.7828313861818381
 40
0.816940745563969
 40
0.866498786588141
 40
0.9268914025165936
 40
1.0
 40
1.0
 40
1.0
 40
1.0
 10
238.6495574549947
 20
442.5616363930885
 30
0.0
 10
238.938012448134
 20
441.3356363934516
 30
0.0
 10
239.5065227730611
 20
438.9193368849279
 30
0.0
 10
240.0549500034174
 20
435.0576539534396
 30
0.0
 10
240.3755013300046
 20
431.293516057436
 30
0.0
 10
240.3538296650626
 20
427.6942547965313
 30
0.0
 10
240.0089361796607
 20
424.4088909205938
 30
0.0
 10
239.4035390492651
 20
421.208207907971
 30
0.0
 10
238.6265984077033
 20
417.9096055995145
 30
0.0
 10
237.9155458552011
 20
415.0869575653812
 30
0.0
 10
237.1685852559805
 20
413.1233422734457
 30
0.0
 10
236.535219544606
 20
412.0304292727968
 30
0.0
 10
235.776418113979
 20
411.5293230737592
 30
0.0
 10
234.8759024379492
 20
411.7133852131533
 30
0.0
 10
233.8790760364533
 20
412.7237554735716
 30
0.0
 10
232.7834276477913
 20
414.477179508242
 30
0.0
 10
232.0301532849062
 20
415.8601943135508
 30
0.0
 10
231.6176414373856
 20
416.6175677495733
 30
0.0
  0
SPLINE
  5
22F
330
1F
100
AcDbEntity
  8
0
  6
Continuous
 62
     7
370
    25
100
AcDbSpline
210
0.0
220
0.0
230
1.0
 70
     8
 71
     3
 72
    14
 73
    10
 74
     0
 42
0.000000001
 43
0.00000001
 40
0.0
 40
0.0
 40
0.0
 40
0.0
 40
0.0047997594983717
 40
0.1660043188079355
 40
0.3275034073231326
 40
0.4893709815242419
 40
0.651678391450397
 40
0.8160833463627395
 40
1.0
 40
1.0
 40
1.0
 40
1.0
 10
222.8107578611343
 20
433.6425769041091
 30
0.0
 10
222.8165658558739
 20
433.6136045503126
 30
0.0
 10
223.0174409644538
 20
432.6115677070291
 30
0.0
 10
223.7000032916654
 20
430.7273324369745
 30
0.0
 10
224.7556219374536
 20
427.9847625257391
 30
0.0
 10
226.1461699841839
 20
425.4269222196946
 30
0.0
 10
227.6835288170793
 20
422.9847117840653
 30
0.0
 10
229.2714731841
 20
420.3741745596511
 30
0.0
 10
230.7721930524835
 20
419.0638150471599
 30
0.0
 10
231.5645853975617
 20
418.3719345244363
 30
0.0
  0
SPLINE
  5
230
330
1F
100
AcDbEntity
  8
0
  6
Continuous
 62
     7
370
    25
100
AcDbSpline
210
0.0
220
0.0
230
1.0
 70
    24
 71
     3
 72
    19
 73
    15
 74
     0
 42
0.000000001
 43
0.00000001
 40
0.0
 40
0.0
 40
0.0
 40
0.0
 40
0.1120824379165596
 40
0.2209010927668527
 40
0.334044852774759
 40
0.4319025949882184
 40
0.5247323162201644
 40
0.6209776585149704
 40
0.7273673201659903
 40
0.8414807857328722
 40
0.894481777609731
 40
0.942020320406382
 40
0.9854637814247849
 40
1.0
 40
1.0
 40
1.0
 40
1.0
 10
241.7370712115744
 20
442.5616363930886
 30
0.0
 10
241.7798840821285
 20
441.33563618813
 30
0.0
 10
241.8642631344198
 20
438.9193362749414
 30
0.0
 10
241.999115968942
 20
435.0576563496512
 30
0.0
 10
242.1305629537211
 20
431.2935072002377
 30
0.0
 10
242.2562506568751
 20
427.6942822981732
 30
0.0
 10
242.370982499719
 20
424.4087921868788
 30
0.0
 10
242.4827353409892
 20
421.2086095191812
 30
0.0
 10
242.5979993602135
 20
417.9078798702661
 30
0.0
 10
242.696321102664
 20
415.0923135502351
 30
0.0
 10
242.7653654199928
 20
413.1151429914614
 30
0.0
 10
242.8023107218378
 20
412.0571679702177
 30
0.0
 10
242.8193183551799
 20
411.5701330740879
 30
0.0
 10
242.8162540892937
 20
411.6578821681301
 30
0.0
 10
242.8154858401588
 20
411.6798819449436
 30
0.0
  0
SPLINE
  5
231
330
1F
100
AcDbEntity
  8
0
  6
Continuous
 62
     7
370
    25
100
AcDbSpline
210
0.0
220
0.0
230
1.0
 70
     8
 71
     3
 72
    20
 73
    16
 74
     0
 42
0.000000001
 43
0.00000001
 40
0.0
 40
0.0
 40
0.0
 40
0.0
 40
0.0743427697282267
 40
0.1602973963164286
 40
0.204725245622982
 40
0.2270010954288124
 40
0.2491884291650224
 40
0.293789770363675
 40
0.3386318565653424
 40
0.4465527350516491
 40
0.554761083185472
 40
0.6629917154944042
 40
0.7714456548896406
 40
0.880167463736747
 40
1.0
 40
1.0
 40
1.0
 40
1.0
 10
160.3482274333059
 20
418.3719345244363
 30
0.0
 10
159.5471500100106
 20
417.6939387547454
 30
0.0
 10
157.8198720827618
 20
416.2320486880677
 30
0.0
 10
155.6946972220712
 20
414.275743238077
 30
0.0
 10
153.7770467731784
 20
413.1979694322764
 30
0.0
 10
152.4989004972279
 20
413.0578211363363
 30
0.0
 10
151.2746284550225
 20
413.4716796133224
 30
0.0
 10
150.1262791978219
 20
414.613985456939
 30
0.0
 10
148.5007422495891
 20
416.8661791881119
 30
0.0
 10
146.7630525805748
 20
420.1299557328275
 30
0.0
 10
144.6927942058495
 20
424.2120651695136
 30
0.0
 10
143.4554674002909
 20
428.6899775290804
 30
0.0
 10
143.5761359497578
 20
433.3210042285034
 30
0.0
 10
144.458293579662
 20
438.0205691227169
 30
0.0
 10
145.7169969932601
 20
440.9996728478337
 30
0.0
 10
146.3769434159888
 20
442.5616363930887
 30
0.0
  0
SPLINE
  5
232
330
1F
100
AcDbEntity
  8
0
  6
Continuous
 62
     7
370
    25
100
AcDbSpline
210
0.0
220
0.0
230
1.0
 70
     8
 71
     3
 72
    20
 73
    16
 74
     0
 42
0.000000001
 43
0.00000001
 40
0.0
 40
0.0
 40
0.0
 40
0.0
 40
0.0743427697282263
 40
0.1602973963164293
 40
0.2047252456229824
 40
0.2270010954288129
 40
0.249188429165023
 40
0.2937897703636759
 40
0.3386318565653416
 40
0.4465527350516512
 40
0.5547610831854725
 40
0.6629917154944049
 40
0.7714456548896415
 40
0.8801674637367477
 40
1.0
 40
1.0
 40
1.0
 40
1.0
 10
160.3482274333059
 20
418.3719345244363
 30
0.0
 10
161.1493048566011
 20
417.6939387547454
 30
0.0
 10
162.8765827838499
 20
416.2320486880677
 30
0.0
 10
165.0017576445405
 20
414.2757432380771
 30
0.0
 10
166.9194080934332
 20
413.1979694322762
 30
0.0
 10
168.1975543693837
 20
413.0578211363363
 30
0.0
 10
169.4218264115892
 20
413.4716796133224
 30
0.0
 10
170.5701756687898
 20
414.6139854569387
 30
0.0
 10
172.1957126170228
 20
416.8661791881119
 30
0.0
 10
173.9334022860368
 20
420.1299557328272
 30
0.0
 10
176.0036606607623
 20
424.2120651695133
 30
0.0
 10
177.2409874663211
 20
428.6899775290804
 30
0.0
 10
177.1203189168542
 20
433.3210042285029
 30
0.0
 10
176.23816128695
 20
438.0205691227168
 30
0.0
 10
174.979457873352
 20
440.9996728478334
 30
0.0
 10
174.3195114506234
 20
442.5616363930885
 30
0.0
  0
SPLINE
  5
233
330
1F
100
AcDbEntity
  8
0
  6
Continuous
 62
     7
370
    25
100
AcDbSpline
210
0.0
220
0.0
230
1.0
 70
     8
 71
     3
 72
    22
 73
    18
 74
     0
 42
0.000000001
 43
0.00000001
 40
0.0
 40
0.0
 40
0.0
 40
0.0
 40
0.0890358954785762
 40
0.1754791113781366
 40
0.2653580984645556
 40
0.3430941994045949
 40
0.4168361478360318
 40
0.4932913927089123
 40
0.5778050682752263
 40
0.6684543687523888
 40
0.7105572250136155
 40
0.7483208283606226
 40
0.7828313861818372
 40
0.8169407455639677
 40
0.8664987865881406
 40
0.9268914025165933
 40
1.0
 40
1.0
 40
1.0
 40
1.0
 10
175.9812747077407
 20
442.5616363930885
 30
0.0
 10
176.4840306394207
 20
441.3356363934518
 30
0.0
 10
177.4749025080874
 20
438.9193368849282
 30
0.0
 10
178.3381848260346
 20
435.0576539534396
 30
0.0
 10
178.7516153037272
 20
431.293516057436
 30
0.0
 10
178.4905722869457
 20
427.6942547965313
 30
0.0
 10
177.6020715703789
 20
424.4088909205939
 30
0.0
 10
176.1976854474811
 20
421.208207907971
 30
0.0
 10
174.4442896980007
 20
417.9096055995147
 30
0.0
 10
172.8514580053137
 20
415.0869575653812
 30
0.0
 10
171.2387684254593
 20
413.1233422734458
 30
0.0
 10
169.9059326549565
 20
412.0304292727968
 30
0.0
 10
168.3580206122556
 20
411.5293230737592
 30
0.0
 10
166.5681221753167
 20
411.7133852131534
 30
0.0
 10
164.6355811598277
 20
412.7237554735713
 30
0.0
 10
162.5503394409382
 20
414.4771795082423
 30
0.0
 10
161.1274417391598
 20
415.8601943135509
 30
0.0
 10
160.3482274333059
 20
416.6175677495733
 30
0.0
  0
SPLINE
  5
234
330
1F
100
AcDbEntity
  8
0
  6
Continuous
 62
     7
370
    25
100
AcDbSpline
210
0.0
220
0.0
230
1.0
 70
     8
 71
     3
 72
    22
 73
    18
 74
     0
 42
0.000000001
 43
0.00000001
 40
0.0
 40
0.0
 40
0.0
 40
0.0
 40
0.0890358954785765
 40
0.1754791113781348
 40
0.2653580984645563
 40
0.343094199404593
 40
0.4168361478360321
 40
0.4932913927089143
 40
0.5778050682752256
 40
0.6684543687523876
 40
0.7105572250136158
 40
0.7483208283606226
 40
0.7828313861818372
 40
0.8169407455639678
 40
0.86649878658814
 40
0.9268914025165946
 40
1.0
 40
1.0
 40
1.0
 40
1.0
 10
144.7151801588714
 20
442.5616363930886
 30
0.0
 10
144.2124242271915
 20
441.3356363934519
 30
0.0
 10
143.2215523585247
 20
438.9193368849283
 30
0.0
 10
142.3582700405773
 20
435.0576539534401
 30
0.0
 10
141.9448395628847
 20
431.2935160574362
 30
0.0
 10
142.2058825796662
 20
427.6942547965317
 30
0.0
 10
143.0943832962328
 20
424.408890920594
 30
0.0
 10
144.4987694191307
 20
421.2082079079713
 30
0.0
 10
146.2521651686111
 20
417.9096055995149
 30
0.0
 10
147.8449968612981
 20
415.0869575653812
 30
0.0
 10
149.4576864411525
 20
413.1233422734459
 30
0.0
 10
150.7905222116553
 20
412.0304292727968
 30
0.0
 10
152.3384342543561
 20
411.5293230737594
 30
0.0
 10
154.128332691295
 20
411.7133852131536
 30
0.0
 10
156.0608737067842
 20
412.7237554735714
 30
0.0
 10
158.1461154256734
 20
414.4771795082422
 30
0.0
 10
159.569013127452
 20
415.8601943135509
 30
0.0
 10
160.3482274333059
 20
416.6175677495734
 30
0.0
  0
SPLINE
  5
235
330
1F
100
AcDbEntity
  8
0
  6
Continuous
 62
     7
370
    25
100
AcDbSpline
210
0.0
220
0.0
230
1.0
 70
    24
 71
     3
 72
    16
 73
    12
 74
     0
 42
0.000000001
 43
0.00000001
 40
0.0
 40
0.0
 40
0.0
 40
0.0
 40
0.0937716891613397
 40
0.2201053937544394
 40
0.3286167050811711
 40
0.4373687368638809
 40
0.546319464326595
 40
0.6555187800872913
 40
0.7650148184031986
 40
0.8759259052759204
 40
1.0
 40
1.0
 40
1.0
 40
1.0
 10
160.3482274333061
 20
442.5107589230087
 30
0.0
 10
160.3482274333061
 20
441.6556108300434
 30
0.0
 10
160.3482274333061
 20
439.6483663258242
 30
0.0
 10
160.348227433306
 20
436.6123312666924
 30
0.0
 10
160.348227433306
 20
433.5361921156409
 30
0.0
 10
160.348227433306
 20
430.7201229308421
 30
0.0
 10
160.348227433306
 20
427.9867003890524
 30
0.0
 10
160.348227433306
 20
425.4264014380445
 30
0.0
 10
160.3482274333059
 20
422.9848523058421
 30
0.0
 10
160.3482274333059
 20
420.3741343145451
 30
0.0
 10
160.3482274333059
 20
419.0638011403331
 30
0.0
 10
160.3482274333059
 20
418.3719345244364
 30
0.0
  0
SPLINE
  5
236
330
1F
100
AcDbEntity
  8
0
  6
Continuous
 62
     7
370
    25
100
AcDbSpline
210
0.0
220
0.0
230
1.0
 70
    24
 71
     3
 72
    19
 73
    15
 74
     0
 42
0.000000001
 43
0.00000001
 40
0.0
 40
0.0
 40
0.0
 40
0.0
 40
0.1120824379165605
 40
0.2209010927668557
 40
0.3340448527747609
 40
0.4319025949882234
 40
0.5247323162201689
 40
0.6209776585149756
 40
0.727367320165998
 40
0.8414807857328809
 40
0.8944817776097399
 40
0.942020320406391
 40
0.985463781424794
 40
1.0
 40
1.0
 40
1.0
 40
1.0
 10
78.95938317501066
 20
372.561636393108
 30
0.0
 10
78.91657030445651
 20
371.3356361881492
 30
0.0
 10
78.8321912521651
 20
368.9193362749606
 30
0.0
 10
78.6973384176431
 20
365.05765634967
 30
0.0
 10
78.56589143286385
 20
361.293507200257
 30
0.0
 10
78.44020372970988
 20
357.6942822981923
 30
0.0
 10
78.32547188686601
 20
354.4087921868978
 30
0.0
 10
78.21371904559578
 20
351.2086095192006
 30
0.0
 10
78.09845502637143
 20
347.9078798702852
 30
0.0
 10
78.00013328392095
 20
345.0923135502546
 30
0.0
 10
77.93108896659214
 20
343.1151429914808
 30
0.0
 10
77.89414366474716
 20
342.0571679702376
 30
0.0
 10
77.87713603140514
 20
341.5701330741077
 30
0.0
 10
77.88020029729114
 20
341.6578821681502
 30
0.0
 10
77.88096854642606
 20
341.6798819449634
 30
0.0
  0
SPLINE
  5
237
330
1F
100
AcDbEntity
  8
0
  6
Continuous
 62
     7
370
    25
100
AcDbSpline
210
0.0
220
0.0
230
1.0
 70
     8
 71
     3
 72
    22
 73
    18
 74
     0
 42
0.000000001
 43
0.00000001
 40
0.0
 40
0.0
 40
0.0
 40
0.0
 40
0.0890358954785773
 40
0.1754791113781365
 40
0.265358098464556
 40
0.3430941994045945
 40
0.4168361478360339
 40
0.493291392708915
 40
0.5778050682752278
 40
0.6684543687523892
 40
0.7105572250136167
 40
0.7483208283606227
 40
0.7828313861818379
 40
0.8169407455639686
 40
0.8664987865881401
 40
0.9268914025165947
 40
1.0
 40
1.0
 40
1.0
 40
1.0
 10
97.67994444605222
 20
372.561636393108
 30
0.0
 10
97.89424538459252
 20
371.3356363934712
 30
0.0
 10
98.31660692833225
 20
368.9193368849475
 30
0.0
 10
98.63146201592315
 20
365.0576539534593
 30
0.0
 10
98.72434116702846
 20
361.2935160574552
 30
0.0
 10
98.48496981518883
 20
357.6942547965506
 30
0.0
 10
97.94136258402375
 20
354.4088909206133
 30
0.0
 10
97.1423735915215
 20
351.2082079079905
 30
0.0
 10
96.1659184836027
 20
347.9096055995341
 30
0.0
 10
95.28413934341768
 20
345.086957565401
 30
0.0
 10
94.4184103627839
 20
343.1233422734655
 30
0.0
 10
93.71894030365547
 20
342.0304292728168
 30
0.0
 10
92.92982969158152
 20
341.5293230737792
 30
0.0
 10
92.04044693067249
 20
341.7133852131735
 30
0.0
 10
91.10473231667936
 20
342.7237554735916
 30
0.0
 10
90.11513898645194
 20
344.4771795082625
 30
0.0
 10
89.44551564755886
 20
345.8601943135712
 30
0.0
 10
89.07881318922534
 20
346.6175677495938
 30
0.0
  0
SPLINE
  5
238
330
1F
100
AcDbEntity
  8
0
  6
Continuous
 62
     7
370
    25
100
AcDbSpline
210
0.0
220
0.0
230
1.0
 70
     8
 71
     3
 72
    20
 73
    16
 74
     0
 42
0.000000001
 43
0.00000001
 40
0.0
 40
0.0
 40
0.0
 40
0.0
 40
0.074342769728226
 40
0.160297396316429
 40
0.2047252456229827
 40
0.2270010954288135
 40
0.2491884291650233
 40
0.2937897703636758
 40
0.3386318565653419
 40
0.4465527350516508
 40
0.5547610831854717
 40
0.6629917154944048
 40
0.7714456548896415
 40
0.8801674637367479
 40
1.0
 40
1.0
 40
1.0
 40
1.0
 10
89.13186922904936
 20
348.3719345244568
 30
0.0
 10
88.71082638390317
 20
347.693938754766
 30
0.0
 10
87.80297654105595
 20
346.2320486880883
 30
0.0
 10
86.68122598624325
 20
344.275743238098
 30
0.0
 10
85.68980643159114
 20
343.197969432297
 30
0.0
 10
85.04649489051963
 20
343.0578211363575
 30
0.0
 10
84.44687489066803
 20
343.4716796133433
 30
0.0
 10
83.90724618781053
 20
344.6139854569602
 30
0.0
 10
83.16258917248626
 20
346.8661791881332
 30
0.0
 10
82.39244836088608
 20
350.1299557328488
 30
0.0
 10
81.48077144356284
 20
354.212065169535
 30
0.0
 10
80.99753029106864
 20
358.6899775291018
 30
0.0
 10
81.19791734183002
 20
363.3210042285249
 30
0.0
 10
81.78112168364203
 20
368.0205691227386
 30
0.0
 10
82.50056826007972
 20
370.999672847855
 30
0.0
 10
82.87777880017597
 20
372.5616363931101
 30
0.0
  0
SPLINE
  5
239
330
1F
100
AcDbEntity
  8
0
  6
Continuous
 62
     7
370
    25
100
AcDbSpline
210
0.0
220
0.0
230
1.0
 70
     8
 71
     3
 72
    20
 73
    16
 74
     0
 42
0.000000001
 43
0.00000001
 40
0.0
 40
0.0
 40
0.0
 40
0.0
 40
0.0743427697282265
 40
0.1602973963164276
 40
0.2047252456229835
 40
0.227001095428814
 40
0.2491884291650228
 40
0.2937897703636764
 40
0.3386318565653422
 40
0.4465527350516514
 40
0.5547610831854726
 40
0.6629917154944053
 40
0.7714456548896416
 40
0.8801674637367474
 40
1.0
 40
1.0
 40
1.0
 40
1.0
 10
89.13186922904936
 20
348.3719345244568
 30
0.0
 10
89.51190380719845
 20
347.6939387547657
 30
0.0
 10
90.33133189160003
 20
346.2320486880878
 30
0.0
 10
91.3347561974781
 20
344.2757432380972
 30
0.0
 10
92.26098709171856
 20
343.1979694322962
 30
0.0
 10
92.89582182659763
 20
343.0578211363563
 30
0.0
 10
93.52047386895151
 20
343.4716796133418
 30
0.0
 10
94.12919442329462
 20
344.6139854569589
 30
0.0
 10
95.01007435620329
 20
346.8661791881314
 30
0.0
 10
95.97762321361711
 20
350.129955732847
 30
0.0
 10
97.13620467101941
 20
354.2120651695328
 30
0.0
 10
97.89029032408405
 20
358.6899775290996
 30
0.0
 10
97.97000882537839
 20
363.3210042285223
 30
0.0
 10
97.67105553728618
 20
368.0205691227364
 30
0.0
 10
97.13179870012573
 20
370.999672847853
 30
0.0
 10
96.84906281749352
 20
372.5616363931082
 30
0.0
  0
SPLINE
  5
23A
330
1F
100
AcDbEntity
  8
0
  6
Continuous
 62
     7
370
    25
100
AcDbSpline
210
0.0
220
0.0
230
1.0
 70
     8
 71
     3
 72
    22
 73
    18
 74
     0
 42
0.000000001
 43
0.00000001
 40
0.0
 40
0.0
 40
0.0
 40
0.0
 40
0.0890358954785767
 40
0.1754791113781363
 40
0.2653580984645559
 40
0.3430941994045946
 40
0.416836147836033
 40
0.4932913927089138
 40
0.5778050682752267
 40
0.6684543687523877
 40
0.7105572250136162
 40
0.7483208283606233
 40
0.7828313861818362
 40
0.8169407455639669
 40
0.8664987865881397
 40
0.9268914025165933
 40
1.0
 40
1.0
 40
1.0
 40
1.0
 10
82.04689717161727
 20
372.5616363931101
 30
0.0
 10
81.75844217847782
 20
371.3356363934735
 30
0.0
 10
81.18993185355066
 20
368.9193368849499
 30
0.0
 10
80.64150462319435
 20
365.0576539534618
 30
0.0
 10
80.32095329660694
 20
361.2935160574581
 30
0.0
 10
80.34262496154884
 20
357.6942547965531
 30
0.0
 10
80.68751844695043
 20
354.4088909206156
 30
0.0
 10
81.2929155773462
 20
351.2082079079928
 30
0.0
 10
82.0698562189076
 20
347.909605599536
 30
0.0
 10
82.78090877140971
 20
345.0869575654028
 30
0.0
 10
83.52786937063036
 20
343.123342273467
 30
0.0
 10
84.16123508200485
 20
342.0304292728181
 30
0.0
 10
84.92003651263167
 20
341.5293230737802
 30
0.0
 10
85.82055218866162
 20
341.7133852131744
 30
0.0
 10
86.81737859015755
 20
342.7237554735923
 30
0.0
 10
87.91302697881952
 20
344.4771795082629
 30
0.0
 10
88.66630134170487
 20
345.8601943135714
 30
0.0
 10
89.07881318922534
 20
346.6175677495938
 30
0.0
  0
SPLINE
  5
23B
330
1F
100
AcDbEntity
  8
0
  6
Continuous
 62
     7
370
    25
100
AcDbSpline
210
0.0
220
0.0
230
1.0
 70
     8
 71
     3
 72
    14
 73
    10
 74
     0
 42
0.000000001
 43
0.00000001
 40
0.0
 40
0.0
 40
0.0
 40
0.0
 40
0.0047997594983786
 40
0.1660043188079431
 40
0.3275034073231346
 40
0.4893709815242446
 40
0.6516783914504038
 40
0.8160833463627443
 40
1.0
 40
1.0
 40
1.0
 40
1.0
 10
97.8856967654774
 20
363.6425769041298
 30
0.0
 10
97.8798887707377
 20
363.6136045503332
 30
0.0
 10
97.67901366215756
 20
362.6115677070497
 30
0.0
 10
96.9964513349463
 20
360.7273324369946
 30
0.0
 10
95.9408326891579
 20
357.9847625257597
 30
0.0
 10
94.55028464242753
 20
355.4269222197149
 30
0.0
 10
93.01292580953202
 20
352.9847117840859
 30
0.0
 10
91.42498144251124
 20
350.3741745596717
 30
0.0
 10
89.92426157412763
 20
349.0638150471802
 30
0.0
 10
89.13186922904936
 20
348.3719345244568
 30
0.0
  0
SPLINE
  5
23C
330
1F
100
AcDbEntity
  8
0
  6
Continuous
 62
     7
370
    25
100
AcDbSpline
210
0.0
220
0.0
230
1.0
 70
    24
 71
     3
 72
    19
 73
    15
 74
     0
 42
0.000000001
 43
0.00000001
 40
0.0
 40
0.0
 40
0.0
 40
0.0
 40
0.1120824379165606
 40
0.2209010927668558
 40
0.3340448527747627
 40
0.4319025949882237
 40
0.5247323162201694
 40
0.620977658514976
 40
0.7273673201659987
 40
0.8414807857328827
 40
0.8944817776097395
 40
0.9420203204063916
 40
0.9854637814247942
 40
1.0
 40
1.0
 40
1.0
 40
1.0
 10
78.95938317502316
 20
442.5616363931078
 30
0.0
 10
78.9165703044689
 20
441.3356361881491
 30
0.0
 10
78.8321912521775
 20
438.9193362749602
 30
0.0
 10
78.69733841765549
 20
435.0576563496704
 30
0.0
 10
78.56589143287636
 20
431.2935072002567
 30
0.0
 10
78.44020372972238
 20
427.6942822981921
 30
0.0
 10
78.3254718868784
 20
424.4087921868979
 30
0.0
 10
78.21371904560829
 20
421.2086095192005
 30
0.0
 10
78.09845502638393
 20
417.9078798702852
 30
0.0
 10
78.00013328393334
 20
415.0923135502544
 30
0.0
 10
77.93108896660453
 20
413.115142991481
 30
0.0
 10
77.89414366475967
 20
412.0571679702374
 30
0.0
 10
77.87713603141742
 20
411.5701330741078
 30
0.0
 10
77.88020029730353
 20
411.6578821681501
 30
0.0
 10
77.88096854643857
 20
411.6798819449635
 30
0.0
  0
SPLINE
  5
23D
330
1F
100
AcDbEntity
  8
0
  6
Continuous
 62
     7
370
    25
100
AcDbSpline
210
0.0
220
0.0
230
1.0
 70
     8
 71
     3
 72
    20
 73
    16
 74
     0
 42
0.000000001
 43
0.00000001
 40
0.0
 40
0.0
 40
0.0
 40
0.0
 40
0.0743427697282268
 40
0.160297396316429
 40
0.2047252456229821
 40
0.2270010954288131
 40
0.2491884291650228
 40
0.2937897703636745
 40
0.3386318565653406
 40
0.4465527350516495
 40
0.5547610831854717
 40
0.6629917154944048
 40
0.7714456548896415
 40
0.8801674637367493
 40
1.0
 40
1.0
 40
1.0
 40
1.0
 10
89.13186922906175
 20
418.3719345244567
 30
0.0
 10
88.71082638391556
 20
417.6939387547658
 30
0.0
 10
87.80297654106835
 20
416.2320486880881
 30
0.0
 10
86.68122598625575
 20
414.2757432380981
 30
0.0
 10
85.68980643160364
 20
413.1979694322971
 30
0.0
 10
85.04649489053202
 20
413.0578211363575
 30
0.0
 10
84.44687489068042
 20
413.4716796133433
 30
0.0
 10
83.90724618782292
 20
414.6139854569602
 30
0.0
 10
83.16258917249877
 20
416.8661791881328
 30
0.0
 10
82.39244836089858
 20
420.1299557328489
 30
0.0
 10
81.48077144357535
 20
424.2120651695349
 30
0.0
 10
80.99753029108115
 20
428.6899775291017
 30
0.0
 10
81.19791734184241
 20
433.3210042285248
 30
0.0
 10
81.78112168365442
 20
438.0205691227387
 30
0.0
 10
82.50056826009211
 20
440.9996728478552
 30
0.0
 10
82.87777880018837
 20
442.5616363931101
 30
0.0
  0
SPLINE
  5
23E
330
1F
100
AcDbEntity
  8
0
  6
Continuous
 62
     7
370
    25
100
AcDbSpline
210
0.0
220
0.0
230
1.0
 70
     8
 71
     3
 72
    20
 73
    16
 74
     0
 42
0.000000001
 43
0.00000001
 40
0.0
 40
0.0
 40
0.0
 40
0.0
 40
0.0743427697282275
 40
0.1602973963164286
 40
0.2047252456229834
 40
0.227001095428814
 40
0.2491884291650228
 40
0.2937897703636748
 40
0.3386318565653427
 40
0.4465527350516509
 40
0.554761083185472
 40
0.6629917154944036
 40
0.7714456548896427
 40
0.8801674637367473
 40
1.0
 40
1.0
 40
1.0
 40
1.0
 10
89.13186922906175
 20
418.3719345244567
 30
0.0
 10
89.51190380721084
 20
417.6939387547656
 30
0.0
 10
90.33133189161242
 20
416.2320486880877
 30
0.0
 10
91.33475619749049
 20
414.2757432380972
 30
0.0
 10
92.26098709173107
 20
413.1979694322961
 30
0.0
 10
92.89582182661002
 20
413.0578211363563
 30
0.0
 10
93.5204738689639
 20
413.4716796133421
 30
0.0
 10
94.12919442330713
 20
414.6139854569586
 30
0.0
 10
95.01007435621568
 20
416.8661791881316
 30
0.0
 10
95.97762321362973
 20
420.129955732847
 30
0.0
 10
97.13620467103192
 20
424.2120651695325
 30
0.0
 10
97.89029032409644
 20
428.6899775290997
 30
0.0
 10
97.97000882539089
 20
433.3210042285224
 30
0.0
 10
97.67105553729857
 20
438.0205691227363
 30
0.0
 10
97.13179870013823
 20
440.9996728478528
 30
0.0
 10
96.84906281750591
 20
442.561636393108
 30
0.0
  0
SPLINE
  5
23F
330
1F
100
AcDbEntity
  8
0
  6
Continuous
 62
     7
370
    25
100
AcDbSpline
210
0.0
220
0.0
230
1.0
 70
     8
 71
     3
 72
    22
 73
    18
 74
     0
 42
0.000000001
 43
0.00000001
 40
0.0
 40
0.0
 40
0.0
 40
0.0
 40
0.0890358954785774
 40
0.1754791113781366
 40
0.2653580984645575
 40
0.3430941994045947
 40
0.416836147836033
 40
0.4932913927089153
 40
0.577805068275227
 40
0.6684543687523905
 40
0.7105572250136163
 40
0.7483208283606231
 40
0.7828313861818379
 40
0.8169407455639685
 40
0.86649878658814
 40
0.9268914025165946
 40
1.0
 40
1.0
 40
1.0
 40
1.0
 10
97.67994444606461
 20
442.5616363931078
 30
0.0
 10
97.89424538460503
 20
441.3356363934711
 30
0.0
 10
98.31660692834464
 20
438.9193368849475
 30
0.0
 10
98.63146201593565
 20
435.057653953459
 30
0.0
 10
98.72434116704085
 20
431.2935160574552
 30
0.0
 10
98.48496981520123
 20
427.6942547965505
 30
0.0
 10
97.94136258403614
 20
424.4088909206134
 30
0.0
 10
97.14237359153401
 20
421.2082079079904
 30
0.0
 10
96.16591848361497
 20
417.909605599534
 30
0.0
 10
95.2841393434303
 20
415.0869575654008
 30
0.0
 10
94.4184103627963
 20
413.1233422734657
 30
0.0
 10
93.71894030366798
 20
412.0304292728166
 30
0.0
 10
92.92982969159391
 20
411.5293230737793
 30
0.0
 10
92.04044693068488
 20
411.7133852131732
 30
0.0
 10
91.10473231669175
 20
412.7237554735917
 30
0.0
 10
90.11513898646433
 20
414.4771795082622
 30
0.0
 10
89.44551564757126
 20
415.8601943135712
 30
0.0
 10
89.07881318923785
 20
416.6175677495938
 30
0.0
  0
SPLINE
  5
240
330
1F
100
AcDbEntity
  8
0
  6
Continuous
 62
     7
370
    25
100
AcDbSpline
210
0.0
220
0.0
230
1.0
 70
     8
 71
     3
 72
    22
 73
    18
 74
     0
 42
0.000000001
 43
0.00000001
 40
0.0
 40
0.0
 40
0.0
 40
0.0
 40
0.0890358954785767
 40
0.1754791113781363
 40
0.2653580984645559
 40
0.3430941994045948
 40
0.4168361478360327
 40
0.4932913927089125
 40
0.5778050682752265
 40
0.6684543687523875
 40
0.710557225013615
 40
0.7483208283606227
 40
0.7828313861818358
 40
0.8169407455639665
 40
0.8664987865881397
 40
0.9268914025165933
 40
1.0
 40
1.0
 40
1.0
 40
1.0
 10
82.04689717162967
 20
442.5616363931101
 30
0.0
 10
81.75844217849021
 20
441.3356363934734
 30
0.0
 10
81.18993185356317
 20
438.9193368849498
 30
0.0
 10
80.64150462320674
 20
435.0576539534618
 30
0.0
 10
80.32095329661934
 20
431.2935160574579
 30
0.0
 10
80.34262496156134
 20
427.6942547965533
 30
0.0
 10
80.68751844696283
 20
424.4088909206157
 30
0.0
 10
81.2929155773586
 20
421.2082079079926
 30
0.0
 10
82.06985621892
 20
417.9096055995361
 30
0.0
 10
82.78090877142233
 20
415.0869575654026
 30
0.0
 10
83.52786937064275
 20
413.1233422734672
 30
0.0
 10
84.16123508201736
 20
412.0304292728181
 30
0.0
 10
84.92003651264406
 20
411.5293230737805
 30
0.0
 10
85.82055218867401
 20
411.7133852131741
 30
0.0
 10
86.81737859017005
 20
412.7237554735922
 30
0.0
 10
87.91302697883191
 20
414.4771795082629
 30
0.0
 10
88.66630134171726
 20
415.8601943135715
 30
0.0
 10
89.07881318923785
 20
416.6175677495938
 30
0.0
  0
SPLINE
  5
241
330
1F
100
AcDbEntity
  8
0
  6
Continuous
 62
     7
370
    25
100
AcDbSpline
210
0.0
220
0.0
230
1.0
 70
     8
 71
     3
 72
    14
 73
    10
 74
     0
 42
0.000000001
 43
0.00000001
 40
0.0
 40
0.0
 40
0.0
 40
0.0
 40
0.0047997594983779
 40
0.1660043188079407
 40
0.3275034073231376
 40
0.489370981524245
 40
0.651678391450402
 40
0.8160833463627423
 40
1.0
 40
1.0
 40
1.0
 40
1.0
 10
97.8856967654898
 20
433.6425769041297
 30
0.0
 10
97.8798887707502
 20
433.6136045503329
 30
0.0
 10
97.67901366217018
 20
432.6115677070487
 30
0.0
 10
96.99645133495858
 20
430.7273324369951
 30
0.0
 10
95.9408326891704
 20
427.9847625257597
 30
0.0
 10
94.5502846424398
 20
425.4269222197152
 30
0.0
 10
93.01292580954441
 20
422.9847117840857
 30
0.0
 10
91.42498144252363
 20
420.3741745596719
 30
0.0
 10
89.92426157414002
 20
419.0638150471801
 30
0.0
 10
89.13186922906175
 20
418.3719345244567
 30
0.0
  0
SPLINE
  5
242
330
1F
100
AcDbEntity
  8
0
  6
Continuous
 62
     7
370
    25
100
AcDbSpline
210
0.0
220
0.0
230
1.0
 70
     8
 71
     3
 72
    20
 73
    16
 74
     0
 42
0.000000001
 43
0.00000001
 40
0.0
 40
0.0
 40
0.0
 40
0.0
 40
0.0743427697282268
 40
0.160297396316429
 40
0.2047252456229821
 40
0.2270010954288131
 40
0.2491884291650228
 40
0.2937897703636745
 40
0.3386318565653406
 40
0.4465527350516495
 40
0.5547610831854717
 40
0.6629917154944048
 40
0.7714456548896415
 40
0.8801674637367493
 40
1.0
 40
1.0
 40
1.0
 40
1.0
 10
89.13186922906084
 20
488.3719345244568
 30
0.0
 10
88.71082638391465
 20
487.6939387547658
 30
0.0
 10
87.80297654106744
 20
486.2320486880881
 30
0.0
 10
86.68122598625484
 20
484.2757432380982
 30
0.0
 10
85.68980643160273
 20
483.1979694322969
 30
0.0
 10
85.04649489053111
 20
483.0578211363576
 30
0.0
 10
84.44687489067951
 20
483.4716796133432
 30
0.0
 10
83.90724618782201
 20
484.6139854569604
 30
0.0
 10
83.16258917249775
 20
486.8661791881329
 30
0.0
 10
82.39244836089756
 20
490.1299557328489
 30
0.0
 10
81.48077144357433
 20
494.2120651695349
 30
0.0
 10
80.99753029108012
 20
498.689977529102
 30
0.0
 10
81.1979173418415
 20
503.3210042285247
 30
0.0
 10
81.78112168365351
 20
508.0205691227388
 30
0.0
 10
82.50056826009109
 20
510.9996728478552
 30
0.0
 10
82.87777880018746
 20
512.5616363931101
 30
0.0
  0
SPLINE
  5
243
330
1F
100
AcDbEntity
  8
0
  6
Continuous
 62
     7
370
    25
100
AcDbSpline
210
0.0
220
0.0
230
1.0
 70
     8
 71
     3
 72
    20
 73
    16
 74
     0
 42
0.000000001
 43
0.00000001
 40
0.0
 40
0.0
 40
0.0
 40
0.0
 40
0.0743427697282275
 40
0.1602973963164286
 40
0.2047252456229834
 40
0.227001095428814
 40
0.2491884291650228
 40
0.2937897703636748
 40
0.3386318565653427
 40
0.4465527350516509
 40
0.554761083185472
 40
0.6629917154944036
 40
0.7714456548896427
 40
0.8801674637367473
 40
1.0
 40
1.0
 40
1.0
 40
1.0
 10
89.13186922906084
 20
488.3719345244568
 30
0.0
 10
89.51190380720993
 20
487.6939387547656
 30
0.0
 10
90.3313318916114
 20
486.2320486880878
 30
0.0
 10
91.33475619748958
 20
484.275743238097
 30
0.0
 10
92.26098709173016
 20
483.1979694322962
 30
0.0
 10
92.89582182660911
 20
483.0578211363562
 30
0.0
 10
93.520473868963
 20
483.4716796133422
 30
0.0
 10
94.1291944233061
 20
484.6139854569587
 30
0.0
 10
95.01007435621466
 20
486.8661791881316
 30
0.0
 10
95.9776232136287
 20
490.1299557328468
 30
0.0
 10
97.1362046710309
 20
494.2120651695327
 30
0.0
 10
97.89029032409542
 20
498.6899775290997
 30
0.0
 10
97.97000882538987
 20
503.3210042285224
 30
0.0
 10
97.67105553729766
 20
508.0205691227363
 30
0.0
 10
97.13179870013721
 20
510.9996728478529
 30
0.0
 10
96.84906281750489
 20
512.5616363931081
 30
0.0
  0
LINE
  5
244
330
1F
100
AcDbEntity
  8
0
  6
Continuous
 62
     7
370
    25
100
AcDbLine
 10
97.67994444607882
 20
512.5616363930696
 30
0.0
 11
96.84906281747874
 21
512.5616363930696
 31
0.0
  0
SPLINE
  5
245
330
1F
100
AcDbEntity
  8
0
  6
Continuous
 62
     7
370
    25
100
AcDbSpline
210
0.0
220
0.0
230
1.0
 70
     8
 71
     3
 72
    22
 73
    18
 74
     0
 42
0.000000001
 43
0.00000001
 40
0.0
 40
0.0
 40
0.0
 40
0.0
 40
0.0890358954785774
 40
0.1754791113781366
 40
0.2653580984645575
 40
0.3430941994045947
 40
0.416836147836033
 40
0.4932913927089153
 40
0.577805068275227
 40
0.6684543687523905
 40
0.7105572250136163
 40
0.7483208283606231
 40
0.7828313861818379
 40
0.8169407455639685
 40
0.86649878658814
 40
0.9268914025165946
 40
1.0
 40
1.0
 40
1.0
 40
1.0
 10
97.67994444606359
 20
512.5616363931078
 30
0.0
 10
97.89424538460412
 20
511.3356363934712
 30
0.0
 10
98.31660692834373
 20
508.9193368849475
 30
0.0
 10
98.63146201593463
 20
505.057653953459
 30
0.0
 10
98.72434116703982
 20
501.2935160574552
 30
0.0
 10
98.48496981520043
 20
497.6942547965505
 30
0.0
 10
97.94136258403512
 20
494.4088909206133
 30
0.0
 10
97.1423735915331
 20
491.2082079079904
 30
0.0
 10
96.16591848361406
 20
487.9096055995341
 30
0.0
 10
95.28413934342927
 20
485.0869575654008
 30
0.0
 10
94.41841036279527
 20
483.1233422734657
 30
0.0
 10
93.71894030366695
 20
482.0304292728168
 30
0.0
 10
92.92982969159289
 20
481.5293230737793
 30
0.0
 10
92.04044693068386
 20
481.7133852131732
 30
0.0
 10
91.10473231669084
 20
482.7237554735917
 30
0.0
 10
90.11513898646342
 20
484.4771795082623
 30
0.0
 10
89.44551564757035
 20
485.8601943135712
 30
0.0
 10
89.07881318923683
 20
486.6175677495939
 30
0.0
  0
SPLINE
  5
246
330
1F
100
AcDbEntity
  8
0
  6
Continuous
 62
     7
370
    25
100
AcDbSpline
210
0.0
220
0.0
230
1.0
 70
     8
 71
     3
 72
    22
 73
    18
 74
     0
 42
0.000000001
 43
0.00000001
 40
0.0
 40
0.0
 40
0.0
 40
0.0
 40
0.0890358954785767
 40
0.1754791113781362
 40
0.2653580984645558
 40
0.3430941994045945
 40
0.4168361478360329
 40
0.4932913927089136
 40
0.5778050682752265
 40
0.6684543687523875
 40
0.7105572250136151
 40
0.7483208283606229
 40
0.7828313861818358
 40
0.8169407455639665
 40
0.8664987865881398
 40
0.9268914025165933
 40
1.0
 40
1.0
 40
1.0
 40
1.0
 10
82.04689717162876
 20
512.5616363931101
 30
0.0
 10
81.7584421784893
 20
511.3356363934736
 30
0.0
 10
81.18993185356226
 20
508.91933688495
 30
0.0
 10
80.64150462320583
 20
505.0576539534615
 30
0.0
 10
80.32095329661831
 20
501.2935160574579
 30
0.0
 10
80.34262496156032
 20
497.6942547965531
 30
0.0
 10
80.6875184469618
 20
494.4088909206156
 30
0.0
 10
81.29291557735758
 20
491.2082079079927
 30
0.0
 10
82.06985621891909
 20
487.9096055995362
 30
0.0
 10
82.78090877142131
 20
485.0869575654029
 30
0.0
 10
83.52786937064184
 20
483.1233422734671
 30
0.0
 10
84.16123508201633
 20
482.0304292728181
 30
0.0
 10
84.92003651264315
 20
481.5293230737805
 30
0.0
 10
85.82055218867299
 20
481.713385213174
 30
0.0
 10
86.81737859016903
 20
482.7237554735925
 30
0.0
 10
87.91302697883111
 20
484.4771795082627
 30
0.0
 10
88.66630134171635
 20
485.8601943135712
 30
0.0
 10
89.07881318923683
 20
486.6175677495938
 30
0.0
  0
LINE
  5
247
330
1F
100
AcDbEntity
  8
0
  6
Continuous
 62
     7
370
    25
100
AcDbLine
 10
82.87777880017882
 20
512.5616363930696
 30
0.0
 11
82.04689717157873
 21
512.5616363930696
 31
0.0
  0
LINE
  5
248
330
1F
100
AcDbEntity
  8
0
  6
Continuous
 62
     7
370
    25
100
AcDbLine
 10
98.07508427697883
 20
512.5708439045696
 30
0.0
 11
98.13895445967876
 21
513.0107589229697
 31
0.0
  0
LINE
  5
249
330
1F
100
AcDbEntity
  8
0
  6
Continuous
 62
     7
370
    25
100
AcDbLine
 10
97.67994444607882
 20
512.5616363930696
 30
0.0
 11
98.07508427697883
 21
512.5708439045696
 31
0.0
  0
SPLINE
  5
24A
330
1F
100
AcDbEntity
  8
0
  6
Continuous
 62
     7
370
    25
100
AcDbSpline
210
0.0
220
0.0
230
1.0
 70
     8
 71
     3
 72
    14
 73
    10
 74
     0
 42
0.000000001
 43
0.00000001
 40
0.0
 40
0.0
 40
0.0
 40
0.0
 40
0.0047997594983786
 40
0.1660043188079404
 40
0.3275034073231373
 40
0.4893709815242449
 40
0.6516783914504019
 40
0.8160833463627422
 40
1.0
 40
1.0
 40
1.0
 40
1.0
 10
97.88569676548889
 20
503.6425769041298
 30
0.0
 10
97.87988877074929
 20
503.613604550333
 30
0.0
 10
97.67901366216915
 20
502.6115677070492
 30
0.0
 10
96.99645133495756
 20
500.7273324369947
 30
0.0
 10
95.94083268916938
 20
497.9847625257599
 30
0.0
 10
94.55028464243901
 20
495.4269222197148
 30
0.0
 10
93.01292580954339
 20
492.9847117840862
 30
0.0
 10
91.42498144252261
 20
490.3741745596716
 30
0.0
 10
89.92426157413911
 20
489.0638150471802
 30
0.0
 10
89.13186922906084
 20
488.3719345244568
 30
0.0
  0
LINE
  5
24B
330
1F
100
AcDbEntity
  8
0
  6
Continuous
 62
     7
370
    25
100
AcDbLine
 10
97.22726013737872
 20
512.5708439045696
 30
0.0
 11
97.27627447387874
 21
513.0127756248696
 31
0.0
  0
LINE
  5
24C
330
1F
100
AcDbEntity
  8
0
  6
Continuous
 62
     7
370
    25
100
AcDbLine
 10
96.84906281747874
 20
512.5616363930696
 30
0.0
 11
97.22726013737872
 21
512.5708439045696
 31
0.0
  0
LINE
  5
24D
330
1F
100
AcDbEntity
  8
0
  6
Continuous
 62
     7
370
    25
100
AcDbLine
 10
98.07508427697883
 20
512.5708439045696
 30
0.0
 11
97.22726013737872
 21
512.5708439045696
 31
0.0
  0
LINE
  5
24E
330
1F
100
AcDbEntity
  8
0
  6
Continuous
 62
     7
370
    25
100
AcDbLine
 10
82.8897741142788
 20
513.0107589229697
 30
0.0
 11
82.56541063807879
 21
512.5708439045696
 31
0.0
  0
LINE
  5
24F
330
1F
100
AcDbEntity
  8
0
  6
Continuous
 62
     7
370
    25
100
AcDbLine
 10
82.56541063807879
 20
512.5708439045696
 30
0.0
 11
82.04689717157873
 21
512.5616363930696
 31
0.0
  0
LINE
  5
250
330
1F
100
AcDbEntity
  8
0
  6
Continuous
 62
     7
370
    25
100
AcDbLine
 10
83.41323477767878
 20
512.5708439045696
 30
0.0
 11
82.87777880017882
 21
512.5616363930696
 31
0.0
  0
LINE
  5
251
330
1F
100
AcDbEntity
  8
0
  6
Continuous
 62
     7
370
    25
100
AcDbLine
 10
83.75267777097872
 20
513.0107589229697
 30
0.0
 11
83.41323477767878
 21
512.5708439045696
 31
0.0
  0
LINE
  5
252
330
1F
100
AcDbEntity
  8
0
  6
Continuous
 62
     7
370
    25
100
AcDbLine
 10
83.41323477767878
 20
512.5708439045696
 30
0.0
 11
82.56541063807879
 21
512.5708439045696
 31
0.0
  0
LINE
  5
253
330
1F
100
AcDbEntity
  8
0
  6
Continuous
 62
     7
370
    25
100
AcDbLine
 10
79.48688115217874
 20
512.5708439045696
 30
0.0
 11
79.71102795967874
 21
513.0107589229697
 31
0.0
  0
SPLINE
  5
254
330
1F
100
AcDbEntity
  8
0
  6
Continuous
 62
     7
370
    25
100
AcDbSpline
210
0.0
220
0.0
230
1.0
 70
    24
 71
     3
 72
    19
 73
    15
 74
     0
 42
0.000000001
 43
0.00000001
 40
0.0
 40
0.0
 40
0.0
 40
0.0
 40
0.1120824379165606
 40
0.2209010927668558
 40
0.3340448527747626
 40
0.4319025949882236
 40
0.5247323162201692
 40
0.620977658514976
 40
0.7273673201659971
 40
0.8414807857328828
 40
0.8944817776097396
 40
0.9420203204063917
 40
0.9854637814247943
 40
1.0
 40
1.0
 40
1.0
 40
1.0
 10
78.95938317502214
 20
512.5616363931078
 30
0.0
 10
78.916570304468
 20
511.3356361881494
 30
0.0
 10
78.83219125217659
 20
508.9193362749606
 30
0.0
 10
78.69733841765458
 20
505.0576563496699
 30
0.0
 10
78.56589143287545
 20
501.2935072002568
 30
0.0
 10
78.44020372972136
 20
497.6942822981925
 30
0.0
 10
78.32547188687738
 20
494.4087921868979
 30
0.0
 10
78.21371904560726
 20
491.2086095192009
 30
0.0
 10
78.09845502638291
 20
487.9078798702853
 30
0.0
 10
78.00013328393243
 20
485.0923135502546
 30
0.0
 10
77.93108896660362
 20
483.1151429914808
 30
0.0
 10
77.89414366475864
 20
482.0571679702376
 30
0.0
 10
77.87713603141651
 20
481.5701330741077
 30
0.0
 10
77.88020029730274
 20
481.6578821681501
 30
0.0
 10
77.88096854643766
 20
481.6798819449635
 30
0.0
  0
LINE
  5
255
330
1F
100
AcDbEntity
  8
0
  6
Continuous
 62
     7
370
    25
100
AcDbLine
 10
78.95938317497883
 20
512.5616363930696
 30
0.0
 11
79.48688115217874
 21
512.5708439045696
 31
0.0
  0
LINE
  5
256
330
1F
100
AcDbEntity
  8
0
  6
Continuous
 62
     7
370
    25
100
AcDbLine
 10
106.2788201324788
 20
413.0107589229697
 30
0.0
 11
107.0211027047787
 21
413.0107589229697
 31
0.0
  0
LINE
  5
257
330
1F
100
AcDbEntity
  8
0
  6
Continuous
 62
     7
370
    25
100
AcDbLine
 10
101.9524802543788
 20
413.0107589229697
 30
0.0
 11
106.2788201324788
 21
413.0107589229697
 31
0.0
  0
LINE
  5
258
330
1F
100
AcDbEntity
  8
0
  6
Continuous
 62
     7
370
    25
100
AcDbLine
 10
121.0443633463788
 20
413.0107589229697
 30
0.0
 11
122.6676338009788
 21
413.0107589229697
 31
0.0
  0
LINE
  5
259
330
1F
100
AcDbEntity
  8
0
  6
Continuous
 62
     7
370
    25
100
AcDbLine
 10
135.9773049423787
 20
413.0107589229697
 30
0.0
 11
136.7195875145787
 21
413.0107589229697
 31
0.0
  0
LINE
  5
25A
330
1F
100
AcDbEntity
  8
0
  6
Continuous
 62
     7
370
    25
100
AcDbLine
 10
131.6509650641788
 20
413.0107589229697
 30
0.0
 11
135.9773049423787
 21
413.0107589229697
 31
0.0
  0
LINE
  5
25B
330
1F
100
AcDbEntity
  8
0
  6
Continuous
 62
     7
370
    25
100
AcDbLine
 10
107.0211027047787
 20
413.0107589229697
 30
0.0
 11
109.9157026477787
 21
413.0107589229697
 31
0.0
  0
LINE
  5
25C
330
1F
100
AcDbEntity
  8
0
  6
Continuous
 62
     7
370
    25
100
AcDbLine
 10
175.3482271932787
 20
413.0107589229697
 30
0.0
 11
175.6104604798787
 21
413.0107589229697
 31
0.0
  0
LINE
  5
25D
330
1F
100
AcDbEntity
  8
0
  6
Continuous
 62
     7
370
    25
100
AcDbLine
 10
136.7195875145787
 20
413.0107589229697
 30
0.0
 11
139.9015680298787
 21
413.0107589229697
 31
0.0
  0
LINE
  5
25E
330
1F
100
AcDbEntity
  8
0
  6
Continuous
 62
     7
370
    25
100
AcDbLine
 10
189.6337211214787
 20
413.0107589229697
 30
0.0
 11
192.3265476844788
 21
413.0107589229697
 31
0.0
  0
LINE
  5
25F
330
1F
100
AcDbEntity
  8
0
  6
Continuous
 62
     7
370
    25
100
AcDbLine
 10
106.2788201325787
 20
483.0107589229697
 30
0.0
 11
107.0211027047787
 21
483.0107589229697
 31
0.0
  0
LINE
  5
260
330
1F
100
AcDbEntity
  8
0
  6
Continuous
 62
     7
370
    25
100
AcDbLine
 10
101.9524802543788
 20
483.0107589229697
 30
0.0
 11
106.2788201325787
 21
483.0107589229697
 31
0.0
  0
LINE
  5
261
330
1F
100
AcDbEntity
  8
0
  6
Continuous
 62
     7
370
    25
100
AcDbLine
 10
121.0443633463788
 20
483.0107589229697
 30
0.0
 11
122.6676333584787
 21
483.0107589229697
 31
0.0
  0
LINE
  5
262
330
1F
100
AcDbEntity
  8
0
  6
Continuous
 62
     7
370
    25
100
AcDbLine
 10
135.9773049423787
 20
483.0107589229697
 30
0.0
 11
136.7195875145787
 21
483.0107589229697
 31
0.0
  0
LINE
  5
263
330
1F
100
AcDbEntity
  8
0
  6
Continuous
 62
     7
370
    25
100
AcDbLine
 10
131.6509650641788
 20
483.0107589229697
 30
0.0
 11
135.9773049423787
 21
483.0107589229697
 31
0.0
  0
LINE
  5
264
330
1F
100
AcDbEntity
  8
0
  6
Continuous
 62
     7
370
    25
100
AcDbLine
 10
107.0211027047787
 20
483.0107589229697
 30
0.0
 11
109.9157022399788
 21
483.0107589229697
 31
0.0
  0
LINE
  5
265
330
1F
100
AcDbEntity
  8
0
  6
Continuous
 62
     7
370
    25
100
AcDbLine
 10
175.3482271932787
 20
483.0107589229697
 30
0.0
 11
175.6104604798787
 21
483.0107589229697
 31
0.0
  0
LINE
  5
266
330
1F
100
AcDbEntity
  8
0
  6
Continuous
 62
     7
370
    25
100
AcDbLine
 10
136.7195875145787
 20
483.0107589229697
 30
0.0
 11
139.9015680298787
 21
483.0107589229697
 31
0.0
  0
LINE
  5
267
330
1F
100
AcDbEntity
  8
0
  6
Continuous
 62
     7
370
    25
100
AcDbLine
 10
189.6337211214787
 20
483.0107589229697
 30
0.0
 11
192.3265476844788
 21
483.0107589229697
 31
0.0
  0
LINE
  5
268
330
1F
100
AcDbEntity
  8
0
  6
Continuous
 62
     7
370
    25
100
AcDbLine
 10
130.3204506928788
 20
483.0107589229697
 30
0.0
 11
131.0627332650788
 21
483.0107589229697
 31
0.0
  0
LINE
  5
269
330
1F
100
AcDbEntity
  8
0
  6
Continuous
 62
     7
370
    25
100
AcDbLine
 10
128.3672325402788
 20
483.0107589229697
 30
0.0
 11
130.3204506928788
 21
483.0107589229697
 31
0.0
  0
LINE
  5
26A
330
1F
100
AcDbEntity
  8
0
  6
Continuous
 62
     7
370
    25
100
AcDbLine
 10
185.1212262348788
 20
483.0107589229697
 30
0.0
 11
185.8635088070788
 21
483.0107589229697
 31
0.0
  0
LINE
  5
26B
330
1F
100
AcDbEntity
  8
0
  6
Continuous
 62
     7
370
    25
100
AcDbLine
 10
180.7948863566787
 20
483.0107589229697
 30
0.0
 11
185.1212262348788
 21
483.0107589229697
 31
0.0
  0
LINE
  5
26C
330
1F
100
AcDbEntity
  8
0
  6
Continuous
 62
     7
370
    25
100
AcDbLine
 10
149.4123337848788
 20
483.0107589229697
 30
0.0
 11
149.7286280180788
 21
483.0107589229697
 31
0.0
  0
LINE
  5
26D
330
1F
100
AcDbEntity
  8
0
  6
Continuous
 62
     7
370
    25
100
AcDbLine
 10
145.0859939067788
 20
483.0107589229697
 30
0.0
 11
149.4123337848788
 21
483.0107589229697
 31
0.0
  0
LINE
  5
26E
330
1F
100
AcDbEntity
  8
0
  6
Continuous
 62
     7
370
    25
100
AcDbLine
 10
213.4054974822787
 20
483.0107589229697
 30
0.0
 11
214.1477800544787
 21
483.0107589229697
 31
0.0
  0
LINE
  5
26F
330
1F
100
AcDbEntity
  8
0
  6
Continuous
 62
     7
370
    25
100
AcDbLine
 10
210.7835395544788
 20
483.0107589229697
 30
0.0
 11
213.4054974822787
 21
483.0107589229697
 31
0.0
  0
LINE
  5
270
330
1F
100
AcDbEntity
  8
0
  6
Continuous
 62
     7
370
    25
100
AcDbLine
 10
185.8635088070788
 20
483.0107589229697
 30
0.0
 11
189.0454893223788
 21
483.0107589229697
 31
0.0
  0
LINE
  5
271
330
1F
100
AcDbEntity
  8
0
  6
Continuous
 62
     7
370
    25
100
AcDbLine
 10
198.0243592238787
 20
483.0107589229697
 30
0.0
 11
199.6520910401788
 21
483.0107589229697
 31
0.0
  0
LINE
  5
272
330
1F
100
AcDbEntity
  8
0
  6
Continuous
 62
     7
370
    25
100
AcDbLine
 10
214.1477800544787
 20
483.0107589229697
 30
0.0
 11
218.7439741322788
 21
483.0107589229697
 31
0.0
  0
LINE
  5
273
330
1F
100
AcDbEntity
  8
0
  6
Continuous
 62
     7
370
    25
100
AcDbLine
 10
130.3204506928788
 20
413.0107589229697
 30
0.0
 11
131.0627332650788
 21
413.0107589229697
 31
0.0
  0
LINE
  5
274
330
1F
100
AcDbEntity
  8
0
  6
Continuous
 62
     7
370
    25
100
AcDbLine
 10
128.3672325402788
 20
413.0107589229697
 30
0.0
 11
130.3204506928788
 21
413.0107589229697
 31
0.0
  0
LINE
  5
275
330
1F
100
AcDbEntity
  8
0
  6
Continuous
 62
     7
370
    25
100
AcDbLine
 10
185.1212262348788
 20
413.0107589229697
 30
0.0
 11
185.8635088070788
 21
413.0107589229697
 31
0.0
  0
LINE
  5
276
330
1F
100
AcDbEntity
  8
0
  6
Continuous
 62
     7
370
    25
100
AcDbLine
 10
180.7948863566787
 20
413.0107589229697
 30
0.0
 11
185.1212262348788
 21
413.0107589229697
 31
0.0
  0
LINE
  5
277
330
1F
100
AcDbEntity
  8
0
  6
Continuous
 62
     7
370
    25
100
AcDbLine
 10
149.4123337848788
 20
413.0107589229697
 30
0.0
 11
149.7286280180788
 21
413.0107589229697
 31
0.0
  0
LINE
  5
278
330
1F
100
AcDbEntity
  8
0
  6
Continuous
 62
     7
370
    25
100
AcDbLine
 10
145.0859939067788
 20
413.0107589229697
 30
0.0
 11
149.4123337848788
 21
413.0107589229697
 31
0.0
  0
LINE
  5
279
330
1F
100
AcDbEntity
  8
0
  6
Continuous
 62
     7
370
    25
100
AcDbLine
 10
213.4054974822787
 20
413.0107589229697
 30
0.0
 11
214.1477800544787
 21
413.0107589229697
 31
0.0
  0
LINE
  5
27A
330
1F
100
AcDbEntity
  8
0
  6
Continuous
 62
     7
370
    25
100
AcDbLine
 10
210.7835391063787
 20
413.0107589229697
 30
0.0
 11
213.4054974822787
 21
413.0107589229697
 31
0.0
  0
LINE
  5
27B
330
1F
100
AcDbEntity
  8
0
  6
Continuous
 62
     7
370
    25
100
AcDbLine
 10
185.8635088070788
 20
413.0107589229697
 30
0.0
 11
189.0454893223788
 21
413.0107589229697
 31
0.0
  0
LINE
  5
27C
330
1F
100
AcDbEntity
  8
0
  6
Continuous
 62
     7
370
    25
100
AcDbLine
 10
198.0243588206788
 20
413.0107589229697
 30
0.0
 11
199.6520910401788
 21
413.0107589229697
 31
0.0
  0
LINE
  5
27D
330
1F
100
AcDbEntity
  8
0
  6
Continuous
 62
     7
370
    25
100
AcDbLine
 10
214.1477800544787
 20
413.0107589229697
 30
0.0
 11
218.7439741321788
 21
413.0107589229697
 31
0.0
  0
LINE
  5
27E
330
1F
100
AcDbEntity
  8
0
  6
Continuous
 62
     7
370
    25
100
AcDbLine
 10
160.3482271932787
 20
514.0107589229697
 30
0.0
 11
255.8482271932787
 21
514.0107589229697
 31
0.0
  0
LINE
  5
27F
330
1F
100
AcDbEntity
  8
0
  6
Continuous
 62
     7
370
    25
100
AcDbLine
 10
64.84822719327872
 20
514.0107589229697
 30
0.0
 11
160.3482271932787
 21
514.0107589229697
 31
0.0
  0
LINE
  5
280
330
1F
100
AcDbEntity
  8
0
  6
Continuous
 62
     7
370
    25
100
AcDbLine
 10
255.8482271932787
 20
516.7107589229697
 30
0.0
 11
64.84822719327872
 21
516.7107589229697
 31
0.0
  0
LINE
  5
281
330
1F
100
AcDbEntity
  8
0
  6
Continuous
 62
     7
370
    25
100
AcDbLine
 10
160.3482271932787
 20
513.0107589229697
 30
0.0
 11
65.84822719327872
 21
513.0107589229697
 31
0.0
  0
LINE
  5
282
330
1F
100
AcDbEntity
  8
0
  6
Continuous
 62
     7
370
    25
100
AcDbLine
 10
254.8482271932787
 20
513.0107589229697
 30
0.0
 11
160.3482271932787
 21
513.0107589229697
 31
0.0
  0
LINE
  5
283
330
1F
100
AcDbEntity
  8
0
  6
Continuous
 62
     7
370
    25
100
AcDbLine
 10
65.14822719327879
 20
517.0107589229697
 30
0.0
 11
255.5482271932788
 21
517.0107589229697
 31
0.0
  0
LINE
  5
284
330
1F
100
AcDbEntity
  8
0
  6
Continuous
 62
     7
370
    25
100
AcDbLine
 10
160.3482271932787
 20
534.4607589229697
 30
0.0
 11
255.8482271932787
 21
534.4607589229697
 31
0.0
  0
LINE
  5
285
330
1F
100
AcDbEntity
  8
0
  6
Continuous
 62
     7
370
    25
100
AcDbLine
 10
64.84822719327872
 20
534.4607589229697
 30
0.0
 11
160.3482271932787
 21
534.4607589229697
 31
0.0
  0
LINE
  5
286
330
1F
100
AcDbEntity
  8
0
  6
Continuous
 62
     7
370
    25
100
AcDbLine
 10
160.3482271932787
 20
534.1607589229696
 30
0.0
 11
65.14822719327879
 21
534.1607589229696
 31
0.0
  0
LINE
  5
287
330
1F
100
AcDbEntity
  8
0
  6
Continuous
 62
     7
370
    25
100
AcDbLine
 10
255.5482271932788
 20
534.1607589229696
 30
0.0
 11
160.3482271932787
 21
534.1607589229696
 31
0.0
  0
LINE
  5
288
330
1F
100
AcDbEntity
  8
0
  6
Continuous
 62
     7
370
    25
100
AcDbLine
 10
255.8482271932787
 20
539.7107589229697
 30
0.0
 11
64.84822719327872
 21
539.7107589229697
 31
0.0
  0
LINE
  5
289
330
1F
100
AcDbEntity
  8
0
  6
Continuous
 62
     7
370
    25
100
AcDbLine
 10
255.8482271932787
 20
531.5607589229696
 30
0.0
 11
64.84822719327872
 21
531.5607589229696
 31
0.0
  0
LINE
  5
28A
330
1F
100
AcDbEntity
  8
0
  6
Continuous
 62
     7
370
    25
100
AcDbLine
 10
65.14822719327879
 20
531.8607589229696
 30
0.0
 11
255.5482271932788
 21
531.8607589229696
 31
0.0
  0
LINE
  5
28B
330
1F
100
AcDbEntity
  8
0
  6
Continuous
 62
     7
370
    25
100
AcDbLine
 10
160.3482271932787
 20
522.8107589229696
 30
0.0
 11
255.8482271932787
 21
522.8107589229696
 31
0.0
  0
LINE
  5
28C
330
1F
100
AcDbEntity
  8
0
  6
Continuous
 62
     7
370
    25
100
AcDbLine
 10
64.84822719327872
 20
522.8107589229696
 30
0.0
 11
160.3482271932787
 21
522.8107589229696
 31
0.0
  0
LINE
  5
28D
330
1F
100
AcDbEntity
  8
0
  6
Continuous
 62
     7
370
    25
100
AcDbLine
 10
160.3482271932787
 20
522.5107589229697
 30
0.0
 11
65.14822719327879
 21
522.5107589229697
 31
0.0
  0
LINE
  5
28E
330
1F
100
AcDbEntity
  8
0
  6
Continuous
 62
     7
370
    25
100
AcDbLine
 10
255.5482271932788
 20
522.5107589229697
 30
0.0
 11
160.3482271932787
 21
522.5107589229697
 31
0.0
  0
LINE
  5
28F
330
1F
100
AcDbEntity
  8
0
  6
Continuous
 62
     7
370
    25
100
AcDbLine
 10
206.5026211845787
 20
228.6107589229697
 30
0.0
 11
60.34822719327872
 21
228.6107589229697
 31
0.0
  0
LINE
  5
290
330
1F
100
AcDbEntity
  8
0
  6
Continuous
 62
     7
370
    25
100
AcDbLine
 10
260.3482271932787
 20
228.6107589229697
 30
0.0
 11
206.5026211845787
 21
228.6107589229697
 31
0.0
  0
LINE
  5
291
330
1F
100
AcDbEntity
  8
0
  6
Continuous
 62
     7
370
    25
100
AcDbLine
 10
206.5026211845787
 20
238.6107589229697
 30
0.0
 11
60.34822719327872
 21
238.6107589229697
 31
0.0
  0
LINE
  5
292
330
1F
100
AcDbEntity
  8
0
  6
Continuous
 62
     7
370
    25
100
AcDbLine
 10
260.3482271932787
 20
238.6107589229697
 30
0.0
 11
206.5026211845787
 21
238.6107589229697
 31
0.0
  0
LINE
  5
293
330
1F
100
AcDbEntity
  8
0
  6
Continuous
 62
     7
370
    25
100
AcDbLine
 10
204.4256734549788
 20
246.4607589229697
 30
0.0
 11
255.8482271932787
 21
246.4607589229697
 31
0.0
  0
LINE
  5
294
330
1F
100
AcDbEntity
  8
0
  6
Continuous
 62
     7
370
    25
100
AcDbLine
 10
64.84822719327872
 20
246.4607589229697
 30
0.0
 11
92.34822719327872
 21
246.4607589229697
 31
0.0
  0
LINE
  5
295
330
1F
100
AcDbEntity
  8
0
  6
Continuous
 62
     7
370
    25
100
AcDbLine
 10
93.94822719327874
 20
246.4607589229697
 30
0.0
 11
204.4256734549788
 21
246.4607589229697
 31
0.0
  0
LINE
  5
296
330
1F
100
AcDbEntity
  8
0
  6
Continuous
 62
     7
370
    25
100
AcDbLine
 10
204.4256734549788
 20
258.1107589229697
 30
0.0
 11
255.8482271932787
 21
258.1107589229697
 31
0.0
  0
LINE
  5
297
330
1F
100
AcDbEntity
  8
0
  6
Continuous
 62
     7
370
    25
100
AcDbLine
 10
64.84822719327872
 20
258.1107589229697
 30
0.0
 11
204.4256734549788
 21
258.1107589229697
 31
0.0
  0
LINE
  5
298
330
1F
100
AcDbEntity
  8
0
  6
Continuous
 62
     7
370
    25
100
AcDbLine
 10
255.8482271932787
 20
248.7607589229697
 30
0.0
 11
64.84822719327872
 21
248.7607589229697
 31
0.0
  0
LINE
  5
299
330
1F
100
AcDbEntity
  8
0
  6
Continuous
 62
     7
370
    25
100
AcDbLine
 10
204.4256734549788
 20
267.6107589229697
 30
0.0
 11
64.84822719327872
 21
267.6107589229697
 31
0.0
  0
LINE
  5
29A
330
1F
100
AcDbEntity
  8
0
  6
Continuous
 62
     7
370
    25
100
AcDbLine
 10
255.8482271932787
 20
267.6107589229697
 30
0.0
 11
204.4256734549788
 21
267.6107589229697
 31
0.0
  0
LINE
  5
29B
330
1F
100
AcDbEntity
  8
0
  6
Continuous
 62
     7
370
    25
100
AcDbLine
 10
203.9641295150788
 20
268.6107589229697
 30
0.0
 11
254.8482271932787
 21
268.6107589229697
 31
0.0
  0
LINE
  5
29C
330
1F
100
AcDbEntity
  8
0
  6
Continuous
 62
     7
370
    25
100
AcDbLine
 10
65.84822719327872
 20
268.6107589229697
 30
0.0
 11
203.9641295150788
 21
268.6107589229697
 31
0.0
  0
LINE
  5
29D
330
1F
100
AcDbEntity
  8
0
  6
Continuous
 62
     7
370
    25
100
AcDbLine
 10
255.8482271932787
 20
263.6107589229697
 30
0.0
 11
64.84822719327872
 21
263.6107589229697
 31
0.0
  0
LINE
  5
29E
330
1F
100
AcDbEntity
  8
0
  6
Continuous
 62
     7
370
    25
100
AcDbLine
 10
60.34822719327872
 20
224.1107589229697
 30
0.0
 11
260.3482271932787
 21
224.1107589229697
 31
0.0
  0
LINE
  5
29F
330
1F
100
AcDbEntity
  8
0
  6
Continuous
 62
     7
370
    25
100
AcDbLine
 10
60.34822719327872
 20
73.61075891986967
 30
0.0
 11
260.3482271932787
 21
73.61075891986967
 31
0.0
  0
LINE
  5
2A0
330
1F
100
AcDbEntity
  8
0
  6
Continuous
 62
     7
370
    25
100
AcDbLine
 10
221.8394098742788
 20
220.6107589198697
 30
0.0
 11
60.34822719327872
 21
220.6107589198697
 31
0.0
  0
LINE
  5
2A1
330
1F
100
AcDbEntity
  8
0
  6
Continuous
 62
     7
370
    25
100
AcDbLine
 10
260.3482271932787
 20
220.6107589198697
 30
0.0
 11
221.8394098742788
 21
220.6107589198697
 31
0.0
  0
LINE
  5
2A2
330
1F
100
AcDbEntity
  8
0
  6
Continuous
 62
     7
370
    25
100
AcDbLine
 10
221.6817499059788
 20
242.4107589230697
 30
0.0
 11
257.3482271932787
 21
242.4107589230697
 31
0.0
  0
LINE
  5
2A3
330
1F
100
AcDbEntity
  8
0
  6
Continuous
 62
     7
370
    25
100
AcDbLine
 10
63.34822719327872
 20
242.4107589230697
 30
0.0
 11
221.6817499059788
 21
242.4107589230697
 31
0.0
  0
LINE
  5
2A4
330
1F
100
AcDbEntity
  8
0
  6
Continuous
 62
     7
370
    25
100
AcDbLine
 10
221.6817499059788
 20
240.4107589230697
 30
0.0
 11
257.3482271932787
 21
240.4107589230697
 31
0.0
  0
LINE
  5
2A5
330
1F
100
AcDbEntity
  8
0
  6
Continuous
 62
     7
370
    25
100
AcDbLine
 10
63.34822719327872
 20
240.4107589230697
 30
0.0
 11
221.6817499059788
 21
240.4107589230697
 31
0.0
  0
LINE
  5
2A6
330
1F
100
AcDbEntity
  8
0
  6
Continuous
 62
     7
370
    25
100
AcDbLine
 10
220.6944257119787
 20
243.5607589230697
 30
0.0
 11
255.7867573382788
 21
243.5607589230697
 31
0.0
  0
LINE
  5
2A7
330
1F
100
AcDbEntity
  8
0
  6
Continuous
 62
     7
370
    25
100
AcDbLine
 10
64.90969704827876
 20
243.5607589230697
 30
0.0
 11
92.34822719327872
 21
243.5607589230697
 31
0.0
  0
LINE
  5
2A8
330
1F
100
AcDbEntity
  8
0
  6
Continuous
 62
     7
370
    25
100
AcDbLine
 10
93.94822719327874
 20
243.5607589230697
 30
0.0
 11
220.6944257119787
 21
243.5607589230697
 31
0.0
  0
LINE
  5
2A9
330
1F
100
AcDbEntity
  8
0
  6
Continuous
 62
     7
370
    25
100
AcDbLine
 10
220.6878045723788
 20
244.1606675401697
 30
0.0
 11
255.7762858944787
 21
244.1606675401697
 31
0.0
  0
LINE
  5
2AA
330
1F
100
AcDbEntity
  8
0
  6
Continuous
 62
     7
370
    25
100
AcDbLine
 10
64.92016849217873
 20
244.1606675401697
 30
0.0
 11
92.34822719327872
 21
244.1606675401697
 31
0.0
  0
LINE
  5
2AB
330
1F
100
AcDbEntity
  8
0
  6
Continuous
 62
     7
370
    25
100
AcDbLine
 10
93.94822719327874
 20
244.1606675401697
 30
0.0
 11
220.6878045723788
 21
244.1606675401697
 31
0.0
  0
LINE
  5
2AC
330
1F
100
AcDbEntity
  8
0
  6
Continuous
 62
     7
370
    25
100
AcDbLine
 10
220.6811834327788
 20
244.7605761572697
 30
0.0
 11
255.7658144505788
 21
244.7605761572697
 31
0.0
  0
LINE
  5
2AD
330
1F
100
AcDbEntity
  8
0
  6
Continuous
 62
     7
370
    25
100
AcDbLine
 10
64.93063993597877
 20
244.7605761572697
 30
0.0
 11
92.34822719327872
 21
244.7605761572697
 31
0.0
  0
LINE
  5
2AE
330
1F
100
AcDbEntity
  8
0
  6
Continuous
 62
     7
370
    25
100
AcDbLine
 10
93.94822719327874
 20
244.7605761572697
 30
0.0
 11
220.6811834327788
 21
244.7605761572697
 31
0.0
  0
LINE
  5
2AF
330
1F
100
AcDbEntity
  8
0
  6
Continuous
 62
     7
370
    25
100
AcDbLine
 10
220.6745622931787
 20
245.3604847743697
 30
0.0
 11
255.7553430066788
 21
245.3604847743697
 31
0.0
  0
LINE
  5
2B0
330
1F
100
AcDbEntity
  8
0
  6
Continuous
 62
     7
370
    25
100
AcDbLine
 10
64.94111137987875
 20
245.3604847743697
 30
0.0
 11
92.34822719327872
 21
245.3604847743697
 31
0.0
  0
LINE
  5
2B1
330
1F
100
AcDbEntity
  8
0
  6
Continuous
 62
     7
370
    25
100
AcDbLine
 10
93.94822719327874
 20
245.3604847743697
 30
0.0
 11
220.6745622931787
 21
245.3604847743697
 31
0.0
  0
LINE
  5
2B2
330
1F
100
AcDbEntity
  8
0
  6
Continuous
 62
     7
370
    25
100
AcDbLine
 10
220.6679411535788
 20
245.9603933914697
 30
0.0
 11
255.7448715628788
 21
245.9603933914697
 31
0.0
  0
LINE
  5
2B3
330
1F
100
AcDbEntity
  8
0
  6
Continuous
 62
     7
370
    25
100
AcDbLine
 10
64.95158282377872
 20
245.9603933914697
 30
0.0
 11
92.34822719327872
 21
245.9603933914697
 31
0.0
  0
LINE
  5
2B4
330
1F
100
AcDbEntity
  8
0
  6
Continuous
 62
     7
370
    25
100
AcDbLine
 10
93.94822719327874
 20
245.9603933914697
 30
0.0
 11
220.6679411535788
 21
245.9603933914697
 31
0.0
  0
LINE
  5
2B5
330
1F
100
AcDbEntity
  8
0
  6
Continuous
 62
     7
370
    25
100
AcDbLine
 10
220.6613200140788
 20
246.5603020085697
 30
0.0
 11
255.7344001189788
 21
246.5603020085697
 31
0.0
  0
LINE
  5
2B6
330
1F
100
AcDbEntity
  8
0
  6
Continuous
 62
     7
370
    25
100
AcDbLine
 10
64.96205426757876
 20
246.5603020085697
 30
0.0
 11
92.34822719327872
 21
246.5603020085697
 31
0.0
  0
LINE
  5
2B7
330
1F
100
AcDbEntity
  8
0
  6
Continuous
 62
     7
370
    25
100
AcDbLine
 10
93.94822719327874
 20
246.5603020085697
 30
0.0
 11
220.6613200140788
 21
246.5603020085697
 31
0.0
  0
LINE
  5
2B8
330
1F
100
AcDbEntity
  8
0
  6
Continuous
 62
     7
370
    25
100
AcDbLine
 10
220.6546988744788
 20
247.1602106256697
 30
0.0
 11
255.7239286750788
 21
247.1602106256697
 31
0.0
  0
LINE
  5
2B9
330
1F
100
AcDbEntity
  8
0
  6
Continuous
 62
     7
370
    25
100
AcDbLine
 10
64.97252571147874
 20
247.1602106256697
 30
0.0
 11
92.37983995247873
 21
247.1602106256697
 31
0.0
  0
LINE
  5
2BA
330
1F
100
AcDbEntity
  8
0
  6
Continuous
 62
     7
370
    25
100
AcDbLine
 10
93.94822719327874
 20
247.1602106256697
 30
0.0
 11
220.6546988744788
 21
247.1602106256697
 31
0.0
  0
LINE
  5
2BB
330
1F
100
AcDbEntity
  8
0
  6
Continuous
 62
     7
370
    25
100
AcDbLine
 10
220.3702403588787
 20
246.6602106256697
 30
0.0
 11
255.2740527378787
 21
246.6602106256697
 31
0.0
  0
LINE
  5
2BC
330
1F
100
AcDbEntity
  8
0
  6
Continuous
 62
     7
370
    25
100
AcDbLine
 10
65.42240164867871
 20
246.6602106256697
 30
0.0
 11
92.34822719327872
 21
246.6602106256697
 31
0.0
  0
LINE
  5
2BD
330
1F
100
AcDbEntity
  8
0
  6
Continuous
 62
     7
370
    25
100
AcDbLine
 10
93.94822719327874
 20
246.6602106256697
 30
0.0
 11
220.3702403588787
 21
246.6602106256697
 31
0.0
  0
LINE
  5
2BE
330
1F
100
AcDbEntity
  8
0
  6
Continuous
 62
     7
370
    25
100
AcDbLine
 10
220.6480777348788
 20
247.7601192427697
 30
0.0
 11
255.7134572312788
 21
247.7601192427697
 31
0.0
  0
LINE
  5
2BF
330
1F
100
AcDbEntity
  8
0
  6
Continuous
 62
     7
370
    25
100
AcDbLine
 10
64.98299715527878
 20
247.7601192427697
 30
0.0
 11
92.3880513010788
 21
247.7601192427697
 31
0.0
  0
LINE
  5
2C0
330
1F
100
AcDbEntity
  8
0
  6
Continuous
 62
     7
370
    25
100
AcDbLine
 10
93.94822719327874
 20
247.7601192427697
 30
0.0
 11
220.6480777348788
 21
247.7601192427697
 31
0.0
  0
LINE
  5
2C1
330
1F
100
AcDbEntity
  8
0
  6
Continuous
 62
     7
370
    25
100
AcDbLine
 10
220.3636192192788
 20
247.2601192427697
 30
0.0
 11
255.2635812940788
 21
247.2601192427697
 31
0.0
  0
LINE
  5
2C2
330
1F
100
AcDbEntity
  8
0
  6
Continuous
 62
     7
370
    25
100
AcDbLine
 10
65.4328730925788
 20
247.2601192427697
 30
0.0
 11
92.34822719327872
 21
247.2601192427697
 31
0.0
  0
LINE
  5
2C3
330
1F
100
AcDbEntity
  8
0
  6
Continuous
 62
     7
370
    25
100
AcDbLine
 10
93.94822719327874
 20
247.2601192427697
 30
0.0
 11
220.3636192192788
 21
247.2601192427697
 31
0.0
  0
LINE
  5
2C4
330
1F
100
AcDbEntity
  8
0
  6
Continuous
 62
     7
370
    25
100
AcDbLine
 10
220.6414565952788
 20
248.3600278598697
 30
0.0
 11
255.7029857873788
 21
248.3600278598697
 31
0.0
  0
LINE
  5
2C5
330
1F
100
AcDbEntity
  8
0
  6
Continuous
 62
     7
370
    25
100
AcDbLine
 10
64.99346859917875
 20
248.3600278598697
 30
0.0
 11
220.6414565952788
 21
248.3600278598697
 31
0.0
  0
LINE
  5
2C6
330
1F
100
AcDbEntity
  8
0
  6
Continuous
 62
     7
370
    25
100
AcDbLine
 10
220.3569980796788
 20
247.8600278598697
 30
0.0
 11
255.2531098501788
 21
247.8600278598697
 31
0.0
  0
LINE
  5
2C7
330
1F
100
AcDbEntity
  8
0
  6
Continuous
 62
     7
370
    25
100
AcDbLine
 10
65.44334453637873
 20
247.8600278598697
 30
0.0
 11
92.34822719327872
 21
247.8600278598697
 31
0.0
  0
LINE
  5
2C8
330
1F
100
AcDbEntity
  8
0
  6
Continuous
 62
     7
370
    25
100
AcDbLine
 10
94.19887729017876
 20
247.8600278598697
 30
0.0
 11
220.3569980796788
 21
247.8600278598697
 31
0.0
  0
LINE
  5
2C9
330
1F
100
AcDbEntity
  8
0
  6
Continuous
 62
     7
370
    25
100
AcDbLine
 10
65.00394004307873
 20
248.9599364769697
 30
0.0
 11
220.6348354556787
 21
248.9599364769697
 31
0.0
  0
LINE
  5
2CA
330
1F
100
AcDbEntity
  8
0
  6
Continuous
 62
     7
370
    25
100
AcDbLine
 10
220.3503769400787
 20
248.4599364769697
 30
0.0
 11
255.2426384063788
 21
248.4599364769697
 31
0.0
  0
LINE
  5
2CB
330
1F
100
AcDbEntity
  8
0
  6
Continuous
 62
     7
370
    25
100
AcDbLine
 10
65.45381598027882
 20
248.4599364769697
 30
0.0
 11
220.3503769400787
 21
248.4599364769697
 31
0.0
  0
LINE
  5
2CC
330
1F
100
AcDbEntity
  8
0
  6
Continuous
 62
     7
370
    25
100
AcDbLine
 10
65.01441148687877
 20
249.5598450939697
 30
0.0
 11
220.6282143160788
 21
249.5598450939697
 31
0.0
  0
LINE
  5
2CD
330
1F
100
AcDbEntity
  8
0
  6
Continuous
 62
     7
370
    25
100
AcDbLine
 10
65.02488293077874
 20
250.1597537110697
 30
0.0
 11
220.6215931764788
 21
250.1597537110697
 31
0.0
  0
LINE
  5
2CE
330
1F
100
AcDbEntity
  8
0
  6
Continuous
 62
     7
370
    25
100
AcDbLine
 10
257.3482271932787
 20
540.0107589229697
 30
0.0
 11
63.34822719327872
 21
540.0107589229697
 31
0.0
  0
LINE
  5
2CF
330
1F
100
AcDbEntity
  8
0
  6
Continuous
 62
     7
370
    25
100
AcDbLine
 10
255.7867573382788
 20
538.8607589229696
 30
0.0
 11
64.90969704827876
 21
538.8607589229696
 31
0.0
  0
LINE
  5
2D0
330
1F
100
AcDbEntity
  8
0
  6
Continuous
 62
     7
370
    25
100
AcDbLine
 10
255.7762858944787
 20
538.2608503058697
 30
0.0
 11
64.92016849217873
 21
538.2608503058697
 31
0.0
  0
LINE
  5
2D1
330
1F
100
AcDbEntity
  8
0
  6
Continuous
 62
     7
370
    25
100
AcDbLine
 10
255.7658144505788
 20
537.6609416887696
 30
0.0
 11
64.93063993597877
 21
537.6609416887696
 31
0.0
  0
LINE
  5
2D2
330
1F
100
AcDbEntity
  8
0
  6
Continuous
 62
     7
370
    25
100
AcDbLine
 10
255.7553430066788
 20
537.0610330717697
 30
0.0
 11
64.94111137987875
 21
537.0610330717697
 31
0.0
  0
LINE
  5
2D3
330
1F
100
AcDbEntity
  8
0
  6
Continuous
 62
     7
370
    25
100
AcDbLine
 10
255.7448715628788
 20
536.4611244546697
 30
0.0
 11
64.95158282377872
 21
536.4611244546697
 31
0.0
  0
LINE
  5
2D4
330
1F
100
AcDbEntity
  8
0
  6
Continuous
 62
     7
370
    25
100
AcDbLine
 10
255.7344001189788
 20
535.8612158375697
 30
0.0
 11
64.96205426757876
 21
535.8612158375697
 31
0.0
  0
LINE
  5
2D5
330
1F
100
AcDbEntity
  8
0
  6
Continuous
 62
     7
370
    25
100
AcDbLine
 10
255.7239286750788
 20
535.2613072204697
 30
0.0
 11
64.97252571147874
 21
535.2613072204697
 31
0.0
  0
LINE
  5
2D6
330
1F
100
AcDbEntity
  8
0
  6
Continuous
 62
     7
370
    25
100
AcDbLine
 10
255.7134572312788
 20
534.6613986033697
 30
0.0
 11
64.98299715527878
 21
534.6613986033697
 31
0.0
  0
LINE
  5
2D7
330
1F
100
AcDbEntity
  8
0
  6
Continuous
 62
     7
370
    25
100
AcDbLine
 10
255.7029857873788
 20
534.0614899862696
 30
0.0
 11
64.99346859917875
 21
534.0614899862696
 31
0.0
  0
LINE
  5
2D8
330
1F
100
AcDbEntity
  8
0
  6
Continuous
 62
     7
370
    25
100
AcDbLine
 10
255.6925143435788
 20
533.4615813691696
 30
0.0
 11
65.00394004307873
 21
533.4615813691696
 31
0.0
  0
LINE
  5
2D9
330
1F
100
AcDbEntity
  8
0
  6
Continuous
 62
     7
370
    25
100
AcDbLine
 10
255.2426384063788
 20
533.9615813691696
 30
0.0
 11
65.45381598027882
 21
533.9615813691696
 31
0.0
  0
LINE
  5
2DA
330
1F
100
AcDbEntity
  8
0
  6
Continuous
 62
     7
370
    25
100
AcDbLine
 10
255.6820428996788
 20
532.8616727520696
 30
0.0
 11
65.01441148687877
 21
532.8616727520696
 31
0.0
  0
LINE
  5
2DB
330
1F
100
AcDbEntity
  8
0
  6
Continuous
 62
     7
370
    25
100
AcDbLine
 10
255.2321669624788
 20
533.3616727520696
 30
0.0
 11
65.46428742407875
 21
533.3616727520696
 31
0.0
  0
LINE
  5
2DC
330
1F
100
AcDbEntity
  8
0
  6
Continuous
 62
     7
370
    25
100
AcDbLine
 10
255.6715714557788
 20
532.2617641349697
 30
0.0
 11
65.02488293077874
 21
532.2617641349697
 31
0.0
  0
LINE
  5
2DD
330
1F
100
AcDbEntity
  8
0
  6
Continuous
 62
     7
370
    25
100
AcDbLine
 10
255.2216955185788
 20
532.7617641349697
 30
0.0
 11
65.47475886797872
 21
532.7617641349697
 31
0.0
  0
LINE
  5
2DE
330
1F
100
AcDbEntity
  8
0
  6
Continuous
 62
     7
370
    25
100
AcDbLine
 10
255.2085866738788
 20
532.0107589229697
 30
0.0
 11
65.48786771267874
 21
532.0107589229697
 31
0.0
  0
LINE
  5
2DF
330
1F
100
AcDbEntity
  8
0
  6
Continuous
 62
     8
370
    25
100
AcDbLine
 10
93.44822719327874
 20
238.6107589229697
 30
0.0
 11
93.44822719327874
 21
240.4107589230697
 31
0.0
  0
LINE
  5
2E0
330
1F
100
AcDbEntity
  8
0
  6
Continuous
 62
     8
370
    25
100
AcDbLine
 10
93.44822719327874
 20
242.4107589230697
 30
0.0
 11
93.44822719327874
 21
247.9107589230697
 31
0.0
  0
LINE
  5
2E1
330
1F
100
AcDbEntity
  8
0
  6
Continuous
 62
     8
370
    25
100
AcDbLine
 10
92.84822719327872
 20
220.6107589198697
 30
0.0
 11
92.84822719327872
 21
220.9229998788697
 31
0.0
  0
LINE
  5
2E2
330
1F
100
AcDbEntity
  8
0
  6
Continuous
 62
     8
370
    25
100
AcDbLine
 10
92.84822719327872
 20
238.6107589229697
 30
0.0
 11
92.84822719327872
 21
240.4107589230697
 31
0.0
  0
LINE
  5
2E3
330
1F
100
AcDbEntity
  8
0
  6
Continuous
 62
     8
370
    25
100
AcDbLine
 10
92.84822719327872
 20
242.4107589230697
 30
0.0
 11
92.84822719327872
 21
247.9107589230697
 31
0.0
  0
LINE
  5
2E4
330
1F
100
AcDbEntity
  8
0
  6
Continuous
 62
     8
370
    25
100
AcDbLine
 10
-138.2181446565212
 20
591.2192547053696
 30
0.0
 11
458.9145990430789
 21
591.2192547053696
 31
0.0
  0
LINE
  5
2E5
330
1F
100
AcDbEntity
  8
0
  6
Continuous
 62
     8
370
    25
100
AcDbLine
 10
-138.2028024625212
 20
591.7119154355696
 30
0.0
 11
458.8992568491788
 21
591.7119154355696
 31
0.0
  0
LINE
  5
2E6
330
1F
100
AcDbEntity
  8
0
  6
Continuous
 62
     8
370
    25
100
AcDbLine
 10
57.34923617317872
 20
571.5112629047696
 30
0.0
 11
263.3472182133788
 21
571.5112629047696
 31
0.0
  0
LINE
  5
2E7
330
1F
100
AcDbEntity
  8
0
  6
Continuous
 62
     8
370
    25
100
AcDbLine
 10
262.3482271932787
 20
570.5112634130696
 30
0.0
 11
58.34822719327872
 21
570.5112634130696
 31
0.0
  0
LINE
  5
2E8
330
1F
100
AcDbEntity
  8
0
  6
Continuous
 62
     8
370
    25
100
AcDbLine
 10
253.3482271932787
 20
479.5107589229697
 30
0.0
 11
67.34822719327872
 21
479.5107589229697
 31
0.0
  0
LINE
  5
2E9
330
1F
100
AcDbEntity
  8
0
  6
Continuous
 62
     8
370
    25
100
AcDbLine
 10
253.3482271932787
 20
409.5107589229697
 30
0.0
 11
67.34822719327872
 21
409.5107589229697
 31
0.0
  0
LINE
  5
2EA
330
1F
100
AcDbEntity
  8
0
  6
Continuous
 62
     8
370
    25
100
AcDbLine
 10
108.0204935317788
 20
412.0456584196696
 30
0.0
 11
100.9530894273788
 21
412.0456584196696
 31
0.0
  0
LINE
  5
2EB
330
1F
100
AcDbEntity
  8
0
  6
Continuous
 62
     8
370
    25
100
AcDbLine
 10
124.2231725717787
 20
412.0456584196696
 30
0.0
 11
120.0449725193788
 21
412.0456584196696
 31
0.0
  0
LINE
  5
2EC
330
1F
100
AcDbEntity
  8
0
  6
Continuous
 62
     8
370
    25
100
AcDbLine
 10
136.6839809731788
 20
412.0456584196696
 30
0.0
 11
132.0621240920788
 21
412.0456584196696
 31
0.0
  0
LINE
  5
2ED
330
1F
100
AcDbEntity
  8
0
  6
Continuous
 62
     8
370
    25
100
AcDbLine
 10
137.7189783415788
 20
412.0456584196696
 30
0.0
 11
136.6839809731788
 21
412.0456584196696
 31
0.0
  0
LINE
  5
2EE
330
1F
100
AcDbEntity
  8
0
  6
Continuous
 62
     8
370
    25
100
AcDbLine
 10
111.1017550122788
 20
412.0456584196696
 30
0.0
 11
108.0204935317788
 21
412.0456584196696
 31
0.0
  0
LINE
  5
2EF
330
1F
100
AcDbEntity
  8
0
  6
Continuous
 62
     8
370
    25
100
AcDbLine
 10
175.5748539384788
 20
412.0456584196696
 30
0.0
 11
175.3482271932787
 21
412.0456584196696
 31
0.0
  0
LINE
  5
2F0
330
1F
100
AcDbEntity
  8
0
  6
Continuous
 62
     8
370
    25
100
AcDbLine
 10
176.6098513068788
 20
412.0456584196696
 30
0.0
 11
175.5748539384788
 21
412.0456584196696
 31
0.0
  0
LINE
  5
2F1
330
1F
100
AcDbEntity
  8
0
  6
Continuous
 62
     8
370
    25
100
AcDbLine
 10
139.8659614885788
 20
412.0456584196696
 30
0.0
 11
137.7189783415788
 21
412.0456584196696
 31
0.0
  0
LINE
  5
2F2
330
1F
100
AcDbEntity
  8
0
  6
Continuous
 62
     8
370
    25
100
AcDbLine
 10
140.9009588569787
 20
412.0456584196696
 30
0.0
 11
139.8659614885788
 21
412.0456584196696
 31
0.0
  0
LINE
  5
2F3
330
1F
100
AcDbEntity
  8
0
  6
Continuous
 62
     8
370
    25
100
AcDbLine
 10
193.5840777627787
 20
412.0456584196696
 30
0.0
 11
190.0448801493787
 21
412.0456584196696
 31
0.0
  0
LINE
  5
2F4
330
1F
100
AcDbEntity
  8
0
  6
Continuous
 62
     8
370
    25
100
AcDbLine
 10
108.0204935317788
 20
482.0456584196697
 30
0.0
 11
100.9530894273788
 21
482.0456584196697
 31
0.0
  0
LINE
  5
2F5
330
1F
100
AcDbEntity
  8
0
  6
Continuous
 62
     8
370
    25
100
AcDbLine
 10
124.2231725717787
 20
482.0456584196697
 30
0.0
 11
120.0449725193788
 21
482.0456584196697
 31
0.0
  0
LINE
  5
2F6
330
1F
100
AcDbEntity
  8
0
  6
Continuous
 62
     8
370
    25
100
AcDbLine
 10
136.6839809731788
 20
482.0456584196697
 30
0.0
 11
132.0621240920788
 21
482.0456584196697
 31
0.0
  0
LINE
  5
2F7
330
1F
100
AcDbEntity
  8
0
  6
Continuous
 62
     8
370
    25
100
AcDbLine
 10
137.7189783415788
 20
482.0456584196697
 30
0.0
 11
136.6839809731788
 21
482.0456584196697
 31
0.0
  0
LINE
  5
2F8
330
1F
100
AcDbEntity
  8
0
  6
Continuous
 62
     8
370
    25
100
AcDbLine
 10
111.1017550122788
 20
482.0456584196697
 30
0.0
 11
108.0204935317788
 21
482.0456584196697
 31
0.0
  0
LINE
  5
2F9
330
1F
100
AcDbEntity
  8
0
  6
Continuous
 62
     8
370
    25
100
AcDbLine
 10
175.5748539384788
 20
482.0456584196697
 30
0.0
 11
175.3482271932787
 21
482.0456584196697
 31
0.0
  0
LINE
  5
2FA
330
1F
100
AcDbEntity
  8
0
  6
Continuous
 62
     8
370
    25
100
AcDbLine
 10
176.6098513068788
 20
482.0456584196697
 30
0.0
 11
175.5748539384788
 21
482.0456584196697
 31
0.0
  0
LINE
  5
2FB
330
1F
100
AcDbEntity
  8
0
  6
Continuous
 62
     8
370
    25
100
AcDbLine
 10
139.8659614885788
 20
482.0456584196697
 30
0.0
 11
137.7189783415788
 21
482.0456584196697
 31
0.0
  0
LINE
  5
2FC
330
1F
100
AcDbEntity
  8
0
  6
Continuous
 62
     8
370
    25
100
AcDbLine
 10
140.9009588569787
 20
482.0456584196697
 30
0.0
 11
139.8659614885788
 21
482.0456584196697
 31
0.0
  0
LINE
  5
2FD
330
1F
100
AcDbEntity
  8
0
  6
Continuous
 62
     8
370
    25
100
AcDbLine
 10
193.5840777627787
 20
482.0456584196697
 30
0.0
 11
190.0448801493787
 21
482.0456584196697
 31
0.0
  0
LINE
  5
2FE
330
1F
100
AcDbEntity
  8
0
  6
Continuous
 62
     8
370
    25
100
AcDbLine
 10
132.0621240920788
 20
482.0456584196697
 30
0.0
 11
127.1644830591788
 21
482.0456584196697
 31
0.0
  0
LINE
  5
2FF
330
1F
100
AcDbEntity
  8
0
  6
Continuous
 62
     8
370
    25
100
AcDbLine
 10
186.8628996340788
 20
482.0456584196697
 30
0.0
 11
179.7954955296788
 21
482.0456584196697
 31
0.0
  0
LINE
  5
300
330
1F
100
AcDbEntity
  8
0
  6
Continuous
 62
     8
370
    25
100
AcDbLine
 10
151.1540071841788
 20
482.0456584196697
 30
0.0
 11
144.0866030797788
 21
482.0456584196697
 31
0.0
  0
LINE
  5
301
330
1F
100
AcDbEntity
  8
0
  6
Continuous
 62
     8
370
    25
100
AcDbLine
 10
215.1471708815787
 20
482.0456584196697
 30
0.0
 11
209.5962963006788
 21
482.0456584196697
 31
0.0
  0
LINE
  5
302
330
1F
100
AcDbEntity
  8
0
  6
Continuous
 62
     8
370
    25
100
AcDbLine
 10
190.0448801493787
 20
482.0456584196697
 30
0.0
 11
186.8628996340788
 21
482.0456584196697
 31
0.0
  0
LINE
  5
303
330
1F
100
AcDbEntity
  8
0
  6
Continuous
 62
     8
370
    25
100
AcDbLine
 10
199.6164844987787
 20
482.0456584196697
 30
0.0
 11
196.4681877870788
 21
482.0456584196697
 31
0.0
  0
LINE
  5
304
330
1F
100
AcDbEntity
  8
0
  6
Continuous
 62
     8
370
    25
100
AcDbLine
 10
200.6514818671787
 20
482.0456584196697
 30
0.0
 11
199.6164844987787
 21
482.0456584196697
 31
0.0
  0
LINE
  5
305
330
1F
100
AcDbEntity
  8
0
  6
Continuous
 62
     8
370
    25
100
AcDbLine
 10
218.7083675908788
 20
482.0456584196697
 30
0.0
 11
215.1471708815787
 21
482.0456584196697
 31
0.0
  0
LINE
  5
306
330
1F
100
AcDbEntity
  8
0
  6
Continuous
 62
     8
370
    25
100
AcDbLine
 10
219.7433649592788
 20
482.0456584196697
 30
0.0
 11
218.7083675908788
 21
482.0456584196697
 31
0.0
  0
LINE
  5
307
330
1F
100
AcDbEntity
  8
0
  6
Continuous
 62
     8
370
    25
100
AcDbLine
 10
132.0621240920788
 20
412.0456584196696
 30
0.0
 11
127.1644830591788
 21
412.0456584196696
 31
0.0
  0
LINE
  5
308
330
1F
100
AcDbEntity
  8
0
  6
Continuous
 62
     8
370
    25
100
AcDbLine
 10
186.8628996340788
 20
412.0456584196696
 30
0.0
 11
179.7954955296788
 21
412.0456584196696
 31
0.0
  0
LINE
  5
309
330
1F
100
AcDbEntity
  8
0
  6
Continuous
 62
     8
370
    25
100
AcDbLine
 10
151.1540071841788
 20
412.0456584196696
 30
0.0
 11
144.0866030796788
 21
412.0456584196696
 31
0.0
  0
LINE
  5
30A
330
1F
100
AcDbEntity
  8
0
  6
Continuous
 62
     8
370
    25
100
AcDbLine
 10
215.1471708815787
 20
412.0456584196696
 30
0.0
 11
209.5962963006788
 21
412.0456584196696
 31
0.0
  0
LINE
  5
30B
330
1F
100
AcDbEntity
  8
0
  6
Continuous
 62
     8
370
    25
100
AcDbLine
 10
190.0448801493787
 20
412.0456584196696
 30
0.0
 11
186.8628996340788
 21
412.0456584196696
 31
0.0
  0
LINE
  5
30C
330
1F
100
AcDbEntity
  8
0
  6
Continuous
 62
     8
370
    25
100
AcDbLine
 10
199.6164844987787
 20
412.0456584196696
 30
0.0
 11
196.4681877870788
 21
412.0456584196696
 31
0.0
  0
LINE
  5
30D
330
1F
100
AcDbEntity
  8
0
  6
Continuous
 62
     8
370
    25
100
AcDbLine
 10
200.6514818671787
 20
412.0456584196696
 30
0.0
 11
199.6164844987787
 21
412.0456584196696
 31
0.0
  0
LINE
  5
30E
330
1F
100
AcDbEntity
  8
0
  6
Continuous
 62
     8
370
    25
100
AcDbLine
 10
218.7083675908788
 20
412.0456584196696
 30
0.0
 11
215.1471708815787
 21
412.0456584196696
 31
0.0
  0
LINE
  5
30F
330
1F
100
AcDbEntity
  8
0
  6
Continuous
 62
     8
370
    25
100
AcDbLine
 10
219.7433649592788
 20
412.0456584196696
 30
0.0
 11
218.7083675908788
 21
412.0456584196696
 31
0.0
  0
LINE
  5
310
330
1F
100
AcDbEntity
  8
0
  6
Continuous
 62
     8
370
    25
100
AcDbLine
 10
220.7122653120788
 20
243.5205613166697
 30
0.0
 11
255.8149709665788
 21
243.5205613166697
 31
0.0
  0
LINE
  5
311
330
1F
100
AcDbEntity
  8
0
  6
Continuous
 62
     8
370
    25
100
AcDbLine
 10
64.88148341997874
 20
243.5205613166697
 30
0.0
 11
92.34822719327872
 21
243.5205613166697
 31
0.0
  0
LINE
  5
312
330
1F
100
AcDbEntity
  8
0
  6
Continuous
 62
     8
370
    25
100
AcDbLine
 10
93.94822719327874
 20
243.5205613166697
 30
0.0
 11
220.7122653120788
 21
243.5205613166697
 31
0.0
  0
LINE
  5
313
330
1F
100
AcDbEntity
  8
0
  6
Continuous
 62
     8
370
    25
100
AcDbLine
 10
220.7056441725788
 20
244.1204699337697
 30
0.0
 11
255.8044995227788
 21
244.1204699337697
 31
0.0
  0
LINE
  5
314
330
1F
100
AcDbEntity
  8
0
  6
Continuous
 62
     8
370
    25
100
AcDbLine
 10
64.89195486377878
 20
244.1204699337697
 30
0.0
 11
92.34822719327872
 21
244.1204699337697
 31
0.0
  0
LINE
  5
315
330
1F
100
AcDbEntity
  8
0
  6
Continuous
 62
     8
370
    25
100
AcDbLine
 10
93.94822719327874
 20
244.1204699337697
 30
0.0
 11
220.7056441725788
 21
244.1204699337697
 31
0.0
  0
LINE
  5
316
330
1F
100
AcDbEntity
  8
0
  6
Continuous
 62
     8
370
    25
100
AcDbLine
 10
220.6990230329787
 20
244.7203785508697
 30
0.0
 11
255.7940280788788
 21
244.7203785508697
 31
0.0
  0
LINE
  5
317
330
1F
100
AcDbEntity
  8
0
  6
Continuous
 62
     8
370
    25
100
AcDbLine
 10
64.90242630767875
 20
244.7203785508697
 30
0.0
 11
92.34822719327872
 21
244.7203785508697
 31
0.0
  0
LINE
  5
318
330
1F
100
AcDbEntity
  8
0
  6
Continuous
 62
     8
370
    25
100
AcDbLine
 10
93.94822719327874
 20
244.7203785508697
 30
0.0
 11
220.6990230329787
 21
244.7203785508697
 31
0.0
  0
LINE
  5
319
330
1F
100
AcDbEntity
  8
0
  6
Continuous
 62
     8
370
    25
100
AcDbLine
 10
220.6924018933788
 20
245.3202871679697
 30
0.0
 11
255.7835566350788
 21
245.3202871679697
 31
0.0
  0
LINE
  5
31A
330
1F
100
AcDbEntity
  8
0
  6
Continuous
 62
     8
370
    25
100
AcDbLine
 10
64.91289775157873
 20
245.3202871679697
 30
0.0
 11
92.34822719327872
 21
245.3202871679697
 31
0.0
  0
LINE
  5
31B
330
1F
100
AcDbEntity
  8
0
  6
Continuous
 62
     8
370
    25
100
AcDbLine
 10
93.94822719327874
 20
245.3202871679697
 30
0.0
 11
220.6924018933788
 21
245.3202871679697
 31
0.0
  0
LINE
  5
31C
330
1F
100
AcDbEntity
  8
0
  6
Continuous
 62
     8
370
    25
100
AcDbLine
 10
220.6857807537788
 20
245.9201957850697
 30
0.0
 11
255.7730851911788
 21
245.9201957850697
 31
0.0
  0
LINE
  5
31D
330
1F
100
AcDbEntity
  8
0
  6
Continuous
 62
     8
370
    25
100
AcDbLine
 10
64.92336919537877
 20
245.9201957850697
 30
0.0
 11
92.34822719327872
 21
245.9201957850697
 31
0.0
  0
LINE
  5
31E
330
1F
100
AcDbEntity
  8
0
  6
Continuous
 62
     8
370
    25
100
AcDbLine
 10
93.94822719327874
 20
245.9201957850697
 30
0.0
 11
220.6857807537788
 21
245.9201957850697
 31
0.0
  0
LINE
  5
31F
330
1F
100
AcDbEntity
  8
0
  6
Continuous
 62
     8
370
    25
100
AcDbLine
 10
220.6791596141787
 20
246.5201044021697
 30
0.0
 11
255.7626137472788
 21
246.5201044021697
 31
0.0
  0
LINE
  5
320
330
1F
100
AcDbEntity
  8
0
  6
Continuous
 62
     8
370
    25
100
AcDbLine
 10
64.93384063927874
 20
246.5201044021697
 30
0.0
 11
92.34822719327872
 21
246.5201044021697
 31
0.0
  0
LINE
  5
321
330
1F
100
AcDbEntity
  8
0
  6
Continuous
 62
     8
370
    25
100
AcDbLine
 10
93.94822719327874
 20
246.5201044021697
 30
0.0
 11
220.6791596141787
 21
246.5201044021697
 31
0.0
  0
LINE
  5
322
330
1F
100
AcDbEntity
  8
0
  6
Continuous
 62
     8
370
    25
100
AcDbLine
 10
220.6725384745788
 20
247.1200130192697
 30
0.0
 11
255.7521423034788
 21
247.1200130192697
 31
0.0
  0
LINE
  5
323
330
1F
100
AcDbEntity
  8
0
  6
Continuous
 62
     8
370
    25
100
AcDbLine
 10
64.94431208317872
 20
247.1200130192697
 30
0.0
 11
92.34822719327872
 21
247.1200130192697
 31
0.0
  0
LINE
  5
324
330
1F
100
AcDbEntity
  8
0
  6
Continuous
 62
     8
370
    25
100
AcDbLine
 10
93.94822719327874
 20
247.1200130192697
 30
0.0
 11
220.6725384745788
 21
247.1200130192697
 31
0.0
  0
LINE
  5
325
330
1F
100
AcDbEntity
  8
0
  6
Continuous
 62
     8
370
    25
100
AcDbLine
 10
220.6659173349788
 20
247.7199216363697
 30
0.0
 11
255.7416708595788
 21
247.7199216363697
 31
0.0
  0
LINE
  5
326
330
1F
100
AcDbEntity
  8
0
  6
Continuous
 62
     8
370
    25
100
AcDbLine
 10
64.95478352697876
 20
247.7199216363697
 30
0.0
 11
92.34822719327872
 21
247.7199216363697
 31
0.0
  0
LINE
  5
327
330
1F
100
AcDbEntity
  8
0
  6
Continuous
 62
     8
370
    25
100
AcDbLine
 10
93.94822719327874
 20
247.7199216363697
 30
0.0
 11
220.6659173349788
 21
247.7199216363697
 31
0.0
  0
LINE
  5
328
330
1F
100
AcDbEntity
  8
0
  6
Continuous
 62
     8
370
    25
100
AcDbLine
 10
220.6592961953787
 20
248.3198302534697
 30
0.0
 11
255.7311994156788
 21
248.3198302534697
 31
0.0
  0
LINE
  5
329
330
1F
100
AcDbEntity
  8
0
  6
Continuous
 62
     8
370
    25
100
AcDbLine
 10
64.96525497087873
 20
248.3198302534697
 30
0.0
 11
220.6592961953787
 21
248.3198302534697
 31
0.0
  0
LINE
  5
32A
330
1F
100
AcDbEntity
  8
0
  6
Continuous
 62
     8
370
    25
100
AcDbLine
 10
220.6526750558787
 20
248.9197388705697
 30
0.0
 11
255.7207279718788
 21
248.9197388705697
 31
0.0
  0
LINE
  5
32B
330
1F
100
AcDbEntity
  8
0
  6
Continuous
 62
     8
370
    25
100
AcDbLine
 10
64.97572641467877
 20
248.9197388705697
 30
0.0
 11
220.6526750558787
 21
248.9197388705697
 31
0.0
  0
LINE
  5
32C
330
1F
100
AcDbEntity
  8
0
  6
Continuous
 62
     8
370
    25
100
AcDbLine
 10
220.6460539162788
 20
249.5196474875697
 30
0.0
 11
255.7102565279788
 21
249.5196474875697
 31
0.0
  0
LINE
  5
32D
330
1F
100
AcDbEntity
  8
0
  6
Continuous
 62
     8
370
    25
100
AcDbLine
 10
64.98619785857875
 20
249.5196474875697
 30
0.0
 11
220.6460539162788
 21
249.5196474875697
 31
0.0
  0
LINE
  5
32E
330
1F
100
AcDbEntity
  8
0
  6
Continuous
 62
     8
370
    25
100
AcDbLine
 10
220.6394327766787
 20
250.1195561046697
 30
0.0
 11
255.6997850841788
 21
250.1195561046697
 31
0.0
  0
LINE
  5
32F
330
1F
100
AcDbEntity
  8
0
  6
Continuous
 62
     8
370
    25
100
AcDbLine
 10
64.99666930247872
 20
250.1195561046697
 30
0.0
 11
220.6394327766787
 21
250.1195561046697
 31
0.0
  0
LINE
  5
330
330
1F
100
AcDbEntity
  8
0
  6
Continuous
 62
     8
370
    25
100
AcDbLine
 10
255.8149709665788
 20
538.9009565293696
 30
0.0
 11
64.88148341997874
 21
538.9009565293696
 31
0.0
  0
LINE
  5
331
330
1F
100
AcDbEntity
  8
0
  6
Continuous
 62
     8
370
    25
100
AcDbLine
 10
255.8044995227788
 20
538.3010479122697
 30
0.0
 11
64.89195486377878
 21
538.3010479122697
 31
0.0
  0
LINE
  5
332
330
1F
100
AcDbEntity
  8
0
  6
Continuous
 62
     8
370
    25
100
AcDbLine
 10
255.7940280788788
 20
537.7011392952697
 30
0.0
 11
64.90242630767875
 21
537.7011392952697
 31
0.0
  0
LINE
  5
333
330
1F
100
AcDbEntity
  8
0
  6
Continuous
 62
     8
370
    25
100
AcDbLine
 10
255.7835566350788
 20
537.1012306781697
 30
0.0
 11
64.91289775157873
 21
537.1012306781697
 31
0.0
  0
LINE
  5
334
330
1F
100
AcDbEntity
  8
0
  6
Continuous
 62
     8
370
    25
100
AcDbLine
 10
255.7730851911788
 20
536.5013220610697
 30
0.0
 11
64.92336919537877
 21
536.5013220610697
 31
0.0
  0
LINE
  5
335
330
1F
100
AcDbEntity
  8
0
  6
Continuous
 62
     8
370
    25
100
AcDbLine
 10
255.7626137472788
 20
535.9014134439697
 30
0.0
 11
64.93384063927874
 21
535.9014134439697
 31
0.0
  0
LINE
  5
336
330
1F
100
AcDbEntity
  8
0
  6
Continuous
 62
     8
370
    25
100
AcDbLine
 10
255.7521423034788
 20
535.3015048268696
 30
0.0
 11
64.94431208317872
 21
535.3015048268696
 31
0.0
  0
LINE
  5
337
330
1F
100
AcDbEntity
  8
0
  6
Continuous
 62
     8
370
    25
100
AcDbLine
 10
255.7416708595788
 20
534.7015962097696
 30
0.0
 11
64.95478352697876
 21
534.7015962097696
 31
0.0
  0
LINE
  5
338
330
1F
100
AcDbEntity
  8
0
  6
Continuous
 62
     8
370
    25
100
AcDbLine
 10
255.7311994157787
 20
534.1016875926696
 30
0.0
 11
64.96525497087873
 21
534.1016875926696
 31
0.0
  0
LINE
  5
339
330
1F
100
AcDbEntity
  8
0
  6
Continuous
 62
     8
370
    25
100
AcDbLine
 10
255.7207279718788
 20
533.5017789755697
 30
0.0
 11
64.97572641467877
 21
533.5017789755697
 31
0.0
  0
LINE
  5
33A
330
1F
100
AcDbEntity
  8
0
  6
Continuous
 62
     8
370
    25
100
AcDbLine
 10
255.7102565279788
 20
532.9018703584696
 30
0.0
 11
64.98619785857875
 21
532.9018703584696
 31
0.0
  0
LINE
  5
33B
330
1F
100
AcDbEntity
  8
0
  6
Continuous
 62
     8
370
    25
100
AcDbLine
 10
255.6997850841788
 20
532.3019617413697
 30
0.0
 11
64.99666930247872
 21
532.3019617413697
 31
0.0
  0
LINE
  5
33C
330
1F
100
AcDbEntity
  8
FORMAT
370
    25
100
AcDbLine
 10
260.3482271932787
 20
238.6107589229697
 30
0.0
 11
260.3482271932787
 21
543.0107589229697
 31
0.0
  0
LINE
  5
33D
330
1F
100
AcDbEntity
  8
FORMAT
370
    25
100
AcDbLine
 10
60.34822719327872
 20
238.6107589229697
 30
0.0
 11
60.34822719327872
 21
541.5107589229697
 31
0.0
  0
ENDSEC
  0
SECTION
  2
OBJECTS
  0
DICTIONARY
  5
C
330
0
100
AcDbDictionary
281
     1
  3
ACAD_GROUP
350
D
  3
ACAD_LAYOUT
350
1A
  3
ACAD_MLINESTYLE
350
17
  3
ACAD_PLOTSETTINGS
350
19
  3
ACAD_PLOTSTYLENAME
350
E
  3
ACAD_SCALELIST
350
47
  3
APPDATA
350
360
  3
DWGPROPS
350
363
  0
DICTIONARY
  5
361
330
1F
100
AcDbDictionary
280
     1
281
     1
  3
DIM_BOUNDING_BOXES_V1
360
362
  0
DICTIONARY
  5
D
102
{ACAD_REACTORS
330
C
102
}
330
C
100
AcDbDictionary
281
     1
  0
DICTIONARY
  5
1A
102
{ACAD_REACTORS
330
C
102
}
330
C
100
AcDbDictionary
281
     1
  3
Layout1
350
1E
  3
Layout2
350
26
  3
Model
350
22
  0
DICTIONARY
  5
17
102
{ACAD_REACTORS
330
C
102
}
330
C
100
AcDbDictionary
281
     1
  3
Standard
350
18
  0
DICTIONARY
  5
19
102
{ACAD_REACTORS
330
C
102
}
330
C
100
AcDbDictionary
281
     1
  0
ACDBDICTIONARYWDFLT
  5
E
102
{ACAD_REACTORS
330
C
102
}
330
C
100
AcDbDictionary
281
     1
  3
Normal
350
F
100
AcDbDictionaryWithDefault
340
F
  0
DICTIONARY
  5
47
102
{ACAD_REACTORS
330
C
102
}
330
C
100
AcDbDictionary
281
     1
  3
A0
350
48
  3
A1
350
49
  3
A2
350
4A
  3
A3
350
4B
  3
A4
350
4C
  3
A5
350
4D
  3
A6
350
4E
  3
A7
350
4F
  3
A8
350
50
  3
A9
350
51
  3
B0
350
52
  3
B1
350
53
  3
B2
350
54
  3
B3
350
55
  3
B4
350
56
  3
B5
350
57
  3
B6
350
58
  3
B7
350
59
  3
B8
350
5A
  3
B9
350
5B
  3
C0
350
5C
  3
C1
350
5D
  3
C2
350
5E
  3
C3
350
5F
  3
C4
350
60
  3
C5
350
61
  3
C6
350
62
  3
C7
350
63
  3
C8
350
64
  3
C9
350
65
  3
D0
350
66
  3
D1
350
67
  3
D2
350
68
  0
DICTIONARY
  5
360
102
{ACAD_REACTORS
330
C
102
}
330
C
100
AcDbDictionary
281
     1
  0
XRECORD
  5
363
102
{ACAD_REACTORS
330
C
102
}
330
C
100
AcDbXrecord
280
     1
  1
DWGPROPS COOKIE
  2

  3

  4

  6

  7

  8
eakin
  9

300
=
301
=
302
=
303
=
304
=
305
=
306
=
307
=
308
=
309
=
 40
0.0
 41
2459935.433370254
 42
2459935.592997766
  1

 90
        0
  0
DICTIONARY
  5
362
102
{ACAD_REACTORS
330
361
102
}
330
361
100
AcDbDictionary
281
     1
  0
LAYOUT
  5
1E
102
{ACAD_REACTORS
330
1A
102
}
330
1A
100
AcDbPlotSettings
  1

  2
none_device
  4

  6

 40
0.0
 41
0.0
 42
0.0
 43
0.0
 44
0.0
 45
0.0
 46
0.0
 47
0.0
 48
0.0
 49
0.0
140
0.0
141
0.0
142
1.0
143
1.0
 70
   688
 72
     1
 73
     0
 74
     5
  7

 75
    16
147
1.0
148
0.0
149
0.0
100
AcDbLayout
  1
Layout1
 70
     1
 71
     1
 10
0.0
 20
0.0
 11
420.0
 21
297.0
 12
0.0
 22
0.0
 32
0.0
 14
1.000000000000000E+20
 24
1.000000000000000E+20
 34
1.000000000000000E+20
 15
-1.000000000000000E+20
 25
-1.000000000000000E+20
 35
-1.000000000000000E+20
146
0.0
 13
0.0
 23
0.0
 33
0.0
 16
1.0
 26
0.0
 36
0.0
 17
0.0
 27
1.0
 37
0.0
 76
     0
330
1B
  0
LAYOUT
  5
26
102
{ACAD_REACTORS
330
1A
102
}
330
1A
100
AcDbPlotSettings
  1

  2
none_device
  4

  6

 40
0.0
 41
0.0
 42
0.0
 43
0.0
 44
0.0
 45
0.0
 46
0.0
 47
0.0
 48
0.0
 49
0.0
140
0.0
141
0.0
142
1.0
143
1.0
 70
   688
 72
     1
 73
     0
 74
     5
  7

 75
    16
147
1.0
148
0.0
149
0.0
100
AcDbLayout
  1
Layout2
 70
     1
 71
     2
 10
0.0
 20
0.0
 11
0.0
 21
0.0
 12
0.0
 22
0.0
 32
0.0
 14
0.0
 24
0.0
 34
0.0
 15
0.0
 25
0.0
 35
0.0
146
0.0
 13
0.0
 23
0.0
 33
0.0
 16
1.0
 26
0.0
 36
0.0
 17
0.0
 27
1.0
 37
0.0
 76
     0
330
23
  0
LAYOUT
  5
22
102
{ACAD_REACTORS
330
1A
102
}
330
1A
100
AcDbPlotSettings
  1

  2
none_device
  4
Letter_(8.50_x_11.00_Inches)
  6

 40
6.35
 41
6.35
 42
6.35000508
 43
6.35000508
 44
215.9
 45
279.4
 46
0.0
 47
0.0
 48
0.0
 49
0.0
140
0.0
141
0.0
142
1.0
143
1.0
 70
  1712
 72
     1
 73
     0
 74
     0
  7

 75
     0
147
1.0
148
0.0
149
0.0
100
AcDbLayout
  1
Model
 70
     1
 71
     0
 10
0.0
 20
0.0
 11
420.0
 21
297.0
 12
0.0
 22
0.0
 32
0.0
 14
-336.6517728067213
 24
73.41075892266966
 34
0.0
 15
459.1149660837783
 25
737.0107589229697
 35
0.0
146
0.0
 13
0.0
 23
0.0
 33
0.0
 16
1.0
 26
0.0
 36
0.0
 17
0.0
 27
1.0
 37
0.0
 76
     0
330
1F
331
29
  0
MLINESTYLE
  5
18
102
{ACAD_REACTORS
330
17
102
}
330
17
100
AcDbMlineStyle
  2
Standard
 70
     0
  3

 62
   256
 51
90.0
 52
90.0
 71
     2
 49
0.5
 62
   256
  6
BYLAYER
 49
-0.5
 62
   256
  6
BYLAYER
  0
ACDBPLACEHOLDER
  5
F
102
{ACAD_REACTORS
330
E
102
}
330
E
  0
SCALE
  5
48
102
{ACAD_REACTORS
330
47
102
}
330
47
100
AcDbScale
 70
     0
300
1:1
140
1.0
141
1.0
290
     1
  0
SCALE
  5
49
102
{ACAD_REACTORS
330
47
102
}
330
47
100
AcDbScale
 70
     0
300
1:2
140
1.0
141
2.0
290
     0
  0
SCALE
  5
4A
102
{ACAD_REACTORS
330
47
102
}
330
47
100
AcDbScale
 70
     0
300
1:4
140
1.0
141
4.0
290
     0
  0
SCALE
  5
4B
102
{ACAD_REACTORS
330
47
102
}
330
47
100
AcDbScale
 70
     0
300
1:5
140
1.0
141
5.0
290
     0
  0
SCALE
  5
4C
102
{ACAD_REACTORS
330
47
102
}
330
47
100
AcDbScale
 70
     0
300
1:8
140
1.0
141
8.0
290
     0
  0
SCALE
  5
4D
102
{ACAD_REACTORS
330
47
102
}
330
47
100
AcDbScale
 70
     0
300
1:10
140
1.0
141
10.0
290
     0
  0
SCALE
  5
4E
102
{ACAD_REACTORS
330
47
102
}
330
47
100
AcDbScale
 70
     0
300
1:16
140
1.0
141
16.0
290
     0
  0
SCALE
  5
4F
102
{ACAD_REACTORS
330
47
102
}
330
47
100
AcDbScale
 70
     0
300
1:20
140
1.0
141
20.0
290
     0
  0
SCALE
  5
50
102
{ACAD_REACTORS
330
47
102
}
330
47
100
AcDbScale
 70
     0
300
1:30
140
1.0
141
30.0
290
     0
  0
SCALE
  5
51
102
{ACAD_REACTORS
330
47
102
}
330
47
100
AcDbScale
 70
     0
300
1:40
140
1.0
141
40.0
290
     0
  0
SCALE
  5
52
102
{ACAD_REACTORS
330
47
102
}
330
47
100
AcDbScale
 70
     0
300
1:50
140
1.0
141
50.0
290
     0
  0
SCALE
  5
53
102
{ACAD_REACTORS
330
47
102
}
330
47
100
AcDbScale
 70
     0
300
1:100
140
1.0
141
100.0
290
     0
  0
SCALE
  5
54
102
{ACAD_REACTORS
330
47
102
}
330
47
100
AcDbScale
 70
     0
300
2:1
140
2.0
141
1.0
290
     0
  0
SCALE
  5
55
102
{ACAD_REACTORS
330
47
102
}
330
47
100
AcDbScale
 70
     0
300
4:1
140
4.0
141
1.0
290
     0
  0
SCALE
  5
56
102
{ACAD_REACTORS
330
47
102
}
330
47
100
AcDbScale
 70
     0
300
8:1
140
8.0
141
1.0
290
     0
  0
SCALE
  5
57
102
{ACAD_REACTORS
330
47
102
}
330
47
100
AcDbScale
 70
     0
300
10:1
140
10.0
141
1.0
290
     0
  0
SCALE
  5
58
102
{ACAD_REACTORS
330
47
102
}
330
47
100
AcDbScale
 70
     0
300
100:1
140
100.0
141
1.0
290
     0
  0
SCALE
  5
59
102
{ACAD_REACTORS
330
47
102
}
330
47
100
AcDbScale
 70
     0
300
1/128" = 1'-0"
140
0.0078125
141
12.0
290
     0
  0
SCALE
  5
5A
102
{ACAD_REACTORS
330
47
102
}
330
47
100
AcDbScale
 70
     0
300
1/64" = 1'-0"
140
0.015625
141
12.0
290
     0
  0
SCALE
  5
5B
102
{ACAD_REACTORS
330
47
102
}
330
47
100
AcDbScale
 70
     0
300
1/32" = 1'-0"
140
0.03125
141
12.0
290
     0
  0
SCALE
  5
5C
102
{ACAD_REACTORS
330
47
102
}
330
47
100
AcDbScale
 70
     0
300
1/16" = 1'-0"
140
0.0625
141
12.0
290
     0
  0
SCALE
  5
5D
102
{ACAD_REACTORS
330
47
102
}
330
47
100
AcDbScale
 70
     0
300
3/32" = 1'-0"
140
0.09375
141
12.0
290
     0
  0
SCALE
  5
5E
102
{ACAD_REACTORS
330
47
102
}
330
47
100
AcDbScale
 70
     0
300
1/8" = 1'-0"
140
0.125
141
12.0
290
     0
  0
SCALE
  5
5F
102
{ACAD_REACTORS
330
47
102
}
330
47
100
AcDbScale
 70
     0
300
3/16" = 1'-0"
140
0.1875
141
12.0
290
     0
  0
SCALE
  5
60
102
{ACAD_REACTORS
330
47
102
}
330
47
100
AcDbScale
 70
     0
300
1/4" = 1'-0"
140
0.25
141
12.0
290
     0
  0
SCALE
  5
61
102
{ACAD_REACTORS
330
47
102
}
330
47
100
AcDbScale
 70
     0
300
3/8" = 1'-0"
140
0.375
141
12.0
290
     0
  0
SCALE
  5
62
102
{ACAD_REACTORS
330
47
102
}
330
47
100
AcDbScale
 70
     0
300
1/2" = 1'-0"
140
0.5
141
12.0
290
     0
  0
SCALE
  5
63
102
{ACAD_REACTORS
330
47
102
}
330
47
100
AcDbScale
 70
     0
300
3/4" = 1'-0"
140
0.75
141
12.0
290
     0
  0
SCALE
  5
64
102
{ACAD_REACTORS
330
47
102
}
330
47
100
AcDbScale
 70
     0
300
1" = 1'-0"
140
1.0
141
12.0
290
     0
  0
SCALE
  5
65
102
{ACAD_REACTORS
330
47
102
}
330
47
100
AcDbScale
 70
     0
300
1-1/2" = 1'-0"
140
1.5
141
12.0
290
     0
  0
SCALE
  5
66
102
{ACAD_REACTORS
330
47
102
}
330
47
100
AcDbScale
 70
     0
300
3" = 1'-0"
140
3.0
141
12.0
290
     0
  0
SCALE
  5
67
102
{ACAD_REACTORS
330
47
102
}
330
47
100
AcDbScale
 70
     0
300
6" = 1'-0"
140
6.0
141
12.0
290
     0
  0
SCALE
  5
68
102
{ACAD_REACTORS
330
47
102
}
330
47
100
AcDbScale
 70
     0
300
1'-0" = 1'-0"
140
12.0
141
12.0
290
     0
  0
ENDSEC
  0
EOF
