  0
SECTION
  2
HEADER
  9
$ACADVER
  1
AC1015
  9
$ACADMAINTVER
 70
     6
  9
$DWGCODEPAGE
  3
ANSI_1254
  9
$INSBASE
 10
0.0
 20
0.0
 30
0.0
  9
$EXTMIN
 10
0.0
 20
0.0
 30
0.0
  9
$EXTMAX
 10
1189.0
 20
841.0
 30
0.0
  9
$LIMMIN
 10
0.0
 20
0.0
  9
$LIMMAX
 10
1189.0
 20
841.0
  9
$ORTHOMODE
 70
     0
  9
$REGENMODE
 70
     1
  9
$FILLMODE
 70
     1
  9
$QTEXTMODE
 70
     0
  9
$MIRRTEXT
 70
     1
  9
$LTSCALE
 40
1.0
  9
$ATTMODE
 70
     1
  9
$TEXTSIZE
 40
4.9388888889
  9
$TRACEWID
 40
1.0
  9
$TEXTSTYLE
  7
STANDARD
  9
$CLAYER
  8
0
  9
$CELTYPE
  6
ByLayer
  9
$CECOLOR
 62
   256
  9
$CELTSCALE
 40
1.0
  9
$DISPSILH
 70
     0
  9
$DIMSCALE
 40
1.0
  9
$DIMASZ
 40
3.65
  9
$DIMEXO
 40
0.5
  9
$DIMDLI
 40
3.75
  9
$DIMRND
 40
0.0
  9
$DIMDLE
 40
0.0
  9
$DIMEXE
 40
1.0
  9
$DIMTP
 40
0.0
  9
$DIMTM
 40
0.0
  9
$DIMTXT
 40
4.2333333333
  9
$DIMCEN
 40
2.5
  9
$DIMTSZ
 40
0.0
  9
$DIMTOL
 70
     0
  9
$DIMLIM
 70
     0
  9
$DIMTIH
 70
     1
  9
$DIMTOH
 70
     1
  9
$DIMSE1
 70
     0
  9
$DIMSE2
 70
     0
  9
$DIMTAD
 70
     1
  9
$DIMZIN
 70
     0
  9
$DIMBLK
  1

  9
$DIMASO
 70
     1
  9
$DIMSHO
 70
     1
  9
$DIMPOST
  1

  9
$DIMAPOST
  1

  9
$DIMALT
 70
     0
  9
$DIMALTD
 70
     3
  9
$DIMALTF
 40
0.0393700787
  9
$DIMLFAC
 40
1.0
  9
$DIMTOFL
 70
     1
  9
$DIMTVP
 40
0.0
  9
$DIMTIX
 70
     0
  9
$DIMSOXD
 70
     0
  9
$DIMSAH
 70
     0
  9
$DIMBLK1
  1

  9
$DIMBLK2
  1

  9
$DIMSTYLE
  2
ISO-25
  9
$DIMCLRD
 70
     0
  9
$DIMCLRE
 70
     0
  9
$DIMCLRT
 70
     0
  9
$DIMTFAC
 40
1.0
  9
$DIMGAP
 40
1.524
  9
$DIMJUST
 70
     0
  9
$DIMSD1
 70
     0
  9
$DIMSD2
 70
     0
  9
$DIMTOLJ
 70
     0
  9
$DIMTZIN
 70
     0
  9
$DIMALTZ
 70
     0
  9
$DIMALTTZ
 70
     0
  9
$DIMUPT
 70
     0
  9
$DIMDEC
 70
     2
  9
$DIMTDEC
 70
     2
  9
$DIMALTU
 70
     2
  9
$DIMALTTD
 70
     3
  9
$DIMTXSTY
  7
STANDARD
  9
$DIMAUNIT
 70
     0
  9
$DIMADEC
 70
     2
  9
$DIMALTRND
 40
0.0
  9
$DIMAZIN
 70
     0
  9
$DIMDSEP
 70
    44
  9
$DIMATFIT
 70
     3
  9
$DIMFRAC
 70
     0
  9
$DIMLDRBLK
  1

  9
$DIMLUNIT
 70
     2
  9
$DIMLWD
 70
    -2
  9
$DIMLWE
 70
    -2
  9
$DIMTMOVE
 70
     0
  9
$LUNITS
 70
     2
  9
$LUPREC
 70
     2
  9
$SKETCHINC
 40
1.0
  9
$FILLETRAD
 40
10.0
  9
$AUNITS
 70
     0
  9
$AUPREC
 70
     2
  9
$MENU
  1
.
  9
$ELEVATION
 40
0.0
  9
$PELEVATION
 40
0.0
  9
$THICKNESS
 40
0.0
  9
$LIMCHECK
 70
     0
  9
$CHAMFERA
 40
0.0
  9
$CHAMFERB
 40
0.0
  9
$CHAMFERC
 40
0.0
  9
$CHAMFERD
 40
0.0
  9
$SKPOLY
 70
     0
  9
$TDCREATE
 40
2459103.661631783
  9
$TDUCREATE
 40
2459103.536631783
  9
$TDUPDATE
 40
2459103.661632384
  9
$TDUUPDATE
 40
2459103.536632384
  9
$TDINDWG
 40
0.0000000116
  9
$TDUSRTIMER
 40
0.0000000116
  9
$USRTIMER
 70
     1
  9
$ANGBASE
 50
0.0
  9
$ANGDIR
 70
     0
  9
$PDMODE
 70
     0
  9
$PDSIZE
 40
-1.0
  9
$PLINEWID
 40
0.0
  9
$SPLFRAME
 70
     0
  9
$SPLINETYPE
 70
     6
  9
$SPLINESEGS
 70
     8
  9
$HANDSEED
  5
2C9
  9
$SURFTAB1
 70
     6
  9
$SURFTAB2
 70
     6
  9
$SURFTYPE
 70
     6
  9
$SURFU
 70
     6
  9
$SURFV
 70
     6
  9
$UCSBASE
  2

  9
$UCSNAME
  2

  9
$UCSORG
 10
0.0
 20
0.0
 30
0.0
  9
$UCSXDIR
 10
1.0
 20
0.0
 30
0.0
  9
$UCSYDIR
 10
0.0
 20
1.0
 30
0.0
  9
$UCSORTHOREF
  2

  9
$UCSORTHOVIEW
 70
     0
  9
$UCSORGTOP
 10
0.0
 20
0.0
 30
0.0
  9
$UCSORGBOTTOM
 10
0.0
 20
0.0
 30
0.0
  9
$UCSORGLEFT
 10
0.0
 20
0.0
 30
0.0
  9
$UCSORGRIGHT
 10
0.0
 20
0.0
 30
0.0
  9
$UCSORGFRONT
 10
0.0
 20
0.0
 30
0.0
  9
$UCSORGBACK
 10
0.0
 20
0.0
 30
0.0
  9
$PUCSBASE
  2

  9
$PUCSNAME
  2

  9
$PUCSORG
 10
0.0
 20
0.0
 30
0.0
  9
$PUCSXDIR
 10
1.0
 20
0.0
 30
0.0
  9
$PUCSYDIR
 10
0.0
 20
1.0
 30
0.0
  9
$PUCSORTHOREF
  2

  9
$PUCSORTHOVIEW
 70
     0
  9
$PUCSORGTOP
 10
0.0
 20
0.0
 30
0.0
  9
$PUCSORGBOTTOM
 10
0.0
 20
0.0
 30
0.0
  9
$PUCSORGLEFT
 10
0.0
 20
0.0
 30
0.0
  9
$PUCSORGRIGHT
 10
0.0
 20
0.0
 30
0.0
  9
$PUCSORGFRONT
 10
0.0
 20
0.0
 30
0.0
  9
$PUCSORGBACK
 10
0.0
 20
0.0
 30
0.0
  9
$USERI1
 70
     0
  9
$USERI2
 70
     0
  9
$USERI3
 70
     0
  9
$USERI4
 70
     0
  9
$USERI5
 70
     0
  9
$USERR1
 40
0.0
  9
$USERR2
 40
0.0
  9
$USERR3
 40
0.0
  9
$USERR4
 40
0.0
  9
$USERR5
 40
0.0
  9
$WORLDVIEW
 70
     1
  9
$SHADEDGE
 70
     3
  9
$SHADEDIF
 70
    70
  9
$TILEMODE
 70
     1
  9
$MAXACTVP
 70
    64
  9
$PINSBASE
 10
0.0
 20
0.0
 30
0.0
  9
$PLIMCHECK
 70
     0
  9
$PEXTMIN
 10
1.0000000000E+20
 20
1.0000000000E+20
 30
1.0000000000E+20
  9
$PEXTMAX
 10
-1.0000000000E+20
 20
-1.0000000000E+20
 30
-1.0000000000E+20
  9
$PLIMMIN
 10
0.0
 20
0.0
  9
$PLIMMAX
 10
420.0
 20
297.0
  9
$UNITMODE
 70
     0
  9
$VISRETAIN
 70
     1
  9
$PLINEGEN
 70
     0
  9
$PSLTSCALE
 70
     1
  9
$TREEDEPTH
 70
  3020
  9
$CMLSTYLE
  2
Standard
  9
$CMLJUST
 70
     0
  9
$CMLSCALE
 40
20.0
  9
$PROXYGRAPHICS
 70
     1
  9
$MEASUREMENT
 70
     1
  9
$CELWEIGHT
370
    -1
  9
$ENDCAPS
280
     0
  9
$JOINSTYLE
280
     0
  9
$LWDISPLAY
290
     1
  9
$INSUNITS
 70
     4
  9
$HYPERLINKBASE
  1

  9
$STYLESHEET
  1

  9
$XEDIT
290
     1
  9
$CEPSNTYPE
380
     0
  9
$PSTYLEMODE
290
     1
  9
$FINGERPRINTGUID
  2
{07cf9803-bde8-4948-ab6f-60b3edd6f8d3}
  9
$VERSIONGUID
  2
{FAEB1C32-E019-11D5-929B-00C0DF256EC4}
  9
$EXTNAMES
290
     1
  9
$PSVPSCALE
 40
0.0
  9
$OLESTARTUP
290
     0
  0
ENDSEC
  0
SECTION
  2
CLASSES
  0
CLASS
  1
ACDBDICTIONARYWDFLT
  2
AcDbDictionaryWithDefault
  3
ObjectDBX Classes
 90
        0
280
     0
281
     0
  0
CLASS
  1
VISUALSTYLE
  2
AcDbVisualStyle
  3
ObjectDBX Classes
 90
     4095
280
     0
281
     0
  0
CLASS
  1
MATERIAL
  2
AcDbMaterial
  3
ObjectDBX Classes
 90
     1153
280
     0
281
     0
  0
CLASS
  1
SCALE
  2
AcDbScale
  3
ObjectDBX Classes
 90
     1153
280
     0
281
     0
  0
CLASS
  1
TABLESTYLE
  2
AcDbTableStyle
  3
ObjectDBX Classes
 90
     4095
280
     0
281
     0
  0
CLASS
  1
MLEADERSTYLE
  2
AcDbMLeaderStyle
  3
ACDB_MLEADERSTYLE_CLASS
 90
     4095
280
     0
281
     0
  0
CLASS
  1
SUN
  2
AcDbSun
  3
SCENEOE
 90
     1153
280
     0
281
     0
  0
CLASS
  1
ACDBPLACEHOLDER
  2
AcDbPlaceHolder
  3
ObjectDBX Classes
 90
        0
280
     0
281
     0
  0
CLASS
  1
LAYOUT
  2
AcDbLayout
  3
ObjectDBX Classes
 90
        0
280
     0
281
     0
  0
ENDSEC
  0
SECTION
  2
TABLES
  0
TABLE
  2
VPORT
  5
8
330
0
100
AcDbSymbolTable
 70
     1
  0
VPORT
  5
29
330
8
100
AcDbSymbolTableRecord
100
AcDbViewportTableRecord
  2
*Active
 70
     0
 10
0.0
 20
0.0
 11
1.0
 21
1.0
 12
594.5
 22
420.5
 13
0.0
 23
0.0
 14
10.0
 24
10.0
 15
10.0
 25
10.0
 16
0.0
 26
0.0
 36
1.0
 17
0.0
 27
0.0
 37
0.0
 40
841.0
 41
1.4137931034
 42
50.0
 43
0.0
 44
0.0
 50
0.0
 51
0.0
 71
     0
 72
  2000
 73
     1
 74
     3
 75
     0
 76
     0
 77
     0
 78
     0
281
     0
 65
     1
110
0.0
120
0.0
130
0.0
111
1.0
121
0.0
131
0.0
112
0.0
122
1.0
132
0.0
 79
     0
146
0.0
  0
ENDTAB
  0
TABLE
  2
LTYPE
  5
5
330
0
100
AcDbSymbolTable
 70
     8
  0
LTYPE
  5
14
330
5
100
AcDbSymbolTableRecord
100
AcDbLinetypeTableRecord
  2
ByBlock
 70
     0
  3

 72
    65
 73
     0
 40
0.0
  0
LTYPE
  5
15
330
5
100
AcDbSymbolTableRecord
100
AcDbLinetypeTableRecord
  2
ByLayer
 70
     0
  3

 72
    65
 73
     0
 40
0.0
  0
LTYPE
  5
16
330
5
100
AcDbSymbolTableRecord
100
AcDbLinetypeTableRecord
  2
Continuous
 70
     0
  3
Solid line
 72
    65
 73
     0
 40
0.0
  0
LTYPE
  5
6E
330
5
100
AcDbSymbolTableRecord
100
AcDbLinetypeTableRecord
  2
SLD-Katı
 70
     0
  3
SolidWorks Line Style
 72
    65
 73
     0
 40
0.0
  0
LTYPE
  5
6F
330
5
100
AcDbSymbolTableRecord
100
AcDbLinetypeTableRecord
  2
SLD-Kesikli
 70
     0
  3
SolidWorks Line Style
 72
    65
 73
     2
 40
1.905
 49
1.27
 74
     0
 49
-0.635
 74
     0
  0
LTYPE
  5
70
330
5
100
AcDbSymbolTableRecord
100
AcDbLinetypeTableRecord
  2
SLD-Hayalet
 70
     0
  3
SolidWorks Line Style
 72
    65
 73
     6
 40
12.7
 49
6.35
 74
     0
 49
-1.27
 74
     0
 49
1.27
 74
     0
 49
-1.27
 74
     0
 49
1.27
 74
     0
 49
-1.27
 74
     0
  0
LTYPE
  5
71
330
5
100
AcDbSymbolTableRecord
100
AcDbLinetypeTableRecord
  2
SLD-Zincir
 70
     0
  3
SolidWorks Line Style
 72
    65
 73
     4
 40
10.16
 49
6.35
 74
     0
 49
-1.27
 74
     0
 49
1.27
 74
     0
 49
-1.27
 74
     0
  0
LTYPE
  5
72
330
5
100
AcDbSymbolTableRecord
100
AcDbLinetypeTableRecord
  2
SLD-Merkez
 70
     0
  3
SolidWorks Line Style
 72
    65
 73
     4
 40
19.05
 49
15.24
 74
     0
 49
-1.27
 74
     0
 49
1.27
 74
     0
 49
-1.27
 74
     0
  0
LTYPE
  5
73
330
5
100
AcDbSymbolTableRecord
100
AcDbLinetypeTableRecord
  2
SLD-Dikiş
 70
     0
  3
SolidWorks Line Style
 72
    65
 73
     2
 40
0.635
 49
0.0
 74
     0
 49
-0.635
 74
     0
  0
LTYPE
  5
74
330
5
100
AcDbSymbolTableRecord
100
AcDbLinetypeTableRecord
  2
SLD-İnce-Kalın-Zincir
 70
     0
  3
SolidWorks Line Style
 72
    65
 73
     4
 40
10.16
 49
6.35
 74
     0
 49
-1.27
 74
     0
 49
1.27
 74
     0
 49
-1.27
 74
     0
  0
ENDTAB
  0
TABLE
  2
LAYER
  5
2
330
0
100
AcDbSymbolTable
 70
     5
  0
LAYER
  5
10
330
2
100
AcDbSymbolTableRecord
100
AcDbLayerTableRecord
  2
0
 70
     0
 62
     7
  6
Continuous
370
    -3
390
F
  0
LAYER
  5
75
330
2
100
AcDbSymbolTableRecord
100
AcDbLayerTableRecord
  2
FORMAT
 70
     0
 62
     7
  6
SLD-Katı
370
    -3
390
F
  0
LAYER
  5
76
330
2
100
AcDbSymbolTableRecord
100
AcDbLayerTableRecord
  2
SLD-0
 70
     0
 62
   179
  6
SLD-Katı
370
    -3
390
F
  0
LAYER
  5
77
330
2
100
AcDbSymbolTableRecord
100
AcDbLayerTableRecord
  2
AAA_EKSEN
 70
     0
 62
     1
  6
SLD-Zincir
370
    -3
390
F
  0
LAYER
  5
78
330
2
100
AcDbSymbolTableRecord
100
AcDbLayerTableRecord
  2
03
 70
     0
 62
     3
  6
SLD-Kesikli
370
    -3
390
F
  0
ENDTAB
  0
TABLE
  2
STYLE
  5
3
330
0
100
AcDbSymbolTable
 70
     1
  0
STYLE
  5
11
330
3
100
AcDbSymbolTableRecord
100
AcDbTextStyleTableRecord
  2
STANDARD
 70
     0
 40
0.0
 41
1.0
 50
0.0
 71
     0
 42
4.9388888889
  3
GOTHIC.TTF
  4

1001
ACAD
1000
CENTURY GOTHIC
1071
       34
  0
ENDTAB
  0
TABLE
  2
VIEW
  5
6
330
0
100
AcDbSymbolTable
 70
     0
  0
ENDTAB
  0
TABLE
  2
UCS
  5
7
330
0
100
AcDbSymbolTable
 70
     0
  0
ENDTAB
  0
TABLE
  2
APPID
  5
9
330
0
100
AcDbSymbolTable
 70
     1
  0
APPID
  5
12
330
9
100
AcDbSymbolTableRecord
100
AcDbRegAppTableRecord
  2
ACAD
 70
     0
  0
ENDTAB
  0
TABLE
  2
DIMSTYLE
  5
A
330
0
100
AcDbSymbolTable
 70
     1
100
AcDbDimStyleTable
  0
DIMSTYLE
105
27
330
A
100
AcDbSymbolTableRecord
100
AcDbDimStyleTableRecord
  2
ISO-25
 70
     0
 41
2.5
 42
0.625
 43
3.75
 44
1.25
 73
     0
 74
     0
 77
     1
 78
     8
140
2.5
141
2.5
143
0.0393700787
147
0.625
171
     3
172
     1
178
     0
271
     2
272
     2
274
     3
278
    44
283
     0
284
     8
340
11
  0
ENDTAB
  0
TABLE
  2
BLOCK_RECORD
  5
1
330
0
100
AcDbSymbolTable
 70
     1
  0
BLOCK_RECORD
  5
1F
330
1
100
AcDbSymbolTableRecord
100
AcDbBlockTableRecord
  2
*Model_Space
340
22
  0
BLOCK_RECORD
  5
1B
330
1
100
AcDbSymbolTableRecord
100
AcDbBlockTableRecord
  2
*Paper_Space
340
1E
  0
BLOCK_RECORD
  5
23
330
1
100
AcDbSymbolTableRecord
100
AcDbBlockTableRecord
  2
*Paper_Space0
340
26
  0
ENDTAB
  0
ENDSEC
  0
SECTION
  2
BLOCKS
  0
BLOCK
  5
20
330
1F
100
AcDbEntity
  8
0
100
AcDbBlockBegin
  2
*Model_Space
 70
     0
 10
0.0
 20
0.0
 30
0.0
  3
*Model_Space
  1

  0
ENDBLK
  5
21
330
1F
100
AcDbEntity
  8
0
100
AcDbBlockEnd
  0
BLOCK
  5
1C
330
1B
100
AcDbEntity
 67
     1
  8
0
100
AcDbBlockBegin
  2
*Paper_Space
 70
     0
 10
0.0
 20
0.0
 30
0.0
  3
*Paper_Space
  1

  0
ENDBLK
  5
1D
330
1B
100
AcDbEntity
 67
     1
  8
0
100
AcDbBlockEnd
  0
BLOCK
  5
24
330
23
100
AcDbEntity
  8
0
100
AcDbBlockBegin
  2
*Paper_Space0
 70
     0
 10
0.0
 20
0.0
 30
0.0
  3
*Paper_Space0
  1

  0
ENDBLK
  5
25
330
23
100
AcDbEntity
  8
0
100
AcDbBlockEnd
  0
ENDSEC
  0
SECTION
  2
ENTITIES
  0
LINE
  5
79
330
1F
100
AcDbEntity
  8
0
  6
SLD-Katı
 62
     7
370
    25
100
AcDbLine
 10
122.9989973218
 20
644.6276245826
 30
0.0
 11
123.2910004765
 21
644.6276245826
 31
0.0
  0
LINE
  5
7A
330
1F
100
AcDbEntity
  8
0
  6
SLD-Katı
 62
     7
370
    25
100
AcDbLine
 10
123.0989841134
 20
652.6276258939
 30
0.0
 11
122.9989973218
 21
652.6276258939
 31
0.0
  0
LINE
  5
7B
330
1F
100
AcDbEntity
  8
0
  6
SLD-Katı
 62
     7
370
    25
100
AcDbLine
 10
123.2910004765
 20
644.6276245826
 30
0.0
 11
123.7237003953
 21
645.0603207761
 31
0.0
  0
LINE
  5
7C
330
1F
100
AcDbEntity
  8
0
  6
SLD-Katı
 62
     7
370
    25
100
AcDbLine
 10
1081.6742924363
 20
645.0603207761
 30
0.0
 11
1082.106992355
 21
644.6276245826
 31
0.0
  0
LINE
  5
7D
330
1F
100
AcDbEntity
  8
0
  6
SLD-Katı
 62
     7
370
    25
100
AcDbLine
 10
1082.3989955098
 20
652.6276258939
 30
0.0
 11
1082.2990087182
 21
652.6276258939
 31
0.0
  0
LINE
  5
7E
330
1F
100
AcDbEntity
  8
0
  6
SLD-Katı
 62
     7
370
    25
100
AcDbLine
 10
1082.106992355
 20
644.6276245826
 30
0.0
 11
1082.3989955098
 21
644.6276245826
 31
0.0
  0
LINE
  5
7F
330
1F
100
AcDbEntity
  8
0
  6
SLD-Katı
 62
     7
370
    25
100
AcDbLine
 10
122.9989973218
 20
529.8776230031
 30
0.0
 11
122.9989973218
 21
536.3650968486
 31
0.0
  0
LINE
  5
80
330
1F
100
AcDbEntity
  8
0
  6
SLD-Katı
 62
     7
370
    25
100
AcDbLine
 10
123.2910004765
 20
530.4094603473
 30
0.0
 11
123.2910004765
 21
535.7529124432
 31
0.0
  0
LINE
  5
81
330
1F
100
AcDbEntity
  8
0
  6
SLD-Katı
 62
     7
370
    25
100
AcDbLine
 10
1082.106992355
 20
535.7528528386
 30
0.0
 11
1082.106992355
 21
530.410495978
 31
0.0
  0
LINE
  5
82
330
1F
100
AcDbEntity
  8
0
  6
SLD-Katı
 62
     7
370
    25
100
AcDbLine
 10
1082.3989955098
 20
536.3767793589
 30
0.0
 11
1082.3989955098
 21
529.8776304537
 31
0.0
  0
LINE
  5
83
330
1F
100
AcDbEntity
  8
0
  6
SLD-Katı
 62
     7
370
    25
100
AcDbLine
 10
122.9989973218
 20
644.6276245826
 30
0.0
 11
122.9989973218
 21
649.5602442139
 31
0.0
  0
LINE
  5
84
330
1F
100
AcDbEntity
  8
0
  6
SLD-Katı
 62
     7
370
    25
100
AcDbLine
 10
122.9989973218
 20
652.3776253873
 30
0.0
 11
122.9989973218
 21
652.6276258939
 31
0.0
  0
LINE
  5
85
330
1F
100
AcDbEntity
  8
0
  6
SLD-Katı
 62
     7
370
    25
100
AcDbLine
 10
123.2910004765
 20
644.6276245826
 30
0.0
 11
123.2910004765
 21
649.2754010671
 31
0.0
  0
LINE
  5
86
330
1F
100
AcDbEntity
  8
0
  6
SLD-Katı
 62
     7
370
    25
100
AcDbLine
 10
1082.106992355
 20
649.2442650908
 30
0.0
 11
1082.106992355
 21
644.6276245826
 31
0.0
  0
LINE
  5
87
330
1F
100
AcDbEntity
  8
0
  6
SLD-Katı
 62
     7
370
    25
100
AcDbLine
 10
1082.3989955098
 20
652.6276258939
 30
0.0
 11
1082.3989955098
 21
652.3776253873
 31
0.0
  0
LINE
  5
88
330
1F
100
AcDbEntity
  8
0
  6
SLD-Katı
 62
     7
370
    25
100
AcDbLine
 10
1082.3989955098
 20
649.5404182189
 30
0.0
 11
1082.3989955098
 21
644.6276245826
 31
0.0
  0
LINE
  5
89
330
1F
100
AcDbEntity
  8
0
  6
SLD-Katı
 62
     7
370
    25
100
AcDbLine
 10
122.9989973218
 20
649.8776277715
 30
0.0
 11
126.999005428
 21
649.7820144707
 31
0.0
  0
LINE
  5
8A
330
1F
100
AcDbEntity
  8
0
  6
SLD-Katı
 62
     7
370
    25
100
AcDbLine
 10
122.9989973218
 20
649.8776277715
 30
0.0
 11
122.9989973218
 21
652.3776253873
 31
0.0
  0
LINE
  5
8B
330
1F
100
AcDbEntity
  8
0
  6
SLD-Katı
 62
     7
370
    25
100
AcDbLine
 10
122.9989973218
 20
652.3776253873
 30
0.0
 11
126.999005428
 21
652.3914573902
 31
0.0
  0
LINE
  5
8C
330
1F
100
AcDbEntity
  8
0
  6
SLD-Katı
 62
     7
370
    25
100
AcDbLine
 10
126.999005428
 20
649.7820144707
 30
0.0
 11
126.999005428
 21
652.3914573902
 31
0.0
  0
LINE
  5
8D
330
1F
100
AcDbEntity
  8
0
  6
SLD-Katı
 62
     7
370
    25
100
AcDbLine
 10
122.9989973218
 20
652.3776253873
 30
0.0
 11
126.041486612
 21
659.9838709646
 31
0.0
  0
LINE
  5
8E
330
1F
100
AcDbEntity
  8
0
  6
SLD-Katı
 62
     7
370
    25
100
AcDbLine
 10
126.041486612
 20
659.9838709646
 30
0.0
 11
126.999005428
 21
660.0173091703
 31
0.0
  0
LINE
  5
8F
330
1F
100
AcDbEntity
  8
0
  6
SLD-Katı
 62
     7
370
    25
100
AcDbLine
 10
126.999005428
 20
652.3914573902
 30
0.0
 11
126.999005428
 21
660.0173091703
 31
0.0
  0
LINE
  5
90
330
1F
100
AcDbEntity
  8
0
  6
SLD-Katı
 62
     7
370
    25
100
AcDbLine
 10
123.7237003953
 20
648.2361456567
 30
0.0
 11
126.999005428
 21
648.2242843324
 31
0.0
  0
SPLINE
  5
91
330
1F
100
AcDbEntity
  8
0
  6
SLD-Katı
 62
     7
370
    25
100
AcDbSpline
210
0.0
220
0.0
230
1.0
 70
     8
 71
     3
 72
    11
 73
     7
 74
     0
 42
0.000000001
 43
0.00000001
 40
0.0
 40
0.0
 40
0.0
 40
0.0
 40
0.2646230034824229
 40
0.6067952715651613
 40
0.8652423274589152
 40
0.9999999999999999
 40
0.9999999999999999
 40
0.9999999999999999
 40
0.9999999999999999
 10
122.9989973217612
 20
649.5404182189312
 30
0.0
 10
123.0940011668313
 20
649.4585054031435
 30
0.0
 10
123.3118502699341
 20
649.270674758617
 30
0.0
 10
123.5701098982178
 20
648.9096631098881
 30
0.0
 10
123.7083336442828
 20
648.5310147472479
 30
0.0
 10
123.7197781697545
 20
648.3114083501413
 30
0.0
 10
123.7237003952628
 20
648.2361456566658
 30
0.0
  0
LINE
  5
92
330
1F
100
AcDbEntity
  8
0
  6
SLD-Katı
 62
     7
370
    25
100
AcDbLine
 10
122.9989973218
 20
649.5404182189
 30
0.0
 11
122.9989973218
 21
649.8776277715
 31
0.0
  0
LINE
  5
93
330
1F
100
AcDbEntity
  8
0
  6
SLD-Katı
 62
     7
370
    25
100
AcDbLine
 10
126.999005428
 20
648.2242843324
 30
0.0
 11
126.999005428
 21
649.7820144707
 31
0.0
  0
LINE
  5
94
330
1F
100
AcDbEntity
  8
0
  6
SLD-Katı
 62
     7
370
    25
100
AcDbLine
 10
123.7237003953
 20
648.2361456567
 30
0.0
 11
123.7237003953
 21
644.8845727557
 31
0.0
  0
SPLINE
  5
95
330
1F
100
AcDbEntity
  8
0
  6
SLD-Katı
 62
     7
370
    25
100
AcDbSpline
210
0.0
220
0.0
230
1.0
 70
     8
 71
     3
 72
    10
 73
     6
 74
     0
 42
0.000000001
 43
0.00000001
 40
0.0
 40
0.0
 40
0.0
 40
0.0
 40
0.2414688817980301
 40
0.5468033726169281
 40
0.9999999999999999
 40
0.9999999999999999
 40
0.9999999999999999
 40
0.9999999999999999
 10
123.7237003952628
 20
644.8845727556553
 30
0.0
 10
123.7108858694255
 20
644.8586399764877
 30
0.0
 10
123.6818675301095
 20
644.7999155106075
 30
0.0
 10
123.427555764713
 20
644.5701340815097
 30
0.0
 10
123.1592818755233
 20
644.3373060496992
 30
0.0
 10
122.9989973217612
 20
644.1981991940346
 30
0.0
  0
LINE
  5
96
330
1F
100
AcDbEntity
  8
0
  6
SLD-Katı
 62
     7
370
    25
100
AcDbLine
 10
122.9989973218
 20
644.6276245826
 30
0.0
 11
122.9989973218
 21
644.198199194
 31
0.0
  0
LINE
  5
97
330
1F
100
AcDbEntity
  8
0
  6
SLD-Katı
 62
     7
370
    25
100
AcDbLine
 10
122.9989973218
 20
590.2033917793
 30
0.0
 11
126.999005428
 21
590.066531133
 31
0.0
  0
LINE
  5
98
330
1F
100
AcDbEntity
  8
0
  6
SLD-Katı
 62
     7
370
    25
100
AcDbLine
 10
122.9989973218
 20
590.2033917793
 30
0.0
 11
122.9989973218
 21
597.551861005
 31
0.0
  0
LINE
  5
99
330
1F
100
AcDbEntity
  8
0
  6
SLD-Katı
 62
     7
370
    25
100
AcDbLine
 10
122.9989973218
 20
597.551861005
 30
0.0
 11
126.999005428
 21
597.6887218842
 31
0.0
  0
LINE
  5
9A
330
1F
100
AcDbEntity
  8
0
  6
SLD-Katı
 62
     7
370
    25
100
AcDbLine
 10
126.999005428
 20
590.066531133
 30
0.0
 11
126.999005428
 21
597.6887218842
 31
0.0
  0
LINE
  5
9B
330
1F
100
AcDbEntity
  8
0
  6
SLD-Katı
 62
     7
370
    25
100
AcDbLine
 10
123.7237003953
 20
644.8845727557
 30
0.0
 11
126.999005428
 21
644.771174919
 31
0.0
  0
LINE
  5
9C
330
1F
100
AcDbEntity
  8
0
  6
SLD-Katı
 62
     7
370
    25
100
AcDbLine
 10
126.999005428
 20
644.771174919
 30
0.0
 11
126.999005428
 21
648.2242843324
 31
0.0
  0
LINE
  5
9D
330
1F
100
AcDbEntity
  8
0
  6
SLD-Katı
 62
     7
370
    25
100
AcDbLine
 10
122.9989973218
 20
587.7539016494
 30
0.0
 11
126.999005428
 21
587.7539016494
 31
0.0
  0
LINE
  5
9E
330
1F
100
AcDbEntity
  8
0
  6
SLD-Katı
 62
     7
370
    25
100
AcDbLine
 10
122.9989973218
 20
587.7539016494
 30
0.0
 11
122.9989973218
 21
590.2033917793
 31
0.0
  0
LINE
  5
9F
330
1F
100
AcDbEntity
  8
0
  6
SLD-Katı
 62
     7
370
    25
100
AcDbLine
 10
126.999005428
 20
587.7539016494
 30
0.0
 11
126.999005428
 21
590.066531133
 31
0.0
  0
LINE
  5
A0
330
1F
100
AcDbEntity
  8
0
  6
SLD-Katı
 62
     7
370
    25
100
AcDbLine
 10
122.9989973218
 20
600.0013506693
 30
0.0
 11
126.999005428
 21
600.0013506693
 31
0.0
  0
LINE
  5
A1
330
1F
100
AcDbEntity
  8
0
  6
SLD-Katı
 62
     7
370
    25
100
AcDbLine
 10
122.9989973218
 20
597.551861005
 30
0.0
 11
122.9989973218
 21
600.0013506693
 31
0.0
  0
LINE
  5
A2
330
1F
100
AcDbEntity
  8
0
  6
SLD-Katı
 62
     7
370
    25
100
AcDbLine
 10
126.999005428
 20
597.6887218842
 30
0.0
 11
126.999005428
 21
600.0013506693
 31
0.0
  0
LINE
  5
A3
330
1F
100
AcDbEntity
  8
0
  6
SLD-Katı
 62
     7
370
    25
100
AcDbLine
 10
122.9989973218
 20
642.9267501646
 30
0.0
 11
126.999005428
 21
642.9267501646
 31
0.0
  0
LINE
  5
A4
330
1F
100
AcDbEntity
  8
0
  6
SLD-Katı
 62
     7
370
    25
100
AcDbLine
 10
122.9989973218
 20
642.9267501646
 30
0.0
 11
122.9989973218
 21
644.198199194
 31
0.0
  0
LINE
  5
A5
330
1F
100
AcDbEntity
  8
0
  6
SLD-Katı
 62
     7
370
    25
100
AcDbLine
 10
126.999005428
 20
642.9267501646
 30
0.0
 11
126.999005428
 21
644.771174919
 31
0.0
  0
LINE
  5
A6
330
1F
100
AcDbEntity
  8
0
  6
SLD-Katı
 62
     7
370
    25
100
AcDbLine
 10
123.2399192959
 20
531.8741401845
 30
0.0
 11
126.999005428
 21
531.8197658473
 31
0.0
  0
SPLINE
  5
A7
330
1F
100
AcDbEntity
  8
0
  6
SLD-Katı
 62
     7
370
    25
100
AcDbSpline
210
0.0
220
0.0
230
1.0
 70
     8
 71
     3
 72
    10
 73
     6
 74
     0
 42
0.000000001
 43
0.00000001
 40
0.0
 40
0.0
 40
0.0
 40
0.0
 40
0.2397176653034986
 40
0.6014145343669459
 40
1.0
 40
1.0
 40
1.0
 40
1.0
 10
122.9989973217612
 20
536.365096848568
 30
0.0
 10
123.1645404115205
 20
536.0310500064068
 30
0.0
 10
123.5798624117543
 20
535.1929781614265
 30
0.0
 10
123.8739696883253
 20
533.595648255931
 30
0.0
 10
123.4579970359673
 20
532.466242317318
 30
0.0
 10
123.2399192959434
 20
531.8741401844826
 30
0.0
  0
LINE
  5
A8
330
1F
100
AcDbEntity
  8
0
  6
SLD-Katı
 62
     7
370
    25
100
AcDbLine
 10
122.9989973218
 20
536.3650968486
 30
0.0
 11
122.9989973218
 21
587.7539016494
 31
0.0
  0
LINE
  5
A9
330
1F
100
AcDbEntity
  8
0
  6
SLD-Katı
 62
     7
370
    25
100
AcDbLine
 10
126.999005428
 20
531.8197658473
 30
0.0
 11
126.999005428
 21
587.7539016494
 31
0.0
  0
SPLINE
  5
AA
330
1F
100
AcDbEntity
  8
0
  6
SLD-Katı
 62
     7
370
    25
100
AcDbSpline
210
0.0
220
0.0
230
1.0
 70
     8
 71
     3
 72
    10
 73
     6
 74
     0
 42
0.000000001
 43
0.00000001
 40
0.0
 40
0.0
 40
0.0
 40
0.0
 40
0.3892208036185245
 40
0.8646933449038354
 40
1.0
 40
1.0
 40
1.0
 40
1.0
 10
123.2399192959434
 20
531.8741401844826
 30
0.0
 10
123.3252212892206
 20
531.5794912305988
 30
0.0
 10
123.514728286812
 20
530.9248988060992
 30
0.0
 10
123.2925010936403
 20
530.1602783656377
 30
0.0
 10
123.0522257988224
 20
529.7335697808019
 30
0.0
 10
122.9989973217612
 20
529.6390405112114
 30
0.0
  0
LINE
  5
AB
330
1F
100
AcDbEntity
  8
0
  6
SLD-Katı
 62
     7
370
    25
100
AcDbLine
 10
122.9989973218
 20
600.0013506693
 30
0.0
 11
122.9989973218
 21
642.9267501646
 31
0.0
  0
LINE
  5
AC
330
1F
100
AcDbEntity
  8
0
  6
SLD-Katı
 62
     7
370
    25
100
AcDbLine
 10
126.999005428
 20
600.0013506693
 30
0.0
 11
126.999005428
 21
642.9267501646
 31
0.0
  0
LINE
  5
AD
330
1F
100
AcDbEntity
  8
0
  6
SLD-Katı
 62
     7
370
    25
100
AcDbLine
 10
122.9989973218
 20
528.8776284271
 30
0.0
 11
126.999005428
 21
528.7379449421
 31
0.0
  0
LINE
  5
AE
330
1F
100
AcDbEntity
  8
0
  6
SLD-Katı
 62
     7
370
    25
100
AcDbLine
 10
122.9989973218
 20
528.8776284271
 30
0.0
 11
122.9989973218
 21
529.6390405112
 31
0.0
  0
LINE
  5
AF
330
1F
100
AcDbEntity
  8
0
  6
SLD-Katı
 62
     7
370
    25
100
AcDbLine
 10
126.999005428
 20
528.7379449421
 30
0.0
 11
126.999005428
 21
531.8197658473
 31
0.0
  0
LINE
  5
B0
330
1F
100
AcDbEntity
  8
0
  6
SLD-Katı
 62
     7
370
    25
100
AcDbLine
 10
126.999005428
 20
660.0173091703
 30
0.0
 11
127.1920052678
 21
660.0173091703
 31
0.0
  0
LINE
  5
B1
330
1F
100
AcDbEntity
  8
0
  6
SLD-Katı
 62
     7
370
    25
100
AcDbLine
 10
127.2057441384
 20
660.0173091703
 30
0.0
 11
127.1920052678
 21
660.0173091703
 31
0.0
  0
LINE
  5
B2
330
1F
100
AcDbEntity
  8
0
  6
SLD-Katı
 62
     7
370
    25
100
AcDbLine
 10
127.3989823968
 20
660.0173091703
 30
0.0
 11
127.4058965356
 21
659.8776256853
 31
0.0
  0
LINE
  5
B3
330
1F
100
AcDbEntity
  8
0
  6
SLD-Katı
 62
     7
370
    25
100
AcDbLine
 10
127.2057441384
 20
660.0173091703
 30
0.0
 11
127.3989823968
 21
660.0173091703
 31
0.0
  0
LINE
  5
B4
330
1F
100
AcDbEntity
  8
0
  6
SLD-Katı
 62
     7
370
    25
100
AcDbLine
 10
1079.3565062195
 20
659.9838709646
 30
0.0
 11
1082.3989955098
 21
652.3776253873
 31
0.0
  0
LINE
  5
B5
330
1F
100
AcDbEntity
  8
0
  6
SLD-Katı
 62
     7
370
    25
100
AcDbLine
 10
1082.3989955098
 20
652.3776253873
 30
0.0
 11
1078.3989874035
 21
652.3914573902
 31
0.0
  0
LINE
  5
B6
330
1F
100
AcDbEntity
  8
0
  6
SLD-Katı
 62
     7
370
    25
100
AcDbLine
 10
1079.3565062195
 20
659.9838709646
 30
0.0
 11
1078.3989874035
 21
660.0173091703
 31
0.0
  0
LINE
  5
B7
330
1F
100
AcDbEntity
  8
0
  6
SLD-Katı
 62
     7
370
    25
100
AcDbLine
 10
1078.3989874035
 20
660.0173091703
 30
0.0
 11
1078.3989874035
 21
652.3914573902
 31
0.0
  0
LINE
  5
B8
330
1F
100
AcDbEntity
  8
0
  6
SLD-Katı
 62
     7
370
    25
100
AcDbLine
 10
1082.3989955098
 20
649.8776277715
 30
0.0
 11
1078.3989874035
 21
649.7820144707
 31
0.0
  0
LINE
  5
B9
330
1F
100
AcDbEntity
  8
0
  6
SLD-Katı
 62
     7
370
    25
100
AcDbLine
 10
1082.3989955098
 20
649.8776277715
 30
0.0
 11
1082.3989955098
 21
649.5404182189
 31
0.0
  0
SPLINE
  5
BA
330
1F
100
AcDbEntity
  8
0
  6
SLD-Katı
 62
     7
370
    25
100
AcDbSpline
210
0.0
220
0.0
230
1.0
 70
     8
 71
     3
 72
    10
 73
     6
 74
     0
 42
0.000000001
 43
0.00000001
 40
0.0
 40
0.0
 40
0.0
 40
0.0
 40
0.2414699034715333
 40
0.5468016579650403
 40
0.9999999999999999
 40
0.9999999999999999
 40
0.9999999999999999
 40
0.9999999999999999
 10
1081.674292436278
 20
648.2361456566658
 30
0.0
 10
1081.687106701783
 20
648.3705093747816
 30
0.0
 10
1081.716124237811
 20
648.6747721536196
 30
0.0
 10
1081.970439690658
 20
649.1498153301013
 30
0.0
 10
1082.238711422591
 20
649.3943289005839
 30
0.0
 10
1082.39899550978
 20
649.5404182189312
 30
0.0
  0
LINE
  5
BB
330
1F
100
AcDbEntity
  8
0
  6
SLD-Katı
 62
     7
370
    25
100
AcDbLine
 10
1081.6742924363
 20
648.2361456567
 30
0.0
 11
1078.3989874035
 21
648.2242843324
 31
0.0
  0
LINE
  5
BC
330
1F
100
AcDbEntity
  8
0
  6
SLD-Katı
 62
     7
370
    25
100
AcDbLine
 10
1078.3989874035
 20
649.7820144707
 30
0.0
 11
1078.3989874035
 21
648.2242843324
 31
0.0
  0
LINE
  5
BD
330
1F
100
AcDbEntity
  8
0
  6
SLD-Katı
 62
     7
370
    25
100
AcDbLine
 10
1082.3989955098
 20
652.3776253873
 30
0.0
 11
1082.3989955098
 21
649.8776277715
 31
0.0
  0
LINE
  5
BE
330
1F
100
AcDbEntity
  8
0
  6
SLD-Katı
 62
     7
370
    25
100
AcDbLine
 10
1078.3989874035
 20
652.3914573902
 30
0.0
 11
1078.3989874035
 21
649.7820144707
 31
0.0
  0
SPLINE
  5
BF
330
1F
100
AcDbEntity
  8
0
  6
SLD-Katı
 62
     7
370
    25
100
AcDbSpline
210
0.0
220
0.0
230
1.0
 70
     8
 71
     3
 72
    11
 73
     7
 74
     0
 42
0.000000001
 43
0.00000001
 40
0.0
 40
0.0
 40
0.0
 40
0.0
 40
0.2646235809292836
 40
0.6067946221178842
 40
0.8652421963088276
 40
1.0
 40
1.0
 40
1.0
 40
1.0
 10
1082.39899550978
 20
644.1981991940346
 30
0.0
 10
1082.30399179167
 20
644.2810493412395
 30
0.0
 10
1082.086143688231
 20
644.4710287209646
 30
0.0
 10
1081.827882051744
 20
644.6958179200703
 30
0.0
 10
1081.68965926906
 20
644.8360041780645
 30
0.0
 10
1081.678214680684
 20
644.8721760676419
 30
0.0
 10
1081.674292436278
 20
644.8845727556553
 30
0.0
  0
LINE
  5
C0
330
1F
100
AcDbEntity
  8
0
  6
SLD-Katı
 62
     7
370
    25
100
AcDbLine
 10
1081.6742924363
 20
644.8845727557
 30
0.0
 11
1081.6742924363
 21
648.2361456567
 31
0.0
  0
LINE
  5
C1
330
1F
100
AcDbEntity
  8
0
  6
SLD-Katı
 62
     7
370
    25
100
AcDbLine
 10
1082.3989955098
 20
644.198199194
 30
0.0
 11
1082.3989955098
 21
644.6276245826
 31
0.0
  0
LINE
  5
C2
330
1F
100
AcDbEntity
  8
0
  6
SLD-Katı
 62
     7
370
    25
100
AcDbLine
 10
1082.3989955098
 20
597.551861005
 30
0.0
 11
1078.3989874035
 21
597.6887218842
 31
0.0
  0
LINE
  5
C3
330
1F
100
AcDbEntity
  8
0
  6
SLD-Katı
 62
     7
370
    25
100
AcDbLine
 10
1082.3989955098
 20
597.551861005
 30
0.0
 11
1082.3989955098
 21
590.2033917793
 31
0.0
  0
LINE
  5
C4
330
1F
100
AcDbEntity
  8
0
  6
SLD-Katı
 62
     7
370
    25
100
AcDbLine
 10
1082.3989955098
 20
590.2033917793
 30
0.0
 11
1078.3989874035
 21
590.066531133
 31
0.0
  0
LINE
  5
C5
330
1F
100
AcDbEntity
  8
0
  6
SLD-Katı
 62
     7
370
    25
100
AcDbLine
 10
1078.3989874035
 20
597.6887218842
 30
0.0
 11
1078.3989874035
 21
590.066531133
 31
0.0
  0
LINE
  5
C6
330
1F
100
AcDbEntity
  8
0
  6
SLD-Katı
 62
     7
370
    25
100
AcDbLine
 10
1081.6742924363
 20
644.8845727557
 30
0.0
 11
1078.3989874035
 21
644.771174919
 31
0.0
  0
LINE
  5
C7
330
1F
100
AcDbEntity
  8
0
  6
SLD-Katı
 62
     7
370
    25
100
AcDbLine
 10
1078.3989874035
 20
648.2242843324
 30
0.0
 11
1078.3989874035
 21
644.771174919
 31
0.0
  0
LINE
  5
C8
330
1F
100
AcDbEntity
  8
0
  6
SLD-Katı
 62
     7
370
    25
100
AcDbLine
 10
1082.3989955098
 20
587.7539016494
 30
0.0
 11
1078.3989874035
 21
587.7539016494
 31
0.0
  0
LINE
  5
C9
330
1F
100
AcDbEntity
  8
0
  6
SLD-Katı
 62
     7
370
    25
100
AcDbLine
 10
1082.3989955098
 20
590.2033917793
 30
0.0
 11
1082.3989955098
 21
587.7539016494
 31
0.0
  0
LINE
  5
CA
330
1F
100
AcDbEntity
  8
0
  6
SLD-Katı
 62
     7
370
    25
100
AcDbLine
 10
1078.3989874035
 20
590.066531133
 30
0.0
 11
1078.3989874035
 21
587.7539016494
 31
0.0
  0
LINE
  5
CB
330
1F
100
AcDbEntity
  8
0
  6
SLD-Katı
 62
     7
370
    25
100
AcDbLine
 10
1082.3989955098
 20
600.0013506693
 30
0.0
 11
1078.3989874035
 21
600.0013506693
 31
0.0
  0
LINE
  5
CC
330
1F
100
AcDbEntity
  8
0
  6
SLD-Katı
 62
     7
370
    25
100
AcDbLine
 10
1082.3989955098
 20
600.0013506693
 30
0.0
 11
1082.3989955098
 21
597.551861005
 31
0.0
  0
LINE
  5
CD
330
1F
100
AcDbEntity
  8
0
  6
SLD-Katı
 62
     7
370
    25
100
AcDbLine
 10
1078.3989874035
 20
600.0013506693
 30
0.0
 11
1078.3989874035
 21
597.6887218842
 31
0.0
  0
LINE
  5
CE
330
1F
100
AcDbEntity
  8
0
  6
SLD-Katı
 62
     7
370
    25
100
AcDbLine
 10
1082.3989955098
 20
642.9267501646
 30
0.0
 11
1078.3989874035
 21
642.9267501646
 31
0.0
  0
LINE
  5
CF
330
1F
100
AcDbEntity
  8
0
  6
SLD-Katı
 62
     7
370
    25
100
AcDbLine
 10
1082.3989955098
 20
644.198199194
 30
0.0
 11
1082.3989955098
 21
642.9267501646
 31
0.0
  0
LINE
  5
D0
330
1F
100
AcDbEntity
  8
0
  6
SLD-Katı
 62
     7
370
    25
100
AcDbLine
 10
1078.3989874035
 20
644.771174919
 30
0.0
 11
1078.3989874035
 21
642.9267501646
 31
0.0
  0
SPLINE
  5
D1
330
1F
100
AcDbEntity
  8
0
  6
SLD-Katı
 62
     7
370
    25
100
AcDbSpline
210
0.0
220
0.0
230
1.0
 70
     8
 71
     3
 72
    10
 73
     6
 74
     0
 42
0.000000001
 43
0.00000001
 40
0.0
 40
0.0
 40
0.0
 40
0.0
 40
0.1353066550961647
 40
0.6107791963814756
 40
1.0
 40
1.0
 40
1.0
 40
1.0
 10
1082.39899550978
 20
529.6390405112114
 30
0.0
 10
1082.345767032719
 20
529.7335697808019
 30
0.0
 10
1082.105491737901
 20
530.1602783656377
 30
0.0
 10
1081.883264544729
 20
530.9248988060992
 30
0.0
 10
1082.072771542321
 20
531.5794912305988
 30
0.0
 10
1082.158073535598
 20
531.8741401844826
 30
0.0
  0
SPLINE
  5
D2
330
1F
100
AcDbEntity
  8
0
  6
SLD-Katı
 62
     7
370
    25
100
AcDbSpline
210
0.0
220
0.0
230
1.0
 70
     8
 71
     3
 72
    10
 73
     6
 74
     0
 42
0.000000001
 43
0.00000001
 40
0.0
 40
0.0
 40
0.0
 40
0.0
 40
0.398585465633054
 40
0.7602823346965013
 40
1.0
 40
1.0
 40
1.0
 40
1.0
 10
1082.158073535598
 20
531.8741401844826
 30
0.0
 10
1081.939995795574
 20
532.466242317318
 30
0.0
 10
1081.524023143216
 20
533.595648255931
 30
0.0
 10
1081.818130419787
 20
535.1929781614265
 30
0.0
 10
1082.233452420021
 20
536.0310500064068
 30
0.0
 10
1082.39899550978
 20
536.365096848568
 30
0.0
  0
LINE
  5
D3
330
1F
100
AcDbEntity
  8
0
  6
SLD-Katı
 62
     7
370
    25
100
AcDbLine
 10
1082.1580735356
 20
531.8741401845
 30
0.0
 11
1078.3989874035
 21
531.8197658473
 31
0.0
  0
LINE
  5
D4
330
1F
100
AcDbEntity
  8
0
  6
SLD-Katı
 62
     7
370
    25
100
AcDbLine
 10
1082.3989955098
 20
587.7539016494
 30
0.0
 11
1082.3989955098
 21
536.3650968486
 31
0.0
  0
LINE
  5
D5
330
1F
100
AcDbEntity
  8
0
  6
SLD-Katı
 62
     7
370
    25
100
AcDbLine
 10
1078.3989874035
 20
587.7539016494
 30
0.0
 11
1078.3989874035
 21
531.8197658473
 31
0.0
  0
LINE
  5
D6
330
1F
100
AcDbEntity
  8
0
  6
SLD-Katı
 62
     7
370
    25
100
AcDbLine
 10
1082.3989955098
 20
642.9267501646
 30
0.0
 11
1082.3989955098
 21
600.0013506693
 31
0.0
  0
LINE
  5
D7
330
1F
100
AcDbEntity
  8
0
  6
SLD-Katı
 62
     7
370
    25
100
AcDbLine
 10
1078.3989874035
 20
642.9267501646
 30
0.0
 11
1078.3989874035
 21
600.0013506693
 31
0.0
  0
LINE
  5
D8
330
1F
100
AcDbEntity
  8
0
  6
SLD-Katı
 62
     7
370
    25
100
AcDbLine
 10
1082.3989955098
 20
528.8776284271
 30
0.0
 11
1078.3989874035
 21
528.7379449421
 31
0.0
  0
LINE
  5
D9
330
1F
100
AcDbEntity
  8
0
  6
SLD-Katı
 62
     7
370
    25
100
AcDbLine
 10
1082.3989955098
 20
529.6390405112
 30
0.0
 11
1082.3989955098
 21
528.8776284271
 31
0.0
  0
LINE
  5
DA
330
1F
100
AcDbEntity
  8
0
  6
SLD-Katı
 62
     7
370
    25
100
AcDbLine
 10
1078.3989874035
 20
531.8197658473
 30
0.0
 11
1078.3989874035
 21
528.7379449421
 31
0.0
  0
LINE
  5
DB
330
1F
100
AcDbEntity
  8
0
  6
SLD-Katı
 62
     7
370
    25
100
AcDbLine
 10
1078.2059875638
 20
660.0173091703
 30
0.0
 11
1078.3989874035
 21
660.0173091703
 31
0.0
  0
LINE
  5
DC
330
1F
100
AcDbEntity
  8
0
  6
SLD-Katı
 62
     7
370
    25
100
AcDbLine
 10
1078.1922486931
 20
660.0173091703
 30
0.0
 11
1078.2059875638
 21
660.0173091703
 31
0.0
  0
LINE
  5
DD
330
1F
100
AcDbEntity
  8
0
  6
SLD-Katı
 62
     7
370
    25
100
AcDbLine
 10
1077.992096296
 20
659.8776256853
 30
0.0
 11
1077.9990104348
 21
660.0173091703
 31
0.0
  0
LINE
  5
DE
330
1F
100
AcDbEntity
  8
0
  6
SLD-Katı
 62
     7
370
    25
100
AcDbLine
 10
1077.9990104348
 20
660.0173091703
 30
0.0
 11
1078.1922486931
 21
660.0173091703
 31
0.0
  0
LINE
  5
DF
330
1F
100
AcDbEntity
  8
0
  6
SLD-Katı
 62
     7
370
    25
100
AcDbLine
 10
126.999005428
 20
652.3776253873
 30
0.0
 11
1078.3989874035
 21
652.3776253873
 31
0.0
  0
LINE
  5
E0
330
1F
100
AcDbEntity
  8
0
  6
SLD-Katı
 62
     7
370
    25
100
AcDbLine
 10
126.999005428
 20
659.8776256853
 30
0.0
 11
1078.3989874035
 21
659.8776256853
 31
0.0
  0
LINE
  5
E1
330
1F
100
AcDbEntity
  8
0
  6
SLD-Katı
 62
     7
370
    25
100
AcDbLine
 10
126.999005428
 20
649.8776277715
 30
0.0
 11
1078.3989874035
 21
649.8776277715
 31
0.0
  0
LINE
  5
E2
330
1F
100
AcDbEntity
  8
0
  6
SLD-Katı
 62
     7
370
    25
100
AcDbLine
 10
1078.3989874035
 20
648.238768261
 30
0.0
 11
126.999005428
 21
648.238768261
 31
0.0
  0
LINE
  5
E3
330
1F
100
AcDbEntity
  8
0
  6
SLD-Katı
 62
     7
370
    25
100
AcDbLine
 10
1078.3989874035
 20
597.551861005
 30
0.0
 11
126.999005428
 21
597.551861005
 31
0.0
  0
LINE
  5
E4
330
1F
100
AcDbEntity
  8
0
  6
SLD-Katı
 62
     7
370
    25
100
AcDbLine
 10
126.999005428
 20
590.2033917793
 30
0.0
 11
1078.3989874035
 21
590.2033917793
 31
0.0
  0
LINE
  5
E5
330
1F
100
AcDbEntity
  8
0
  6
SLD-Katı
 62
     7
370
    25
100
AcDbLine
 10
126.999005428
 20
644.9096625858
 30
0.0
 11
1078.3989874035
 21
644.9096625858
 31
0.0
  0
LINE
  5
E6
330
1F
100
AcDbEntity
  8
0
  6
SLD-Katı
 62
     7
370
    25
100
AcDbLine
 10
1078.3989874035
 20
587.7539016494
 30
0.0
 11
126.999005428
 21
587.7539016494
 31
0.0
  0
LINE
  5
E7
330
1F
100
AcDbEntity
  8
0
  6
SLD-Katı
 62
     7
370
    25
100
AcDbLine
 10
126.999005428
 20
600.0013506693
 30
0.0
 11
1078.3989874035
 21
600.0013506693
 31
0.0
  0
LINE
  5
E8
330
1F
100
AcDbEntity
  8
0
  6
SLD-Katı
 62
     7
370
    25
100
AcDbLine
 10
1078.3989874035
 20
642.9267501646
 30
0.0
 11
126.999005428
 21
642.9267501646
 31
0.0
  0
LINE
  5
E9
330
1F
100
AcDbEntity
  8
0
  6
SLD-Katı
 62
     7
370
    25
100
AcDbLine
 10
126.999005428
 20
531.8776270562
 30
0.0
 11
1078.3989874035
 21
531.8776270562
 31
0.0
  0
LINE
  5
EA
330
1F
100
AcDbEntity
  8
0
  6
SLD-Katı
 62
     7
370
    25
100
AcDbLine
 10
1078.3989874035
 20
528.8776284271
 30
0.0
 11
126.999005428
 21
528.8776284271
 31
0.0
  0
LINE
  5
EB
330
1F
100
AcDbEntity
  8
0
  6
SLD-Katı
 62
     8
370
    25
100
AcDbLine
 10
127.1920052678
 20
660.0173091703
 30
0.0
 11
127.1920052678
 21
659.8776256853
 31
0.0
  0
LINE
  5
EC
330
1F
100
AcDbEntity
  8
0
  6
SLD-Katı
 62
     8
370
    25
100
AcDbLine
 10
127.2126284749
 20
659.8776256853
 30
0.0
 11
127.2057441384
 21
660.0173091703
 31
0.0
  0
LINE
  5
ED
330
1F
100
AcDbEntity
  8
0
  6
SLD-Katı
 62
     8
370
    25
100
AcDbLine
 10
1078.2059875638
 20
659.8776256853
 30
0.0
 11
1078.2059875638
 21
660.0173091703
 31
0.0
  0
LINE
  5
EE
330
1F
100
AcDbEntity
  8
0
  6
SLD-Katı
 62
     8
370
    25
100
AcDbLine
 10
1078.1922486931
 20
660.0173091703
 30
0.0
 11
1078.1853643567
 21
659.8776256853
 31
0.0
  0
CIRCLE
  5
EF
330
1F
100
AcDbEntity
  8
0
  6
SLD-Katı
 62
     7
100
AcDbCircle
 10
1062.4489964158
 20
431.7939624242
 30
0.0
 40
4.166841521697409
  0
LINE
  5
F0
330
1F
100
AcDbEntity
  8
0
  6
SLD-Katı
 62
     7
100
AcDbLine
 10
162.6989964158
 20
424.1939082422
 30
0.0
 11
135.6989964158
 21
424.1939082422
 31
0.0
  0
LINE
  5
F1
330
1F
100
AcDbEntity
  8
0
  6
SLD-Katı
 62
     7
370
    25
100
AcDbLine
 10
126.999005428
 20
499.8382863454
 30
0.0
 11
127.2989956051
 21
499.8382863454
 31
0.0
  0
LINE
  5
F2
330
1F
100
AcDbEntity
  8
0
  6
SLD-Katı
 62
     7
370
    25
100
AcDbLine
 10
1078.0989972264
 20
499.8382863454
 30
0.0
 11
1078.3989874035
 21
499.8382863454
 31
0.0
  0
LINE
  5
F3
330
1F
100
AcDbEntity
  8
0
  6
SLD-Katı
 62
     7
370
    25
100
AcDbLine
 10
1078.3989874035
 20
403.749638503
 30
0.0
 11
1078.0989972264
 21
403.749638503
 31
0.0
  0
LINE
  5
F4
330
1F
100
AcDbEntity
  8
0
  6
SLD-Katı
 62
     7
370
    25
100
AcDbLine
 10
127.2989956051
 20
403.749638503
 30
0.0
 11
126.999005428
 21
403.749638503
 31
0.0
  0
LINE
  5
F5
330
1F
100
AcDbEntity
  8
0
  6
SLD-Katı
 62
     7
370
    25
100
AcDbLine
 10
122.9989973218
 20
498.5564921848
 30
0.0
 11
122.9989973218
 21
503.5314311139
 31
0.0
  0
LINE
  5
F6
330
1F
100
AcDbEntity
  8
0
  6
SLD-Katı
 62
     7
370
    25
100
AcDbLine
 10
1082.3989955098
 20
503.5314311139
 30
0.0
 11
1082.3989955098
 21
498.5564921848
 31
0.0
  0
LINE
  5
F7
330
1F
100
AcDbEntity
  8
0
  6
SLD-Katı
 62
     7
370
    25
100
AcDbLine
 10
122.9989973218
 20
400.0564937345
 30
0.0
 11
122.9989973218
 21
405.0314326636
 31
0.0
  0
LINE
  5
F8
330
1F
100
AcDbEntity
  8
0
  6
SLD-Katı
 62
     7
370
    25
100
AcDbLine
 10
1082.3989955098
 20
405.0314326636
 30
0.0
 11
1082.3989955098
 21
400.0564937345
 31
0.0
  0
LINE
  5
F9
330
1F
100
AcDbEntity
  8
0
  6
SLD-Katı
 62
     7
370
    25
100
AcDbLine
 10
126.041486612
 20
504.5810651831
 30
0.0
 11
126.999005428
 21
504.6084758691
 31
0.0
  0
LINE
  5
FA
330
1F
100
AcDbEntity
  8
0
  6
SLD-Katı
 62
     7
370
    25
100
AcDbLine
 10
126.999005428
 20
496.9871018879
 30
0.0
 11
126.999005428
 21
504.6084758691
 31
0.0
  0
LINE
  5
FB
330
1F
100
AcDbEntity
  8
0
  6
SLD-Katı
 62
     7
370
    25
100
AcDbLine
 10
126.999005428
 20
496.9871018879
 30
0.0
 11
126.999005428
 21
495.6008245103
 31
0.0
  0
LINE
  5
FC
330
1F
100
AcDbEntity
  8
0
  6
SLD-Katı
 62
     7
370
    25
100
AcDbLine
 10
126.999005428
 20
485.7870985619
 30
0.0
 11
126.999005428
 21
495.6008245103
 31
0.0
  0
LINE
  5
FD
330
1F
100
AcDbEntity
  8
0
  6
SLD-Katı
 62
     7
370
    25
100
AcDbLine
 10
126.999005428
 20
485.7870985619
 30
0.0
 11
126.999005428
 21
484.4008249096
 31
0.0
  0
LINE
  5
FE
330
1F
100
AcDbEntity
  8
0
  6
SLD-Katı
 62
     7
370
    25
100
AcDbLine
 10
126.999005428
 20
474.687100654
 30
0.0
 11
126.999005428
 21
484.4008249096
 31
0.0
  0
LINE
  5
FF
330
1F
100
AcDbEntity
  8
0
  6
SLD-Katı
 62
     7
370
    25
100
AcDbLine
 10
126.999005428
 20
474.687100654
 30
0.0
 11
126.999005428
 21
473.3008251391
 31
0.0
  0
LINE
  5
100
330
1F
100
AcDbEntity
  8
0
  6
SLD-Katı
 62
     7
370
    25
100
AcDbLine
 10
126.999005428
 20
463.5870999522
 30
0.0
 11
126.999005428
 21
473.3008251391
 31
0.0
  0
LINE
  5
101
330
1F
100
AcDbEntity
  8
0
  6
SLD-Katı
 62
     7
370
    25
100
AcDbLine
 10
126.999005428
 20
463.5870999522
 30
0.0
 11
126.999005428
 21
462.2008244372
 31
0.0
  0
LINE
  5
102
330
1F
100
AcDbEntity
  8
0
  6
SLD-Katı
 62
     7
370
    25
100
AcDbLine
 10
126.999005428
 20
452.4871001817
 30
0.0
 11
126.999005428
 21
462.2008244372
 31
0.0
  0
LINE
  5
103
330
1F
100
AcDbEntity
  8
0
  6
SLD-Katı
 62
     7
370
    25
100
AcDbLine
 10
126.999005428
 20
452.4871001817
 30
0.0
 11
126.999005428
 21
451.1008246667
 31
0.0
  0
LINE
  5
104
330
1F
100
AcDbEntity
  8
0
  6
SLD-Katı
 62
     7
370
    25
100
AcDbLine
 10
126.999005428
 20
441.3871004112
 30
0.0
 11
126.999005428
 21
451.1008246667
 31
0.0
  0
LINE
  5
105
330
1F
100
AcDbEntity
  8
0
  6
SLD-Katı
 62
     7
370
    25
100
AcDbLine
 10
126.999005428
 20
441.3871004112
 30
0.0
 11
126.999005428
 21
440.0008248962
 31
0.0
  0
LINE
  5
106
330
1F
100
AcDbEntity
  8
0
  6
SLD-Katı
 62
     7
370
    25
100
AcDbLine
 10
126.999005428
 20
430.2870997093
 30
0.0
 11
126.999005428
 21
440.0008248962
 31
0.0
  0
LINE
  5
107
330
1F
100
AcDbEntity
  8
0
  6
SLD-Katı
 62
     7
370
    25
100
AcDbLine
 10
126.999005428
 20
430.2870997093
 30
0.0
 11
126.999005428
 21
428.9008241943
 31
0.0
  0
LINE
  5
108
330
1F
100
AcDbEntity
  8
0
  6
SLD-Katı
 62
     7
370
    25
100
AcDbLine
 10
126.999005428
 20
419.1870999388
 30
0.0
 11
126.999005428
 21
428.9008241943
 31
0.0
  0
LINE
  5
109
330
1F
100
AcDbEntity
  8
0
  6
SLD-Katı
 62
     7
370
    25
100
AcDbLine
 10
126.999005428
 20
419.1870999388
 30
0.0
 11
126.999005428
 21
417.8008262865
 31
0.0
  0
LINE
  5
10A
330
1F
100
AcDbEntity
  8
0
  6
SLD-Katı
 62
     7
370
    25
100
AcDbLine
 10
126.999005428
 20
407.9871003381
 30
0.0
 11
126.999005428
 21
417.8008262865
 31
0.0
  0
LINE
  5
10B
330
1F
100
AcDbEntity
  8
0
  6
SLD-Katı
 62
     7
370
    25
100
AcDbLine
 10
126.999005428
 20
407.9871003381
 30
0.0
 11
126.999005428
 21
406.6008229605
 31
0.0
  0
LINE
  5
10C
330
1F
100
AcDbEntity
  8
0
  6
SLD-Katı
 62
     7
370
    25
100
AcDbLine
 10
126.999005428
 20
398.9794489793
 30
0.0
 11
126.999005428
 21
406.6008229605
 31
0.0
  0
LINE
  5
10D
330
1F
100
AcDbEntity
  8
0
  6
SLD-Katı
 62
     7
370
    25
100
AcDbLine
 10
126.041486612
 20
399.0068596653
 30
0.0
 11
126.999005428
 21
398.9794489793
 31
0.0
  0
LINE
  5
10E
330
1F
100
AcDbEntity
  8
0
  6
SLD-Katı
 62
     7
370
    25
100
AcDbLine
 10
126.041486612
 20
399.0068596653
 30
0.0
 11
126.041486612
 21
504.5810651831
 31
0.0
  0
LINE
  5
10F
330
1F
100
AcDbEntity
  8
0
  6
SLD-Katı
 62
     7
370
    25
100
AcDbLine
 10
126.041486612
 20
504.5810651831
 30
0.0
 11
122.9989973218
 21
505.9939634852
 31
0.0
  0
LINE
  5
110
330
1F
100
AcDbEntity
  8
0
  6
SLD-Katı
 62
     7
370
    25
100
AcDbLine
 10
122.9989973218
 20
505.9939634852
 30
0.0
 11
126.999005428
 21
506.1336469702
 31
0.0
  0
LINE
  5
111
330
1F
100
AcDbEntity
  8
0
  6
SLD-Katı
 62
     7
370
    25
100
AcDbLine
 10
126.999005428
 20
504.6084758691
 30
0.0
 11
126.999005428
 21
506.1336469702
 31
0.0
  0
ARC
  5
112
330
1F
100
AcDbEntity
  8
0
  6
SLD-Katı
 62
     7
370
    25
100
AcDbCircle
 10
127.1989964158
 20
495.6008246692
 30
0.0
 40
0.2000000000000264
100
AcDbArc
 50
92.0
 51
180.0
  0
ELLIPSE
  5
113
330
1F
100
AcDbEntity
  8
0
  6
SLD-Katı
 62
     7
370
    25
100
AcDbEllipse
 10
127.1987522848
 20
496.5868648867
 30
0.0
 11
-0.2001224449699208
 21
0.006988429770899528
 31
0.0
210
0.0
220
0.0
230
1.0
 40
0.9987793495
 41
3.176456664428535
 42
4.712388980383439
  0
LINE
  5
114
330
1F
100
AcDbEntity
  8
0
  6
SLD-Katı
 62
     7
370
    25
100
AcDbLine
 10
127.3989823968
 20
496.5868492476
 30
0.0
 11
127.3989823968
 21
496.0010771505
 31
0.0
  0
ELLIPSE
  5
115
330
1F
100
AcDbEntity
  8
0
  6
SLD-Katı
 62
     7
370
    25
100
AcDbEllipse
 10
127.1987522848
 20
496.0010599617
 30
0.0
 11
0.2001224449699208
 21
0.006988429770899528
 31
0.0
210
0.0
220
0.0
230
1.0
 40
0.9987793495
 41
4.712388980385969
 42
6.248321296340873
  0
LINE
  5
116
330
1F
100
AcDbEntity
  8
0
  6
SLD-Katı
 62
     7
370
    25
100
AcDbLine
 10
127.2057441384
 20
495.8011817984
 30
0.0
 11
127.1920052678
 21
495.8007012359
 31
0.0
  0
ARC
  5
117
330
1F
100
AcDbEntity
  8
0
  6
SLD-Katı
 62
     7
370
    25
100
AcDbCircle
 10
127.1989964158
 20
496.9871001792
 30
0.0
 40
0.1999999999999744
100
AcDbArc
 50
180.0
 51
268.0
  0
LINE
  5
118
330
1F
100
AcDbEntity
  8
0
  6
SLD-Katı
 62
     7
370
    25
100
AcDbLine
 10
127.2057441384
 20
496.7867445997
 30
0.0
 11
127.1920052678
 21
496.7872214369
 31
0.0
  0
LINE
  5
119
330
1F
100
AcDbEntity
  8
0
  6
SLD-Katı
 62
     7
370
    25
100
AcDbLine
 10
127.3989823968
 20
407.5868476979
 30
0.0
 11
127.3989823968
 21
407.0010756008
 31
0.0
  0
LINE
  5
11A
330
1F
100
AcDbEntity
  8
0
  6
SLD-Katı
 62
     7
370
    25
100
AcDbLine
 10
127.3989823968
 20
418.7868472985
 30
0.0
 11
127.3989823968
 21
418.2010752014
 31
0.0
  0
LINE
  5
11B
330
1F
100
AcDbEntity
  8
0
  6
SLD-Katı
 62
     7
370
    25
100
AcDbLine
 10
127.3989823968
 20
429.8868470691
 30
0.0
 11
127.3989823968
 21
429.3010768346
 31
0.0
  0
LINE
  5
11C
330
1F
100
AcDbEntity
  8
0
  6
SLD-Katı
 62
     7
370
    25
100
AcDbLine
 10
127.3989823968
 20
440.9868477709
 30
0.0
 11
127.3989823968
 21
440.4010766051
 31
0.0
  0
LINE
  5
11D
330
1F
100
AcDbEntity
  8
0
  6
SLD-Katı
 62
     7
370
    25
100
AcDbLine
 10
127.3989823968
 20
452.0868478325
 30
0.0
 11
127.3989823968
 21
451.5010770159
 31
0.0
  0
LINE
  5
11E
330
1F
100
AcDbEntity
  8
0
  6
SLD-Katı
 62
     7
370
    25
100
AcDbLine
 10
127.3989823968
 20
463.1868482433
 30
0.0
 11
127.3989823968
 21
462.6010770775
 31
0.0
  0
LINE
  5
11F
330
1F
100
AcDbEntity
  8
0
  6
SLD-Katı
 62
     7
370
    25
100
AcDbLine
 10
127.3989823968
 20
474.2868480138
 30
0.0
 11
127.3989823968
 21
473.7010777793
 31
0.0
  0
LINE
  5
120
330
1F
100
AcDbEntity
  8
0
  6
SLD-Katı
 62
     7
370
    25
100
AcDbLine
 10
127.3989823968
 20
484.8010775499
 30
0.0
 11
127.3989823968
 21
485.386849647
 31
0.0
  0
LINE
  5
121
330
1F
100
AcDbEntity
  8
0
  6
SLD-Katı
 62
     7
370
    25
100
AcDbLine
 10
127.2057441384
 20
496.7867445997
 30
0.0
 11
127.2989956051
 21
496.7834849707
 31
0.0
  0
LINE
  5
122
330
1F
100
AcDbEntity
  8
0
  6
SLD-Katı
 62
     7
370
    25
100
AcDbLine
 10
127.2989956051
 20
495.8044377021
 30
0.0
 11
127.2057441384
 21
495.8011817984
 31
0.0
  0
LINE
  5
123
330
1F
100
AcDbEntity
  8
0
  6
SLD-Katı
 62
     7
370
    25
100
AcDbLine
 10
127.2989956051
 20
484.6044381014
 30
0.0
 11
127.2057441384
 21
484.6011821977
 31
0.0
  0
ELLIPSE
  5
124
330
1F
100
AcDbEntity
  8
0
  6
SLD-Katı
 62
     7
370
    25
100
AcDbEllipse
 10
127.1987522848
 20
484.8010599617
 30
0.0
 11
0.2001224449699208
 21
0.006988429770842685
 31
0.0
210
0.0
220
0.0
230
1.0
 40
0.9987793495
 41
4.712388980386253
 42
6.248321296341156
  0
LINE
  5
125
330
1F
100
AcDbEntity
  8
0
  6
SLD-Katı
 62
     7
370
    25
100
AcDbLine
 10
127.2057441384
 20
485.5867412738
 30
0.0
 11
127.2989956051
 21
485.5834853701
 31
0.0
  0
ELLIPSE
  5
126
330
1F
100
AcDbEntity
  8
0
  6
SLD-Katı
 62
     7
370
    25
100
AcDbEllipse
 10
127.1987522848
 20
485.3868648867
 30
0.0
 11
-0.2001224449699208
 21
0.006988429770899528
 31
0.0
210
0.0
220
0.0
230
1.0
 40
0.9987793495
 41
3.176456664428535
 42
4.712388980384573
  0
ARC
  5
127
330
1F
100
AcDbEntity
  8
0
  6
SLD-Katı
 62
     7
370
    25
100
AcDbCircle
 10
127.1989964158
 20
485.7871001792
 30
0.0
 40
0.1999999999999744
100
AcDbArc
 50
180.0
 51
268.0
  0
ARC
  5
128
330
1F
100
AcDbEntity
  8
0
  6
SLD-Katı
 62
     7
370
    25
100
AcDbCircle
 10
127.1989964158
 20
484.4008246692
 30
0.0
 40
0.1999999999999744
100
AcDbArc
 50
92.0
 51
180.0
  0
LINE
  5
129
330
1F
100
AcDbEntity
  8
0
  6
SLD-Katı
 62
     7
370
    25
100
AcDbLine
 10
127.2057441384
 20
485.5867412738
 30
0.0
 11
127.1920052678
 21
485.5872218362
 31
0.0
  0
LINE
  5
12A
330
1F
100
AcDbEntity
  8
0
  6
SLD-Katı
 62
     7
370
    25
100
AcDbLine
 10
127.2057441384
 20
484.6011821977
 30
0.0
 11
127.1920052678
 21
484.6007016353
 31
0.0
  0
ARC
  5
12B
330
1F
100
AcDbEntity
  8
0
  6
SLD-Katı
 62
     7
370
    25
100
AcDbCircle
 10
127.1989964158
 20
473.3008246692
 30
0.0
 40
0.1999999999999744
100
AcDbArc
 50
92.0
 51
180.0
  0
ARC
  5
12C
330
1F
100
AcDbEntity
  8
0
  6
SLD-Katı
 62
     7
370
    25
100
AcDbCircle
 10
127.1989964158
 20
474.6871001792
 30
0.0
 40
0.1999999999999744
100
AcDbArc
 50
180.0
 51
268.0
  0
LINE
  5
12D
330
1F
100
AcDbEntity
  8
0
  6
SLD-Katı
 62
     7
370
    25
100
AcDbLine
 10
127.2057441384
 20
474.4867433659
 30
0.0
 11
127.1920052678
 21
474.4872220657
 31
0.0
  0
ELLIPSE
  5
12E
330
1F
100
AcDbEntity
  8
0
  6
SLD-Katı
 62
     7
370
    25
100
AcDbEllipse
 10
127.1987522848
 20
474.2868648867
 30
0.0
 11
-0.2001224449699208
 21
0.006988429770956372
 31
0.0
210
0.0
220
0.0
230
1.0
 40
0.9987793495
 41
3.176456664428819
 42
4.712388980384857
  0
ELLIPSE
  5
12F
330
1F
100
AcDbEntity
  8
0
  6
SLD-Katı
 62
     7
370
    25
100
AcDbEllipse
 10
127.1987522848
 20
473.7010599617
 30
0.0
 11
0.2001224449699208
 21
0.006988429770956372
 31
0.0
210
0.0
220
0.0
230
1.0
 40
0.9987793495
 41
4.712388980385695
 42
6.248321296340881
  0
LINE
  5
130
330
1F
100
AcDbEntity
  8
0
  6
SLD-Katı
 62
     7
370
    25
100
AcDbLine
 10
127.2057441384
 20
473.5011824272
 30
0.0
 11
127.1920052678
 21
473.5007037274
 31
0.0
  0
LINE
  5
131
330
1F
100
AcDbEntity
  8
0
  6
SLD-Katı
 62
     7
370
    25
100
AcDbLine
 10
127.2989956051
 20
473.5044383309
 30
0.0
 11
127.2057441384
 21
473.5011824272
 31
0.0
  0
LINE
  5
132
330
1F
100
AcDbEntity
  8
0
  6
SLD-Katı
 62
     7
370
    25
100
AcDbLine
 10
127.2057441384
 20
474.4867433659
 30
0.0
 11
127.2989956051
 21
474.4834855996
 31
0.0
  0
LINE
  5
133
330
1F
100
AcDbEntity
  8
0
  6
SLD-Katı
 62
     7
370
    25
100
AcDbLine
 10
127.2057441384
 20
463.3867426641
 30
0.0
 11
127.2989956051
 21
463.383485829
 31
0.0
  0
ELLIPSE
  5
134
330
1F
100
AcDbEntity
  8
0
  6
SLD-Katı
 62
     7
370
    25
100
AcDbEllipse
 10
127.1987522848
 20
463.1868648867
 30
0.0
 11
-0.2001224449699208
 21
0.006988429770956372
 31
0.0
210
0.0
220
0.0
230
1.0
 40
0.9987793495
 41
3.176456664429104
 42
4.712388980384857
  0
ARC
  5
135
330
1F
100
AcDbEntity
  8
0
  6
SLD-Katı
 62
     7
370
    25
100
AcDbCircle
 10
127.1989964158
 20
462.2008246692
 30
0.0
 40
0.1999999999999744
100
AcDbArc
 50
92.0
 51
180.0
  0
ELLIPSE
  5
136
330
1F
100
AcDbEntity
  8
0
  6
SLD-Katı
 62
     7
370
    25
100
AcDbEllipse
 10
127.1987522848
 20
462.6010599617
 30
0.0
 11
0.2001224449699208
 21
0.006988429770956372
 31
0.0
210
0.0
220
0.0
230
1.0
 40
0.9987793495
 41
4.712388980385695
 42
6.248321296340881
  0
LINE
  5
137
330
1F
100
AcDbEntity
  8
0
  6
SLD-Katı
 62
     7
370
    25
100
AcDbLine
 10
127.2057441384
 20
462.4011817254
 30
0.0
 11
127.1920052678
 21
462.4007030256
 31
0.0
  0
LINE
  5
138
330
1F
100
AcDbEntity
  8
0
  6
SLD-Katı
 62
     7
370
    25
100
AcDbLine
 10
127.2057441384
 20
463.3867426641
 30
0.0
 11
127.1920052678
 21
463.3872222952
 31
0.0
  0
ARC
  5
139
330
1F
100
AcDbEntity
  8
0
  6
SLD-Katı
 62
     7
370
    25
100
AcDbCircle
 10
127.1989964158
 20
463.5871001792
 30
0.0
 40
0.2000000000000264
100
AcDbArc
 50
180.0
 51
268.0
  0
LINE
  5
13A
330
1F
100
AcDbEntity
  8
0
  6
SLD-Katı
 62
     7
370
    25
100
AcDbLine
 10
127.2989956051
 20
462.4044385604
 30
0.0
 11
127.2057441384
 21
462.4011817254
 31
0.0
  0
ARC
  5
13B
330
1F
100
AcDbEntity
  8
0
  6
SLD-Katı
 62
     7
370
    25
100
AcDbCircle
 10
127.1989964158
 20
451.1008246692
 30
0.0
 40
0.2000000000000264
100
AcDbArc
 50
92.0
 51
180.0
  0
ARC
  5
13C
330
1F
100
AcDbEntity
  8
0
  6
SLD-Katı
 62
     7
370
    25
100
AcDbCircle
 10
127.1989964158
 20
452.4871001792
 30
0.0
 40
0.2000000000000264
100
AcDbArc
 50
180.0
 51
268.0
  0
LINE
  5
13D
330
1F
100
AcDbEntity
  8
0
  6
SLD-Katı
 62
     7
370
    25
100
AcDbLine
 10
127.2057441384
 20
452.2867430682
 30
0.0
 11
127.1920052678
 21
452.2872220008
 31
0.0
  0
ELLIPSE
  5
13E
330
1F
100
AcDbEntity
  8
0
  6
SLD-Katı
 62
     7
370
    25
100
AcDbEllipse
 10
127.1987522848
 20
452.0868648867
 30
0.0
 11
-0.2001224449699208
 21
0.006988429770899528
 31
0.0
210
0.0
220
0.0
230
1.0
 40
0.9987793495
 41
3.176456664428241
 42
4.712388980384564
  0
ELLIPSE
  5
13F
330
1F
100
AcDbEntity
  8
0
  6
SLD-Katı
 62
     7
370
    25
100
AcDbEllipse
 10
127.1987522848
 20
451.5010599617
 30
0.0
 11
0.2001224449699208
 21
0.006988429770899528
 31
0.0
210
0.0
220
0.0
230
1.0
 40
0.9987793495
 41
4.712388980385979
 42
6.248321296341167
  0
LINE
  5
140
330
1F
100
AcDbEntity
  8
0
  6
SLD-Katı
 62
     7
370
    25
100
AcDbLine
 10
127.2057441384
 20
451.3011817802
 30
0.0
 11
127.1920052678
 21
451.3007028476
 31
0.0
  0
LINE
  5
141
330
1F
100
AcDbEntity
  8
0
  6
SLD-Katı
 62
     7
370
    25
100
AcDbLine
 10
127.2989956051
 20
451.3044386735
 30
0.0
 11
127.2057441384
 21
451.3011817802
 31
0.0
  0
LINE
  5
142
330
1F
100
AcDbEntity
  8
0
  6
SLD-Katı
 62
     7
370
    25
100
AcDbLine
 10
127.2057441384
 20
452.2867430682
 30
0.0
 11
127.2989956051
 21
452.2834861749
 31
0.0
  0
ELLIPSE
  5
143
330
1F
100
AcDbEntity
  8
0
  6
SLD-Katı
 62
     7
370
    25
100
AcDbEllipse
 10
127.1987522848
 20
440.9868648867
 30
0.0
 11
-0.2001224449699208
 21
0.006988429770956372
 31
0.0
210
0.0
220
0.0
230
1.0
 40
0.9987793495
 41
3.176456664428525
 42
4.712388980384846
  0
LINE
  5
144
330
1F
100
AcDbEntity
  8
0
  6
SLD-Katı
 62
     7
370
    25
100
AcDbLine
 10
127.2057441384
 20
441.186743123
 30
0.0
 11
127.2989956051
 21
441.183486288
 31
0.0
  0
ARC
  5
145
330
1F
100
AcDbEntity
  8
0
  6
SLD-Katı
 62
     7
370
    25
100
AcDbCircle
 10
127.1989964158
 20
440.0008246692
 30
0.0
 40
0.2000000000000264
100
AcDbArc
 50
92.0
 51
180.0
  0
ELLIPSE
  5
146
330
1F
100
AcDbEntity
  8
0
  6
SLD-Katı
 62
     7
370
    25
100
AcDbEllipse
 10
127.1987522848
 20
440.4010599617
 30
0.0
 11
0.2001224449699208
 21
0.006988429770956372
 31
0.0
210
0.0
220
0.0
230
1.0
 40
0.9987793495
 41
4.712388980385695
 42
6.248321296340881
  0
LINE
  5
147
330
1F
100
AcDbEntity
  8
0
  6
SLD-Katı
 62
     7
370
    25
100
AcDbLine
 10
127.2057441384
 20
440.2011821843
 30
0.0
 11
127.1920052678
 21
440.2007025532
 31
0.0
  0
ARC
  5
148
330
1F
100
AcDbEntity
  8
0
  6
SLD-Katı
 62
     7
370
    25
100
AcDbCircle
 10
127.1989964158
 20
441.3871001792
 30
0.0
 40
0.2000000000000264
100
AcDbArc
 50
180.0
 51
268.0
  0
LINE
  5
149
330
1F
100
AcDbEntity
  8
0
  6
SLD-Katı
 62
     7
370
    25
100
AcDbLine
 10
127.2057441384
 20
441.186743123
 30
0.0
 11
127.1920052678
 21
441.1872218228
 31
0.0
  0
LINE
  5
14A
330
1F
100
AcDbEntity
  8
0
  6
SLD-Katı
 62
     7
370
    25
100
AcDbLine
 10
127.2989956051
 20
440.2044390194
 30
0.0
 11
127.2057441384
 21
440.2011821843
 31
0.0
  0
LINE
  5
14B
330
1F
100
AcDbEntity
  8
0
  6
SLD-Katı
 62
     7
370
    25
100
AcDbLine
 10
127.2989956051
 20
429.1044392488
 30
0.0
 11
127.2057441384
 21
429.1011814825
 31
0.0
  0
ELLIPSE
  5
14C
330
1F
100
AcDbEntity
  8
0
  6
SLD-Katı
 62
     7
370
    25
100
AcDbEllipse
 10
127.1987522848
 20
429.3010599617
 30
0.0
 11
0.2001224449699208
 21
0.006988429770899528
 31
0.0
210
0.0
220
0.0
230
1.0
 40
0.9987793495
 41
4.712388980385979
 42
6.248321296341167
  0
LINE
  5
14D
330
1F
100
AcDbEntity
  8
0
  6
SLD-Katı
 62
     7
370
    25
100
AcDbLine
 10
127.2057441384
 20
429.1011814825
 30
0.0
 11
127.1920052678
 21
429.1007027827
 31
0.0
  0
ARC
  5
14E
330
1F
100
AcDbEntity
  8
0
  6
SLD-Katı
 62
     7
370
    25
100
AcDbCircle
 10
127.1989964158
 20
428.9008246692
 30
0.0
 40
0.2000000000000264
100
AcDbArc
 50
92.0
 51
180.0
  0
ARC
  5
14F
330
1F
100
AcDbEntity
  8
0
  6
SLD-Katı
 62
     7
370
    25
100
AcDbCircle
 10
127.1989964158
 20
430.2871001792
 30
0.0
 40
0.2000000000000264
100
AcDbArc
 50
180.0
 51
268.0
  0
LINE
  5
150
330
1F
100
AcDbEntity
  8
0
  6
SLD-Katı
 62
     7
370
    25
100
AcDbLine
 10
127.2057441384
 20
430.0867424212
 30
0.0
 11
127.1920052678
 21
430.087221121
 31
0.0
  0
ELLIPSE
  5
151
330
1F
100
AcDbEntity
  8
0
  6
SLD-Katı
 62
     7
370
    25
100
AcDbEllipse
 10
127.1987522848
 20
429.8868648867
 30
0.0
 11
-0.2001224449699208
 21
0.006988429770842685
 31
0.0
210
0.0
220
0.0
230
1.0
 40
0.9987793495
 41
3.176456664427957
 42
4.712388980384279
  0
LINE
  5
152
330
1F
100
AcDbEntity
  8
0
  6
SLD-Katı
 62
     7
370
    25
100
AcDbLine
 10
127.2057441384
 20
430.0867424212
 30
0.0
 11
127.2989956051
 21
430.0834865175
 31
0.0
  0
ARC
  5
153
330
1F
100
AcDbEntity
  8
0
  6
SLD-Katı
 62
     7
370
    25
100
AcDbCircle
 10
127.1989964158
 20
417.8008246692
 30
0.0
 40
0.2000000000000264
100
AcDbArc
 50
92.0
 51
180.0
  0
ARC
  5
154
330
1F
100
AcDbEntity
  8
0
  6
SLD-Katı
 62
     7
370
    25
100
AcDbCircle
 10
127.1989964158
 20
419.1871001792
 30
0.0
 40
0.1999999999999744
100
AcDbArc
 50
180.0
 51
268.0
  0
LINE
  5
155
330
1F
100
AcDbEntity
  8
0
  6
SLD-Katı
 62
     7
370
    25
100
AcDbLine
 10
127.2057441384
 20
418.9867426507
 30
0.0
 11
127.1920052678
 21
418.9872232131
 31
0.0
  0
ELLIPSE
  5
156
330
1F
100
AcDbEntity
  8
0
  6
SLD-Katı
 62
     7
370
    25
100
AcDbEllipse
 10
127.1987522848
 20
418.7868648867
 30
0.0
 11
-0.2001224449699208
 21
0.006988429770956372
 31
0.0
210
0.0
220
0.0
230
1.0
 40
0.9987793495
 41
3.176456664428819
 42
4.712388980384857
  0
ELLIPSE
  5
157
330
1F
100
AcDbEntity
  8
0
  6
SLD-Katı
 62
     7
370
    25
100
AcDbEllipse
 10
127.1987522848
 20
418.2010599617
 30
0.0
 11
0.2001224449699208
 21
0.006988429770956372
 31
0.0
210
0.0
220
0.0
230
1.0
 40
0.9987793495
 41
4.712388980385685
 42
6.248321296340881
  0
LINE
  5
158
330
1F
100
AcDbEntity
  8
0
  6
SLD-Katı
 62
     7
370
    25
100
AcDbLine
 10
127.2057441384
 20
418.0011835746
 30
0.0
 11
127.1920052678
 21
418.0007030121
 31
0.0
  0
LINE
  5
159
330
1F
100
AcDbEntity
  8
0
  6
SLD-Katı
 62
     7
370
    25
100
AcDbLine
 10
127.2057441384
 20
418.9867426507
 30
0.0
 11
127.2989956051
 21
418.9834867469
 31
0.0
  0
LINE
  5
15A
330
1F
100
AcDbEntity
  8
0
  6
SLD-Katı
 62
     7
370
    25
100
AcDbLine
 10
127.2989956051
 20
418.0044394783
 30
0.0
 11
127.2057441384
 21
418.0011835746
 31
0.0
  0
ELLIPSE
  5
15B
330
1F
100
AcDbEntity
  8
0
  6
SLD-Katı
 62
     7
370
    25
100
AcDbEllipse
 10
127.1987522848
 20
407.0010599617
 30
0.0
 11
0.2001224449699208
 21
0.006988429770956372
 31
0.0
210
0.0
220
0.0
230
1.0
 40
0.9987793495
 41
4.712388980385685
 42
6.248321296340588
  0
LINE
  5
15C
330
1F
100
AcDbEntity
  8
0
  6
SLD-Katı
 62
     7
370
    25
100
AcDbLine
 10
127.2057441384
 20
406.8011802487
 30
0.0
 11
127.1920052678
 21
406.8007034115
 31
0.0
  0
ARC
  5
15D
330
1F
100
AcDbEntity
  8
0
  6
SLD-Katı
 62
     7
370
    25
100
AcDbCircle
 10
127.1989964158
 20
406.6008246692
 30
0.0
 40
0.1999999999999744
100
AcDbArc
 50
92.0
 51
180.0
  0
ARC
  5
15E
330
1F
100
AcDbEntity
  8
0
  6
SLD-Katı
 62
     7
370
    25
100
AcDbCircle
 10
127.1989964158
 20
407.9871001792
 30
0.0
 40
0.2000000000000264
100
AcDbArc
 50
180.0
 51
268.0
  0
ELLIPSE
  5
15F
330
1F
100
AcDbEntity
  8
0
  6
SLD-Katı
 62
     7
370
    25
100
AcDbEllipse
 10
127.1987522848
 20
407.5868648867
 30
0.0
 11
-0.2001224449699208
 21
0.006988429770956372
 31
0.0
210
0.0
220
0.0
230
1.0
 40
0.9987793495
 41
3.176456664428819
 42
4.712388980384857
  0
LINE
  5
160
330
1F
100
AcDbEntity
  8
0
  6
SLD-Katı
 62
     7
370
    25
100
AcDbLine
 10
127.2057441384
 20
407.78674305
 30
0.0
 11
127.1920052678
 21
407.7872236125
 31
0.0
  0
LINE
  5
161
330
1F
100
AcDbEntity
  8
0
  6
SLD-Katı
 62
     7
370
    25
100
AcDbLine
 10
127.2057441384
 20
407.78674305
 30
0.0
 11
127.2989956051
 21
407.7834871463
 31
0.0
  0
LINE
  5
162
330
1F
100
AcDbEntity
  8
0
  6
SLD-Katı
 62
     7
370
    25
100
AcDbLine
 10
127.2989956051
 20
406.8044398777
 30
0.0
 11
127.2057441384
 21
406.8011802487
 31
0.0
  0
LINE
  5
163
330
1F
100
AcDbEntity
  8
0
  6
SLD-Katı
 62
     7
370
    25
100
AcDbLine
 10
122.9989973218
 20
397.5939613632
 30
0.0
 11
126.041486612
 21
399.0068596653
 31
0.0
  0
LINE
  5
164
330
1F
100
AcDbEntity
  8
0
  6
SLD-Katı
 62
     7
370
    25
100
AcDbLine
 10
122.9989973218
 20
397.5939613632
 30
0.0
 11
126.999005428
 21
397.4542778782
 31
0.0
  0
LINE
  5
165
330
1F
100
AcDbEntity
  8
0
  6
SLD-Katı
 62
     7
370
    25
100
AcDbLine
 10
126.999005428
 20
397.4542778782
 30
0.0
 11
126.999005428
 21
398.9794489793
 31
0.0
  0
ELLIPSE
  5
166
330
1F
100
AcDbEntity
  8
0
  6
SLD-Katı
 62
     7
370
    25
100
AcDbEllipse
 10
120.3561392729
 20
402.5439624242
 30
0.0
 11
0.0
 21
6.546536707080008
 31
0.0
210
0.0
220
0.0
230
1.0
 40
0.4364357805
 41
4.322628247587254
 42
5.102149713182146
  0
LINE
  5
167
330
1F
100
AcDbEntity
  8
0
  6
SLD-Katı
 62
     7
370
    25
100
AcDbLine
 10
122.9989973218
 20
405.0314326636
 30
0.0
 11
122.9989973218
 21
498.5564921848
 31
0.0
  0
ELLIPSE
  5
168
330
1F
100
AcDbEntity
  8
0
  6
SLD-Katı
 62
     7
370
    25
100
AcDbEllipse
 10
120.3561392729
 20
501.0439624242
 30
0.0
 11
0.0
 21
6.546536707079838
 31
0.0
210
0.0
220
0.0
230
1.0
 40
0.4364357805
 41
4.322628247587259
 42
5.102149713182156
  0
LINE
  5
169
330
1F
100
AcDbEntity
  8
0
  6
SLD-Katı
 62
     7
370
    25
100
AcDbLine
 10
122.9989973218
 20
503.5314311139
 30
0.0
 11
122.9989973218
 21
505.9939634852
 31
0.0
  0
LINE
  5
16A
330
1F
100
AcDbEntity
  8
0
  6
SLD-Katı
 62
     7
370
    25
100
AcDbLine
 10
122.9989973218
 20
397.5939613632
 30
0.0
 11
122.9989973218
 21
400.0564937345
 31
0.0
  0
ARC
  5
16B
330
1F
100
AcDbEntity
  8
0
  6
SLD-Katı
 62
     7
370
    25
100
AcDbCircle
 10
128.6386557108
 20
495.7007628731
 30
0.0
 40
1.450098334831012
100
AcDbArc
 50
176.0481376681
 51
183.9518623319
  0
LINE
  5
16C
330
1F
100
AcDbEntity
  8
0
  6
SLD-Katı
 62
     7
370
    25
100
AcDbLine
 10
126.999005428
 20
495.6008245103
 30
0.0
 11
127.1920052678
 21
495.6008245103
 31
0.0
  0
LINE
  5
16D
330
1F
100
AcDbEntity
  8
0
  6
SLD-Katı
 62
     7
370
    25
100
AcDbLine
 10
127.1920052678
 20
495.6008245103
 30
0.0
 11
127.1920052678
 21
485.7870985619
 31
0.0
  0
LINE
  5
16E
330
1F
100
AcDbEntity
  8
0
  6
SLD-Katı
 62
     7
370
    25
100
AcDbLine
 10
127.1920052678
 20
485.7870985619
 30
0.0
 11
126.999005428
 21
485.7870985619
 31
0.0
  0
ARC
  5
16F
330
1F
100
AcDbEntity
  8
0
  6
SLD-Katı
 62
     7
370
    25
100
AcDbCircle
 10
128.6386557108
 20
484.5007632724
 30
0.0
 40
1.450098334831012
100
AcDbArc
 50
176.0481376681
 51
183.9518623319
  0
LINE
  5
170
330
1F
100
AcDbEntity
  8
0
  6
SLD-Katı
 62
     7
370
    25
100
AcDbLine
 10
126.999005428
 20
484.4008249096
 30
0.0
 11
127.1920052678
 21
484.4008249096
 31
0.0
  0
ARC
  5
171
330
1F
100
AcDbEntity
  8
0
  6
SLD-Katı
 62
     7
370
    25
100
AcDbCircle
 10
128.638641917
 20
485.6871601991
 30
0.0
 40
1.450084573779657
100
AcDbArc
 50
176.0481001061
 51
183.9518998939
  0
LINE
  5
172
330
1F
100
AcDbEntity
  8
0
  6
SLD-Katı
 62
     7
370
    25
100
AcDbLine
 10
127.1920052678
 20
484.4008249096
 30
0.0
 11
127.1920052678
 21
474.687100654
 31
0.0
  0
LINE
  5
173
330
1F
100
AcDbEntity
  8
0
  6
SLD-Katı
 62
     7
370
    25
100
AcDbLine
 10
127.1920052678
 20
474.687100654
 30
0.0
 11
126.999005428
 21
474.687100654
 31
0.0
  0
LINE
  5
174
330
1F
100
AcDbEntity
  8
0
  6
SLD-Katı
 62
     7
370
    25
100
AcDbLine
 10
127.1920052678
 20
473.3008251391
 30
0.0
 11
126.999005428
 21
473.3008251391
 31
0.0
  0
ARC
  5
175
330
1F
100
AcDbEntity
  8
0
  6
SLD-Katı
 62
     7
370
    25
100
AcDbCircle
 10
128.6386775969
 20
473.4007644332
 30
0.0
 40
1.450120233081144
100
AcDbArc
 50
176.0481605547
 51
183.9518394453
  0
ARC
  5
176
330
1F
100
AcDbEntity
  8
0
  6
SLD-Katı
 62
     7
370
    25
100
AcDbCircle
 10
128.6386686321
 20
474.5871613599
 30
0.0
 40
1.450111289608355
100
AcDbArc
 50
176.0481361433
 51
183.9518638567
  0
LINE
  5
177
330
1F
100
AcDbEntity
  8
0
  6
SLD-Katı
 62
     7
370
    25
100
AcDbLine
 10
127.1920052678
 20
473.3008251391
 30
0.0
 11
127.1920052678
 21
463.5870999522
 31
0.0
  0
LINE
  5
178
330
1F
100
AcDbEntity
  8
0
  6
SLD-Katı
 62
     7
370
    25
100
AcDbLine
 10
127.1920052678
 20
463.5870999522
 30
0.0
 11
126.999005428
 21
463.5870999522
 31
0.0
  0
LINE
  5
179
330
1F
100
AcDbEntity
  8
0
  6
SLD-Katı
 62
     7
370
    25
100
AcDbLine
 10
127.1920052678
 20
462.2008244372
 30
0.0
 11
126.999005428
 21
462.2008244372
 31
0.0
  0
ARC
  5
17A
330
1F
100
AcDbEntity
  8
0
  6
SLD-Katı
 62
     7
370
    25
100
AcDbCircle
 10
128.6386765631
 20
462.3007637314
 30
0.0
 40
1.450119201726274
100
AcDbArc
 50
176.0481577396
 51
183.9518422604
  0
ARC
  5
17B
330
1F
100
AcDbEntity
  8
0
  6
SLD-Katı
 62
     7
370
    25
100
AcDbCircle
 10
128.6386463032
 20
463.4871611237
 30
0.0
 40
1.450088981667234
100
AcDbArc
 50
176.0480936949
 51
183.9519063051
  0
LINE
  5
17C
330
1F
100
AcDbEntity
  8
0
  6
SLD-Katı
 62
     7
370
    25
100
AcDbLine
 10
127.1920052678
 20
462.2008244372
 30
0.0
 11
127.1920052678
 21
452.4871001817
 31
0.0
  0
LINE
  5
17D
330
1F
100
AcDbEntity
  8
0
  6
SLD-Katı
 62
     7
370
    25
100
AcDbLine
 10
127.1920052678
 20
452.4871001817
 30
0.0
 11
126.999005428
 21
452.4871001817
 31
0.0
  0
LINE
  5
17E
330
1F
100
AcDbEntity
  8
0
  6
SLD-Katı
 62
     7
370
    25
100
AcDbLine
 10
127.1920052678
 20
451.1008246667
 30
0.0
 11
126.999005428
 21
451.1008246667
 31
0.0
  0
ARC
  5
17F
330
1F
100
AcDbEntity
  8
0
  6
SLD-Katı
 62
     7
370
    25
100
AcDbCircle
 10
128.638663735
 20
451.2007637571
 30
0.0
 40
1.450106390103683
100
AcDbArc
 50
176.0481308385
 51
183.9518691615
  0
ARC
  5
180
330
1F
100
AcDbEntity
  8
0
  6
SLD-Katı
 62
     7
370
    25
100
AcDbCircle
 10
128.638663735
 20
452.3871610912
 30
0.0
 40
1.450106390103683
100
AcDbArc
 50
176.0481308385
 51
183.9518691615
  0
LINE
  5
181
330
1F
100
AcDbEntity
  8
0
  6
SLD-Katı
 62
     7
370
    25
100
AcDbLine
 10
127.1920052678
 20
451.1008246667
 30
0.0
 11
127.1920052678
 21
441.3871004112
 31
0.0
  0
LINE
  5
182
330
1F
100
AcDbEntity
  8
0
  6
SLD-Katı
 62
     7
370
    25
100
AcDbLine
 10
127.1920052678
 20
441.3871004112
 30
0.0
 11
126.999005428
 21
441.3871004112
 31
0.0
  0
ARC
  5
183
330
1F
100
AcDbEntity
  8
0
  6
SLD-Katı
 62
     7
370
    25
100
AcDbCircle
 10
128.6386765631
 20
441.287161117
 30
0.0
 40
1.450119201726274
100
AcDbArc
 50
176.0481577396
 51
183.9518422604
  0
ARC
  5
184
330
1F
100
AcDbEntity
  8
0
  6
SLD-Katı
 62
     7
370
    25
100
AcDbCircle
 10
128.6386463032
 20
440.1007637247
 30
0.0
 40
1.450088981667234
100
AcDbArc
 50
176.0480936949
 51
183.9519063051
  0
LINE
  5
185
330
1F
100
AcDbEntity
  8
0
  6
SLD-Katı
 62
     7
370
    25
100
AcDbLine
 10
127.1920052678
 20
440.0008248962
 30
0.0
 11
127.1920052678
 21
430.2870997093
 31
0.0
  0
LINE
  5
186
330
1F
100
AcDbEntity
  8
0
  6
SLD-Katı
 62
     7
370
    25
100
AcDbLine
 10
127.1920052678
 20
430.2870997093
 30
0.0
 11
126.999005428
 21
430.2870997093
 31
0.0
  0
LINE
  5
187
330
1F
100
AcDbEntity
  8
0
  6
SLD-Katı
 62
     7
370
    25
100
AcDbLine
 10
126.999005428
 20
440.0008248962
 30
0.0
 11
127.1920052678
 21
440.0008248962
 31
0.0
  0
ARC
  5
188
330
1F
100
AcDbEntity
  8
0
  6
SLD-Katı
 62
     7
370
    25
100
AcDbCircle
 10
128.6386686321
 20
429.0007634885
 30
0.0
 40
1.450111289608327
100
AcDbArc
 50
176.0481361433
 51
183.9518638567
  0
ARC
  5
189
330
1F
100
AcDbEntity
  8
0
  6
SLD-Katı
 62
     7
370
    25
100
AcDbCircle
 10
128.6386775969
 20
430.1871604152
 30
0.0
 40
1.450120233081144
100
AcDbArc
 50
176.0481605547
 51
183.9518394453
  0
LINE
  5
18A
330
1F
100
AcDbEntity
  8
0
  6
SLD-Katı
 62
     7
370
    25
100
AcDbLine
 10
126.999005428
 20
428.9008241943
 30
0.0
 11
127.1920052678
 21
428.9008241943
 31
0.0
  0
LINE
  5
18B
330
1F
100
AcDbEntity
  8
0
  6
SLD-Katı
 62
     7
370
    25
100
AcDbLine
 10
127.1920052678
 20
428.9008241943
 30
0.0
 11
127.1920052678
 21
419.1870999388
 31
0.0
  0
LINE
  5
18C
330
1F
100
AcDbEntity
  8
0
  6
SLD-Katı
 62
     7
370
    25
100
AcDbLine
 10
127.1920052678
 20
419.1870999388
 30
0.0
 11
126.999005428
 21
419.1870999388
 31
0.0
  0
ARC
  5
18D
330
1F
100
AcDbEntity
  8
0
  6
SLD-Katı
 62
     7
370
    25
100
AcDbCircle
 10
128.6386557108
 20
419.087161576
 30
0.0
 40
1.450098334831012
100
AcDbArc
 50
176.0481376681
 51
183.9518623319
  0
LINE
  5
18E
330
1F
100
AcDbEntity
  8
0
  6
SLD-Katı
 62
     7
370
    25
100
AcDbLine
 10
127.1920052678
 20
417.8008262865
 30
0.0
 11
127.1920052678
 21
407.9871003381
 31
0.0
  0
LINE
  5
18F
330
1F
100
AcDbEntity
  8
0
  6
SLD-Katı
 62
     7
370
    25
100
AcDbLine
 10
127.1920052678
 20
407.9871003381
 30
0.0
 11
126.999005428
 21
407.9871003381
 31
0.0
  0
LINE
  5
190
330
1F
100
AcDbEntity
  8
0
  6
SLD-Katı
 62
     7
370
    25
100
AcDbLine
 10
126.999005428
 20
417.8008262865
 30
0.0
 11
127.1920052678
 21
417.8008262865
 31
0.0
  0
ARC
  5
191
330
1F
100
AcDbEntity
  8
0
  6
SLD-Katı
 62
     7
370
    25
100
AcDbCircle
 10
128.638641917
 20
417.9007646493
 30
0.0
 40
1.450084573779629
100
AcDbArc
 50
176.0481001061
 51
183.9518998939
  0
ARC
  5
192
330
1F
100
AcDbEntity
  8
0
  6
SLD-Katı
 62
     7
370
    25
100
AcDbCircle
 10
128.6386557108
 20
407.8871619753
 30
0.0
 40
1.450098334831012
100
AcDbArc
 50
176.0481376681
 51
183.9518623319
  0
LINE
  5
193
330
1F
100
AcDbEntity
  8
0
  6
SLD-Katı
 62
     7
370
    25
100
AcDbLine
 10
1079.3565062195
 20
399.0068596653
 30
0.0
 11
1078.3989874035
 21
398.9794489793
 31
0.0
  0
LINE
  5
194
330
1F
100
AcDbEntity
  8
0
  6
SLD-Katı
 62
     7
370
    25
100
AcDbLine
 10
1078.3989874035
 20
406.6008229605
 30
0.0
 11
1078.3989874035
 21
407.9871003381
 31
0.0
  0
LINE
  5
195
330
1F
100
AcDbEntity
  8
0
  6
SLD-Katı
 62
     7
370
    25
100
AcDbLine
 10
1078.3989874035
 20
417.8008262865
 30
0.0
 11
1078.3989874035
 21
407.9871003381
 31
0.0
  0
LINE
  5
196
330
1F
100
AcDbEntity
  8
0
  6
SLD-Katı
 62
     7
370
    25
100
AcDbLine
 10
1078.3989874035
 20
417.8008262865
 30
0.0
 11
1078.3989874035
 21
419.1870999388
 31
0.0
  0
LINE
  5
197
330
1F
100
AcDbEntity
  8
0
  6
SLD-Katı
 62
     7
370
    25
100
AcDbLine
 10
1078.3989874035
 20
428.9008241943
 30
0.0
 11
1078.3989874035
 21
419.1870999388
 31
0.0
  0
LINE
  5
198
330
1F
100
AcDbEntity
  8
0
  6
SLD-Katı
 62
     7
370
    25
100
AcDbLine
 10
1078.3989874035
 20
428.9008241943
 30
0.0
 11
1078.3989874035
 21
430.2870997093
 31
0.0
  0
LINE
  5
199
330
1F
100
AcDbEntity
  8
0
  6
SLD-Katı
 62
     7
370
    25
100
AcDbLine
 10
1078.3989874035
 20
440.0008248962
 30
0.0
 11
1078.3989874035
 21
430.2870997093
 31
0.0
  0
LINE
  5
19A
330
1F
100
AcDbEntity
  8
0
  6
SLD-Katı
 62
     7
370
    25
100
AcDbLine
 10
1078.3989874035
 20
440.0008248962
 30
0.0
 11
1078.3989874035
 21
441.3871004112
 31
0.0
  0
LINE
  5
19B
330
1F
100
AcDbEntity
  8
0
  6
SLD-Katı
 62
     7
370
    25
100
AcDbLine
 10
1078.3989874035
 20
451.1008246667
 30
0.0
 11
1078.3989874035
 21
441.3871004112
 31
0.0
  0
LINE
  5
19C
330
1F
100
AcDbEntity
  8
0
  6
SLD-Katı
 62
     7
370
    25
100
AcDbLine
 10
1078.3989874035
 20
451.1008246667
 30
0.0
 11
1078.3989874035
 21
452.4871001817
 31
0.0
  0
LINE
  5
19D
330
1F
100
AcDbEntity
  8
0
  6
SLD-Katı
 62
     7
370
    25
100
AcDbLine
 10
1078.3989874035
 20
462.2008244372
 30
0.0
 11
1078.3989874035
 21
452.4871001817
 31
0.0
  0
LINE
  5
19E
330
1F
100
AcDbEntity
  8
0
  6
SLD-Katı
 62
     7
370
    25
100
AcDbLine
 10
1078.3989874035
 20
462.2008244372
 30
0.0
 11
1078.3989874035
 21
463.5870999522
 31
0.0
  0
LINE
  5
19F
330
1F
100
AcDbEntity
  8
0
  6
SLD-Katı
 62
     7
370
    25
100
AcDbLine
 10
1078.3989874035
 20
473.3008251391
 30
0.0
 11
1078.3989874035
 21
463.5870999522
 31
0.0
  0
LINE
  5
1A0
330
1F
100
AcDbEntity
  8
0
  6
SLD-Katı
 62
     7
370
    25
100
AcDbLine
 10
1078.3989874035
 20
473.3008251391
 30
0.0
 11
1078.3989874035
 21
474.687100654
 31
0.0
  0
LINE
  5
1A1
330
1F
100
AcDbEntity
  8
0
  6
SLD-Katı
 62
     7
370
    25
100
AcDbLine
 10
1078.3989874035
 20
484.4008249096
 30
0.0
 11
1078.3989874035
 21
474.687100654
 31
0.0
  0
LINE
  5
1A2
330
1F
100
AcDbEntity
  8
0
  6
SLD-Katı
 62
     7
370
    25
100
AcDbLine
 10
1078.3989874035
 20
484.4008249096
 30
0.0
 11
1078.3989874035
 21
485.7870985619
 31
0.0
  0
LINE
  5
1A3
330
1F
100
AcDbEntity
  8
0
  6
SLD-Katı
 62
     7
370
    25
100
AcDbLine
 10
1078.3989874035
 20
495.6008245103
 30
0.0
 11
1078.3989874035
 21
485.7870985619
 31
0.0
  0
LINE
  5
1A4
330
1F
100
AcDbEntity
  8
0
  6
SLD-Katı
 62
     7
370
    25
100
AcDbLine
 10
1078.3989874035
 20
495.6008245103
 30
0.0
 11
1078.3989874035
 21
496.9871018879
 31
0.0
  0
LINE
  5
1A5
330
1F
100
AcDbEntity
  8
0
  6
SLD-Katı
 62
     7
370
    25
100
AcDbLine
 10
1079.3565062195
 20
504.5810651831
 30
0.0
 11
1078.3989874035
 21
504.6084758691
 31
0.0
  0
LINE
  5
1A6
330
1F
100
AcDbEntity
  8
0
  6
SLD-Katı
 62
     7
370
    25
100
AcDbLine
 10
1079.3565062195
 20
504.5810651831
 30
0.0
 11
1079.3565062195
 21
399.0068596653
 31
0.0
  0
LINE
  5
1A7
330
1F
100
AcDbEntity
  8
0
  6
SLD-Katı
 62
     7
370
    25
100
AcDbLine
 10
1078.3989874035
 20
406.6008229605
 30
0.0
 11
1078.3989874035
 21
398.9794489793
 31
0.0
  0
LINE
  5
1A8
330
1F
100
AcDbEntity
  8
0
  6
SLD-Katı
 62
     7
370
    25
100
AcDbLine
 10
1078.3989874035
 20
504.6084758691
 30
0.0
 11
1078.3989874035
 21
496.9871018879
 31
0.0
  0
LINE
  5
1A9
330
1F
100
AcDbEntity
  8
0
  6
SLD-Katı
 62
     7
370
    25
100
AcDbLine
 10
1082.3989955098
 20
505.9939634852
 30
0.0
 11
1079.3565062195
 21
504.5810651831
 31
0.0
  0
LINE
  5
1AA
330
1F
100
AcDbEntity
  8
0
  6
SLD-Katı
 62
     7
370
    25
100
AcDbLine
 10
1082.3989955098
 20
505.9939634852
 30
0.0
 11
1078.3989874035
 21
506.1336469702
 31
0.0
  0
LINE
  5
1AB
330
1F
100
AcDbEntity
  8
0
  6
SLD-Katı
 62
     7
370
    25
100
AcDbLine
 10
1078.3989874035
 20
506.1336469702
 30
0.0
 11
1078.3989874035
 21
504.6084758691
 31
0.0
  0
LINE
  5
1AC
330
1F
100
AcDbEntity
  8
0
  6
SLD-Katı
 62
     7
370
    25
100
AcDbLine
 10
1077.9990104348
 20
496.0010771505
 30
0.0
 11
1077.9990104348
 21
496.5868492476
 31
0.0
  0
LINE
  5
1AD
330
1F
100
AcDbEntity
  8
0
  6
SLD-Katı
 62
     7
370
    25
100
AcDbLine
 10
1077.9990104348
 20
484.8010775499
 30
0.0
 11
1077.9990104348
 21
485.386849647
 31
0.0
  0
LINE
  5
1AE
330
1F
100
AcDbEntity
  8
0
  6
SLD-Katı
 62
     7
370
    25
100
AcDbLine
 10
1077.9990104348
 20
473.7010777793
 30
0.0
 11
1077.9990104348
 21
474.2868480138
 31
0.0
  0
LINE
  5
1AF
330
1F
100
AcDbEntity
  8
0
  6
SLD-Katı
 62
     7
370
    25
100
AcDbLine
 10
1077.9990104348
 20
462.6010770775
 30
0.0
 11
1077.9990104348
 21
463.1868482433
 31
0.0
  0
LINE
  5
1B0
330
1F
100
AcDbEntity
  8
0
  6
SLD-Katı
 62
     7
370
    25
100
AcDbLine
 10
1077.9990104348
 20
451.5010770159
 30
0.0
 11
1077.9990104348
 21
452.0868478325
 31
0.0
  0
LINE
  5
1B1
330
1F
100
AcDbEntity
  8
0
  6
SLD-Katı
 62
     7
370
    25
100
AcDbLine
 10
1077.9990104348
 20
440.4010766051
 30
0.0
 11
1077.9990104348
 21
440.9868477709
 31
0.0
  0
LINE
  5
1B2
330
1F
100
AcDbEntity
  8
0
  6
SLD-Katı
 62
     7
370
    25
100
AcDbLine
 10
1077.9990104348
 20
429.3010768346
 30
0.0
 11
1077.9990104348
 21
429.8868470691
 31
0.0
  0
LINE
  5
1B3
330
1F
100
AcDbEntity
  8
0
  6
SLD-Katı
 62
     7
370
    25
100
AcDbLine
 10
1077.9990104348
 20
418.7868472985
 30
0.0
 11
1077.9990104348
 21
418.2010752014
 31
0.0
  0
LINE
  5
1B4
330
1F
100
AcDbEntity
  8
0
  6
SLD-Katı
 62
     7
370
    25
100
AcDbLine
 10
1077.9990104348
 20
407.0010756008
 30
0.0
 11
1077.9990104348
 21
407.5868476979
 31
0.0
  0
ELLIPSE
  5
1B5
330
1F
100
AcDbEntity
  8
0
  6
SLD-Katı
 62
     7
370
    25
100
AcDbEllipse
 10
1078.1992405467
 20
496.5868648867
 30
0.0
 11
-0.2001224449697929
 21
-0.006988429770956373
 31
0.0
210
0.0
220
0.0
230
1.0
 40
0.9987793495
 41
4.712388980385247
 42
6.248321296340882
  0
LINE
  5
1B6
330
1F
100
AcDbEntity
  8
0
  6
SLD-Katı
 62
     7
370
    25
100
AcDbLine
 10
1078.0989972264
 20
496.7834849707
 30
0.0
 11
1078.1922486931
 21
496.7867445997
 31
0.0
  0
ARC
  5
1B7
330
1F
100
AcDbEntity
  8
0
  6
SLD-Katı
 62
     7
370
    25
100
AcDbCircle
 10
1078.1989964158
 20
496.9871001792
 30
0.0
 40
0.2000000000000455
100
AcDbArc
 50
272.0
 51
0.0
  0
ARC
  5
1B8
330
1F
100
AcDbEntity
  8
0
  6
SLD-Katı
 62
     7
370
    25
100
AcDbCircle
 10
1078.1989964158
 20
495.6008246692
 30
0.0
 40
0.2000000000000455
100
AcDbArc
 50
0.0
 51
88.0
  0
LINE
  5
1B9
330
1F
100
AcDbEntity
  8
0
  6
SLD-Katı
 62
     7
370
    25
100
AcDbLine
 10
1078.1922486931
 20
495.8011817984
 30
0.0
 11
1078.2059875638
 21
495.8007012359
 31
0.0
  0
ELLIPSE
  5
1BA
330
1F
100
AcDbEntity
  8
0
  6
SLD-Katı
 62
     7
370
    25
100
AcDbEllipse
 10
1078.1992405467
 20
496.0010599617
 30
0.0
 11
0.2001224449700203
 21
-0.006988429770956373
 31
0.0
210
0.0
220
0.0
230
1.0
 40
0.9987793495
 41
3.176456664428809
 42
4.712388980385255
  0
LINE
  5
1BB
330
1F
100
AcDbEntity
  8
0
  6
SLD-Katı
 62
     7
370
    25
100
AcDbLine
 10
1078.1922486931
 20
496.7867445997
 30
0.0
 11
1078.2059875638
 21
496.7872214369
 31
0.0
  0
LINE
  5
1BC
330
1F
100
AcDbEntity
  8
0
  6
SLD-Katı
 62
     7
370
    25
100
AcDbLine
 10
1078.1922486931
 20
495.8011817984
 30
0.0
 11
1078.0989972264
 21
495.8044377021
 31
0.0
  0
LINE
  5
1BD
330
1F
100
AcDbEntity
  8
0
  6
SLD-Katı
 62
     7
370
    25
100
AcDbLine
 10
1078.1922486931
 20
484.6011821977
 30
0.0
 11
1078.0989972264
 21
484.6044381014
 31
0.0
  0
ELLIPSE
  5
1BE
330
1F
100
AcDbEntity
  8
0
  6
SLD-Katı
 62
     7
370
    25
100
AcDbEllipse
 10
1078.1992405467
 20
484.8010599617
 30
0.0
 11
0.2001224449700203
 21
-0.006988429770956373
 31
0.0
210
0.0
220
0.0
230
1.0
 40
0.9987793495
 41
3.176456664428819
 42
4.712388980385264
  0
LINE
  5
1BF
330
1F
100
AcDbEntity
  8
0
  6
SLD-Katı
 62
     7
370
    25
100
AcDbLine
 10
1078.0989972264
 20
485.5834853701
 30
0.0
 11
1078.1922486931
 21
485.5867412738
 31
0.0
  0
ELLIPSE
  5
1C0
330
1F
100
AcDbEntity
  8
0
  6
SLD-Katı
 62
     7
370
    25
100
AcDbEllipse
 10
1078.1992405467
 20
485.3868648867
 30
0.0
 11
-0.2001224449697929
 21
-0.006988429770956373
 31
0.0
210
0.0
220
0.0
230
1.0
 40
0.9987793495
 41
4.712388980385238
 42
6.248321296340588
  0
LINE
  5
1C1
330
1F
100
AcDbEntity
  8
0
  6
SLD-Katı
 62
     7
370
    25
100
AcDbLine
 10
1078.1922486931
 20
485.5867412738
 30
0.0
 11
1078.2059875638
 21
485.5872218362
 31
0.0
  0
LINE
  5
1C2
330
1F
100
AcDbEntity
  8
0
  6
SLD-Katı
 62
     7
370
    25
100
AcDbLine
 10
1078.1922486931
 20
484.6011821977
 30
0.0
 11
1078.2059875638
 21
484.6007016353
 31
0.0
  0
ARC
  5
1C3
330
1F
100
AcDbEntity
  8
0
  6
SLD-Katı
 62
     7
370
    25
100
AcDbCircle
 10
1078.1989964158
 20
484.4008246692
 30
0.0
 40
0.2000000000000455
100
AcDbArc
 50
0.0
 51
88.0
  0
ARC
  5
1C4
330
1F
100
AcDbEntity
  8
0
  6
SLD-Katı
 62
     7
370
    25
100
AcDbCircle
 10
1078.1989964158
 20
485.7871001792
 30
0.0
 40
0.2000000000000455
100
AcDbArc
 50
272.0
 51
0.0
  0
ELLIPSE
  5
1C5
330
1F
100
AcDbEntity
  8
0
  6
SLD-Katı
 62
     7
370
    25
100
AcDbEllipse
 10
1078.1992405467
 20
474.2868648867
 30
0.0
 11
-0.200122444969793
 21
-0.006988429770842687
 31
0.0
210
0.0
220
0.0
230
1.0
 40
0.9987793495
 41
4.712388980385804
 42
6.248321296341157
  0
LINE
  5
1C6
330
1F
100
AcDbEntity
  8
0
  6
SLD-Katı
 62
     7
370
    25
100
AcDbLine
 10
1078.1922486931
 20
474.4867433659
 30
0.0
 11
1078.2059875638
 21
474.4872220657
 31
0.0
  0
ARC
  5
1C7
330
1F
100
AcDbEntity
  8
0
  6
SLD-Katı
 62
     7
370
    25
100
AcDbCircle
 10
1078.1989964158
 20
473.3008246692
 30
0.0
 40
0.2000000000000455
100
AcDbArc
 50
0.0
 51
88.0
  0
LINE
  5
1C8
330
1F
100
AcDbEntity
  8
0
  6
SLD-Katı
 62
     7
370
    25
100
AcDbLine
 10
1078.1922486931
 20
473.5011824272
 30
0.0
 11
1078.2059875638
 21
473.5007037274
 31
0.0
  0
ELLIPSE
  5
1C9
330
1F
100
AcDbEntity
  8
0
  6
SLD-Katı
 62
     7
370
    25
100
AcDbEllipse
 10
1078.1992405467
 20
473.7010599617
 30
0.0
 11
0.2001224449700203
 21
-0.006988429770956373
 31
0.0
210
0.0
220
0.0
230
1.0
 40
0.9987793495
 41
3.176456664428809
 42
4.712388980385264
  0
ARC
  5
1CA
330
1F
100
AcDbEntity
  8
0
  6
SLD-Katı
 62
     7
370
    25
100
AcDbCircle
 10
1078.1989964158
 20
474.6871001792
 30
0.0
 40
0.2000000000000455
100
AcDbArc
 50
272.0
 51
0.0
  0
LINE
  5
1CB
330
1F
100
AcDbEntity
  8
0
  6
SLD-Katı
 62
     7
370
    25
100
AcDbLine
 10
1078.0989972264
 20
474.4834855996
 30
0.0
 11
1078.1922486931
 21
474.4867433659
 31
0.0
  0
LINE
  5
1CC
330
1F
100
AcDbEntity
  8
0
  6
SLD-Katı
 62
     7
370
    25
100
AcDbLine
 10
1078.1922486931
 20
473.5011824272
 30
0.0
 11
1078.0989972264
 21
473.5044383309
 31
0.0
  0
ARC
  5
1CD
330
1F
100
AcDbEntity
  8
0
  6
SLD-Katı
 62
     7
370
    25
100
AcDbCircle
 10
1078.1989964158
 20
463.5871001792
 30
0.0
 40
0.2000000000000455
100
AcDbArc
 50
272.0
 51
0.0
  0
ARC
  5
1CE
330
1F
100
AcDbEntity
  8
0
  6
SLD-Katı
 62
     7
370
    25
100
AcDbCircle
 10
1078.1989964158
 20
462.2008246692
 30
0.0
 40
0.2000000000000455
100
AcDbArc
 50
0.0
 51
88.0
  0
LINE
  5
1CF
330
1F
100
AcDbEntity
  8
0
  6
SLD-Katı
 62
     7
370
    25
100
AcDbLine
 10
1078.1922486931
 20
462.4011817254
 30
0.0
 11
1078.2059875638
 21
462.4007030256
 31
0.0
  0
ELLIPSE
  5
1D0
330
1F
100
AcDbEntity
  8
0
  6
SLD-Katı
 62
     7
370
    25
100
AcDbEllipse
 10
1078.1992405467
 20
462.6010599617
 30
0.0
 11
0.2001224449700204
 21
-0.006988429770899531
 31
0.0
210
0.0
220
0.0
230
1.0
 40
0.9987793495
 41
3.176456664428525
 42
4.712388980384981
  0
ELLIPSE
  5
1D1
330
1F
100
AcDbEntity
  8
0
  6
SLD-Katı
 62
     7
370
    25
100
AcDbEllipse
 10
1078.1992405467
 20
463.1868648867
 30
0.0
 11
-0.2001224449697929
 21
-0.006988429770899529
 31
0.0
210
0.0
220
0.0
230
1.0
 40
0.9987793495
 41
4.712388980385521
 42
6.248321296340873
  0
LINE
  5
1D2
330
1F
100
AcDbEntity
  8
0
  6
SLD-Katı
 62
     7
370
    25
100
AcDbLine
 10
1078.1922486931
 20
463.3867426641
 30
0.0
 11
1078.2059875638
 21
463.3872222952
 31
0.0
  0
LINE
  5
1D3
330
1F
100
AcDbEntity
  8
0
  6
SLD-Katı
 62
     7
370
    25
100
AcDbLine
 10
1078.0989972264
 20
463.383485829
 30
0.0
 11
1078.1922486931
 21
463.3867426641
 31
0.0
  0
LINE
  5
1D4
330
1F
100
AcDbEntity
  8
0
  6
SLD-Katı
 62
     7
370
    25
100
AcDbLine
 10
1078.1922486931
 20
462.4011817254
 30
0.0
 11
1078.0989972264
 21
462.4044385604
 31
0.0
  0
LINE
  5
1D5
330
1F
100
AcDbEntity
  8
0
  6
SLD-Katı
 62
     7
370
    25
100
AcDbLine
 10
1078.1922486931
 20
451.3011817802
 30
0.0
 11
1078.0989972264
 21
451.3044386735
 31
0.0
  0
ELLIPSE
  5
1D6
330
1F
100
AcDbEntity
  8
0
  6
SLD-Katı
 62
     7
370
    25
100
AcDbEllipse
 10
1078.1992405467
 20
451.5010599617
 30
0.0
 11
0.2001224449700203
 21
-0.006988429770956373
 31
0.0
210
0.0
220
0.0
230
1.0
 40
0.9987793495
 41
3.176456664428819
 42
4.712388980385264
  0
ELLIPSE
  5
1D7
330
1F
100
AcDbEntity
  8
0
  6
SLD-Katı
 62
     7
370
    25
100
AcDbEllipse
 10
1078.1992405467
 20
452.0868648867
 30
0.0
 11
-0.2001224449697929
 21
-0.006988429770956373
 31
0.0
210
0.0
220
0.0
230
1.0
 40
0.9987793495
 41
4.712388980385238
 42
6.248321296340588
  0
LINE
  5
1D8
330
1F
100
AcDbEntity
  8
0
  6
SLD-Katı
 62
     7
370
    25
100
AcDbLine
 10
1078.0989972264
 20
452.2834861749
 30
0.0
 11
1078.1922486931
 21
452.2867430682
 31
0.0
  0
ARC
  5
1D9
330
1F
100
AcDbEntity
  8
0
  6
SLD-Katı
 62
     7
370
    25
100
AcDbCircle
 10
1078.1989964158
 20
452.4871001792
 30
0.0
 40
0.2000000000000455
100
AcDbArc
 50
272.0
 51
0.0
  0
LINE
  5
1DA
330
1F
100
AcDbEntity
  8
0
  6
SLD-Katı
 62
     7
370
    25
100
AcDbLine
 10
1078.1922486931
 20
451.3011817802
 30
0.0
 11
1078.2059875638
 21
451.3007028476
 31
0.0
  0
ARC
  5
1DB
330
1F
100
AcDbEntity
  8
0
  6
SLD-Katı
 62
     7
370
    25
100
AcDbCircle
 10
1078.1989964158
 20
451.1008246692
 30
0.0
 40
0.2000000000000455
100
AcDbArc
 50
0.0
 51
88.0
  0
LINE
  5
1DC
330
1F
100
AcDbEntity
  8
0
  6
SLD-Katı
 62
     7
370
    25
100
AcDbLine
 10
1078.1922486931
 20
452.2867430682
 30
0.0
 11
1078.2059875638
 21
452.2872220008
 31
0.0
  0
LINE
  5
1DD
330
1F
100
AcDbEntity
  8
0
  6
SLD-Katı
 62
     7
370
    25
100
AcDbLine
 10
1078.0989972264
 20
441.183486288
 30
0.0
 11
1078.1922486931
 21
441.186743123
 31
0.0
  0
ELLIPSE
  5
1DE
330
1F
100
AcDbEntity
  8
0
  6
SLD-Katı
 62
     7
370
    25
100
AcDbEllipse
 10
1078.1992405467
 20
440.9868648867
 30
0.0
 11
-0.200122444969793
 21
-0.006988429770842687
 31
0.0
210
0.0
220
0.0
230
1.0
 40
0.9987793495
 41
4.712388980385804
 42
6.248321296341157
  0
ARC
  5
1DF
330
1F
100
AcDbEntity
  8
0
  6
SLD-Katı
 62
     7
370
    25
100
AcDbCircle
 10
1078.1989964158
 20
440.0008246692
 30
0.0
 40
0.2000000000000455
100
AcDbArc
 50
0.0
 51
88.0
  0
LINE
  5
1E0
330
1F
100
AcDbEntity
  8
0
  6
SLD-Katı
 62
     7
370
    25
100
AcDbLine
 10
1078.1922486931
 20
440.2011821843
 30
0.0
 11
1078.2059875638
 21
440.2007025532
 31
0.0
  0
ELLIPSE
  5
1E1
330
1F
100
AcDbEntity
  8
0
  6
SLD-Katı
 62
     7
370
    25
100
AcDbEllipse
 10
1078.1992405467
 20
440.4010599617
 30
0.0
 11
0.2001224449700204
 21
-0.006988429770899531
 31
0.0
210
0.0
220
0.0
230
1.0
 40
0.9987793495
 41
3.176456664428534
 42
4.712388980384981
  0
LINE
  5
1E2
330
1F
100
AcDbEntity
  8
0
  6
SLD-Katı
 62
     7
370
    25
100
AcDbLine
 10
1078.1922486931
 20
441.186743123
 30
0.0
 11
1078.2059875638
 21
441.1872218228
 31
0.0
  0
ARC
  5
1E3
330
1F
100
AcDbEntity
  8
0
  6
SLD-Katı
 62
     7
370
    25
100
AcDbCircle
 10
1078.1989964158
 20
441.3871001792
 30
0.0
 40
0.2000000000000455
100
AcDbArc
 50
272.0
 51
0.0
  0
LINE
  5
1E4
330
1F
100
AcDbEntity
  8
0
  6
SLD-Katı
 62
     7
370
    25
100
AcDbLine
 10
1078.1922486931
 20
440.2011821843
 30
0.0
 11
1078.0989972264
 21
440.2044390194
 31
0.0
  0
LINE
  5
1E5
330
1F
100
AcDbEntity
  8
0
  6
SLD-Katı
 62
     7
370
    25
100
AcDbLine
 10
1078.0989972264
 20
430.0834865175
 30
0.0
 11
1078.1922486931
 21
430.0867424212
 31
0.0
  0
ELLIPSE
  5
1E6
330
1F
100
AcDbEntity
  8
0
  6
SLD-Katı
 62
     7
370
    25
100
AcDbEllipse
 10
1078.1992405467
 20
429.8868648867
 30
0.0
 11
-0.2001224449697929
 21
-0.006988429770899529
 31
0.0
210
0.0
220
0.0
230
1.0
 40
0.9987793495
 41
4.712388980385521
 42
6.248321296340873
  0
LINE
  5
1E7
330
1F
100
AcDbEntity
  8
0
  6
SLD-Katı
 62
     7
370
    25
100
AcDbLine
 10
1078.1922486931
 20
429.1011814825
 30
0.0
 11
1078.0989972264
 21
429.1044392488
 31
0.0
  0
ELLIPSE
  5
1E8
330
1F
100
AcDbEntity
  8
0
  6
SLD-Katı
 62
     7
370
    25
100
AcDbEllipse
 10
1078.1992405467
 20
429.3010599617
 30
0.0
 11
0.2001224449700203
 21
-0.006988429770956373
 31
0.0
210
0.0
220
0.0
230
1.0
 40
0.9987793495
 41
3.176456664428819
 42
4.712388980385264
  0
LINE
  5
1E9
330
1F
100
AcDbEntity
  8
0
  6
SLD-Katı
 62
     7
370
    25
100
AcDbLine
 10
1078.1922486931
 20
429.1011814825
 30
0.0
 11
1078.2059875638
 21
429.1007027827
 31
0.0
  0
LINE
  5
1EA
330
1F
100
AcDbEntity
  8
0
  6
SLD-Katı
 62
     7
370
    25
100
AcDbLine
 10
1078.1922486931
 20
430.0867424212
 30
0.0
 11
1078.2059875638
 21
430.087221121
 31
0.0
  0
ARC
  5
1EB
330
1F
100
AcDbEntity
  8
0
  6
SLD-Katı
 62
     7
370
    25
100
AcDbCircle
 10
1078.1989964158
 20
428.9008246692
 30
0.0
 40
0.2000000000000455
100
AcDbArc
 50
0.0
 51
88.0
  0
ARC
  5
1EC
330
1F
100
AcDbEntity
  8
0
  6
SLD-Katı
 62
     7
370
    25
100
AcDbCircle
 10
1078.1989964158
 20
430.2871001792
 30
0.0
 40
0.2000000000000455
100
AcDbArc
 50
272.0
 51
0.0
  0
ARC
  5
1ED
330
1F
100
AcDbEntity
  8
0
  6
SLD-Katı
 62
     7
370
    25
100
AcDbCircle
 10
1078.1989964158
 20
417.8008246692
 30
0.0
 40
0.2000000000000455
100
AcDbArc
 50
0.0
 51
88.0
  0
LINE
  5
1EE
330
1F
100
AcDbEntity
  8
0
  6
SLD-Katı
 62
     7
370
    25
100
AcDbLine
 10
1078.1922486931
 20
418.0011835746
 30
0.0
 11
1078.2059875638
 21
418.0007030121
 31
0.0
  0
ELLIPSE
  5
1EF
330
1F
100
AcDbEntity
  8
0
  6
SLD-Katı
 62
     7
370
    25
100
AcDbEllipse
 10
1078.1992405467
 20
418.2010599617
 30
0.0
 11
0.2001224449700204
 21
-0.006988429770899531
 31
0.0
210
0.0
220
0.0
230
1.0
 40
0.9987793495
 41
3.17645666442824
 42
4.712388980384971
  0
ELLIPSE
  5
1F0
330
1F
100
AcDbEntity
  8
0
  6
SLD-Katı
 62
     7
370
    25
100
AcDbEllipse
 10
1078.1992405467
 20
418.7868648867
 30
0.0
 11
-0.2001224449697929
 21
-0.006988429770899529
 31
0.0
210
0.0
220
0.0
230
1.0
 40
0.9987793495
 41
4.712388980385532
 42
6.248321296340873
  0
LINE
  5
1F1
330
1F
100
AcDbEntity
  8
0
  6
SLD-Katı
 62
     7
370
    25
100
AcDbLine
 10
1078.1922486931
 20
418.9867426507
 30
0.0
 11
1078.2059875638
 21
418.9872232131
 31
0.0
  0
ARC
  5
1F2
330
1F
100
AcDbEntity
  8
0
  6
SLD-Katı
 62
     7
370
    25
100
AcDbCircle
 10
1078.1989964158
 20
419.1871001792
 30
0.0
 40
0.2000000000000455
100
AcDbArc
 50
272.0
 51
0.0
  0
LINE
  5
1F3
330
1F
100
AcDbEntity
  8
0
  6
SLD-Katı
 62
     7
370
    25
100
AcDbLine
 10
1078.0989972264
 20
418.9834867469
 30
0.0
 11
1078.1922486931
 21
418.9867426507
 31
0.0
  0
LINE
  5
1F4
330
1F
100
AcDbEntity
  8
0
  6
SLD-Katı
 62
     7
370
    25
100
AcDbLine
 10
1078.1922486931
 20
418.0011835746
 30
0.0
 11
1078.0989972264
 21
418.0044394783
 31
0.0
  0
ELLIPSE
  5
1F5
330
1F
100
AcDbEntity
  8
0
  6
SLD-Katı
 62
     7
370
    25
100
AcDbEllipse
 10
1078.1992405467
 20
407.5868648867
 30
0.0
 11
-0.2001224449697929
 21
-0.006988429770899529
 31
0.0
210
0.0
220
0.0
230
1.0
 40
0.9987793495
 41
4.712388980385532
 42
6.248321296340883
  0
LINE
  5
1F6
330
1F
100
AcDbEntity
  8
0
  6
SLD-Katı
 62
     7
370
    25
100
AcDbLine
 10
1078.0989972264
 20
407.7834871463
 30
0.0
 11
1078.1922486931
 21
407.78674305
 31
0.0
  0
ARC
  5
1F7
330
1F
100
AcDbEntity
  8
0
  6
SLD-Katı
 62
     7
370
    25
100
AcDbCircle
 10
1078.1989964158
 20
407.9871001792
 30
0.0
 40
0.2000000000000455
100
AcDbArc
 50
272.0
 51
0.0
  0
ARC
  5
1F8
330
1F
100
AcDbEntity
  8
0
  6
SLD-Katı
 62
     7
370
    25
100
AcDbCircle
 10
1078.1989964158
 20
406.6008246692
 30
0.0
 40
0.2000000000000455
100
AcDbArc
 50
0.0
 51
88.0
  0
LINE
  5
1F9
330
1F
100
AcDbEntity
  8
0
  6
SLD-Katı
 62
     7
370
    25
100
AcDbLine
 10
1078.1922486931
 20
406.8011802487
 30
0.0
 11
1078.2059875638
 21
406.8007034115
 31
0.0
  0
ELLIPSE
  5
1FA
330
1F
100
AcDbEntity
  8
0
  6
SLD-Katı
 62
     7
370
    25
100
AcDbEllipse
 10
1078.1992405467
 20
407.0010599617
 30
0.0
 11
0.2001224449700204
 21
-0.006988429770899531
 31
0.0
210
0.0
220
0.0
230
1.0
 40
0.9987793495
 41
3.17645666442824
 42
4.712388980383836
  0
LINE
  5
1FB
330
1F
100
AcDbEntity
  8
0
  6
SLD-Katı
 62
     7
370
    25
100
AcDbLine
 10
1078.1922486931
 20
407.78674305
 30
0.0
 11
1078.2059875638
 21
407.7872236125
 31
0.0
  0
LINE
  5
1FC
330
1F
100
AcDbEntity
  8
0
  6
SLD-Katı
 62
     7
370
    25
100
AcDbLine
 10
1078.1922486931
 20
406.8011802487
 30
0.0
 11
1078.0989972264
 21
406.8044398777
 31
0.0
  0
LINE
  5
1FD
330
1F
100
AcDbEntity
  8
0
  6
SLD-Katı
 62
     7
370
    25
100
AcDbLine
 10
1079.3565062195
 20
399.0068596653
 30
0.0
 11
1082.3989955098
 21
397.5939613632
 31
0.0
  0
LINE
  5
1FE
330
1F
100
AcDbEntity
  8
0
  6
SLD-Katı
 62
     7
370
    25
100
AcDbLine
 10
1082.3989955098
 20
397.5939613632
 30
0.0
 11
1078.3989874035
 21
397.4542778782
 31
0.0
  0
LINE
  5
1FF
330
1F
100
AcDbEntity
  8
0
  6
SLD-Katı
 62
     7
370
    25
100
AcDbLine
 10
1078.3989874035
 20
398.9794489793
 30
0.0
 11
1078.3989874035
 21
397.4542778782
 31
0.0
  0
ELLIPSE
  5
200
330
1F
100
AcDbEntity
  8
0
  6
SLD-Katı
 62
     7
370
    25
100
AcDbEllipse
 10
1085.0418535586
 20
501.0439624242
 30
0.0
 11
0.0
 21
6.546536707079894
 31
0.0
210
0.0
220
0.0
230
1.0
 40
0.4364357805
 41
1.181035593997445
 42
1.960557059592364
  0
LINE
  5
201
330
1F
100
AcDbEntity
  8
0
  6
SLD-Katı
 62
     7
370
    25
100
AcDbLine
 10
1082.3989955098
 20
498.5564921848
 30
0.0
 11
1082.3989955098
 21
405.0314326636
 31
0.0
  0
ELLIPSE
  5
202
330
1F
100
AcDbEntity
  8
0
  6
SLD-Katı
 62
     7
370
    25
100
AcDbEllipse
 10
1085.0418535586
 20
402.5439624242
 30
0.0
 11
0.0
 21
6.546536707079952
 31
0.0
210
0.0
220
0.0
230
1.0
 40
0.4364357805
 41
1.181035593997456
 42
1.960557059592377
  0
LINE
  5
203
330
1F
100
AcDbEntity
  8
0
  6
SLD-Katı
 62
     7
370
    25
100
AcDbLine
 10
1082.3989955098
 20
400.0564937345
 30
0.0
 11
1082.3989955098
 21
397.5939613632
 31
0.0
  0
LINE
  5
204
330
1F
100
AcDbEntity
  8
0
  6
SLD-Katı
 62
     7
370
    25
100
AcDbLine
 10
1082.3989955098
 20
505.9939634852
 30
0.0
 11
1082.3989955098
 21
503.5314311139
 31
0.0
  0
LINE
  5
205
330
1F
100
AcDbEntity
  8
0
  6
SLD-Katı
 62
     7
370
    25
100
AcDbLine
 10
1078.2059875638
 20
485.7870985619
 30
0.0
 11
1078.2059875638
 21
495.6008245103
 31
0.0
  0
LINE
  5
206
330
1F
100
AcDbEntity
  8
0
  6
SLD-Katı
 62
     7
370
    25
100
AcDbLine
 10
1078.2059875638
 20
495.6008245103
 30
0.0
 11
1078.3989874035
 21
495.6008245103
 31
0.0
  0
LINE
  5
207
330
1F
100
AcDbEntity
  8
0
  6
SLD-Katı
 62
     7
370
    25
100
AcDbLine
 10
1078.3989874035
 20
485.7870985619
 30
0.0
 11
1078.2059875638
 21
485.7870985619
 31
0.0
  0
ARC
  5
208
330
1F
100
AcDbEntity
  8
0
  6
SLD-Katı
 62
     7
370
    25
100
AcDbCircle
 10
1076.7593371207
 20
495.7007648731
 30
0.0
 40
1.450098334831139
100
AcDbArc
 50
356.0481376681
 51
3.9518623319
  0
ARC
  5
209
330
1F
100
AcDbEntity
  8
0
  6
SLD-Katı
 62
     7
370
    25
100
AcDbCircle
 10
1076.7593509146
 20
485.6871601991
 30
0.0
 40
1.450084573779672
100
AcDbArc
 50
356.0481001061
 51
3.9518998939
  0
ARC
  5
20A
330
1F
100
AcDbEntity
  8
0
  6
SLD-Katı
 62
     7
370
    25
100
AcDbCircle
 10
1076.7593371207
 20
484.5007632724
 30
0.0
 40
1.450098334831139
100
AcDbArc
 50
356.0481376681
 51
3.9518623319
  0
LINE
  5
20B
330
1F
100
AcDbEntity
  8
0
  6
SLD-Katı
 62
     7
370
    25
100
AcDbLine
 10
1078.2059875638
 20
484.4008249096
 30
0.0
 11
1078.3989874035
 21
484.4008249096
 31
0.0
  0
LINE
  5
20C
330
1F
100
AcDbEntity
  8
0
  6
SLD-Katı
 62
     7
370
    25
100
AcDbLine
 10
1078.2059875638
 20
474.687100654
 30
0.0
 11
1078.2059875638
 21
484.4008249096
 31
0.0
  0
LINE
  5
20D
330
1F
100
AcDbEntity
  8
0
  6
SLD-Katı
 62
     7
370
    25
100
AcDbLine
 10
1078.3989874035
 20
474.687100654
 30
0.0
 11
1078.2059875638
 21
474.687100654
 31
0.0
  0
ARC
  5
20E
330
1F
100
AcDbEntity
  8
0
  6
SLD-Katı
 62
     7
370
    25
100
AcDbCircle
 10
1076.7593241994
 20
474.5871613599
 30
0.0
 40
1.450111289608312
100
AcDbArc
 50
356.0481361433
 51
3.9518638567
  0
LINE
  5
20F
330
1F
100
AcDbEntity
  8
0
  6
SLD-Katı
 62
     7
370
    25
100
AcDbLine
 10
1078.2059875638
 20
463.5870999522
 30
0.0
 11
1078.2059875638
 21
473.3008251391
 31
0.0
  0
LINE
  5
210
330
1F
100
AcDbEntity
  8
0
  6
SLD-Katı
 62
     7
370
    25
100
AcDbLine
 10
1078.2059875638
 20
473.3008251391
 30
0.0
 11
1078.3989874035
 21
473.3008251391
 31
0.0
  0
LINE
  5
211
330
1F
100
AcDbEntity
  8
0
  6
SLD-Katı
 62
     7
370
    25
100
AcDbLine
 10
1078.3989874035
 20
463.5870999522
 30
0.0
 11
1078.2059875638
 21
463.5870999522
 31
0.0
  0
ARC
  5
212
330
1F
100
AcDbEntity
  8
0
  6
SLD-Katı
 62
     7
370
    25
100
AcDbCircle
 10
1076.7593152346
 20
473.4007644332
 30
0.0
 40
1.450120233080988
100
AcDbArc
 50
356.0481605547
 51
3.9518394453
  0
ARC
  5
213
330
1F
100
AcDbEntity
  8
0
  6
SLD-Katı
 62
     7
370
    25
100
AcDbCircle
 10
1076.7593465284
 20
463.4871611237
 30
0.0
 40
1.450088981667248
100
AcDbArc
 50
356.0480936949
 51
3.9519063051
  0
ARC
  5
214
330
1F
100
AcDbEntity
  8
0
  6
SLD-Katı
 62
     7
370
    25
100
AcDbCircle
 10
1076.7593162684
 20
462.3007637314
 30
0.0
 40
1.450119201726203
100
AcDbArc
 50
356.0481577396
 51
3.9518422604
  0
LINE
  5
215
330
1F
100
AcDbEntity
  8
0
  6
SLD-Katı
 62
     7
370
    25
100
AcDbLine
 10
1078.2059875638
 20
462.2008244372
 30
0.0
 11
1078.3989874035
 21
462.2008244372
 31
0.0
  0
LINE
  5
216
330
1F
100
AcDbEntity
  8
0
  6
SLD-Katı
 62
     7
370
    25
100
AcDbLine
 10
1078.2059875638
 20
452.4871001817
 30
0.0
 11
1078.2059875638
 21
462.2008244372
 31
0.0
  0
LINE
  5
217
330
1F
100
AcDbEntity
  8
0
  6
SLD-Katı
 62
     7
370
    25
100
AcDbLine
 10
1078.2059875638
 20
452.4871001817
 30
0.0
 11
1078.3989874035
 21
452.4871001817
 31
0.0
  0
ARC
  5
218
330
1F
100
AcDbEntity
  8
0
  6
SLD-Katı
 62
     7
370
    25
100
AcDbCircle
 10
1076.7593290965
 20
452.3871610912
 30
0.0
 40
1.450106390103583
100
AcDbArc
 50
356.0481308385
 51
3.9518691615
  0
ARC
  5
219
330
1F
100
AcDbEntity
  8
0
  6
SLD-Katı
 62
     7
370
    25
100
AcDbCircle
 10
1076.7593290965
 20
451.2007637571
 30
0.0
 40
1.450106390103583
100
AcDbArc
 50
356.0481308385
 51
3.9518691615
  0
LINE
  5
21A
330
1F
100
AcDbEntity
  8
0
  6
SLD-Katı
 62
     7
370
    25
100
AcDbLine
 10
1078.2059875638
 20
451.1008246667
 30
0.0
 11
1078.3989874035
 21
451.1008246667
 31
0.0
  0
LINE
  5
21B
330
1F
100
AcDbEntity
  8
0
  6
SLD-Katı
 62
     7
370
    25
100
AcDbLine
 10
1078.2059875638
 20
441.3871004112
 30
0.0
 11
1078.2059875638
 21
451.1008246667
 31
0.0
  0
LINE
  5
21C
330
1F
100
AcDbEntity
  8
0
  6
SLD-Katı
 62
     7
370
    25
100
AcDbLine
 10
1078.2059875638
 20
441.3871004112
 30
0.0
 11
1078.3989874035
 21
441.3871004112
 31
0.0
  0
ARC
  5
21D
330
1F
100
AcDbEntity
  8
0
  6
SLD-Katı
 62
     7
370
    25
100
AcDbCircle
 10
1076.7593162684
 20
441.287161117
 30
0.0
 40
1.450119201726203
100
AcDbArc
 50
356.0481577396
 51
3.9518422604
  0
ARC
  5
21E
330
1F
100
AcDbEntity
  8
0
  6
SLD-Katı
 62
     7
370
    25
100
AcDbCircle
 10
1076.7593465284
 20
440.1007637247
 30
0.0
 40
1.450088981667475
100
AcDbArc
 50
356.0480936949
 51
3.9519063051
  0
LINE
  5
21F
330
1F
100
AcDbEntity
  8
0
  6
SLD-Katı
 62
     7
370
    25
100
AcDbLine
 10
1078.2059875638
 20
440.0008248962
 30
0.0
 11
1078.3989874035
 21
440.0008248962
 31
0.0
  0
LINE
  5
220
330
1F
100
AcDbEntity
  8
0
  6
SLD-Katı
 62
     7
370
    25
100
AcDbLine
 10
1078.2059875638
 20
430.2870997093
 30
0.0
 11
1078.2059875638
 21
440.0008248962
 31
0.0
  0
LINE
  5
221
330
1F
100
AcDbEntity
  8
0
  6
SLD-Katı
 62
     7
370
    25
100
AcDbLine
 10
1078.2059875638
 20
430.2870997093
 30
0.0
 11
1078.3989874035
 21
430.2870997093
 31
0.0
  0
ARC
  5
222
330
1F
100
AcDbEntity
  8
0
  6
SLD-Katı
 62
     7
370
    25
100
AcDbCircle
 10
1076.7593152346
 20
430.1871604152
 30
0.0
 40
1.450120233080988
100
AcDbArc
 50
356.0481605547
 51
3.9518394453
  0
ARC
  5
223
330
1F
100
AcDbEntity
  8
0
  6
SLD-Katı
 62
     7
370
    25
100
AcDbCircle
 10
1076.7593241994
 20
429.0007634885
 30
0.0
 40
1.450111289608312
100
AcDbArc
 50
356.0481361433
 51
3.9518638567
  0
LINE
  5
224
330
1F
100
AcDbEntity
  8
0
  6
SLD-Katı
 62
     7
370
    25
100
AcDbLine
 10
1078.2059875638
 20
428.9008241943
 30
0.0
 11
1078.3989874035
 21
428.9008241943
 31
0.0
  0
LINE
  5
225
330
1F
100
AcDbEntity
  8
0
  6
SLD-Katı
 62
     7
370
    25
100
AcDbLine
 10
1078.2059875638
 20
419.1870999388
 30
0.0
 11
1078.2059875638
 21
428.9008241943
 31
0.0
  0
LINE
  5
226
330
1F
100
AcDbEntity
  8
0
  6
SLD-Katı
 62
     7
370
    25
100
AcDbLine
 10
1078.3989874035
 20
419.1870999388
 30
0.0
 11
1078.2059875638
 21
419.1870999388
 31
0.0
  0
ARC
  5
227
330
1F
100
AcDbEntity
  8
0
  6
SLD-Katı
 62
     7
370
    25
100
AcDbCircle
 10
1076.7593371207
 20
419.087161576
 30
0.0
 40
1.450098334830686
100
AcDbArc
 50
356.0481376681
 51
3.9518623319
  0
ARC
  5
228
330
1F
100
AcDbEntity
  8
0
  6
SLD-Katı
 62
     7
370
    25
100
AcDbCircle
 10
1076.7593509146
 20
417.9007646493
 30
0.0
 40
1.450084573779672
100
AcDbArc
 50
356.0481001061
 51
3.9518998939
  0
LINE
  5
229
330
1F
100
AcDbEntity
  8
0
  6
SLD-Katı
 62
     7
370
    25
100
AcDbLine
 10
1078.2059875638
 20
417.8008262865
 30
0.0
 11
1078.3989874035
 21
417.8008262865
 31
0.0
  0
LINE
  5
22A
330
1F
100
AcDbEntity
  8
0
  6
SLD-Katı
 62
     7
370
    25
100
AcDbLine
 10
1078.2059875638
 20
407.9871003381
 30
0.0
 11
1078.2059875638
 21
417.8008262865
 31
0.0
  0
LINE
  5
22B
330
1F
100
AcDbEntity
  8
0
  6
SLD-Katı
 62
     7
370
    25
100
AcDbLine
 10
1078.3989874035
 20
407.9871003381
 30
0.0
 11
1078.2059875638
 21
407.9871003381
 31
0.0
  0
ARC
  5
22C
330
1F
100
AcDbEntity
  8
0
  6
SLD-Katı
 62
     7
370
    25
100
AcDbCircle
 10
1076.7593371207
 20
407.8871619753
 30
0.0
 40
1.450098334830686
100
AcDbArc
 50
356.0481376681
 51
3.9518623319
  0
LINE
  5
22D
330
1F
100
AcDbEntity
  8
0
  6
SLD-Katı
 62
     7
370
    25
100
AcDbLine
 10
126.999005428
 20
503.4939621441
 30
0.0
 11
1078.3989874035
 21
503.4939621441
 31
0.0
  0
LINE
  5
22E
330
1F
100
AcDbEntity
  8
0
  6
SLD-Katı
 62
     7
370
    25
100
AcDbLine
 10
126.999005428
 20
504.4939641706
 30
0.0
 11
1078.3989874035
 21
504.4939641706
 31
0.0
  0
LINE
  5
22F
330
1F
100
AcDbEntity
  8
0
  6
SLD-Katı
 62
     7
370
    25
100
AcDbLine
 10
126.999005428
 20
505.9939634852
 30
0.0
 11
1078.3989874035
 21
505.9939634852
 31
0.0
  0
LINE
  5
230
330
1F
100
AcDbEntity
  8
0
  6
SLD-Katı
 62
     7
370
    25
100
AcDbLine
 10
126.999005428
 20
399.0939606778
 30
0.0
 11
1078.3989874035
 21
399.0939606778
 31
0.0
  0
LINE
  5
231
330
1F
100
AcDbEntity
  8
0
  6
SLD-Katı
 62
     7
370
    25
100
AcDbLine
 10
126.999005428
 20
400.0939627043
 30
0.0
 11
1078.3989874035
 21
400.0939627043
 31
0.0
  0
LINE
  5
232
330
1F
100
AcDbEntity
  8
0
  6
SLD-Katı
 62
     7
370
    25
100
AcDbLine
 10
126.999005428
 20
397.5939613632
 30
0.0
 11
1078.3989874035
 21
397.5939613632
 31
0.0
  0
LINE
  5
233
330
1F
100
AcDbEntity
  8
0
  6
SLD-Katı
 62
     7
370
    25
100
AcDbLine
 10
1078.3989874035
 20
497.2939615003
 30
0.0
 11
1078.0989972264
 21
497.2939615003
 31
0.0
  0
LINE
  5
234
330
1F
100
AcDbEntity
  8
0
  6
SLD-Katı
 62
     7
370
    25
100
AcDbLine
 10
127.2989956051
 20
497.2939615003
 30
0.0
 11
126.999005428
 21
497.2939615003
 31
0.0
  0
LINE
  5
235
330
1F
100
AcDbEntity
  8
0
  6
SLD-Katı
 62
     7
370
    25
100
AcDbLine
 10
126.999005428
 20
406.2939633481
 30
0.0
 11
127.2989956051
 21
406.2939633481
 31
0.0
  0
LINE
  5
236
330
1F
100
AcDbEntity
  8
0
  6
SLD-Katı
 62
     7
370
    25
100
AcDbLine
 10
1078.0989972264
 20
406.2939633481
 30
0.0
 11
1078.3989874035
 21
406.2939633481
 31
0.0
  0
LINE
  5
237
330
1F
100
AcDbEntity
  8
0
  6
SLD-Katı
 62
     7
370
    25
100
AcDbLine
 10
1076.6990033299
 20
500.7939611427
 30
0.0
 11
1076.6990033299
 21
402.7939637057
 31
0.0
  0
ARC
  5
238
330
1F
100
AcDbEntity
  8
0
  6
SLD-Katı
 62
     7
370
    25
100
AcDbCircle
 10
1075.6989964158
 20
402.7939624242
 30
0.0
 40
1.000000000000227
100
AcDbArc
 50
270.0
 51
0.0
  0
LINE
  5
239
330
1F
100
AcDbEntity
  8
0
  6
SLD-Katı
 62
     7
370
    25
100
AcDbLine
 10
1075.6989864022
 20
401.7939616791
 30
0.0
 11
129.6990064294
 21
401.7939616791
 31
0.0
  0
ARC
  5
23A
330
1F
100
AcDbEntity
  8
0
  6
SLD-Katı
 62
     7
370
    25
100
AcDbCircle
 10
129.6989964158
 20
402.7939624242
 30
0.0
 40
1.0
100
AcDbArc
 50
180.0
 51
270.0
  0
LINE
  5
23B
330
1F
100
AcDbEntity
  8
0
  6
SLD-Katı
 62
     7
370
    25
100
AcDbLine
 10
128.6989895016
 20
402.7939637057
 30
0.0
 11
128.6989895016
 21
500.7939611427
 31
0.0
  0
ARC
  5
23C
330
1F
100
AcDbEntity
  8
0
  6
SLD-Katı
 62
     7
370
    25
100
AcDbCircle
 10
129.6989964158
 20
500.7939624242
 30
0.0
 40
1.0
100
AcDbArc
 50
90.0
 51
180.0
  0
LINE
  5
23D
330
1F
100
AcDbEntity
  8
0
  6
SLD-Katı
 62
     7
370
    25
100
AcDbLine
 10
138.6990097672
 20
421.7939630947
 30
0.0
 11
138.6990097672
 21
491.7939615301
 31
0.0
  0
LINE
  5
23E
330
1F
100
AcDbEntity
  8
0
  6
SLD-Katı
 62
     7
370
    25
100
AcDbLine
 10
1066.6989830643
 20
421.7939630947
 30
0.0
 11
138.6990097672
 21
421.7939630947
 31
0.0
  0
LINE
  5
23F
330
1F
100
AcDbEntity
  8
0
  6
SLD-Katı
 62
     7
370
    25
100
AcDbLine
 10
1066.6989830643
 20
491.7939615301
 30
0.0
 11
1066.6989830643
 21
421.7939630947
 31
0.0
  0
LINE
  5
240
330
1F
100
AcDbEntity
  8
0
  6
SLD-Katı
 62
     7
370
    25
100
AcDbLine
 10
138.6990097672
 20
491.7939615301
 30
0.0
 11
1066.6989830643
 21
491.7939615301
 31
0.0
  0
ARC
  5
241
330
1F
100
AcDbEntity
  8
0
  6
SLD-Katı
 62
     7
370
    25
100
AcDbCircle
 10
1075.6989964158
 20
500.7939624242
 30
0.0
 40
1.000000000000227
100
AcDbArc
 50
0.0
 51
90.0
  0
LINE
  5
242
330
1F
100
AcDbEntity
  8
0
  6
SLD-Katı
 62
     7
370
    25
100
AcDbLine
 10
129.6990064294
 20
501.7939631693
 30
0.0
 11
1075.6989864022
 21
501.7939631693
 31
0.0
  0
LINE
  5
243
330
1F
100
AcDbEntity
  8
0
  6
SLD-Katı
 62
     7
370
    25
100
AcDbLine
 10
1076.9222227246
 20
502.1939624898
 30
0.0
 11
128.4757701069
 21
502.1939624898
 31
0.0
  0
LINE
  5
244
330
1F
100
AcDbEntity
  8
0
  6
SLD-Katı
 62
     7
370
    25
100
AcDbLine
 10
128.4757701069
 20
502.1939624898
 30
0.0
 11
128.4757701069
 21
503.193960791
 31
0.0
  0
LINE
  5
245
330
1F
100
AcDbEntity
  8
0
  6
SLD-Katı
 62
     7
370
    25
100
AcDbLine
 10
1076.9222227246
 20
503.193960791
 30
0.0
 11
128.4757701069
 21
503.193960791
 31
0.0
  0
LINE
  5
246
330
1F
100
AcDbEntity
  8
0
  6
SLD-Katı
 62
     7
370
    25
100
AcDbLine
 10
1076.9222227246
 20
502.1939624898
 30
0.0
 11
1076.9222227246
 21
503.193960791
 31
0.0
  0
LINE
  5
247
330
1F
100
AcDbEntity
  8
0
  6
SLD-Katı
 62
     7
370
    25
100
AcDbLine
 10
1077.099010101
 20
401.5707385592
 30
0.0
 11
1077.099010101
 21
502.0171862892
 31
0.0
  0
LINE
  5
248
330
1F
100
AcDbEntity
  8
0
  6
SLD-Katı
 62
     7
370
    25
100
AcDbLine
 10
1077.099010101
 20
502.0171862892
 30
0.0
 11
1078.0989972264
 21
502.0171862892
 31
0.0
  0
LINE
  5
249
330
1F
100
AcDbEntity
  8
0
  6
SLD-Katı
 62
     7
370
    25
100
AcDbLine
 10
1078.0989972264
 20
401.5707385592
 30
0.0
 11
1078.0989972264
 21
406.8178397469
 31
0.0
  0
LINE
  5
24A
330
1F
100
AcDbEntity
  8
0
  6
SLD-Katı
 62
     7
370
    25
100
AcDbLine
 10
1078.0989972264
 20
407.7700835518
 30
0.0
 11
1078.0989972264
 21
418.0178393475
 31
0.0
  0
LINE
  5
24B
330
1F
100
AcDbEntity
  8
0
  6
SLD-Katı
 62
     7
370
    25
100
AcDbLine
 10
1078.0989972264
 20
418.9700868777
 30
0.0
 11
1078.0989972264
 21
429.117839118
 31
0.0
  0
LINE
  5
24C
330
1F
100
AcDbEntity
  8
0
  6
SLD-Katı
 62
     7
370
    25
100
AcDbLine
 10
1078.0989972264
 20
430.0700847856
 30
0.0
 11
1078.0989972264
 21
440.2178398199
 31
0.0
  0
LINE
  5
24D
330
1F
100
AcDbEntity
  8
0
  6
SLD-Katı
 62
     7
370
    25
100
AcDbLine
 10
1078.0989972264
 20
441.1700854875
 30
0.0
 11
1078.0989972264
 21
451.3178395322
 31
0.0
  0
LINE
  5
24E
330
1F
100
AcDbEntity
  8
0
  6
SLD-Katı
 62
     7
370
    25
100
AcDbLine
 10
1078.0989972264
 20
452.2700853162
 30
0.0
 11
1078.0989972264
 21
462.4178393609
 31
0.0
  0
LINE
  5
24F
330
1F
100
AcDbEntity
  8
0
  6
SLD-Katı
 62
     7
370
    25
100
AcDbLine
 10
1078.0989972264
 20
463.3700850285
 30
0.0
 11
1078.0989972264
 21
473.5178400628
 31
0.0
  0
LINE
  5
250
330
1F
100
AcDbEntity
  8
0
  6
SLD-Katı
 62
     7
370
    25
100
AcDbLine
 10
1078.0989972264
 20
474.4700857304
 30
0.0
 11
1078.0989972264
 21
484.6178379707
 31
0.0
  0
LINE
  5
251
330
1F
100
AcDbEntity
  8
0
  6
SLD-Katı
 62
     7
370
    25
100
AcDbLine
 10
1078.0989972264
 20
485.5700855009
 30
0.0
 11
1078.0989972264
 21
495.8178412966
 31
0.0
  0
LINE
  5
252
330
1F
100
AcDbEntity
  8
0
  6
SLD-Katı
 62
     7
370
    25
100
AcDbLine
 10
1078.0989972264
 20
496.7700851015
 30
0.0
 11
1078.0989972264
 21
502.0171862892
 31
0.0
  0
LINE
  5
253
330
1F
100
AcDbEntity
  8
0
  6
SLD-Katı
 62
     7
370
    25
100
AcDbLine
 10
1077.099010101
 20
401.5707385592
 30
0.0
 11
1078.0989972264
 21
401.5707385592
 31
0.0
  0
LINE
  5
254
330
1F
100
AcDbEntity
  8
0
  6
SLD-Katı
 62
     7
370
    25
100
AcDbLine
 10
128.2989827305
 20
401.5707385592
 30
0.0
 11
127.2989956051
 21
401.5707385592
 31
0.0
  0
LINE
  5
255
330
1F
100
AcDbEntity
  8
0
  6
SLD-Katı
 62
     7
370
    25
100
AcDbLine
 10
128.2989827305
 20
502.0171862892
 30
0.0
 11
127.2989956051
 21
502.0171862892
 31
0.0
  0
LINE
  5
256
330
1F
100
AcDbEntity
  8
0
  6
SLD-Katı
 62
     7
370
    25
100
AcDbLine
 10
128.2989827305
 20
502.0171862892
 30
0.0
 11
128.2989827305
 21
401.5707385592
 31
0.0
  0
LINE
  5
257
330
1F
100
AcDbEntity
  8
0
  6
SLD-Katı
 62
     7
370
    25
100
AcDbLine
 10
127.2989956051
 20
502.0171862892
 30
0.0
 11
127.2989956051
 21
496.7700851015
 31
0.0
  0
LINE
  5
258
330
1F
100
AcDbEntity
  8
0
  6
SLD-Katı
 62
     7
370
    25
100
AcDbLine
 10
127.2989956051
 20
495.8178412966
 30
0.0
 11
127.2989956051
 21
485.5700855009
 31
0.0
  0
LINE
  5
259
330
1F
100
AcDbEntity
  8
0
  6
SLD-Katı
 62
     7
370
    25
100
AcDbLine
 10
127.2989956051
 20
484.6178379707
 30
0.0
 11
127.2989956051
 21
474.4700857304
 31
0.0
  0
LINE
  5
25A
330
1F
100
AcDbEntity
  8
0
  6
SLD-Katı
 62
     7
370
    25
100
AcDbLine
 10
127.2989956051
 20
473.5178400628
 30
0.0
 11
127.2989956051
 21
463.3700850285
 31
0.0
  0
LINE
  5
25B
330
1F
100
AcDbEntity
  8
0
  6
SLD-Katı
 62
     7
370
    25
100
AcDbLine
 10
127.2989956051
 20
462.4178393609
 30
0.0
 11
127.2989956051
 21
452.2700853162
 31
0.0
  0
LINE
  5
25C
330
1F
100
AcDbEntity
  8
0
  6
SLD-Katı
 62
     7
370
    25
100
AcDbLine
 10
127.2989956051
 20
451.3178395322
 30
0.0
 11
127.2989956051
 21
441.1700854875
 31
0.0
  0
LINE
  5
25D
330
1F
100
AcDbEntity
  8
0
  6
SLD-Katı
 62
     7
370
    25
100
AcDbLine
 10
127.2989956051
 20
440.2178398199
 30
0.0
 11
127.2989956051
 21
430.0700847856
 31
0.0
  0
LINE
  5
25E
330
1F
100
AcDbEntity
  8
0
  6
SLD-Katı
 62
     7
370
    25
100
AcDbLine
 10
127.2989956051
 20
429.117839118
 30
0.0
 11
127.2989956051
 21
418.9700868777
 31
0.0
  0
LINE
  5
25F
330
1F
100
AcDbEntity
  8
0
  6
SLD-Katı
 62
     7
370
    25
100
AcDbLine
 10
127.2989956051
 20
418.0178393475
 30
0.0
 11
127.2989956051
 21
407.7700835518
 31
0.0
  0
LINE
  5
260
330
1F
100
AcDbEntity
  8
0
  6
SLD-Katı
 62
     7
370
    25
100
AcDbLine
 10
127.2989956051
 20
406.8178397469
 30
0.0
 11
127.2989956051
 21
401.5707385592
 31
0.0
  0
LINE
  5
261
330
1F
100
AcDbEntity
  8
0
  6
SLD-Katı
 62
     7
370
    25
100
AcDbLine
 10
128.4757701069
 20
401.3939623586
 30
0.0
 11
1076.9222227246
 21
401.3939623586
 31
0.0
  0
LINE
  5
262
330
1F
100
AcDbEntity
  8
0
  6
SLD-Katı
 62
     7
370
    25
100
AcDbLine
 10
1076.9222227246
 20
401.3939623586
 30
0.0
 11
1076.9222227246
 21
400.3939640574
 31
0.0
  0
LINE
  5
263
330
1F
100
AcDbEntity
  8
0
  6
SLD-Katı
 62
     7
370
    25
100
AcDbLine
 10
128.4757701069
 20
400.3939640574
 30
0.0
 11
1076.9222227246
 21
400.3939640574
 31
0.0
  0
LINE
  5
264
330
1F
100
AcDbEntity
  8
0
  6
SLD-Katı
 62
     7
370
    25
100
AcDbLine
 10
128.4757701069
 20
401.3939623586
 30
0.0
 11
128.4757701069
 21
400.3939640574
 31
0.0
  0
LWPOLYLINE
  5
265
330
1F
100
AcDbEntity
  8
0
  6
SLD-Katı
 62
     7
370
    25
100
AcDbPolyline
 90
       10
 70
   128
 43
0.0
 10
1076.722219339
 20
501.9939628295
 10
1076.7569390446
 20
502.028693711
 10
1076.7906156689
 20
502.06236661
 10
1076.8222061307
 20
502.093960797
 10
1076.8507865578
 20
502.1225188724
 10
1076.8754330784
 20
502.1471728436
 10
1076.8954304368
 20
502.1671664766
 10
1076.910152784
 20
502.1818999998
 10
1076.9191828877
 20
502.1909226529
 10
1076.9222227246
 20
502.1939624898
  0
LWPOLYLINE
  5
266
330
1F
100
AcDbEntity
  8
0
  6
SLD-Katı
 62
     7
370
    25
100
AcDbPolyline
 90
        9
 70
   128
 43
0.0
 10
128.4989861161
 20
501.817186629
 10
128.4599748761
 20
501.8562053196
 10
128.4224537522
 20
501.8937227182
 10
128.3878830582
 20
501.9283008627
 10
128.3575740964
 20
501.9586060993
 10
128.3326891572
 20
501.9834798626
 10
128.3142117173
 20
502.0019610278
 10
128.3028272301
 20
502.0133417896
 10
128.2989827305
 20
502.0171862892
  0
LINE
  5
267
330
1F
100
AcDbEntity
  8
0
  6
SLD-Katı
 62
     7
370
    25
100
AcDbLine
 10
128.4989861161
 20
501.817186629
 30
0.0
 11
128.4989861161
 21
401.7707382194
 31
0.0
  0
LWPOLYLINE
  5
268
330
1F
100
AcDbEntity
  8
0
  6
SLD-Katı
 62
     7
370
    25
100
AcDbPolyline
 90
        9
 70
   128
 43
0.0
 10
128.2989827305
 20
401.5707385592
 10
128.3028272301
 20
401.5745830588
 10
128.3142117173
 20
401.5859638206
 10
128.3326891572
 20
401.6044449858
 10
128.3575740964
 20
401.6293187491
 10
128.3878830582
 20
401.6596239857
 10
128.4224537522
 20
401.6942021302
 10
128.4599748761
 20
401.7317195288
 10
128.4989861161
 20
401.7707382194
  0
LWPOLYLINE
  5
269
330
1F
100
AcDbEntity
  8
0
  6
SLD-Katı
 62
     7
370
    25
100
AcDbPolyline
 90
       10
 70
   128
 43
0.0
 10
1076.8990067155
 20
401.7707382194
 10
1076.933726421
 20
401.7360110633
 10
1076.9674030453
 20
401.702334439
 10
1076.9989935071
 20
401.6707402519
 10
1077.0275441319
 20
401.6421821765
 10
1077.0521906525
 20
401.6175319306
 10
1077.0721880108
 20
401.5975345723
 10
1077.0869401604
 20
401.5828010492
 10
1077.0959702641
 20
401.573778396
 10
1077.099010101
 20
401.5707385592
  0
LINE
  5
26A
330
1F
100
AcDbEntity
  8
0
  6
SLD-Katı
 62
     7
370
    25
100
AcDbLine
 10
1076.8990067155
 20
401.7707382194
 30
0.0
 11
1076.8990067155
 21
501.817186629
 31
0.0
  0
LWPOLYLINE
  5
26B
330
1F
100
AcDbEntity
  8
0
  6
SLD-Katı
 62
     7
370
    25
100
AcDbPolyline
 90
        9
 70
   128
 43
0.0
 10
1077.099010101
 20
502.0171862892
 10
1077.0951656014
 20
502.0133417896
 10
1077.0837811143
 20
502.0019610278
 10
1077.0653036744
 20
501.9834798626
 10
1077.0404187352
 20
501.9586060993
 10
1077.0101097733
 20
501.9283008627
 10
1076.9755390793
 20
501.8937227182
 10
1076.9380179555
 20
501.8562053196
 10
1076.8990067155
 20
501.817186629
  0
LINE
  5
26C
330
1F
100
AcDbEntity
  8
0
  6
SLD-Katı
 62
     7
370
    25
100
AcDbLine
 10
1076.722219339
 20
501.9939628295
 30
0.0
 11
128.6757734925
 21
501.9939628295
 31
0.0
  0
LWPOLYLINE
  5
26D
330
1F
100
AcDbEntity
  8
0
  6
SLD-Katı
 62
     7
370
    25
100
AcDbPolyline
 90
        9
 70
   128
 43
0.0
 10
128.4757701069
 20
502.1939624898
 10
128.4796146065
 20
502.1901179902
 10
128.4909990937
 20
502.1787372283
 10
128.5094765336
 20
502.1602560631
 10
128.5343614728
 20
502.1353822998
 10
128.5646704346
 20
502.1050770632
 10
128.5992411286
 20
502.0704989187
 10
128.6367622525
 20
502.0329815201
 10
128.6757734925
 20
501.9939628295
  0
LWPOLYLINE
  5
26E
330
1F
100
AcDbEntity
  8
0
  6
SLD-Katı
 62
     7
370
    25
100
AcDbPolyline
 90
        9
 70
   128
 43
0.0
 10
128.6757734925
 20
401.5939620189
 10
128.6367622525
 20
401.5549433283
 10
128.5992411286
 20
401.5174259297
 10
128.5646704346
 20
401.4828477852
 10
128.5343614728
 20
401.4525425486
 10
128.5094765336
 20
401.4276687853
 10
128.4909990937
 20
401.4091876201
 10
128.4796146065
 20
401.3978068582
 10
128.4757701069
 20
401.3939623586
  0
LINE
  5
26F
330
1F
100
AcDbEntity
  8
0
  6
SLD-Katı
 62
     7
370
    25
100
AcDbLine
 10
128.6757734925
 20
401.5939620189
 30
0.0
 11
1076.722219339
 21
401.5939620189
 31
0.0
  0
LWPOLYLINE
  5
270
330
1F
100
AcDbEntity
  8
0
  6
SLD-Katı
 62
     7
370
    25
100
AcDbPolyline
 90
        9
 70
   128
 43
0.0
 10
1076.9222227246
 20
401.3939623586
 10
1076.918378225
 20
401.3978068582
 10
1076.9069937379
 20
401.4091876201
 10
1076.888516298
 20
401.4276687853
 10
1076.8636313588
 20
401.4525425486
 10
1076.8333223969
 20
401.4828477852
 10
1076.7987517029
 20
401.5174259297
 10
1076.7612305791
 20
401.5549433283
 10
1076.722219339
 20
401.5939620189
  0
LINE
  5
271
330
1F
100
AcDbEntity
  8
0
  6
SLD-Katı
 62
     7
370
    25
100
AcDbLine
 10
128.9090362698
 20
501.4071364752
 30
0.0
 11
128.4989861161
 21
501.817186629
 31
0.0
  0
LINE
  5
272
330
1F
100
AcDbEntity
  8
0
  6
SLD-Katı
 62
     7
370
    25
100
AcDbLine
 10
128.4989861161
 20
401.7707382194
 30
0.0
 11
128.9090362698
 21
402.1807883732
 31
0.0
  0
LINE
  5
273
330
1F
100
AcDbEntity
  8
0
  6
SLD-Katı
 62
     7
370
    25
100
AcDbLine
 10
1076.3121691853
 20
501.5839126758
 30
0.0
 11
1076.722219339
 21
501.9939628295
 31
0.0
  0
LINE
  5
274
330
1F
100
AcDbEntity
  8
0
  6
SLD-Katı
 62
     7
370
    25
100
AcDbLine
 10
128.6757734925
 20
501.9939628295
 30
0.0
 11
129.0858236462
 21
501.5839126758
 31
0.0
  0
LINE
  5
275
330
1F
100
AcDbEntity
  8
0
  6
SLD-Katı
 62
     7
370
    25
100
AcDbLine
 10
1076.4889565617
 20
402.1807883732
 30
0.0
 11
1076.8990067155
 21
401.7707382194
 31
0.0
  0
LINE
  5
276
330
1F
100
AcDbEntity
  8
0
  6
SLD-Katı
 62
     7
370
    25
100
AcDbLine
 10
1076.8990067155
 20
501.817186629
 30
0.0
 11
1076.4889565617
 21
501.4071364752
 31
0.0
  0
LINE
  5
277
330
1F
100
AcDbEntity
  8
0
  6
SLD-Katı
 62
     7
370
    25
100
AcDbLine
 10
129.0858236462
 20
402.0040121726
 30
0.0
 11
128.6757734925
 21
401.5939620189
 31
0.0
  0
LINE
  5
278
330
1F
100
AcDbEntity
  8
0
  6
SLD-Katı
 62
     7
370
    25
100
AcDbLine
 10
1076.722219339
 20
401.5939620189
 30
0.0
 11
1076.3121691853
 21
402.0040121726
 31
0.0
  0
LINE
  5
279
330
1F
100
AcDbEntity
  8
0
  6
SLD-Katı
 62
     8
370
    25
100
AcDbLine
 10
127.3989823968
 20
407.0010756008
 30
0.0
 11
127.4207380921
 21
407.00183556
 31
0.0
  0
LINE
  5
27A
330
1F
100
AcDbEntity
  8
0
  6
SLD-Katı
 62
     8
370
    25
100
AcDbLine
 10
127.4207380921
 20
407.5860877387
 30
0.0
 11
127.3989823968
 21
407.5868476979
 31
0.0
  0
LINE
  5
27B
330
1F
100
AcDbEntity
  8
0
  6
SLD-Katı
 62
     8
370
    25
100
AcDbLine
 10
127.3989823968
 20
418.2010752014
 30
0.0
 11
127.4207380921
 21
418.2018351607
 31
0.0
  0
LINE
  5
27C
330
1F
100
AcDbEntity
  8
0
  6
SLD-Katı
 62
     8
370
    25
100
AcDbLine
 10
127.4207380921
 20
418.7860873393
 30
0.0
 11
127.3989823968
 21
418.7868472985
 31
0.0
  0
LINE
  5
27D
330
1F
100
AcDbEntity
  8
0
  6
SLD-Katı
 62
     8
370
    25
100
AcDbLine
 10
127.3989823968
 20
429.3010768346
 30
0.0
 11
127.4207380921
 21
429.3018367938
 31
0.0
  0
LINE
  5
27E
330
1F
100
AcDbEntity
  8
0
  6
SLD-Katı
 62
     8
370
    25
100
AcDbLine
 10
127.4207380921
 20
429.8860889725
 30
0.0
 11
127.3989823968
 21
429.8868470691
 31
0.0
  0
LINE
  5
27F
330
1F
100
AcDbEntity
  8
0
  6
SLD-Katı
 62
     8
370
    25
100
AcDbLine
 10
127.3989823968
 20
440.4010766051
 30
0.0
 11
127.4207380921
 21
440.401835633
 31
0.0
  0
LINE
  5
280
330
1F
100
AcDbEntity
  8
0
  6
SLD-Katı
 62
     8
370
    25
100
AcDbLine
 10
127.4207380921
 20
440.986088743
 30
0.0
 11
127.3989823968
 21
440.9868477709
 31
0.0
  0
LINE
  5
281
330
1F
100
AcDbEntity
  8
0
  6
SLD-Katı
 62
     8
370
    25
100
AcDbLine
 10
127.3989823968
 20
451.5010770159
 30
0.0
 11
127.4207380921
 21
451.5018358692
 31
0.0
  0
LINE
  5
282
330
1F
100
AcDbEntity
  8
0
  6
SLD-Katı
 62
     8
370
    25
100
AcDbLine
 10
127.4207380921
 20
452.0860889792
 30
0.0
 11
127.3989823968
 21
452.0868478325
 31
0.0
  0
LINE
  5
283
330
1F
100
AcDbEntity
  8
0
  6
SLD-Katı
 62
     8
370
    25
100
AcDbLine
 10
127.3989823968
 20
462.6010770775
 30
0.0
 11
127.4207380921
 21
462.6018361054
 31
0.0
  0
LINE
  5
284
330
1F
100
AcDbEntity
  8
0
  6
SLD-Katı
 62
     8
370
    25
100
AcDbLine
 10
127.4207380921
 20
463.1860892154
 30
0.0
 11
127.3989823968
 21
463.1868482433
 31
0.0
  0
LINE
  5
285
330
1F
100
AcDbEntity
  8
0
  6
SLD-Katı
 62
     8
370
    25
100
AcDbLine
 10
127.3989823968
 20
473.7010777793
 30
0.0
 11
127.4207380921
 21
473.7018358759
 31
0.0
  0
LINE
  5
286
330
1F
100
AcDbEntity
  8
0
  6
SLD-Katı
 62
     8
370
    25
100
AcDbLine
 10
127.4207380921
 20
474.2860880546
 30
0.0
 11
127.3989823968
 21
474.2868480138
 31
0.0
  0
LINE
  5
287
330
1F
100
AcDbEntity
  8
0
  6
SLD-Katı
 62
     8
370
    25
100
AcDbLine
 10
127.3989823968
 20
484.8010775499
 30
0.0
 11
127.4207380921
 21
484.8018375091
 31
0.0
  0
LINE
  5
288
330
1F
100
AcDbEntity
  8
0
  6
SLD-Katı
 62
     8
370
    25
100
AcDbLine
 10
127.4207380921
 20
485.3860896877
 30
0.0
 11
127.3989823968
 21
485.386849647
 31
0.0
  0
LINE
  5
289
330
1F
100
AcDbEntity
  8
0
  6
SLD-Katı
 62
     8
370
    25
100
AcDbLine
 10
127.3989823968
 20
496.0010771505
 30
0.0
 11
127.4207380921
 21
496.0018371097
 31
0.0
  0
LINE
  5
28A
330
1F
100
AcDbEntity
  8
0
  6
SLD-Katı
 62
     8
370
    25
100
AcDbLine
 10
127.4207380921
 20
496.5860892884
 30
0.0
 11
127.3989823968
 21
496.5868492476
 31
0.0
  0
LINE
  5
28B
330
1F
100
AcDbEntity
  8
0
  6
SLD-Katı
 62
     8
370
    25
100
AcDbLine
 10
127.2989956051
 20
495.6045609764
 30
0.0
 11
127.1920052678
 21
495.6008245103
 31
0.0
  0
LINE
  5
28C
330
1F
100
AcDbEntity
  8
0
  6
SLD-Katı
 62
     8
370
    25
100
AcDbLine
 10
127.2989956051
 20
484.4045613758
 30
0.0
 11
127.1920052678
 21
484.4008249096
 31
0.0
  0
LINE
  5
28D
330
1F
100
AcDbEntity
  8
0
  6
SLD-Katı
 62
     8
370
    25
100
AcDbLine
 10
127.1920052678
 20
485.7870985619
 30
0.0
 11
127.2989956051
 21
485.783365821
 31
0.0
  0
LINE
  5
28E
330
1F
100
AcDbEntity
  8
0
  6
SLD-Katı
 62
     8
370
    25
100
AcDbLine
 10
127.2989956051
 20
473.3045597426
 30
0.0
 11
127.1920052678
 21
473.3008251391
 31
0.0
  0
LINE
  5
28F
330
1F
100
AcDbEntity
  8
0
  6
SLD-Katı
 62
     8
370
    25
100
AcDbLine
 10
127.1920052678
 20
474.687100654
 30
0.0
 11
127.2989956051
 21
474.6833641879
 31
0.0
  0
LINE
  5
290
330
1F
100
AcDbEntity
  8
0
  6
SLD-Katı
 62
     8
370
    25
100
AcDbLine
 10
127.2989956051
 20
462.2045609034
 30
0.0
 11
127.1920052678
 21
462.2008244372
 31
0.0
  0
LINE
  5
291
330
1F
100
AcDbEntity
  8
0
  6
SLD-Katı
 62
     8
370
    25
100
AcDbLine
 10
127.1920052678
 20
463.5870999522
 30
0.0
 11
127.2989956051
 21
463.5833644174
 31
0.0
  0
LINE
  5
292
330
1F
100
AcDbEntity
  8
0
  6
SLD-Katı
 62
     8
370
    25
100
AcDbLine
 10
127.2989956051
 20
451.1045604926
 30
0.0
 11
127.1920052678
 21
451.1008246667
 31
0.0
  0
LINE
  5
293
330
1F
100
AcDbEntity
  8
0
  6
SLD-Katı
 62
     8
370
    25
100
AcDbLine
 10
127.1920052678
 20
452.4871001817
 30
0.0
 11
127.2989956051
 21
452.4833643558
 31
0.0
  0
LINE
  5
294
330
1F
100
AcDbEntity
  8
0
  6
SLD-Katı
 62
     8
370
    25
100
AcDbLine
 10
127.1920052678
 20
441.3871004112
 30
0.0
 11
127.2989956051
 21
441.383363945
 31
0.0
  0
LINE
  5
295
330
1F
100
AcDbEntity
  8
0
  6
SLD-Katı
 62
     8
370
    25
100
AcDbLine
 10
127.2989956051
 20
440.004560431
 30
0.0
 11
127.1920052678
 21
440.0008248962
 31
0.0
  0
LINE
  5
296
330
1F
100
AcDbEntity
  8
0
  6
SLD-Katı
 62
     8
370
    25
100
AcDbLine
 10
127.2989956051
 20
428.9045606605
 30
0.0
 11
127.1920052678
 21
428.9008241943
 31
0.0
  0
LINE
  5
297
330
1F
100
AcDbEntity
  8
0
  6
SLD-Katı
 62
     8
370
    25
100
AcDbLine
 10
127.1920052678
 20
430.2870997093
 30
0.0
 11
127.2989956051
 21
430.2833651058
 31
0.0
  0
LINE
  5
298
330
1F
100
AcDbEntity
  8
0
  6
SLD-Katı
 62
     8
370
    25
100
AcDbLine
 10
127.1920052678
 20
419.1870999388
 30
0.0
 11
127.2989956051
 21
419.1833634726
 31
0.0
  0
LINE
  5
299
330
1F
100
AcDbEntity
  8
0
  6
SLD-Katı
 62
     8
370
    25
100
AcDbLine
 10
127.2989956051
 20
417.8045590274
 30
0.0
 11
127.1920052678
 21
417.8008262865
 31
0.0
  0
LINE
  5
29A
330
1F
100
AcDbEntity
  8
0
  6
SLD-Katı
 62
     8
370
    25
100
AcDbLine
 10
127.1920052678
 20
407.9871003381
 30
0.0
 11
127.2989956051
 21
407.983363872
 31
0.0
  0
LINE
  5
29B
330
1F
100
AcDbEntity
  8
0
  6
SLD-Katı
 62
     8
370
    25
100
AcDbLine
 10
1077.9990104348
 20
496.5868492476
 30
0.0
 11
1077.9772547394
 21
496.5860892884
 31
0.0
  0
LINE
  5
29C
330
1F
100
AcDbEntity
  8
0
  6
SLD-Katı
 62
     8
370
    25
100
AcDbLine
 10
1077.9772547394
 20
496.0018371097
 30
0.0
 11
1077.9990104348
 21
496.0010771505
 31
0.0
  0
LINE
  5
29D
330
1F
100
AcDbEntity
  8
0
  6
SLD-Katı
 62
     8
370
    25
100
AcDbLine
 10
1077.9990104348
 20
485.386849647
 30
0.0
 11
1077.9772547394
 21
485.3860896877
 31
0.0
  0
LINE
  5
29E
330
1F
100
AcDbEntity
  8
0
  6
SLD-Katı
 62
     8
370
    25
100
AcDbLine
 10
1077.9772547394
 20
484.8018375091
 30
0.0
 11
1077.9990104348
 21
484.8010775499
 31
0.0
  0
LINE
  5
29F
330
1F
100
AcDbEntity
  8
0
  6
SLD-Katı
 62
     8
370
    25
100
AcDbLine
 10
1077.9990104348
 20
474.2868480138
 30
0.0
 11
1077.9772547394
 21
474.2860880546
 31
0.0
  0
LINE
  5
2A0
330
1F
100
AcDbEntity
  8
0
  6
SLD-Katı
 62
     8
370
    25
100
AcDbLine
 10
1077.9772547394
 20
473.7018358759
 30
0.0
 11
1077.9990104348
 21
473.7010777793
 31
0.0
  0
LINE
  5
2A1
330
1F
100
AcDbEntity
  8
0
  6
SLD-Katı
 62
     8
370
    25
100
AcDbLine
 10
1077.9990104348
 20
463.1868482433
 30
0.0
 11
1077.9772547394
 21
463.1860892154
 31
0.0
  0
LINE
  5
2A2
330
1F
100
AcDbEntity
  8
0
  6
SLD-Katı
 62
     8
370
    25
100
AcDbLine
 10
1077.9772547394
 20
462.6018361054
 30
0.0
 11
1077.9990104348
 21
462.6010770775
 31
0.0
  0
LINE
  5
2A3
330
1F
100
AcDbEntity
  8
0
  6
SLD-Katı
 62
     8
370
    25
100
AcDbLine
 10
1077.9990104348
 20
452.0868478325
 30
0.0
 11
1077.9772547394
 21
452.0860889792
 31
0.0
  0
LINE
  5
2A4
330
1F
100
AcDbEntity
  8
0
  6
SLD-Katı
 62
     8
370
    25
100
AcDbLine
 10
1077.9772547394
 20
451.5018358692
 30
0.0
 11
1077.9990104348
 21
451.5010770159
 31
0.0
  0
LINE
  5
2A5
330
1F
100
AcDbEntity
  8
0
  6
SLD-Katı
 62
     8
370
    25
100
AcDbLine
 10
1077.9990104348
 20
440.9868477709
 30
0.0
 11
1077.9772547394
 21
440.986088743
 31
0.0
  0
LINE
  5
2A6
330
1F
100
AcDbEntity
  8
0
  6
SLD-Katı
 62
     8
370
    25
100
AcDbLine
 10
1077.9772547394
 20
440.401835633
 30
0.0
 11
1077.9990104348
 21
440.4010766051
 31
0.0
  0
LINE
  5
2A7
330
1F
100
AcDbEntity
  8
0
  6
SLD-Katı
 62
     8
370
    25
100
AcDbLine
 10
1077.9990104348
 20
429.8868470691
 30
0.0
 11
1077.9772547394
 21
429.8860889725
 31
0.0
  0
LINE
  5
2A8
330
1F
100
AcDbEntity
  8
0
  6
SLD-Katı
 62
     8
370
    25
100
AcDbLine
 10
1077.9772547394
 20
429.3018367938
 30
0.0
 11
1077.9990104348
 21
429.3010768346
 31
0.0
  0
LINE
  5
2A9
330
1F
100
AcDbEntity
  8
0
  6
SLD-Katı
 62
     8
370
    25
100
AcDbLine
 10
1077.9990104348
 20
418.7868472985
 30
0.0
 11
1077.9772547394
 21
418.7860873393
 31
0.0
  0
LINE
  5
2AA
330
1F
100
AcDbEntity
  8
0
  6
SLD-Katı
 62
     8
370
    25
100
AcDbLine
 10
1077.9772547394
 20
418.2018351607
 30
0.0
 11
1077.9990104348
 21
418.2010752014
 31
0.0
  0
LINE
  5
2AB
330
1F
100
AcDbEntity
  8
0
  6
SLD-Katı
 62
     8
370
    25
100
AcDbLine
 10
1077.9990104348
 20
407.5868476979
 30
0.0
 11
1077.9772547394
 21
407.5860877387
 31
0.0
  0
LINE
  5
2AC
330
1F
100
AcDbEntity
  8
0
  6
SLD-Katı
 62
     8
370
    25
100
AcDbLine
 10
1077.9772547394
 20
407.00183556
 30
0.0
 11
1077.9990104348
 21
407.0010756008
 31
0.0
  0
LINE
  5
2AD
330
1F
100
AcDbEntity
  8
0
  6
SLD-Katı
 62
     8
370
    25
100
AcDbLine
 10
1078.2059875638
 20
495.6008245103
 30
0.0
 11
1078.0989972264
 21
495.6045609764
 31
0.0
  0
LINE
  5
2AE
330
1F
100
AcDbEntity
  8
0
  6
SLD-Katı
 62
     8
370
    25
100
AcDbLine
 10
1078.0989972264
 20
485.783365821
 30
0.0
 11
1078.2059875638
 21
485.7870985619
 31
0.0
  0
LINE
  5
2AF
330
1F
100
AcDbEntity
  8
0
  6
SLD-Katı
 62
     8
370
    25
100
AcDbLine
 10
1078.2059875638
 20
484.4008249096
 30
0.0
 11
1078.0989972264
 21
484.4045613758
 31
0.0
  0
LINE
  5
2B0
330
1F
100
AcDbEntity
  8
0
  6
SLD-Katı
 62
     8
370
    25
100
AcDbLine
 10
1078.0989972264
 20
474.6833641879
 30
0.0
 11
1078.2059875638
 21
474.687100654
 31
0.0
  0
LINE
  5
2B1
330
1F
100
AcDbEntity
  8
0
  6
SLD-Katı
 62
     8
370
    25
100
AcDbLine
 10
1078.2059875638
 20
473.3008251391
 30
0.0
 11
1078.0989972264
 21
473.3045597426
 31
0.0
  0
LINE
  5
2B2
330
1F
100
AcDbEntity
  8
0
  6
SLD-Katı
 62
     8
370
    25
100
AcDbLine
 10
1078.0989972264
 20
463.5833644174
 30
0.0
 11
1078.2059875638
 21
463.5870999522
 31
0.0
  0
LINE
  5
2B3
330
1F
100
AcDbEntity
  8
0
  6
SLD-Katı
 62
     8
370
    25
100
AcDbLine
 10
1078.2059875638
 20
462.2008244372
 30
0.0
 11
1078.0989972264
 21
462.2045609034
 31
0.0
  0
LINE
  5
2B4
330
1F
100
AcDbEntity
  8
0
  6
SLD-Katı
 62
     8
370
    25
100
AcDbLine
 10
1078.0989972264
 20
452.4833643558
 30
0.0
 11
1078.2059875638
 21
452.4871001817
 31
0.0
  0
LINE
  5
2B5
330
1F
100
AcDbEntity
  8
0
  6
SLD-Katı
 62
     8
370
    25
100
AcDbLine
 10
1078.2059875638
 20
451.1008246667
 30
0.0
 11
1078.0989972264
 21
451.1045604926
 31
0.0
  0
LINE
  5
2B6
330
1F
100
AcDbEntity
  8
0
  6
SLD-Katı
 62
     8
370
    25
100
AcDbLine
 10
1078.0989972264
 20
441.383363945
 30
0.0
 11
1078.2059875638
 21
441.3871004112
 31
0.0
  0
LINE
  5
2B7
330
1F
100
AcDbEntity
  8
0
  6
SLD-Katı
 62
     8
370
    25
100
AcDbLine
 10
1078.2059875638
 20
440.0008248962
 30
0.0
 11
1078.0989972264
 21
440.004560431
 31
0.0
  0
LINE
  5
2B8
330
1F
100
AcDbEntity
  8
0
  6
SLD-Katı
 62
     8
370
    25
100
AcDbLine
 10
1078.0989972264
 20
430.2833651058
 30
0.0
 11
1078.2059875638
 21
430.2870997093
 31
0.0
  0
LINE
  5
2B9
330
1F
100
AcDbEntity
  8
0
  6
SLD-Katı
 62
     8
370
    25
100
AcDbLine
 10
1078.2059875638
 20
428.9008241943
 30
0.0
 11
1078.0989972264
 21
428.9045606605
 31
0.0
  0
LINE
  5
2BA
330
1F
100
AcDbEntity
  8
0
  6
SLD-Katı
 62
     8
370
    25
100
AcDbLine
 10
1078.0989972264
 20
419.1833634726
 30
0.0
 11
1078.2059875638
 21
419.1870999388
 31
0.0
  0
LINE
  5
2BB
330
1F
100
AcDbEntity
  8
0
  6
SLD-Katı
 62
     8
370
    25
100
AcDbLine
 10
1078.2059875638
 20
417.8008262865
 30
0.0
 11
1078.0989972264
 21
417.8045590274
 31
0.0
  0
LINE
  5
2BC
330
1F
100
AcDbEntity
  8
0
  6
SLD-Katı
 62
     8
370
    25
100
AcDbLine
 10
1078.0989972264
 20
407.983363872
 30
0.0
 11
1078.2059875638
 21
407.9871003381
 31
0.0
  0
LINE
  5
2BD
330
1F
100
AcDbEntity
  8
0
  6
SLD-Katı
 62
     8
370
    25
100
AcDbLine
 10
1078.3989874035
 20
502.4939638428
 30
0.0
 11
1076.9222227246
 21
502.4939638428
 31
0.0
  0
LINE
  5
2BE
330
1F
100
AcDbEntity
  8
0
  6
SLD-Katı
 62
     8
370
    25
100
AcDbLine
 10
128.4757701069
 20
502.4939638428
 30
0.0
 11
126.999005428
 21
502.4939638428
 31
0.0
  0
LINE
  5
2BF
330
1F
100
AcDbEntity
  8
0
  6
SLD-Katı
 62
     8
370
    25
100
AcDbLine
 10
126.999005428
 20
401.0939610056
 30
0.0
 11
128.4757701069
 21
401.0939610056
 31
0.0
  0
LINE
  5
2C0
330
1F
100
AcDbEntity
  8
0
  6
SLD-Katı
 62
     8
370
    25
100
AcDbLine
 10
1076.9222227246
 20
401.0939610056
 30
0.0
 11
1078.3989874035
 21
401.0939610056
 31
0.0
  0
LINE
  5
2C1
330
1F
100
AcDbEntity
  8
0
  6
SLD-Katı
 62
     8
370
    25
100
AcDbLine
 10
126.999005428
 20
500.5382870189
 30
0.0
 11
127.2989956051
 21
500.5382870189
 31
0.0
  0
LINE
  5
2C2
330
1F
100
AcDbEntity
  8
0
  6
SLD-Katı
 62
     8
370
    25
100
AcDbLine
 10
1078.0989972264
 20
500.5382870189
 30
0.0
 11
1078.3989874035
 21
500.5382870189
 31
0.0
  0
LINE
  5
2C3
330
1F
100
AcDbEntity
  8
0
  6
SLD-Katı
 62
     8
370
    25
100
AcDbLine
 10
1078.3989874035
 20
403.0496378295
 30
0.0
 11
1078.0989972264
 21
403.0496378295
 31
0.0
  0
LINE
  5
2C4
330
1F
100
AcDbEntity
  8
0
  6
SLD-Katı
 62
     8
370
    25
100
AcDbLine
 10
127.2989956051
 20
403.0496378295
 30
0.0
 11
126.999005428
 21
403.0496378295
 31
0.0
  0
LINE
  5
2C5
330
1F
100
AcDbEntity
  8
0
  6
SLD-Katı
 62
     8
370
    25
100
AcDbLine
 10
126.999005428
 20
498.2618403486
 30
0.0
 11
127.2989956051
 21
498.2618403486
 31
0.0
  0
LINE
  5
2C6
330
1F
100
AcDbEntity
  8
0
  6
SLD-Katı
 62
     8
370
    25
100
AcDbLine
 10
1078.0989972264
 20
498.2618403486
 30
0.0
 11
1078.3989874035
 21
498.2618403486
 31
0.0
  0
LINE
  5
2C7
330
1F
100
AcDbEntity
  8
0
  6
SLD-Katı
 62
     8
370
    25
100
AcDbLine
 10
1078.3989874035
 20
405.3260844998
 30
0.0
 11
1078.0989972264
 21
405.3260844998
 31
0.0
  0
LINE
  5
2C8
330
1F
100
AcDbEntity
  8
0
  6
SLD-Katı
 62
     8
370
    25
100
AcDbLine
 10
127.2989956051
 20
405.3260844998
 30
0.0
 11
126.999005428
 21
405.3260844998
 31
0.0
  0
ENDSEC
  0
SECTION
  2
OBJECTS
  0
DICTIONARY
  5
C
330
0
100
AcDbDictionary
281
     1
  3
ACAD_GROUP
350
D
  3
ACAD_LAYOUT
350
1A
  3
ACAD_MLINESTYLE
350
17
  3
ACAD_PLOTSETTINGS
350
19
  3
ACAD_PLOTSTYLENAME
350
E
  3
ACAD_SCALELIST
350
47
  0
DICTIONARY
  5
D
102
{ACAD_REACTORS
330
C
102
}
330
C
100
AcDbDictionary
281
     1
  0
DICTIONARY
  5
1A
102
{ACAD_REACTORS
330
C
102
}
330
C
100
AcDbDictionary
281
     1
  3
Layout1
350
1E
  3
Layout2
350
26
  3
Model
350
22
  0
DICTIONARY
  5
17
102
{ACAD_REACTORS
330
C
102
}
330
C
100
AcDbDictionary
281
     1
  3
Standard
350
18
  0
DICTIONARY
  5
19
102
{ACAD_REACTORS
330
C
102
}
330
C
100
AcDbDictionary
281
     1
  0
ACDBDICTIONARYWDFLT
  5
E
102
{ACAD_REACTORS
330
C
102
}
330
C
100
AcDbDictionary
281
     1
  3
Normal
350
F
100
AcDbDictionaryWithDefault
340
F
  0
DICTIONARY
  5
47
102
{ACAD_REACTORS
330
C
102
}
330
C
100
AcDbDictionary
281
     1
  3
A0
350
48
  3
A1
350
49
  3
A2
350
4A
  3
A3
350
4B
  3
A4
350
4C
  3
A5
350
4D
  3
A6
350
4E
  3
A7
350
4F
  3
A8
350
50
  3
A9
350
51
  3
B0
350
52
  3
B1
350
53
  3
B2
350
54
  3
B3
350
55
  3
B4
350
56
  3
B5
350
57
  3
B6
350
58
  3
B7
350
59
  3
B8
350
5A
  3
B9
350
5B
  3
C0
350
5C
  3
C1
350
5D
  3
C2
350
5E
  3
C3
350
5F
  3
C4
350
60
  3
C5
350
61
  3
C6
350
62
  3
C7
350
63
  3
C8
350
64
  3
C9
350
65
  3
D0
350
66
  3
D1
350
67
  3
D2
350
68
  0
LAYOUT
  5
1E
102
{ACAD_REACTORS
330
1A
102
}
330
1A
100
AcDbPlotSettings
  1

  2
none_device
  4

  6

 40
0.0
 41
0.0
 42
0.0
 43
0.0
 44
0.0
 45
0.0
 46
0.0
 47
0.0
 48
0.0
 49
0.0
140
0.0
141
0.0
142
1.0
143
1.0
 70
   688
 72
     1
 73
     0
 74
     5
  7

 75
    16
147
1.0
148
0.0
149
0.0
100
AcDbLayout
  1
Layout1
 70
     1
 71
     1
 10
0.0
 20
0.0
 11
420.0
 21
297.0
 12
0.0
 22
0.0
 32
0.0
 14
1.0000000000E+20
 24
1.0000000000E+20
 34
1.0000000000E+20
 15
-1.0000000000E+20
 25
-1.0000000000E+20
 35
-1.0000000000E+20
146
0.0
 13
0.0
 23
0.0
 33
0.0
 16
1.0
 26
0.0
 36
0.0
 17
0.0
 27
1.0
 37
0.0
 76
     0
330
1B
  0
LAYOUT
  5
26
102
{ACAD_REACTORS
330
1A
102
}
330
1A
100
AcDbPlotSettings
  1

  2
none_device
  4

  6

 40
0.0
 41
0.0
 42
0.0
 43
0.0
 44
0.0
 45
0.0
 46
0.0
 47
0.0
 48
0.0
 49
0.0
140
0.0
141
0.0
142
1.0
143
1.0
 70
   688
 72
     1
 73
     0
 74
     5
  7

 75
    16
147
1.0
148
0.0
149
0.0
100
AcDbLayout
  1
Layout2
 70
     1
 71
     2
 10
0.0
 20
0.0
 11
0.0
 21
0.0
 12
0.0
 22
0.0
 32
0.0
 14
0.0
 24
0.0
 34
0.0
 15
0.0
 25
0.0
 35
0.0
146
0.0
 13
0.0
 23
0.0
 33
0.0
 16
1.0
 26
0.0
 36
0.0
 17
0.0
 27
1.0
 37
0.0
 76
     0
330
23
  0
LAYOUT
  5
22
102
{ACAD_REACTORS
330
1A
102
}
330
1A
100
AcDbPlotSettings
  1

  2
none_device
  4
Letter_(8.50_x_11.00_Inches)
  6

 40
6.35
 41
6.35
 42
6.35000508
 43
6.35000508
 44
215.9
 45
279.4
 46
0.0
 47
0.0
 48
0.0
 49
0.0
140
0.0
141
0.0
142
1.0
143
1.0
 70
  1712
 72
     1
 73
     0
 74
     0
  7

 75
     0
147
1.0
148
0.0
149
0.0
100
AcDbLayout
  1
Model
 70
     1
 71
     0
 10
0.0
 20
0.0
 11
1189.0
 21
841.0
 12
0.0
 22
0.0
 32
0.0
 14
0.0
 24
0.0
 34
0.0
 15
1189.0
 25
841.0
 35
0.0
146
0.0
 13
0.0
 23
0.0
 33
0.0
 16
1.0
 26
0.0
 36
0.0
 17
0.0
 27
1.0
 37
0.0
 76
     0
330
1F
331
29
  0
MLINESTYLE
  5
18
102
{ACAD_REACTORS
330
17
102
}
330
17
100
AcDbMlineStyle
  2
Standard
 70
     0
  3

 62
   256
 51
90.0
 52
90.0
 71
     2
 49
0.5
 62
   256
  6
BYLAYER
 49
-0.5
 62
   256
  6
BYLAYER
  0
ACDBPLACEHOLDER
  5
F
102
{ACAD_REACTORS
330
E
102
}
330
E
  0
SCALE
  5
48
102
{ACAD_REACTORS
330
47
102
}
330
47
100
AcDbScale
 70
     0
300
1:1
140
1.0
141
1.0
290
     1
  0
SCALE
  5
49
102
{ACAD_REACTORS
330
47
102
}
330
47
100
AcDbScale
 70
     0
300
1:2
140
1.0
141
2.0
290
     0
  0
SCALE
  5
4A
102
{ACAD_REACTORS
330
47
102
}
330
47
100
AcDbScale
 70
     0
300
1:4
140
1.0
141
4.0
290
     0
  0
SCALE
  5
4B
102
{ACAD_REACTORS
330
47
102
}
330
47
100
AcDbScale
 70
     0
300
1:5
140
1.0
141
5.0
290
     0
  0
SCALE
  5
4C
102
{ACAD_REACTORS
330
47
102
}
330
47
100
AcDbScale
 70
     0
300
1:8
140
1.0
141
8.0
290
     0
  0
SCALE
  5
4D
102
{ACAD_REACTORS
330
47
102
}
330
47
100
AcDbScale
 70
     0
300
1:10
140
1.0
141
10.0
290
     0
  0
SCALE
  5
4E
102
{ACAD_REACTORS
330
47
102
}
330
47
100
AcDbScale
 70
     0
300
1:16
140
1.0
141
16.0
290
     0
  0
SCALE
  5
4F
102
{ACAD_REACTORS
330
47
102
}
330
47
100
AcDbScale
 70
     0
300
1:20
140
1.0
141
20.0
290
     0
  0
SCALE
  5
50
102
{ACAD_REACTORS
330
47
102
}
330
47
100
AcDbScale
 70
     0
300
1:30
140
1.0
141
30.0
290
     0
  0
SCALE
  5
51
102
{ACAD_REACTORS
330
47
102
}
330
47
100
AcDbScale
 70
     0
300
1:40
140
1.0
141
40.0
290
     0
  0
SCALE
  5
52
102
{ACAD_REACTORS
330
47
102
}
330
47
100
AcDbScale
 70
     0
300
1:50
140
1.0
141
50.0
290
     0
  0
SCALE
  5
53
102
{ACAD_REACTORS
330
47
102
}
330
47
100
AcDbScale
 70
     0
300
1:100
140
1.0
141
100.0
290
     0
  0
SCALE
  5
54
102
{ACAD_REACTORS
330
47
102
}
330
47
100
AcDbScale
 70
     0
300
2:1
140
2.0
141
1.0
290
     0
  0
SCALE
  5
55
102
{ACAD_REACTORS
330
47
102
}
330
47
100
AcDbScale
 70
     0
300
4:1
140
4.0
141
1.0
290
     0
  0
SCALE
  5
56
102
{ACAD_REACTORS
330
47
102
}
330
47
100
AcDbScale
 70
     0
300
8:1
140
8.0
141
1.0
290
     0
  0
SCALE
  5
57
102
{ACAD_REACTORS
330
47
102
}
330
47
100
AcDbScale
 70
     0
300
10:1
140
10.0
141
1.0
290
     0
  0
SCALE
  5
58
102
{ACAD_REACTORS
330
47
102
}
330
47
100
AcDbScale
 70
     0
300
100:1
140
100.0
141
1.0
290
     0
  0
SCALE
  5
59
102
{ACAD_REACTORS
330
47
102
}
330
47
100
AcDbScale
 70
     0
300
1/128" = 1'-0"
140
0.0078125
141
12.0
290
     0
  0
SCALE
  5
5A
102
{ACAD_REACTORS
330
47
102
}
330
47
100
AcDbScale
 70
     0
300
1/64" = 1'-0"
140
0.015625
141
12.0
290
     0
  0
SCALE
  5
5B
102
{ACAD_REACTORS
330
47
102
}
330
47
100
AcDbScale
 70
     0
300
1/32" = 1'-0"
140
0.03125
141
12.0
290
     0
  0
SCALE
  5
5C
102
{ACAD_REACTORS
330
47
102
}
330
47
100
AcDbScale
 70
     0
300
1/16" = 1'-0"
140
0.0625
141
12.0
290
     0
  0
SCALE
  5
5D
102
{ACAD_REACTORS
330
47
102
}
330
47
100
AcDbScale
 70
     0
300
3/32" = 1'-0"
140
0.09375
141
12.0
290
     0
  0
SCALE
  5
5E
102
{ACAD_REACTORS
330
47
102
}
330
47
100
AcDbScale
 70
     0
300
1/8" = 1'-0"
140
0.125
141
12.0
290
     0
  0
SCALE
  5
5F
102
{ACAD_REACTORS
330
47
102
}
330
47
100
AcDbScale
 70
     0
300
3/16" = 1'-0"
140
0.1875
141
12.0
290
     0
  0
SCALE
  5
60
102
{ACAD_REACTORS
330
47
102
}
330
47
100
AcDbScale
 70
     0
300
1/4" = 1'-0"
140
0.25
141
12.0
290
     0
  0
SCALE
  5
61
102
{ACAD_REACTORS
330
47
102
}
330
47
100
AcDbScale
 70
     0
300
3/8" = 1'-0"
140
0.375
141
12.0
290
     0
  0
SCALE
  5
62
102
{ACAD_REACTORS
330
47
102
}
330
47
100
AcDbScale
 70
     0
300
1/2" = 1'-0"
140
0.5
141
12.0
290
     0
  0
SCALE
  5
63
102
{ACAD_REACTORS
330
47
102
}
330
47
100
AcDbScale
 70
     0
300
3/4" = 1'-0"
140
0.75
141
12.0
290
     0
  0
SCALE
  5
64
102
{ACAD_REACTORS
330
47
102
}
330
47
100
AcDbScale
 70
     0
300
1" = 1'-0"
140
1.0
141
12.0
290
     0
  0
SCALE
  5
65
102
{ACAD_REACTORS
330
47
102
}
330
47
100
AcDbScale
 70
     0
300
1-1/2" = 1'-0"
140
1.5
141
12.0
290
     0
  0
SCALE
  5
66
102
{ACAD_REACTORS
330
47
102
}
330
47
100
AcDbScale
 70
     0
300
3" = 1'-0"
140
3.0
141
12.0
290
     0
  0
SCALE
  5
67
102
{ACAD_REACTORS
330
47
102
}
330
47
100
AcDbScale
 70
     0
300
6" = 1'-0"
140
6.0
141
12.0
290
     0
  0
SCALE
  5
68
102
{ACAD_REACTORS
330
47
102
}
330
47
100
AcDbScale
 70
     0
300
1'-0" = 1'-0"
140
12.0
141
12.0
290
     0
  0
ENDSEC
  0
EOF
