  0
SECTION
  2
HEADER
  9
$ACADVER
  1
AC1015
  9
$ACADMAINTVER
 70
     6
  9
$DWGCODEPAGE
  3
ANSI_1254
  9
$INSBASE
 10
0.0
 20
0.0
 30
0.0
  9
$EXTMIN
 10
0.0
 20
0.0
 30
0.0
  9
$EXTMAX
 10
420.0
 20
297.0
 30
0.0
  9
$LIMMIN
 10
0.0
 20
0.0
  9
$LIMMAX
 10
420.0
 20
297.0
  9
$ORTHOMODE
 70
     0
  9
$REGENMODE
 70
     1
  9
$FILLMODE
 70
     1
  9
$QTEXTMODE
 70
     0
  9
$MIRRTEXT
 70
     1
  9
$LTSCALE
 40
1.0
  9
$ATTMODE
 70
     1
  9
$TEXTSIZE
 40
3.5
  9
$TRACEWID
 40
1.0
  9
$TEXTSTYLE
  7
Standard
  9
$CLAYER
  8
0
  9
$CELTYPE
  6
ByLayer
  9
$CECOLOR
 62
   256
  9
$CELTSCALE
 40
1.0
  9
$DISPSILH
 70
     0
  9
$DIMSCALE
 40
1.0
  9
$DIMASZ
 40
3.302
  9
$DIMEXO
 40
1.0
  9
$DIMDLI
 40
3.75
  9
$DIMRND
 40
0.0
  9
$DIMDLE
 40
0.0
  9
$DIMEXE
 40
1.0
  9
$DIMTP
 40
0.0
  9
$DIMTM
 40
0.0
  9
$DIMTXT
 40
3.5
  9
$DIMCEN
 40
2.5
  9
$DIMTSZ
 40
0.0
  9
$DIMTOL
 70
     0
  9
$DIMLIM
 70
     0
  9
$DIMTIH
 70
     1
  9
$DIMTOH
 70
     1
  9
$DIMSE1
 70
     0
  9
$DIMSE2
 70
     0
  9
$DIMTAD
 70
     1
  9
$DIMZIN
 70
     1
  9
$DIMBLK
  1

  9
$DIMASO
 70
     1
  9
$DIMSHO
 70
     1
  9
$DIMPOST
  1

  9
$DIMAPOST
  1

  9
$DIMALT
 70
     0
  9
$DIMALTD
 70
     3
  9
$DIMALTF
 40
0.0393700787
  9
$DIMLFAC
 40
1.0
  9
$DIMTOFL
 70
     1
  9
$DIMTVP
 40
0.0
  9
$DIMTIX
 70
     0
  9
$DIMSOXD
 70
     0
  9
$DIMSAH
 70
     0
  9
$DIMBLK1
  1

  9
$DIMBLK2
  1

  9
$DIMSTYLE
  2
ISO-25
  9
$DIMCLRD
 70
     0
  9
$DIMCLRE
 70
     0
  9
$DIMCLRT
 70
     0
  9
$DIMTFAC
 40
1.0
  9
$DIMGAP
 40
1.524
  9
$DIMJUST
 70
     0
  9
$DIMSD1
 70
     0
  9
$DIMSD2
 70
     0
  9
$DIMTOLJ
 70
     0
  9
$DIMTZIN
 70
     1
  9
$DIMALTZ
 70
     0
  9
$DIMALTTZ
 70
     0
  9
$DIMUPT
 70
     0
  9
$DIMDEC
 70
     2
  9
$DIMTDEC
 70
     2
  9
$DIMALTU
 70
     2
  9
$DIMALTTD
 70
     3
  9
$DIMTXSTY
  7
Standard
  9
$DIMAUNIT
 70
     0
  9
$DIMADEC
 70
     2
  9
$DIMALTRND
 40
0.0
  9
$DIMAZIN
 70
     0
  9
$DIMDSEP
 70
    44
  9
$DIMATFIT
 70
     3
  9
$DIMFRAC
 70
     0
  9
$DIMLDRBLK
  1

  9
$DIMLUNIT
 70
     2
  9
$DIMLWD
 70
    -2
  9
$DIMLWE
 70
    -2
  9
$DIMTMOVE
 70
     0
  9
$LUNITS
 70
     2
  9
$LUPREC
 70
     2
  9
$SKETCHINC
 40
1.0
  9
$FILLETRAD
 40
10.0
  9
$AUNITS
 70
     0
  9
$AUPREC
 70
     2
  9
$MENU
  1
.
  9
$ELEVATION
 40
0.0
  9
$PELEVATION
 40
0.0
  9
$THICKNESS
 40
0.0
  9
$LIMCHECK
 70
     0
  9
$CHAMFERA
 40
0.0
  9
$CHAMFERB
 40
0.0
  9
$CHAMFERC
 40
0.0
  9
$CHAMFERD
 40
0.0
  9
$SKPOLY
 70
     0
  9
$TDCREATE
 40
2459867.451773669
  9
$TDUCREATE
 40
2459867.326773669
  9
$TDUPDATE
 40
2459867.451774178
  9
$TDUUPDATE
 40
2459867.326774178
  9
$TDINDWG
 40
0.0000000116
  9
$TDUSRTIMER
 40
0.0000000116
  9
$USRTIMER
 70
     1
  9
$ANGBASE
 50
0.0
  9
$ANGDIR
 70
     0
  9
$PDMODE
 70
     0
  9
$PDSIZE
 40
-1.0
  9
$PLINEWID
 40
0.0
  9
$SPLFRAME
 70
     0
  9
$SPLINETYPE
 70
     6
  9
$SPLINESEGS
 70
     8
  9
$HANDSEED
  5
2CF
  9
$SURFTAB1
 70
     6
  9
$SURFTAB2
 70
     6
  9
$SURFTYPE
 70
     6
  9
$SURFU
 70
     6
  9
$SURFV
 70
     6
  9
$UCSBASE
  2

  9
$UCSNAME
  2

  9
$UCSORG
 10
0.0
 20
0.0
 30
0.0
  9
$UCSXDIR
 10
1.0
 20
0.0
 30
0.0
  9
$UCSYDIR
 10
0.0
 20
1.0
 30
0.0
  9
$UCSORTHOREF
  2

  9
$UCSORTHOVIEW
 70
     0
  9
$UCSORGTOP
 10
0.0
 20
0.0
 30
0.0
  9
$UCSORGBOTTOM
 10
0.0
 20
0.0
 30
0.0
  9
$UCSORGLEFT
 10
0.0
 20
0.0
 30
0.0
  9
$UCSORGRIGHT
 10
0.0
 20
0.0
 30
0.0
  9
$UCSORGFRONT
 10
0.0
 20
0.0
 30
0.0
  9
$UCSORGBACK
 10
0.0
 20
0.0
 30
0.0
  9
$PUCSBASE
  2

  9
$PUCSNAME
  2

  9
$PUCSORG
 10
0.0
 20
0.0
 30
0.0
  9
$PUCSXDIR
 10
1.0
 20
0.0
 30
0.0
  9
$PUCSYDIR
 10
0.0
 20
1.0
 30
0.0
  9
$PUCSORTHOREF
  2

  9
$PUCSORTHOVIEW
 70
     0
  9
$PUCSORGTOP
 10
0.0
 20
0.0
 30
0.0
  9
$PUCSORGBOTTOM
 10
0.0
 20
0.0
 30
0.0
  9
$PUCSORGLEFT
 10
0.0
 20
0.0
 30
0.0
  9
$PUCSORGRIGHT
 10
0.0
 20
0.0
 30
0.0
  9
$PUCSORGFRONT
 10
0.0
 20
0.0
 30
0.0
  9
$PUCSORGBACK
 10
0.0
 20
0.0
 30
0.0
  9
$USERI1
 70
     0
  9
$USERI2
 70
     0
  9
$USERI3
 70
     0
  9
$USERI4
 70
     0
  9
$USERI5
 70
     0
  9
$USERR1
 40
0.0
  9
$USERR2
 40
0.0
  9
$USERR3
 40
0.0
  9
$USERR4
 40
0.0
  9
$USERR5
 40
0.0
  9
$WORLDVIEW
 70
     1
  9
$SHADEDGE
 70
     3
  9
$SHADEDIF
 70
    70
  9
$TILEMODE
 70
     1
  9
$MAXACTVP
 70
    64
  9
$PINSBASE
 10
0.0
 20
0.0
 30
0.0
  9
$PLIMCHECK
 70
     0
  9
$PEXTMIN
 10
1.0000000000E+20
 20
1.0000000000E+20
 30
1.0000000000E+20
  9
$PEXTMAX
 10
-1.0000000000E+20
 20
-1.0000000000E+20
 30
-1.0000000000E+20
  9
$PLIMMIN
 10
0.0
 20
0.0
  9
$PLIMMAX
 10
420.0
 20
297.0
  9
$UNITMODE
 70
     0
  9
$VISRETAIN
 70
     1
  9
$PLINEGEN
 70
     0
  9
$PSLTSCALE
 70
     1
  9
$TREEDEPTH
 70
  3020
  9
$CMLSTYLE
  2
Standard
  9
$CMLJUST
 70
     0
  9
$CMLSCALE
 40
20.0
  9
$PROXYGRAPHICS
 70
     1
  9
$MEASUREMENT
 70
     1
  9
$CELWEIGHT
370
    -1
  9
$ENDCAPS
280
     0
  9
$JOINSTYLE
280
     0
  9
$LWDISPLAY
290
     1
  9
$INSUNITS
 70
     4
  9
$HYPERLINKBASE
  1

  9
$STYLESHEET
  1

  9
$XEDIT
290
     1
  9
$CEPSNTYPE
380
     0
  9
$PSTYLEMODE
290
     1
  9
$FINGERPRINTGUID
  2
{d833ba26-f6a9-4033-ae2c-eed8e9a583c5}
  9
$VERSIONGUID
  2
{FAEB1C32-E019-11D5-929B-00C0DF256EC4}
  9
$EXTNAMES
290
     1
  9
$PSVPSCALE
 40
0.0
  9
$OLESTARTUP
290
     0
  0
ENDSEC
  0
SECTION
  2
CLASSES
  0
CLASS
  1
ACDBDICTIONARYWDFLT
  2
AcDbDictionaryWithDefault
  3
ObjectDBX Classes
 90
        0
280
     0
281
     0
  0
CLASS
  1
VISUALSTYLE
  2
AcDbVisualStyle
  3
ObjectDBX Classes
 90
     4095
280
     0
281
     0
  0
CLASS
  1
MATERIAL
  2
AcDbMaterial
  3
ObjectDBX Classes
 90
     1153
280
     0
281
     0
  0
CLASS
  1
SCALE
  2
AcDbScale
  3
ObjectDBX Classes
 90
     1153
280
     0
281
     0
  0
CLASS
  1
TABLESTYLE
  2
AcDbTableStyle
  3
ObjectDBX Classes
 90
     4095
280
     0
281
     0
  0
CLASS
  1
MLEADERSTYLE
  2
AcDbMLeaderStyle
  3
ACDB_MLEADERSTYLE_CLASS
 90
     4095
280
     0
281
     0
  0
CLASS
  1
SUN
  2
AcDbSun
  3
SCENEOE
 90
     1153
280
     0
281
     0
  0
CLASS
  1
ACDBPLACEHOLDER
  2
AcDbPlaceHolder
  3
ObjectDBX Classes
 90
        0
280
     0
281
     0
  0
CLASS
  1
LAYOUT
  2
AcDbLayout
  3
ObjectDBX Classes
 90
        0
280
     0
281
     0
  0
ENDSEC
  0
SECTION
  2
TABLES
  0
TABLE
  2
VPORT
  5
8
330
0
100
AcDbSymbolTable
 70
     1
  0
VPORT
  5
29
330
8
100
AcDbSymbolTableRecord
100
AcDbViewportTableRecord
  2
*Active
 70
     0
 10
0.0
 20
0.0
 11
1.0
 21
1.0
 12
210.0
 22
148.5
 13
0.0
 23
0.0
 14
10.0
 24
10.0
 15
10.0
 25
10.0
 16
0.0
 26
0.0
 36
1.0
 17
0.0
 27
0.0
 37
0.0
 40
297.0
 41
1.4141414141
 42
50.0
 43
0.0
 44
0.0
 50
0.0
 51
0.0
 71
     0
 72
  2000
 73
     1
 74
     3
 75
     0
 76
     0
 77
     0
 78
     0
281
     0
 65
     1
110
0.0
120
0.0
130
0.0
111
1.0
121
0.0
131
0.0
112
0.0
122
1.0
132
0.0
 79
     0
146
0.0
  0
ENDTAB
  0
TABLE
  2
LTYPE
  5
5
330
0
100
AcDbSymbolTable
 70
     6
  0
LTYPE
  5
14
330
5
100
AcDbSymbolTableRecord
100
AcDbLinetypeTableRecord
  2
ByBlock
 70
     0
  3

 72
    65
 73
     0
 40
0.0
  0
LTYPE
  5
15
330
5
100
AcDbSymbolTableRecord
100
AcDbLinetypeTableRecord
  2
ByLayer
 70
     0
  3

 72
    65
 73
     0
 40
0.0
  0
LTYPE
  5
16
330
5
100
AcDbSymbolTableRecord
100
AcDbLinetypeTableRecord
  2
Continuous
 70
     0
  3
Solid line
 72
    65
 73
     0
 40
0.0
  0
LTYPE
  5
6E
330
5
100
AcDbSymbolTableRecord
100
AcDbLinetypeTableRecord
  2
HIDDEN
 70
     0
  3
Hidden __ __ __ __ __ __ __ __ __ __ __ __ __ __
 72
    65
 73
     2
 40
1.905
 49
1.27
 74
     0
 49
-0.635
 74
     0
  0
LTYPE
  5
6F
330
5
100
AcDbSymbolTableRecord
100
AcDbLinetypeTableRecord
  2
PHANTOM
 70
     0
  3
Phantom ______  __  __  ______  __  __  ______
 72
    65
 73
     6
 40
12.7
 49
6.35
 74
     0
 49
-1.27
 74
     0
 49
1.27
 74
     0
 49
-1.27
 74
     0
 49
1.27
 74
     0
 49
-1.27
 74
     0
  0
LTYPE
  5
70
330
5
100
AcDbSymbolTableRecord
100
AcDbLinetypeTableRecord
  2
CENTER
 70
     0
  3
Center ____ _ ____ _ ____ _ ____ _ ____ _ ____
 72
    65
 73
     4
 40
10.16
 49
6.35
 74
     0
 49
-1.27
 74
     0
 49
1.27
 74
     0
 49
-1.27
 74
     0
  0
LTYPE
  5
71
330
5
100
AcDbSymbolTableRecord
100
AcDbLinetypeTableRecord
  2
CENTERX2
 70
     0
  3
Center (2x) ________  __  ________  __  _____
 72
    65
 73
     4
 40
20.32
 49
12.7
 74
     0
 49
-2.54
 74
     0
 49
2.54
 74
     0
 49
-2.54
 74
     0
  0
LTYPE
  5
72
330
5
100
AcDbSymbolTableRecord
100
AcDbLinetypeTableRecord
  2
DOT2
 70
     0
  3
Dot (.5x) ........................................
 72
    65
 73
     2
 40
0.635
 49
0.0
 74
     0
 49
-0.635
 74
     0
  0
ENDTAB
  0
TABLE
  2
LAYER
  5
2
330
0
100
AcDbSymbolTable
 70
     5
  0
LAYER
  5
10
330
2
100
AcDbSymbolTableRecord
100
AcDbLayerTableRecord
  2
0
 70
     0
 62
     7
  6
Continuous
370
    -3
390
F
  0
LAYER
  5
73
330
2
100
AcDbSymbolTableRecord
100
AcDbLayerTableRecord
  2
FORMAT
 70
     0
 62
     7
  6
Continuous
370
    -3
390
F
  0
LAYER
  5
74
330
2
100
AcDbSymbolTableRecord
100
AcDbLayerTableRecord
  2
SLD-0
 70
     0
 62
   179
  6
Continuous
370
    -3
390
F
  0
LAYER
  5
75
330
2
100
AcDbSymbolTableRecord
100
AcDbLayerTableRecord
  2
AAA_EKSEN
 70
     0
 62
     1
  6
CENTER
370
    -3
390
F
  0
LAYER
  5
76
330
2
100
AcDbSymbolTableRecord
100
AcDbLayerTableRecord
  2
03
 70
     0
 62
     3
  6
HIDDEN
370
    -3
390
F
  0
ENDTAB
  0
TABLE
  2
STYLE
  5
3
330
0
100
AcDbSymbolTable
 70
     1
  0
STYLE
  5
11
330
3
100
AcDbSymbolTableRecord
100
AcDbTextStyleTableRecord
  2
Standard
 70
     0
 40
0.0
 41
1.0
 50
0.0
 71
     0
 42
3.5
  3
txt
  4

  0
ENDTAB
  0
TABLE
  2
VIEW
  5
6
330
0
100
AcDbSymbolTable
 70
     0
  0
ENDTAB
  0
TABLE
  2
UCS
  5
7
330
0
100
AcDbSymbolTable
 70
     0
  0
ENDTAB
  0
TABLE
  2
APPID
  5
9
330
0
100
AcDbSymbolTable
 70
     1
  0
APPID
  5
12
330
9
100
AcDbSymbolTableRecord
100
AcDbRegAppTableRecord
  2
ACAD
 70
     0
  0
ENDTAB
  0
TABLE
  2
DIMSTYLE
  5
A
330
0
100
AcDbSymbolTable
 70
     1
100
AcDbDimStyleTable
  0
DIMSTYLE
105
27
330
A
100
AcDbSymbolTableRecord
100
AcDbDimStyleTableRecord
  2
ISO-25
 70
     0
 41
2.5
 42
0.625
 43
3.75
 44
1.25
 73
     0
 74
     0
 77
     1
 78
     8
140
2.5
141
2.5
143
0.0393700787
147
0.625
171
     3
172
     1
178
     0
271
     2
272
     2
274
     3
278
    44
283
     0
284
     8
340
11
  0
ENDTAB
  0
TABLE
  2
BLOCK_RECORD
  5
1
330
0
100
AcDbSymbolTable
 70
     1
  0
BLOCK_RECORD
  5
1F
330
1
100
AcDbSymbolTableRecord
100
AcDbBlockTableRecord
  2
*Model_Space
340
22
  0
BLOCK_RECORD
  5
1B
330
1
100
AcDbSymbolTableRecord
100
AcDbBlockTableRecord
  2
*Paper_Space
340
1E
  0
BLOCK_RECORD
  5
23
330
1
100
AcDbSymbolTableRecord
100
AcDbBlockTableRecord
  2
*Paper_Space0
340
26
  0
ENDTAB
  0
ENDSEC
  0
SECTION
  2
BLOCKS
  0
BLOCK
  5
20
330
1F
100
AcDbEntity
  8
0
100
AcDbBlockBegin
  2
*Model_Space
 70
     0
 10
0.0
 20
0.0
 30
0.0
  3
*Model_Space
  1

  0
ENDBLK
  5
21
330
1F
100
AcDbEntity
  8
0
100
AcDbBlockEnd
  0
BLOCK
  5
1C
330
1B
100
AcDbEntity
 67
     1
  8
0
100
AcDbBlockBegin
  2
*Paper_Space
 70
     0
 10
0.0
 20
0.0
 30
0.0
  3
*Paper_Space
  1

  0
ENDBLK
  5
1D
330
1B
100
AcDbEntity
 67
     1
  8
0
100
AcDbBlockEnd
  0
BLOCK
  5
24
330
23
100
AcDbEntity
  8
0
100
AcDbBlockBegin
  2
*Paper_Space0
 70
     0
 10
0.0
 20
0.0
 30
0.0
  3
*Paper_Space0
  1

  0
ENDBLK
  5
25
330
23
100
AcDbEntity
  8
0
100
AcDbBlockEnd
  0
ENDSEC
  0
SECTION
  2
ENTITIES
  0
LINE
  5
77
330
1F
100
AcDbEntity
  8
0
  6
Continuous
 62
     7
370
    25
100
AcDbLine
 10
203.8263673897
 20
192.146900513
 30
0.0
 11
203.4917262102
 21
191.8122593336
 31
0.0
  0
LINE
  5
78
330
1F
100
AcDbEntity
  8
0
  6
Continuous
 62
     7
370
    25
100
AcDbLine
 10
98.5128269292
 20
191.8122593336
 30
0.0
 11
203.4917262102
 21
191.8122593336
 31
0.0
  0
LINE
  5
79
330
1F
100
AcDbEntity
  8
0
  6
Continuous
 62
     7
370
    25
100
AcDbLine
 10
98.5128269292
 20
191.8122593336
 30
0.0
 11
98.1781857497
 21
192.146900513
 31
0.0
  0
LINE
  5
7A
330
1F
100
AcDbEntity
  8
0
  6
Continuous
 62
     7
370
    25
100
AcDbLine
 10
209.6372988414
 20
191.8122593336
 30
0.0
 11
206.022648409
 21
191.8122593336
 31
0.0
  0
LINE
  5
7B
330
1F
100
AcDbEntity
  8
0
  6
Continuous
 62
     7
370
    25
100
AcDbLine
 10
95.9608005799
 20
191.8122593336
 30
0.0
 11
92.367254298
 21
191.8122593336
 31
0.0
  0
LINE
  5
7C
330
1F
100
AcDbEntity
  8
0
  6
Continuous
 62
     7
370
    25
100
AcDbLine
 10
85.1522765697
 20
151.0355401228
 30
0.0
 11
216.8522765697
 21
151.0355401228
 31
0.0
  0
ARC
  5
7D
330
1F
100
AcDbEntity
  8
0
  6
Continuous
 62
     7
370
    25
100
AcDbCircle
 10
85.1522765697
 20
152.8355401228
 30
0.0
 40
1.800000000000011
100
AcDbArc
 50
180.0
 51
270.0
  0
LINE
  5
7E
330
1F
100
AcDbEntity
  8
0
  6
Continuous
 62
     7
370
    25
100
AcDbLine
 10
83.3522765697
 20
222.5355401228
 30
0.0
 11
83.3522765697
 21
152.8355401228
 31
0.0
  0
ARC
  5
7F
330
1F
100
AcDbEntity
  8
0
  6
Continuous
 62
     7
370
    25
100
AcDbCircle
 10
85.1522765697
 20
222.5355401228
 30
0.0
 40
1.800000000000011
100
AcDbArc
 50
90.0
 51
180.0
  0
LINE
  5
80
330
1F
100
AcDbEntity
  8
0
  6
Continuous
 62
     7
370
    25
100
AcDbLine
 10
216.8522765697
 20
224.3355401228
 30
0.0
 11
85.1522765697
 21
224.3355401228
 31
0.0
  0
ARC
  5
81
330
1F
100
AcDbEntity
  8
0
  6
Continuous
 62
     7
370
    25
100
AcDbCircle
 10
216.8522765697
 20
222.5355401228
 30
0.0
 40
1.799999999999983
100
AcDbArc
 50
0.0
 51
90.0
  0
LINE
  5
82
330
1F
100
AcDbEntity
  8
0
  6
Continuous
 62
     7
370
    25
100
AcDbLine
 10
209.6372988414
 20
159.7337515554
 30
0.0
 11
209.6372988414
 21
192.146900513
 31
0.0
  0
LINE
  5
83
330
1F
100
AcDbEntity
  8
0
  6
Continuous
 62
     7
370
    25
100
AcDbLine
 10
209.6372988414
 20
192.146900513
 30
0.0
 11
92.367254298
 21
192.146900513
 31
0.0
  0
LINE
  5
84
330
1F
100
AcDbEntity
  8
0
  6
Continuous
 62
     7
370
    25
100
AcDbLine
 10
92.367254298
 20
192.146900513
 30
0.0
 11
92.367254298
 21
159.7337515554
 31
0.0
  0
LINE
  5
85
330
1F
100
AcDbEntity
  8
0
  6
Continuous
 62
     7
370
    25
100
AcDbLine
 10
92.367254298
 20
159.7337515554
 30
0.0
 11
209.6372988414
 21
159.7337515554
 31
0.0
  0
LINE
  5
86
330
1F
100
AcDbEntity
  8
0
  6
Continuous
 62
     7
370
    25
100
AcDbLine
 10
218.6522765697
 20
152.8355401228
 30
0.0
 11
218.6522765697
 21
222.5355401228
 31
0.0
  0
ARC
  5
87
330
1F
100
AcDbEntity
  8
0
  6
Continuous
 62
     7
370
    25
100
AcDbCircle
 10
216.8522765697
 20
152.8355401228
 30
0.0
 40
1.800000000000011
100
AcDbArc
 50
270.0
 51
0.0
  0
LINE
  5
88
330
1F
100
AcDbEntity
  8
0
  6
Continuous
 62
     7
370
    25
100
AcDbLine
 10
237.0635767183
 20
240.6955582202
 30
0.0
 11
237.0734202694
 21
239.9109358359
 31
0.0
  0
LINE
  5
89
330
1F
100
AcDbEntity
  8
0
  6
Continuous
 62
     7
370
    25
100
AcDbLine
 10
237.0734202694
 20
239.9109358359
 30
0.0
 11
229.5376665293
 21
232.3751820959
 31
0.0
  0
SPLINE
  5
8A
330
1F
100
AcDbEntity
  8
0
  6
Continuous
 62
     7
370
    25
100
AcDbSpline
210
0.0
220
0.0
230
1.0
 70
     8
 71
     3
 72
    13
 73
     9
 74
     0
 42
0.00000001
 43
0.00000001
 40
0.0
 40
0.0
 40
0.0
 40
0.0
 40
0.2720397088605654
 40
0.3891454050356962
 40
0.5000004465386633
 40
0.6108587564292749
 40
0.7279656997186591
 40
0.9999999999999999
 40
0.9999999999999999
 40
0.9999999999999999
 40
0.9999999999999999
 10
229.5376665292888
 20
232.3751820958693
 30
0.0
 10
229.5078075700253
 20
232.793986366529
 30
0.0
 10
229.4650951408539
 20
233.3930744857568
 30
0.0
 10
229.1414985707983
 20
234.0931124739954
 30
0.0
 10
228.8220252914744
 20
234.5052964846251
 30
0.0
 10
228.4098314486218
 20
234.8247590659687
 30
0.0
 10
227.7097958344033
 20
235.1483552536376
 30
0.0
 10
227.1107143366762
 20
235.1910698691089
 30
0.0
 10
226.6919185427627
 20
235.2209300823952
 30
0.0
  0
LINE
  5
8B
330
1F
100
AcDbEntity
  8
0
  6
Continuous
 62
     7
370
    25
100
AcDbLine
 10
226.6919185428
 20
235.2209300824
 30
0.0
 11
234.2276722828
 21
242.7566838225
 31
0.0
  0
LINE
  5
8C
330
1F
100
AcDbEntity
  8
0
  6
Continuous
 62
     7
370
    25
100
AcDbLine
 10
234.2276722828
 20
242.7566838225
 30
0.0
 11
235.0122946671
 21
242.7468402715
 31
0.0
  0
SPLINE
  5
8D
330
1F
100
AcDbEntity
  8
0
  6
Continuous
 62
     7
370
    25
100
AcDbSpline
210
0.0
220
0.0
230
1.0
 70
     8
 71
     3
 72
    11
 73
     7
 74
     0
 42
0.00000001
 43
0.00000001
 40
0.0
 40
0.0
 40
0.0
 40
0.0
 40
0.2499577078052786
 40
0.4997790583518699
 40
0.749497511380657
 40
1.0
 40
1.0
 40
1.0
 40
1.0
 10
235.0122946670663
 20
242.7468402714549
 30
0.0
 10
235.2793865466251
 20
242.7125916683615
 30
0.0
 10
235.8134246014278
 20
242.6441131455179
 30
0.0
 10
236.4840754657456
 20
242.1685362188749
 30
0.0
 10
236.9605127176944
 20
241.4977648943201
 30
0.0
 10
237.029186172363
 20
240.9632397126624
 30
0.0
 10
237.0635767183483
 20
240.6955582201728
 30
0.0
  0
LINE
  5
8E
330
1F
100
AcDbEntity
  8
0
  6
Continuous
 62
     7
370
    25
100
AcDbLine
 10
235.0122946671
 20
132.6242399742
 30
0.0
 11
234.2276722828
 21
132.6143964231
 31
0.0
  0
LINE
  5
8F
330
1F
100
AcDbEntity
  8
0
  6
Continuous
 62
     7
370
    25
100
AcDbLine
 10
226.6919185428
 20
140.1501501632
 30
0.0
 11
234.2276722828
 21
132.6143964231
 31
0.0
  0
SPLINE
  5
90
330
1F
100
AcDbEntity
  8
0
  6
Continuous
 62
     7
370
    25
100
AcDbSpline
210
0.0
220
0.0
230
1.0
 70
     8
 71
     3
 72
    13
 73
     9
 74
     0
 42
0.00000001
 43
0.00000001
 40
0.0
 40
0.0
 40
0.0
 40
0.0
 40
0.2720397088302953
 40
0.3891454050124007
 40
0.5000004465336655
 40
0.6108587564059815
 40
0.7279656996883894
 40
1.0
 40
1.0
 40
1.0
 40
1.0
 10
226.6919185427628
 20
140.1501501632143
 30
0.0
 10
227.110722813375
 20
140.1800091224848
 30
0.0
 10
227.7098109325658
 20
140.2227215516684
 30
0.0
 10
228.409848920791
 20
140.5463181217219
 30
0.0
 10
228.8220329314757
 20
140.8657914009859
 30
0.0
 10
229.1414955128793
 20
141.2779852437835
 30
0.0
 10
229.4650917005504
 20
141.9780208580152
 30
0.0
 10
229.5078063160095
 20
142.5771023557794
 30
0.0
 10
229.5376665292888
 20
142.9958981497404
 30
0.0
  0
LINE
  5
91
330
1F
100
AcDbEntity
  8
0
  6
Continuous
 62
     7
370
    25
100
AcDbLine
 10
229.5376665293
 20
142.9958981497
 30
0.0
 11
237.0734202694
 21
135.4601444097
 31
0.0
  0
LINE
  5
92
330
1F
100
AcDbEntity
  8
0
  6
Continuous
 62
     7
370
    25
100
AcDbLine
 10
237.0734202694
 20
135.4601444097
 30
0.0
 11
237.0635767183
 21
134.6755220254
 31
0.0
  0
SPLINE
  5
93
330
1F
100
AcDbEntity
  8
0
  6
Continuous
 62
     7
370
    25
100
AcDbSpline
210
0.0
220
0.0
230
1.0
 70
     8
 71
     3
 72
    11
 73
     7
 74
     0
 42
0.00000001
 43
0.00000001
 40
0.0
 40
0.0
 40
0.0
 40
0.0
 40
0.2499577078052618
 40
0.4997790583518523
 40
0.7494975113806478
 40
1.0
 40
1.0
 40
1.0
 40
1.0
 10
237.0635767183483
 20
134.6755220254368
 30
0.0
 10
237.0293281152549
 20
134.4084301458781
 30
0.0
 10
236.9608495924113
 20
133.8743920910754
 30
0.0
 10
236.4852726657683
 20
133.2037412267576
 30
0.0
 10
235.8145013412136
 20
132.7273039748088
 30
0.0
 10
235.2799761595559
 20
132.6586305201402
 30
0.0
 10
235.0122946670662
 20
132.6242399741548
 30
0.0
  0
LINE
  5
94
330
1F
100
AcDbEntity
  8
0
  6
Continuous
 62
     7
370
    25
100
AcDbLine
 10
66.9922584723
 20
242.7468402715
 30
0.0
 11
67.7768808566
 21
242.7566838225
 31
0.0
  0
LINE
  5
95
330
1F
100
AcDbEntity
  8
0
  6
Continuous
 62
     7
370
    25
100
AcDbLine
 10
75.3126345966
 20
235.2209300824
 30
0.0
 11
67.7768808566
 21
242.7566838225
 31
0.0
  0
SPLINE
  5
96
330
1F
100
AcDbEntity
  8
0
  6
Continuous
 62
     7
370
    25
100
AcDbSpline
210
0.0
220
0.0
230
1.0
 70
     8
 71
     3
 72
    13
 73
     9
 74
     0
 42
0.00000001
 43
0.00000001
 40
0.0
 40
0.0
 40
0.0
 40
0.0
 40
0.2720397088000099
 40
0.3891454049891026
 40
0.5000004465286633
 40
0.6108587563826867
 40
0.7279656996581074
 40
1.0
 40
1.0
 40
1.0
 40
1.0
 10
75.31263459663371
 20
235.2209300823954
 30
0.0
 10
74.89383032606892
 20
235.1910711231179
 30
0.0
 10
74.29474220691529
 20
235.148358693922
 30
0.0
 10
73.59470421870328
 20
234.8247621238707
 30
0.0
 10
73.18252020796353
 20
234.5052888446665
 30
0.0
 10
72.8630576265001
 20
234.093095001924
 30
0.0
 10
72.53946143882685
 20
233.393059387679
 30
0.0
 10
72.49674682338002
 20
232.7939778898777
 30
0.0
 10
72.46688661010772
 20
232.3751820958693
 30
0.0
  0
LINE
  5
97
330
1F
100
AcDbEntity
  8
0
  6
Continuous
 62
     7
370
    25
100
AcDbLine
 10
72.4668866101
 20
232.3751820959
 30
0.0
 11
64.93113287
 21
239.9109358359
 31
0.0
  0
LINE
  5
98
330
1F
100
AcDbEntity
  8
0
  6
Continuous
 62
     7
370
    25
100
AcDbLine
 10
64.93113287
 20
239.9109358359
 30
0.0
 11
64.940976421
 21
240.6955582202
 31
0.0
  0
SPLINE
  5
99
330
1F
100
AcDbEntity
  8
0
  6
Continuous
 62
     7
370
    25
100
AcDbSpline
210
0.0
220
0.0
230
1.0
 70
     8
 71
     3
 72
    11
 73
     7
 74
     0
 42
0.00000001
 43
0.00000001
 40
0.0
 40
0.0
 40
0.0
 40
0.0
 40
0.249957707805266
 40
0.4997790583518499
 40
0.7494975113806479
 40
1.0
 40
1.0
 40
1.0
 40
1.0
 10
64.9409764210482
 20
240.6955582201728
 30
0.0
 10
64.97522502414158
 20
240.9626500997315
 30
0.0
 10
65.04370354698513
 20
241.4966881545343
 30
0.0
 10
65.51928047362819
 20
242.167339018852
 30
0.0
 10
66.19005179818289
 20
242.6437762708009
 30
0.0
 10
66.72457697984066
 20
242.7124497254695
 30
0.0
 10
66.99225847233032
 20
242.7468402714549
 30
0.0
  0
LINE
  5
9A
330
1F
100
AcDbEntity
  8
0
  6
Continuous
 62
     7
370
    25
100
AcDbLine
 10
64.940976421
 20
134.6755220254
 30
0.0
 11
64.93113287
 21
135.4601444097
 31
0.0
  0
LINE
  5
9B
330
1F
100
AcDbEntity
  8
0
  6
Continuous
 62
     7
370
    25
100
AcDbLine
 10
72.4668866101
 20
142.9958981497
 30
0.0
 11
64.93113287
 21
135.4601444097
 31
0.0
  0
SPLINE
  5
9C
330
1F
100
AcDbEntity
  8
0
  6
Continuous
 62
     7
370
    25
100
AcDbSpline
210
0.0
220
0.0
230
1.0
 70
     8
 71
     3
 72
    13
 73
     9
 74
     0
 42
0.00000001
 43
0.00000001
 40
0.0
 40
0.0
 40
0.0
 40
0.0
 40
0.2720397088908538
 40
0.3891454050589973
 40
0.5000004465436658
 40
0.610858756452578
 40
0.7279656997489408
 40
0.9999999999999999
 40
0.9999999999999999
 40
0.9999999999999999
 40
0.9999999999999999
 10
72.46688661010772
 20
142.9958981497404
 30
0.0
 10
72.49674556936415
 20
142.5770938790332
 30
0.0
 10
72.53945799852335
 20
141.9780057597683
 30
0.0
 10
72.86305456858103
 20
141.2779677715164
 30
0.0
 10
73.18252784796489
 20
140.8657837609418
 30
0.0
 10
73.59472169087255
 20
140.546321179658
 30
0.0
 10
74.29475730507767
 20
140.2227249919912
 30
0.0
 10
74.89383880276775
 20
140.1800103765077
 30
0.0
 10
75.31263459663381
 20
140.1501501632143
 30
0.0
  0
LINE
  5
9D
330
1F
100
AcDbEntity
  8
0
  6
Continuous
 62
     7
370
    25
100
AcDbLine
 10
75.3126345966
 20
140.1501501632
 30
0.0
 11
67.7768808566
 21
132.6143964231
 31
0.0
  0
LINE
  5
9E
330
1F
100
AcDbEntity
  8
0
  6
Continuous
 62
     7
370
    25
100
AcDbLine
 10
67.7768808566
 20
132.6143964231
 30
0.0
 11
66.9922584723
 21
132.6242399742
 31
0.0
  0
SPLINE
  5
9F
330
1F
100
AcDbEntity
  8
0
  6
Continuous
 62
     7
370
    25
100
AcDbSpline
210
0.0
220
0.0
230
1.0
 70
     8
 71
     3
 72
    11
 73
     7
 74
     0
 42
0.00000001
 43
0.00000001
 40
0.0
 40
0.0
 40
0.0
 40
0.0
 40
0.2499577078052684
 40
0.4997790583518643
 40
0.7494975113806496
 40
1.0
 40
1.0
 40
1.0
 40
1.0
 10
66.99225847233029
 20
132.6242399741548
 30
0.0
 10
66.72516659277154
 20
132.6584885772482
 30
0.0
 10
66.19112853796872
 20
132.7269671000918
 30
0.0
 10
65.52047767365099
 20
133.2025440267348
 30
0.0
 10
65.04404042170215
 20
133.8733153512895
 30
0.0
 10
64.97536696703354
 20
134.4078405329472
 30
0.0
 10
64.94097642104822
 20
134.6755220254369
 30
0.0
  0
LINE
  5
A0
330
1F
100
AcDbEntity
  8
0
  6
Continuous
 62
     7
370
    25
100
AcDbLine
 10
226.6919185428
 20
235.2209300824
 30
0.0
 11
75.3126345966
 21
235.2209300824
 31
0.0
  0
LINE
  5
A1
330
1F
100
AcDbEntity
  8
0
  6
Continuous
 62
     7
370
    25
100
AcDbLine
 10
226.6919185428
 20
235.1497863827
 30
0.0
 11
226.6919185428
 21
235.2209300824
 31
0.0
  0
LINE
  5
A2
330
1F
100
AcDbEntity
  8
0
  6
Continuous
 62
     7
370
    25
100
AcDbLine
 10
226.6919185428
 20
235.1497863827
 30
0.0
 11
75.3126345966
 21
235.1497863827
 31
0.0
  0
LINE
  5
A3
330
1F
100
AcDbEntity
  8
0
  6
Continuous
 62
     7
370
    25
100
AcDbLine
 10
75.3126345966
 20
235.1497863827
 30
0.0
 11
75.3126345966
 21
235.2209300824
 31
0.0
  0
CIRCLE
  5
A4
330
1F
100
AcDbEntity
  8
0
  6
Continuous
 62
     7
370
    25
100
AcDbCircle
 10
98.1652932636
 20
231.8725234289
 30
0.0
 40
1.599999999999994
  0
CIRCLE
  5
A5
330
1F
100
AcDbEntity
  8
0
  6
Continuous
 62
     7
370
    25
100
AcDbCircle
 10
203.8392598758
 20
231.8725234289
 30
0.0
 40
1.600000000000023
  0
LINE
  5
A6
330
1F
100
AcDbEntity
  8
0
  6
Continuous
 62
     7
370
    25
100
AcDbLine
 10
75.3126345966
 20
140.2212938629
 30
0.0
 11
226.6919185428
 21
140.2212938629
 31
0.0
  0
SPLINE
  5
A7
330
1F
100
AcDbEntity
  8
0
  6
Continuous
 62
     7
370
    25
100
AcDbSpline
210
0.0
220
0.0
230
1.0
 70
     8
 71
     3
 72
    13
 73
     9
 74
     0
 42
0.00000001
 43
0.00000001
 40
0.0
 40
0.0
 40
0.0
 40
0.0
 40
0.2727951175927174
 40
0.3895909458321323
 40
0.4999928575508326
 40
0.610345224051064
 40
0.7271220062746009
 40
1.0
 40
1.0
 40
1.0
 40
1.0
 10
72.53803030977093
 20
142.9958981497404
 30
0.0
 10
72.56192313784837
 20
142.583639447863
 30
0.0
 10
72.59604555752891
 20
141.9948743005641
 30
0.0
 10
72.9072894750257
 20
141.3054379633858
 30
0.0
 10
73.21822530909007
 20
140.9016029640636
 30
0.0
 10
73.62191045975192
 20
140.5905014397338
 30
0.0
 10
74.31138461318012
 20
140.2792527647161
 30
0.0
 10
74.90024882613567
 20
140.2451654501802
 30
0.0
 10
75.31263459663384
 20
140.2212938628774
 30
0.0
  0
LINE
  5
A8
330
1F
100
AcDbEntity
  8
0
  6
Continuous
 62
     7
370
    25
100
AcDbLine
 10
72.5380303098
 20
232.3751820959
 30
0.0
 11
72.5380303098
 21
142.9958981497
 31
0.0
  0
SPLINE
  5
A9
330
1F
100
AcDbEntity
  8
0
  6
Continuous
 62
     7
370
    25
100
AcDbSpline
210
0.0
220
0.0
230
1.0
 70
     8
 71
     3
 72
    13
 73
     9
 74
     0
 42
0.00000001
 43
0.00000001
 40
0.0
 40
0.0
 40
0.0
 40
0.0
 40
0.2727951175955594
 40
0.3895909458343235
 40
0.4999928575513213
 40
0.6103452240532377
 40
0.7271220062774242
 40
1.0
 40
1.0
 40
1.0
 40
1.0
 10
75.31263459663384
 20
235.1497863827321
 30
0.0
 10
74.9003758947522
 20
235.1258935546554
 30
0.0
 10
74.3116107474499
 20
235.0917711349761
 30
0.0
 10
73.6221744102702
 20
234.7805272174792
 30
0.0
 10
73.21833941095315
 20
234.4695913834092
 30
0.0
 10
72.90723788662898
 20
234.0659062327422
 30
0.0
 10
72.59598921161151
 20
233.3764320793153
 30
0.0
 10
72.56190189707448
 20
232.7875678663631
 30
0.0
 10
72.53803030977093
 20
232.3751820958693
 30
0.0
  0
SPLINE
  5
AA
330
1F
100
AcDbEntity
  8
0
  6
Continuous
 62
     7
370
    25
100
AcDbSpline
210
0.0
220
0.0
230
1.0
 70
     8
 71
     3
 72
    13
 73
     9
 74
     0
 42
0.00000001
 43
0.00000001
 40
0.0
 40
0.0
 40
0.0
 40
0.0
 40
0.2727951175955533
 40
0.3895909458343151
 40
0.499992857551318
 40
0.6103452240532254
 40
0.7271220062774132
 40
1.0
 40
1.0
 40
1.0
 40
1.0
 10
229.4665228296256
 20
232.3751820958693
 30
0.0
 10
229.4426300015488
 20
232.7874407977509
 30
0.0
 10
229.4085075818695
 20
233.3762059450532
 30
0.0
 10
229.0972636643726
 20
234.0656422822329
 30
0.0
 10
228.7863278303026
 20
234.46947728155
 30
0.0
 10
228.3826426796356
 20
234.7805788058741
 30
0.0
 10
227.6931685262087
 20
235.0918274808916
 30
0.0
 10
227.1043043132565
 20
235.1259147954286
 30
0.0
 10
226.6919185427627
 20
235.1497863827321
 30
0.0
  0
LINE
  5
AB
330
1F
100
AcDbEntity
  8
0
  6
Continuous
 62
     7
370
    25
100
AcDbLine
 10
229.4665228296
 20
142.9958981497
 30
0.0
 11
229.4665228296
 21
232.3751820959
 31
0.0
  0
SPLINE
  5
AC
330
1F
100
AcDbEntity
  8
0
  6
Continuous
 62
     7
370
    25
100
AcDbSpline
210
0.0
220
0.0
230
1.0
 70
     8
 71
     3
 72
    13
 73
     9
 74
     0
 42
0.00000001
 43
0.00000001
 40
0.0
 40
0.0
 40
0.0
 40
0.0
 40
0.2727951175948474
 40
0.3895909458337731
 40
0.4999928575511987
 40
0.6103452240526916
 40
0.7271220062767155
 40
1.0
 40
1.0
 40
1.0
 40
1.0
 10
226.6919185427628
 20
140.2212938628775
 30
0.0
 10
227.1041772446433
 20
140.2451866909544
 30
0.0
 10
227.6929423919448
 20
140.2793091106341
 30
0.0
 10
228.382378729124
 20
140.590553028131
 30
0.0
 10
228.7862137284424
 20
140.9014888621995
 30
0.0
 10
229.0973152527679
 20
141.3051740128652
 30
0.0
 10
229.4085639277855
 20
141.9946481662924
 30
0.0
 10
229.4426512423222
 20
142.5835123792454
 30
0.0
 10
229.4665228296256
 20
142.9958981497404
 30
0.0
  0
ARC
  5
AD
330
1F
100
AcDbEntity
  8
0
  6
Continuous
 62
     7
370
    25
100
AcDbCircle
 10
217.6392598758
 20
151.4985568167
 30
0.0
 40
2.0
100
AcDbArc
 50
270.0
 51
0.0
  0
LINE
  5
AE
330
1F
100
AcDbEntity
  8
0
  6
Continuous
 62
     7
370
    25
100
AcDbLine
 10
219.6392598758
 20
223.8725234289
 30
0.0
 11
219.6392598758
 21
151.4985568167
 31
0.0
  0
ARC
  5
AF
330
1F
100
AcDbEntity
  8
0
  6
Continuous
 62
     7
370
    25
100
AcDbCircle
 10
217.6392598758
 20
223.8725234289
 30
0.0
 40
2.0
100
AcDbArc
 50
0.0
 51
90.0
  0
LINE
  5
B0
330
1F
100
AcDbEntity
  8
0
  6
Continuous
 62
     7
370
    25
100
AcDbLine
 10
84.3652932636
 20
225.8725234289
 30
0.0
 11
217.6392598758
 21
225.8725234289
 31
0.0
  0
ARC
  5
B1
330
1F
100
AcDbEntity
  8
0
  6
Continuous
 62
     7
370
    25
100
AcDbCircle
 10
84.3652932636
 20
223.8725234289
 30
0.0
 40
2.0
100
AcDbArc
 50
90.0
 51
180.0
  0
LINE
  5
B2
330
1F
100
AcDbEntity
  8
0
  6
Continuous
 62
     7
370
    25
100
AcDbLine
 10
82.3652932636
 20
151.4985568167
 30
0.0
 11
82.3652932636
 21
223.8725234289
 31
0.0
  0
ARC
  5
B3
330
1F
100
AcDbEntity
  8
0
  6
Continuous
 62
     7
370
    25
100
AcDbCircle
 10
84.3652932636
 20
151.4985568167
 30
0.0
 40
2.0
100
AcDbArc
 50
180.0
 51
270.0
  0
LINE
  5
B4
330
1F
100
AcDbEntity
  8
0
  6
Continuous
 62
     7
370
    25
100
AcDbLine
 10
217.6392598758
 20
149.4985568167
 30
0.0
 11
84.3652932636
 21
149.4985568167
 31
0.0
  0
LINE
  5
B5
330
1F
100
AcDbEntity
  8
0
  6
Continuous
 62
     7
370
    25
100
AcDbLine
 10
229.5376665293
 20
142.9958981497
 30
0.0
 11
229.5376665293
 21
232.3751820959
 31
0.0
  0
LINE
  5
B6
330
1F
100
AcDbEntity
  8
0
  6
Continuous
 62
     7
370
    25
100
AcDbLine
 10
229.4665228296
 20
142.9958981497
 30
0.0
 11
229.5376665293
 21
142.9958981497
 31
0.0
  0
LINE
  5
B7
330
1F
100
AcDbEntity
  8
0
  6
Continuous
 62
     7
370
    25
100
AcDbLine
 10
229.5376665293
 20
232.3751820959
 30
0.0
 11
229.4665228296
 21
232.3751820959
 31
0.0
  0
LINE
  5
B8
330
1F
100
AcDbEntity
  8
0
  6
Continuous
 62
     7
370
    25
100
AcDbLine
 10
226.6919185428
 20
140.2212938629
 30
0.0
 11
226.6919185428
 21
140.1501501632
 31
0.0
  0
LINE
  5
B9
330
1F
100
AcDbEntity
  8
0
  6
Continuous
 62
     7
370
    25
100
AcDbLine
 10
75.3126345966
 20
140.1501501632
 30
0.0
 11
226.6919185428
 21
140.1501501632
 31
0.0
  0
LINE
  5
BA
330
1F
100
AcDbEntity
  8
0
  6
Continuous
 62
     7
370
    25
100
AcDbLine
 10
75.3126345966
 20
140.2212938629
 30
0.0
 11
75.3126345966
 21
140.1501501632
 31
0.0
  0
LINE
  5
BB
330
1F
100
AcDbEntity
  8
0
  6
Continuous
 62
     7
370
    25
100
AcDbLine
 10
72.5380303098
 20
142.9958981497
 30
0.0
 11
72.4668866101
 21
142.9958981497
 31
0.0
  0
LINE
  5
BC
330
1F
100
AcDbEntity
  8
0
  6
Continuous
 62
     7
370
    25
100
AcDbLine
 10
72.4668866101
 20
232.3751820959
 30
0.0
 11
72.4668866101
 21
142.9958981497
 31
0.0
  0
LINE
  5
BD
330
1F
100
AcDbEntity
  8
0
  6
Continuous
 62
     7
370
    25
100
AcDbLine
 10
72.5380303098
 20
232.3751820959
 30
0.0
 11
72.4668866101
 21
232.3751820959
 31
0.0
  0
LINE
  5
BE
330
1F
100
AcDbEntity
  8
0
  6
Continuous
 62
     7
370
    25
100
AcDbLine
 10
64.93113287
 20
135.4601444097
 30
0.0
 11
64.93113287
 21
239.9109358359
 31
0.0
  0
LINE
  5
BF
330
1F
100
AcDbEntity
  8
0
  6
Continuous
 62
     7
370
    25
100
AcDbLine
 10
234.2276722828
 20
132.6143964231
 30
0.0
 11
67.7768808566
 21
132.6143964231
 31
0.0
  0
LINE
  5
C0
330
1F
100
AcDbEntity
  8
0
  6
Continuous
 62
     7
370
    25
100
AcDbLine
 10
67.7768808566
 20
242.7566838225
 30
0.0
 11
234.2276722828
 21
242.7566838225
 31
0.0
  0
LINE
  5
C1
330
1F
100
AcDbEntity
  8
0
  6
Continuous
 62
     7
370
    25
100
AcDbLine
 10
237.0734202694
 20
239.9109358359
 30
0.0
 11
237.0734202694
 21
135.4601444097
 31
0.0
  0
LINE
  5
C2
330
1F
100
AcDbEntity
  8
0
  6
Continuous
 62
     7
370
    25
100
AcDbLine
 10
234.2276722828
 20
132.6143964231
 30
0.0
 11
234.2276722828
 21
132.1855401228
 31
0.0
  0
LINE
  5
C3
330
1F
100
AcDbEntity
  8
0
  6
Continuous
 62
     7
370
    25
100
AcDbLine
 10
67.7768808566
 20
132.1855401228
 30
0.0
 11
234.2276722828
 21
132.1855401228
 31
0.0
  0
LINE
  5
C4
330
1F
100
AcDbEntity
  8
0
  6
Continuous
 62
     7
370
    25
100
AcDbLine
 10
67.7768808566
 20
132.6143964231
 30
0.0
 11
67.7768808566
 21
132.1855401228
 31
0.0
  0
LINE
  5
C5
330
1F
100
AcDbEntity
  8
0
  6
Continuous
 62
     7
370
    25
100
AcDbLine
 10
234.2276722828
 20
243.1855401228
 30
0.0
 11
67.7768808566
 21
243.1855401228
 31
0.0
  0
LINE
  5
C6
330
1F
100
AcDbEntity
  8
0
  6
Continuous
 62
     7
370
    25
100
AcDbLine
 10
234.2276722828
 20
242.7566838225
 30
0.0
 11
234.2276722828
 21
243.1855401228
 31
0.0
  0
LINE
  5
C7
330
1F
100
AcDbEntity
  8
0
  6
Continuous
 62
     7
370
    25
100
AcDbLine
 10
67.7768808566
 20
243.1855401228
 30
0.0
 11
67.7768808566
 21
242.7566838225
 31
0.0
  0
LINE
  5
C8
330
1F
100
AcDbEntity
  8
0
  6
Continuous
 62
     7
370
    25
100
AcDbLine
 10
64.5022765697
 20
135.4601444097
 30
0.0
 11
64.93113287
 21
135.4601444097
 31
0.0
  0
LINE
  5
C9
330
1F
100
AcDbEntity
  8
0
  6
Continuous
 62
     7
370
    25
100
AcDbLine
 10
64.5022765697
 20
239.9109358359
 30
0.0
 11
64.5022765697
 21
135.4601444097
 31
0.0
  0
LINE
  5
CA
330
1F
100
AcDbEntity
  8
0
  6
Continuous
 62
     7
370
    25
100
AcDbLine
 10
64.93113287
 20
239.9109358359
 30
0.0
 11
64.5022765697
 21
239.9109358359
 31
0.0
  0
LINE
  5
CB
330
1F
100
AcDbEntity
  8
0
  6
Continuous
 62
     7
370
    25
100
AcDbLine
 10
237.5022765697
 20
135.4601444097
 30
0.0
 11
237.5022765697
 21
239.9109358359
 31
0.0
  0
LINE
  5
CC
330
1F
100
AcDbEntity
  8
0
  6
Continuous
 62
     7
370
    25
100
AcDbLine
 10
237.0734202694
 20
135.4601444097
 30
0.0
 11
237.5022765697
 21
135.4601444097
 31
0.0
  0
LINE
  5
CD
330
1F
100
AcDbEntity
  8
0
  6
Continuous
 62
     7
370
    25
100
AcDbLine
 10
237.5022765697
 20
239.9109358359
 30
0.0
 11
237.0734202694
 21
239.9109358359
 31
0.0
  0
LINE
  5
CE
330
1F
100
AcDbEntity
  8
0
  6
Continuous
 62
     7
370
    25
100
AcDbLine
 10
67.7768808566
 20
243.1855401228
 30
0.0
 11
67.0022765697
 21
243.1855401228
 31
0.0
  0
ARC
  5
CF
330
1F
100
AcDbEntity
  8
0
  6
Continuous
 62
     7
370
    25
100
AcDbCircle
 10
72.1829732239
 20
242.8477700415
 30
0.0
 40
5.191695912802341
100
AcDbArc
 50
176.2697201202
 51
181.1139354599
  0
LINE
  5
D0
330
1F
100
AcDbEntity
  8
0
  6
Continuous
 62
     7
370
    25
100
AcDbLine
 10
64.5022765697
 20
240.6855401228
 30
0.0
 11
64.5022765697
 21
239.9109358359
 31
0.0
  0
ARC
  5
D1
330
1F
100
AcDbEntity
  8
0
  6
Continuous
 62
     7
370
    25
100
AcDbCircle
 10
64.840046651
 20
235.5048434685
 30
0.0
 40
5.191695912827566
100
AcDbArc
 50
88.8860645401
 51
93.7302798798
  0
LINE
  5
D2
330
1F
100
AcDbEntity
  8
0
  6
Continuous
 62
     7
370
    25
100
AcDbLine
 10
67.0022765697
 20
132.1855401228
 30
0.0
 11
67.7768808566
 21
132.1855401228
 31
0.0
  0
ARC
  5
D3
330
1F
100
AcDbEntity
  8
0
  6
Continuous
 62
     7
370
    25
100
AcDbCircle
 10
72.1829732239
 20
132.5233102041
 30
0.0
 40
5.191695912794883
100
AcDbArc
 50
178.88606454
 51
183.7302798799
  0
ARC
  5
D4
330
1F
100
AcDbEntity
  8
0
  6
Continuous
 62
     7
370
    25
100
AcDbCircle
 10
64.840046651
 20
139.8662367771
 30
0.0
 40
5.191695912827367
100
AcDbArc
 50
266.2697201202
 51
271.1139354599
  0
LINE
  5
D5
330
1F
100
AcDbEntity
  8
0
  6
Continuous
 62
     7
370
    25
100
AcDbLine
 10
64.5022765697
 20
135.4601444097
 30
0.0
 11
64.5022765697
 21
134.6855401228
 31
0.0
  0
ARC
  5
D6
330
1F
100
AcDbEntity
  8
0
  6
Continuous
 62
     7
370
    25
100
AcDbCircle
 10
229.8215799155
 20
132.5233102041
 30
0.0
 40
5.191695912776837
100
AcDbArc
 50
356.2697201201
 51
1.1139354599
  0
LINE
  5
D7
330
1F
100
AcDbEntity
  8
0
  6
Continuous
 62
     7
370
    25
100
AcDbLine
 10
234.2276722828
 20
132.1855401228
 30
0.0
 11
235.0022765697
 21
132.1855401228
 31
0.0
  0
LINE
  5
D8
330
1F
100
AcDbEntity
  8
0
  6
Continuous
 62
     7
370
    25
100
AcDbLine
 10
237.5022765697
 20
134.6855401228
 30
0.0
 11
237.5022765697
 21
135.4601444097
 31
0.0
  0
ARC
  5
D9
330
1F
100
AcDbEntity
  8
0
  6
Continuous
 62
     7
370
    25
100
AcDbCircle
 10
237.1645064884
 20
139.8662367771
 30
0.0
 40
5.191695912827226
100
AcDbArc
 50
268.8860645401
 51
273.7302798798
  0
LINE
  5
DA
330
1F
100
AcDbEntity
  8
0
  6
Continuous
 62
     7
370
    25
100
AcDbLine
 10
235.0022765697
 20
243.1855401228
 30
0.0
 11
234.2276722828
 21
243.1855401228
 31
0.0
  0
ARC
  5
DB
330
1F
100
AcDbEntity
  8
0
  6
Continuous
 62
     7
370
    25
100
AcDbCircle
 10
229.8215799155
 20
242.8477700415
 30
0.0
 40
5.191695912798594
100
AcDbArc
 50
358.88606454
 51
3.7302798799
  0
LINE
  5
DC
330
1F
100
AcDbEntity
  8
0
  6
Continuous
 62
     7
370
    25
100
AcDbLine
 10
237.5022765697
 20
239.9109358359
 30
0.0
 11
237.5022765697
 21
240.6855401228
 31
0.0
  0
ARC
  5
DD
330
1F
100
AcDbEntity
  8
0
  6
Continuous
 62
     7
370
    25
100
AcDbCircle
 10
237.1645064884
 20
235.5048434685
 30
0.0
 40
5.191695912898036
100
AcDbArc
 50
86.2697201202
 51
91.1139354599
  0
SPLINE
  5
DE
330
1F
100
AcDbEntity
  8
0
  6
Continuous
 62
     7
370
    25
100
AcDbSpline
210
0.0
220
0.0
230
1.0
 70
     8
 71
     3
 72
    22
 73
    18
 74
     0
 42
0.00000001
 43
0.00000001
 40
0.0
 40
0.0
 40
0.0
 40
0.0
 40
0.2422164057157573
 40
0.2963141497082114
 40
0.3396941897520261
 40
0.4997442254671202
 40
0.6580372490248518
 40
0.695683782990156
 40
0.6984356709733051
 40
0.699648731927105
 40
0.6997927293857363
 40
0.6998640918499317
 40
0.6998729823330292
 40
0.6998774250891646
 40
0.6998840467624726
 40
0.7604185742033073
 40
1.0
 40
1.0
 40
1.0
 40
1.0
 10
64.50227656969822
 20
240.6855401228049
 30
0.0
 10
64.53492215484748
 20
241.0039402794951
 30
0.0
 10
64.5748589575452
 20
241.3934534151467
 30
0.0
 10
64.76072023184993
 20
241.7974602759676
 30
0.0
 10
64.92123389130089
 20
242.0923778958916
 30
0.0
 10
65.21380700057844
 20
242.4696001311443
 30
0.0
 10
65.58427198860878
 20
242.7578813685728
 30
0.0
 10
65.81075637103665
 20
242.8839208984267
 30
0.0
 10
65.85898106240889
 20
242.9088026933225
 30
0.0
 10
65.86375060887158
 20
242.911244836176
 30
0.0
 10
65.86540957876245
 20
242.9120920549005
 30
0.0
 10
65.86567004588058
 20
242.9122250174185
 30
0.0
 10
65.8657684231961
 20
242.9122752290008
 30
0.0
 10
65.86579160171732
 20
242.9122870589696
 30
0.0
 10
65.93611832082394
 20
242.9481799434856
 30
0.0
 10
66.29299235891894
 20
243.1136933839648
 30
0.0
 10
66.68741248268402
 20
243.1536460562431
 30
0.0
 10
67.00227656969825
 20
243.1855401228049
 30
0.0
  0
SPLINE
  5
DF
330
1F
100
AcDbEntity
  8
0
  6
Continuous
 62
     7
370
    25
100
AcDbSpline
210
0.0
220
0.0
230
1.0
 70
     8
 71
     3
 72
    22
 73
    18
 74
     0
 42
0.00000001
 43
0.00000001
 40
0.0
 40
0.0
 40
0.0
 40
0.0
 40
0.2422164057093014
 40
0.2963141496911771
 40
0.3396941897139493
 40
0.4997442254671127
 40
0.6580372490587323
 40
0.695683782998484
 40
0.6984356709764378
 40
0.6996487319274743
 40
0.6997927293857513
 40
0.6998640918497698
 40
0.6998729823328427
 40
0.6998774250889702
 40
0.6998840467622781
 40
0.7604185742103892
 40
1.0
 40
1.0
 40
1.0
 40
1.0
 10
67.00227656969822
 20
132.1855401228048
 30
0.0
 10
66.68387641301665
 20
132.218185707952
 30
0.0
 10
66.29436327738757
 20
132.2581225106459
 30
0.0
 10
65.89035641660895
 20
132.4439837849217
 30
0.0
 10
65.59543879667062
 20
132.6044974443637
 30
0.0
 10
65.21821656135617
 20
132.8970705536748
 30
0.0
 10
64.92993532389166
 20
133.2675355417558
 30
0.0
 10
64.80389579405106
 20
133.494019924199
 30
0.0
 10
64.77901399917273
 20
133.5422446155294
 30
0.0
 10
64.77657185632512
 20
133.5470141619835
 30
0.0
 10
64.77572463760198
 20
133.5486731318699
 30
0.0
 10
64.77559167508453
 20
133.5489335989877
 30
0.0
 10
64.77554146350214
 20
133.5490319763028
 30
0.0
 10
64.77552963353347
 20
133.549055154824
 30
0.0
 10
64.73963674885972
 20
133.6193818738037
 30
0.0
 10
64.57412330882282
 20
133.9762559122888
 30
0.0
 10
64.53417063638581
 20
134.3706760359128
 30
0.0
 10
64.50227656969822
 20
134.6855401228048
 30
0.0
  0
SPLINE
  5
E0
330
1F
100
AcDbEntity
  8
0
  6
Continuous
 62
     7
370
    25
100
AcDbSpline
210
0.0
220
0.0
230
1.0
 70
     8
 71
     3
 72
    22
 73
    18
 74
     0
 42
0.00000001
 43
0.00000001
 40
0.0
 40
0.0
 40
0.0
 40
0.0
 40
0.2422164057266155
 40
0.2963141497372652
 40
0.3396941898169361
 40
0.4997442254672563
 40
0.6580372490206056
 40
0.6956837829891824
 40
0.6984356709729995
 40
0.6996487319271528
 40
0.6997927293858286
 40
0.6998640918500477
 40
0.6998729823331459
 40
0.6998774250892845
 40
0.6998840467625955
 40
0.7604185742023803
 40
1.0
 40
1.0
 40
1.0
 40
1.0
 10
237.5022765696983
 20
134.6855401228048
 30
0.0
 10
237.4696309845455
 20
134.3671399661001
 30
0.0
 10
237.4296941818414
 20
133.9776268304099
 30
0.0
 10
237.2438329074873
 20
133.5736199695173
 30
0.0
 10
237.0833192480214
 20
133.2787023496168
 30
0.0
 10
236.7907461387531
 20
132.9014801144195
 30
0.0
 10
236.4202811507968
 20
132.6131988770373
 30
0.0
 10
236.1937967683649
 20
132.4871593471884
 30
0.0
 10
236.1455720769897
 20
132.4622775522878
 30
0.0
 10
236.1408025305252
 20
132.4598354094343
 30
0.0
 10
236.1391435606342
 20
132.4589881907091
 30
0.0
 10
236.1388830935158
 20
132.4588552281913
 30
0.0
 10
236.1387847162004
 20
132.4588050166087
 30
0.0
 10
236.1387615376791
 20
132.4587931866401
 30
0.0
 10
236.0684348187548
 20
132.422900302021
 30
0.0
 10
235.7115607801396
 20
132.2573868618395
 30
0.0
 10
235.3171406565632
 20
132.2174341894531
 30
0.0
 10
235.0022765696982
 20
132.1855401228048
 30
0.0
  0
SPLINE
  5
E1
330
1F
100
AcDbEntity
  8
0
  6
Continuous
 62
     7
370
    25
100
AcDbSpline
210
0.0
220
0.0
230
1.0
 70
     8
 71
     3
 72
    22
 73
    18
 74
     0
 42
0.00000001
 43
0.00000001
 40
0.0
 40
0.0
 40
0.0
 40
0.0
 40
0.2422164057208554
 40
0.2963141497980125
 40
0.3396941899516877
 40
0.4997442254685492
 40
0.6580372492279012
 40
0.6956837830409116
 40
0.6984356709931112
 40
0.6996487319304452
 40
0.6997927293869691
 40
0.6998640918501103
 40
0.6998729823330736
 40
0.6998774250891441
 40
0.699884046762441
 40
0.7604185742029747
 40
1.0
 40
1.0
 40
1.0
 40
1.0
 10
235.0022765696983
 20
243.1855401228048
 30
0.0
 10
235.320676726395
 20
243.152894537652
 30
0.0
 10
235.7101898621645
 20
243.1129577349387
 30
0.0
 10
236.1141967232101
 20
242.9270964604896
 30
0.0
 10
236.4091143430951
 20
242.7665828009747
 30
0.0
 10
236.7863365784021
 20
242.4740096915554
 30
0.0
 10
237.0746178156752
 20
242.1035447036292
 30
0.0
 10
237.2006573454819
 20
241.8770603211473
 30
0.0
 10
237.2255391402608
 20
241.8288356300089
 30
0.0
 10
237.2279812830831
 20
241.8240660836024
 30
0.0
 10
237.228828501797
 20
241.8224071137351
 30
0.0
 10
237.2289614643126
 20
241.8221466466204
 30
0.0
 10
237.2290116758946
 20
241.8220482693066
 30
0.0
 10
237.2290235058631
 20
241.8220250907856
 30
0.0
 10
237.2649163904941
 20
241.7516983717776
 30
0.0
 10
237.4304298306423
 20
241.3948243334007
 30
0.0
 10
237.4703825030406
 20
241.0004042097379
 30
0.0
 10
237.5022765696983
 20
240.6855401228048
 30
0.0
  0
SPLINE
  5
E2
330
1F
100
AcDbEntity
  8
0
  6
Continuous
 62
     7
370
    25
100
AcDbSpline
210
0.0
220
0.0
230
1.0
 70
    24
 71
     3
 72
    20
 73
    16
 74
     0
 42
0.00000001
 43
0.00000001
 40
0.0
 40
0.0
 40
0.0
 40
0.0
 40
0.0129789535909195
 40
0.0871654900002387
 40
0.16144206194957
 40
0.2357757196868748
 40
0.3399388399555578
 40
0.4443269773908011
 40
0.548903763893445
 40
0.6537066678759793
 40
0.7197288088233398
 40
0.7858596545814137
 40
0.8521847689768411
 40
0.9235754612727627
 40
1.0
 40
1.0
 40
1.0
 40
1.0
 10
150.9917274698998
 20
191.8122593335737
 30
0.0
 10
150.9917274698998
 20
191.6949952176242
 30
0.0
 10
150.9917274698998
 20
190.9074599163704
 30
0.0
 10
150.9917274698998
 20
189.388704108221
 30
0.0
 10
150.9917274698998
 20
187.304618490702
 30
0.0
 10
150.9917274698998
 20
184.9326842127389
 30
0.0
 10
150.9917274698998
 20
182.324892737389
 30
0.0
 10
150.9917274698997
 20
179.5301629132017
 30
0.0
 10
150.9917274698997
 20
176.8036436434899
 30
0.0
 10
150.9917274698997
 20
174.5528733451139
 30
0.0
 10
150.9917274698997
 20
172.6863767182514
 30
0.0
 10
150.9917274698997
 20
171.140947617786
 30
0.0
 10
150.9917274698997
 20
169.5723705347787
 30
0.0
 10
150.9917274698997
 20
168.0228334627704
 30
0.0
 10
150.9917274698997
 20
167.1889388786255
 30
0.0
 10
150.9917274698997
 20
166.7577924500789
 30
0.0
  0
LINE
  5
E3
330
1F
100
AcDbEntity
  8
0
  6
Continuous
 62
     7
370
    25
100
AcDbLine
 10
164.8057528297
 20
190.98985033
 30
0.0
 11
164.2715599653
 21
191.8122593336
 31
0.0
  0
LINE
  5
E4
330
1F
100
AcDbEntity
  8
0
  6
Continuous
 62
     7
370
    25
100
AcDbLine
 10
164.9630114872
 20
190.9622390136
 30
0.0
 11
164.8057528297
 21
190.98985033
 31
0.0
  0
SPLINE
  5
E5
330
1F
100
AcDbEntity
  8
0
  6
Continuous
 62
     7
370
    25
100
AcDbSpline
210
0.0
220
0.0
230
1.0
 70
     8
 71
     3
 72
    27
 73
    23
 74
     0
 42
0.00000001
 43
0.00000001
 40
0.0
 40
0.0
 40
0.0
 40
0.0
 40
0.0488007669570681
 40
0.1012734402085544
 40
0.1601652499980802
 40
0.18245244423221
 40
0.2047202166187417
 40
0.2269761370812897
 40
0.249143620666129
 40
0.2788987028319325
 40
0.3087509254006775
 40
0.3386415702900281
 40
0.4059991150127697
 40
0.473499266115066
 40
0.5411016619651811
 40
0.6087690837685107
 40
0.6764923272216854
 40
0.7443018013308401
 40
0.8121975329435668
 40
0.8801412685130223
 40
0.9400698477223871
 40
1.0
 40
1.0
 40
1.0
 40
1.0
 10
150.9917274698997
 20
166.7577924500789
 30
0.0
 10
151.5149971160551
 20
166.3085243627918
 30
0.0
 10
152.6009086811231
 20
165.3761839998726
 30
0.0
 10
154.3197308159029
 20
163.9067491581517
 30
0.0
 10
155.7485808548402
 20
162.6621926240114
 30
0.0
 10
156.9998156238287
 20
161.8979768692094
 30
0.0
 10
157.8816468479947
 20
161.545109635141
 30
0.0
 10
158.8405931327643
 20
161.4413670772561
 30
0.0
 10
159.8632854628421
 20
161.7821295096309
 30
0.0
 10
160.7578925682273
 20
162.540227273119
 30
0.0
 10
161.5847774658493
 20
163.4975039290765
 30
0.0
 10
162.6119171949389
 20
164.9743032782453
 30
0.0
 10
163.7600278106059
 20
167.001829197803
 30
0.0
 10
165.1049770648265
 20
169.5264373199598
 30
0.0
 10
166.3409442817933
 20
172.1138496933175
 30
0.0
 10
167.2995684598214
 20
174.8270392474245
 30
0.0
 10
167.800882556552
 20
177.6698073477282
 30
0.0
 10
167.8057421276698
 20
180.5557438529954
 30
0.0
 10
167.4386259547735
 20
183.4154262574367
 30
0.0
 10
166.8289707451908
 20
186.1166578369947
 30
0.0
 10
166.0219314776688
 20
188.6507862049862
 30
0.0
 10
165.3159879057184
 20
190.1917480026837
 30
0.0
 10
164.9630114872171
 20
190.9622390135954
 30
0.0
  0
SPLINE
  5
E6
330
1F
100
AcDbEntity
  8
0
  6
Continuous
 62
     7
370
    25
100
AcDbSpline
210
0.0
220
0.0
230
1.0
 70
     8
 71
     3
 72
    27
 73
    23
 74
     0
 42
0.00000001
 43
0.00000001
 40
0.0
 40
0.0
 40
0.0
 40
0.0
 40
0.0488007669570682
 40
0.1012734402085544
 40
0.1601652499980803
 40
0.18245244423221
 40
0.2047202166187418
 40
0.2269761370812898
 40
0.2491436206661291
 40
0.2788987028319326
 40
0.3087509254006776
 40
0.3386415702900282
 40
0.4059991150127698
 40
0.4734992661150661
 40
0.5411016619651811
 40
0.6087690837685107
 40
0.6764923272216855
 40
0.7443018013308402
 40
0.8121975329435668
 40
0.8801412685130223
 40
0.940069847722387
 40
1.0
 40
1.0
 40
1.0
 40
1.0
 10
150.9917274698997
 20
166.7577924500789
 30
0.0
 10
150.4684578237443
 20
166.3085243627918
 30
0.0
 10
149.3825462586763
 20
165.3761839998727
 30
0.0
 10
147.6637241238965
 20
163.9067491581517
 30
0.0
 10
146.2348740849592
 20
162.6621926240114
 30
0.0
 10
144.9836393159707
 20
161.8979768692094
 30
0.0
 10
144.1018080918047
 20
161.545109635141
 30
0.0
 10
143.1428618070351
 20
161.4413670772562
 30
0.0
 10
142.1201694769572
 20
161.782129509631
 30
0.0
 10
141.225562371572
 20
162.540227273119
 30
0.0
 10
140.39867747395
 20
163.4975039290765
 30
0.0
 10
139.3715377448605
 20
164.9743032782454
 30
0.0
 10
138.2234271291935
 20
167.0018291978031
 30
0.0
 10
136.8784778749729
 20
169.5264373199599
 30
0.0
 10
135.6425106580061
 20
172.1138496933176
 30
0.0
 10
134.683886479978
 20
174.8270392474246
 30
0.0
 10
134.1825723832475
 20
177.6698073477284
 30
0.0
 10
134.1777128121296
 20
180.5557438529955
 30
0.0
 10
134.544828985026
 20
183.4154262574368
 30
0.0
 10
135.1544841946087
 20
186.1166578369948
 30
0.0
 10
135.9615234621307
 20
188.6507862049863
 30
0.0
 10
136.6674670340811
 20
190.1917480026838
 30
0.0
 10
137.0204434525825
 20
190.9622390135955
 30
0.0
  0
LINE
  5
E7
330
1F
100
AcDbEntity
  8
0
  6
Continuous
 62
     7
370
    25
100
AcDbLine
 10
137.1777021101
 20
190.98985033
 30
0.0
 11
137.0204434526
 21
190.9622390136
 31
0.0
  0
LINE
  5
E8
330
1F
100
AcDbEntity
  8
0
  6
Continuous
 62
     7
370
    25
100
AcDbLine
 10
137.7118949745
 20
191.8122593336
 30
0.0
 11
137.1777021101
 21
190.98985033
 31
0.0
  0
LINE
  5
E9
330
1F
100
AcDbEntity
  8
0
  6
Continuous
 62
     7
370
    25
100
AcDbLine
 10
166.6247747443
 20
190.9622390136
 30
0.0
 11
164.9630114872
 21
190.9622390136
 31
0.0
  0
LINE
  5
EA
330
1F
100
AcDbEntity
  8
0
  6
Continuous
 62
     7
370
    25
100
AcDbLine
 10
166.5014011088
 20
190.98985033
 30
0.0
 11
164.8057528297
 21
190.98985033
 31
0.0
  0
LINE
  5
EB
330
1F
100
AcDbEntity
  8
0
  6
Continuous
 62
     7
370
    25
100
AcDbLine
 10
166.6247747443
 20
190.9622390136
 30
0.0
 11
166.5014011088
 21
190.98985033
 31
0.0
  0
LINE
  5
EC
330
1F
100
AcDbEntity
  8
0
  6
Continuous
 62
     7
370
    25
100
AcDbLine
 10
137.0204434526
 20
190.9622390136
 30
0.0
 11
135.3586801955
 21
190.9622390136
 31
0.0
  0
SPLINE
  5
ED
330
1F
100
AcDbEntity
  8
0
  6
Continuous
 62
     7
370
    25
100
AcDbSpline
210
0.0
220
0.0
230
1.0
 70
     8
 71
     3
 72
    28
 73
    24
 74
     0
 42
0.00000001
 43
0.00000001
 40
0.0
 40
0.0
 40
0.0
 40
0.0
 40
0.0594994271655687
 40
0.118316888548044
 40
0.1754352655774041
 40
0.2374541105260075
 40
0.2930309247280165
 40
0.3442436183307083
 40
0.3938073517291618
 40
0.4436856556105766
 40
0.4948165306862572
 40
0.5495222127615624
 40
0.6086007991381085
 40
0.6683106727200998
 40
0.7103861449892196
 40
0.7481251866245547
 40
0.7713545238455243
 40
0.7941002968541769
 40
0.8169387822983466
 40
0.8532977142935931
 40
0.895235300528167
 40
0.943981530416166
 40
1.0
 40
1.0
 40
1.0
 40
1.0
 10
135.3586801954651
 20
190.9622390135955
 30
0.0
 10
135.0112698897703
 20
190.1474977563815
 30
0.0
 10
134.3204311980811
 20
188.527353578236
 30
0.0
 10
133.5836431579236
 20
186.018252376726
 30
0.0
 10
133.032691768671
 20
183.4273907604576
 30
0.0
 10
132.7086399719913
 20
180.8442154696784
 30
0.0
 10
132.6682056496952
 20
178.3276169880367
 30
0.0
 10
132.9249461035231
 20
176.0097179277356
 30
0.0
 10
133.447417062807
 20
173.8250017508086
 30
0.0
 10
134.2072309006011
 20
171.7143090481551
 30
0.0
 10
135.1655403189785
 20
169.6038236162386
 30
0.0
 10
136.2958315985672
 20
167.4259472812871
 30
0.0
 10
137.5229523149492
 20
165.1562075424679
 30
0.0
 10
138.7808364057049
 20
163.1144309161123
 30
0.0
 10
140.1001002801015
 20
161.5049885965078
 30
0.0
 10
141.3059989336849
 20
160.5234197545838
 30
0.0
 10
142.476678303756
 20
160.0548583888749
 30
0.0
 10
143.5084707522381
 20
159.9584846101086
 30
0.0
 10
144.7239696866271
 20
160.14271024779
 30
0.0
 10
146.1135596969461
 20
160.7684987559677
 30
0.0
 10
147.6486640050016
 20
161.8797956763066
 30
0.0
 10
149.2767518909542
 20
163.3353664341049
 30
0.0
 10
150.3942127681406
 20
164.4215603093471
 30
0.0
 10
150.9917274698997
 20
165.0023563109503
 30
0.0
  0
SPLINE
  5
EE
330
1F
100
AcDbEntity
  8
0
  6
Continuous
 62
     7
370
    25
100
AcDbSpline
210
0.0
220
0.0
230
1.0
 70
     8
 71
     3
 72
    28
 73
    24
 74
     0
 42
0.00000001
 43
0.00000001
 40
0.0
 40
0.0
 40
0.0
 40
0.0
 40
0.0594994271655687
 40
0.118316888548044
 40
0.175435265577404
 40
0.2374541105260073
 40
0.2930309247280163
 40
0.3442436183307082
 40
0.3938073517291617
 40
0.4436856556105765
 40
0.4948165306862572
 40
0.5495222127615623
 40
0.6086007991381084
 40
0.6683106727200996
 40
0.7103861449892194
 40
0.7481251866245545
 40
0.771354523845524
 40
0.7941002968541767
 40
0.8169387822983465
 40
0.8532977142935931
 40
0.895235300528167
 40
0.943981530416166
 40
1.0
 40
1.0
 40
1.0
 40
1.0
 10
166.6247747443344
 20
190.9622390135954
 30
0.0
 10
166.9721850500292
 20
190.1474977563814
 30
0.0
 10
167.6630237417184
 20
188.5273535782359
 30
0.0
 10
168.3998117818759
 20
186.0182523767259
 30
0.0
 10
168.9507631711285
 20
183.4273907604575
 30
0.0
 10
169.2748149678081
 20
180.8442154696783
 30
0.0
 10
169.3152492901042
 20
178.3276169880366
 30
0.0
 10
169.0585088362764
 20
176.0097179277356
 30
0.0
 10
168.5360378769925
 20
173.8250017508085
 30
0.0
 10
167.7762240391983
 20
171.7143090481549
 30
0.0
 10
166.8179146208209
 20
169.6038236162385
 30
0.0
 10
165.6876233412322
 20
167.425947281287
 30
0.0
 10
164.4605026248502
 20
165.1562075424678
 30
0.0
 10
163.2026185340945
 20
163.1144309161122
 30
0.0
 10
161.8833546596978
 20
161.5049885965077
 30
0.0
 10
160.6774560061144
 20
160.5234197545837
 30
0.0
 10
159.5067766360433
 20
160.0548583888749
 30
0.0
 10
158.4749841875612
 20
159.9584846101085
 30
0.0
 10
157.2594852531722
 20
160.14271024779
 30
0.0
 10
155.8698952428532
 20
160.7684987559677
 30
0.0
 10
154.3347909347977
 20
161.8797956763066
 30
0.0
 10
152.7067030488451
 20
163.3353664341049
 30
0.0
 10
151.5892421716587
 20
164.4215603093471
 30
0.0
 10
150.9917274698997
 20
165.0023563109503
 30
0.0
  0
LINE
  5
EF
330
1F
100
AcDbEntity
  8
0
  6
Continuous
 62
     7
370
    25
100
AcDbLine
 10
137.1777021101
 20
190.98985033
 30
0.0
 11
135.482053831
 21
190.98985033
 31
0.0
  0
LINE
  5
F0
330
1F
100
AcDbEntity
  8
0
  6
Continuous
 62
     7
370
    25
100
AcDbLine
 10
135.482053831
 20
190.98985033
 30
0.0
 11
135.3586801955
 21
190.9622390136
 31
0.0
  0
LINE
  5
F1
330
1F
100
AcDbEntity
  8
0
  6
Continuous
 62
     7
370
    25
100
AcDbLine
 10
166.5014011088
 20
190.98985033
 30
0.0
 11
166.0226378399
 21
191.8122593336
 31
0.0
  0
LINE
  5
F2
330
1F
100
AcDbEntity
  8
0
  6
Continuous
 62
     7
370
    25
100
AcDbLine
 10
135.9608170999
 20
191.8122593336
 30
0.0
 11
135.482053831
 21
190.98985033
 31
0.0
  0
LINE
  5
F3
330
1F
100
AcDbEntity
  8
0
  6
Continuous
 62
     7
370
    25
100
AcDbLine
 10
97.5160986704
 20
191.9122390136
 30
0.0
 11
97.6636989465
 21
192.146900513
 31
0.0
  0
LINE
  5
F4
330
1F
100
AcDbEntity
  8
0
  6
Continuous
 62
     7
370
    25
100
AcDbLine
 10
97.5160986704
 20
191.9122390136
 30
0.0
 11
95.8190110186
 21
191.9122390136
 31
0.0
  0
LINE
  5
F5
330
1F
100
AcDbEntity
  8
0
  6
Continuous
 62
     7
370
    25
100
AcDbLine
 10
95.951410773
 20
192.146900513
 30
0.0
 11
95.8190110186
 21
191.9122390136
 31
0.0
  0
SPLINE
  5
F6
330
1F
100
AcDbEntity
  8
0
  6
Continuous
 62
     7
370
    25
100
AcDbSpline
210
0.0
220
0.0
230
1.0
 70
    24
 71
     3
 72
    20
 73
    16
 74
     0
 42
0.00000001
 43
0.00000001
 40
0.0
 40
0.0
 40
0.0
 40
0.0
 40
0.01297895359092
 40
0.0871654900002391
 40
0.1614420619495704
 40
0.2357757196868752
 40
0.3399388399555582
 40
0.4443269773908014
 40
0.5489037638934452
 40
0.6537066678759794
 40
0.7197288088233398
 40
0.7858596545814139
 40
0.8521847689768413
 40
0.9235754612727627
 40
1.0
 40
1.0
 40
1.0
 40
1.0
 10
110.9917109498946
 20
191.8122593335738
 30
0.0
 10
110.9917109498946
 20
191.6949952176244
 30
0.0
 10
110.9917109498946
 20
190.9074599163705
 30
0.0
 10
110.9917109498946
 20
189.3887041082212
 30
0.0
 10
110.9917109498946
 20
187.3046184907022
 30
0.0
 10
110.9917109498946
 20
184.932684212739
 30
0.0
 10
110.9917109498946
 20
182.3248927373891
 30
0.0
 10
110.9917109498946
 20
179.5301629132018
 30
0.0
 10
110.9917109498945
 20
176.8036436434901
 30
0.0
 10
110.9917109498946
 20
174.552873345114
 30
0.0
 10
110.9917109498945
 20
172.6863767182515
 30
0.0
 10
110.9917109498945
 20
171.1409476177861
 30
0.0
 10
110.9917109498945
 20
169.5723705347789
 30
0.0
 10
110.9917109498945
 20
168.0228334627706
 30
0.0
 10
110.9917109498945
 20
167.1889388786256
 30
0.0
 10
110.9917109498945
 20
166.7577924500791
 30
0.0
  0
LINE
  5
F7
330
1F
100
AcDbEntity
  8
0
  6
Continuous
 62
     7
370
    25
100
AcDbLine
 10
124.8057363096
 20
190.98985033
 30
0.0
 11
124.2715434453
 21
191.8122593336
 31
0.0
  0
LINE
  5
F8
330
1F
100
AcDbEntity
  8
0
  6
Continuous
 62
     7
370
    25
100
AcDbLine
 10
124.9629949672
 20
190.9622390136
 30
0.0
 11
124.8057363096
 21
190.98985033
 31
0.0
  0
SPLINE
  5
F9
330
1F
100
AcDbEntity
  8
0
  6
Continuous
 62
     7
370
    25
100
AcDbSpline
210
0.0
220
0.0
230
1.0
 70
     8
 71
     3
 72
    27
 73
    23
 74
     0
 42
0.00000001
 43
0.00000001
 40
0.0
 40
0.0
 40
0.0
 40
0.0
 40
0.0488007669570681
 40
0.1012734402085544
 40
0.1601652499980801
 40
0.1824524442322101
 40
0.2047202166187418
 40
0.2269761370812897
 40
0.2491436206661291
 40
0.2788987028319325
 40
0.3087509254006775
 40
0.3386415702900281
 40
0.4059991150127697
 40
0.473499266115066
 40
0.541101661965181
 40
0.6087690837685106
 40
0.6764923272216853
 40
0.7443018013308401
 40
0.8121975329435668
 40
0.8801412685130223
 40
0.9400698477223871
 40
1.0
 40
1.0
 40
1.0
 40
1.0
 10
110.9917109498945
 20
166.7577924500791
 30
0.0
 10
111.5149805960499
 20
166.3085243627919
 30
0.0
 10
112.6008921611179
 20
165.3761839998728
 30
0.0
 10
114.3197142958978
 20
163.9067491581518
 30
0.0
 10
115.748564334835
 20
162.6621926240115
 30
0.0
 10
116.9997991038235
 20
161.8979768692095
 30
0.0
 10
117.8816303279895
 20
161.5451096351411
 30
0.0
 10
118.8405766127591
 20
161.4413670772562
 30
0.0
 10
119.8632689428369
 20
161.7821295096311
 30
0.0
 10
120.7578760482222
 20
162.5402272731191
 30
0.0
 10
121.5847609458442
 20
163.4975039290766
 30
0.0
 10
122.6119006749337
 20
164.9743032782454
 30
0.0
 10
123.7600112906007
 20
167.0018291978031
 30
0.0
 10
125.1049605448213
 20
169.52643731996
 30
0.0
 10
126.3409277617882
 20
172.1138496933176
 30
0.0
 10
127.2995519398162
 20
174.8270392474246
 30
0.0
 10
127.8008660365468
 20
177.6698073477284
 30
0.0
 10
127.8057256076647
 20
180.5557438529955
 30
0.0
 10
127.4386094347684
 20
183.4154262574368
 30
0.0
 10
126.8289542251856
 20
186.1166578369948
 30
0.0
 10
126.0219149576636
 20
188.6507862049864
 30
0.0
 10
125.3159713857133
 20
190.1917480026839
 30
0.0
 10
124.9629949672119
 20
190.9622390135955
 30
0.0
  0
LINE
  5
FA
330
1F
100
AcDbEntity
  8
0
  6
Continuous
 62
     7
370
    25
100
AcDbLine
 10
97.5160986704
 20
191.9122390136
 30
0.0
 11
97.7450205251
 21
191.8632827357
 31
0.0
  0
SPLINE
  5
FB
330
1F
100
AcDbEntity
  8
0
  6
Continuous
 62
     7
370
    25
100
AcDbSpline
210
0.0
220
0.0
230
1.0
 70
     8
 71
     3
 72
    27
 73
    23
 74
     0
 42
0.00000001
 43
0.00000001
 40
0.0
 40
0.0
 40
0.0
 40
0.0
 40
0.0488007669570681
 40
0.1012734402085544
 40
0.1601652499980802
 40
0.18245244423221
 40
0.2047202166187417
 40
0.2269761370812898
 40
0.249143620666129
 40
0.2788987028319326
 40
0.3087509254006776
 40
0.3386415702900281
 40
0.4059991150127698
 40
0.473499266115066
 40
0.5411016619651811
 40
0.6087690837685107
 40
0.6764923272216855
 40
0.7443018013308402
 40
0.8121975329435668
 40
0.8801412685130223
 40
0.940069847722387
 40
1.0
 40
1.0
 40
1.0
 40
1.0
 10
110.9917109498945
 20
166.7577924500791
 30
0.0
 10
110.4684413037391
 20
166.3085243627919
 30
0.0
 10
109.3825297386712
 20
165.3761839998728
 30
0.0
 10
107.6637076038913
 20
163.9067491581518
 30
0.0
 10
106.234857564954
 20
162.6621926240115
 30
0.0
 10
104.9836227959655
 20
161.8979768692096
 30
0.0
 10
104.1017915717995
 20
161.5451096351411
 30
0.0
 10
103.1428452870299
 20
161.4413670772563
 30
0.0
 10
102.1201529569521
 20
161.7821295096311
 30
0.0
 10
101.2255458515669
 20
162.5402272731192
 30
0.0
 10
100.3986609539448
 20
163.4975039290767
 30
0.0
 10
99.37152122485534
 20
164.9743032782455
 30
0.0
 10
98.22341060918828
 20
167.0018291978032
 30
0.0
 10
96.87846135496777
 20
169.5264373199601
 30
0.0
 10
95.64249413800091
 20
172.1138496933177
 30
0.0
 10
94.68386995997285
 20
174.8270392474247
 30
0.0
 10
94.18255586324231
 20
177.6698073477285
 30
0.0
 10
94.17769629212444
 20
180.5557438529956
 30
0.0
 10
94.54481246502081
 20
183.415426257437
 30
0.0
 10
95.1544676746036
 20
186.116657836995
 30
0.0
 10
95.9615069421256
 20
188.6507862049864
 30
0.0
 10
96.66745051407595
 20
190.191748002684
 30
0.0
 10
97.02042693257728
 20
190.9622390135956
 30
0.0
  0
LINE
  5
FC
330
1F
100
AcDbEntity
  8
0
  6
Continuous
 62
     7
370
    25
100
AcDbLine
 10
97.1776855901
 20
190.98985033
 30
0.0
 11
97.0204269326
 21
190.9622390136
 31
0.0
  0
LINE
  5
FD
330
1F
100
AcDbEntity
  8
0
  6
Continuous
 62
     7
370
    25
100
AcDbLine
 10
97.7450205251
 20
191.8632827357
 30
0.0
 11
97.1776855901
 21
190.98985033
 31
0.0
  0
LINE
  5
FE
330
1F
100
AcDbEntity
  8
0
  6
Continuous
 62
     7
370
    25
100
AcDbLine
 10
97.7450205251
 20
191.8632827357
 30
0.0
 11
95.9905037212
 21
191.8632827357
 31
0.0
  0
LINE
  5
FF
330
1F
100
AcDbEntity
  8
0
  6
Continuous
 62
     7
370
    25
100
AcDbLine
 10
95.8190110186
 20
191.9122390136
 30
0.0
 11
95.9905037212
 21
191.8632827357
 31
0.0
  0
LINE
  5
100
330
1F
100
AcDbEntity
  8
0
  6
Continuous
 62
     7
370
    25
100
AcDbLine
 10
126.6247582243
 20
190.9622390136
 30
0.0
 11
124.9629949672
 21
190.9622390136
 31
0.0
  0
LINE
  5
101
330
1F
100
AcDbEntity
  8
0
  6
Continuous
 62
     7
370
    25
100
AcDbLine
 10
126.5013845888
 20
190.98985033
 30
0.0
 11
124.8057363096
 21
190.98985033
 31
0.0
  0
LINE
  5
102
330
1F
100
AcDbEntity
  8
0
  6
Continuous
 62
     7
370
    25
100
AcDbLine
 10
126.6247582243
 20
190.9622390136
 30
0.0
 11
126.5013845888
 21
190.98985033
 31
0.0
  0
LINE
  5
103
330
1F
100
AcDbEntity
  8
0
  6
Continuous
 62
     7
370
    25
100
AcDbLine
 10
97.0204269326
 20
190.9622390136
 30
0.0
 11
95.3586636755
 21
190.9622390136
 31
0.0
  0
SPLINE
  5
104
330
1F
100
AcDbEntity
  8
0
  6
Continuous
 62
     7
370
    25
100
AcDbSpline
210
0.0
220
0.0
230
1.0
 70
     8
 71
     3
 72
    28
 73
    24
 74
     0
 42
0.00000001
 43
0.00000001
 40
0.0
 40
0.0
 40
0.0
 40
0.0
 40
0.0594994271655687
 40
0.118316888548044
 40
0.1754352655774041
 40
0.2374541105260075
 40
0.2930309247280165
 40
0.3442436183307083
 40
0.3938073517291618
 40
0.4436856556105766
 40
0.4948165306862572
 40
0.5495222127615624
 40
0.6086007991381087
 40
0.6683106727200999
 40
0.7103861449892197
 40
0.7481251866245548
 40
0.7713545238455245
 40
0.7941002968541772
 40
0.8169387822983467
 40
0.8532977142935935
 40
0.8952353005281674
 40
0.9439815304161662
 40
1.0
 40
1.0
 40
1.0
 40
1.0
 10
95.35866367545991
 20
190.9622390135956
 30
0.0
 10
95.01125336976521
 20
190.1474977563816
 30
0.0
 10
94.32041467807595
 20
188.5273535782362
 30
0.0
 10
93.58362663791843
 20
186.0182523767262
 30
0.0
 10
93.03267524866585
 20
183.4273907604577
 30
0.0
 10
92.70862345198613
 20
180.8442154696786
 30
0.0
 10
92.66818912969008
 20
178.3276169880369
 30
0.0
 10
92.92492958351791
 20
176.0097179277358
 30
0.0
 10
93.44740054280179
 20
173.8250017508088
 30
0.0
 10
94.20721438059593
 20
171.7143090481552
 30
0.0
 10
95.16552379897334
 20
169.6038236162388
 30
0.0
 10
96.29581507856203
 20
167.4259472812873
 30
0.0
 10
97.52293579494402
 20
165.1562075424681
 30
0.0
 10
98.78081988569971
 20
163.1144309161124
 30
0.0
 10
100.1000837600963
 20
161.5049885965079
 30
0.0
 10
101.3059824136797
 20
160.5234197545839
 30
0.0
 10
102.4766617837509
 20
160.0548583888751
 30
0.0
 10
103.5084542322329
 20
159.9584846101087
 30
0.0
 10
104.723953166622
 20
160.1427102477902
 30
0.0
 10
106.113543176941
 20
160.7684987559678
 30
0.0
 10
107.6486474849965
 20
161.8797956763067
 30
0.0
 10
109.2767353709491
 20
163.335366434105
 30
0.0
 10
110.3941962481355
 20
164.4215603093472
 30
0.0
 10
110.9917109498945
 20
165.0023563109505
 30
0.0
  0
SPLINE
  5
105
330
1F
100
AcDbEntity
  8
0
  6
Continuous
 62
     7
370
    25
100
AcDbSpline
210
0.0
220
0.0
230
1.0
 70
     8
 71
     3
 72
    28
 73
    24
 74
     0
 42
0.00000001
 43
0.00000001
 40
0.0
 40
0.0
 40
0.0
 40
0.0
 40
0.0594994271655687
 40
0.118316888548044
 40
0.175435265577404
 40
0.2374541105260073
 40
0.2930309247280163
 40
0.3442436183307082
 40
0.3938073517291617
 40
0.4436856556105765
 40
0.4948165306862572
 40
0.5495222127615623
 40
0.6086007991381085
 40
0.6683106727200997
 40
0.7103861449892194
 40
0.7481251866245545
 40
0.771354523845524
 40
0.7941002968541767
 40
0.8169387822983465
 40
0.8532977142935931
 40
0.895235300528167
 40
0.943981530416166
 40
1.0
 40
1.0
 40
1.0
 40
1.0
 10
126.6247582243293
 20
190.9622390135955
 30
0.0
 10
126.972168530024
 20
190.1474977563815
 30
0.0
 10
127.6630072217133
 20
188.5273535782361
 30
0.0
 10
128.3997952618708
 20
186.0182523767261
 30
0.0
 10
128.9507466511233
 20
183.4273907604576
 30
0.0
 10
129.274798447803
 20
180.8442154696785
 30
0.0
 10
129.3152327700991
 20
178.3276169880367
 30
0.0
 10
129.0584923162712
 20
176.0097179277356
 30
0.0
 10
128.5360213569873
 20
173.8250017508086
 30
0.0
 10
127.7762075191932
 20
171.7143090481551
 30
0.0
 10
126.8178981008157
 20
169.6038236162387
 30
0.0
 10
125.687606821227
 20
167.4259472812872
 30
0.0
 10
124.460486104845
 20
165.156207542468
 30
0.0
 10
123.2026020140893
 20
163.1144309161124
 30
0.0
 10
121.8833381396927
 20
161.5049885965079
 30
0.0
 10
120.6774394861093
 20
160.5234197545838
 30
0.0
 10
119.5067601160381
 20
160.054858388875
 30
0.0
 10
118.4749676675561
 20
159.9584846101087
 30
0.0
 10
117.259468733167
 20
160.1427102477901
 30
0.0
 10
115.869878722848
 20
160.7684987559678
 30
0.0
 10
114.3347744147926
 20
161.8797956763067
 30
0.0
 10
112.7066865288399
 20
163.335366434105
 30
0.0
 10
111.5892256516536
 20
164.4215603093472
 30
0.0
 10
110.9917109498945
 20
165.0023563109505
 30
0.0
  0
LINE
  5
106
330
1F
100
AcDbEntity
  8
0
  6
Continuous
 62
     7
370
    25
100
AcDbLine
 10
97.1776855901
 20
190.98985033
 30
0.0
 11
95.482037311
 21
190.98985033
 31
0.0
  0
LINE
  5
107
330
1F
100
AcDbEntity
  8
0
  6
Continuous
 62
     7
370
    25
100
AcDbLine
 10
95.482037311
 20
190.98985033
 30
0.0
 11
95.3586636755
 21
190.9622390136
 31
0.0
  0
LINE
  5
108
330
1F
100
AcDbEntity
  8
0
  6
Continuous
 62
     7
370
    25
100
AcDbLine
 10
126.5013845888
 20
190.98985033
 30
0.0
 11
126.0226213199
 21
191.8122593336
 31
0.0
  0
LINE
  5
109
330
1F
100
AcDbEntity
  8
0
  6
Continuous
 62
     7
370
    25
100
AcDbLine
 10
95.9905037212
 20
191.8632827357
 30
0.0
 11
95.482037311
 21
190.98985033
 31
0.0
  0
LINE
  5
10A
330
1F
100
AcDbEntity
  8
0
  6
Continuous
 62
     7
370
    25
100
AcDbLine
 10
204.4673384894
 20
191.9122593336
 30
0.0
 11
204.3197509944
 21
192.146900513
 31
0.0
  0
LINE
  5
10B
330
1F
100
AcDbEntity
  8
0
  6
Continuous
 62
     7
370
    25
100
AcDbLine
 10
206.0320378516
 20
192.146900513
 30
0.0
 11
206.1644261412
 21
191.9122593336
 31
0.0
  0
LINE
  5
10C
330
1F
100
AcDbEntity
  8
0
  6
Continuous
 62
     7
370
    25
100
AcDbLine
 10
206.1644261412
 20
191.9122593336
 30
0.0
 11
204.4673384894
 21
191.9122593336
 31
0.0
  0
SPLINE
  5
10D
330
1F
100
AcDbEntity
  8
0
  6
Continuous
 62
     7
370
    25
100
AcDbSpline
210
0.0
220
0.0
230
1.0
 70
    24
 71
     3
 72
    20
 73
    16
 74
     0
 42
0.00000001
 43
0.00000001
 40
0.0
 40
0.0
 40
0.0
 40
0.0
 40
0.01297821515037
 40
0.0871648070624031
 40
0.1614414345818083
 40
0.235775147931896
 40
0.339938346130297
 40
0.444326561663605
 40
0.5489034264054514
 40
0.6537064087963584
 40
0.719728599138234
 40
0.7858594943721509
 40
0.8521846583887632
 40
0.9235754040956857
 40
1.0
 40
1.0
 40
1.0
 40
1.0
 10
190.9917262098568
 20
191.8122593335735
 30
0.0
 10
190.9917262098568
 20
191.695001965612
 30
0.0
 10
190.9917262098568
 20
190.907473346569
 30
0.0
 10
190.9917262098568
 20
189.388724367128
 30
0.0
 10
190.9917262098568
 20
187.3046388268868
 30
0.0
 10
190.9917262098568
 20
184.9327045264003
 30
0.0
 10
190.9917262098567
 20
182.3249130593003
 30
0.0
 10
190.9917262098567
 20
179.5301832326626
 30
0.0
 10
190.9917262098567
 20
176.8036639636121
 30
0.0
 10
190.9917262098567
 20
174.5528936650716
 30
0.0
 10
190.9917262098567
 20
172.6863970382367
 30
0.0
 10
190.9917262098567
 20
171.1409679377651
 30
0.0
 10
190.9917262098567
 20
169.5723908547595
 30
0.0
 10
190.9917262098567
 20
168.0228537827507
 30
0.0
 10
190.9917262098567
 20
167.1889591986059
 30
0.0
 10
190.9917262098567
 20
166.7578127700593
 30
0.0
  0
LINE
  5
10E
330
1F
100
AcDbEntity
  8
0
  6
Continuous
 62
     7
370
    25
100
AcDbLine
 10
204.2384166346
 20
191.8633030557
 30
0.0
 11
204.4673384894
 21
191.9122593336
 31
0.0
  0
LINE
  5
10F
330
1F
100
AcDbEntity
  8
0
  6
Continuous
 62
     7
370
    25
100
AcDbLine
 10
204.8057515696
 20
190.98987065
 30
0.0
 11
204.2384166346
 21
191.8633030557
 31
0.0
  0
LINE
  5
110
330
1F
100
AcDbEntity
  8
0
  6
Continuous
 62
     7
370
    25
100
AcDbLine
 10
204.9630102272
 20
190.9622593336
 30
0.0
 11
204.8057515696
 21
190.98987065
 31
0.0
  0
SPLINE
  5
111
330
1F
100
AcDbEntity
  8
0
  6
Continuous
 62
     7
370
    25
100
AcDbSpline
210
0.0
220
0.0
230
1.0
 70
     8
 71
     3
 72
    27
 73
    23
 74
     0
 42
0.00000001
 43
0.00000001
 40
0.0
 40
0.0
 40
0.0
 40
0.0
 40
0.0488007669570681
 40
0.1012734402085544
 40
0.1601652499980802
 40
0.1824524442322101
 40
0.2047202166187418
 40
0.2269761370812897
 40
0.2491436206661291
 40
0.2788987028319325
 40
0.3087509254006775
 40
0.3386415702900281
 40
0.4059991150127697
 40
0.4734992661150661
 40
0.5411016619651811
 40
0.6087690837685107
 40
0.6764923272216854
 40
0.7443018013308402
 40
0.8121975329435668
 40
0.8801412685130223
 40
0.940069847722387
 40
1.0
 40
1.0
 40
1.0
 40
1.0
 10
190.9917262098567
 20
166.7578127700593
 30
0.0
 10
191.5149958560121
 20
166.3085446827722
 30
0.0
 10
192.60090742108
 20
165.3762043198531
 30
0.0
 10
194.3197295558599
 20
163.9067694781321
 30
0.0
 10
195.7485795947971
 20
162.6622129439918
 30
0.0
 10
196.9998143637856
 20
161.8979971891898
 30
0.0
 10
197.8816455879516
 20
161.5451299551214
 30
0.0
 10
198.8405918727212
 20
161.4413873972365
 30
0.0
 10
199.8632842027991
 20
161.7821498296114
 30
0.0
 10
200.7578913081843
 20
162.5402475930994
 30
0.0
 10
201.5847762058063
 20
163.4975242490569
 30
0.0
 10
202.6119159348958
 20
164.9743235982257
 30
0.0
 10
203.7600265505629
 20
167.0018495177834
 30
0.0
 10
205.1049758047835
 20
169.5264576399402
 30
0.0
 10
206.3409430217503
 20
172.1138700132979
 30
0.0
 10
207.2995671997784
 20
174.8270595674049
 30
0.0
 10
207.800881296509
 20
177.6698276677086
 30
0.0
 10
207.8057408676268
 20
180.5557641729758
 30
0.0
 10
207.4386246947305
 20
183.4154465774171
 30
0.0
 10
206.8289694851477
 20
186.1166781569751
 30
0.0
 10
206.0219302176257
 20
188.6508065249666
 30
0.0
 10
205.3159866456754
 20
190.1917683226641
 30
0.0
 10
204.9630102271741
 20
190.9622593335758
 30
0.0
  0
SPLINE
  5
112
330
1F
100
AcDbEntity
  8
0
  6
Continuous
 62
     7
370
    25
100
AcDbSpline
210
0.0
220
0.0
230
1.0
 70
     8
 71
     3
 72
    27
 73
    23
 74
     0
 42
0.00000001
 43
0.00000001
 40
0.0
 40
0.0
 40
0.0
 40
0.0
 40
0.0488007669570681
 40
0.1012734402085544
 40
0.1601652499980802
 40
0.18245244423221
 40
0.2047202166187417
 40
0.2269761370812898
 40
0.249143620666129
 40
0.2788987028319326
 40
0.3087509254006776
 40
0.3386415702900281
 40
0.4059991150127698
 40
0.4734992661150661
 40
0.5411016619651811
 40
0.6087690837685107
 40
0.6764923272216855
 40
0.7443018013308402
 40
0.8121975329435668
 40
0.8801412685130223
 40
0.940069847722387
 40
1.0
 40
1.0
 40
1.0
 40
1.0
 10
190.9917262098567
 20
166.7578127700593
 30
0.0
 10
190.4684565637013
 20
166.3085446827722
 30
0.0
 10
189.3825449986333
 20
165.3762043198531
 30
0.0
 10
187.6637228638534
 20
163.9067694781321
 30
0.0
 10
186.2348728249162
 20
162.6622129439918
 30
0.0
 10
184.9836380559277
 20
161.8979971891899
 30
0.0
 10
184.1018068317617
 20
161.5451299551214
 30
0.0
 10
183.142860546992
 20
161.4413873972366
 30
0.0
 10
182.1201682169142
 20
161.7821498296114
 30
0.0
 10
181.225561111529
 20
162.5402475930995
 30
0.0
 10
180.398676213907
 20
163.4975242490569
 30
0.0
 10
179.3715364848175
 20
164.9743235982258
 30
0.0
 10
178.2234258691505
 20
167.0018495177835
 30
0.0
 10
176.8784766149299
 20
169.5264576399403
 30
0.0
 10
175.6425093979631
 20
172.113870013298
 30
0.0
 10
174.683885219935
 20
174.827059567405
 30
0.0
 10
174.1825711232045
 20
177.6698276677087
 30
0.0
 10
174.1777115520866
 20
180.5557641729759
 30
0.0
 10
174.544827724983
 20
183.4154465774172
 30
0.0
 10
175.1544829345657
 20
186.1166781569752
 30
0.0
 10
175.9615222020877
 20
188.6508065249667
 30
0.0
 10
176.6674657740381
 20
190.1917683226642
 30
0.0
 10
177.0204421925394
 20
190.9622593335759
 30
0.0
  0
LINE
  5
113
330
1F
100
AcDbEntity
  8
0
  6
Continuous
 62
     7
370
    25
100
AcDbLine
 10
177.1777008501
 20
190.98987065
 30
0.0
 11
177.0204421925
 21
190.9622593336
 31
0.0
  0
LINE
  5
114
330
1F
100
AcDbEntity
  8
0
  6
Continuous
 62
     7
370
    25
100
AcDbLine
 10
177.7118805156
 20
191.8122593336
 30
0.0
 11
177.1777008501
 21
190.98987065
 31
0.0
  0
LINE
  5
115
330
1F
100
AcDbEntity
  8
0
  6
Continuous
 62
     7
370
    25
100
AcDbLine
 10
205.9929334386
 20
191.8633030557
 30
0.0
 11
204.2384166346
 21
191.8633030557
 31
0.0
  0
LINE
  5
116
330
1F
100
AcDbEntity
  8
0
  6
Continuous
 62
     7
370
    25
100
AcDbLine
 10
205.9929334386
 20
191.8633030557
 30
0.0
 11
206.1644261412
 21
191.9122593336
 31
0.0
  0
LINE
  5
117
330
1F
100
AcDbEntity
  8
0
  6
Continuous
 62
     7
370
    25
100
AcDbLine
 10
206.6247734843
 20
190.9622593336
 30
0.0
 11
204.9630102272
 21
190.9622593336
 31
0.0
  0
LINE
  5
118
330
1F
100
AcDbEntity
  8
0
  6
Continuous
 62
     7
370
    25
100
AcDbLine
 10
206.5013998488
 20
190.98987065
 30
0.0
 11
204.8057515696
 21
190.98987065
 31
0.0
  0
LINE
  5
119
330
1F
100
AcDbEntity
  8
0
  6
Continuous
 62
     7
370
    25
100
AcDbLine
 10
206.6247734843
 20
190.9622593336
 30
0.0
 11
206.5013998488
 21
190.98987065
 31
0.0
  0
LINE
  5
11A
330
1F
100
AcDbEntity
  8
0
  6
Continuous
 62
     7
370
    25
100
AcDbLine
 10
177.0204421925
 20
190.9622593336
 30
0.0
 11
175.3586789354
 21
190.9622593336
 31
0.0
  0
SPLINE
  5
11B
330
1F
100
AcDbEntity
  8
0
  6
Continuous
 62
     7
370
    25
100
AcDbSpline
210
0.0
220
0.0
230
1.0
 70
     8
 71
     3
 72
    28
 73
    24
 74
     0
 42
0.00000001
 43
0.00000001
 40
0.0
 40
0.0
 40
0.0
 40
0.0
 40
0.0594994271655687
 40
0.118316888548044
 40
0.1754352655774041
 40
0.2374541105260075
 40
0.2930309247280165
 40
0.3442436183307083
 40
0.3938073517291618
 40
0.4436856556105766
 40
0.4948165306862572
 40
0.5495222127615624
 40
0.6086007991381086
 40
0.6683106727200999
 40
0.7103861449892197
 40
0.7481251866245548
 40
0.7713545238455245
 40
0.7941002968541772
 40
0.8169387822983467
 40
0.8532977142935935
 40
0.8952353005281674
 40
0.9439815304161662
 40
1.0
 40
1.0
 40
1.0
 40
1.0
 10
175.3586789354221
 20
190.9622593335759
 30
0.0
 10
175.0112686297273
 20
190.1475180763619
 30
0.0
 10
174.3204299380381
 20
188.5273738982164
 30
0.0
 10
173.5836418978806
 20
186.0182726967064
 30
0.0
 10
173.032690508628
 20
183.427411080438
 30
0.0
 10
172.7086387119483
 20
180.8442357896589
 30
0.0
 10
172.6682043896522
 20
178.3276373080171
 30
0.0
 10
172.92494484348
 20
176.009738247716
 30
0.0
 10
173.4474158027639
 20
173.825022070789
 30
0.0
 10
174.2072296405581
 20
171.7143293681355
 30
0.0
 10
175.1655390589355
 20
169.603843936219
 30
0.0
 10
176.2958303385242
 20
167.4259676012675
 30
0.0
 10
177.5229510549061
 20
165.1562278624483
 30
0.0
 10
178.7808351456619
 20
163.1144512360927
 30
0.0
 10
180.1000990200585
 20
161.5050089164882
 30
0.0
 10
181.3059976736419
 20
160.5234400745642
 30
0.0
 10
182.476677043713
 20
160.0548787088553
 30
0.0
 10
183.5084694921951
 20
159.958504930089
 30
0.0
 10
184.7239684265841
 20
160.1427305677705
 30
0.0
 10
186.1135584369031
 20
160.7685190759481
 30
0.0
 10
187.6486627449586
 20
161.879815996287
 30
0.0
 10
189.2767506309112
 20
163.3353867540853
 30
0.0
 10
190.3942115080976
 20
164.4215806293275
 30
0.0
 10
190.9917262098567
 20
165.0023766309307
 30
0.0
  0
SPLINE
  5
11C
330
1F
100
AcDbEntity
  8
0
  6
Continuous
 62
     7
370
    25
100
AcDbSpline
210
0.0
220
0.0
230
1.0
 70
     8
 71
     3
 72
    28
 73
    24
 74
     0
 42
0.00000001
 43
0.00000001
 40
0.0
 40
0.0
 40
0.0
 40
0.0
 40
0.0594994271655687
 40
0.118316888548044
 40
0.175435265577404
 40
0.2374541105260073
 40
0.2930309247280163
 40
0.3442436183307082
 40
0.3938073517291617
 40
0.4436856556105765
 40
0.4948165306862572
 40
0.5495222127615623
 40
0.6086007991381084
 40
0.6683106727200997
 40
0.7103861449892194
 40
0.7481251866245545
 40
0.771354523845524
 40
0.7941002968541767
 40
0.8169387822983465
 40
0.8532977142935931
 40
0.895235300528167
 40
0.943981530416166
 40
1.0
 40
1.0
 40
1.0
 40
1.0
 10
206.6247734842914
 20
190.9622593335758
 30
0.0
 10
206.9721837899862
 20
190.1475180763618
 30
0.0
 10
207.6630224816754
 20
188.5273738982163
 30
0.0
 10
208.3998105218329
 20
186.0182726967063
 30
0.0
 10
208.9507619110855
 20
183.4274110804379
 30
0.0
 10
209.2748137077651
 20
180.8442357896587
 30
0.0
 10
209.3152480300612
 20
178.327637308017
 30
0.0
 10
209.0585075762334
 20
176.0097382477159
 30
0.0
 10
208.5360366169494
 20
173.8250220707889
 30
0.0
 10
207.7762227791553
 20
171.7143293681353
 30
0.0
 10
206.8179133607779
 20
169.6038439362189
 30
0.0
 10
205.6876220811892
 20
167.4259676012674
 30
0.0
 10
204.4605013648072
 20
165.1562278624482
 30
0.0
 10
203.2026172740514
 20
163.1144512360926
 30
0.0
 10
201.8833533996548
 20
161.5050089164881
 30
0.0
 10
200.6774547460714
 20
160.5234400745641
 30
0.0
 10
199.5067753760003
 20
160.0548787088553
 30
0.0
 10
198.4749829275182
 20
159.958504930089
 30
0.0
 10
197.2594839931292
 20
160.1427305677704
 30
0.0
 10
195.8698939828102
 20
160.7685190759481
 30
0.0
 10
194.3347896747547
 20
161.879815996287
 30
0.0
 10
192.7067017888021
 20
163.3353867540853
 30
0.0
 10
191.5892409116157
 20
164.4215806293275
 30
0.0
 10
190.9917262098567
 20
165.0023766309307
 30
0.0
  0
LINE
  5
11D
330
1F
100
AcDbEntity
  8
0
  6
Continuous
 62
     7
370
    25
100
AcDbLine
 10
177.1777008501
 20
190.98987065
 30
0.0
 11
175.4820525709
 21
190.98987065
 31
0.0
  0
LINE
  5
11E
330
1F
100
AcDbEntity
  8
0
  6
Continuous
 62
     7
370
    25
100
AcDbLine
 10
175.4820525709
 20
190.98987065
 30
0.0
 11
175.3586789354
 21
190.9622593336
 31
0.0
  0
LINE
  5
11F
330
1F
100
AcDbEntity
  8
0
  6
Continuous
 62
     7
370
    25
100
AcDbLine
 10
206.5013998488
 20
190.98987065
 30
0.0
 11
205.9929334386
 21
191.8633030557
 31
0.0
  0
LINE
  5
120
330
1F
100
AcDbEntity
  8
0
  6
Continuous
 62
     7
370
    25
100
AcDbLine
 10
175.9608040107
 20
191.8122593336
 30
0.0
 11
175.4820525709
 21
190.98987065
 31
0.0
  0
LINE
  5
121
330
1F
100
AcDbEntity
  8
0
  6
Continuous
 62
     7
370
    25
100
AcDbLine
 10
203.9917205806
 20
192.0122783576
 30
0.0
 11
203.6917450818
 21
192.0122782052
 31
0.0
  0
LINE
  5
122
330
1F
100
AcDbEntity
  8
0
  6
Continuous
 62
     7
370
    25
100
AcDbLine
 10
98.31286159
 20
192.0122246727
 30
0.0
 11
97.9917217607
 21
192.0122245096
 31
0.0
  0
LINE
  5
123
330
1F
100
AcDbEntity
  8
0
  6
Continuous
 62
     7
370
    25
100
AcDbLine
 10
203.9917205123
 20
192.146900513
 30
0.0
 11
203.9917205806
 21
192.0122783576
 31
0.0
  0
LINE
  5
124
330
1F
100
AcDbEntity
  8
0
  6
Continuous
 62
     7
370
    25
100
AcDbLine
 10
97.9917217607
 20
192.0122245096
 30
0.0
 11
97.9917216922
 21
192.146900513
 31
0.0
  0
ELLIPSE
  5
125
330
1F
100
AcDbEntity
  8
0
  6
Continuous
 62
     7
370
    25
100
AcDbEllipse
 10
217.036455972
 20
152.4013607205
 30
0.0
 11
-1.62832765257815
 21
1.62832765257815
 31
0.0
210
0.0
220
0.0
230
1.0
 40
0.998782766
 41
2.356803477777953
 42
3.92638182940166
  0
LINE
  5
126
330
1F
100
AcDbEntity
  8
0
  6
Continuous
 62
     7
370
    25
100
AcDbLine
 10
217.0392590218
 20
150.0999587686
 30
0.0
 11
216.9423128677
 21
150.1969049227
 31
0.0
  0
ELLIPSE
  5
127
330
1F
100
AcDbEntity
  8
0
  6
Continuous
 62
     7
370
    25
100
AcDbEllipse
 10
216.9404238559
 20
152.4973928366
 30
0.0
 11
1.627035794184991
 21
-1.627035794184991
 31
0.0
210
0.0
220
0.0
230
1.0
 40
0.9995757945
 41
5.498396131367778
 42
7.067974482991408
  0
LINE
  5
128
330
1F
100
AcDbEntity
  8
0
  6
Continuous
 62
     7
370
    25
100
AcDbLine
 10
219.2409117698
 20
152.4955038248
 30
0.0
 11
219.3378579239
 21
152.3985576707
 31
0.0
  0
LINE
  5
129
330
1F
100
AcDbEntity
  8
0
  6
Continuous
 62
     7
370
    25
100
AcDbLine
 10
84.9652941176
 20
225.271121477
 30
0.0
 11
217.0392590218
 21
225.271121477
 31
0.0
  0
LINE
  5
12A
330
1F
100
AcDbEntity
  8
0
  6
Continuous
 62
     7
370
    25
100
AcDbLine
 10
216.9423128677
 20
225.174175323
 30
0.0
 11
217.0392590218
 21
225.271121477
 31
0.0
  0
LINE
  5
12B
330
1F
100
AcDbEntity
  8
0
  6
Continuous
 62
     7
370
    25
100
AcDbLine
 10
85.0622402717
 20
225.174175323
 30
0.0
 11
216.9423128677
 21
225.174175323
 31
0.0
  0
LINE
  5
12C
330
1F
100
AcDbEntity
  8
0
  6
Continuous
 62
     7
370
    25
100
AcDbLine
 10
84.9652941176
 20
225.271121477
 30
0.0
 11
85.0622402717
 21
225.174175323
 31
0.0
  0
LINE
  5
12D
330
1F
100
AcDbEntity
  8
0
  6
Continuous
 62
     7
370
    25
100
AcDbLine
 10
219.3378579239
 20
152.3985576707
 30
0.0
 11
219.3378579239
 21
222.9725225749
 31
0.0
  0
ELLIPSE
  5
12E
330
1F
100
AcDbEntity
  8
0
  6
Continuous
 62
     7
370
    25
100
AcDbEllipse
 10
217.036455972
 20
222.9697195251
 30
0.0
 11
-1.62832765257815
 21
-1.62832765257815
 31
0.0
210
0.0
220
0.0
230
1.0
 40
0.998782766
 41
2.356803477777944
 42
3.926381829401656
  0
ELLIPSE
  5
12F
330
1F
100
AcDbEntity
  8
0
  6
Continuous
 62
     7
370
    25
100
AcDbEllipse
 10
84.9680971674
 20
222.9697195251
 30
0.0
 11
1.628327652578136
 21
-1.62832765257815
 31
0.0
210
0.0
220
0.0
230
1.0
 40
0.998782766
 41
2.35680347777797
 42
3.926381829401645
  0
LINE
  5
130
330
1F
100
AcDbEntity
  8
0
  6
Continuous
 62
     7
370
    25
100
AcDbLine
 10
82.6666952155
 20
222.9725225749
 30
0.0
 11
82.6666952155
 21
152.3985576707
 31
0.0
  0
ELLIPSE
  5
131
330
1F
100
AcDbEntity
  8
0
  6
Continuous
 62
     7
370
    25
100
AcDbEllipse
 10
84.9680971674
 20
152.4013607205
 30
0.0
 11
1.628327652578136
 21
1.62832765257815
 31
0.0
210
0.0
220
0.0
230
1.0
 40
0.998782766
 41
2.356803477777932
 42
3.926381829401641
  0
LINE
  5
132
330
1F
100
AcDbEntity
  8
0
  6
Continuous
 62
     7
370
    25
100
AcDbLine
 10
217.0392590218
 20
150.0999587686
 30
0.0
 11
84.9652941176
 21
150.0999587686
 31
0.0
  0
LINE
  5
133
330
1F
100
AcDbEntity
  8
0
  6
Continuous
 62
     7
370
    25
100
AcDbLine
 10
85.0622402717
 20
150.1969049227
 30
0.0
 11
84.9652941176
 21
150.0999587686
 31
0.0
  0
LINE
  5
134
330
1F
100
AcDbEntity
  8
0
  6
Continuous
 62
     7
370
    25
100
AcDbLine
 10
216.9423128677
 20
150.1969049227
 30
0.0
 11
85.0622402717
 21
150.1969049227
 31
0.0
  0
LINE
  5
135
330
1F
100
AcDbEntity
  8
0
  6
Continuous
 62
     7
370
    25
100
AcDbLine
 10
219.3378579239
 20
222.9725225749
 30
0.0
 11
219.2409117698
 21
222.8755764208
 31
0.0
  0
ELLIPSE
  5
136
330
1F
100
AcDbEntity
  8
0
  6
Continuous
 62
     7
370
    25
100
AcDbEllipse
 10
216.9404238559
 20
222.873687409
 30
0.0
 11
1.627035794184991
 21
1.627035794184991
 31
0.0
210
0.0
220
0.0
230
1.0
 40
0.9995757945
 41
5.498396131367778
 42
7.067974482991396
  0
LINE
  5
137
330
1F
100
AcDbEntity
  8
0
  6
Continuous
 62
     7
370
    25
100
AcDbLine
 10
219.2409117698
 20
222.8755764208
 30
0.0
 11
219.2409117698
 21
152.4955038248
 31
0.0
  0
LINE
  5
138
330
1F
100
AcDbEntity
  8
0
  6
Continuous
 62
     7
370
    25
100
AcDbLine
 10
82.6666952155
 20
152.3985576707
 30
0.0
 11
82.7636413695
 21
152.4955038248
 31
0.0
  0
ELLIPSE
  5
139
330
1F
100
AcDbEntity
  8
0
  6
Continuous
 62
     7
370
    25
100
AcDbEllipse
 10
85.0641292835
 20
152.4973928366
 30
0.0
 11
1.627035794185148
 21
1.627035794184849
 31
0.0
210
0.0
220
0.0
230
1.0
 40
0.9995757945
 41
2.356803477778062
 42
3.926381829401721
  0
ELLIPSE
  5
13A
330
1F
100
AcDbEntity
  8
0
  6
Continuous
 62
     7
370
    25
100
AcDbEllipse
 10
85.0641292835
 20
222.873687409
 30
0.0
 11
1.627035794185148
 21
-1.627035794184849
 31
0.0
210
0.0
220
0.0
230
1.0
 40
0.9995757945
 41
2.356803477777885
 42
3.926381829401544
  0
LINE
  5
13B
330
1F
100
AcDbEntity
  8
0
  6
Continuous
 62
     7
370
    25
100
AcDbLine
 10
82.7636413695
 20
222.8755764208
 30
0.0
 11
82.6666952155
 21
222.9725225749
 31
0.0
  0
LINE
  5
13C
330
1F
100
AcDbEntity
  8
0
  6
Continuous
 62
     7
370
    25
100
AcDbLine
 10
82.7636413695
 20
152.4955038248
 30
0.0
 11
82.7636413695
 21
222.8755764208
 31
0.0
  0
LINE
  5
13D
330
1F
100
AcDbEntity
  8
0
  6
Continuous
 62
     7
370
    25
100
AcDbLine
 10
85.0622402717
 20
150.9464480429
 30
0.0
 11
216.9423128677
 21
150.9464480429
 31
0.0
  0
LINE
  5
13E
330
1F
100
AcDbEntity
  8
0
  6
Continuous
 62
     7
370
    25
100
AcDbLine
 10
216.9423128677
 20
150.9464480429
 30
0.0
 11
216.9423128677
 21
150.1969049227
 31
0.0
  0
LINE
  5
13F
330
1F
100
AcDbEntity
  8
0
  6
Continuous
 62
     7
370
    25
100
AcDbLine
 10
85.0622402717
 20
150.9464480429
 30
0.0
 11
85.0622402717
 21
150.1969049227
 31
0.0
  0
LINE
  5
140
330
1F
100
AcDbEntity
  8
0
  6
Continuous
 62
     7
370
    25
100
AcDbLine
 10
216.9423128677
 20
225.174175323
 30
0.0
 11
216.9423128677
 21
224.4246322027
 31
0.0
  0
LINE
  5
141
330
1F
100
AcDbEntity
  8
0
  6
Continuous
 62
     7
370
    25
100
AcDbLine
 10
216.9423128677
 20
224.4246322027
 30
0.0
 11
85.0622402717
 21
224.4246322027
 31
0.0
  0
LINE
  5
142
330
1F
100
AcDbEntity
  8
0
  6
Continuous
 62
     7
370
    25
100
AcDbLine
 10
85.0622402717
 20
225.174175323
 30
0.0
 11
85.0622402717
 21
224.4246322027
 31
0.0
  0
ARC
  5
143
330
1F
100
AcDbEntity
  8
0
  6
Continuous
 62
     7
370
    25
100
AcDbCircle
 10
207.6917262102
 20
173.258820912
 30
0.0
 40
1.650000000000008
100
AcDbArc
 50
270.4800579332
 51
53.0110984177
  0
ARC
  5
144
330
1F
100
AcDbEntity
  8
0
  6
Continuous
 62
     7
370
    25
100
AcDbCircle
 10
94.3128269292
 20
173.258820912
 30
0.0
 40
1.64999999999999
100
AcDbArc
 50
127.3979543302
 51
268.9800406763
  0
ARC
  5
145
330
1F
100
AcDbEntity
  8
0
  6
Continuous
 62
     7
370
    25
100
AcDbCircle
 10
207.6917262102
 20
173.258820912
 30
0.0
 40
1.625579015830908
100
AcDbArc
 50
270.0
 51
52.7970110124
  0
ARC
  5
146
330
1F
100
AcDbEntity
  8
0
  6
Continuous
 62
     7
370
    25
100
AcDbCircle
 10
94.3128269292
 20
173.258820912
 30
0.0
 40
1.625579015830918
100
AcDbArc
 50
128.2362992271
 51
270.0
  0
ELLIPSE
  5
147
330
1F
100
AcDbEntity
  8
0
  6
Continuous
 62
     8
370
    25
100
AcDbEllipse
 10
216.9404238559
 20
152.4973928366
 30
0.0
 11
-1.097351244128731
 21
1.097351244128731
 31
0.0
210
0.0
220
0.0
230
1.0
 40
0.998782766
 41
2.356803477777986
 42
3.468419378888311
  0
LINE
  5
148
330
1F
100
AcDbEntity
  8
0
  6
Continuous
 62
     8
370
    25
100
AcDbLine
 10
219.2409117698
 20
152.4955038248
 30
0.0
 11
218.6198668265
 21
152.4955038248
 31
0.0
  0
LINE
  5
149
330
1F
100
AcDbEntity
  8
0
  6
Continuous
 62
     8
370
    25
100
AcDbLine
 10
219.2409117698
 20
222.8755764208
 30
0.0
 11
218.6198668265
 21
222.8755764208
 31
0.0
  0
ELLIPSE
  5
14A
330
1F
100
AcDbEntity
  8
0
  6
Continuous
 62
     8
370
    25
100
AcDbEllipse
 10
216.9404238559
 20
222.873687409
 30
0.0
 11
-1.097351244128731
 21
-1.09735124412876
 31
0.0
210
0.0
220
0.0
230
1.0
 40
0.998782766
 41
2.81476219129294
 42
3.926381829401638
  0
ELLIPSE
  5
14B
330
1F
100
AcDbEntity
  8
0
  6
Continuous
 62
     8
370
    25
100
AcDbEllipse
 10
85.0641292835
 20
152.4973928366
 30
0.0
 11
1.097351244128731
 21
1.097351244128731
 31
0.0
210
0.0
220
0.0
230
1.0
 40
0.998782766
 41
2.814765578625228
 42
3.926381829401614
  0
LINE
  5
14C
330
1F
100
AcDbEntity
  8
0
  6
Continuous
 62
     8
370
    25
100
AcDbLine
 10
83.3846863129
 20
152.4955038248
 30
0.0
 11
82.7636413695
 21
152.4955038248
 31
0.0
  0
ELLIPSE
  5
14D
330
1F
100
AcDbEntity
  8
0
  6
Continuous
 62
     8
370
    25
100
AcDbEllipse
 10
85.0641292835
 20
222.873687409
 30
0.0
 11
1.097351244128731
 21
-1.09735124412876
 31
0.0
210
0.0
220
0.0
230
1.0
 40
0.998782766
 41
2.356803477777999
 42
3.468419833335075
  0
LINE
  5
14E
330
1F
100
AcDbEntity
  8
0
  6
Continuous
 62
     8
370
    25
100
AcDbLine
 10
83.3846863129
 20
222.8755764208
 30
0.0
 11
82.7636413695
 21
222.8755764208
 31
0.0
  0
LINE
  5
14F
330
1F
100
AcDbEntity
  8
0
  6
Continuous
 62
     8
370
    25
100
AcDbLine
 10
146.1760075181
 20
160.8929503888
 30
0.0
 11
146.1760075181
 21
159.7337515554
 31
0.0
  0
LINE
  5
150
330
1F
100
AcDbEntity
  8
0
  6
Continuous
 62
     8
370
    25
100
AcDbLine
 10
155.8285456213
 20
159.7337515554
 30
0.0
 11
155.8285456213
 21
160.87833281
 31
0.0
  0
LINE
  5
151
330
1F
100
AcDbEntity
  8
0
  6
Continuous
 62
     8
370
    25
100
AcDbLine
 10
142.17844421
 20
159.7337515554
 30
0.0
 11
142.17844421
 21
160.2245692644
 31
0.0
  0
LINE
  5
152
330
1F
100
AcDbEntity
  8
0
  6
Continuous
 62
     8
370
    25
100
AcDbLine
 10
159.8261089293
 20
160.2327703519
 30
0.0
 11
159.8261089293
 21
159.7337515554
 31
0.0
  0
LINE
  5
153
330
1F
100
AcDbEntity
  8
0
  6
Continuous
 62
     8
370
    25
100
AcDbLine
 10
142.1758427006
 20
160.2255804979
 30
0.0
 11
142.1758427006
 21
159.7337515554
 31
0.0
  0
LINE
  5
154
330
1F
100
AcDbEntity
  8
0
  6
Continuous
 62
     8
370
    25
100
AcDbLine
 10
159.8287104388
 20
159.7337515554
 30
0.0
 11
159.8287104388
 21
160.2337815854
 31
0.0
  0
LINE
  5
155
330
1F
100
AcDbEntity
  8
0
  6
Continuous
 62
     8
370
    25
100
AcDbLine
 10
141.1764518736
 20
159.7337515554
 30
0.0
 11
141.1764518736
 21
160.7464557991
 31
0.0
  0
LINE
  5
156
330
1F
100
AcDbEntity
  8
0
  6
Continuous
 62
     8
370
    25
100
AcDbLine
 10
160.8281012658
 20
160.7625782432
 30
0.0
 11
160.8281012658
 21
159.7337515554
 31
0.0
  0
ARC
  5
157
330
1F
100
AcDbEntity
  8
0
  6
Continuous
 62
     8
370
    25
100
AcDbCircle
 10
207.6917262102
 20
173.258820912
 30
0.0
 40
1.790072247626045
100
AcDbArc
 50
268.3871278129
 51
55.1734290833
  0
ARC
  5
158
330
1F
100
AcDbEntity
  8
0
  6
Continuous
 62
     8
370
    25
100
AcDbCircle
 10
207.6917262102
 20
173.258820912
 30
0.0
 40
2.089889495731781
100
AcDbArc
 50
21.4173602962
 51
58.1397725395
  0
ARC
  5
159
330
1F
100
AcDbEntity
  8
0
  6
Continuous
 62
     8
370
    25
100
AcDbCircle
 10
207.6917262102
 20
173.258820912
 30
0.0
 40
2.089889495731758
100
AcDbArc
 50
264.8510362658
 51
338.5826397038
  0
ARC
  5
15A
330
1F
100
AcDbEntity
  8
0
  6
Continuous
 62
     8
370
    25
100
AcDbCircle
 10
94.3128269292
 20
173.258820912
 30
0.0
 40
2.089889495731768
100
AcDbArc
 50
201.4173602961
 51
274.3210428438
  0
ARC
  5
15B
330
1F
100
AcDbEntity
  8
0
  6
Continuous
 62
     8
370
    25
100
AcDbCircle
 10
94.3128269292
 20
173.258820912
 30
0.0
 40
2.089889495731768
100
AcDbArc
 50
122.3153544843
 51
158.5826397039
  0
ARC
  5
15C
330
1F
100
AcDbEntity
  8
0
  6
Continuous
 62
     8
370
    25
100
AcDbCircle
 10
94.3128269292
 20
173.258820912
 30
0.0
 40
1.790072247626058
100
AcDbArc
 50
125.7920808862
 51
270.9716209502
  0
ARC
  5
15D
330
1F
100
AcDbEntity
  8
0
  6
Continuous
 62
     8
370
    25
100
AcDbCircle
 10
207.6917262102
 20
173.258820912
 30
0.0
 40
1.618229246748645
100
AcDbArc
 50
270.0
 51
52.4513107577
  0
ARC
  5
15E
330
1F
100
AcDbEntity
  8
0
  6
Continuous
 62
     8
370
    25
100
AcDbCircle
 10
94.3128269292
 20
173.258820912
 30
0.0
 40
1.618229246748645
100
AcDbArc
 50
128.0807060029
 51
270.0
  0
ARC
  5
15F
330
1F
100
AcDbEntity
  8
0
  6
Continuous
 62
     8
370
    25
100
AcDbCircle
 10
207.6917262102
 20
173.258820912
 30
0.0
 40
1.318411998642909
100
AcDbArc
 50
276.1716333948
 51
46.619497366
  0
ARC
  5
160
330
1F
100
AcDbEntity
  8
0
  6
Continuous
 62
     8
370
    25
100
AcDbCircle
 10
94.3128269292
 20
173.258820912
 30
0.0
 40
1.318411998642926
100
AcDbArc
 50
134.0808378719
 51
262.5410203201
  0
LINE
  5
161
330
1F
100
AcDbEntity
  8
0
  6
Continuous
 62
     7
370
    25
100
AcDbLine
 10
205.7522765697
 20
100.4594046398
 30
0.0
 11
205.7522765697
 21
103.4594046398
 31
0.0
  0
LINE
  5
162
330
1F
100
AcDbEntity
  8
0
  6
Continuous
 62
     7
370
    25
100
AcDbLine
 10
187.2522765697
 20
103.4594046398
 30
0.0
 11
187.2522765697
 21
100.4594046398
 31
0.0
  0
LINE
  5
163
330
1F
100
AcDbEntity
  8
0
  6
Continuous
 62
     7
370
    25
100
AcDbLine
 10
114.7522765697
 20
100.4594046398
 30
0.0
 11
114.7522765697
 21
103.4594046398
 31
0.0
  0
LINE
  5
164
330
1F
100
AcDbEntity
  8
0
  6
Continuous
 62
     7
370
    25
100
AcDbLine
 10
96.2522765697
 20
103.4594046398
 30
0.0
 11
96.2522765697
 21
100.4594046398
 31
0.0
  0
LINE
  5
165
330
1F
100
AcDbEntity
  8
0
  6
Continuous
 62
     7
370
    25
100
AcDbLine
 10
85.1522765697
 20
15.0094046398
 30
0.0
 11
83.3522765697
 21
15.0094046398
 31
0.0
  0
LINE
  5
166
330
1F
100
AcDbEntity
  8
0
  6
Continuous
 62
     7
370
    25
100
AcDbLine
 10
83.3522765697
 20
15.0094046398
 30
0.0
 11
83.3522765697
 21
16.4594046398
 31
0.0
  0
LINE
  5
167
330
1F
100
AcDbEntity
  8
0
  6
Continuous
 62
     7
370
    25
100
AcDbLine
 10
216.8522765697
 20
15.0094046398
 30
0.0
 11
85.1522765697
 21
15.0094046398
 31
0.0
  0
LINE
  5
168
330
1F
100
AcDbEntity
  8
0
  6
Continuous
 62
     7
370
    25
100
AcDbLine
 10
218.6522765697
 20
15.0094046398
 30
0.0
 11
216.8522765697
 21
15.0094046398
 31
0.0
  0
LINE
  5
169
330
1F
100
AcDbEntity
  8
0
  6
Continuous
 62
     7
370
    25
100
AcDbLine
 10
218.6522765697
 20
16.4594046398
 30
0.0
 11
218.6522765697
 21
15.0094046398
 31
0.0
  0
LINE
  5
16A
330
1F
100
AcDbEntity
  8
0
  6
Continuous
 62
     7
370
    25
100
AcDbLine
 10
123.6522765697
 20
93.5292155415
 30
0.0
 11
124.6522765697
 21
93.5292155415
 31
0.0
  0
LINE
  5
16B
330
1F
100
AcDbEntity
  8
0
  6
Continuous
 62
     7
370
    25
100
AcDbLine
 10
123.6522765697
 20
93.5292155415
 30
0.0
 11
123.6522765697
 21
20.2594046398
 31
0.0
  0
LINE
  5
16C
330
1F
100
AcDbEntity
  8
0
  6
Continuous
 62
     7
370
    25
100
AcDbLine
 10
124.6522765697
 20
93.5292155415
 30
0.0
 11
124.6522765697
 21
20.2594046398
 31
0.0
  0
LINE
  5
16D
330
1F
100
AcDbEntity
  8
0
  6
Continuous
 62
     7
370
    25
100
AcDbLine
 10
140.0022765697
 20
93.5292155415
 30
0.0
 11
141.0022765697
 21
93.5292155415
 31
0.0
  0
LINE
  5
16E
330
1F
100
AcDbEntity
  8
0
  6
Continuous
 62
     7
370
    25
100
AcDbLine
 10
141.0022765697
 20
93.5292155415
 30
0.0
 11
141.0022765697
 21
20.2594046398
 31
0.0
  0
LINE
  5
16F
330
1F
100
AcDbEntity
  8
0
  6
Continuous
 62
     7
370
    25
100
AcDbLine
 10
140.0022765697
 20
93.5292155415
 30
0.0
 11
140.0022765697
 21
20.2594046398
 31
0.0
  0
LINE
  5
170
330
1F
100
AcDbEntity
  8
0
  6
Continuous
 62
     7
370
    25
100
AcDbLine
 10
178.3522765697
 20
93.5292155415
 30
0.0
 11
177.3522765697
 21
93.5292155415
 31
0.0
  0
LINE
  5
171
330
1F
100
AcDbEntity
  8
0
  6
Continuous
 62
     7
370
    25
100
AcDbLine
 10
178.3522765697
 20
93.5292155415
 30
0.0
 11
178.3522765697
 21
20.2594046398
 31
0.0
  0
LINE
  5
172
330
1F
100
AcDbEntity
  8
0
  6
Continuous
 62
     7
370
    25
100
AcDbLine
 10
177.3522765697
 20
93.5292155415
 30
0.0
 11
177.3522765697
 21
20.2594046398
 31
0.0
  0
LINE
  5
173
330
1F
100
AcDbEntity
  8
0
  6
Continuous
 62
     7
370
    25
100
AcDbLine
 10
162.0022765697
 20
93.5292155415
 30
0.0
 11
161.0022765697
 21
93.5292155415
 31
0.0
  0
LINE
  5
174
330
1F
100
AcDbEntity
  8
0
  6
Continuous
 62
     7
370
    25
100
AcDbLine
 10
161.0022765697
 20
93.5292155415
 30
0.0
 11
161.0022765697
 21
20.2594046398
 31
0.0
  0
LINE
  5
175
330
1F
100
AcDbEntity
  8
0
  6
Continuous
 62
     7
370
    25
100
AcDbLine
 10
162.0022765697
 20
93.5292155415
 30
0.0
 11
162.0022765697
 21
20.2594046398
 31
0.0
  0
LINE
  5
176
330
1F
100
AcDbEntity
  8
0
  6
Continuous
 62
     7
370
    25
100
AcDbLine
 10
194.7022765697
 20
93.5292155415
 30
0.0
 11
193.7022765697
 21
93.5292155415
 31
0.0
  0
LINE
  5
177
330
1F
100
AcDbEntity
  8
0
  6
Continuous
 62
     7
370
    25
100
AcDbLine
 10
193.7022765697
 20
93.5292155415
 30
0.0
 11
193.7022765697
 21
20.2594046398
 31
0.0
  0
LINE
  5
178
330
1F
100
AcDbEntity
  8
0
  6
Continuous
 62
     7
370
    25
100
AcDbLine
 10
194.7022765697
 20
93.5292155415
 30
0.0
 11
194.7022765697
 21
20.2594046398
 31
0.0
  0
LINE
  5
179
330
1F
100
AcDbEntity
  8
0
  6
Continuous
 62
     7
370
    25
100
AcDbLine
 10
107.3022765697
 20
93.5292155415
 30
0.0
 11
108.3022765697
 21
93.5292155415
 31
0.0
  0
LINE
  5
17A
330
1F
100
AcDbEntity
  8
0
  6
Continuous
 62
     7
370
    25
100
AcDbLine
 10
108.3022765697
 20
93.5292155415
 30
0.0
 11
108.3022765697
 21
20.2594046398
 31
0.0
  0
LINE
  5
17B
330
1F
100
AcDbEntity
  8
0
  6
Continuous
 62
     7
370
    25
100
AcDbLine
 10
107.3022765697
 20
93.5292155415
 30
0.0
 11
107.3022765697
 21
20.2594046398
 31
0.0
  0
LINE
  5
17C
330
1F
100
AcDbEntity
  8
0
  6
Continuous
 62
     7
370
    25
100
AcDbLine
 10
211.0522765697
 20
93.5292155415
 30
0.0
 11
210.0522765697
 21
93.5292155415
 31
0.0
  0
LINE
  5
17D
330
1F
100
AcDbEntity
  8
0
  6
Continuous
 62
     7
370
    25
100
AcDbLine
 10
210.0522765697
 20
93.5292155415
 30
0.0
 11
210.0522765697
 21
20.2594046398
 31
0.0
  0
LINE
  5
17E
330
1F
100
AcDbEntity
  8
0
  6
Continuous
 62
     7
370
    25
100
AcDbLine
 10
211.0522765697
 20
93.5292155415
 30
0.0
 11
211.0522765697
 21
20.2594046398
 31
0.0
  0
LINE
  5
17F
330
1F
100
AcDbEntity
  8
0
  6
Continuous
 62
     7
370
    25
100
AcDbLine
 10
90.9522765697
 20
93.5292155415
 30
0.0
 11
91.9522765697
 21
93.5292155415
 31
0.0
  0
LINE
  5
180
330
1F
100
AcDbEntity
  8
0
  6
Continuous
 62
     7
370
    25
100
AcDbLine
 10
90.9522765697
 20
93.5292155415
 30
0.0
 11
90.9522765697
 21
20.2594046398
 31
0.0
  0
LINE
  5
181
330
1F
100
AcDbEntity
  8
0
  6
Continuous
 62
     7
370
    25
100
AcDbLine
 10
91.9522765697
 20
93.5292155415
 30
0.0
 11
91.9522765697
 21
20.2594046398
 31
0.0
  0
ELLIPSE
  5
182
330
1F
100
AcDbEntity
  8
0
  6
Continuous
 62
     7
370
    25
100
AcDbEllipse
 10
87.9475922298
 20
93.4594046398
 30
0.0
 11
12.00039000249839
 21
-0.05584630253558487
 31
0.0
210
0.0
220
0.0
230
1.0
 40
0.0046532033
 41
1.570947951539905
 42
3.141549335853846
  0
LINE
  5
183
330
1F
100
AcDbEntity
  8
0
  6
Continuous
 62
     7
370
    25
100
AcDbLine
 10
74.9242911698
 20
20.2594046398
 30
0.0
 11
75.9472022498
 21
93.5152533611
 31
0.0
  0
ELLIPSE
  5
184
330
1F
100
AcDbEntity
  8
0
  6
Continuous
 62
     7
370
    25
100
AcDbEllipse
 10
214.0569609096
 20
93.4594046398
 30
0.0
 11
12.00039000249842
 21
0.05584630253557066
 31
0.0
210
0.0
220
0.0
230
1.0
 40
0.0046532033
 41
0.000043317736241
 42
1.570644702049887
  0
LINE
  5
185
330
1F
100
AcDbEntity
  8
0
  6
Continuous
 62
     7
370
    25
100
AcDbLine
 10
226.0573508896
 20
93.5152533611
 30
0.0
 11
227.0802619696
 21
20.2594046398
 31
0.0
  0
LINE
  5
186
330
1F
100
AcDbEntity
  8
0
  6
Continuous
 62
     7
370
    25
100
AcDbLine
 10
123.6522765697
 20
93.5152533611
 30
0.0
 11
108.3022765697
 21
93.5152533611
 31
0.0
  0
LINE
  5
187
330
1F
100
AcDbEntity
  8
0
  6
Continuous
 62
     7
370
    25
100
AcDbLine
 10
177.3522765697
 20
93.5152533611
 30
0.0
 11
162.0022765697
 21
93.5152533611
 31
0.0
  0
LINE
  5
188
330
1F
100
AcDbEntity
  8
0
  6
Continuous
 62
     7
370
    25
100
AcDbLine
 10
214.0585206014
 20
93.5152533611
 30
0.0
 11
211.0522765697
 21
93.5152533611
 31
0.0
  0
LINE
  5
189
330
1F
100
AcDbEntity
  8
0
  6
Continuous
 62
     7
370
    25
100
AcDbLine
 10
143.8741553691
 20
29.8655126617
 30
0.0
 11
143.3186924971
 21
93.5152533611
 31
0.0
  0
ARC
  5
18A
330
1F
100
AcDbEntity
  8
0
  6
Continuous
 62
     7
370
    25
100
AcDbCircle
 10
146.3740601768
 20
29.8873290004
 30
0.0
 40
2.500000000000004
100
AcDbArc
 50
180.5
 51
270.0
  0
LINE
  5
18B
330
1F
100
AcDbEntity
  8
0
  6
Continuous
 62
     7
370
    25
100
AcDbLine
 10
155.6304929626
 20
27.3873290004
 30
0.0
 11
146.3740601768
 21
27.3873290004
 31
0.0
  0
ARC
  5
18C
330
1F
100
AcDbEntity
  8
0
  6
Continuous
 62
     7
370
    25
100
AcDbCircle
 10
155.6304929626
 20
29.8873290004
 30
0.0
 40
2.500000000000004
100
AcDbArc
 50
270.0
 51
359.5
  0
LINE
  5
18D
330
1F
100
AcDbEntity
  8
0
  6
Continuous
 62
     7
370
    25
100
AcDbLine
 10
158.6858606423
 20
93.5152533611
 30
0.0
 11
158.1303977703
 21
29.8655126617
 31
0.0
  0
LINE
  5
18E
330
1F
100
AcDbEntity
  8
0
  6
Continuous
 62
     7
370
    25
100
AcDbLine
 10
161.0022765697
 20
93.5152533611
 30
0.0
 11
158.6858606423
 21
93.5152533611
 31
0.0
  0
LINE
  5
18F
330
1F
100
AcDbEntity
  8
0
  6
Continuous
 62
     7
370
    25
100
AcDbLine
 10
143.3186924971
 20
93.5152533611
 30
0.0
 11
141.0022765697
 21
93.5152533611
 31
0.0
  0
LINE
  5
190
330
1F
100
AcDbEntity
  8
0
  6
Continuous
 62
     7
370
    25
100
AcDbLine
 10
90.9522765697
 20
93.5152533611
 30
0.0
 11
87.9460325379
 21
93.5152533611
 31
0.0
  0
LINE
  5
191
330
1F
100
AcDbEntity
  8
0
  6
Continuous
 62
     7
370
    25
100
AcDbLine
 10
107.3022765697
 20
93.5152533611
 30
0.0
 11
91.9522765697
 21
93.5152533611
 31
0.0
  0
LINE
  5
192
330
1F
100
AcDbEntity
  8
0
  6
Continuous
 62
     7
370
    25
100
AcDbLine
 10
107.1652932636
 20
24.4594046398
 30
0.0
 11
91.9652932636
 21
24.4594046398
 31
0.0
  0
LINE
  5
193
330
1F
100
AcDbEntity
  8
0
  6
Continuous
 62
     7
370
    25
100
AcDbLine
 10
91.9652932636
 20
24.4594046398
 30
0.0
 11
91.9652932636
 21
21.9594046398
 31
0.0
  0
LINE
  5
194
330
1F
100
AcDbEntity
  8
0
  6
Continuous
 62
     7
370
    25
100
AcDbLine
 10
91.9652932636
 20
21.9594046398
 30
0.0
 11
107.1652932636
 21
21.9594046398
 31
0.0
  0
LINE
  5
195
330
1F
100
AcDbEntity
  8
0
  6
Continuous
 62
     7
370
    25
100
AcDbLine
 10
107.1652932636
 20
21.9594046398
 30
0.0
 11
107.1652932636
 21
24.4594046398
 31
0.0
  0
LINE
  5
196
330
1F
100
AcDbEntity
  8
0
  6
Continuous
 62
     7
370
    25
100
AcDbLine
 10
140.0022765697
 20
93.5152533611
 30
0.0
 11
124.6522765697
 21
93.5152533611
 31
0.0
  0
LINE
  5
197
330
1F
100
AcDbEntity
  8
0
  6
Continuous
 62
     7
370
    25
100
AcDbLine
 10
193.7022765697
 20
93.5152533611
 30
0.0
 11
178.3522765697
 21
93.5152533611
 31
0.0
  0
LINE
  5
198
330
1F
100
AcDbEntity
  8
0
  6
Continuous
 62
     7
370
    25
100
AcDbLine
 10
210.0522765697
 20
93.5152533611
 30
0.0
 11
194.7022765697
 21
93.5152533611
 31
0.0
  0
LINE
  5
199
330
1F
100
AcDbEntity
  8
0
  6
Continuous
 62
     7
370
    25
100
AcDbLine
 10
210.0392598758
 20
24.4594046398
 30
0.0
 11
210.0392598758
 21
21.9594046398
 31
0.0
  0
LINE
  5
19A
330
1F
100
AcDbEntity
  8
0
  6
Continuous
 62
     7
370
    25
100
AcDbLine
 10
194.8392598758
 20
24.4594046398
 30
0.0
 11
210.0392598758
 21
24.4594046398
 31
0.0
  0
LINE
  5
19B
330
1F
100
AcDbEntity
  8
0
  6
Continuous
 62
     7
370
    25
100
AcDbLine
 10
194.8392598758
 20
21.9594046398
 30
0.0
 11
194.8392598758
 21
24.4594046398
 31
0.0
  0
LINE
  5
19C
330
1F
100
AcDbEntity
  8
0
  6
Continuous
 62
     7
370
    25
100
AcDbLine
 10
210.0392598758
 20
21.9594046398
 30
0.0
 11
194.8392598758
 21
21.9594046398
 31
0.0
  0
LINE
  5
19D
330
1F
100
AcDbEntity
  8
0
  6
Continuous
 62
     7
370
    25
100
AcDbLine
 10
193.7022765697
 20
98.4556897233
 30
0.0
 11
194.7022765697
 21
98.4556897233
 31
0.0
  0
LINE
  5
19E
330
1F
100
AcDbEntity
  8
0
  6
Continuous
 62
     7
370
    25
100
AcDbLine
 10
193.7022765697
 20
98.4556897233
 30
0.0
 11
193.7022765697
 21
93.5292155415
 31
0.0
  0
LINE
  5
19F
330
1F
100
AcDbEntity
  8
0
  6
Continuous
 62
     7
370
    25
100
AcDbLine
 10
194.7022765697
 20
98.4556897233
 30
0.0
 11
194.7022765697
 21
93.5292155415
 31
0.0
  0
LINE
  5
1A0
330
1F
100
AcDbEntity
  8
0
  6
Continuous
 62
     7
370
    25
100
AcDbLine
 10
178.3522765697
 20
98.4594046398
 30
0.0
 11
177.3522765697
 21
98.4594046398
 31
0.0
  0
LINE
  5
1A1
330
1F
100
AcDbEntity
  8
0
  6
Continuous
 62
     7
370
    25
100
AcDbLine
 10
178.3522765697
 20
98.4594046398
 30
0.0
 11
178.3522765697
 21
93.5292155415
 31
0.0
  0
LINE
  5
1A2
330
1F
100
AcDbEntity
  8
0
  6
Continuous
 62
     7
370
    25
100
AcDbLine
 10
177.3522765697
 20
98.4594046398
 30
0.0
 11
177.3522765697
 21
93.5292155415
 31
0.0
  0
LINE
  5
1A3
330
1F
100
AcDbEntity
  8
0
  6
Continuous
 62
     7
370
    25
100
AcDbLine
 10
162.0022765697
 20
98.4594046398
 30
0.0
 11
161.0022765697
 21
98.4594046398
 31
0.0
  0
LINE
  5
1A4
330
1F
100
AcDbEntity
  8
0
  6
Continuous
 62
     7
370
    25
100
AcDbLine
 10
161.0022765697
 20
98.4594046398
 30
0.0
 11
161.0022765697
 21
93.5292155415
 31
0.0
  0
LINE
  5
1A5
330
1F
100
AcDbEntity
  8
0
  6
Continuous
 62
     7
370
    25
100
AcDbLine
 10
162.0022765697
 20
98.4594046398
 30
0.0
 11
162.0022765697
 21
93.5292155415
 31
0.0
  0
LINE
  5
1A6
330
1F
100
AcDbEntity
  8
0
  6
Continuous
 62
     7
370
    25
100
AcDbLine
 10
90.9522765697
 20
98.4594046398
 30
0.0
 11
91.9522765697
 21
98.4594046398
 31
0.0
  0
LINE
  5
1A7
330
1F
100
AcDbEntity
  8
0
  6
Continuous
 62
     7
370
    25
100
AcDbLine
 10
90.9522765697
 20
98.4594046398
 30
0.0
 11
90.9522765697
 21
93.5292155415
 31
0.0
  0
LINE
  5
1A8
330
1F
100
AcDbEntity
  8
0
  6
Continuous
 62
     7
370
    25
100
AcDbLine
 10
91.9522765697
 20
98.4594046398
 30
0.0
 11
91.9522765697
 21
93.5292155415
 31
0.0
  0
LINE
  5
1A9
330
1F
100
AcDbEntity
  8
0
  6
Continuous
 62
     7
370
    25
100
AcDbLine
 10
211.0522765697
 20
98.4594046398
 30
0.0
 11
210.0522765697
 21
98.4594046398
 31
0.0
  0
LINE
  5
1AA
330
1F
100
AcDbEntity
  8
0
  6
Continuous
 62
     7
370
    25
100
AcDbLine
 10
210.0522765697
 20
98.4594046398
 30
0.0
 11
210.0522765697
 21
93.5292155415
 31
0.0
  0
LINE
  5
1AB
330
1F
100
AcDbEntity
  8
0
  6
Continuous
 62
     7
370
    25
100
AcDbLine
 10
211.0522765697
 20
98.4594046398
 30
0.0
 11
211.0522765697
 21
93.5292155415
 31
0.0
  0
LINE
  5
1AC
330
1F
100
AcDbEntity
  8
0
  6
Continuous
 62
     7
370
    25
100
AcDbLine
 10
140.0022765697
 20
98.4594046398
 30
0.0
 11
141.0022765697
 21
98.4594046398
 31
0.0
  0
LINE
  5
1AD
330
1F
100
AcDbEntity
  8
0
  6
Continuous
 62
     7
370
    25
100
AcDbLine
 10
141.0022765697
 20
98.4594046398
 30
0.0
 11
141.0022765697
 21
93.5292155415
 31
0.0
  0
LINE
  5
1AE
330
1F
100
AcDbEntity
  8
0
  6
Continuous
 62
     7
370
    25
100
AcDbLine
 10
140.0022765697
 20
98.4594046398
 30
0.0
 11
140.0022765697
 21
93.5292155415
 31
0.0
  0
LINE
  5
1AF
330
1F
100
AcDbEntity
  8
0
  6
Continuous
 62
     7
370
    25
100
AcDbLine
 10
123.6522765697
 20
98.4594046398
 30
0.0
 11
124.6522765697
 21
98.4594046398
 31
0.0
  0
LINE
  5
1B0
330
1F
100
AcDbEntity
  8
0
  6
Continuous
 62
     7
370
    25
100
AcDbLine
 10
123.6522765697
 20
98.4594046398
 30
0.0
 11
123.6522765697
 21
93.5292155415
 31
0.0
  0
LINE
  5
1B1
330
1F
100
AcDbEntity
  8
0
  6
Continuous
 62
     7
370
    25
100
AcDbLine
 10
124.6522765697
 20
98.4594046398
 30
0.0
 11
124.6522765697
 21
93.5292155415
 31
0.0
  0
LINE
  5
1B2
330
1F
100
AcDbEntity
  8
0
  6
Continuous
 62
     7
370
    25
100
AcDbLine
 10
108.3022765697
 20
98.4556897233
 30
0.0
 11
107.3022765697
 21
98.4556897233
 31
0.0
  0
LINE
  5
1B3
330
1F
100
AcDbEntity
  8
0
  6
Continuous
 62
     7
370
    25
100
AcDbLine
 10
108.3022765697
 20
98.4556897233
 30
0.0
 11
108.3022765697
 21
93.5292155415
 31
0.0
  0
LINE
  5
1B4
330
1F
100
AcDbEntity
  8
0
  6
Continuous
 62
     7
370
    25
100
AcDbLine
 10
107.3022765697
 20
98.4556897233
 30
0.0
 11
107.3022765697
 21
93.5292155415
 31
0.0
  0
ARC
  5
1B5
330
1F
100
AcDbEntity
  8
0
  6
Continuous
 62
     7
370
    25
100
AcDbCircle
 10
146.3740601768
 20
29.8594046398
 30
0.0
 40
0.5000000000000036
100
AcDbArc
 50
180.5
 51
270.0
  0
LINE
  5
1B6
330
1F
100
AcDbEntity
  8
0
  6
Continuous
 62
     7
370
    25
100
AcDbLine
 10
146.3740601768
 20
29.3594046398
 30
0.0
 11
146.3740601768
 21
27.3873290004
 31
0.0
  0
ARC
  5
1B7
330
1F
100
AcDbEntity
  8
0
  6
Continuous
 62
     7
370
    25
100
AcDbCircle
 10
144.6865876063
 20
-5.9562367185
 30
0.0
 40
35.83096112018129
100
AcDbArc
 50
88.1007844472
 51
91.299237485
  0
ARC
  5
1B8
330
1F
100
AcDbEntity
  8
0
  6
Continuous
 62
     7
370
    25
100
AcDbCircle
 10
155.6304929626
 20
29.8594046398
 30
0.0
 40
0.5000000000000036
100
AcDbArc
 50
270.0
 51
359.5
  0
ARC
  5
1B9
330
1F
100
AcDbEntity
  8
0
  6
Continuous
 62
     7
370
    25
100
AcDbCircle
 10
157.3179655331
 20
-5.9562367188
 30
0.0
 40
35.83096112047184
100
AcDbArc
 50
88.700762515
 51
91.8992155527
  0
LINE
  5
1BA
330
1F
100
AcDbEntity
  8
0
  6
Continuous
 62
     7
370
    25
100
AcDbLine
 10
155.6304929626
 20
29.3594046398
 30
0.0
 11
155.6304929626
 21
27.3873290004
 31
0.0
  0
LINE
  5
1BB
330
1F
100
AcDbEntity
  8
0
  6
Continuous
 62
     7
370
    25
100
AcDbLine
 10
146.3740601768
 20
29.3594046398
 30
0.0
 11
155.6304929626
 21
29.3594046398
 31
0.0
  0
LINE
  5
1BC
330
1F
100
AcDbEntity
  8
0
  6
Continuous
 62
     7
370
    25
100
AcDbLine
 10
156.1304739242
 20
29.855041372
 30
0.0
 11
156.6859367962
 21
93.5047820714
 31
0.0
  0
ARC
  5
1BD
330
1F
100
AcDbEntity
  8
0
  6
Continuous
 62
     7
370
    25
100
AcDbCircle
 10
157.8734284051
 20
57.6935039808
 30
0.0
 40
35.83096112030589
100
AcDbArc
 50
88.700762515
 51
91.8992155528
  0
LINE
  5
1BE
330
1F
100
AcDbEntity
  8
0
  6
Continuous
 62
     7
370
    25
100
AcDbLine
 10
145.3186163432
 20
93.5047820714
 30
0.0
 11
145.8740792152
 21
29.855041372
 31
0.0
  0
ARC
  5
1BF
330
1F
100
AcDbEntity
  8
0
  6
Continuous
 62
     7
370
    25
100
AcDbCircle
 10
144.1311247343
 20
57.6935039808
 30
0.0
 40
35.83096112030668
100
AcDbArc
 50
88.1007844472
 51
91.299237485
  0
LINE
  5
1C0
330
1F
100
AcDbEntity
  8
0
  6
Continuous
 62
     7
370
    25
100
AcDbLine
 10
194.7022765697
 20
97.4551715962
 30
0.0
 11
203.3417147855
 21
97.4551715962
 31
0.0
  0
LINE
  5
1C1
330
1F
100
AcDbEntity
  8
0
  6
Continuous
 62
     7
370
    25
100
AcDbLine
 10
203.3417147855
 20
97.4551715962
 30
0.0
 11
203.3417517268
 21
97.4594046398
 31
0.0
  0
LINE
  5
1C2
330
1F
100
AcDbEntity
  8
0
  6
Continuous
 62
     7
370
    25
100
AcDbLine
 10
203.3417517268
 20
97.4594046398
 30
0.0
 11
210.0522765697
 21
97.4594046398
 31
0.0
  0
LINE
  5
1C3
330
1F
100
AcDbEntity
  8
0
  6
Continuous
 62
     7
370
    25
100
AcDbLine
 10
156.6859367962
 20
93.5047820714
 30
0.0
 11
156.7031468395
 21
95.4768577108
 31
0.0
  0
ARC
  5
1C4
330
1F
100
AcDbEntity
  8
0
  6
Continuous
 62
     7
370
    25
100
AcDbCircle
 10
158.7030706857
 20
95.4594046398
 30
0.0
 40
2.000000000000011
100
AcDbArc
 50
90.0
 51
179.5
  0
LINE
  5
1C5
330
1F
100
AcDbEntity
  8
0
  6
Continuous
 62
     7
370
    25
100
AcDbLine
 10
158.7030706857
 20
97.4594046398
 30
0.0
 11
158.6858606423
 21
93.5152533611
 31
0.0
  0
LINE
  5
1C6
330
1F
100
AcDbEntity
  8
0
  6
Continuous
 62
     7
370
    25
100
AcDbLine
 10
143.3186924971
 20
93.5152533611
 30
0.0
 11
143.3014824537
 21
97.4594046398
 31
0.0
  0
LINE
  5
1C7
330
1F
100
AcDbEntity
  8
0
  6
Continuous
 62
     7
370
    25
100
AcDbLine
 10
141.0022765697
 20
97.4594046398
 30
0.0
 11
143.3014824537
 21
97.4594046398
 31
0.0
  0
LINE
  5
1C8
330
1F
100
AcDbEntity
  8
0
  6
Continuous
 62
     7
370
    25
100
AcDbLine
 10
145.3014062999
 20
95.4768577108
 30
0.0
 11
145.3186163432
 21
93.5047820714
 31
0.0
  0
ARC
  5
1C9
330
1F
100
AcDbEntity
  8
0
  6
Continuous
 62
     7
370
    25
100
AcDbCircle
 10
143.3014824537
 20
95.4594046398
 30
0.0
 40
2.000000000000011
100
AcDbArc
 50
0.5
 51
90.0
  0
LINE
  5
1CA
330
1F
100
AcDbEntity
  8
0
  6
Continuous
 62
     7
370
    25
100
AcDbLine
 10
112.3417517268
 20
97.4594046398
 30
0.0
 11
112.3417147855
 21
97.4551715962
 31
0.0
  0
LINE
  5
1CB
330
1F
100
AcDbEntity
  8
0
  6
Continuous
 62
     7
370
    25
100
AcDbLine
 10
112.3417517268
 20
97.4594046398
 30
0.0
 11
123.6522765697
 21
97.4594046398
 31
0.0
  0
LINE
  5
1CC
330
1F
100
AcDbEntity
  8
0
  6
Continuous
 62
     7
370
    25
100
AcDbLine
 10
112.3417147855
 20
97.4551715962
 30
0.0
 11
108.3022765697
 21
97.4551715962
 31
0.0
  0
LINE
  5
1CD
330
1F
100
AcDbEntity
  8
0
  6
Continuous
 62
     7
370
    25
100
AcDbLine
 10
211.0522765697
 20
97.4594046398
 30
0.0
 11
214.0585206014
 21
97.4594046398
 31
0.0
  0
LINE
  5
1CE
330
1F
100
AcDbEntity
  8
0
  6
Continuous
 62
     7
370
    25
100
AcDbLine
 10
214.0585206014
 20
93.5152533611
 30
0.0
 11
214.0585206014
 21
97.4594046398
 31
0.0
  0
LINE
  5
1CF
330
1F
100
AcDbEntity
  8
0
  6
Continuous
 62
     7
370
    25
100
AcDbLine
 10
178.3522765697
 20
97.4594046398
 30
0.0
 11
189.6628014126
 21
97.4594046398
 31
0.0
  0
LINE
  5
1D0
330
1F
100
AcDbEntity
  8
0
  6
Continuous
 62
     7
370
    25
100
AcDbLine
 10
189.6628383538
 20
97.4551715962
 30
0.0
 11
189.6628014126
 21
97.4594046398
 31
0.0
  0
LINE
  5
1D1
330
1F
100
AcDbEntity
  8
0
  6
Continuous
 62
     7
370
    25
100
AcDbLine
 10
189.6628383538
 20
97.4551715962
 30
0.0
 11
193.7022765697
 21
97.4551715962
 31
0.0
  0
LINE
  5
1D2
330
1F
100
AcDbEntity
  8
0
  6
Continuous
 62
     7
370
    25
100
AcDbLine
 10
79.9468123459
 20
97.4594046398
 30
0.0
 11
87.9460325379
 21
97.4594046398
 31
0.0
  0
LINE
  5
1D3
330
1F
100
AcDbEntity
  8
0
  6
Continuous
 62
     7
370
    25
100
AcDbLine
 10
87.9460325379
 20
97.4594046398
 30
0.0
 11
87.9460325379
 21
93.5152533611
 31
0.0
  0
ARC
  5
1D4
330
1F
100
AcDbEntity
  8
0
  6
Continuous
 62
     7
370
    25
100
AcDbCircle
 10
79.9468123459
 20
93.4594046398
 30
0.0
 40
4.0
100
AcDbArc
 50
90.0
 51
179.2
  0
LINE
  5
1D5
330
1F
100
AcDbEntity
  8
0
  6
Continuous
 62
     7
370
    25
100
AcDbLine
 10
98.6628014126
 20
97.4594046398
 30
0.0
 11
98.6628383538
 21
97.4551715962
 31
0.0
  0
LINE
  5
1D6
330
1F
100
AcDbEntity
  8
0
  6
Continuous
 62
     7
370
    25
100
AcDbLine
 10
107.3022765697
 20
97.4551715962
 30
0.0
 11
98.6628383538
 21
97.4551715962
 31
0.0
  0
LINE
  5
1D7
330
1F
100
AcDbEntity
  8
0
  6
Continuous
 62
     7
370
    25
100
AcDbLine
 10
91.9522765697
 20
97.4594046398
 30
0.0
 11
98.6628014126
 21
97.4594046398
 31
0.0
  0
LINE
  5
1D8
330
1F
100
AcDbEntity
  8
0
  6
Continuous
 62
     7
370
    25
100
AcDbLine
 10
162.0022765697
 20
97.4594046398
 30
0.0
 11
177.3522765697
 21
97.4594046398
 31
0.0
  0
LINE
  5
1D9
330
1F
100
AcDbEntity
  8
0
  6
Continuous
 62
     7
370
    25
100
AcDbLine
 10
87.9460325379
 20
97.4594046398
 30
0.0
 11
90.9522765697
 21
97.4594046398
 31
0.0
  0
LINE
  5
1DA
330
1F
100
AcDbEntity
  8
0
  6
Continuous
 62
     7
370
    25
100
AcDbLine
 10
158.7030706857
 20
97.4594046398
 30
0.0
 11
161.0022765697
 21
97.4594046398
 31
0.0
  0
LINE
  5
1DB
330
1F
100
AcDbEntity
  8
0
  6
Continuous
 62
     7
370
    25
100
AcDbLine
 10
124.6522765697
 20
97.4594046398
 30
0.0
 11
140.0022765697
 21
97.4594046398
 31
0.0
  0
LINE
  5
1DC
330
1F
100
AcDbEntity
  8
0
  6
Continuous
 62
     7
370
    25
100
AcDbLine
 10
214.0585206014
 20
97.4594046398
 30
0.0
 11
222.0577407935
 21
97.4594046398
 31
0.0
  0
ARC
  5
1DD
330
1F
100
AcDbEntity
  8
0
  6
Continuous
 62
     7
370
    25
100
AcDbCircle
 10
222.0577407935
 20
93.4594046398
 30
0.0
 40
4.000000000000099
100
AcDbArc
 50
0.8
 51
90.0
  0
LINE
  5
1DE
330
1F
100
AcDbEntity
  8
0
  6
Continuous
 62
     7
370
    25
100
AcDbLine
 10
145.7579052331
 20
100.4594046398
 30
0.0
 11
146.3740601768
 21
29.855041372
 31
0.0
  0
ARC
  5
1DF
330
1F
100
AcDbEntity
  8
0
  6
Continuous
 62
     7
370
    25
100
AcDbCircle
 10
146.124069696
 20
44.1798853758
 30
0.0
 40
14.32702519621482
100
AcDbArc
 50
269.0002023313
 51
270.9997976687
  0
LINE
  5
1E0
330
1F
100
AcDbEntity
  8
0
  6
Continuous
 62
     7
370
    25
100
AcDbLine
 10
145.2579242716
 20
100.4594046398
 30
0.0
 11
145.7579052331
 21
100.4594046398
 31
0.0
  0
ARC
  5
1E1
330
1F
100
AcDbEntity
  8
0
  6
Continuous
 62
     7
370
    25
100
AcDbCircle
 10
155.8804834434
 20
44.1798853758
 30
0.0
 40
14.32702519626834
100
AcDbArc
 50
269.0002023313
 51
270.9997976687
  0
LINE
  5
1E2
330
1F
100
AcDbEntity
  8
0
  6
Continuous
 62
     7
370
    25
100
AcDbLine
 10
155.6304929626
 20
29.855041372
 30
0.0
 11
156.2466479063
 21
100.4594046398
 31
0.0
  0
LINE
  5
1E3
330
1F
100
AcDbEntity
  8
0
  6
Continuous
 62
     7
370
    25
100
AcDbLine
 10
156.2466479063
 20
100.4594046398
 30
0.0
 11
156.7466288678
 21
100.4594046398
 31
0.0
  0
LINE
  5
1E4
330
1F
100
AcDbEntity
  8
0
  6
Continuous
 62
     7
370
    25
100
AcDbLine
 10
146.3740601768
 20
29.3594046398
 30
0.0
 11
146.3740601768
 21
29.855041372
 31
0.0
  0
LINE
  5
1E5
330
1F
100
AcDbEntity
  8
0
  6
Continuous
 62
     7
370
    25
100
AcDbLine
 10
146.3740601768
 20
29.855041372
 30
0.0
 11
155.6304929626
 21
29.855041372
 31
0.0
  0
LINE
  5
1E6
330
1F
100
AcDbEntity
  8
0
  6
Continuous
 62
     7
370
    25
100
AcDbLine
 10
155.6304929626
 20
29.3594046398
 30
0.0
 11
155.6304929626
 21
29.855041372
 31
0.0
  0
LINE
  5
1E7
330
1F
100
AcDbEntity
  8
0
  6
Continuous
 62
     7
370
    25
100
AcDbLine
 10
145.7579052331
 20
100.4594046398
 30
0.0
 11
156.2466479063
 21
100.4594046398
 31
0.0
  0
LINE
  5
1E8
330
1F
100
AcDbEntity
  8
0
  6
Continuous
 62
     7
370
    25
100
AcDbLine
 10
156.7466288678
 20
100.4594046398
 30
0.0
 11
189.6366208093
 21
100.4594046398
 31
0.0
  0
LINE
  5
1E9
330
1F
100
AcDbEntity
  8
0
  6
Continuous
 62
     7
370
    25
100
AcDbLine
 10
189.6628014126
 20
97.4594046398
 30
0.0
 11
189.6366208093
 21
100.4594046398
 31
0.0
  0
LINE
  5
1EA
330
1F
100
AcDbEntity
  8
0
  6
Continuous
 62
     7
370
    25
100
AcDbLine
 10
156.7031468395
 20
95.4768577108
 30
0.0
 11
156.7466288678
 21
100.4594046398
 31
0.0
  0
LINE
  5
1EB
330
1F
100
AcDbEntity
  8
0
  6
Continuous
 62
     7
370
    25
100
AcDbLine
 10
112.3679323301
 20
100.4594046398
 30
0.0
 11
145.2579242716
 21
100.4594046398
 31
0.0
  0
LINE
  5
1EC
330
1F
100
AcDbEntity
  8
0
  6
Continuous
 62
     7
370
    25
100
AcDbLine
 10
112.3417517268
 20
97.4594046398
 30
0.0
 11
112.3679323301
 21
100.4594046398
 31
0.0
  0
LINE
  5
1ED
330
1F
100
AcDbEntity
  8
0
  6
Continuous
 62
     7
370
    25
100
AcDbLine
 10
145.2579242716
 20
100.4594046398
 30
0.0
 11
145.3014062999
 21
95.4768577108
 31
0.0
  0
LINE
  5
1EE
330
1F
100
AcDbEntity
  8
0
  6
Continuous
 62
     7
370
    25
100
AcDbLine
 10
218.5022765697
 20
97.4594046398
 30
0.0
 11
218.5022765697
 21
100.4594046398
 31
0.0
  0
LINE
  5
1EF
330
1F
100
AcDbEntity
  8
0
  6
Continuous
 62
     7
370
    25
100
AcDbLine
 10
203.3679323301
 20
100.4594046398
 30
0.0
 11
218.5022765697
 21
100.4594046398
 31
0.0
  0
LINE
  5
1F0
330
1F
100
AcDbEntity
  8
0
  6
Continuous
 62
     7
370
    25
100
AcDbLine
 10
203.3679323301
 20
100.4594046398
 30
0.0
 11
203.3417517268
 21
97.4594046398
 31
0.0
  0
LINE
  5
1F1
330
1F
100
AcDbEntity
  8
0
  6
Continuous
 62
     7
370
    25
100
AcDbLine
 10
83.5022765697
 20
100.4594046398
 30
0.0
 11
98.6366208093
 21
100.4594046398
 31
0.0
  0
LINE
  5
1F2
330
1F
100
AcDbEntity
  8
0
  6
Continuous
 62
     7
370
    25
100
AcDbLine
 10
83.5022765697
 20
97.4594046398
 30
0.0
 11
83.5022765697
 21
100.4594046398
 31
0.0
  0
LINE
  5
1F3
330
1F
100
AcDbEntity
  8
0
  6
Continuous
 62
     7
370
    25
100
AcDbLine
 10
98.6366208093
 20
100.4594046398
 30
0.0
 11
98.6628014126
 21
97.4594046398
 31
0.0
  0
LINE
  5
1F4
330
1F
100
AcDbEntity
  8
0
  6
Continuous
 62
     7
370
    25
100
AcDbLine
 10
98.6366208093
 20
100.4594046398
 30
0.0
 11
112.3679323301
 21
100.4594046398
 31
0.0
  0
LINE
  5
1F5
330
1F
100
AcDbEntity
  8
0
  6
Continuous
 62
     7
370
    25
100
AcDbLine
 10
203.3679323301
 20
100.4594046398
 30
0.0
 11
189.6366208093
 21
100.4594046398
 31
0.0
  0
LINE
  5
1F6
330
1F
100
AcDbEntity
  8
0
  6
Continuous
 62
     7
370
    25
100
AcDbLine
 10
73.9241936843
 20
20.2594046398
 30
0.0
 11
74.9472997258
 21
93.5292155415
 31
0.0
  0
ARC
  5
1F7
330
1F
100
AcDbEntity
  8
0
  6
Continuous
 62
     7
370
    25
100
AcDbCircle
 10
79.9468123459
 20
93.4594046398
 30
0.0
 40
5.000000000000081
100
AcDbArc
 50
90.0
 51
179.2
  0
LINE
  5
1F8
330
1F
100
AcDbEntity
  8
0
  6
Continuous
 62
     7
370
    25
100
AcDbLine
 10
79.9468123459
 20
98.4594046398
 30
0.0
 11
83.5022765697
 21
98.4594046398
 31
0.0
  0
LINE
  5
1F9
330
1F
100
AcDbEntity
  8
0
  6
Continuous
 62
     7
370
    25
100
AcDbLine
 10
222.0577407935
 20
98.4594046398
 30
0.0
 11
218.5022765697
 21
98.4594046398
 31
0.0
  0
LINE
  5
1FA
330
1F
100
AcDbEntity
  8
0
  6
Continuous
 62
     7
370
    25
100
AcDbLine
 10
228.0803594551
 20
20.2594046398
 30
0.0
 11
227.0572534136
 21
93.5292155415
 31
0.0
  0
ARC
  5
1FB
330
1F
100
AcDbEntity
  8
0
  6
Continuous
 62
     7
370
    25
100
AcDbCircle
 10
222.0577407935
 20
93.4594046398
 30
0.0
 40
5.000000000000081
100
AcDbArc
 50
0.8
 51
90.0
  0
LINE
  5
1FC
330
1F
100
AcDbEntity
  8
0
  6
Continuous
 62
     7
370
    25
100
AcDbLine
 10
205.7522765697
 20
103.4594046398
 30
0.0
 11
187.2522765697
 21
103.4594046398
 31
0.0
  0
LINE
  5
1FD
330
1F
100
AcDbEntity
  8
0
  6
Continuous
 62
     7
370
    25
100
AcDbLine
 10
96.2522765697
 20
103.4594046398
 30
0.0
 11
114.7522765697
 21
103.4594046398
 31
0.0
  0
LINE
  5
1FE
330
1F
100
AcDbEntity
  8
0
  6
Continuous
 62
     7
370
    25
100
AcDbLine
 10
234.2276722828
 20
18.0426692399
 30
0.0
 11
67.7768808566
 21
18.0426692399
 31
0.0
  0
LINE
  5
1FF
330
1F
100
AcDbEntity
  8
0
  6
Continuous
 62
     7
370
    25
100
AcDbLine
 10
67.7768808566
 20
18.0426692399
 30
0.0
 11
67.0022765697
 21
18.0504994628
 31
0.0
  0
LINE
  5
200
330
1F
100
AcDbEntity
  8
0
  6
Continuous
 62
     7
370
    25
100
AcDbLine
 10
67.0022765697
 20
18.0504994628
 30
0.0
 11
67.0022765697
 21
20.2594046398
 31
0.0
  0
LINE
  5
201
330
1F
100
AcDbEntity
  8
0
  6
Continuous
 62
     7
370
    25
100
AcDbLine
 10
67.0022765697
 20
20.2594046398
 30
0.0
 11
235.0022765697
 21
20.2594046398
 31
0.0
  0
LINE
  5
202
330
1F
100
AcDbEntity
  8
0
  6
Continuous
 62
     7
370
    25
100
AcDbLine
 10
235.0022765697
 20
20.2594046398
 30
0.0
 11
235.0022765697
 21
18.0504994628
 31
0.0
  0
LINE
  5
203
330
1F
100
AcDbEntity
  8
0
  6
Continuous
 62
     7
370
    25
100
AcDbLine
 10
235.0022765697
 20
18.0504994628
 30
0.0
 11
234.2276722828
 21
18.0426692399
 31
0.0
  0
SPLINE
  5
204
330
1F
100
AcDbEntity
  8
0
  6
Continuous
 62
     7
370
    25
100
AcDbSpline
210
0.0
220
0.0
230
1.0
 70
     8
 71
     3
 72
    22
 73
    18
 74
     0
 42
0.00000001
 43
0.00000001
 40
0.0
 40
0.0
 40
0.0
 40
0.0
 40
0.2422164057208554
 40
0.2963141497980125
 40
0.3396941899516877
 40
0.4997442254685492
 40
0.6580372492279012
 40
0.6956837830409116
 40
0.6984356709931112
 40
0.6996487319304452
 40
0.6997927293869691
 40
0.6998640918501103
 40
0.6998729823330736
 40
0.6998774250891441
 40
0.699884046762441
 40
0.7604185742029747
 40
1.0
 40
1.0
 40
1.0
 40
1.0
 10
235.0022765696983
 20
18.05049946282386
 30
0.0
 10
235.320676726395
 20
18.05378703580336
 30
0.0
 10
235.7101898621646
 20
18.0578088706969
 30
0.0
 10
236.1141967232101
 20
18.05832588461442
 30
0.0
 10
236.4091143430951
 20
18.05842100404815
 30
0.0
 10
236.7863365784021
 20
18.0584343271496
 30
0.0
 10
237.0746178156753
 20
18.05842097452593
 30
0.0
 10
237.2006573454819
 20
18.0583711753981
 30
0.0
 10
237.2255391402608
 20
18.05833468463452
 30
0.0
 10
237.2279812830832
 20
18.05833036004757
 30
0.0
 10
237.228828501797
 20
18.05832875448839
 30
0.0
 10
237.2289614643127
 20
18.0583284996666
 30
0.0
 10
237.2290116758946
 20
18.05832840303646
 30
0.0
 10
237.2290235058631
 20
18.05832838025375
 30
0.0
 10
237.2649163904942
 20
18.0582592247944
 30
0.0
 10
237.4304298306423
 20
18.05781362064787
 30
0.0
 10
237.4703825030406
 20
18.05374634974245
 30
0.0
 10
237.5022765696983
 20
18.05049946282386
 30
0.0
  0
LINE
  5
205
330
1F
100
AcDbEntity
  8
0
  6
Continuous
 62
     7
370
    25
100
AcDbLine
 10
235.0022765697
 20
20.2594046398
 30
0.0
 11
237.5022765697
 21
20.2594046398
 31
0.0
  0
LINE
  5
206
330
1F
100
AcDbEntity
  8
0
  6
Continuous
 62
     7
370
    25
100
AcDbLine
 10
237.5022765697
 20
18.0504994628
 30
0.0
 11
237.5022765697
 21
20.2594046398
 31
0.0
  0
SPLINE
  5
207
330
1F
100
AcDbEntity
  8
0
  6
Continuous
 62
     7
370
    25
100
AcDbSpline
210
0.0
220
0.0
230
1.0
 70
     8
 71
     3
 72
    22
 73
    18
 74
     0
 42
0.00000001
 43
0.00000001
 40
0.0
 40
0.0
 40
0.0
 40
0.0
 40
0.2422164057157573
 40
0.2963141497082114
 40
0.3396941897520261
 40
0.4997442254671202
 40
0.6580372490248518
 40
0.695683782990156
 40
0.6984356709733051
 40
0.699648731927105
 40
0.6997927293857363
 40
0.6998640918499317
 40
0.6998729823330292
 40
0.6998774250891646
 40
0.6998840467624726
 40
0.7604185742033073
 40
1.0
 40
1.0
 40
1.0
 40
1.0
 10
64.50227656969825
 20
18.05049946282388
 30
0.0
 10
64.53492215484751
 20
18.05378703580294
 30
0.0
 10
64.57485895754523
 20
18.05780887069482
 30
0.0
 10
64.76072023184996
 20
18.05832588461426
 30
0.0
 10
64.92123389130091
 20
18.05842100404697
 30
0.0
 10
65.21380700057847
 20
18.05843432714962
 30
0.0
 10
65.5842719886088
 20
18.05842097452709
 30
0.0
 10
65.81075637103667
 20
18.05837117539849
 30
0.0
 10
65.85898106240892
 20
18.05833468463463
 30
0.0
 10
65.86375060887161
 20
18.05833036004761
 30
0.0
 10
65.86540957876248
 20
18.05832875448841
 30
0.0
 10
65.8656700458806
 20
18.05832849966661
 30
0.0
 10
65.86576842319613
 20
18.05832840303647
 30
0.0
 10
65.86579160171735
 20
18.05832838025377
 30
0.0
 10
65.93611832082397
 20
18.05825922479485
 30
0.0
 10
66.29299235891897
 20
18.05781362064704
 30
0.0
 10
66.68741248268405
 20
18.05374634974208
 30
0.0
 10
67.00227656969827
 20
18.05049946282388
 30
0.0
  0
LINE
  5
208
330
1F
100
AcDbEntity
  8
0
  6
Continuous
 62
     7
370
    25
100
AcDbLine
 10
64.5022765697
 20
20.2594046398
 30
0.0
 11
64.5022765697
 21
18.0504994628
 31
0.0
  0
LINE
  5
209
330
1F
100
AcDbEntity
  8
0
  6
Continuous
 62
     7
370
    25
100
AcDbLine
 10
64.5022765697
 20
20.2594046398
 30
0.0
 11
67.0022765697
 21
20.2594046398
 31
0.0
  0
LINE
  5
20A
330
1F
100
AcDbEntity
  8
0
  6
Continuous
 62
     7
370
    25
100
AcDbLine
 10
234.2276722828
 20
17.5477565466
 30
0.0
 11
234.2276722828
 21
18.0426692399
 31
0.0
  0
LINE
  5
20B
330
1F
100
AcDbEntity
  8
0
  6
Continuous
 62
     7
370
    25
100
AcDbLine
 10
67.7768808566
 20
17.5477565466
 30
0.0
 11
234.2276722828
 21
17.5477565466
 31
0.0
  0
LINE
  5
20C
330
1F
100
AcDbEntity
  8
0
  6
Continuous
 62
     7
370
    25
100
AcDbLine
 10
67.7768808566
 20
18.0426692399
 30
0.0
 11
67.7768808566
 21
17.5477565466
 31
0.0
  0
LINE
  5
20D
330
1F
100
AcDbEntity
  8
0
  6
Continuous
 62
     7
370
    25
100
AcDbLine
 10
66.9922584723
 20
17.554372534
 30
0.0
 11
67.7768808566
 21
17.5477565466
 31
0.0
  0
LINE
  5
20E
330
1F
100
AcDbEntity
  8
0
  6
Continuous
 62
     7
370
    25
100
AcDbLine
 10
67.0022765697
 20
18.0504994628
 30
0.0
 11
66.9922584723
 21
17.554372534
 31
0.0
  0
SPLINE
  5
20F
330
1F
100
AcDbEntity
  8
0
  6
Continuous
 62
     7
370
    25
100
AcDbSpline
210
0.0
220
0.0
230
1.0
 70
     8
 71
     3
 72
    11
 73
     7
 74
     0
 42
0.00000001
 43
0.00000001
 40
0.0
 40
0.0
 40
0.0
 40
0.0
 40
0.249957707805266
 40
0.4997790583518499
 40
0.7494975113806479
 40
1.0
 40
1.0
 40
1.0
 40
1.0
 10
64.94097642104823
 20
17.55437253400362
 30
0.0
 10
64.97522502414161
 20
17.55721830920031
 30
0.0
 10
65.04370354698516
 20
17.56290830716264
 30
0.0
 10
65.51928047362821
 20
17.56003425220502
 30
0.0
 10
66.19005179818292
 20
17.56290764983786
 30
0.0
 10
66.72457697984069
 20
17.55722054389772
 30
0.0
 10
66.99225847233035
 20
17.55437253400362
 30
0.0
  0
ARC
  5
210
330
1F
100
AcDbEntity
  8
0
  6
Continuous
 62
     7
370
    25
100
AcDbCircle
 10
65.0022104218
 20
18.0505421174
 30
0.0
 40
0.4999338539523516
100
AcDbArc
 50
180.0048884997
 51
262.9645050951
  0
ARC
  5
211
330
1F
100
AcDbEntity
  8
0
  6
Continuous
 62
     7
370
    25
100
AcDbCircle
 10
237.0023427176
 20
18.0505421174
 30
0.0
 40
0.4999338539523231
100
AcDbArc
 50
277.0354949044
 51
359.9951115003
  0
SPLINE
  5
212
330
1F
100
AcDbEntity
  8
0
  6
Continuous
 62
     7
370
    25
100
AcDbSpline
210
0.0
220
0.0
230
1.0
 70
     8
 71
     3
 72
    11
 73
     7
 74
     0
 42
0.00000001
 43
0.00000001
 40
0.0
 40
0.0
 40
0.0
 40
0.0
 40
0.2499577078052786
 40
0.4997790583518699
 40
0.749497511380657
 40
1.0
 40
1.0
 40
1.0
 40
1.0
 10
235.0122946670664
 20
17.5543725340036
 30
0.0
 10
235.2793865466251
 20
17.55721830920028
 30
0.0
 10
235.8134246014279
 20
17.56290830716262
 30
0.0
 10
236.4840754657456
 20
17.560034252205
 30
0.0
 10
236.9605127176944
 20
17.56290764983785
 30
0.0
 10
237.029186172363
 20
17.55722054389769
 30
0.0
 10
237.0635767183483
 20
17.55437253400359
 30
0.0
  0
LINE
  5
213
330
1F
100
AcDbEntity
  8
0
  6
Continuous
 62
     7
370
    25
100
AcDbLine
 10
235.0022765697
 20
18.0504994628
 30
0.0
 11
235.0122946671
 21
17.554372534
 31
0.0
  0
LINE
  5
214
330
1F
100
AcDbEntity
  8
0
  6
Continuous
 62
     7
370
    25
100
AcDbLine
 10
234.2276722828
 20
17.5477565466
 30
0.0
 11
235.0122946671
 21
17.554372534
 31
0.0
  0
LINE
  5
215
330
1F
100
AcDbEntity
  8
0
  6
Continuous
 62
     7
370
    25
100
AcDbLine
 10
75.3126345966
 20
16.4644919465
 30
0.0
 11
67.7768808566
 21
17.5477565466
 31
0.0
  0
SPLINE
  5
216
330
1F
100
AcDbEntity
  8
0
  6
Continuous
 62
     7
370
    25
100
AcDbSpline
210
0.0
220
0.0
230
1.0
 70
     8
 71
     3
 72
    13
 73
     9
 74
     0
 42
0.00000001
 43
0.00000001
 40
0.0
 40
0.0
 40
0.0
 40
0.0
 40
0.2720397088000099
 40
0.3891454049891026
 40
0.5000004465286633
 40
0.6108587563826867
 40
0.7279656996581074
 40
1.0
 40
1.0
 40
1.0
 40
1.0
 10
75.31263459663374
 20
16.46449194645594
 30
0.0
 10
74.89383032606895
 20
16.46377989921966
 30
0.0
 10
74.29474220691532
 20
16.46276133501315
 30
0.0
 10
73.59470421870331
 20
16.46207861929927
 30
0.0
 10
73.18252020796356
 20
16.46191422255674
 30
0.0
 10
72.86305762650012
 20
16.46207734716959
 30
0.0
 10
72.53946143882688
 20
16.4627606604382
 30
0.0
 10
72.49674682338005
 20
16.46377962552267
 30
0.0
 10
72.46688661010775
 20
16.46449194645594
 30
0.0
  0
LINE
  5
217
330
1F
100
AcDbEntity
  8
0
  6
Continuous
 62
     7
370
    25
100
AcDbLine
 10
72.4668866101
 20
16.4644919465
 30
0.0
 11
64.93113287
 21
17.5477565466
 31
0.0
  0
LINE
  5
218
330
1F
100
AcDbEntity
  8
0
  6
Continuous
 62
     7
370
    25
100
AcDbLine
 10
64.93113287
 20
17.5477565466
 30
0.0
 11
64.940976421
 21
17.554372534
 31
0.0
  0
LINE
  5
219
330
1F
100
AcDbEntity
  8
0
  6
Continuous
 62
     7
370
    25
100
AcDbLine
 10
237.0635767183
 20
17.554372534
 30
0.0
 11
237.0734202694
 21
17.5477565466
 31
0.0
  0
LINE
  5
21A
330
1F
100
AcDbEntity
  8
0
  6
Continuous
 62
     7
370
    25
100
AcDbLine
 10
237.0734202694
 20
17.5477565466
 30
0.0
 11
229.5376665293
 21
16.4644919465
 31
0.0
  0
SPLINE
  5
21B
330
1F
100
AcDbEntity
  8
0
  6
Continuous
 62
     7
370
    25
100
AcDbSpline
210
0.0
220
0.0
230
1.0
 70
     8
 71
     3
 72
    13
 73
     9
 74
     0
 42
0.00000001
 43
0.00000001
 40
0.0
 40
0.0
 40
0.0
 40
0.0
 40
0.2720397088605654
 40
0.3891454050356962
 40
0.5000004465386633
 40
0.6108587564292749
 40
0.7279656997186591
 40
0.9999999999999999
 40
0.9999999999999999
 40
0.9999999999999999
 40
0.9999999999999999
 10
229.5376665292888
 20
16.4644919464559
 30
0.0
 10
229.5078075700254
 20
16.46377989922269
 30
0.0
 10
229.4650951408539
 20
16.46276133502067
 30
0.0
 10
229.1414985707983
 20
16.46207861931349
 30
0.0
 10
228.8220252914744
 20
16.46191422255671
 30
0.0
 10
228.4098314486218
 20
16.46207734715532
 30
0.0
 10
227.7097958344034
 20
16.46276066043061
 30
0.0
 10
227.1107143366762
 20
16.46377962551957
 30
0.0
 10
226.6919185427627
 20
16.4644919464559
 30
0.0
  0
LINE
  5
21C
330
1F
100
AcDbEntity
  8
0
  6
Continuous
 62
     7
370
    25
100
AcDbLine
 10
226.6919185428
 20
16.4644919465
 30
0.0
 11
234.2276722828
 21
17.5477565466
 31
0.0
  0
LINE
  5
21D
330
1F
100
AcDbEntity
  8
0
  6
Continuous
 62
     7
370
    25
100
AcDbLine
 10
226.6919185428
 20
16.4644919465
 30
0.0
 11
75.3126345966
 21
16.4644919465
 31
0.0
  0
ARC
  5
21E
330
1F
100
AcDbEntity
  8
0
  6
Continuous
 62
     7
370
    25
100
AcDbCircle
 10
65.0022765697
 20
18.0426692399
 30
0.0
 40
0.5000000000000018
100
AcDbArc
 50
180.0
 51
261.8197701175
  0
ARC
  5
21F
330
1F
100
AcDbEntity
  8
0
  6
Continuous
 62
     7
370
    25
100
AcDbCircle
 10
237.0022765697
 20
18.0426692399
 30
0.0
 40
0.5
100
AcDbArc
 50
278.1802298825
 51
0.0
  0
LINE
  5
220
330
1F
100
AcDbEntity
  8
0
  6
Continuous
 62
     7
370
    25
100
AcDbLine
 10
92.1652932636
 20
24.2594046398
 30
0.0
 11
104.1652932636
 21
24.2594046398
 31
0.0
  0
LINE
  5
221
330
1F
100
AcDbEntity
  8
0
  6
Continuous
 62
     7
370
    25
100
AcDbLine
 10
104.1652932636
 20
22.2594046398
 30
0.0
 11
104.1652932636
 21
24.2594046398
 31
0.0
  0
LINE
  5
222
330
1F
100
AcDbEntity
  8
0
  6
Continuous
 62
     7
370
    25
100
AcDbLine
 10
104.1652932636
 20
22.2594046398
 30
0.0
 11
92.1652932636
 21
22.2594046398
 31
0.0
  0
LINE
  5
223
330
1F
100
AcDbEntity
  8
0
  6
Continuous
 62
     7
370
    25
100
AcDbLine
 10
92.1652932636
 20
22.2594046398
 30
0.0
 11
92.1652932636
 21
24.2594046398
 31
0.0
  0
LINE
  5
224
330
1F
100
AcDbEntity
  8
0
  6
Continuous
 62
     7
370
    25
100
AcDbLine
 10
209.8392598758
 20
22.2594046398
 30
0.0
 11
197.8392598758
 21
22.2594046398
 31
0.0
  0
LINE
  5
225
330
1F
100
AcDbEntity
  8
0
  6
Continuous
 62
     7
370
    25
100
AcDbLine
 10
197.8392598758
 20
24.2594046398
 30
0.0
 11
197.8392598758
 21
22.2594046398
 31
0.0
  0
LINE
  5
226
330
1F
100
AcDbEntity
  8
0
  6
Continuous
 62
     7
370
    25
100
AcDbLine
 10
197.8392598758
 20
24.2594046398
 30
0.0
 11
209.8392598758
 21
24.2594046398
 31
0.0
  0
LINE
  5
227
330
1F
100
AcDbEntity
  8
0
  6
Continuous
 62
     7
370
    25
100
AcDbLine
 10
209.8392598758
 20
22.2594046398
 30
0.0
 11
209.8392598758
 21
24.2594046398
 31
0.0
  0
LINE
  5
228
330
1F
100
AcDbEntity
  8
0
  6
Continuous
 62
     7
370
    25
100
AcDbLine
 10
226.6919185428
 20
16.4594046398
 30
0.0
 11
226.6919185428
 21
16.4644919465
 31
0.0
  0
LINE
  5
229
330
1F
100
AcDbEntity
  8
0
  6
Continuous
 62
     7
370
    25
100
AcDbLine
 10
226.6919185428
 20
16.4594046398
 30
0.0
 11
75.3126345966
 21
16.4594046398
 31
0.0
  0
LINE
  5
22A
330
1F
100
AcDbEntity
  8
0
  6
Continuous
 62
     7
370
    25
100
AcDbLine
 10
75.3126345966
 20
16.4594046398
 30
0.0
 11
75.3126345966
 21
16.4644919465
 31
0.0
  0
ARC
  5
22B
330
1F
100
AcDbEntity
  8
0
  6
Continuous
 62
     7
370
    25
100
AcDbCircle
 10
229.4665228296
 20
16.9594046398
 30
0.0
 40
0.5
100
AcDbArc
 50
270.0
 51
278.1802298825
  0
SPLINE
  5
22C
330
1F
100
AcDbEntity
  8
0
  6
Continuous
 62
     7
370
    25
100
AcDbSpline
210
0.0
220
0.0
230
1.0
 70
    24
 71
     3
 72
    13
 73
     9
 74
     0
 42
0.00000001
 43
0.00000001
 40
0.0
 40
0.0
 40
0.0
 40
0.0
 40
0.2727951175955533
 40
0.3895909458343151
 40
0.499992857551318
 40
0.6103452240532254
 40
0.7271220062774132
 40
1.0
 40
1.0
 40
1.0
 40
1.0
 10
229.4665228296256
 20
16.45940463976479
 30
0.0
 10
229.4426300015488
 20
16.45940463976479
 30
0.0
 10
229.4085075818695
 20
16.45940463976479
 30
0.0
 10
229.0972636643726
 20
16.45940463976479
 30
0.0
 10
228.7863278303026
 20
16.45940463976479
 30
0.0
 10
228.3826426796357
 20
16.45940463976479
 30
0.0
 10
227.6931685262087
 20
16.45940463976479
 30
0.0
 10
227.1043043132566
 20
16.45940463976479
 30
0.0
 10
226.6919185427627
 20
16.4594046397648
 30
0.0
  0
SPLINE
  5
22D
330
1F
100
AcDbEntity
  8
0
  6
Continuous
 62
     7
370
    25
100
AcDbSpline
210
0.0
220
0.0
230
1.0
 70
    24
 71
     3
 72
    13
 73
     9
 74
     0
 42
0.00000001
 43
0.00000001
 40
0.0
 40
0.0
 40
0.0
 40
0.0
 40
0.2727951175955594
 40
0.3895909458343235
 40
0.4999928575513213
 40
0.6103452240532377
 40
0.7271220062774242
 40
1.0
 40
1.0
 40
1.0
 40
1.0
 10
75.31263459663387
 20
16.45940463976481
 30
0.0
 10
74.90037589475223
 20
16.45940463976481
 30
0.0
 10
74.31161074744993
 20
16.45940463976481
 30
0.0
 10
73.62217441027023
 20
16.45940463976481
 30
0.0
 10
73.21833941095318
 20
16.45940463976481
 30
0.0
 10
72.907237886629
 20
16.45940463976481
 30
0.0
 10
72.59598921161154
 20
16.45940463976481
 30
0.0
 10
72.5619018970745
 20
16.45940463976481
 30
0.0
 10
72.53803030977096
 20
16.45940463976481
 30
0.0
  0
ARC
  5
22E
330
1F
100
AcDbEntity
  8
0
  6
Continuous
 62
     7
370
    25
100
AcDbCircle
 10
72.5380303098
 20
16.9594046398
 30
0.0
 40
0.5000000000000036
100
AcDbArc
 50
261.8197701175
 51
270.0
  0
LINE
  5
22F
330
1F
100
AcDbEntity
  8
0
  6
Continuous
 62
     7
370
    25
100
AcDbLine
 10
92.1652932636
 20
21.9594046398
 30
0.0
 11
92.1652932636
 21
22.2594046398
 31
0.0
  0
LINE
  5
230
330
1F
100
AcDbEntity
  8
0
  6
Continuous
 62
     7
370
    25
100
AcDbLine
 10
104.1652932636
 20
22.2594046398
 30
0.0
 11
104.1652932636
 21
21.9594046398
 31
0.0
  0
LINE
  5
231
330
1F
100
AcDbEntity
  8
0
  6
Continuous
 62
     7
370
    25
100
AcDbLine
 10
197.8392598758
 20
21.9594046398
 30
0.0
 11
197.8392598758
 21
22.2594046398
 31
0.0
  0
LINE
  5
232
330
1F
100
AcDbEntity
  8
0
  6
Continuous
 62
     7
370
    25
100
AcDbLine
 10
209.8392598758
 20
22.2594046398
 30
0.0
 11
209.8392598758
 21
21.9594046398
 31
0.0
  0
LINE
  5
233
330
1F
100
AcDbEntity
  8
0
  6
Continuous
 62
     7
370
    25
100
AcDbLine
 10
106.1652932636
 20
24.4594046398
 30
0.0
 11
106.1652932636
 21
21.9594046398
 31
0.0
  0
LINE
  5
234
330
1F
100
AcDbEntity
  8
0
  6
Continuous
 62
     7
370
    25
100
AcDbLine
 10
195.8392598758
 20
21.9594046398
 30
0.0
 11
195.8392598758
 21
24.4594046398
 31
0.0
  0
LINE
  5
235
330
1F
100
AcDbEntity
  8
0
  6
Continuous
 62
     7
370
    25
100
AcDbLine
 10
92.1652932636
 20
24.4594046398
 30
0.0
 11
92.1652932636
 21
24.2594046398
 31
0.0
  0
LINE
  5
236
330
1F
100
AcDbEntity
  8
0
  6
Continuous
 62
     7
370
    25
100
AcDbLine
 10
104.1652932636
 20
24.2594046398
 30
0.0
 11
104.1652932636
 21
24.4594046398
 31
0.0
  0
LINE
  5
237
330
1F
100
AcDbEntity
  8
0
  6
Continuous
 62
     7
370
    25
100
AcDbLine
 10
209.8392598758
 20
24.2594046398
 30
0.0
 11
209.8392598758
 21
24.4594046398
 31
0.0
  0
LINE
  5
238
330
1F
100
AcDbEntity
  8
0
  6
Continuous
 62
     7
370
    25
100
AcDbLine
 10
197.8392598758
 20
24.4594046398
 30
0.0
 11
197.8392598758
 21
24.2594046398
 31
0.0
  0
LINE
  5
239
330
1F
100
AcDbEntity
  8
0
  6
Continuous
 62
     8
370
    25
100
AcDbLine
 10
85.1522765697
 20
16.4594046398
 30
0.0
 11
85.1522765697
 21
15.0094046398
 31
0.0
  0
LINE
  5
23A
330
1F
100
AcDbEntity
  8
0
  6
Continuous
 62
     8
370
    25
100
AcDbLine
 10
216.8522765697
 20
15.0094046398
 30
0.0
 11
216.8522765697
 21
16.4594046398
 31
0.0
  0
LINE
  5
23B
330
1F
100
AcDbEntity
  8
0
  6
Continuous
 62
     8
370
    25
100
AcDbLine
 10
87.9460325379
 20
93.5152533611
 30
0.0
 11
86.9231214579
 21
20.2594046398
 31
0.0
  0
LINE
  5
23C
330
1F
100
AcDbEntity
  8
0
  6
Continuous
 62
     8
370
    25
100
AcDbLine
 10
215.0814316815
 20
20.2594046398
 30
0.0
 11
214.0585206014
 21
93.5152533611
 31
0.0
  0
POINT
  5
23D
330
1F
100
AcDbEntity
  8
FORMAT
100
AcDbPoint
 10
228.0817558092
 20
20.1594046398
 30
0.0
  0
POINT
  5
23E
330
1F
100
AcDbEntity
  8
FORMAT
100
AcDbPoint
 10
73.9227973302
 20
20.1594046398
 30
0.0
  0
LINE
  5
23F
330
1F
100
AcDbEntity
  8
0
  6
Continuous
 62
     7
370
    25
100
AcDbLine
 10
268.6465789285
 20
176.0355401228
 30
0.0
 11
265.6465789285
 21
176.0355401228
 31
0.0
  0
LINE
  5
240
330
1F
100
AcDbEntity
  8
0
  6
Continuous
 62
     7
370
    25
100
AcDbLine
 10
265.6465789285
 20
157.5355401228
 30
0.0
 11
268.6465789285
 21
157.5355401228
 31
0.0
  0
LINE
  5
241
330
1F
100
AcDbEntity
  8
0
  6
Continuous
 62
     7
370
    25
100
AcDbLine
 10
268.6465789285
 20
217.8355401228
 30
0.0
 11
265.6465789285
 21
217.8355401228
 31
0.0
  0
LINE
  5
242
330
1F
100
AcDbEntity
  8
0
  6
Continuous
 62
     7
370
    25
100
AcDbLine
 10
265.6465789285
 20
199.3355401228
 30
0.0
 11
268.6465789285
 21
199.3355401228
 31
0.0
  0
LINE
  5
243
330
1F
100
AcDbEntity
  8
0
  6
Continuous
 62
     7
370
    25
100
AcDbLine
 10
354.0965789285
 20
152.8355401228
 30
0.0
 11
354.0965789285
 21
151.0355401228
 31
0.0
  0
LINE
  5
244
330
1F
100
AcDbEntity
  8
0
  6
Continuous
 62
     7
370
    25
100
AcDbLine
 10
354.0965789285
 20
151.0355401228
 30
0.0
 11
352.6465789285
 21
151.0355401228
 31
0.0
  0
LINE
  5
245
330
1F
100
AcDbEntity
  8
0
  6
Continuous
 62
     7
370
    25
100
AcDbLine
 10
354.0965789285
 20
222.5355401228
 30
0.0
 11
354.0965789285
 21
152.8355401228
 31
0.0
  0
LINE
  5
246
330
1F
100
AcDbEntity
  8
0
  6
Continuous
 62
     7
370
    25
100
AcDbLine
 10
354.0965789285
 20
224.3355401228
 30
0.0
 11
354.0965789285
 21
222.5355401228
 31
0.0
  0
LINE
  5
247
330
1F
100
AcDbEntity
  8
0
  6
Continuous
 62
     7
370
    25
100
AcDbLine
 10
352.6465789285
 20
224.3355401228
 30
0.0
 11
354.0965789285
 21
224.3355401228
 31
0.0
  0
LINE
  5
248
330
1F
100
AcDbEntity
  8
0
  6
Continuous
 62
     7
370
    25
100
AcDbLine
 10
275.5767680268
 20
220.8855401228
 30
0.0
 11
275.5767680268
 21
219.8855401228
 31
0.0
  0
LINE
  5
249
330
1F
100
AcDbEntity
  8
0
  6
Continuous
 62
     7
370
    25
100
AcDbLine
 10
348.8465789285
 20
220.8855401228
 30
0.0
 11
275.5767680268
 21
220.8855401228
 31
0.0
  0
LINE
  5
24A
330
1F
100
AcDbEntity
  8
0
  6
Continuous
 62
     7
370
    25
100
AcDbLine
 10
348.8465789285
 20
219.8855401228
 30
0.0
 11
275.5767680268
 21
219.8855401228
 31
0.0
  0
LINE
  5
24B
330
1F
100
AcDbEntity
  8
0
  6
Continuous
 62
     7
370
    25
100
AcDbLine
 10
275.5767680268
 20
155.4855401228
 30
0.0
 11
275.5767680268
 21
154.4855401228
 31
0.0
  0
LINE
  5
24C
330
1F
100
AcDbEntity
  8
0
  6
Continuous
 62
     7
370
    25
100
AcDbLine
 10
348.8465789285
 20
155.4855401228
 30
0.0
 11
275.5767680268
 21
155.4855401228
 31
0.0
  0
LINE
  5
24D
330
1F
100
AcDbEntity
  8
0
  6
Continuous
 62
     7
370
    25
100
AcDbLine
 10
348.8465789285
 20
154.4855401228
 30
0.0
 11
275.5767680268
 21
154.4855401228
 31
0.0
  0
LINE
  5
24E
330
1F
100
AcDbEntity
  8
0
  6
Continuous
 62
     7
370
    25
100
AcDbLine
 10
338.6465789285
 20
187.1855401228
 30
0.0
 11
338.6465789285
 21
188.1855401228
 31
0.0
  0
LINE
  5
24F
330
1F
100
AcDbEntity
  8
0
  6
Continuous
 62
     7
370
    25
100
AcDbLine
 10
348.8465789285
 20
187.1855401228
 30
0.0
 11
338.6465789285
 21
187.1855401228
 31
0.0
  0
LINE
  5
250
330
1F
100
AcDbEntity
  8
0
  6
Continuous
 62
     7
370
    25
100
AcDbLine
 10
348.8465789285
 20
188.1855401228
 30
0.0
 11
338.6465789285
 21
188.1855401228
 31
0.0
  0
LINE
  5
251
330
1F
100
AcDbEntity
  8
0
  6
Continuous
 62
     7
370
    25
100
AcDbLine
 10
338.6465789285
 20
203.5355401228
 30
0.0
 11
338.6465789285
 21
204.5355401228
 31
0.0
  0
LINE
  5
252
330
1F
100
AcDbEntity
  8
0
  6
Continuous
 62
     7
370
    25
100
AcDbLine
 10
348.8465789285
 20
203.5355401228
 30
0.0
 11
338.6465789285
 21
203.5355401228
 31
0.0
  0
LINE
  5
253
330
1F
100
AcDbEntity
  8
0
  6
Continuous
 62
     7
370
    25
100
AcDbLine
 10
348.8465789285
 20
204.5355401228
 30
0.0
 11
338.6465789285
 21
204.5355401228
 31
0.0
  0
LINE
  5
254
330
1F
100
AcDbEntity
  8
0
  6
Continuous
 62
     7
370
    25
100
AcDbLine
 10
338.6465789285
 20
170.8355401228
 30
0.0
 11
338.6465789285
 21
171.8355401228
 31
0.0
  0
LINE
  5
255
330
1F
100
AcDbEntity
  8
0
  6
Continuous
 62
     7
370
    25
100
AcDbLine
 10
348.8465789285
 20
170.8355401228
 30
0.0
 11
338.6465789285
 21
170.8355401228
 31
0.0
  0
LINE
  5
256
330
1F
100
AcDbEntity
  8
0
  6
Continuous
 62
     7
370
    25
100
AcDbLine
 10
348.8465789285
 20
171.8355401228
 30
0.0
 11
338.6465789285
 21
171.8355401228
 31
0.0
  0
LINE
  5
257
330
1F
100
AcDbEntity
  8
0
  6
Continuous
 62
     7
370
    25
100
AcDbLine
 10
275.5767680268
 20
204.5355401228
 30
0.0
 11
275.5767680268
 21
203.5355401228
 31
0.0
  0
LINE
  5
258
330
1F
100
AcDbEntity
  8
0
  6
Continuous
 62
     7
370
    25
100
AcDbLine
 10
323.6465789285
 20
204.5355401228
 30
0.0
 11
323.6465789285
 21
203.5355401228
 31
0.0
  0
LINE
  5
259
330
1F
100
AcDbEntity
  8
0
  6
Continuous
 62
     7
370
    25
100
AcDbLine
 10
323.6465789285
 20
203.5355401228
 30
0.0
 11
275.5767680268
 21
203.5355401228
 31
0.0
  0
LINE
  5
25A
330
1F
100
AcDbEntity
  8
0
  6
Continuous
 62
     7
370
    25
100
AcDbLine
 10
323.6465789285
 20
204.5355401228
 30
0.0
 11
275.5767680268
 21
204.5355401228
 31
0.0
  0
LINE
  5
25B
330
1F
100
AcDbEntity
  8
0
  6
Continuous
 62
     7
370
    25
100
AcDbLine
 10
275.5767680268
 20
188.1855401228
 30
0.0
 11
275.5767680268
 21
187.1855401228
 31
0.0
  0
LINE
  5
25C
330
1F
100
AcDbEntity
  8
0
  6
Continuous
 62
     7
370
    25
100
AcDbLine
 10
323.6465789285
 20
188.1855401228
 30
0.0
 11
323.6465789285
 21
187.1855401228
 31
0.0
  0
LINE
  5
25D
330
1F
100
AcDbEntity
  8
0
  6
Continuous
 62
     7
370
    25
100
AcDbLine
 10
323.6465789285
 20
188.1855401228
 30
0.0
 11
275.5767680268
 21
188.1855401228
 31
0.0
  0
LINE
  5
25E
330
1F
100
AcDbEntity
  8
0
  6
Continuous
 62
     7
370
    25
100
AcDbLine
 10
323.6465789285
 20
187.1855401228
 30
0.0
 11
275.5767680268
 21
187.1855401228
 31
0.0
  0
LINE
  5
25F
330
1F
100
AcDbEntity
  8
0
  6
Continuous
 62
     7
370
    25
100
AcDbLine
 10
275.5767680268
 20
171.8355401228
 30
0.0
 11
275.5767680268
 21
170.8355401228
 31
0.0
  0
LINE
  5
260
330
1F
100
AcDbEntity
  8
0
  6
Continuous
 62
     7
370
    25
100
AcDbLine
 10
323.6465789285
 20
171.8355401228
 30
0.0
 11
323.6465789285
 21
170.8355401228
 31
0.0
  0
LINE
  5
261
330
1F
100
AcDbEntity
  8
0
  6
Continuous
 62
     7
370
    25
100
AcDbLine
 10
323.6465789285
 20
170.8355401228
 30
0.0
 11
275.5767680268
 21
170.8355401228
 31
0.0
  0
LINE
  5
262
330
1F
100
AcDbEntity
  8
0
  6
Continuous
 62
     7
370
    25
100
AcDbLine
 10
323.6465789285
 20
171.8355401228
 30
0.0
 11
275.5767680268
 21
171.8355401228
 31
0.0
  0
ELLIPSE
  5
263
330
1F
100
AcDbEntity
  8
0
  6
Continuous
 62
     7
370
    25
100
AcDbEllipse
 10
275.6465789285
 20
152.6308557829
 30
0.0
 11
0.05584630253559908
 21
12.00039000249839
 31
0.0
210
0.0
220
0.0
230
1.0
 40
0.0046532033
 41
1.570947951539906
 42
3.141549335853846
  0
LINE
  5
264
330
1F
100
AcDbEntity
  8
0
  6
Continuous
 62
     7
370
    25
100
AcDbLine
 10
348.8465789285
 20
139.6075547229
 30
0.0
 11
275.5907302071
 21
140.6304658029
 31
0.0
  0
ELLIPSE
  5
265
330
1F
100
AcDbEntity
  8
0
  6
Continuous
 62
     7
370
    25
100
AcDbEllipse
 10
275.6465789285
 20
222.7402244627
 30
0.0
 11
-0.05584630253559908
 21
12.00039000249839
 31
0.0
210
0.0
220
0.0
230
1.0
 40
0.0046532033
 41
0.0000433177359914
 42
1.57064470204989
  0
LINE
  5
266
330
1F
100
AcDbEntity
  8
0
  6
Continuous
 62
     7
370
    25
100
AcDbLine
 10
275.5907302071
 20
234.7406144427
 30
0.0
 11
348.8465789285
 21
235.7635255227
 31
0.0
  0
LINE
  5
267
330
1F
100
AcDbEntity
  8
0
  6
Continuous
 62
     7
370
    25
100
AcDbLine
 10
275.5907302071
 20
222.7417841546
 30
0.0
 11
275.5907302071
 21
220.8855401228
 31
0.0
  0
LINE
  5
268
330
1F
100
AcDbEntity
  8
0
  6
Continuous
 62
     7
370
    25
100
AcDbLine
 10
275.5907302071
 20
154.4855401228
 30
0.0
 11
275.5907302071
 21
152.6292960911
 31
0.0
  0
ARC
  5
269
330
1F
100
AcDbEntity
  8
0
  6
Continuous
 62
     7
370
    25
100
AcDbCircle
 10
331.1465789285
 20
210.1855401228
 30
0.0
 40
7.5
100
AcDbArc
 50
0.0
 51
180.0
  0
LINE
  5
26A
330
1F
100
AcDbEntity
  8
0
  6
Continuous
 62
     7
370
    25
100
AcDbLine
 10
275.5907302071
 20
219.8855401228
 30
0.0
 11
275.5907302071
 21
204.5355401228
 31
0.0
  0
LINE
  5
26B
330
1F
100
AcDbEntity
  8
0
  6
Continuous
 62
     7
370
    25
100
AcDbLine
 10
323.6465789285
 20
210.1855401228
 30
0.0
 11
323.6465789285
 21
204.5355401228
 31
0.0
  0
LINE
  5
26C
330
1F
100
AcDbEntity
  8
0
  6
Continuous
 62
     7
370
    25
100
AcDbLine
 10
338.6465789285
 20
204.5355401228
 30
0.0
 11
338.6465789285
 21
210.1855401228
 31
0.0
  0
LINE
  5
26D
330
1F
100
AcDbEntity
  8
0
  6
Continuous
 62
     7
370
    25
100
AcDbLine
 10
275.5907302071
 20
170.8355401228
 30
0.0
 11
275.5907302071
 21
155.4855401228
 31
0.0
  0
ARC
  5
26E
330
1F
100
AcDbEntity
  8
0
  6
Continuous
 62
     7
370
    25
100
AcDbCircle
 10
331.1465789285
 20
165.1855401228
 30
0.0
 40
7.5
100
AcDbArc
 50
180.0
 51
0.0
  0
LINE
  5
26F
330
1F
100
AcDbEntity
  8
0
  6
Continuous
 62
     7
370
    25
100
AcDbLine
 10
323.6465789285
 20
170.8355401228
 30
0.0
 11
323.6465789285
 21
165.1855401228
 31
0.0
  0
LINE
  5
270
330
1F
100
AcDbEntity
  8
0
  6
Continuous
 62
     7
370
    25
100
AcDbLine
 10
338.6465789285
 20
165.1855401228
 30
0.0
 11
338.6465789285
 21
170.8355401228
 31
0.0
  0
LINE
  5
271
330
1F
100
AcDbEntity
  8
0
  6
Continuous
 62
     7
370
    25
100
AcDbLine
 10
338.6465789285
 20
171.8355401228
 30
0.0
 11
338.6465789285
 21
187.1855401228
 31
0.0
  0
LINE
  5
272
330
1F
100
AcDbEntity
  8
0
  6
Continuous
 62
     7
370
    25
100
AcDbLine
 10
338.6465789285
 20
188.1855401228
 30
0.0
 11
338.6465789285
 21
203.5355401228
 31
0.0
  0
LINE
  5
273
330
1F
100
AcDbEntity
  8
0
  6
Continuous
 62
     7
370
    25
100
AcDbLine
 10
270.6465789285
 20
188.1855401228
 30
0.0
 11
270.6465789285
 21
187.1855401228
 31
0.0
  0
LINE
  5
274
330
1F
100
AcDbEntity
  8
0
  6
Continuous
 62
     7
370
    25
100
AcDbLine
 10
275.5767680268
 20
188.1855401228
 30
0.0
 11
270.6465789285
 21
188.1855401228
 31
0.0
  0
LINE
  5
275
330
1F
100
AcDbEntity
  8
0
  6
Continuous
 62
     7
370
    25
100
AcDbLine
 10
275.5767680268
 20
187.1855401228
 30
0.0
 11
270.6465789285
 21
187.1855401228
 31
0.0
  0
LINE
  5
276
330
1F
100
AcDbEntity
  8
0
  6
Continuous
 62
     7
370
    25
100
AcDbLine
 10
270.6465789285
 20
204.5355401228
 30
0.0
 11
270.6465789285
 21
203.5355401228
 31
0.0
  0
LINE
  5
277
330
1F
100
AcDbEntity
  8
0
  6
Continuous
 62
     7
370
    25
100
AcDbLine
 10
275.5767680268
 20
203.5355401228
 30
0.0
 11
270.6465789285
 21
203.5355401228
 31
0.0
  0
LINE
  5
278
330
1F
100
AcDbEntity
  8
0
  6
Continuous
 62
     7
370
    25
100
AcDbLine
 10
275.5767680268
 20
204.5355401228
 30
0.0
 11
270.6465789285
 21
204.5355401228
 31
0.0
  0
LINE
  5
279
330
1F
100
AcDbEntity
  8
0
  6
Continuous
 62
     7
370
    25
100
AcDbLine
 10
270.6465789285
 20
171.8355401228
 30
0.0
 11
270.6465789285
 21
170.8355401228
 31
0.0
  0
LINE
  5
27A
330
1F
100
AcDbEntity
  8
0
  6
Continuous
 62
     7
370
    25
100
AcDbLine
 10
275.5767680268
 20
170.8355401228
 30
0.0
 11
270.6465789285
 21
170.8355401228
 31
0.0
  0
LINE
  5
27B
330
1F
100
AcDbEntity
  8
0
  6
Continuous
 62
     7
370
    25
100
AcDbLine
 10
275.5767680268
 20
171.8355401228
 30
0.0
 11
270.6465789285
 21
171.8355401228
 31
0.0
  0
LINE
  5
27C
330
1F
100
AcDbEntity
  8
0
  6
Continuous
 62
     7
370
    25
100
AcDbLine
 10
270.6465789285
 20
155.4855401228
 30
0.0
 11
270.6465789285
 21
154.4855401228
 31
0.0
  0
LINE
  5
27D
330
1F
100
AcDbEntity
  8
0
  6
Continuous
 62
     7
370
    25
100
AcDbLine
 10
275.5767680268
 20
155.4855401228
 30
0.0
 11
270.6465789285
 21
155.4855401228
 31
0.0
  0
LINE
  5
27E
330
1F
100
AcDbEntity
  8
0
  6
Continuous
 62
     7
370
    25
100
AcDbLine
 10
275.5767680268
 20
154.4855401228
 30
0.0
 11
270.6465789285
 21
154.4855401228
 31
0.0
  0
LINE
  5
27F
330
1F
100
AcDbEntity
  8
0
  6
Continuous
 62
     7
370
    25
100
AcDbLine
 10
270.6465789285
 20
220.8855401228
 30
0.0
 11
270.6465789285
 21
219.8855401228
 31
0.0
  0
LINE
  5
280
330
1F
100
AcDbEntity
  8
0
  6
Continuous
 62
     7
370
    25
100
AcDbLine
 10
275.5767680268
 20
220.8855401228
 30
0.0
 11
270.6465789285
 21
220.8855401228
 31
0.0
  0
LINE
  5
281
330
1F
100
AcDbEntity
  8
0
  6
Continuous
 62
     7
370
    25
100
AcDbLine
 10
275.5767680268
 20
219.8855401228
 30
0.0
 11
270.6465789285
 21
219.8855401228
 31
0.0
  0
LINE
  5
282
330
1F
100
AcDbEntity
  8
0
  6
Continuous
 62
     7
370
    25
100
AcDbLine
 10
275.5907302071
 20
187.1855401228
 30
0.0
 11
275.5907302071
 21
171.8355401228
 31
0.0
  0
LINE
  5
283
330
1F
100
AcDbEntity
  8
0
  6
Continuous
 62
     7
370
    25
100
AcDbLine
 10
323.6465789285
 20
187.1855401228
 30
0.0
 11
323.6465789285
 21
171.8355401228
 31
0.0
  0
LINE
  5
284
330
1F
100
AcDbEntity
  8
0
  6
Continuous
 62
     7
370
    25
100
AcDbLine
 10
275.5907302071
 20
203.5355401228
 30
0.0
 11
275.5907302071
 21
188.1855401228
 31
0.0
  0
LINE
  5
285
330
1F
100
AcDbEntity
  8
0
  6
Continuous
 62
     7
370
    25
100
AcDbLine
 10
323.6465789285
 20
203.5355401228
 30
0.0
 11
323.6465789285
 21
188.1855401228
 31
0.0
  0
LINE
  5
286
330
1F
100
AcDbEntity
  8
0
  6
Continuous
 62
     7
370
    25
100
AcDbLine
 10
271.6465789285
 20
144.630075899
 30
0.0
 11
271.6465789285
 21
152.6292960911
 31
0.0
  0
LINE
  5
287
330
1F
100
AcDbEntity
  8
0
  6
Continuous
 62
     7
370
    25
100
AcDbLine
 10
271.6465789285
 20
152.6292960911
 30
0.0
 11
275.5907302071
 21
152.6292960911
 31
0.0
  0
ARC
  5
288
330
1F
100
AcDbEntity
  8
0
  6
Continuous
 62
     7
370
    25
100
AcDbCircle
 10
275.6465789285
 20
144.630075899
 30
0.0
 40
4.0
100
AcDbArc
 50
180.0
 51
269.2
  0
LINE
  5
289
330
1F
100
AcDbEntity
  8
0
  6
Continuous
 62
     7
370
    25
100
AcDbLine
 10
271.6465789285
 20
222.7417841546
 30
0.0
 11
271.6465789285
 21
230.7410043466
 31
0.0
  0
ARC
  5
28A
330
1F
100
AcDbEntity
  8
0
  6
Continuous
 62
     7
370
    25
100
AcDbCircle
 10
275.6465789285
 20
230.7410043466
 30
0.0
 40
4.000000000000042
100
AcDbArc
 50
90.8
 51
180.0
  0
LINE
  5
28B
330
1F
100
AcDbEntity
  8
0
  6
Continuous
 62
     7
370
    25
100
AcDbLine
 10
271.6465789285
 20
222.7417841546
 30
0.0
 11
275.5907302071
 21
222.7417841546
 31
0.0
  0
LINE
  5
28C
330
1F
100
AcDbEntity
  8
0
  6
Continuous
 62
     7
370
    25
100
AcDbLine
 10
271.6465789285
 20
171.8355401228
 30
0.0
 11
271.6465789285
 21
187.1855401228
 31
0.0
  0
LINE
  5
28D
330
1F
100
AcDbEntity
  8
0
  6
Continuous
 62
     7
370
    25
100
AcDbLine
 10
271.6465789285
 20
220.8855401228
 30
0.0
 11
271.6465789285
 21
222.7417841546
 31
0.0
  0
LINE
  5
28E
330
1F
100
AcDbEntity
  8
0
  6
Continuous
 62
     7
370
    25
100
AcDbLine
 10
271.6465789285
 20
188.1855401228
 30
0.0
 11
271.6465789285
 21
203.5355401228
 31
0.0
  0
LINE
  5
28F
330
1F
100
AcDbEntity
  8
0
  6
Continuous
 62
     7
370
    25
100
AcDbLine
 10
271.6465789285
 20
155.4855401228
 30
0.0
 11
271.6465789285
 21
170.8355401228
 31
0.0
  0
LINE
  5
290
330
1F
100
AcDbEntity
  8
0
  6
Continuous
 62
     7
370
    25
100
AcDbLine
 10
271.6465789285
 20
204.5355401228
 30
0.0
 11
271.6465789285
 21
219.8855401228
 31
0.0
  0
LINE
  5
291
330
1F
100
AcDbEntity
  8
0
  6
Continuous
 62
     7
370
    25
100
AcDbLine
 10
271.6465789285
 20
152.6292960911
 30
0.0
 11
271.6465789285
 21
154.4855401228
 31
0.0
  0
LINE
  5
292
330
1F
100
AcDbEntity
  8
0
  6
Continuous
 62
     7
370
    25
100
AcDbLine
 10
271.6465789285
 20
149.7855401228
 30
0.0
 11
268.6465789285
 21
149.7855401228
 31
0.0
  0
LINE
  5
293
330
1F
100
AcDbEntity
  8
0
  6
Continuous
 62
     7
370
    25
100
AcDbLine
 10
271.6465789285
 20
225.5855401228
 30
0.0
 11
268.6465789285
 21
225.5855401228
 31
0.0
  0
LINE
  5
294
330
1F
100
AcDbEntity
  8
0
  6
Continuous
 62
     7
370
    25
100
AcDbLine
 10
268.6465789285
 20
149.7855401228
 30
0.0
 11
268.6465789285
 21
225.5855401228
 31
0.0
  0
LINE
  5
295
330
1F
100
AcDbEntity
  8
0
  6
Continuous
 62
     7
370
    25
100
AcDbLine
 10
275.5767680268
 20
139.6305632789
 30
0.0
 11
348.8465789285
 21
138.6074572374
 31
0.0
  0
LINE
  5
296
330
1F
100
AcDbEntity
  8
0
  6
Continuous
 62
     7
370
    25
100
AcDbLine
 10
270.6465789285
 20
149.7855401228
 30
0.0
 11
270.6465789285
 21
144.630075899
 31
0.0
  0
ARC
  5
297
330
1F
100
AcDbEntity
  8
0
  6
Continuous
 62
     7
370
    25
100
AcDbCircle
 10
275.6465789285
 20
144.630075899
 30
0.0
 40
5.000000000000024
100
AcDbArc
 50
180.0
 51
269.2
  0
LINE
  5
298
330
1F
100
AcDbEntity
  8
0
  6
Continuous
 62
     7
370
    25
100
AcDbLine
 10
275.5767680268
 20
235.7405169667
 30
0.0
 11
348.8465789285
 21
236.7636230082
 31
0.0
  0
LINE
  5
299
330
1F
100
AcDbEntity
  8
0
  6
Continuous
 62
     7
370
    25
100
AcDbLine
 10
270.6465789285
 20
225.5855401228
 30
0.0
 11
270.6465789285
 21
230.7410043466
 31
0.0
  0
ARC
  5
29A
330
1F
100
AcDbEntity
  8
0
  6
Continuous
 62
     7
370
    25
100
AcDbCircle
 10
275.6465789285
 20
230.7410043466
 30
0.0
 40
5.000000000000024
100
AcDbArc
 50
90.8
 51
180.0
  0
LINE
  5
29B
330
1F
100
AcDbEntity
  8
0
  6
Continuous
 62
     7
370
    25
100
AcDbLine
 10
265.6465789285
 20
166.7855401228
 30
0.0
 11
265.6465789285
 21
157.5355401228
 31
0.0
  0
LINE
  5
29C
330
1F
100
AcDbEntity
  8
0
  6
Continuous
 62
     7
370
    25
100
AcDbLine
 10
265.6465789285
 20
176.0355401228
 30
0.0
 11
265.6465789285
 21
166.7855401228
 31
0.0
  0
LINE
  5
29D
330
1F
100
AcDbEntity
  8
0
  6
Continuous
 62
     7
370
    25
100
AcDbLine
 10
265.6465789285
 20
208.5855401228
 30
0.0
 11
265.6465789285
 21
217.8355401228
 31
0.0
  0
LINE
  5
29E
330
1F
100
AcDbEntity
  8
0
  6
Continuous
 62
     7
370
    25
100
AcDbLine
 10
265.6465789285
 20
199.3355401228
 30
0.0
 11
265.6465789285
 21
208.5855401228
 31
0.0
  0
SPLINE
  5
29F
330
1F
100
AcDbEntity
  8
0
  6
Continuous
 62
     7
370
    25
100
AcDbSpline
210
0.0
220
0.0
230
1.0
 70
     8
 71
     3
 72
    22
 73
    18
 74
     0
 42
0.00000001
 43
0.00000001
 40
0.0
 40
0.0
 40
0.0
 40
0.0
 40
0.2422164057093014
 40
0.2963141496911771
 40
0.3396941897139493
 40
0.4997442254671127
 40
0.6580372490587323
 40
0.695683782998484
 40
0.6984356709764378
 40
0.6996487319274743
 40
0.6997927293857513
 40
0.6998640918497698
 40
0.6998729823328427
 40
0.6998774250889702
 40
0.6998840467622781
 40
0.7604185742103892
 40
1.0
 40
1.0
 40
1.0
 40
1.0
 10
351.055484105431
 20
132.1855401228048
 30
0.0
 10
351.0521965324525
 20
132.218185707952
 30
0.0
 10
351.0481746975614
 20
132.2581225106459
 30
0.0
 10
351.0476576836405
 20
132.4439837849217
 30
0.0
 10
351.0475625642079
 20
132.6044974443637
 30
0.0
 10
351.0475492411052
 20
132.8970705536748
 30
0.0
 10
351.0475625937278
 20
133.2675355417558
 30
0.0
 10
351.0476123928563
 20
133.494019924199
 30
0.0
 10
351.0476488836202
 20
133.5422446155294
 30
0.0
 10
351.0476532082072
 20
133.5470141619835
 30
0.0
 10
351.0476548137664
 20
133.5486731318699
 30
0.0
 10
351.0476550685882
 20
133.5489335989877
 30
0.0
 10
351.0476551652184
 20
133.5490319763028
 30
0.0
 10
351.047655188001
 20
133.549055154824
 30
0.0
 10
351.0477243434602
 20
133.6193818738037
 30
0.0
 10
351.0481699476087
 20
133.9762559122888
 30
0.0
 10
351.0522372185132
 20
134.3706760359128
 30
0.0
 10
351.055484105431
 20
134.6855401228048
 30
0.0
  0
LINE
  5
2A0
330
1F
100
AcDbEntity
  8
0
  6
Continuous
 62
     7
370
    25
100
AcDbLine
 10
348.8465789285
 20
132.1855401228
 30
0.0
 11
351.0554841054
 21
132.1855401228
 31
0.0
  0
LINE
  5
2A1
330
1F
100
AcDbEntity
  8
0
  6
Continuous
 62
     7
370
    25
100
AcDbLine
 10
348.8465789285
 20
132.1855401228
 30
0.0
 11
348.8465789285
 21
134.6855401228
 31
0.0
  0
LINE
  5
2A2
330
1F
100
AcDbEntity
  8
0
  6
Continuous
 62
     7
370
    25
100
AcDbLine
 10
351.0554841054
 20
134.6855401228
 30
0.0
 11
348.8465789285
 21
134.6855401228
 31
0.0
  0
LINE
  5
2A3
330
1F
100
AcDbEntity
  8
0
  6
Continuous
 62
     7
370
    25
100
AcDbLine
 10
351.0633143284
 20
239.9109358359
 30
0.0
 11
351.0633143284
 21
135.4601444097
 31
0.0
  0
LINE
  5
2A4
330
1F
100
AcDbEntity
  8
0
  6
Continuous
 62
     7
370
    25
100
AcDbLine
 10
351.0633143284
 20
135.4601444097
 30
0.0
 11
351.0554841054
 21
134.6855401228
 31
0.0
  0
LINE
  5
2A5
330
1F
100
AcDbEntity
  8
0
  6
Continuous
 62
     7
370
    25
100
AcDbLine
 10
348.8465789285
 20
134.6855401228
 30
0.0
 11
348.8465789285
 21
240.6855401228
 31
0.0
  0
LINE
  5
2A6
330
1F
100
AcDbEntity
  8
0
  6
Continuous
 62
     7
370
    25
100
AcDbLine
 10
348.8465789285
 20
240.6855401228
 30
0.0
 11
351.0554841054
 21
240.6855401228
 31
0.0
  0
LINE
  5
2A7
330
1F
100
AcDbEntity
  8
0
  6
Continuous
 62
     7
370
    25
100
AcDbLine
 10
351.0554841054
 20
240.6855401228
 30
0.0
 11
351.0633143284
 21
239.9109358359
 31
0.0
  0
SPLINE
  5
2A8
330
1F
100
AcDbEntity
  8
0
  6
Continuous
 62
     7
370
    25
100
AcDbSpline
210
0.0
220
0.0
230
1.0
 70
     8
 71
     3
 72
    22
 73
    18
 74
     0
 42
0.00000001
 43
0.00000001
 40
0.0
 40
0.0
 40
0.0
 40
0.0
 40
0.2422164057157573
 40
0.2963141497082114
 40
0.3396941897520261
 40
0.4997442254671202
 40
0.6580372490248518
 40
0.695683782990156
 40
0.6984356709733051
 40
0.699648731927105
 40
0.6997927293857363
 40
0.6998640918499317
 40
0.6998729823330292
 40
0.6998774250891646
 40
0.6998840467624726
 40
0.7604185742033073
 40
1.0
 40
1.0
 40
1.0
 40
1.0
 10
351.055484105431
 20
240.6855401228049
 30
0.0
 10
351.0521965324519
 20
241.0039402794951
 30
0.0
 10
351.04817469756
 20
241.3934534151467
 30
0.0
 10
351.0476576836405
 20
241.7974602759676
 30
0.0
 10
351.0475625642079
 20
242.0923778958916
 30
0.0
 10
351.0475492411052
 20
242.4696001311443
 30
0.0
 10
351.0475625937277
 20
242.7578813685728
 30
0.0
 10
351.0476123928563
 20
242.8839208984267
 30
0.0
 10
351.0476488836202
 20
242.9088026933225
 30
0.0
 10
351.0476532082072
 20
242.911244836176
 30
0.0
 10
351.0476548137664
 20
242.9120920549005
 30
0.0
 10
351.0476550685882
 20
242.9122250174185
 30
0.0
 10
351.0476551652184
 20
242.9122752290008
 30
0.0
 10
351.047655188001
 20
242.9122870589696
 30
0.0
 10
351.04772434346
 20
242.9481799434856
 30
0.0
 10
351.0481699476078
 20
243.1136933839648
 30
0.0
 10
351.0522372185127
 20
243.1536460562431
 30
0.0
 10
351.055484105431
 20
243.1855401228049
 30
0.0
  0
LINE
  5
2A9
330
1F
100
AcDbEntity
  8
0
  6
Continuous
 62
     7
370
    25
100
AcDbLine
 10
348.8465789285
 20
240.6855401228
 30
0.0
 11
348.8465789285
 21
243.1855401228
 31
0.0
  0
LINE
  5
2AA
330
1F
100
AcDbEntity
  8
0
  6
Continuous
 62
     7
370
    25
100
AcDbLine
 10
351.0554841054
 20
243.1855401228
 30
0.0
 11
348.8465789285
 21
243.1855401228
 31
0.0
  0
LINE
  5
2AB
330
1F
100
AcDbEntity
  8
0
  6
Continuous
 62
     7
370
    25
100
AcDbLine
 10
351.5582270217
 20
135.4601444097
 30
0.0
 11
351.5582270217
 21
239.9109358359
 31
0.0
  0
LINE
  5
2AC
330
1F
100
AcDbEntity
  8
0
  6
Continuous
 62
     7
370
    25
100
AcDbLine
 10
351.0633143284
 20
135.4601444097
 30
0.0
 11
351.5582270217
 21
135.4601444097
 31
0.0
  0
LINE
  5
2AD
330
1F
100
AcDbEntity
  8
0
  6
Continuous
 62
     7
370
    25
100
AcDbLine
 10
351.5582270217
 20
239.9109358359
 30
0.0
 11
351.0633143284
 21
239.9109358359
 31
0.0
  0
ARC
  5
2AE
330
1F
100
AcDbEntity
  8
0
  6
Continuous
 62
     7
370
    25
100
AcDbCircle
 10
351.0554414509
 20
242.6856062707
 30
0.0
 40
0.4999338539524296
100
AcDbArc
 50
7.0354949051
 51
89.9951115003
  0
SPLINE
  5
2AF
330
1F
100
AcDbEntity
  8
0
  6
Continuous
 62
     7
370
    25
100
AcDbSpline
210
0.0
220
0.0
230
1.0
 70
     8
 71
     3
 72
    11
 73
     7
 74
     0
 42
0.00000001
 43
0.00000001
 40
0.0
 40
0.0
 40
0.0
 40
0.0
 40
0.249957707805266
 40
0.4997790583518499
 40
0.7494975113806479
 40
1.0
 40
1.0
 40
1.0
 40
1.0
 10
351.5516110342512
 20
240.6955582201728
 30
0.0
 10
351.5487652590546
 20
240.9626500997315
 30
0.0
 10
351.5430752610922
 20
241.4966881545343
 30
0.0
 10
351.5459493160498
 20
242.167339018852
 30
0.0
 10
351.543075918417
 20
242.6437762708009
 30
0.0
 10
351.5487630243571
 20
242.7124497254695
 30
0.0
 10
351.5516110342512
 20
242.7468402714549
 30
0.0
  0
LINE
  5
2B0
330
1F
100
AcDbEntity
  8
0
  6
Continuous
 62
     7
370
    25
100
AcDbLine
 10
351.0554841054
 20
240.6855401228
 30
0.0
 11
351.5516110343
 21
240.6955582202
 31
0.0
  0
LINE
  5
2B1
330
1F
100
AcDbEntity
  8
0
  6
Continuous
 62
     7
370
    25
100
AcDbLine
 10
351.5582270217
 20
239.9109358359
 30
0.0
 11
351.5516110343
 21
240.6955582202
 31
0.0
  0
SPLINE
  5
2B2
330
1F
100
AcDbEntity
  8
0
  6
Continuous
 62
     7
370
    25
100
AcDbSpline
210
0.0
220
0.0
230
1.0
 70
     8
 71
     3
 72
    11
 73
     7
 74
     0
 42
0.00000001
 43
0.00000001
 40
0.0
 40
0.0
 40
0.0
 40
0.0
 40
0.2499577078052684
 40
0.4997790583518643
 40
0.7494975113806496
 40
1.0
 40
1.0
 40
1.0
 40
1.0
 10
351.5516110342512
 20
132.6242399741548
 30
0.0
 10
351.5487652590546
 20
132.6584885772482
 30
0.0
 10
351.5430752610922
 20
132.7269671000918
 30
0.0
 10
351.5459493160498
 20
133.2025440267348
 30
0.0
 10
351.5430759184169
 20
133.8733153512895
 30
0.0
 10
351.5487630243571
 20
134.4078405329472
 30
0.0
 10
351.5516110342512
 20
134.6755220254369
 30
0.0
  0
ARC
  5
2B3
330
1F
100
AcDbEntity
  8
0
  6
Continuous
 62
     7
370
    25
100
AcDbCircle
 10
351.0554414509
 20
132.6854739749
 30
0.0
 40
0.4999338539522663
100
AcDbArc
 50
270.0048884997
 51
352.9645050951
  0
LINE
  5
2B4
330
1F
100
AcDbEntity
  8
0
  6
Continuous
 62
     7
370
    25
100
AcDbLine
 10
351.5516110343
 20
134.6755220254
 30
0.0
 11
351.0554841054
 21
134.6855401228
 31
0.0
  0
LINE
  5
2B5
330
1F
100
AcDbEntity
  8
0
  6
Continuous
 62
     7
370
    25
100
AcDbLine
 10
351.5516110343
 20
134.6755220254
 30
0.0
 11
351.5582270217
 21
135.4601444097
 31
0.0
  0
LINE
  5
2B6
330
1F
100
AcDbEntity
  8
0
  6
Continuous
 62
     7
370
    25
100
AcDbLine
 10
351.5516110343
 20
242.7468402715
 30
0.0
 11
351.5582270217
 21
242.7566838225
 31
0.0
  0
LINE
  5
2B7
330
1F
100
AcDbEntity
  8
0
  6
Continuous
 62
     7
370
    25
100
AcDbLine
 10
352.6414916218
 20
235.2209300824
 30
0.0
 11
351.5582270217
 21
242.7566838225
 31
0.0
  0
SPLINE
  5
2B8
330
1F
100
AcDbEntity
  8
0
  6
Continuous
 62
     7
370
    25
100
AcDbSpline
210
0.0
220
0.0
230
1.0
 70
     8
 71
     3
 72
    13
 73
     9
 74
     0
 42
0.00000001
 43
0.00000001
 40
0.0
 40
0.0
 40
0.0
 40
0.0
 40
0.2720397088000099
 40
0.3891454049891026
 40
0.5000004465286633
 40
0.6108587563826867
 40
0.7279656996581074
 40
1.0
 40
1.0
 40
1.0
 40
1.0
 10
352.6414916217989
 20
235.2209300823954
 30
0.0
 10
352.6422036690352
 20
235.1910711231179
 30
0.0
 10
352.6432222332417
 20
235.148358693922
 30
0.0
 10
352.6439049489556
 20
234.8247621238707
 30
0.0
 10
352.6440693456981
 20
234.5052888446665
 30
0.0
 10
352.6439062210852
 20
234.093095001924
 30
0.0
 10
352.6432229078166
 20
233.393059387679
 30
0.0
 10
352.6422039427322
 20
232.7939778898777
 30
0.0
 10
352.6414916217989
 20
232.3751820958693
 30
0.0
  0
LINE
  5
2B9
330
1F
100
AcDbEntity
  8
0
  6
Continuous
 62
     7
370
    25
100
AcDbLine
 10
352.6414916218
 20
232.3751820959
 30
0.0
 11
351.5582270217
 21
239.9109358359
 31
0.0
  0
LINE
  5
2BA
330
1F
100
AcDbEntity
  8
0
  6
Continuous
 62
     7
370
    25
100
AcDbLine
 10
352.6414916218
 20
142.9958981497
 30
0.0
 11
351.5582270217
 21
135.4601444097
 31
0.0
  0
SPLINE
  5
2BB
330
1F
100
AcDbEntity
  8
0
  6
Continuous
 62
     7
370
    25
100
AcDbSpline
210
0.0
220
0.0
230
1.0
 70
     8
 71
     3
 72
    13
 73
     9
 74
     0
 42
0.00000001
 43
0.00000001
 40
0.0
 40
0.0
 40
0.0
 40
0.0
 40
0.2720397088908538
 40
0.3891454050589973
 40
0.5000004465436658
 40
0.610858756452578
 40
0.7279656997489408
 40
0.9999999999999999
 40
0.9999999999999999
 40
0.9999999999999999
 40
0.9999999999999999
 10
352.6414916217989
 20
142.9958981497404
 30
0.0
 10
352.6422036690306
 20
142.5770938790332
 30
0.0
 10
352.6432222332303
 20
141.9780057597683
 30
0.0
 10
352.6439049489342
 20
141.2779677715164
 30
0.0
 10
352.6440693456981
 20
140.8657837609418
 30
0.0
 10
352.6439062211066
 20
140.546321179658
 30
0.0
 10
352.643222907828
 20
140.2227249919912
 30
0.0
 10
352.6422039427368
 20
140.1800103765077
 30
0.0
 10
352.6414916217989
 20
140.1501501632143
 30
0.0
  0
LINE
  5
2BC
330
1F
100
AcDbEntity
  8
0
  6
Continuous
 62
     7
370
    25
100
AcDbLine
 10
352.6414916218
 20
140.1501501632
 30
0.0
 11
351.5582270217
 21
132.6143964231
 31
0.0
  0
LINE
  5
2BD
330
1F
100
AcDbEntity
  8
0
  6
Continuous
 62
     7
370
    25
100
AcDbLine
 10
351.5582270217
 20
132.6143964231
 30
0.0
 11
351.5516110343
 21
132.6242399742
 31
0.0
  0
LINE
  5
2BE
330
1F
100
AcDbEntity
  8
0
  6
Continuous
 62
     7
370
    25
100
AcDbLine
 10
352.6414916218
 20
232.3751820959
 30
0.0
 11
352.6414916218
 21
142.9958981497
 31
0.0
  0
ARC
  5
2BF
330
1F
100
AcDbEntity
  8
0
  6
Continuous
 62
     7
370
    25
100
AcDbCircle
 10
351.0633143284
 20
242.6855401228
 30
0.0
 40
0.5000000000000068
100
AcDbArc
 50
8.1802298825
 51
90.0
  0
ARC
  5
2C0
330
1F
100
AcDbEntity
  8
0
  6
Continuous
 62
     7
370
    25
100
AcDbCircle
 10
351.0633143284
 20
132.6855401228
 30
0.0
 40
0.5000000000000229
100
AcDbArc
 50
270.0
 51
351.8197701175
  0
LINE
  5
2C1
330
1F
100
AcDbEntity
  8
0
  6
Continuous
 62
     7
370
    25
100
AcDbLine
 10
352.6465789285
 20
232.3751820959
 30
0.0
 11
352.6465789285
 21
142.9958981497
 31
0.0
  0
LINE
  5
2C2
330
1F
100
AcDbEntity
  8
0
  6
Continuous
 62
     7
370
    25
100
AcDbLine
 10
352.6465789285
 20
142.9958981497
 30
0.0
 11
352.6414916218
 21
142.9958981497
 31
0.0
  0
LINE
  5
2C3
330
1F
100
AcDbEntity
  8
0
  6
Continuous
 62
     7
370
    25
100
AcDbLine
 10
352.6465789285
 20
232.3751820959
 30
0.0
 11
352.6414916218
 21
232.3751820959
 31
0.0
  0
SPLINE
  5
2C4
330
1F
100
AcDbEntity
  8
0
  6
Continuous
 62
     7
370
    25
100
AcDbSpline
210
0.0
220
0.0
230
1.0
 70
    24
 71
     3
 72
    13
 73
     9
 74
     0
 42
0.00000001
 43
0.00000001
 40
0.0
 40
0.0
 40
0.0
 40
0.0
 40
0.2727951175927174
 40
0.3895909458321323
 40
0.4999928575508326
 40
0.610345224051064
 40
0.7271220062746009
 40
1.0
 40
1.0
 40
1.0
 40
1.0
 10
352.64657892849
 20
142.9958981497404
 30
0.0
 10
352.64657892849
 20
142.583639447863
 30
0.0
 10
352.64657892849
 20
141.9948743005641
 30
0.0
 10
352.64657892849
 20
141.3054379633858
 30
0.0
 10
352.64657892849
 20
140.9016029640636
 30
0.0
 10
352.64657892849
 20
140.5905014397338
 30
0.0
 10
352.64657892849
 20
140.2792527647161
 30
0.0
 10
352.64657892849
 20
140.2451654501802
 30
0.0
 10
352.64657892849
 20
140.2212938628774
 30
0.0
  0
ARC
  5
2C5
330
1F
100
AcDbEntity
  8
0
  6
Continuous
 62
     7
370
    25
100
AcDbCircle
 10
352.1465789285
 20
140.2212938629
 30
0.0
 40
0.5000000000000568
100
AcDbArc
 50
351.8197701175
 51
0.0
  0
SPLINE
  5
2C6
330
1F
100
AcDbEntity
  8
0
  6
Continuous
 62
     7
370
    25
100
AcDbSpline
210
0.0
220
0.0
230
1.0
 70
    24
 71
     3
 72
    13
 73
     9
 74
     0
 42
0.00000001
 43
0.00000001
 40
0.0
 40
0.0
 40
0.0
 40
0.0
 40
0.2727951175955594
 40
0.3895909458343235
 40
0.4999928575513213
 40
0.6103452240532377
 40
0.7271220062774242
 40
1.0
 40
1.0
 40
1.0
 40
1.0
 10
352.64657892849
 20
235.1497863827321
 30
0.0
 10
352.64657892849
 20
235.1258935546554
 30
0.0
 10
352.64657892849
 20
235.0917711349761
 30
0.0
 10
352.64657892849
 20
234.7805272174792
 30
0.0
 10
352.64657892849
 20
234.4695913834092
 30
0.0
 10
352.64657892849
 20
234.0659062327422
 30
0.0
 10
352.64657892849
 20
233.3764320793153
 30
0.0
 10
352.64657892849
 20
232.7875678663631
 30
0.0
 10
352.64657892849
 20
232.3751820958693
 30
0.0
  0
ARC
  5
2C7
330
1F
100
AcDbEntity
  8
0
  6
Continuous
 62
     7
370
    25
100
AcDbCircle
 10
352.1465789285
 20
235.1497863827
 30
0.0
 40
0.4999999999989518
100
AcDbArc
 50
360.0
 51
8.1802298822
  0
LINE
  5
2C8
330
1F
100
AcDbEntity
  8
0
  6
Continuous
 62
     8
370
    25
100
AcDbLine
 10
352.6465789285
 20
152.8355401228
 30
0.0
 11
354.0965789285
 21
152.8355401228
 31
0.0
  0
LINE
  5
2C9
330
1F
100
AcDbEntity
  8
0
  6
Continuous
 62
     8
370
    25
100
AcDbLine
 10
354.0965789285
 20
222.5355401228
 30
0.0
 11
352.6465789285
 21
222.5355401228
 31
0.0
  0
LINE
  5
2CA
330
1F
100
AcDbEntity
  8
0
  6
Continuous
 62
     8
370
    25
100
AcDbLine
 10
275.5907302071
 20
152.6292960911
 30
0.0
 11
348.8465789285
 21
151.606385011
 31
0.0
  0
LINE
  5
2CB
330
1F
100
AcDbEntity
  8
0
  6
Continuous
 62
     8
370
    25
100
AcDbLine
 10
348.8465789285
 20
223.7646952346
 30
0.0
 11
275.5907302071
 21
222.7417841546
 31
0.0
  0
LINE
  5
2CC
330
1F
100
AcDbEntity
  8
0
  6
Continuous
 62
     8
370
    25
100
AcDbLine
 10
329.0623155846
 20
157.9809689133
 30
0.0
 11
332.7231996292
 21
157.8531280254
 31
0.0
  0
LINE
  5
2CD
330
1F
100
AcDbEntity
  8
0
  6
Continuous
 62
     8
370
    25
100
AcDbLine
 10
332.7231996292
 20
217.5179522202
 30
0.0
 11
329.0623155846
 21
217.3901113324
 31
0.0
  0
ENDSEC
  0
SECTION
  2
OBJECTS
  0
DICTIONARY
  5
C
330
0
100
AcDbDictionary
281
     1
  3
ACAD_GROUP
350
D
  3
ACAD_LAYOUT
350
1A
  3
ACAD_MLINESTYLE
350
17
  3
ACAD_PLOTSETTINGS
350
19
  3
ACAD_PLOTSTYLENAME
350
E
  3
ACAD_SCALELIST
350
47
  3
DWGPROPS
350
2CE
  0
DICTIONARY
  5
D
102
{ACAD_REACTORS
330
C
102
}
330
C
100
AcDbDictionary
281
     1
  0
DICTIONARY
  5
1A
102
{ACAD_REACTORS
330
C
102
}
330
C
100
AcDbDictionary
281
     1
  3
Layout1
350
1E
  3
Layout2
350
26
  3
Model
350
22
  0
DICTIONARY
  5
17
102
{ACAD_REACTORS
330
C
102
}
330
C
100
AcDbDictionary
281
     1
  3
Standard
350
18
  0
DICTIONARY
  5
19
102
{ACAD_REACTORS
330
C
102
}
330
C
100
AcDbDictionary
281
     1
  0
ACDBDICTIONARYWDFLT
  5
E
102
{ACAD_REACTORS
330
C
102
}
330
C
100
AcDbDictionary
281
     1
  3
Normal
350
F
100
AcDbDictionaryWithDefault
340
F
  0
DICTIONARY
  5
47
102
{ACAD_REACTORS
330
C
102
}
330
C
100
AcDbDictionary
281
     1
  3
A0
350
48
  3
A1
350
49
  3
A2
350
4A
  3
A3
350
4B
  3
A4
350
4C
  3
A5
350
4D
  3
A6
350
4E
  3
A7
350
4F
  3
A8
350
50
  3
A9
350
51
  3
B0
350
52
  3
B1
350
53
  3
B2
350
54
  3
B3
350
55
  3
B4
350
56
  3
B5
350
57
  3
B6
350
58
  3
B7
350
59
  3
B8
350
5A
  3
B9
350
5B
  3
C0
350
5C
  3
C1
350
5D
  3
C2
350
5E
  3
C3
350
5F
  3
C4
350
60
  3
C5
350
61
  3
C6
350
62
  3
C7
350
63
  3
C8
350
64
  3
C9
350
65
  3
D0
350
66
  3
D1
350
67
  3
D2
350
68
  0
XRECORD
  5
2CE
102
{ACAD_REACTORS
330
C
102
}
330
C
100
AcDbXrecord
280
     1
  1
DWGPROPS COOKIE
  2

  3

  4

  6

  7

  8
eakin
  9

300
=
301
=
302
=
303
=
304
=
305
=
306
=
307
=
308
=
309
=
 40
0.0
 41
2459867.326773669
 42
2459867.326774178
  1

 90
        0
  0
LAYOUT
  5
1E
102
{ACAD_REACTORS
330
1A
102
}
330
1A
100
AcDbPlotSettings
  1

  2
none_device
  4

  6

 40
0.0
 41
0.0
 42
0.0
 43
0.0
 44
0.0
 45
0.0
 46
0.0
 47
0.0
 48
0.0
 49
0.0
140
0.0
141
0.0
142
1.0
143
1.0
 70
   688
 72
     1
 73
     0
 74
     5
  7

 75
    16
147
1.0
148
0.0
149
0.0
100
AcDbLayout
  1
Layout1
 70
     1
 71
     1
 10
0.0
 20
0.0
 11
420.0
 21
297.0
 12
0.0
 22
0.0
 32
0.0
 14
1.0000000000E+20
 24
1.0000000000E+20
 34
1.0000000000E+20
 15
-1.0000000000E+20
 25
-1.0000000000E+20
 35
-1.0000000000E+20
146
0.0
 13
0.0
 23
0.0
 33
0.0
 16
1.0
 26
0.0
 36
0.0
 17
0.0
 27
1.0
 37
0.0
 76
     0
330
1B
  0
LAYOUT
  5
26
102
{ACAD_REACTORS
330
1A
102
}
330
1A
100
AcDbPlotSettings
  1

  2
none_device
  4

  6

 40
0.0
 41
0.0
 42
0.0
 43
0.0
 44
0.0
 45
0.0
 46
0.0
 47
0.0
 48
0.0
 49
0.0
140
0.0
141
0.0
142
1.0
143
1.0
 70
   688
 72
     1
 73
     0
 74
     5
  7

 75
    16
147
1.0
148
0.0
149
0.0
100
AcDbLayout
  1
Layout2
 70
     1
 71
     2
 10
0.0
 20
0.0
 11
0.0
 21
0.0
 12
0.0
 22
0.0
 32
0.0
 14
0.0
 24
0.0
 34
0.0
 15
0.0
 25
0.0
 35
0.0
146
0.0
 13
0.0
 23
0.0
 33
0.0
 16
1.0
 26
0.0
 36
0.0
 17
0.0
 27
1.0
 37
0.0
 76
     0
330
23
  0
LAYOUT
  5
22
102
{ACAD_REACTORS
330
1A
102
}
330
1A
100
AcDbPlotSettings
  1

  2
none_device
  4
Letter_(8.50_x_11.00_Inches)
  6

 40
6.35
 41
6.35
 42
6.35000508
 43
6.35000508
 44
215.9
 45
279.4
 46
0.0
 47
0.0
 48
0.0
 49
0.0
140
0.0
141
0.0
142
1.0
143
1.0
 70
  1712
 72
     1
 73
     0
 74
     0
  7

 75
     0
147
1.0
148
0.0
149
0.0
100
AcDbLayout
  1
Model
 70
     1
 71
     0
 10
0.0
 20
0.0
 11
420.0
 21
297.0
 12
0.0
 22
0.0
 32
0.0
 14
0.0
 24
0.0
 34
0.0
 15
420.0
 25
297.0
 35
0.0
146
0.0
 13
0.0
 23
0.0
 33
0.0
 16
1.0
 26
0.0
 36
0.0
 17
0.0
 27
1.0
 37
0.0
 76
     0
330
1F
331
29
  0
MLINESTYLE
  5
18
102
{ACAD_REACTORS
330
17
102
}
330
17
100
AcDbMlineStyle
  2
Standard
 70
     0
  3

 62
   256
 51
90.0
 52
90.0
 71
     2
 49
0.5
 62
   256
  6
BYLAYER
 49
-0.5
 62
   256
  6
BYLAYER
  0
ACDBPLACEHOLDER
  5
F
102
{ACAD_REACTORS
330
E
102
}
330
E
  0
SCALE
  5
48
102
{ACAD_REACTORS
330
47
102
}
330
47
100
AcDbScale
 70
     0
300
1:1
140
1.0
141
1.0
290
     1
  0
SCALE
  5
49
102
{ACAD_REACTORS
330
47
102
}
330
47
100
AcDbScale
 70
     0
300
1:2
140
1.0
141
2.0
290
     0
  0
SCALE
  5
4A
102
{ACAD_REACTORS
330
47
102
}
330
47
100
AcDbScale
 70
     0
300
1:4
140
1.0
141
4.0
290
     0
  0
SCALE
  5
4B
102
{ACAD_REACTORS
330
47
102
}
330
47
100
AcDbScale
 70
     0
300
1:5
140
1.0
141
5.0
290
     0
  0
SCALE
  5
4C
102
{ACAD_REACTORS
330
47
102
}
330
47
100
AcDbScale
 70
     0
300
1:8
140
1.0
141
8.0
290
     0
  0
SCALE
  5
4D
102
{ACAD_REACTORS
330
47
102
}
330
47
100
AcDbScale
 70
     0
300
1:10
140
1.0
141
10.0
290
     0
  0
SCALE
  5
4E
102
{ACAD_REACTORS
330
47
102
}
330
47
100
AcDbScale
 70
     0
300
1:16
140
1.0
141
16.0
290
     0
  0
SCALE
  5
4F
102
{ACAD_REACTORS
330
47
102
}
330
47
100
AcDbScale
 70
     0
300
1:20
140
1.0
141
20.0
290
     0
  0
SCALE
  5
50
102
{ACAD_REACTORS
330
47
102
}
330
47
100
AcDbScale
 70
     0
300
1:30
140
1.0
141
30.0
290
     0
  0
SCALE
  5
51
102
{ACAD_REACTORS
330
47
102
}
330
47
100
AcDbScale
 70
     0
300
1:40
140
1.0
141
40.0
290
     0
  0
SCALE
  5
52
102
{ACAD_REACTORS
330
47
102
}
330
47
100
AcDbScale
 70
     0
300
1:50
140
1.0
141
50.0
290
     0
  0
SCALE
  5
53
102
{ACAD_REACTORS
330
47
102
}
330
47
100
AcDbScale
 70
     0
300
1:100
140
1.0
141
100.0
290
     0
  0
SCALE
  5
54
102
{ACAD_REACTORS
330
47
102
}
330
47
100
AcDbScale
 70
     0
300
2:1
140
2.0
141
1.0
290
     0
  0
SCALE
  5
55
102
{ACAD_REACTORS
330
47
102
}
330
47
100
AcDbScale
 70
     0
300
4:1
140
4.0
141
1.0
290
     0
  0
SCALE
  5
56
102
{ACAD_REACTORS
330
47
102
}
330
47
100
AcDbScale
 70
     0
300
8:1
140
8.0
141
1.0
290
     0
  0
SCALE
  5
57
102
{ACAD_REACTORS
330
47
102
}
330
47
100
AcDbScale
 70
     0
300
10:1
140
10.0
141
1.0
290
     0
  0
SCALE
  5
58
102
{ACAD_REACTORS
330
47
102
}
330
47
100
AcDbScale
 70
     0
300
100:1
140
100.0
141
1.0
290
     0
  0
SCALE
  5
59
102
{ACAD_REACTORS
330
47
102
}
330
47
100
AcDbScale
 70
     0
300
1/128" = 1'-0"
140
0.0078125
141
12.0
290
     0
  0
SCALE
  5
5A
102
{ACAD_REACTORS
330
47
102
}
330
47
100
AcDbScale
 70
     0
300
1/64" = 1'-0"
140
0.015625
141
12.0
290
     0
  0
SCALE
  5
5B
102
{ACAD_REACTORS
330
47
102
}
330
47
100
AcDbScale
 70
     0
300
1/32" = 1'-0"
140
0.03125
141
12.0
290
     0
  0
SCALE
  5
5C
102
{ACAD_REACTORS
330
47
102
}
330
47
100
AcDbScale
 70
     0
300
1/16" = 1'-0"
140
0.0625
141
12.0
290
     0
  0
SCALE
  5
5D
102
{ACAD_REACTORS
330
47
102
}
330
47
100
AcDbScale
 70
     0
300
3/32" = 1'-0"
140
0.09375
141
12.0
290
     0
  0
SCALE
  5
5E
102
{ACAD_REACTORS
330
47
102
}
330
47
100
AcDbScale
 70
     0
300
1/8" = 1'-0"
140
0.125
141
12.0
290
     0
  0
SCALE
  5
5F
102
{ACAD_REACTORS
330
47
102
}
330
47
100
AcDbScale
 70
     0
300
3/16" = 1'-0"
140
0.1875
141
12.0
290
     0
  0
SCALE
  5
60
102
{ACAD_REACTORS
330
47
102
}
330
47
100
AcDbScale
 70
     0
300
1/4" = 1'-0"
140
0.25
141
12.0
290
     0
  0
SCALE
  5
61
102
{ACAD_REACTORS
330
47
102
}
330
47
100
AcDbScale
 70
     0
300
3/8" = 1'-0"
140
0.375
141
12.0
290
     0
  0
SCALE
  5
62
102
{ACAD_REACTORS
330
47
102
}
330
47
100
AcDbScale
 70
     0
300
1/2" = 1'-0"
140
0.5
141
12.0
290
     0
  0
SCALE
  5
63
102
{ACAD_REACTORS
330
47
102
}
330
47
100
AcDbScale
 70
     0
300
3/4" = 1'-0"
140
0.75
141
12.0
290
     0
  0
SCALE
  5
64
102
{ACAD_REACTORS
330
47
102
}
330
47
100
AcDbScale
 70
     0
300
1" = 1'-0"
140
1.0
141
12.0
290
     0
  0
SCALE
  5
65
102
{ACAD_REACTORS
330
47
102
}
330
47
100
AcDbScale
 70
     0
300
1-1/2" = 1'-0"
140
1.5
141
12.0
290
     0
  0
SCALE
  5
66
102
{ACAD_REACTORS
330
47
102
}
330
47
100
AcDbScale
 70
     0
300
3" = 1'-0"
140
3.0
141
12.0
290
     0
  0
SCALE
  5
67
102
{ACAD_REACTORS
330
47
102
}
330
47
100
AcDbScale
 70
     0
300
6" = 1'-0"
140
6.0
141
12.0
290
     0
  0
SCALE
  5
68
102
{ACAD_REACTORS
330
47
102
}
330
47
100
AcDbScale
 70
     0
300
1'-0" = 1'-0"
140
12.0
141
12.0
290
     0
  0
ENDSEC
  0
EOF
