  0
SECTION
  2
HEADER
  9
$ACADVER
  1
AC1015
  9
$ACADMAINTVER
 70
     6
  9
$DWGCODEPAGE
  3
ANSI_1254
  9
$INSBASE
 10
0.0
 20
0.0
 30
0.0
  9
$EXTMIN
 10
0.0
 20
0.0
 30
0.0
  9
$EXTMAX
 10
1189.0
 20
841.0
 30
0.0
  9
$LIMMIN
 10
0.0
 20
0.0
  9
$LIMMAX
 10
1189.0
 20
841.0
  9
$ORTHOMODE
 70
     0
  9
$REGENMODE
 70
     1
  9
$FILLMODE
 70
     1
  9
$QTEXTMODE
 70
     0
  9
$MIRRTEXT
 70
     1
  9
$LTSCALE
 40
1.0
  9
$ATTMODE
 70
     1
  9
$TEXTSIZE
 40
4.9388888889
  9
$TRACEWID
 40
1.0
  9
$TEXTSTYLE
  7
Standard
  9
$CLAYER
  8
0
  9
$CELTYPE
  6
ByLayer
  9
$CECOLOR
 62
   256
  9
$CELTSCALE
 40
1.0
  9
$DISPSILH
 70
     0
  9
$DIMSCALE
 40
1.0
  9
$DIMASZ
 40
3.65
  9
$DIMEXO
 40
0.5
  9
$DIMDLI
 40
3.75
  9
$DIMRND
 40
0.0
  9
$DIMDLE
 40
0.0
  9
$DIMEXE
 40
1.0
  9
$DIMTP
 40
0.0
  9
$DIMTM
 40
0.0
  9
$DIMTXT
 40
4.2333333333
  9
$DIMCEN
 40
2.5
  9
$DIMTSZ
 40
0.0
  9
$DIMTOL
 70
     0
  9
$DIMLIM
 70
     0
  9
$DIMTIH
 70
     1
  9
$DIMTOH
 70
     1
  9
$DIMSE1
 70
     0
  9
$DIMSE2
 70
     0
  9
$DIMTAD
 70
     1
  9
$DIMZIN
 70
     0
  9
$DIMBLK
  1

  9
$DIMASO
 70
     1
  9
$DIMSHO
 70
     1
  9
$DIMPOST
  1

  9
$DIMAPOST
  1

  9
$DIMALT
 70
     0
  9
$DIMALTD
 70
     3
  9
$DIMALTF
 40
0.0393700787
  9
$DIMLFAC
 40
1.0
  9
$DIMTOFL
 70
     1
  9
$DIMTVP
 40
0.0
  9
$DIMTIX
 70
     0
  9
$DIMSOXD
 70
     0
  9
$DIMSAH
 70
     0
  9
$DIMBLK1
  1

  9
$DIMBLK2
  1

  9
$DIMSTYLE
  2
ISO-25
  9
$DIMCLRD
 70
     0
  9
$DIMCLRE
 70
     0
  9
$DIMCLRT
 70
     0
  9
$DIMTFAC
 40
1.0
  9
$DIMGAP
 40
1.524
  9
$DIMJUST
 70
     0
  9
$DIMSD1
 70
     0
  9
$DIMSD2
 70
     0
  9
$DIMTOLJ
 70
     0
  9
$DIMTZIN
 70
     0
  9
$DIMALTZ
 70
     0
  9
$DIMALTTZ
 70
     0
  9
$DIMUPT
 70
     0
  9
$DIMDEC
 70
     2
  9
$DIMTDEC
 70
     2
  9
$DIMALTU
 70
     2
  9
$DIMALTTD
 70
     3
  9
$DIMTXSTY
  7
Standard
  9
$DIMAUNIT
 70
     0
  9
$DIMADEC
 70
     2
  9
$DIMALTRND
 40
0.0
  9
$DIMAZIN
 70
     0
  9
$DIMDSEP
 70
    44
  9
$DIMATFIT
 70
     3
  9
$DIMFRAC
 70
     0
  9
$DIMLDRBLK
  1

  9
$DIMLUNIT
 70
     2
  9
$DIMLWD
 70
    -2
  9
$DIMLWE
 70
    -2
  9
$DIMTMOVE
 70
     0
  9
$LUNITS
 70
     2
  9
$LUPREC
 70
     2
  9
$SKETCHINC
 40
1.0
  9
$FILLETRAD
 40
10.0
  9
$AUNITS
 70
     0
  9
$AUPREC
 70
     2
  9
$MENU
  1
.
  9
$ELEVATION
 40
0.0
  9
$PELEVATION
 40
0.0
  9
$THICKNESS
 40
0.0
  9
$LIMCHECK
 70
     0
  9
$CHAMFERA
 40
0.0
  9
$CHAMFERB
 40
0.0
  9
$CHAMFERC
 40
0.0
  9
$CHAMFERD
 40
0.0
  9
$SKPOLY
 70
     0
  9
$TDCREATE
 40
2459101.791583588
  9
$TDUCREATE
 40
2459101.666583588
  9
$TDUPDATE
 40
2459101.791584746
  9
$TDUUPDATE
 40
2459101.666584746
  9
$TDINDWG
 40
0.0000000116
  9
$TDUSRTIMER
 40
0.0000000116
  9
$USRTIMER
 70
     1
  9
$ANGBASE
 50
0.0
  9
$ANGDIR
 70
     0
  9
$PDMODE
 70
     0
  9
$PDSIZE
 40
-1.0
  9
$PLINEWID
 40
0.0
  9
$SPLFRAME
 70
     0
  9
$SPLINETYPE
 70
     6
  9
$SPLINESEGS
 70
     8
  9
$HANDSEED
  5
334
  9
$SURFTAB1
 70
     6
  9
$SURFTAB2
 70
     6
  9
$SURFTYPE
 70
     6
  9
$SURFU
 70
     6
  9
$SURFV
 70
     6
  9
$UCSBASE
  2

  9
$UCSNAME
  2

  9
$UCSORG
 10
0.0
 20
0.0
 30
0.0
  9
$UCSXDIR
 10
1.0
 20
0.0
 30
0.0
  9
$UCSYDIR
 10
0.0
 20
1.0
 30
0.0
  9
$UCSORTHOREF
  2

  9
$UCSORTHOVIEW
 70
     0
  9
$UCSORGTOP
 10
0.0
 20
0.0
 30
0.0
  9
$UCSORGBOTTOM
 10
0.0
 20
0.0
 30
0.0
  9
$UCSORGLEFT
 10
0.0
 20
0.0
 30
0.0
  9
$UCSORGRIGHT
 10
0.0
 20
0.0
 30
0.0
  9
$UCSORGFRONT
 10
0.0
 20
0.0
 30
0.0
  9
$UCSORGBACK
 10
0.0
 20
0.0
 30
0.0
  9
$PUCSBASE
  2

  9
$PUCSNAME
  2

  9
$PUCSORG
 10
0.0
 20
0.0
 30
0.0
  9
$PUCSXDIR
 10
1.0
 20
0.0
 30
0.0
  9
$PUCSYDIR
 10
0.0
 20
1.0
 30
0.0
  9
$PUCSORTHOREF
  2

  9
$PUCSORTHOVIEW
 70
     0
  9
$PUCSORGTOP
 10
0.0
 20
0.0
 30
0.0
  9
$PUCSORGBOTTOM
 10
0.0
 20
0.0
 30
0.0
  9
$PUCSORGLEFT
 10
0.0
 20
0.0
 30
0.0
  9
$PUCSORGRIGHT
 10
0.0
 20
0.0
 30
0.0
  9
$PUCSORGFRONT
 10
0.0
 20
0.0
 30
0.0
  9
$PUCSORGBACK
 10
0.0
 20
0.0
 30
0.0
  9
$USERI1
 70
     0
  9
$USERI2
 70
     0
  9
$USERI3
 70
     0
  9
$USERI4
 70
     0
  9
$USERI5
 70
     0
  9
$USERR1
 40
0.0
  9
$USERR2
 40
0.0
  9
$USERR3
 40
0.0
  9
$USERR4
 40
0.0
  9
$USERR5
 40
0.0
  9
$WORLDVIEW
 70
     1
  9
$SHADEDGE
 70
     3
  9
$SHADEDIF
 70
    70
  9
$TILEMODE
 70
     1
  9
$MAXACTVP
 70
    64
  9
$PINSBASE
 10
0.0
 20
0.0
 30
0.0
  9
$PLIMCHECK
 70
     0
  9
$PEXTMIN
 10
1.0000000000E+20
 20
1.0000000000E+20
 30
1.0000000000E+20
  9
$PEXTMAX
 10
-1.0000000000E+20
 20
-1.0000000000E+20
 30
-1.0000000000E+20
  9
$PLIMMIN
 10
0.0
 20
0.0
  9
$PLIMMAX
 10
420.0
 20
297.0
  9
$UNITMODE
 70
     0
  9
$VISRETAIN
 70
     1
  9
$PLINEGEN
 70
     0
  9
$PSLTSCALE
 70
     1
  9
$TREEDEPTH
 70
  3020
  9
$CMLSTYLE
  2
Standard
  9
$CMLJUST
 70
     0
  9
$CMLSCALE
 40
20.0
  9
$PROXYGRAPHICS
 70
     1
  9
$MEASUREMENT
 70
     1
  9
$CELWEIGHT
370
    -1
  9
$ENDCAPS
280
     0
  9
$JOINSTYLE
280
     0
  9
$LWDISPLAY
290
     1
  9
$INSUNITS
 70
     4
  9
$HYPERLINKBASE
  1

  9
$STYLESHEET
  1

  9
$XEDIT
290
     1
  9
$CEPSNTYPE
380
     0
  9
$PSTYLEMODE
290
     1
  9
$FINGERPRINTGUID
  2
{17709b2f-aee9-4c6d-9fc1-f64b0012d335}
  9
$VERSIONGUID
  2
{FAEB1C32-E019-11D5-929B-00C0DF256EC4}
  9
$EXTNAMES
290
     1
  9
$PSVPSCALE
 40
0.0
  9
$OLESTARTUP
290
     0
  0
ENDSEC
  0
SECTION
  2
CLASSES
  0
CLASS
  1
ACDBDICTIONARYWDFLT
  2
AcDbDictionaryWithDefault
  3
ObjectDBX Classes
 90
        0
280
     0
281
     0
  0
CLASS
  1
VISUALSTYLE
  2
AcDbVisualStyle
  3
ObjectDBX Classes
 90
     4095
280
     0
281
     0
  0
CLASS
  1
MATERIAL
  2
AcDbMaterial
  3
ObjectDBX Classes
 90
     1153
280
     0
281
     0
  0
CLASS
  1
SCALE
  2
AcDbScale
  3
ObjectDBX Classes
 90
     1153
280
     0
281
     0
  0
CLASS
  1
TABLESTYLE
  2
AcDbTableStyle
  3
ObjectDBX Classes
 90
     4095
280
     0
281
     0
  0
CLASS
  1
MLEADERSTYLE
  2
AcDbMLeaderStyle
  3
ACDB_MLEADERSTYLE_CLASS
 90
     4095
280
     0
281
     0
  0
CLASS
  1
SUN
  2
AcDbSun
  3
SCENEOE
 90
     1153
280
     0
281
     0
  0
CLASS
  1
ACDBPLACEHOLDER
  2
AcDbPlaceHolder
  3
ObjectDBX Classes
 90
        0
280
     0
281
     0
  0
CLASS
  1
LAYOUT
  2
AcDbLayout
  3
ObjectDBX Classes
 90
        0
280
     0
281
     0
  0
ENDSEC
  0
SECTION
  2
TABLES
  0
TABLE
  2
VPORT
  5
8
330
0
100
AcDbSymbolTable
 70
     1
  0
VPORT
  5
29
330
8
100
AcDbSymbolTableRecord
100
AcDbViewportTableRecord
  2
*Active
 70
     0
 10
0.0
 20
0.0
 11
1.0
 21
1.0
 12
594.5
 22
420.5
 13
0.0
 23
0.0
 14
10.0
 24
10.0
 15
10.0
 25
10.0
 16
0.0
 26
0.0
 36
1.0
 17
0.0
 27
0.0
 37
0.0
 40
841.0
 41
1.4137931034
 42
50.0
 43
0.0
 44
0.0
 50
0.0
 51
0.0
 71
     0
 72
  2000
 73
     1
 74
     3
 75
     0
 76
     0
 77
     0
 78
     0
281
     0
 65
     1
110
0.0
120
0.0
130
0.0
111
1.0
121
0.0
131
0.0
112
0.0
122
1.0
132
0.0
 79
     0
146
0.0
  0
ENDTAB
  0
TABLE
  2
LTYPE
  5
5
330
0
100
AcDbSymbolTable
 70
     6
  0
LTYPE
  5
14
330
5
100
AcDbSymbolTableRecord
100
AcDbLinetypeTableRecord
  2
ByBlock
 70
     0
  3

 72
    65
 73
     0
 40
0.0
  0
LTYPE
  5
15
330
5
100
AcDbSymbolTableRecord
100
AcDbLinetypeTableRecord
  2
ByLayer
 70
     0
  3

 72
    65
 73
     0
 40
0.0
  0
LTYPE
  5
16
330
5
100
AcDbSymbolTableRecord
100
AcDbLinetypeTableRecord
  2
Continuous
 70
     0
  3
Solid line
 72
    65
 73
     0
 40
0.0
  0
LTYPE
  5
6E
330
5
100
AcDbSymbolTableRecord
100
AcDbLinetypeTableRecord
  2
HIDDEN
 70
     0
  3
Hidden __ __ __ __ __ __ __ __ __ __ __ __ __ __
 72
    65
 73
     2
 40
1.905
 49
1.27
 74
     0
 49
-0.635
 74
     0
  0
LTYPE
  5
6F
330
5
100
AcDbSymbolTableRecord
100
AcDbLinetypeTableRecord
  2
PHANTOM
 70
     0
  3
Phantom ______  __  __  ______  __  __  ______
 72
    65
 73
     6
 40
12.7
 49
6.35
 74
     0
 49
-1.27
 74
     0
 49
1.27
 74
     0
 49
-1.27
 74
     0
 49
1.27
 74
     0
 49
-1.27
 74
     0
  0
LTYPE
  5
70
330
5
100
AcDbSymbolTableRecord
100
AcDbLinetypeTableRecord
  2
CENTER
 70
     0
  3
Center ____ _ ____ _ ____ _ ____ _ ____ _ ____
 72
    65
 73
     4
 40
10.16
 49
6.35
 74
     0
 49
-1.27
 74
     0
 49
1.27
 74
     0
 49
-1.27
 74
     0
  0
LTYPE
  5
71
330
5
100
AcDbSymbolTableRecord
100
AcDbLinetypeTableRecord
  2
CENTERX2
 70
     0
  3
Center (2x) ________  __  ________  __  _____
 72
    65
 73
     4
 40
20.32
 49
12.7
 74
     0
 49
-2.54
 74
     0
 49
2.54
 74
     0
 49
-2.54
 74
     0
  0
LTYPE
  5
72
330
5
100
AcDbSymbolTableRecord
100
AcDbLinetypeTableRecord
  2
DOT2
 70
     0
  3
Dot (.5x) ........................................
 72
    65
 73
     2
 40
0.635
 49
0.0
 74
     0
 49
-0.635
 74
     0
  0
ENDTAB
  0
TABLE
  2
LAYER
  5
2
330
0
100
AcDbSymbolTable
 70
     5
  0
LAYER
  5
10
330
2
100
AcDbSymbolTableRecord
100
AcDbLayerTableRecord
  2
0
 70
     0
 62
     7
  6
Continuous
370
    -3
390
F
  0
LAYER
  5
73
330
2
100
AcDbSymbolTableRecord
100
AcDbLayerTableRecord
  2
FORMAT
 70
     0
 62
     7
  6
Continuous
370
    -3
390
F
  0
LAYER
  5
74
330
2
100
AcDbSymbolTableRecord
100
AcDbLayerTableRecord
  2
SLD-0
 70
     0
 62
   179
  6
Continuous
370
    -3
390
F
  0
LAYER
  5
75
330
2
100
AcDbSymbolTableRecord
100
AcDbLayerTableRecord
  2
AAA_EKSEN
 70
     0
 62
     1
  6
CENTER
370
    -3
390
F
  0
LAYER
  5
76
330
2
100
AcDbSymbolTableRecord
100
AcDbLayerTableRecord
  2
03
 70
     0
 62
     3
  6
HIDDEN
370
    -3
390
F
  0
ENDTAB
  0
TABLE
  2
STYLE
  5
3
330
0
100
AcDbSymbolTable
 70
     1
  0
STYLE
  5
11
330
3
100
AcDbSymbolTableRecord
100
AcDbTextStyleTableRecord
  2
Standard
 70
     0
 40
0.0
 41
1.0
 50
0.0
 71
     0
 42
4.9388888889
  3
txt
  4

  0
ENDTAB
  0
TABLE
  2
VIEW
  5
6
330
0
100
AcDbSymbolTable
 70
     0
  0
ENDTAB
  0
TABLE
  2
UCS
  5
7
330
0
100
AcDbSymbolTable
 70
     0
  0
ENDTAB
  0
TABLE
  2
APPID
  5
9
330
0
100
AcDbSymbolTable
 70
     1
  0
APPID
  5
12
330
9
100
AcDbSymbolTableRecord
100
AcDbRegAppTableRecord
  2
ACAD
 70
     0
  0
ENDTAB
  0
TABLE
  2
DIMSTYLE
  5
A
330
0
100
AcDbSymbolTable
 70
     1
100
AcDbDimStyleTable
  0
DIMSTYLE
105
27
330
A
100
AcDbSymbolTableRecord
100
AcDbDimStyleTableRecord
  2
ISO-25
 70
     0
 41
2.5
 42
0.625
 43
3.75
 44
1.25
 73
     0
 74
     0
 77
     1
 78
     8
140
2.5
141
2.5
143
0.0393700787
147
0.625
171
     3
172
     1
178
     0
271
     2
272
     2
274
     3
278
    44
283
     0
284
     8
340
11
  0
ENDTAB
  0
TABLE
  2
BLOCK_RECORD
  5
1
330
0
100
AcDbSymbolTable
 70
     1
  0
BLOCK_RECORD
  5
1F
330
1
100
AcDbSymbolTableRecord
100
AcDbBlockTableRecord
  2
*Model_Space
340
22
  0
BLOCK_RECORD
  5
1B
330
1
100
AcDbSymbolTableRecord
100
AcDbBlockTableRecord
  2
*Paper_Space
340
1E
  0
BLOCK_RECORD
  5
23
330
1
100
AcDbSymbolTableRecord
100
AcDbBlockTableRecord
  2
*Paper_Space0
340
26
  0
ENDTAB
  0
ENDSEC
  0
SECTION
  2
BLOCKS
  0
BLOCK
  5
20
330
1F
100
AcDbEntity
  8
0
100
AcDbBlockBegin
  2
*Model_Space
 70
     0
 10
0.0
 20
0.0
 30
0.0
  3
*Model_Space
  1

  0
ENDBLK
  5
21
330
1F
100
AcDbEntity
  8
0
100
AcDbBlockEnd
  0
BLOCK
  5
1C
330
1B
100
AcDbEntity
 67
     1
  8
0
100
AcDbBlockBegin
  2
*Paper_Space
 70
     0
 10
0.0
 20
0.0
 30
0.0
  3
*Paper_Space
  1

  0
ENDBLK
  5
1D
330
1B
100
AcDbEntity
 67
     1
  8
0
100
AcDbBlockEnd
  0
BLOCK
  5
24
330
23
100
AcDbEntity
  8
0
100
AcDbBlockBegin
  2
*Paper_Space0
 70
     0
 10
0.0
 20
0.0
 30
0.0
  3
*Paper_Space0
  1

  0
ENDBLK
  5
25
330
23
100
AcDbEntity
  8
0
100
AcDbBlockEnd
  0
ENDSEC
  0
SECTION
  2
ENTITIES
  0
LINE
  5
77
330
1F
100
AcDbEntity
  8
0
  6
Continuous
 62
     7
370
    25
100
AcDbLine
 10
420.0893159387
 20
475.1067339071
 30
0.0
 11
420.0893159387
 21
475.8462487349
 31
0.0
  0
LINE
  5
78
330
1F
100
AcDbEntity
  8
0
  6
Continuous
 62
     7
370
    25
100
AcDbLine
 10
420.0893159387
 20
615.8462530562
 30
0.0
 11
420.0893159387
 21
616.6067300924
 31
0.0
  0
LINE
  5
79
330
1F
100
AcDbEntity
  8
0
  6
Continuous
 62
     7
370
    25
100
AcDbLine
 10
420.0893159387
 20
630.1067276486
 30
0.0
 11
420.0893159387
 21
630.8462536522
 31
0.0
  0
LINE
  5
7A
330
1F
100
AcDbEntity
  8
0
  6
Continuous
 62
     7
370
    25
100
AcDbLine
 10
420.0893159387
 20
770.846250523
 30
0.0
 11
420.0893159387
 21
771.6067312845
 31
0.0
  0
LINE
  5
7B
330
1F
100
AcDbEntity
  8
0
  6
Continuous
 62
     7
370
    25
100
AcDbLine
 10
583.4560509202
 20
771.6067312845
 30
0.0
 11
583.4560509202
 21
770.846250523
 31
0.0
  0
LINE
  5
7C
330
1F
100
AcDbEntity
  8
0
  6
Continuous
 62
     7
370
    25
100
AcDbLine
 10
583.4560509202
 20
630.8462536522
 30
0.0
 11
583.4560509202
 21
630.1067276486
 31
0.0
  0
LINE
  5
7D
330
1F
100
AcDbEntity
  8
0
  6
Continuous
 62
     7
370
    25
100
AcDbLine
 10
583.4560509202
 20
616.6067300924
 30
0.0
 11
583.4560509202
 21
615.8462530562
 31
0.0
  0
LINE
  5
7E
330
1F
100
AcDbEntity
  8
0
  6
Continuous
 62
     7
370
    25
100
AcDbLine
 10
583.4560509202
 20
475.8462487349
 30
0.0
 11
583.4560509202
 21
475.1067339071
 31
0.0
  0
LINE
  5
7F
330
1F
100
AcDbEntity
  8
0
  6
Continuous
 62
     7
370
    25
100
AcDbLine
 10
596.2726812241
 20
393.6467348227
 30
0.0
 11
594.7726856348
 21
393.6467348227
 31
0.0
  0
LINE
  5
80
330
1F
100
AcDbEntity
  8
0
  6
Continuous
 62
     7
370
    25
100
AcDbLine
 10
594.7726856348
 20
384.6467314848
 30
0.0
 11
596.2726812241
 21
384.6467314848
 31
0.0
  0
LINE
  5
81
330
1F
100
AcDbEntity
  8
0
  6
Continuous
 62
     7
370
    25
100
AcDbLine
 10
408.7726812241
 20
393.6467348227
 30
0.0
 11
407.2726856348
 21
393.6467348227
 31
0.0
  0
LINE
  5
82
330
1F
100
AcDbEntity
  8
0
  6
Continuous
 62
     7
370
    25
100
AcDbLine
 10
407.2726856348
 20
384.6467314848
 30
0.0
 11
408.7726812241
 21
384.6467314848
 31
0.0
  0
LINE
  5
83
330
1F
100
AcDbEntity
  8
0
  6
Continuous
 62
     7
370
    25
100
AcDbLine
 10
596.2726812241
 20
385.346728433
 30
0.0
 11
596.6526831863
 21
385.346728433
 31
0.0
  0
LINE
  5
84
330
1F
100
AcDbEntity
  8
0
  6
Continuous
 62
     7
370
    25
100
AcDbLine
 10
596.6526831863
 20
392.9467378744
 30
0.0
 11
596.2726812241
 21
392.9467378744
 31
0.0
  0
ARC
  5
85
330
1F
100
AcDbEntity
  8
0
  6
Continuous
 62
     7
370
    25
100
AcDbCircle
 10
595.6562099974
 20
388.0845166773
 30
0.0
 40
2.913493405396312
100
AcDbArc
 50
290.0
 51
345.1723001232
  0
ARC
  5
86
330
1F
100
AcDbEntity
  8
0
  6
Continuous
 62
     7
370
    25
100
AcDbCircle
 10
595.6562099974
 20
390.2089401697
 30
0.0
 40
2.91349340539636
100
AcDbArc
 50
14.8276998768
 51
70.0
  0
LINE
  5
87
330
1F
100
AcDbEntity
  8
0
  6
Continuous
 62
     7
370
    25
100
AcDbLine
 10
407.2726856348
 20
392.9467378744
 30
0.0
 11
406.8926836726
 21
392.9467378744
 31
0.0
  0
LINE
  5
88
330
1F
100
AcDbEntity
  8
0
  6
Continuous
 62
     7
370
    25
100
AcDbLine
 10
406.8926836726
 20
385.346728433
 30
0.0
 11
407.2726856348
 21
385.346728433
 31
0.0
  0
ARC
  5
89
330
1F
100
AcDbEntity
  8
0
  6
Continuous
 62
     7
370
    25
100
AcDbCircle
 10
407.8891568616
 20
390.2089401697
 30
0.0
 40
2.91349340539638
100
AcDbArc
 50
110.0
 51
165.1723001232
  0
ARC
  5
8A
330
1F
100
AcDbEntity
  8
0
  6
Continuous
 62
     7
370
    25
100
AcDbCircle
 10
407.8891568616
 20
388.0845166773
 30
0.0
 40
2.913493405396326
100
AcDbArc
 50
194.8276998768
 51
250.0
  0
LINE
  5
8B
330
1F
100
AcDbEntity
  8
0
  6
Continuous
 62
     7
370
    25
100
AcDbLine
 10
506.8645485108
 20
475.1067339071
 30
0.0
 11
506.8645485108
 21
475.8462487349
 31
0.0
  0
LINE
  5
8C
330
1F
100
AcDbEntity
  8
0
  6
Continuous
 62
     7
370
    25
100
AcDbLine
 10
504.3645483338
 20
475.8462487349
 30
0.0
 11
504.3645483338
 21
475.1787214169
 31
0.0
  0
LINE
  5
8D
330
1F
100
AcDbEntity
  8
0
  6
Continuous
 62
     7
370
    25
100
AcDbLine
 10
514.1620350433
 20
475.1067339071
 30
0.0
 11
514.1620350433
 21
475.8462487349
 31
0.0
  0
LINE
  5
8E
330
1F
100
AcDbEntity
  8
0
  6
Continuous
 62
     7
370
    25
100
AcDbLine
 10
511.6620355648
 20
475.8462487349
 30
0.0
 11
511.6620355648
 21
475.1067339071
 31
0.0
  0
LINE
  5
8F
330
1F
100
AcDbEntity
  8
0
  6
Continuous
 62
     7
370
    25
100
AcDbLine
 10
594.7726856348
 20
504.6067266354
 30
0.0
 11
596.7726822374
 21
504.6067266354
 31
0.0
  0
LINE
  5
90
330
1F
100
AcDbEntity
  8
0
  6
Continuous
 62
     7
370
    25
100
AcDbLine
 10
596.7726822374
 20
517.1067296156
 30
0.0
 11
594.7726856348
 21
517.1067296156
 31
0.0
  0
LINE
  5
91
330
1F
100
AcDbEntity
  8
0
  6
Continuous
 62
     7
370
    25
100
AcDbLine
 10
408.7726812241
 20
672.1067284794
 30
0.0
 11
406.7726846216
 21
672.1067284794
 31
0.0
  0
LINE
  5
92
330
1F
100
AcDbEntity
  8
0
  6
Continuous
 62
     7
370
    25
100
AcDbLine
 10
406.7726846216
 20
659.6067287588
 30
0.0
 11
408.7726812241
 21
659.6067287588
 31
0.0
  0
LINE
  5
93
330
1F
100
AcDbEntity
  8
0
  6
Continuous
 62
     7
370
    25
100
AcDbLine
 10
408.7726812241
 20
587.1067299136
 30
0.0
 11
406.7726846216
 21
587.1067299136
 31
0.0
  0
LINE
  5
94
330
1F
100
AcDbEntity
  8
0
  6
Continuous
 62
     7
370
    25
100
AcDbLine
 10
406.7726846216
 20
574.6067269334
 30
0.0
 11
408.7726812241
 21
574.6067269334
 31
0.0
  0
LINE
  5
95
330
1F
100
AcDbEntity
  8
0
  6
Continuous
 62
     7
370
    25
100
AcDbLine
 10
594.7726856348
 20
574.6067269334
 30
0.0
 11
596.7726822374
 21
574.6067269334
 31
0.0
  0
LINE
  5
96
330
1F
100
AcDbEntity
  8
0
  6
Continuous
 62
     7
370
    25
100
AcDbLine
 10
596.7726822374
 20
587.1067299136
 30
0.0
 11
594.7726856348
 21
587.1067299136
 31
0.0
  0
LINE
  5
97
330
1F
100
AcDbEntity
  8
0
  6
Continuous
 62
     7
370
    25
100
AcDbLine
 10
594.7726856348
 20
729.6067281255
 30
0.0
 11
596.7726822374
 21
729.6067281255
 31
0.0
  0
LINE
  5
98
330
1F
100
AcDbEntity
  8
0
  6
Continuous
 62
     7
370
    25
100
AcDbLine
 10
596.7726822374
 20
742.1067311057
 30
0.0
 11
594.7726856348
 21
742.1067311057
 31
0.0
  0
LINE
  5
99
330
1F
100
AcDbEntity
  8
0
  6
Continuous
 62
     7
370
    25
100
AcDbLine
 10
408.7726812241
 20
517.1067296156
 30
0.0
 11
406.7726846216
 21
517.1067296156
 31
0.0
  0
LINE
  5
9A
330
1F
100
AcDbEntity
  8
0
  6
Continuous
 62
     7
370
    25
100
AcDbLine
 10
406.7726846216
 20
504.6067266354
 30
0.0
 11
408.7726812241
 21
504.6067266354
 31
0.0
  0
LINE
  5
9B
330
1F
100
AcDbEntity
  8
0
  6
Continuous
 62
     7
370
    25
100
AcDbLine
 10
408.7726812241
 20
742.1067311057
 30
0.0
 11
406.7726846216
 21
742.1067311057
 31
0.0
  0
LINE
  5
9C
330
1F
100
AcDbEntity
  8
0
  6
Continuous
 62
     7
370
    25
100
AcDbLine
 10
406.7726846216
 20
729.6067281255
 30
0.0
 11
408.7726812241
 21
729.6067281255
 31
0.0
  0
LINE
  5
9D
330
1F
100
AcDbEntity
  8
0
  6
Continuous
 62
     7
370
    25
100
AcDbLine
 10
594.7726856348
 20
659.6067287588
 30
0.0
 11
596.7726822374
 21
659.6067287588
 31
0.0
  0
LINE
  5
9E
330
1F
100
AcDbEntity
  8
0
  6
Continuous
 62
     7
370
    25
100
AcDbLine
 10
596.7726822374
 20
672.1067284794
 30
0.0
 11
594.7726856348
 21
672.1067284794
 31
0.0
  0
LINE
  5
9F
330
1F
100
AcDbEntity
  8
0
  6
Continuous
 62
     7
370
    25
100
AcDbLine
 10
596.7726822374
 20
575.6067289599
 30
0.0
 11
597.5726808784
 21
575.6067289599
 31
0.0
  0
LINE
  5
A0
330
1F
100
AcDbEntity
  8
0
  6
Continuous
 62
     7
370
    25
100
AcDbLine
 10
597.5726808784
 20
586.1067278871
 30
0.0
 11
596.7726822374
 21
586.1067278871
 31
0.0
  0
ARC
  5
A1
330
1F
100
AcDbEntity
  8
0
  6
Continuous
 62
     7
370
    25
100
AcDbCircle
 10
596.0914844719
 20
579.6762891132
 30
0.0
 40
4.330736029719106
100
AcDbArc
 50
290.0
 51
336.8223913264
  0
ARC
  5
A2
330
1F
100
AcDbEntity
  8
0
  6
Continuous
 62
     7
370
    25
100
AcDbCircle
 10
596.0914844719
 20
582.0371677338
 30
0.0
 40
4.330736029719106
100
AcDbArc
 50
23.1776086736
 51
70.0
  0
LINE
  5
A3
330
1F
100
AcDbEntity
  8
0
  6
Continuous
 62
     7
370
    25
100
AcDbLine
 10
587.5226821182
 20
583.8567270526
 30
0.0
 11
586.7726694224
 21
583.8567270526
 31
0.0
  0
LINE
  5
A4
330
1F
100
AcDbEntity
  8
0
  6
Continuous
 62
     7
370
    25
100
AcDbLine
 10
586.7726694224
 20
577.8567297944
 30
0.0
 11
587.5226821182
 21
577.8567297944
 31
0.0
  0
LINE
  5
A5
330
1F
100
AcDbEntity
  8
0
  6
Continuous
 62
     7
370
    25
100
AcDbLine
 10
406.7726846216
 20
586.1067278871
 30
0.0
 11
405.9726859805
 21
586.1067278871
 31
0.0
  0
LINE
  5
A6
330
1F
100
AcDbEntity
  8
0
  6
Continuous
 62
     7
370
    25
100
AcDbLine
 10
405.9726859805
 20
575.6067289599
 30
0.0
 11
406.7726846216
 21
575.6067289599
 31
0.0
  0
ARC
  5
A7
330
1F
100
AcDbEntity
  8
0
  6
Continuous
 62
     7
370
    25
100
AcDbCircle
 10
407.453882387
 20
582.0371677338
 30
0.0
 40
4.330736029719062
100
AcDbArc
 50
110.0
 51
156.8223913264
  0
ARC
  5
A8
330
1F
100
AcDbEntity
  8
0
  6
Continuous
 62
     7
370
    25
100
AcDbCircle
 10
407.453882387
 20
579.6762891132
 30
0.0
 40
4.330736029719062
100
AcDbArc
 50
203.1776086736
 51
250.0
  0
LINE
  5
A9
330
1F
100
AcDbEntity
  8
0
  6
Continuous
 62
     7
370
    25
100
AcDbLine
 10
416.0226847408
 20
577.8567297944
 30
0.0
 11
416.7726676342
 21
577.8567297944
 31
0.0
  0
LINE
  5
AA
330
1F
100
AcDbEntity
  8
0
  6
Continuous
 62
     7
370
    25
100
AcDbLine
 10
416.7726676342
 20
583.8567270526
 30
0.0
 11
416.0226847408
 21
583.8567270526
 31
0.0
  0
LINE
  5
AB
330
1F
100
AcDbEntity
  8
0
  6
Continuous
 62
     7
370
    25
100
AcDbLine
 10
406.7726846216
 20
516.106727589
 30
0.0
 11
405.9726859805
 21
516.106727589
 31
0.0
  0
LINE
  5
AC
330
1F
100
AcDbEntity
  8
0
  6
Continuous
 62
     7
370
    25
100
AcDbLine
 10
405.9726859805
 20
505.6067286619
 30
0.0
 11
406.7726846216
 21
505.6067286619
 31
0.0
  0
ARC
  5
AD
330
1F
100
AcDbEntity
  8
0
  6
Continuous
 62
     7
370
    25
100
AcDbCircle
 10
407.453882387
 20
512.0371677338
 30
0.0
 40
4.330736029719145
100
AcDbArc
 50
110.0
 51
156.8223913264
  0
ARC
  5
AE
330
1F
100
AcDbEntity
  8
0
  6
Continuous
 62
     7
370
    25
100
AcDbCircle
 10
407.453882387
 20
509.6762891132
 30
0.0
 40
4.330736029719062
100
AcDbArc
 50
203.1776086736
 51
250.0
  0
LINE
  5
AF
330
1F
100
AcDbEntity
  8
0
  6
Continuous
 62
     7
370
    25
100
AcDbLine
 10
416.0226847408
 20
507.8567294964
 30
0.0
 11
416.7726676342
 21
507.8567294964
 31
0.0
  0
LINE
  5
B0
330
1F
100
AcDbEntity
  8
0
  6
Continuous
 62
     7
370
    25
100
AcDbLine
 10
416.7726676342
 20
513.8567267546
 30
0.0
 11
416.0226847408
 21
513.8567267546
 31
0.0
  0
LINE
  5
B1
330
1F
100
AcDbEntity
  8
0
  6
Continuous
 62
     7
370
    25
100
AcDbLine
 10
596.7726822374
 20
660.6067279914
 30
0.0
 11
597.5726808784
 21
660.6067279914
 31
0.0
  0
LINE
  5
B2
330
1F
100
AcDbEntity
  8
0
  6
Continuous
 62
     7
370
    25
100
AcDbLine
 10
597.5726808784
 20
671.1067283155
 30
0.0
 11
596.7726822374
 21
671.1067283155
 31
0.0
  0
ARC
  5
B3
330
1F
100
AcDbEntity
  8
0
  6
Continuous
 62
     7
370
    25
100
AcDbCircle
 10
596.0914844719
 20
664.6762891132
 30
0.0
 40
4.330736029719184
100
AcDbArc
 50
290.0
 51
336.8223913264
  0
ARC
  5
B4
330
1F
100
AcDbEntity
  8
0
  6
Continuous
 62
     7
370
    25
100
AcDbCircle
 10
596.0914844719
 20
667.0371677338
 30
0.0
 40
4.330736029719184
100
AcDbArc
 50
23.1776086736
 51
70.0
  0
LINE
  5
B5
330
1F
100
AcDbEntity
  8
0
  6
Continuous
 62
     7
370
    25
100
AcDbLine
 10
587.5226821182
 20
668.8567284123
 30
0.0
 11
586.7726694224
 21
668.8567284123
 31
0.0
  0
LINE
  5
B6
330
1F
100
AcDbEntity
  8
0
  6
Continuous
 62
     7
370
    25
100
AcDbLine
 10
586.7726694224
 20
662.8567288258
 30
0.0
 11
587.5226821182
 21
662.8567288258
 31
0.0
  0
LINE
  5
B7
330
1F
100
AcDbEntity
  8
0
  6
Continuous
 62
     7
370
    25
100
AcDbLine
 10
596.7726822374
 20
730.606730152
 30
0.0
 11
597.5726808784
 21
730.606730152
 31
0.0
  0
LINE
  5
B8
330
1F
100
AcDbEntity
  8
0
  6
Continuous
 62
     7
370
    25
100
AcDbLine
 10
597.5726808784
 20
741.1067290792
 30
0.0
 11
596.7726822374
 21
741.1067290792
 31
0.0
  0
ARC
  5
B9
330
1F
100
AcDbEntity
  8
0
  6
Continuous
 62
     7
370
    25
100
AcDbCircle
 10
596.0914844719
 20
734.6762891132
 30
0.0
 40
4.330736029719114
100
AcDbArc
 50
290.0
 51
336.8223913264
  0
ARC
  5
BA
330
1F
100
AcDbEntity
  8
0
  6
Continuous
 62
     7
370
    25
100
AcDbCircle
 10
596.0914844719
 20
737.0371677338
 30
0.0
 40
4.330736029719114
100
AcDbArc
 50
23.1776086736
 51
70.0
  0
LINE
  5
BB
330
1F
100
AcDbEntity
  8
0
  6
Continuous
 62
     7
370
    25
100
AcDbLine
 10
587.5226821182
 20
738.8567282447
 30
0.0
 11
586.7726694224
 21
738.8567282447
 31
0.0
  0
LINE
  5
BC
330
1F
100
AcDbEntity
  8
0
  6
Continuous
 62
     7
370
    25
100
AcDbLine
 10
586.7726694224
 20
732.8567272612
 30
0.0
 11
587.5226821182
 21
732.8567272612
 31
0.0
  0
LINE
  5
BD
330
1F
100
AcDbEntity
  8
0
  6
Continuous
 62
     7
370
    25
100
AcDbLine
 10
406.7726846216
 20
741.1067290792
 30
0.0
 11
405.9726859805
 21
741.1067290792
 31
0.0
  0
LINE
  5
BE
330
1F
100
AcDbEntity
  8
0
  6
Continuous
 62
     7
370
    25
100
AcDbLine
 10
405.9726859805
 20
730.606730152
 30
0.0
 11
406.7726846216
 21
730.606730152
 31
0.0
  0
ARC
  5
BF
330
1F
100
AcDbEntity
  8
0
  6
Continuous
 62
     7
370
    25
100
AcDbCircle
 10
407.453882387
 20
737.0371677338
 30
0.0
 40
4.330736029719145
100
AcDbArc
 50
110.0
 51
156.8223913264
  0
ARC
  5
C0
330
1F
100
AcDbEntity
  8
0
  6
Continuous
 62
     7
370
    25
100
AcDbCircle
 10
407.453882387
 20
734.6762891132
 30
0.0
 40
4.330736029719062
100
AcDbArc
 50
203.1776086736
 51
250.0
  0
LINE
  5
C1
330
1F
100
AcDbEntity
  8
0
  6
Continuous
 62
     7
370
    25
100
AcDbLine
 10
416.0226847408
 20
732.8567272612
 30
0.0
 11
416.7726676342
 21
732.8567272612
 31
0.0
  0
LINE
  5
C2
330
1F
100
AcDbEntity
  8
0
  6
Continuous
 62
     7
370
    25
100
AcDbLine
 10
416.7726676342
 20
738.8567282447
 30
0.0
 11
416.0226847408
 21
738.8567282447
 31
0.0
  0
LINE
  5
C3
330
1F
100
AcDbEntity
  8
0
  6
Continuous
 62
     7
370
    25
100
AcDbLine
 10
596.7726822374
 20
505.6067286619
 30
0.0
 11
597.5726808784
 21
505.6067286619
 31
0.0
  0
LINE
  5
C4
330
1F
100
AcDbEntity
  8
0
  6
Continuous
 62
     7
370
    25
100
AcDbLine
 10
597.5726808784
 20
516.106727589
 30
0.0
 11
596.7726822374
 21
516.106727589
 31
0.0
  0
ARC
  5
C5
330
1F
100
AcDbEntity
  8
0
  6
Continuous
 62
     7
370
    25
100
AcDbCircle
 10
596.0914844719
 20
509.6762891132
 30
0.0
 40
4.330736029719136
100
AcDbArc
 50
290.0
 51
336.8223913264
  0
ARC
  5
C6
330
1F
100
AcDbEntity
  8
0
  6
Continuous
 62
     7
370
    25
100
AcDbCircle
 10
596.0914844719
 20
512.0371677338
 30
0.0
 40
4.330736029719114
100
AcDbArc
 50
23.1776086736
 51
70.0
  0
LINE
  5
C7
330
1F
100
AcDbEntity
  8
0
  6
Continuous
 62
     7
370
    25
100
AcDbLine
 10
587.5226821182
 20
513.8567267546
 30
0.0
 11
586.7726694224
 21
513.8567267546
 31
0.0
  0
LINE
  5
C8
330
1F
100
AcDbEntity
  8
0
  6
Continuous
 62
     7
370
    25
100
AcDbLine
 10
586.7726694224
 20
507.8567294964
 30
0.0
 11
587.5226821182
 21
507.8567294964
 31
0.0
  0
LINE
  5
C9
330
1F
100
AcDbEntity
  8
0
  6
Continuous
 62
     7
370
    25
100
AcDbLine
 10
406.7726846216
 20
671.1067283155
 30
0.0
 11
405.9726859805
 21
671.1067283155
 31
0.0
  0
LINE
  5
CA
330
1F
100
AcDbEntity
  8
0
  6
Continuous
 62
     7
370
    25
100
AcDbLine
 10
405.9726859805
 20
660.6067279914
 30
0.0
 11
406.7726846216
 21
660.6067279914
 31
0.0
  0
ARC
  5
CB
330
1F
100
AcDbEntity
  8
0
  6
Continuous
 62
     7
370
    25
100
AcDbCircle
 10
407.453882387
 20
667.0371677338
 30
0.0
 40
4.330736029719253
100
AcDbArc
 50
110.0
 51
156.8223913264
  0
ARC
  5
CC
330
1F
100
AcDbEntity
  8
0
  6
Continuous
 62
     7
370
    25
100
AcDbCircle
 10
407.453882387
 20
664.6762891132
 30
0.0
 40
4.330736029719062
100
AcDbArc
 50
203.1776086736
 51
250.0
  0
LINE
  5
CD
330
1F
100
AcDbEntity
  8
0
  6
Continuous
 62
     7
370
    25
100
AcDbLine
 10
416.0226847408
 20
662.8567288258
 30
0.0
 11
416.7726676342
 21
662.8567288258
 31
0.0
  0
LINE
  5
CE
330
1F
100
AcDbEntity
  8
0
  6
Continuous
 62
     7
370
    25
100
AcDbLine
 10
416.7726676342
 20
668.8567284123
 30
0.0
 11
416.0226847408
 21
668.8567284123
 31
0.0
  0
LINE
  5
CF
330
1F
100
AcDbEntity
  8
0
  6
Continuous
 62
     7
370
    25
100
AcDbLine
 10
500.7926876088
 20
630.8462536522
 30
0.0
 11
500.7926876088
 21
630.1787188837
 31
0.0
  0
LINE
  5
D0
330
1F
100
AcDbEntity
  8
0
  6
Continuous
 62
     7
370
    25
100
AcDbLine
 10
500.7926876088
 20
475.8462487349
 30
0.0
 11
500.7926876088
 21
475.1787214169
 31
0.0
  0
LINE
  5
D1
330
1F
100
AcDbEntity
  8
0
  6
Continuous
 62
     7
370
    25
100
AcDbLine
 10
503.3585453303
 20
475.1787214169
 30
0.0
 11
503.3585453303
 21
475.8462487349
 31
0.0
  0
LINE
  5
D2
330
1F
100
AcDbEntity
  8
0
  6
Continuous
 62
     7
370
    25
100
AcDbLine
 10
500.8585453862
 20
475.8462487349
 30
0.0
 11
500.8585453862
 21
475.1787214169
 31
0.0
  0
LINE
  5
D3
330
1F
100
AcDbEntity
  8
0
  6
Continuous
 62
     7
370
    25
100
AcDbLine
 10
503.3585453303
 20
630.1787188837
 30
0.0
 11
503.3585453303
 21
630.8462536522
 31
0.0
  0
LINE
  5
D4
330
1F
100
AcDbEntity
  8
0
  6
Continuous
 62
     7
370
    25
100
AcDbLine
 10
500.8585453862
 20
630.8462536522
 30
0.0
 11
500.8585453862
 21
630.1787188837
 31
0.0
  0
LINE
  5
D5
330
1F
100
AcDbEntity
  8
0
  6
Continuous
 62
     7
370
    25
100
AcDbLine
 10
506.1128212501
 20
630.1067276486
 30
0.0
 11
506.0408318778
 21
630.1787188837
 31
0.0
  0
LINE
  5
D6
330
1F
100
AcDbEntity
  8
0
  6
Continuous
 62
     7
370
    25
100
AcDbLine
 10
506.7908320007
 20
615.8462530562
 30
0.0
 11
506.7908320007
 21
616.6067300924
 31
0.0
  0
LINE
  5
D7
330
1F
100
AcDbEntity
  8
0
  6
Continuous
 62
     7
370
    25
100
AcDbLine
 10
498.2091480297
 20
630.1787188837
 30
0.0
 11
498.1371586574
 21
630.1067276486
 31
0.0
  0
LINE
  5
D8
330
1F
100
AcDbEntity
  8
0
  6
Continuous
 62
     7
370
    25
100
AcDbLine
 10
496.0536610698
 20
616.6067300924
 30
0.0
 11
496.0536610698
 21
615.8462530562
 31
0.0
  0
LINE
  5
D9
330
1F
100
AcDbEntity
  8
0
  6
Continuous
 62
     7
370
    25
100
AcDbLine
 10
498.2091480297
 20
475.1787214169
 30
0.0
 11
498.1371586574
 21
475.1067339071
 31
0.0
  0
CIRCLE
  5
DA
330
1F
100
AcDbEntity
  8
0
  6
Continuous
 62
     7
370
    25
100
AcDbCircle
 10
456.7726834295
 20
264.6067284235
 30
0.0
 40
8.650000000000034
  0
LINE
  5
DB
330
1F
100
AcDbEntity
  8
0
  6
Continuous
 62
     7
370
    25
100
AcDbLine
 10
410.7726852772
 20
821.6067283043
 30
0.0
 11
410.7726852772
 21
224.6067403444
 31
0.0
  0
LINE
  5
DC
330
1F
100
AcDbEntity
  8
0
  6
Continuous
 62
     7
370
    25
100
AcDbLine
 10
592.7726815817
 20
224.6067403444
 30
0.0
 11
592.7726815817
 21
821.6067283043
 31
0.0
  0
LINE
  5
DD
330
1F
100
AcDbEntity
  8
0
  6
Continuous
 62
     7
370
    25
100
AcDbLine
 10
418.0226813433
 20
475.1067339071
 30
0.0
 11
585.5226855156
 21
475.1067339071
 31
0.0
  0
CIRCLE
  5
DE
330
1F
100
AcDbEntity
  8
0
  6
Continuous
 62
     7
370
    25
100
AcDbCircle
 10
546.7726834295
 20
264.6067284235
 30
0.0
 40
8.650000000000034
  0
LINE
  5
DF
330
1F
100
AcDbEntity
  8
0
  6
Continuous
 62
     7
370
    25
100
AcDbLine
 10
416.0226847408
 20
614.6067297646
 30
0.0
 11
416.0226847408
 21
477.1067230591
 31
0.0
  0
ARC
  5
E0
330
1F
100
AcDbEntity
  8
0
  6
Continuous
 62
     7
370
    25
100
AcDbCircle
 10
418.0226834295
 20
614.6067284235
 30
0.0
 40
2.0
100
AcDbArc
 50
90.0
 51
180.0
  0
LINE
  5
E1
330
1F
100
AcDbEntity
  8
0
  6
Continuous
 62
     7
370
    25
100
AcDbLine
 10
585.5226855156
 20
771.6067312845
 30
0.0
 11
418.0226813433
 21
771.6067312845
 31
0.0
  0
LINE
  5
E2
330
1F
100
AcDbEntity
  8
0
  6
Continuous
 62
     7
370
    25
100
AcDbLine
 10
587.5226821182
 20
477.1067230591
 30
0.0
 11
587.5226821182
 21
614.6067297646
 31
0.0
  0
LINE
  5
E3
330
1F
100
AcDbEntity
  8
0
  6
Continuous
 62
     7
370
    25
100
AcDbLine
 10
585.5226855156
 20
616.6067300924
 30
0.0
 11
418.0226813433
 21
616.6067300924
 31
0.0
  0
LINE
  5
E4
330
1F
100
AcDbEntity
  8
0
  6
Continuous
 62
     7
370
    25
100
AcDbLine
 10
410.7726852772
 20
224.6067403444
 30
0.0
 11
592.7726815817
 21
224.6067403444
 31
0.0
  0
LINE
  5
E5
330
1F
100
AcDbEntity
  8
0
  6
Continuous
 62
     7
370
    25
100
AcDbLine
 10
418.0226813433
 20
630.1067276486
 30
0.0
 11
585.5226855156
 21
630.1067276486
 31
0.0
  0
LINE
  5
E6
330
1F
100
AcDbEntity
  8
0
  6
Continuous
 62
     7
370
    25
100
AcDbLine
 10
587.5226821182
 20
632.1067279765
 30
0.0
 11
587.5226821182
 21
769.6067272314
 31
0.0
  0
ARC
  5
E7
330
1F
100
AcDbEntity
  8
0
  6
Continuous
 62
     7
370
    25
100
AcDbCircle
 10
585.5226834295
 20
769.6067284235
 30
0.0
 40
2.000000000000114
100
AcDbArc
 50
0.0
 51
90.0
  0
ARC
  5
E8
330
1F
100
AcDbEntity
  8
0
  6
Continuous
 62
     7
370
    25
100
AcDbCircle
 10
585.5226834295
 20
477.1067284235
 30
0.0
 40
2.0
100
AcDbArc
 50
270.0
 51
0.0
  0
ARC
  5
E9
330
1F
100
AcDbEntity
  8
0
  6
Continuous
 62
     7
370
    25
100
AcDbCircle
 10
418.0226834295
 20
769.6067284235
 30
0.0
 40
2.0
100
AcDbArc
 50
90.0
 51
180.0
  0
LINE
  5
EA
330
1F
100
AcDbEntity
  8
0
  6
Continuous
 62
     7
370
    25
100
AcDbLine
 10
416.0226847408
 20
769.6067272314
 30
0.0
 11
416.0226847408
 21
632.1067279765
 31
0.0
  0
ARC
  5
EB
330
1F
100
AcDbEntity
  8
0
  6
Continuous
 62
     7
370
    25
100
AcDbCircle
 10
418.0226834295
 20
632.1067284235
 30
0.0
 40
2.0
100
AcDbArc
 50
180.0
 51
270.0
  0
ARC
  5
EC
330
1F
100
AcDbEntity
  8
0
  6
Continuous
 62
     7
370
    25
100
AcDbCircle
 10
585.5226834295
 20
632.1067284235
 30
0.0
 40
2.0
100
AcDbArc
 50
270.0
 51
0.0
  0
ARC
  5
ED
330
1F
100
AcDbEntity
  8
0
  6
Continuous
 62
     7
370
    25
100
AcDbCircle
 10
585.5226834295
 20
614.6067284235
 30
0.0
 40
2.000000000000114
100
AcDbArc
 50
0.0
 51
90.0
  0
ARC
  5
EE
330
1F
100
AcDbEntity
  8
0
  6
Continuous
 62
     7
370
    25
100
AcDbCircle
 10
418.0226834295
 20
477.1067284235
 30
0.0
 40
2.0
100
AcDbArc
 50
180.0
 51
270.0
  0
LINE
  5
EF
330
1F
100
AcDbEntity
  8
0
  6
Continuous
 62
     7
370
    25
100
AcDbLine
 10
408.7726812241
 20
224.6067403444
 30
0.0
 11
408.7726812241
 21
821.6067283043
 31
0.0
  0
LINE
  5
F0
330
1F
100
AcDbEntity
  8
0
  6
Continuous
 62
     7
370
    25
100
AcDbLine
 10
410.7726852772
 20
224.6067403444
 30
0.0
 11
408.7726812241
 21
224.6067403444
 31
0.0
  0
LINE
  5
F1
330
1F
100
AcDbEntity
  8
0
  6
Continuous
 62
     7
370
    25
100
AcDbLine
 10
594.7726856348
 20
821.6067283043
 30
0.0
 11
594.7726856348
 21
224.6067403444
 31
0.0
  0
LINE
  5
F2
330
1F
100
AcDbEntity
  8
0
  6
Continuous
 62
     7
370
    25
100
AcDbLine
 10
594.7726856348
 20
224.6067403444
 30
0.0
 11
592.7726815817
 21
224.6067403444
 31
0.0
  0
LINE
  5
F3
330
1F
100
AcDbEntity
  8
0
  6
Continuous
 62
     7
370
    25
100
AcDbLine
 10
519.7726826546
 20
771.6067312845
 30
0.0
 11
519.7726826546
 21
770.846250523
 31
0.0
  0
LINE
  5
F4
330
1F
100
AcDbEntity
  8
0
  6
Continuous
 62
     7
370
    25
100
AcDbLine
 10
519.7726826546
 20
630.8462536522
 30
0.0
 11
519.7726826546
 21
630.1067276486
 31
0.0
  0
LINE
  5
F5
330
1F
100
AcDbEntity
  8
0
  6
Continuous
 62
     7
370
    25
100
AcDbLine
 10
519.7726826546
 20
616.6067300924
 30
0.0
 11
519.7726826546
 21
615.8462530562
 31
0.0
  0
LINE
  5
F6
330
1F
100
AcDbEntity
  8
0
  6
Continuous
 62
     7
370
    25
100
AcDbLine
 10
519.7726826546
 20
475.8462487349
 30
0.0
 11
519.7726826546
 21
475.1067339071
 31
0.0
  0
LINE
  5
F7
330
1F
100
AcDbEntity
  8
0
  6
Continuous
 62
     7
370
    25
100
AcDbLine
 10
518.2726833401
 20
771.6067312845
 30
0.0
 11
518.2726833401
 21
770.846250523
 31
0.0
  0
LINE
  5
F8
330
1F
100
AcDbEntity
  8
0
  6
Continuous
 62
     7
370
    25
100
AcDbLine
 10
518.2726833401
 20
630.8462536522
 30
0.0
 11
518.2726833401
 21
630.1067276486
 31
0.0
  0
LINE
  5
F9
330
1F
100
AcDbEntity
  8
0
  6
Continuous
 62
     7
370
    25
100
AcDbLine
 10
518.2726833401
 20
616.6067300924
 30
0.0
 11
518.2726833401
 21
615.8462530562
 31
0.0
  0
LINE
  5
FA
330
1F
100
AcDbEntity
  8
0
  6
Continuous
 62
     7
370
    25
100
AcDbLine
 10
518.2726833401
 20
475.8462487349
 30
0.0
 11
518.2726833401
 21
475.1067339071
 31
0.0
  0
LINE
  5
FB
330
1F
100
AcDbEntity
  8
0
  6
Continuous
 62
     7
370
    25
100
AcDbLine
 10
483.7726842043
 20
771.6067312845
 30
0.0
 11
483.7726842043
 21
770.846250523
 31
0.0
  0
LINE
  5
FC
330
1F
100
AcDbEntity
  8
0
  6
Continuous
 62
     7
370
    25
100
AcDbLine
 10
483.7726842043
 20
630.8462536522
 30
0.0
 11
483.7726842043
 21
630.1067276486
 31
0.0
  0
LINE
  5
FD
330
1F
100
AcDbEntity
  8
0
  6
Continuous
 62
     7
370
    25
100
AcDbLine
 10
483.7726842043
 20
616.6067300924
 30
0.0
 11
483.7726842043
 21
615.8462530562
 31
0.0
  0
LINE
  5
FE
330
1F
100
AcDbEntity
  8
0
  6
Continuous
 62
     7
370
    25
100
AcDbLine
 10
483.7726842043
 20
475.8462487349
 30
0.0
 11
483.7726842043
 21
475.1067339071
 31
0.0
  0
LINE
  5
FF
330
1F
100
AcDbEntity
  8
0
  6
Continuous
 62
     7
370
    25
100
AcDbLine
 10
485.2726835189
 20
771.6067312845
 30
0.0
 11
485.2726835189
 21
770.846250523
 31
0.0
  0
LINE
  5
100
330
1F
100
AcDbEntity
  8
0
  6
Continuous
 62
     7
370
    25
100
AcDbLine
 10
485.2726835189
 20
630.8462536522
 30
0.0
 11
485.2726835189
 21
630.1067276486
 31
0.0
  0
LINE
  5
101
330
1F
100
AcDbEntity
  8
0
  6
Continuous
 62
     7
370
    25
100
AcDbLine
 10
485.2726835189
 20
616.6067300924
 30
0.0
 11
485.2726835189
 21
615.8462530562
 31
0.0
  0
LINE
  5
102
330
1F
100
AcDbEntity
  8
0
  6
Continuous
 62
     7
370
    25
100
AcDbLine
 10
485.2726835189
 20
475.8462487349
 30
0.0
 11
485.2726835189
 21
475.1067339071
 31
0.0
  0
LINE
  5
103
330
1F
100
AcDbEntity
  8
0
  6
Continuous
 62
     7
370
    25
100
AcDbLine
 10
448.7726840553
 20
771.6067312845
 30
0.0
 11
448.7726840553
 21
770.846250523
 31
0.0
  0
LINE
  5
104
330
1F
100
AcDbEntity
  8
0
  6
Continuous
 62
     7
370
    25
100
AcDbLine
 10
448.7726840553
 20
630.8462536522
 30
0.0
 11
448.7726840553
 21
630.1067276486
 31
0.0
  0
LINE
  5
105
330
1F
100
AcDbEntity
  8
0
  6
Continuous
 62
     7
370
    25
100
AcDbLine
 10
448.7726840553
 20
616.6067300924
 30
0.0
 11
448.7726840553
 21
615.8462530562
 31
0.0
  0
LINE
  5
106
330
1F
100
AcDbEntity
  8
0
  6
Continuous
 62
     7
370
    25
100
AcDbLine
 10
448.7726840553
 20
475.8462487349
 30
0.0
 11
448.7726840553
 21
475.1067339071
 31
0.0
  0
LINE
  5
107
330
1F
100
AcDbEntity
  8
0
  6
Continuous
 62
     7
370
    25
100
AcDbLine
 10
450.2726833699
 20
771.6067312845
 30
0.0
 11
450.2726833699
 21
770.846250523
 31
0.0
  0
LINE
  5
108
330
1F
100
AcDbEntity
  8
0
  6
Continuous
 62
     7
370
    25
100
AcDbLine
 10
450.2726833699
 20
630.8462536522
 30
0.0
 11
450.2726833699
 21
630.1067276486
 31
0.0
  0
LINE
  5
109
330
1F
100
AcDbEntity
  8
0
  6
Continuous
 62
     7
370
    25
100
AcDbLine
 10
450.2726833699
 20
616.6067300924
 30
0.0
 11
450.2726833699
 21
615.8462530562
 31
0.0
  0
LINE
  5
10A
330
1F
100
AcDbEntity
  8
0
  6
Continuous
 62
     7
370
    25
100
AcDbLine
 10
450.2726833699
 20
475.8462487349
 30
0.0
 11
450.2726833699
 21
475.1067339071
 31
0.0
  0
LINE
  5
10B
330
1F
100
AcDbEntity
  8
0
  6
Continuous
 62
     7
370
    25
100
AcDbLine
 10
553.2726834891
 20
771.6067312845
 30
0.0
 11
553.2726834891
 21
770.846250523
 31
0.0
  0
LINE
  5
10C
330
1F
100
AcDbEntity
  8
0
  6
Continuous
 62
     7
370
    25
100
AcDbLine
 10
553.2726834891
 20
630.8462536522
 30
0.0
 11
553.2726834891
 21
630.1067276486
 31
0.0
  0
LINE
  5
10D
330
1F
100
AcDbEntity
  8
0
  6
Continuous
 62
     7
370
    25
100
AcDbLine
 10
553.2726834891
 20
616.6067300924
 30
0.0
 11
553.2726834891
 21
615.8462530562
 31
0.0
  0
LINE
  5
10E
330
1F
100
AcDbEntity
  8
0
  6
Continuous
 62
     7
370
    25
100
AcDbLine
 10
553.2726834891
 20
475.8462487349
 30
0.0
 11
553.2726834891
 21
475.1067339071
 31
0.0
  0
LINE
  5
10F
330
1F
100
AcDbEntity
  8
0
  6
Continuous
 62
     7
370
    25
100
AcDbLine
 10
554.7726828036
 20
771.6067312845
 30
0.0
 11
554.7726828036
 21
770.846250523
 31
0.0
  0
LINE
  5
110
330
1F
100
AcDbEntity
  8
0
  6
Continuous
 62
     7
370
    25
100
AcDbLine
 10
554.7726828036
 20
630.8462536522
 30
0.0
 11
554.7726828036
 21
630.1067276486
 31
0.0
  0
LINE
  5
111
330
1F
100
AcDbEntity
  8
0
  6
Continuous
 62
     7
370
    25
100
AcDbLine
 10
554.7726828036
 20
616.6067300924
 30
0.0
 11
554.7726828036
 21
615.8462530562
 31
0.0
  0
LINE
  5
112
330
1F
100
AcDbEntity
  8
0
  6
Continuous
 62
     7
370
    25
100
AcDbLine
 10
554.7726828036
 20
475.8462487349
 30
0.0
 11
554.7726828036
 21
475.1067339071
 31
0.0
  0
LINE
  5
113
330
1F
100
AcDbEntity
  8
0
  6
Continuous
 62
     7
370
    25
100
AcDbLine
 10
596.2726812241
 20
385.1199029574
 30
0.0
 11
596.2726812241
 21
393.6467348227
 31
0.0
  0
LINE
  5
114
330
1F
100
AcDbEntity
  8
0
  6
Continuous
 62
     7
370
    25
100
AcDbLine
 10
596.2726812241
 20
384.6467314848
 30
0.0
 11
596.2726812241
 21
385.1199029574
 31
0.0
  0
LINE
  5
115
330
1F
100
AcDbEntity
  8
0
  6
Continuous
 62
     7
370
    25
100
AcDbLine
 10
407.2726856348
 20
384.6467314848
 30
0.0
 11
407.2726856348
 21
393.6467348227
 31
0.0
  0
LINE
  5
116
330
1F
100
AcDbEntity
  8
0
  6
Continuous
 62
     7
370
    25
100
AcDbLine
 10
596.6526831863
 20
389.7761284002
 30
0.0
 11
596.6526831863
 21
392.9467378744
 31
0.0
  0
LINE
  5
117
330
1F
100
AcDbEntity
  8
0
  6
Continuous
 62
     7
370
    25
100
AcDbLine
 10
596.6526831863
 20
385.346728433
 30
0.0
 11
596.6526831863
 21
389.7761284002
 31
0.0
  0
LINE
  5
118
330
1F
100
AcDbEntity
  8
0
  6
Continuous
 62
     7
370
    25
100
AcDbLine
 10
598.4726812122
 20
389.4461570868
 30
0.0
 11
598.4726812122
 21
390.9545420298
 31
0.0
  0
LINE
  5
119
330
1F
100
AcDbEntity
  8
0
  6
Continuous
 62
     7
370
    25
100
AcDbLine
 10
598.4726812122
 20
387.3389242777
 30
0.0
 11
598.4726812122
 21
389.4461570868
 31
0.0
  0
LINE
  5
11A
330
1F
100
AcDbEntity
  8
0
  6
Continuous
 62
     7
370
    25
100
AcDbLine
 10
406.8926836726
 20
392.1552775988
 30
0.0
 11
406.8926836726
 21
385.346728433
 31
0.0
  0
LINE
  5
11B
330
1F
100
AcDbEntity
  8
0
  6
Continuous
 62
     7
370
    25
100
AcDbLine
 10
406.8926836726
 20
392.9467378744
 30
0.0
 11
406.8926836726
 21
392.1552775988
 31
0.0
  0
LINE
  5
11C
330
1F
100
AcDbEntity
  8
0
  6
Continuous
 62
     7
370
    25
100
AcDbLine
 10
405.0726856468
 20
390.5780194887
 30
0.0
 11
405.0726856468
 21
387.3389242777
 31
0.0
  0
LINE
  5
11D
330
1F
100
AcDbEntity
  8
0
  6
Continuous
 62
     7
370
    25
100
AcDbLine
 10
405.0726856468
 20
390.9545420298
 30
0.0
 11
405.0726856468
 21
390.5780194887
 31
0.0
  0
LINE
  5
11E
330
1F
100
AcDbEntity
  8
0
  6
Continuous
 62
     7
370
    25
100
AcDbLine
 10
596.7726822374
 20
507.592397798
 30
0.0
 11
596.7726822374
 21
504.6067266354
 31
0.0
  0
LINE
  5
11F
330
1F
100
AcDbEntity
  8
0
  6
Continuous
 62
     7
370
    25
100
AcDbLine
 10
596.7726822374
 20
517.1067296156
 30
0.0
 11
596.7726822374
 21
507.592397798
 31
0.0
  0
LINE
  5
120
330
1F
100
AcDbEntity
  8
0
  6
Continuous
 62
     7
370
    25
100
AcDbLine
 10
406.7726846216
 20
659.6067287588
 30
0.0
 11
406.7726846216
 21
672.1067284794
 31
0.0
  0
LINE
  5
121
330
1F
100
AcDbEntity
  8
0
  6
Continuous
 62
     7
370
    25
100
AcDbLine
 10
406.7726846216
 20
574.6067269334
 30
0.0
 11
406.7726846216
 21
587.1067299136
 31
0.0
  0
LINE
  5
122
330
1F
100
AcDbEntity
  8
0
  6
Continuous
 62
     7
370
    25
100
AcDbLine
 10
596.7726822374
 20
577.5923906454
 30
0.0
 11
596.7726822374
 21
574.6067269334
 31
0.0
  0
LINE
  5
123
330
1F
100
AcDbEntity
  8
0
  6
Continuous
 62
     7
370
    25
100
AcDbLine
 10
596.7726822374
 20
587.1067299136
 30
0.0
 11
596.7726822374
 21
577.5923906454
 31
0.0
  0
LINE
  5
124
330
1F
100
AcDbEntity
  8
0
  6
Continuous
 62
     7
370
    25
100
AcDbLine
 10
596.7726822374
 20
732.5923918375
 30
0.0
 11
596.7726822374
 21
729.6067281255
 31
0.0
  0
LINE
  5
125
330
1F
100
AcDbEntity
  8
0
  6
Continuous
 62
     7
370
    25
100
AcDbLine
 10
596.7726822374
 20
742.1067311057
 30
0.0
 11
596.7726822374
 21
732.5923918375
 31
0.0
  0
LINE
  5
126
330
1F
100
AcDbEntity
  8
0
  6
Continuous
 62
     7
370
    25
100
AcDbLine
 10
406.7726846216
 20
504.6067266354
 30
0.0
 11
406.7726846216
 21
517.1067296156
 31
0.0
  0
LINE
  5
127
330
1F
100
AcDbEntity
  8
0
  6
Continuous
 62
     7
370
    25
100
AcDbLine
 10
406.7726846216
 20
729.6067281255
 30
0.0
 11
406.7726846216
 21
742.1067311057
 31
0.0
  0
LINE
  5
128
330
1F
100
AcDbEntity
  8
0
  6
Continuous
 62
     7
370
    25
100
AcDbLine
 10
596.7726822374
 20
662.5923934021
 30
0.0
 11
596.7726822374
 21
659.6067287588
 31
0.0
  0
LINE
  5
129
330
1F
100
AcDbEntity
  8
0
  6
Continuous
 62
     7
370
    25
100
AcDbLine
 10
596.7726822374
 20
672.1067284794
 30
0.0
 11
596.7726822374
 21
662.5923934021
 31
0.0
  0
LINE
  5
12A
330
1F
100
AcDbEntity
  8
0
  6
Continuous
 62
     7
370
    25
100
AcDbLine
 10
597.5726808784
 20
575.6067289599
 30
0.0
 11
597.5726808784
 21
586.1067278871
 31
0.0
  0
LINE
  5
12B
330
1F
100
AcDbEntity
  8
0
  6
Continuous
 62
     7
370
    25
100
AcDbLine
 10
600.0726859448
 20
577.9717891106
 30
0.0
 11
600.0726859448
 21
583.7416677364
 31
0.0
  0
LINE
  5
12C
330
1F
100
AcDbEntity
  8
0
  6
Continuous
 62
     7
370
    25
100
AcDbLine
 10
405.9726859805
 20
586.1067278871
 30
0.0
 11
405.9726859805
 21
575.6067289599
 31
0.0
  0
LINE
  5
12D
330
1F
100
AcDbEntity
  8
0
  6
Continuous
 62
     7
370
    25
100
AcDbLine
 10
403.4726809141
 20
583.7416677364
 30
0.0
 11
403.4726809141
 21
577.9717891106
 31
0.0
  0
LINE
  5
12E
330
1F
100
AcDbEntity
  8
0
  6
Continuous
 62
     7
370
    25
100
AcDbLine
 10
405.9726859805
 20
516.106727589
 30
0.0
 11
405.9726859805
 21
505.6067286619
 31
0.0
  0
LINE
  5
12F
330
1F
100
AcDbEntity
  8
0
  6
Continuous
 62
     7
370
    25
100
AcDbLine
 10
403.4726809141
 20
513.741674889
 30
0.0
 11
403.4726809141
 21
507.971781362
 31
0.0
  0
LINE
  5
130
330
1F
100
AcDbEntity
  8
0
  6
Continuous
 62
     7
370
    25
100
AcDbLine
 10
597.5726808784
 20
660.6067279914
 30
0.0
 11
597.5726808784
 21
671.1067283155
 31
0.0
  0
LINE
  5
131
330
1F
100
AcDbEntity
  8
0
  6
Continuous
 62
     7
370
    25
100
AcDbLine
 10
600.0726859448
 20
662.9717862794
 30
0.0
 11
600.0726859448
 21
668.7416704932
 31
0.0
  0
LINE
  5
132
330
1F
100
AcDbEntity
  8
0
  6
Continuous
 62
     7
370
    25
100
AcDbLine
 10
597.5726808784
 20
730.606730152
 30
0.0
 11
597.5726808784
 21
741.1067290792
 31
0.0
  0
LINE
  5
133
330
1F
100
AcDbEntity
  8
0
  6
Continuous
 62
     7
370
    25
100
AcDbLine
 10
600.0726859448
 20
732.9717865774
 30
0.0
 11
600.0726859448
 21
738.7416689285
 31
0.0
  0
LINE
  5
134
330
1F
100
AcDbEntity
  8
0
  6
Continuous
 62
     7
370
    25
100
AcDbLine
 10
405.9726859805
 20
741.1067290792
 30
0.0
 11
405.9726859805
 21
730.606730152
 31
0.0
  0
LINE
  5
135
330
1F
100
AcDbEntity
  8
0
  6
Continuous
 62
     7
370
    25
100
AcDbLine
 10
403.4726809141
 20
738.7416689285
 30
0.0
 11
403.4726809141
 21
732.9717865774
 31
0.0
  0
LINE
  5
136
330
1F
100
AcDbEntity
  8
0
  6
Continuous
 62
     7
370
    25
100
AcDbLine
 10
597.5726808784
 20
505.6067286619
 30
0.0
 11
597.5726808784
 21
516.106727589
 31
0.0
  0
LINE
  5
137
330
1F
100
AcDbEntity
  8
0
  6
Continuous
 62
     7
370
    25
100
AcDbLine
 10
600.0726859448
 20
507.971781362
 30
0.0
 11
600.0726859448
 21
513.741674889
 31
0.0
  0
LINE
  5
138
330
1F
100
AcDbEntity
  8
0
  6
Continuous
 62
     7
370
    25
100
AcDbLine
 10
405.9726859805
 20
671.1067283155
 30
0.0
 11
405.9726859805
 21
660.6067279914
 31
0.0
  0
LINE
  5
139
330
1F
100
AcDbEntity
  8
0
  6
Continuous
 62
     7
370
    25
100
AcDbLine
 10
403.4726809141
 20
668.7416704932
 30
0.0
 11
403.4726809141
 21
662.9717862794
 31
0.0
  0
LINE
  5
13A
330
1F
100
AcDbEntity
  8
0
  6
Continuous
 62
     7
370
    25
100
AcDbLine
 10
586.7726694224
 20
491.8514965662
 30
0.0
 11
586.437758374
 21
491.8514965662
 31
0.0
  0
LINE
  5
13B
330
1F
100
AcDbEntity
  8
0
  6
Continuous
 62
     7
370
    25
100
AcDbLine
 10
586.437758374
 20
599.8514844665
 30
0.0
 11
586.7726694224
 21
599.8514844665
 31
0.0
  0
LINE
  5
13C
330
1F
100
AcDbEntity
  8
0
  6
Continuous
 62
     7
370
    25
100
AcDbLine
 10
586.7726694224
 20
599.8514844665
 30
0.0
 11
586.7726694224
 21
491.8514965662
 31
0.0
  0
LINE
  5
13D
330
1F
100
AcDbEntity
  8
0
  6
Continuous
 62
     7
370
    25
100
AcDbLine
 10
416.7726676342
 20
491.8514965662
 30
0.0
 11
416.7726676342
 21
599.8514844665
 31
0.0
  0
LINE
  5
13E
330
1F
100
AcDbEntity
  8
0
  6
Continuous
 62
     7
370
    25
100
AcDbLine
 10
417.1107675311
 20
491.8514965662
 30
0.0
 11
416.7726676342
 21
491.8514965662
 31
0.0
  0
LINE
  5
13F
330
1F
100
AcDbEntity
  8
0
  6
Continuous
 62
     7
370
    25
100
AcDbLine
 10
416.7726676342
 20
599.8514844665
 30
0.0
 11
417.1107675311
 21
599.8514844665
 31
0.0
  0
LINE
  5
140
330
1F
100
AcDbEntity
  8
0
  6
Continuous
 62
     7
370
    25
100
AcDbLine
 10
586.7726694224
 20
646.851494033
 30
0.0
 11
586.437758374
 21
646.851494033
 31
0.0
  0
LINE
  5
141
330
1F
100
AcDbEntity
  8
0
  6
Continuous
 62
     7
370
    25
100
AcDbLine
 10
586.437758374
 20
754.8514856586
 30
0.0
 11
586.7726694224
 21
754.8514856586
 31
0.0
  0
LINE
  5
142
330
1F
100
AcDbEntity
  8
0
  6
Continuous
 62
     7
370
    25
100
AcDbLine
 10
586.7726694224
 20
754.8514856586
 30
0.0
 11
586.7726694224
 21
646.851494033
 31
0.0
  0
LINE
  5
143
330
1F
100
AcDbEntity
  8
0
  6
Continuous
 62
     7
370
    25
100
AcDbLine
 10
416.7726676342
 20
754.8514856586
 30
0.0
 11
417.1107675311
 21
754.8514856586
 31
0.0
  0
LINE
  5
144
330
1F
100
AcDbEntity
  8
0
  6
Continuous
 62
     7
370
    25
100
AcDbLine
 10
417.1107675311
 20
646.851494033
 30
0.0
 11
416.7726676342
 21
646.851494033
 31
0.0
  0
LINE
  5
145
330
1F
100
AcDbEntity
  8
0
  6
Continuous
 62
     7
370
    25
100
AcDbLine
 10
416.7726676342
 20
646.851494033
 30
0.0
 11
416.7726676342
 21
754.8514856586
 31
0.0
  0
LINE
  5
146
330
1F
100
AcDbEntity
  8
0
  6
Continuous
 62
     7
370
    25
100
AcDbLine
 10
417.1107675311
 20
475.8462487349
 30
0.0
 11
417.1107675311
 21
615.8462530562
 31
0.0
  0
LINE
  5
147
330
1F
100
AcDbEntity
  8
0
  6
Continuous
 62
     7
370
    25
100
AcDbLine
 10
417.1107675311
 20
615.8462530562
 30
0.0
 11
586.437758374
 21
615.8462530562
 31
0.0
  0
LINE
  5
148
330
1F
100
AcDbEntity
  8
0
  6
Continuous
 62
     7
370
    25
100
AcDbLine
 10
586.437758374
 20
475.8462487349
 30
0.0
 11
586.437758374
 21
615.8462530562
 31
0.0
  0
LINE
  5
149
330
1F
100
AcDbEntity
  8
0
  6
Continuous
 62
     7
370
    25
100
AcDbLine
 10
586.437758374
 20
475.8462487349
 30
0.0
 11
417.1107675311
 21
475.8462487349
 31
0.0
  0
LINE
  5
14A
330
1F
100
AcDbEntity
  8
0
  6
Continuous
 62
     7
370
    25
100
AcDbLine
 10
417.1107675311
 20
630.8462536522
 30
0.0
 11
417.1107675311
 21
770.846250523
 31
0.0
  0
LINE
  5
14B
330
1F
100
AcDbEntity
  8
0
  6
Continuous
 62
     7
370
    25
100
AcDbLine
 10
417.1107675311
 20
770.846250523
 30
0.0
 11
586.437758374
 21
770.846250523
 31
0.0
  0
LINE
  5
14C
330
1F
100
AcDbEntity
  8
0
  6
Continuous
 62
     7
370
    25
100
AcDbLine
 10
586.437758374
 20
630.8462536522
 30
0.0
 11
586.437758374
 21
770.846250523
 31
0.0
  0
LINE
  5
14D
330
1F
100
AcDbEntity
  8
0
  6
Continuous
 62
     7
370
    25
100
AcDbLine
 10
586.437758374
 20
630.8462536522
 30
0.0
 11
417.1107675311
 21
630.8462536522
 31
0.0
  0
LINE
  5
14E
330
1F
100
AcDbEntity
  8
0
  6
Continuous
 62
     7
370
    25
100
AcDbLine
 10
509.3519746688
 20
485.7514976152
 30
0.0
 11
532.0726692108
 21
485.7514976152
 31
0.0
  0
LINE
  5
14F
330
1F
100
AcDbEntity
  8
0
  6
Continuous
 62
     7
370
    25
100
AcDbLine
 10
509.3519746688
 20
485.7514976152
 30
0.0
 11
509.3519746688
 21
605.951490868
 31
0.0
  0
LINE
  5
150
330
1F
100
AcDbEntity
  8
0
  6
Continuous
 62
     7
370
    25
100
AcDbLine
 10
532.0726692108
 20
605.951490868
 30
0.0
 11
509.3519746688
 21
605.951490868
 31
0.0
  0
ARC
  5
151
330
1F
100
AcDbEntity
  8
0
  6
Continuous
 62
     7
370
    25
100
AcDbCircle
 10
532.0726691416
 20
486.0514903183
 30
0.0
 40
0.3000000000000114
100
AcDbArc
 50
270.0
 51
0.0
  0
ARC
  5
152
330
1F
100
AcDbEntity
  8
0
  6
Continuous
 62
     7
370
    25
100
AcDbCircle
 10
532.0726691416
 20
605.6514903183
 30
0.0
 40
0.2999999999999545
100
AcDbArc
 50
360.0
 51
90.0
  0
LINE
  5
153
330
1F
100
AcDbEntity
  8
0
  6
Continuous
 62
     7
370
    25
100
AcDbLine
 10
532.3726687012
 20
486.0514877924
 30
0.0
 11
532.3726687012
 21
605.6514932403
 31
0.0
  0
LINE
  5
154
330
1F
100
AcDbEntity
  8
0
  6
Continuous
 62
     7
370
    25
100
AcDbLine
 10
494.1933633191
 20
605.951490868
 30
0.0
 11
471.4726697085
 21
605.951490868
 31
0.0
  0
LINE
  5
155
330
1F
100
AcDbEntity
  8
0
  6
Continuous
 62
     7
370
    25
100
AcDbLine
 10
494.1933633191
 20
485.7514976152
 30
0.0
 11
494.1933633191
 21
605.951490868
 31
0.0
  0
LINE
  5
156
330
1F
100
AcDbEntity
  8
0
  6
Continuous
 62
     7
370
    25
100
AcDbLine
 10
471.4726697085
 20
485.7514976152
 30
0.0
 11
494.1933633191
 21
485.7514976152
 31
0.0
  0
LINE
  5
157
330
1F
100
AcDbEntity
  8
0
  6
Continuous
 62
     7
370
    25
100
AcDbLine
 10
471.1726683554
 20
486.0514877924
 30
0.0
 11
471.1726683554
 21
605.6514932403
 31
0.0
  0
ARC
  5
158
330
1F
100
AcDbEntity
  8
0
  6
Continuous
 62
     7
370
    25
100
AcDbCircle
 10
471.4726691416
 20
605.6514903183
 30
0.0
 40
0.3000000000000114
100
AcDbArc
 50
90.0
 51
180.0
  0
ARC
  5
159
330
1F
100
AcDbEntity
  8
0
  6
Continuous
 62
     7
370
    25
100
AcDbCircle
 10
471.4726691416
 20
486.0514903183
 30
0.0
 40
0.3000000000000114
100
AcDbArc
 50
180.0
 51
270.0
  0
LINE
  5
15A
330
1F
100
AcDbEntity
  8
0
  6
Continuous
 62
     7
370
    25
100
AcDbLine
 10
532.3979447958
 20
605.8640210518
 30
0.0
 11
532.3979447958
 21
605.6514932403
 31
0.0
  0
LINE
  5
15B
330
1F
100
AcDbEntity
  8
0
  6
Continuous
 62
     7
370
    25
100
AcDbLine
 10
508.1532405121
 20
605.951490868
 30
0.0
 11
508.1532405121
 21
606.176356841
 31
0.0
  0
LINE
  5
15C
330
1F
100
AcDbEntity
  8
0
  6
Continuous
 62
     7
370
    25
100
AcDbLine
 10
471.1473941234
 20
605.8640210518
 30
0.0
 11
471.1473941234
 21
605.6514932403
 31
0.0
  0
LINE
  5
15D
330
1F
100
AcDbEntity
  8
0
  6
Continuous
 62
     7
370
    25
100
AcDbLine
 10
471.1473941234
 20
486.0514877924
 30
0.0
 11
471.1473941234
 21
485.8389674315
 31
0.0
  0
LINE
  5
15E
330
1F
100
AcDbEntity
  8
0
  6
Continuous
 62
     7
370
    25
100
AcDbLine
 10
495.3920974759
 20
485.7514976152
 30
0.0
 11
495.3920974759
 21
485.5266241917
 31
0.0
  0
LINE
  5
15F
330
1F
100
AcDbEntity
  8
0
  6
Continuous
 62
     7
370
    25
100
AcDbLine
 10
532.3979447958
 20
486.0514877924
 30
0.0
 11
532.3979447958
 21
485.8389674315
 31
0.0
  0
LINE
  5
160
330
1F
100
AcDbEntity
  8
0
  6
Continuous
 62
     7
370
    25
100
AcDbLine
 10
508.1532405121
 20
485.5266241917
 30
0.0
 11
508.1532405121
 21
485.7514976152
 31
0.0
  0
LINE
  5
161
330
1F
100
AcDbEntity
  8
0
  6
Continuous
 62
     7
370
    25
100
AcDbLine
 10
495.3920974759
 20
606.176356841
 30
0.0
 11
495.3920974759
 21
605.951490868
 31
0.0
  0
LINE
  5
162
330
1F
100
AcDbEntity
  8
0
  6
Continuous
 62
     7
370
    25
100
AcDbLine
 10
496.6811117147
 20
485.7514976152
 30
0.0
 11
496.6811117147
 21
605.951490868
 31
0.0
  0
LINE
  5
163
330
1F
100
AcDbEntity
  8
0
  6
Continuous
 62
     7
370
    25
100
AcDbLine
 10
496.6811117147
 20
605.951490868
 30
0.0
 11
494.1933633191
 21
605.951490868
 31
0.0
  0
LINE
  5
164
330
1F
100
AcDbEntity
  8
0
  6
Continuous
 62
     7
370
    25
100
AcDbLine
 10
494.1933633191
 20
485.7514976152
 30
0.0
 11
496.6811117147
 21
485.7514976152
 31
0.0
  0
LINE
  5
165
330
1F
100
AcDbEntity
  8
0
  6
Continuous
 62
     7
370
    25
100
AcDbLine
 10
506.8642267388
 20
485.7514976152
 30
0.0
 11
506.8642267388
 21
605.951490868
 31
0.0
  0
LINE
  5
166
330
1F
100
AcDbEntity
  8
0
  6
Continuous
 62
     7
370
    25
100
AcDbLine
 10
509.3519746688
 20
605.951490868
 30
0.0
 11
506.8642267388
 21
605.951490868
 31
0.0
  0
LINE
  5
167
330
1F
100
AcDbEntity
  8
0
  6
Continuous
 62
     7
370
    25
100
AcDbLine
 10
506.8642267388
 20
485.7514976152
 30
0.0
 11
509.3519746688
 21
485.7514976152
 31
0.0
  0
LINE
  5
168
330
1F
100
AcDbEntity
  8
0
  6
Continuous
 62
     7
370
    25
100
AcDbLine
 10
506.8642267388
 20
605.951490868
 30
0.0
 11
496.6811117147
 21
605.951490868
 31
0.0
  0
LINE
  5
169
330
1F
100
AcDbEntity
  8
0
  6
Continuous
 62
     7
370
    25
100
AcDbLine
 10
496.6811117147
 20
485.7514976152
 30
0.0
 11
506.8642267388
 21
485.7514976152
 31
0.0
  0
LINE
  5
16A
330
1F
100
AcDbEntity
  8
0
  6
Continuous
 62
     7
370
    25
100
AcDbLine
 10
509.3519746688
 20
640.7514913568
 30
0.0
 11
532.0726692108
 21
640.7514913568
 31
0.0
  0
LINE
  5
16B
330
1F
100
AcDbEntity
  8
0
  6
Continuous
 62
     7
370
    25
100
AcDbLine
 10
509.3519746688
 20
640.7514913568
 30
0.0
 11
509.3519746688
 21
760.9514920601
 31
0.0
  0
LINE
  5
16C
330
1F
100
AcDbEntity
  8
0
  6
Continuous
 62
     7
370
    25
100
AcDbLine
 10
532.0726692108
 20
760.9514920601
 30
0.0
 11
509.3519746688
 21
760.9514920601
 31
0.0
  0
ARC
  5
16D
330
1F
100
AcDbEntity
  8
0
  6
Continuous
 62
     7
370
    25
100
AcDbCircle
 10
532.0726691416
 20
760.6514903183
 30
0.0
 40
0.2999999999999545
100
AcDbArc
 50
360.0
 51
90.0
  0
LINE
  5
16E
330
1F
100
AcDbEntity
  8
0
  6
Continuous
 62
     7
370
    25
100
AcDbLine
 10
532.3726687012
 20
641.0514889845
 30
0.0
 11
532.3726687012
 21
760.6514869818
 31
0.0
  0
ARC
  5
16F
330
1F
100
AcDbEntity
  8
0
  6
Continuous
 62
     7
370
    25
100
AcDbCircle
 10
532.0726691416
 20
641.0514903183
 30
0.0
 40
0.3000000000000682
100
AcDbArc
 50
270.0
 51
0.0
  0
LINE
  5
170
330
1F
100
AcDbEntity
  8
0
  6
Continuous
 62
     7
370
    25
100
AcDbLine
 10
494.1933633191
 20
760.9514920601
 30
0.0
 11
471.4726697085
 21
760.9514920601
 31
0.0
  0
LINE
  5
171
330
1F
100
AcDbEntity
  8
0
  6
Continuous
 62
     7
370
    25
100
AcDbLine
 10
494.1933633191
 20
640.7514913568
 30
0.0
 11
494.1933633191
 21
760.9514920601
 31
0.0
  0
LINE
  5
172
330
1F
100
AcDbEntity
  8
0
  6
Continuous
 62
     7
370
    25
100
AcDbLine
 10
471.4726697085
 20
640.7514913568
 30
0.0
 11
494.1933633191
 21
640.7514913568
 31
0.0
  0
LINE
  5
173
330
1F
100
AcDbEntity
  8
0
  6
Continuous
 62
     7
370
    25
100
AcDbLine
 10
471.1726683554
 20
641.0514889845
 30
0.0
 11
471.1726683554
 21
760.6514869818
 31
0.0
  0
ARC
  5
174
330
1F
100
AcDbEntity
  8
0
  6
Continuous
 62
     7
370
    25
100
AcDbCircle
 10
471.4726691416
 20
641.0514903183
 30
0.0
 40
0.3000000000000682
100
AcDbArc
 50
180.0
 51
270.0
  0
ARC
  5
175
330
1F
100
AcDbEntity
  8
0
  6
Continuous
 62
     7
370
    25
100
AcDbCircle
 10
471.4726691416
 20
760.6514903183
 30
0.0
 40
0.3000000000000114
100
AcDbArc
 50
90.0
 51
180.0
  0
LINE
  5
176
330
1F
100
AcDbEntity
  8
0
  6
Continuous
 62
     7
370
    25
100
AcDbLine
 10
471.1473941234
 20
760.8640222439
 30
0.0
 11
471.1473941234
 21
760.6514869818
 31
0.0
  0
LINE
  5
177
330
1F
100
AcDbEntity
  8
0
  6
Continuous
 62
     7
370
    25
100
AcDbLine
 10
471.1473941234
 20
641.0514889845
 30
0.0
 11
471.1473941234
 21
640.838961173
 31
0.0
  0
LINE
  5
178
330
1F
100
AcDbEntity
  8
0
  6
Continuous
 62
     7
370
    25
100
AcDbLine
 10
532.3979447958
 20
641.0514889845
 30
0.0
 11
532.3979447958
 21
640.838961173
 31
0.0
  0
LINE
  5
179
330
1F
100
AcDbEntity
  8
0
  6
Continuous
 62
     7
370
    25
100
AcDbLine
 10
532.3979447958
 20
760.8640222439
 30
0.0
 11
532.3979447958
 21
760.6514869818
 31
0.0
  0
LINE
  5
17A
330
1F
100
AcDbEntity
  8
0
  6
Continuous
 62
     7
370
    25
100
AcDbLine
 10
495.3920974759
 20
640.7514913568
 30
0.0
 11
495.3920974759
 21
640.5266253838
 31
0.0
  0
LINE
  5
17B
330
1F
100
AcDbEntity
  8
0
  6
Continuous
 62
     7
370
    25
100
AcDbLine
 10
508.1532405121
 20
760.9514920601
 30
0.0
 11
508.1532405121
 21
761.1763580331
 31
0.0
  0
LINE
  5
17C
330
1F
100
AcDbEntity
  8
0
  6
Continuous
 62
     7
370
    25
100
AcDbLine
 10
495.3920974759
 20
761.1763580331
 30
0.0
 11
495.3920974759
 21
760.9514920601
 31
0.0
  0
LINE
  5
17D
330
1F
100
AcDbEntity
  8
0
  6
Continuous
 62
     7
370
    25
100
AcDbLine
 10
508.1532405121
 20
640.5266253838
 30
0.0
 11
508.1532405121
 21
640.7514913568
 31
0.0
  0
LINE
  5
17E
330
1F
100
AcDbEntity
  8
0
  6
Continuous
 62
     7
370
    25
100
AcDbLine
 10
496.6811117147
 20
640.7514913568
 30
0.0
 11
496.6811117147
 21
760.9514920601
 31
0.0
  0
LINE
  5
17F
330
1F
100
AcDbEntity
  8
0
  6
Continuous
 62
     7
370
    25
100
AcDbLine
 10
494.1933633191
 20
640.7514913568
 30
0.0
 11
496.6811117147
 21
640.7514913568
 31
0.0
  0
LINE
  5
180
330
1F
100
AcDbEntity
  8
0
  6
Continuous
 62
     7
370
    25
100
AcDbLine
 10
496.6811117147
 20
760.9514920601
 30
0.0
 11
494.1933633191
 21
760.9514920601
 31
0.0
  0
LINE
  5
181
330
1F
100
AcDbEntity
  8
0
  6
Continuous
 62
     7
370
    25
100
AcDbLine
 10
506.8642267388
 20
640.7514913568
 30
0.0
 11
506.8642267388
 21
760.9514920601
 31
0.0
  0
LINE
  5
182
330
1F
100
AcDbEntity
  8
0
  6
Continuous
 62
     7
370
    25
100
AcDbLine
 10
506.8642267388
 20
640.7514913568
 30
0.0
 11
509.3519746688
 21
640.7514913568
 31
0.0
  0
LINE
  5
183
330
1F
100
AcDbEntity
  8
0
  6
Continuous
 62
     7
370
    25
100
AcDbLine
 10
509.3519746688
 20
760.9514920601
 30
0.0
 11
506.8642267388
 21
760.9514920601
 31
0.0
  0
LINE
  5
184
330
1F
100
AcDbEntity
  8
0
  6
Continuous
 62
     7
370
    25
100
AcDbLine
 10
496.6811117147
 20
640.7514913568
 30
0.0
 11
506.8642267388
 21
640.7514913568
 31
0.0
  0
LINE
  5
185
330
1F
100
AcDbEntity
  8
0
  6
Continuous
 62
     7
370
    25
100
AcDbLine
 10
506.8642267388
 20
760.9514920601
 30
0.0
 11
496.6811117147
 21
760.9514920601
 31
0.0
  0
ELLIPSE
  5
186
330
1F
100
AcDbEntity
  8
0
  6
Continuous
 62
     7
370
    25
100
AcDbEllipse
 10
470.5489178826
 20
769.2747574466
 30
0.0
 11
1.599999999999966
 21
0.0
 31
0.0
210
0.0
220
0.0
230
1.0
 40
0.0130952886
 41
4.400191206237473
 42
4.9638040971565
  0
ARC
  5
187
330
1F
100
AcDbEntity
  8
0
  6
Continuous
 62
     7
370
    25
100
AcDbCircle
 10
471.1717883542
 20
769.4592407903
 30
0.0
 40
1.132906839800087
100
AcDbArc
 50
135.4361954698
 51
190.3952698739
  0
ELLIPSE
  5
188
330
1F
100
AcDbEntity
  8
0
  6
Continuous
 62
     7
370
    25
100
AcDbEllipse
 10
470.5489178826
 20
770.2741482736
 30
0.0
 11
0.5999999999999659
 21
0.0
 31
0.0
210
0.0
220
0.0
230
1.0
 40
0.0349207695
 41
4.400191206237287
 42
4.963804097159086
  0
ARC
  5
189
330
1F
100
AcDbEntity
  8
0
  6
Continuous
 62
     7
370
    25
100
AcDbCircle
 10
469.6700476777
 20
769.46726619
 30
0.0
 40
1.29451984249907
100
AcDbArc
 50
350.5383661946
 51
37.418309585
  0
LINE
  5
18A
330
1F
100
AcDbEntity
  8
0
  6
Continuous
 62
     7
370
    25
100
AcDbLine
 10
470.9469567415
 20
769.2544637808
 30
0.0
 11
470.9469567415
 21
632.4485159108
 31
0.0
  0
ELLIPSE
  5
18B
330
1F
100
AcDbEntity
  8
0
  6
Continuous
 62
     7
370
    25
100
AcDbEllipse
 10
470.5489178826
 20
632.4282231901
 30
0.0
 11
1.599999999999966
 21
0.0
 31
0.0
210
0.0
220
0.0
230
1.0
 40
0.0130952886
 41
1.319381210024358
 42
1.882994100940628
  0
LINE
  5
18C
330
1F
100
AcDbEntity
  8
0
  6
Continuous
 62
     7
370
    25
100
AcDbLine
 10
470.0574766276
 20
632.4481620082
 30
0.0
 11
470.0574766276
 21
769.2548214087
 31
0.0
  0
ELLIPSE
  5
18D
330
1F
100
AcDbEntity
  8
0
  6
Continuous
 62
     7
370
    25
100
AcDbEllipse
 10
532.9964204006
 20
769.2747574466
 30
0.0
 11
1.599999999999909
 21
0.0
 31
0.0
210
0.0
220
0.0
230
1.0
 40
0.0130952886
 41
4.460973863611508
 42
5.024586754530395
  0
LINE
  5
18E
330
1F
100
AcDbEntity
  8
0
  6
Continuous
 62
     7
370
    25
100
AcDbLine
 10
533.487860429
 20
769.2548214087
 30
0.0
 11
533.487860429
 21
632.4481620082
 31
0.0
  0
ELLIPSE
  5
18F
330
1F
100
AcDbEntity
  8
0
  6
Continuous
 62
     7
370
    25
100
AcDbEllipse
 10
532.9964204006
 20
632.4282231901
 30
0.0
 11
1.600000000000023
 21
0.0
 31
0.0
210
0.0
220
0.0
230
1.0
 40
0.0130952886
 41
1.25859855264759
 42
1.822211443569502
  0
LINE
  5
190
330
1F
100
AcDbEntity
  8
0
  6
Continuous
 62
     7
370
    25
100
AcDbLine
 10
532.598380315
 20
632.4485159108
 30
0.0
 11
532.598380315
 21
769.2544637808
 31
0.0
  0
ARC
  5
191
330
1F
100
AcDbEntity
  8
0
  6
Continuous
 62
     7
370
    25
100
AcDbCircle
 10
533.8753175365
 20
769.4672591809
 30
0.0
 40
1.294546464892329
100
AcDbArc
 50
142.5822012818
 51
189.4611229386
  0
ELLIPSE
  5
192
330
1F
100
AcDbEntity
  8
0
  6
Continuous
 62
     7
370
    25
100
AcDbEllipse
 10
532.9964204006
 20
770.2741482736
 30
0.0
 11
0.6000000000000227
 21
0.0
 31
0.0
210
0.0
220
0.0
230
1.0
 40
0.0349207695
 41
4.46097386361419
 42
5.024586754527041
  0
ARC
  5
193
330
1F
100
AcDbEntity
  8
0
  6
Continuous
 62
     7
370
    25
100
AcDbCircle
 10
532.3735592707
 20
769.4592440384
 30
0.0
 40
1.132897031031623
100
AcDbArc
 50
349.6044721111
 51
44.5640625453
  0
ARC
  5
194
330
1F
100
AcDbEntity
  8
0
  6
Continuous
 62
     7
370
    25
100
AcDbCircle
 10
469.6700476777
 20
632.2357135015
 30
0.0
 40
1.294519842499087
100
AcDbArc
 50
322.581690415
 51
9.4616338054
  0
ELLIPSE
  5
195
330
1F
100
AcDbEntity
  8
0
  6
Continuous
 62
     7
370
    25
100
AcDbEllipse
 10
470.5489178826
 20
631.428832363
 30
0.0
 11
0.5999999999999659
 21
0.0
 31
0.0
210
0.0
220
0.0
230
1.0
 40
0.0349207695
 41
1.319381210030024
 42
1.882994100934085
  0
ARC
  5
196
330
1F
100
AcDbEntity
  8
0
  6
Continuous
 62
     7
370
    25
100
AcDbCircle
 10
471.171801012
 20
632.2437405902
 30
0.0
 40
1.132919657283639
100
AcDbArc
 50
169.6047443377
 51
224.5635504204
  0
ARC
  5
197
330
1F
100
AcDbEntity
  8
0
  6
Continuous
 62
     7
370
    25
100
AcDbCircle
 10
532.3735466132
 20
632.2437373421
 30
0.0
 40
1.132909848290073
100
AcDbArc
 50
315.436191563
 51
10.3955136789
  0
ELLIPSE
  5
198
330
1F
100
AcDbEntity
  8
0
  6
Continuous
 62
     7
370
    25
100
AcDbEllipse
 10
532.9964204006
 20
631.428832363
 30
0.0
 11
0.6000000000000227
 21
0.0
 31
0.0
210
0.0
220
0.0
230
1.0
 40
0.0349207695
 41
1.258598552657483
 42
1.822211443561329
  0
ARC
  5
199
330
1F
100
AcDbEntity
  8
0
  6
Continuous
 62
     7
370
    25
100
AcDbCircle
 10
533.8753175365
 20
632.2357205107
 30
0.0
 40
1.294546464892311
100
AcDbArc
 50
170.5388770614
 51
217.4177987182
  0
LINE
  5
19A
330
1F
100
AcDbEntity
  8
0
  6
Continuous
 62
     7
370
    25
100
AcDbLine
 10
532.598380315
 20
769.2544637808
 30
0.0
 11
509.2773426687
 21
769.4636388311
 31
0.0
  0
ARC
  5
19B
330
1F
100
AcDbEntity
  8
0
  6
Continuous
 62
     7
370
    25
100
AcDbCircle
 10
510.5542667409
 20
769.6764379834
 30
0.0
 40
1.294534111362327
100
AcDbArc
 50
142.5819920804
 51
189.461382418
  0
LINE
  5
19C
330
1F
100
AcDbEntity
  8
0
  6
Continuous
 62
     7
370
    25
100
AcDbLine
 10
509.5261170891
 20
770.46302991
 30
0.0
 11
532.8471552012
 21
770.2538548597
 31
0.0
  0
LINE
  5
19D
330
1F
100
AcDbEntity
  8
0
  6
Continuous
 62
     7
370
    25
100
AcDbLine
 10
494.2679957849
 20
769.4636388311
 30
0.0
 11
470.9469567415
 21
769.2544637808
 31
0.0
  0
LINE
  5
19E
330
1F
100
AcDbEntity
  8
0
  6
Continuous
 62
     7
370
    25
100
AcDbLine
 10
470.6981818554
 20
770.2538548597
 30
0.0
 11
494.0192208988
 21
770.46302991
 31
0.0
  0
ARC
  5
19F
330
1F
100
AcDbEntity
  8
0
  6
Continuous
 62
     7
370
    25
100
AcDbCircle
 10
492.9910738005
 20
769.676438024
 30
0.0
 40
1.29453205859159
100
AcDbArc
 50
350.5386006165
 51
37.4180751631
  0
LINE
  5
1A0
330
1F
100
AcDbEntity
  8
0
  6
Continuous
 62
     7
370
    25
100
AcDbLine
 10
509.2773426687
 20
632.2393408605
 30
0.0
 11
532.598380315
 21
632.4485159108
 31
0.0
  0
LINE
  5
1A1
330
1F
100
AcDbEntity
  8
0
  6
Continuous
 62
     7
370
    25
100
AcDbLine
 10
532.8471552012
 20
631.4491248318
 30
0.0
 11
509.5261170891
 21
631.2399497816
 31
0.0
  0
ARC
  5
1A2
330
1F
100
AcDbEntity
  8
0
  6
Continuous
 62
     7
370
    25
100
AcDbCircle
 10
510.5542667409
 20
632.0265417082
 30
0.0
 40
1.294534111362324
100
AcDbArc
 50
170.538617582
 51
217.4180079196
  0
LINE
  5
1A3
330
1F
100
AcDbEntity
  8
0
  6
Continuous
 62
     7
370
    25
100
AcDbLine
 10
470.9469567415
 20
632.4485159108
 30
0.0
 11
494.2679957849
 21
632.2393408605
 31
0.0
  0
ARC
  5
1A4
330
1F
100
AcDbEntity
  8
0
  6
Continuous
 62
     7
370
    25
100
AcDbCircle
 10
492.9910738005
 20
632.0265416675
 30
0.0
 40
1.294532058591605
100
AcDbArc
 50
322.5819248369
 51
9.4613993835
  0
LINE
  5
1A5
330
1F
100
AcDbEntity
  8
0
  6
Continuous
 62
     7
370
    25
100
AcDbLine
 10
494.0192208988
 20
631.2399497816
 30
0.0
 11
470.6981818554
 21
631.4491248318
 31
0.0
  0
LINE
  5
1A6
330
1F
100
AcDbEntity
  8
0
  6
Continuous
 62
     7
370
    25
100
AcDbLine
 10
494.2679957849
 20
761.1687062868
 30
0.0
 11
494.2679957849
 21
769.4636388311
 31
0.0
  0
LINE
  5
1A7
330
1F
100
AcDbEntity
  8
0
  6
Continuous
 62
     7
370
    25
100
AcDbLine
 10
494.2679957849
 20
761.1687062868
 30
0.0
 11
471.3435436961
 21
760.9630926141
 31
0.0
  0
ELLIPSE
  5
1A8
330
1F
100
AcDbEntity
  8
0
  6
Continuous
 62
     7
370
    25
100
AcDbEllipse
 10
471.3438488906
 20
760.712941695
 30
0.0
 11
0.08686083686552593
 21
0.234969973262082
 31
0.0
210
0.0
220
0.0
230
1.0
 40
0.9882750986
 41
0.3591729025740673
 42
1.928736980888274
  0
LINE
  5
1A9
330
1F
100
AcDbEntity
  8
0
  6
Continuous
 62
     7
370
    25
100
AcDbLine
 10
471.0959199247
 20
760.7110245713
 30
0.0
 11
471.0959199247
 21
640.9919588455
 31
0.0
  0
ELLIPSE
  5
1AA
330
1F
100
AcDbEntity
  8
0
  6
Continuous
 62
     7
370
    25
100
AcDbEllipse
 10
471.3438488906
 20
640.9900389416
 30
0.0
 11
-0.08686083686558277
 21
0.2349699732621957
 31
0.0
210
0.0
220
0.0
230
1.0
 40
0.9882750986
 41
1.212855672701123
 42
2.782419751247124
  0
LINE
  5
1AB
330
1F
100
AcDbEntity
  8
0
  6
Continuous
 62
     7
370
    25
100
AcDbLine
 10
471.3435436961
 20
640.7398908028
 30
0.0
 11
494.2679957849
 21
640.5342696795
 31
0.0
  0
LINE
  5
1AC
330
1F
100
AcDbEntity
  8
0
  6
Continuous
 62
     7
370
    25
100
AcDbLine
 10
494.2679957849
 20
632.2393408605
 30
0.0
 11
494.2679957849
 21
640.5342696795
 31
0.0
  0
LINE
  5
1AD
330
1F
100
AcDbEntity
  8
0
  6
Continuous
 62
     7
370
    25
100
AcDbLine
 10
509.2773426687
 20
640.5342696795
 30
0.0
 11
532.2017952231
 21
640.7398908028
 31
0.0
  0
ELLIPSE
  5
1AE
330
1F
100
AcDbEntity
  8
0
  6
Continuous
 62
     7
370
    25
100
AcDbEllipse
 10
532.2014893926
 20
640.9900389416
 30
0.0
 11
0.08686083686552593
 21
0.2349699732621957
 31
0.0
210
0.0
220
0.0
230
1.0
 40
0.9882750986
 41
3.500765550806898
 42
5.070329634477766
  0
LINE
  5
1AF
330
1F
100
AcDbEntity
  8
0
  6
Continuous
 62
     7
370
    25
100
AcDbLine
 10
532.4494171319
 20
640.9919588455
 30
0.0
 11
532.4494171319
 21
760.7110245713
 31
0.0
  0
ELLIPSE
  5
1B0
330
1F
100
AcDbEntity
  8
0
  6
Continuous
 62
     7
370
    25
100
AcDbEllipse
 10
532.2014893926
 20
760.712941695
 30
0.0
 11
-0.08686083686552593
 21
0.2349699732621957
 31
0.0
210
0.0
220
0.0
230
1.0
 40
0.9882750986
 41
4.354448326291641
 42
5.924012409602091
  0
LINE
  5
1B1
330
1F
100
AcDbEntity
  8
0
  6
Continuous
 62
     7
370
    25
100
AcDbLine
 10
532.2017952231
 20
760.9630926141
 30
0.0
 11
509.2773426687
 21
761.1687062868
 31
0.0
  0
LINE
  5
1B2
330
1F
100
AcDbEntity
  8
0
  6
Continuous
 62
     7
370
    25
100
AcDbLine
 10
509.2773426687
 20
769.4636388311
 30
0.0
 11
509.2773426687
 21
761.1687062868
 31
0.0
  0
LINE
  5
1B3
330
1F
100
AcDbEntity
  8
0
  6
Continuous
 62
     7
370
    25
100
AcDbLine
 10
509.2773426687
 20
640.5342696795
 30
0.0
 11
509.2773426687
 21
632.2393408605
 31
0.0
  0
ELLIPSE
  5
1B4
330
1F
100
AcDbEntity
  8
0
  6
Continuous
 62
     7
370
    25
100
AcDbEllipse
 10
429.9876809096
 20
764.8861637344
 30
0.0
 11
130.4563780682931
 21
2.273736754432321E-13
 31
0.0
210
0.0
220
0.0
230
1.0
 40
0.0351884511
 41
1.258598552652465
 42
1.578595875564
  0
ARC
  5
1B5
330
1F
100
AcDbEntity
  8
0
  6
Continuous
 62
     7
370
    25
100
AcDbCircle
 10
394.2614124627
 20
769.7053867195
 30
0.0
 40
34.70953363742588
100
AcDbArc
 50
359.6223018613
 51
1.2721256288
  0
ELLIPSE
  5
1B6
330
1F
100
AcDbEntity
  8
0
  6
Continuous
 62
     7
370
    25
100
AcDbEllipse
 10
429.9876809096
 20
765.8855545614
 30
0.0
 11
131.4563780682931
 21
3.410605131648481E-13
 31
0.0
210
0.0
220
0.0
230
1.0
 40
0.0349207695
 41
1.258598552652433
 42
1.578595875564
  0
ELLIPSE
  5
1B7
330
1F
100
AcDbEntity
  8
0
  6
Continuous
 62
     7
370
    25
100
AcDbEllipse
 10
573.5576573735
 20
764.8861637344
 30
0.0
 11
130.456378068293
 21
2.273736754432321E-13
 31
0.0
210
0.0
220
0.0
230
1.0
 40
0.0351884511
 41
1.562996778025794
 42
1.882994100937332
  0
ELLIPSE
  5
1B8
330
1F
100
AcDbEntity
  8
0
  6
Continuous
 62
     7
370
    25
100
AcDbEllipse
 10
573.5576573735
 20
765.8855545614
 30
0.0
 11
131.456378068293
 21
3.410605131648480E-13
 31
0.0
210
0.0
220
0.0
230
1.0
 40
0.0349207695
 41
1.562996778025793
 42
1.882994100937366
  0
ARC
  5
1B9
330
1F
100
AcDbEntity
  8
0
  6
Continuous
 62
     7
370
    25
100
AcDbCircle
 10
609.3123384194
 20
769.7051649351
 30
0.0
 40
34.73794538599421
100
AcDbArc
 50
178.7285491033
 51
180.3770234067
  0
ELLIPSE
  5
1BA
330
1F
100
AcDbEntity
  8
0
  6
Continuous
 62
     7
370
    25
100
AcDbEllipse
 10
429.9876809096
 20
636.8168169023
 30
0.0
 11
130.4563780682931
 21
3.410605131648481E-13
 31
0.0
210
0.0
220
0.0
230
1.0
 40
0.0351884511
 41
4.704589431615536
 42
5.024586754527199
  0
ELLIPSE
  5
1BB
330
1F
100
AcDbEntity
  8
0
  6
Continuous
 62
     7
370
    25
100
AcDbEllipse
 10
429.9876809096
 20
635.8174260753
 30
0.0
 11
131.4563780682931
 21
2.273736754432321E-13
 31
0.0
210
0.0
220
0.0
230
1.0
 40
0.0349207695
 41
4.704589431615537
 42
5.024586754527195
  0
ARC
  5
1BC
330
1F
100
AcDbEntity
  8
0
  6
Continuous
 62
     7
370
    25
100
AcDbCircle
 10
394.2612223493
 20
631.997594456
 30
0.0
 40
34.70972373691722
100
AcDbArc
 50
358.7278788894
 51
0.3776936205
  0
ELLIPSE
  5
1BD
330
1F
100
AcDbEntity
  8
0
  6
Continuous
 62
     7
370
    25
100
AcDbEllipse
 10
573.5576573735
 20
636.8168169023
 30
0.0
 11
130.456378068293
 21
2.273736754432321E-13
 31
0.0
210
0.0
220
0.0
230
1.0
 40
0.0351884511
 41
4.400191206242262
 42
4.720188529153844
  0
ARC
  5
1BE
330
1F
100
AcDbEntity
  8
0
  6
Continuous
 62
     7
370
    25
100
AcDbCircle
 10
609.312529271
 20
631.9978162462
 30
0.0
 40
34.73813622367378
100
AcDbArc
 50
179.6229811217
 51
181.2714463684
  0
ELLIPSE
  5
1BF
330
1F
100
AcDbEntity
  8
0
  6
Continuous
 62
     7
370
    25
100
AcDbEllipse
 10
573.5576573735
 20
635.8174260753
 30
0.0
 11
131.456378068293
 21
2.273736754432321E-13
 31
0.0
210
0.0
220
0.0
230
1.0
 40
0.0349207695
 41
4.400191206242255
 42
4.720188529153843
  0
LINE
  5
1C0
330
1F
100
AcDbEntity
  8
0
  6
Continuous
 62
     7
370
    25
100
AcDbLine
 10
428.9701919434
 20
653.8134767303
 30
0.0
 11
428.9701919434
 21
647.8895033338
 31
0.0
  0
LINE
  5
1C1
330
1F
100
AcDbEntity
  8
0
  6
Continuous
 62
     7
370
    25
100
AcDbLine
 10
428.9701919434
 20
657.8895031103
 30
0.0
 11
428.9701919434
 21
653.8134767303
 31
0.0
  0
LINE
  5
1C2
330
1F
100
AcDbEntity
  8
0
  6
Continuous
 62
     7
370
    25
100
AcDbLine
 10
428.9701919434
 20
663.8134774381
 30
0.0
 11
428.9701919434
 21
657.8895031103
 31
0.0
  0
LINE
  5
1C3
330
1F
100
AcDbEntity
  8
0
  6
Continuous
 62
     7
370
    25
100
AcDbLine
 10
428.9701919434
 20
667.8895033525
 30
0.0
 11
428.9701919434
 21
663.8134774381
 31
0.0
  0
LINE
  5
1C4
330
1F
100
AcDbEntity
  8
0
  6
Continuous
 62
     7
370
    25
100
AcDbLine
 10
428.9701919434
 20
673.8134770981
 30
0.0
 11
428.9701919434
 21
667.8895033525
 31
0.0
  0
LINE
  5
1C5
330
1F
100
AcDbEntity
  8
0
  6
Continuous
 62
     7
370
    25
100
AcDbLine
 10
428.9701919434
 20
677.8895031289
 30
0.0
 11
428.9701919434
 21
673.8134770981
 31
0.0
  0
LINE
  5
1C6
330
1F
100
AcDbEntity
  8
0
  6
Continuous
 62
     7
370
    25
100
AcDbLine
 10
428.9701919434
 20
683.813476991
 30
0.0
 11
428.9701919434
 21
677.8895035946
 31
0.0
  0
LINE
  5
1C7
330
1F
100
AcDbEntity
  8
0
  6
Continuous
 62
     7
370
    25
100
AcDbLine
 10
428.9701919434
 20
687.8895033711
 30
0.0
 11
428.9701919434
 21
683.813476991
 31
0.0
  0
LINE
  5
1C8
330
1F
100
AcDbEntity
  8
0
  6
Continuous
 62
     7
370
    25
100
AcDbLine
 10
428.9701919434
 20
693.8134776988
 30
0.0
 11
428.9701919434
 21
687.8895033711
 31
0.0
  0
LINE
  5
1C9
330
1F
100
AcDbEntity
  8
0
  6
Continuous
 62
     7
370
    25
100
AcDbLine
 10
428.9701919434
 20
697.8895040789
 30
0.0
 11
428.9701919434
 21
693.8134776988
 31
0.0
  0
LINE
  5
1CA
330
1F
100
AcDbEntity
  8
0
  6
Continuous
 62
     7
370
    25
100
AcDbLine
 10
428.9701919434
 20
703.8134774753
 30
0.0
 11
428.9701919434
 21
697.8895040789
 31
0.0
  0
LINE
  5
1CB
330
1F
100
AcDbEntity
  8
0
  6
Continuous
 62
     7
370
    25
100
AcDbLine
 10
428.9701919434
 20
707.8895001301
 30
0.0
 11
428.9701919434
 21
703.8134774753
 31
0.0
  0
LINE
  5
1CC
330
1F
100
AcDbEntity
  8
0
  6
Continuous
 62
     7
370
    25
100
AcDbLine
 10
428.9624582407
 20
713.8134753892
 30
0.0
 11
428.9624582407
 21
707.8895001301
 31
0.0
  0
LINE
  5
1CD
330
1F
100
AcDbEntity
  8
0
  6
Continuous
 62
     7
370
    25
100
AcDbLine
 10
428.9701919434
 20
717.8895017692
 30
0.0
 11
428.9701919434
 21
713.8134753892
 31
0.0
  0
LINE
  5
1CE
330
1F
100
AcDbEntity
  8
0
  6
Continuous
 62
     7
370
    25
100
AcDbLine
 10
428.9624582407
 20
723.8134770283
 30
0.0
 11
428.9624582407
 21
717.8895017692
 31
0.0
  0
LINE
  5
1CF
330
1F
100
AcDbEntity
  8
0
  6
Continuous
 62
     7
370
    25
100
AcDbLine
 10
428.9701919434
 20
727.8894996831
 30
0.0
 11
428.9701919434
 21
723.8134770283
 31
0.0
  0
LINE
  5
1D0
330
1F
100
AcDbEntity
  8
0
  6
Continuous
 62
     7
370
    25
100
AcDbLine
 10
428.9624582407
 20
733.8134786674
 30
0.0
 11
428.9624582407
 21
727.8894996831
 31
0.0
  0
LINE
  5
1D1
330
1F
100
AcDbEntity
  8
0
  6
Continuous
 62
     7
370
    25
100
AcDbLine
 10
428.9701919434
 20
737.8895013222
 30
0.0
 11
428.9701919434
 21
733.8134786674
 31
0.0
  0
LINE
  5
1D2
330
1F
100
AcDbEntity
  8
0
  6
Continuous
 62
     7
370
    25
100
AcDbLine
 10
428.9624582407
 20
743.8134803065
 30
0.0
 11
428.9624582407
 21
737.8895013222
 31
0.0
  0
LINE
  5
1D3
330
1F
100
AcDbEntity
  8
0
  6
Continuous
 62
     7
370
    25
100
AcDbLine
 10
428.9701919434
 20
747.8895066866
 30
0.0
 11
428.9701919434
 21
743.8134803065
 31
0.0
  0
LINE
  5
1D4
330
1F
100
AcDbEntity
  8
0
  6
Continuous
 62
     7
370
    25
100
AcDbLine
 10
428.9624582407
 20
753.8134782204
 30
0.0
 11
428.9624582407
 21
747.8895066866
 31
0.0
  0
LINE
  5
1D5
330
1F
100
AcDbEntity
  8
0
  6
Continuous
 62
     7
370
    25
100
AcDbLine
 10
428.9701919434
 20
769.4765804895
 30
0.0
 11
428.9701919434
 21
753.8134782204
 31
0.0
  0
LINE
  5
1D6
330
1F
100
AcDbEntity
  8
0
  6
Continuous
 62
     7
370
    25
100
AcDbLine
 10
428.9701919434
 20
647.8895033338
 30
0.0
 11
428.9701919434
 21
632.226399202
 31
0.0
  0
LINE
  5
1D7
330
1F
100
AcDbEntity
  8
0
  6
Continuous
 62
     7
370
    25
100
AcDbLine
 10
574.5751451132
 20
753.8134782204
 30
0.0
 11
574.5751451132
 21
769.4765804895
 31
0.0
  0
LINE
  5
1D8
330
1F
100
AcDbEntity
  8
0
  6
Continuous
 62
     7
370
    25
100
AcDbLine
 10
574.5828788159
 20
747.8895066866
 30
0.0
 11
574.5828788159
 21
753.8134782204
 31
0.0
  0
LINE
  5
1D9
330
1F
100
AcDbEntity
  8
0
  6
Continuous
 62
     7
370
    25
100
AcDbLine
 10
574.5751451132
 20
743.8134803065
 30
0.0
 11
574.5751451132
 21
747.8895066866
 31
0.0
  0
LINE
  5
1DA
330
1F
100
AcDbEntity
  8
0
  6
Continuous
 62
     7
370
    25
100
AcDbLine
 10
574.5828788159
 20
737.8895013222
 30
0.0
 11
574.5828788159
 21
743.8134803065
 31
0.0
  0
LINE
  5
1DB
330
1F
100
AcDbEntity
  8
0
  6
Continuous
 62
     7
370
    25
100
AcDbLine
 10
574.5751451132
 20
733.8134786674
 30
0.0
 11
574.5751451132
 21
737.8895013222
 31
0.0
  0
LINE
  5
1DC
330
1F
100
AcDbEntity
  8
0
  6
Continuous
 62
     7
370
    25
100
AcDbLine
 10
574.5828788159
 20
727.8894996831
 30
0.0
 11
574.5828788159
 21
733.8134786674
 31
0.0
  0
LINE
  5
1DD
330
1F
100
AcDbEntity
  8
0
  6
Continuous
 62
     7
370
    25
100
AcDbLine
 10
574.5751451132
 20
723.8134770283
 30
0.0
 11
574.5751451132
 21
727.8894996831
 31
0.0
  0
LINE
  5
1DE
330
1F
100
AcDbEntity
  8
0
  6
Continuous
 62
     7
370
    25
100
AcDbLine
 10
574.5828788159
 20
717.8895017692
 30
0.0
 11
574.5828788159
 21
723.8134770283
 31
0.0
  0
LINE
  5
1DF
330
1F
100
AcDbEntity
  8
0
  6
Continuous
 62
     7
370
    25
100
AcDbLine
 10
574.5751451132
 20
713.8134753892
 30
0.0
 11
574.5751451132
 21
717.8895017692
 31
0.0
  0
LINE
  5
1E0
330
1F
100
AcDbEntity
  8
0
  6
Continuous
 62
     7
370
    25
100
AcDbLine
 10
574.5828788159
 20
707.8895001301
 30
0.0
 11
574.5828788159
 21
713.8134753892
 31
0.0
  0
LINE
  5
1E1
330
1F
100
AcDbEntity
  8
0
  6
Continuous
 62
     7
370
    25
100
AcDbLine
 10
574.5751451132
 20
703.8134774753
 30
0.0
 11
574.5751451132
 21
707.8895001301
 31
0.0
  0
LINE
  5
1E2
330
1F
100
AcDbEntity
  8
0
  6
Continuous
 62
     7
370
    25
100
AcDbLine
 10
574.5751451132
 20
697.8895040789
 30
0.0
 11
574.5751451132
 21
703.8134774753
 31
0.0
  0
LINE
  5
1E3
330
1F
100
AcDbEntity
  8
0
  6
Continuous
 62
     7
370
    25
100
AcDbLine
 10
574.5751451132
 20
693.8134776988
 30
0.0
 11
574.5751451132
 21
697.8895040789
 31
0.0
  0
LINE
  5
1E4
330
1F
100
AcDbEntity
  8
0
  6
Continuous
 62
     7
370
    25
100
AcDbLine
 10
574.5751451132
 20
687.8895033711
 30
0.0
 11
574.5751451132
 21
693.8134776988
 31
0.0
  0
LINE
  5
1E5
330
1F
100
AcDbEntity
  8
0
  6
Continuous
 62
     7
370
    25
100
AcDbLine
 10
574.5751451132
 20
683.813476991
 30
0.0
 11
574.5751451132
 21
687.8895033711
 31
0.0
  0
LINE
  5
1E6
330
1F
100
AcDbEntity
  8
0
  6
Continuous
 62
     7
370
    25
100
AcDbLine
 10
574.5751451132
 20
677.8895035946
 30
0.0
 11
574.5751451132
 21
683.813476991
 31
0.0
  0
LINE
  5
1E7
330
1F
100
AcDbEntity
  8
0
  6
Continuous
 62
     7
370
    25
100
AcDbLine
 10
574.5751451132
 20
673.8134770981
 30
0.0
 11
574.5751451132
 21
677.8895031289
 31
0.0
  0
LINE
  5
1E8
330
1F
100
AcDbEntity
  8
0
  6
Continuous
 62
     7
370
    25
100
AcDbLine
 10
574.5751451132
 20
667.8895033525
 30
0.0
 11
574.5751451132
 21
673.8134770981
 31
0.0
  0
LINE
  5
1E9
330
1F
100
AcDbEntity
  8
0
  6
Continuous
 62
     7
370
    25
100
AcDbLine
 10
574.5751451132
 20
663.8134774381
 30
0.0
 11
574.5751451132
 21
667.8895033525
 31
0.0
  0
LINE
  5
1EA
330
1F
100
AcDbEntity
  8
0
  6
Continuous
 62
     7
370
    25
100
AcDbLine
 10
574.5751451132
 20
657.8895031103
 30
0.0
 11
574.5751451132
 21
663.8134774381
 31
0.0
  0
LINE
  5
1EB
330
1F
100
AcDbEntity
  8
0
  6
Continuous
 62
     7
370
    25
100
AcDbLine
 10
574.5751451132
 20
653.8134767303
 30
0.0
 11
574.5751451132
 21
657.8895031103
 31
0.0
  0
LINE
  5
1EC
330
1F
100
AcDbEntity
  8
0
  6
Continuous
 62
     7
370
    25
100
AcDbLine
 10
574.5751451132
 20
647.8895033338
 30
0.0
 11
574.5751451132
 21
653.8134767303
 31
0.0
  0
LINE
  5
1ED
330
1F
100
AcDbEntity
  8
0
  6
Continuous
 62
     7
370
    25
100
AcDbLine
 10
574.5751451132
 20
632.226399202
 30
0.0
 11
574.5751451132
 21
647.8895033338
 31
0.0
  0
ELLIPSE
  5
1EE
330
1F
100
AcDbEntity
  8
0
  6
Continuous
 62
     7
370
    25
100
AcDbEllipse
 10
574.6669425199
 20
770.8520348725
 30
0.0
 11
10.76933602837778
 21
0.0
 31
0.0
210
0.0
220
0.0
230
1.0
 40
0.0349207695
 41
4.70458943161555
 42
6.267808266665249
  0
ELLIPSE
  5
1EF
330
1F
100
AcDbEntity
  8
0
  6
Continuous
 62
     7
370
    25
100
AcDbEllipse
 10
506.8642265423
 20
770.1011250075
 30
0.0
 11
10.70000000000005
 21
0.0
 31
0.0
210
0.0
220
0.0
230
1.0
 40
0.0349207695
 41
1.319381210025995
 42
1.570796326794897
  0
LINE
  5
1F0
330
1F
100
AcDbEntity
  8
0
  6
Continuous
 62
     7
370
    25
100
AcDbLine
 10
496.6811117147
 20
770.4747794756
 30
0.0
 11
506.8642267388
 21
770.4747794756
 31
0.0
  0
ELLIPSE
  5
1F1
330
1F
100
AcDbEntity
  8
0
  6
Continuous
 62
     7
370
    25
100
AcDbEllipse
 10
496.6811117409
 20
770.1011250075
 30
0.0
 11
10.70000000000005
 21
0.0
 31
0.0
210
0.0
220
0.0
230
1.0
 40
0.0349207695
 41
1.570796326794897
 42
1.822211443563798
  0
ELLIPSE
  5
1F2
330
1F
100
AcDbEntity
  8
0
  6
Continuous
 62
     7
370
    25
100
AcDbEllipse
 10
428.8783957633
 20
770.8520348725
 30
0.0
 11
10.76933602837772
 21
1.136868377216160E-13
 31
0.0
210
0.0
220
0.0
230
1.0
 40
0.0349207695
 41
3.156969694103708
 42
4.720188529153774
  0
LINE
  5
1F3
330
1F
100
AcDbEntity
  8
0
  6
Continuous
 62
     7
370
    25
100
AcDbLine
 10
418.1103299734
 20
770.846250523
 30
0.0
 11
585.4350070832
 21
770.846250523
 31
0.0
  0
ELLIPSE
  5
1F4
330
1F
100
AcDbEntity
  8
0
  6
Continuous
 62
     7
370
    25
100
AcDbEllipse
 10
428.8783957633
 20
630.8509457642
 30
0.0
 11
10.76933602837778
 21
0.0
 31
0.0
210
0.0
220
0.0
230
1.0
 40
0.0349207695
 41
1.56299677802583
 42
3.126215613075061
  0
ELLIPSE
  5
1F5
330
1F
100
AcDbEntity
  8
0
  6
Continuous
 62
     7
370
    25
100
AcDbEllipse
 10
496.6811117409
 20
631.6018556291
 30
0.0
 11
10.69999999999993
 21
0.0
 31
0.0
210
0.0
220
0.0
230
1.0
 40
0.0349207695
 41
4.460973863616041
 42
4.71238898038469
  0
LINE
  5
1F6
330
1F
100
AcDbEntity
  8
0
  6
Continuous
 62
     7
370
    25
100
AcDbLine
 10
506.8642267388
 20
631.2282039413
 30
0.0
 11
496.6811117147
 21
631.2282039413
 31
0.0
  0
ELLIPSE
  5
1F7
330
1F
100
AcDbEntity
  8
0
  6
Continuous
 62
     7
370
    25
100
AcDbEllipse
 10
506.8642265423
 20
631.6018556291
 30
0.0
 11
10.70000000000005
 21
0.0
 31
0.0
210
0.0
220
0.0
230
1.0
 40
0.0349207695
 41
4.71238898038469
 42
4.963804097153387
  0
ELLIPSE
  5
1F8
330
1F
100
AcDbEntity
  8
0
  6
Continuous
 62
     7
370
    25
100
AcDbEllipse
 10
574.6669425199
 20
630.8509457642
 30
0.0
 11
10.76933602837789
 21
0.0
 31
0.0
210
0.0
220
0.0
230
1.0
 40
0.0349207695
 41
0.0153770405150231
 42
1.578595875564027
  0
LINE
  5
1F9
330
1F
100
AcDbEntity
  8
0
  6
Continuous
 62
     7
370
    25
100
AcDbLine
 10
585.4350070832
 20
630.8567291686
 30
0.0
 11
418.1103299734
 21
630.8567291686
 31
0.0
  0
ELLIPSE
  5
1FA
330
1F
100
AcDbEntity
  8
0
  6
Continuous
 62
     7
370
    25
100
AcDbEllipse
 10
496.6811117409
 20
769.1017341805
 30
0.0
 11
9.700000000000045
 21
0.0
 31
0.0
210
0.0
220
0.0
230
1.0
 40
0.0385208488
 41
1.570796326794897
 42
1.822211443563568
  0
LINE
  5
1FB
330
1F
100
AcDbEntity
  8
0
  6
Continuous
 62
     7
370
    25
100
AcDbLine
 10
496.6811117147
 20
769.4753883967
 30
0.0
 11
496.6811117147
 21
770.4747794756
 31
0.0
  0
ELLIPSE
  5
1FC
330
1F
100
AcDbEntity
  8
0
  6
Continuous
 62
     7
370
    25
100
AcDbEllipse
 10
506.8642265423
 20
632.6012464562
 30
0.0
 11
9.700000000000045
 21
0.0
 31
0.0
210
0.0
220
0.0
230
1.0
 40
0.0385208488
 41
4.71238898038469
 42
4.963804097153242
  0
LINE
  5
1FD
330
1F
100
AcDbEntity
  8
0
  6
Continuous
 62
     7
370
    25
100
AcDbLine
 10
506.8642267388
 20
632.2275950202
 30
0.0
 11
506.8642267388
 21
631.2282039413
 31
0.0
  0
ELLIPSE
  5
1FE
330
1F
100
AcDbEntity
  8
0
  6
Continuous
 62
     7
370
    25
100
AcDbEllipse
 10
496.6811117409
 20
632.6012464562
 30
0.0
 11
9.699999999999932
 21
0.0
 31
0.0
210
0.0
220
0.0
230
1.0
 40
0.0385208488
 41
4.460973863616182
 42
4.71238898038469
  0
LINE
  5
1FF
330
1F
100
AcDbEntity
  8
0
  6
Continuous
 62
     7
370
    25
100
AcDbLine
 10
496.6811117147
 20
632.2275950202
 30
0.0
 11
496.6811117147
 21
631.2282039413
 31
0.0
  0
ELLIPSE
  5
200
330
1F
100
AcDbEntity
  8
0
  6
Continuous
 62
     7
370
    25
100
AcDbEllipse
 10
506.8642265423
 20
769.1017341805
 30
0.0
 11
9.700000000000045
 21
0.0
 31
0.0
210
0.0
220
0.0
230
1.0
 40
0.0385208488
 41
1.31938121002622
 42
1.570796326794897
  0
LINE
  5
201
330
1F
100
AcDbEntity
  8
0
  6
Continuous
 62
     7
370
    25
100
AcDbLine
 10
506.8642267388
 20
769.4753883967
 30
0.0
 11
506.8642267388
 21
770.4747794756
 31
0.0
  0
LINE
  5
202
330
1F
100
AcDbEntity
  8
0
  6
Continuous
 62
     7
370
    25
100
AcDbLine
 10
496.6811117147
 20
761.1793606171
 30
0.0
 11
496.6811117147
 21
769.4753883967
 31
0.0
  0
ELLIPSE
  5
203
330
1F
100
AcDbEntity
  8
0
  6
Continuous
 62
     7
370
    25
100
AcDbEllipse
 10
496.6811117409
 20
760.8406275927
 30
0.0
 11
9.699999999999989
 21
0.0
 31
0.0
210
0.0
220
0.0
230
1.0
 40
0.0349207695
 41
1.570796326794897
 42
1.822211443563639
  0
LINE
  5
204
330
1F
100
AcDbEntity
  8
0
  6
Continuous
 62
     7
370
    25
100
AcDbLine
 10
496.6811117147
 20
632.2275950202
 30
0.0
 11
496.6811117147
 21
640.5236227998
 31
0.0
  0
ELLIPSE
  5
205
330
1F
100
AcDbEntity
  8
0
  6
Continuous
 62
     7
370
    25
100
AcDbEllipse
 10
496.6811117409
 20
640.862353044
 30
0.0
 11
9.699999999999989
 21
0.0
 31
0.0
210
0.0
220
0.0
230
1.0
 40
0.0349207695
 41
4.460973863615894
 42
4.71238898038469
  0
LINE
  5
206
330
1F
100
AcDbEntity
  8
0
  6
Continuous
 62
     7
370
    25
100
AcDbLine
 10
506.8642267388
 20
769.4753883967
 30
0.0
 11
506.8642267388
 21
761.1793606171
 31
0.0
  0
ELLIPSE
  5
207
330
1F
100
AcDbEntity
  8
0
  6
Continuous
 62
     7
370
    25
100
AcDbEllipse
 10
506.8642265423
 20
760.8406275927
 30
0.0
 11
9.699999999999932
 21
0.0
 31
0.0
210
0.0
220
0.0
230
1.0
 40
0.0349207695
 41
1.319381210026164
 42
1.570796326794897
  0
LINE
  5
208
330
1F
100
AcDbEntity
  8
0
  6
Continuous
 62
     7
370
    25
100
AcDbLine
 10
506.8642267388
 20
640.5236227998
 30
0.0
 11
506.8642267388
 21
632.2275950202
 31
0.0
  0
ELLIPSE
  5
209
330
1F
100
AcDbEntity
  8
0
  6
Continuous
 62
     7
370
    25
100
AcDbEllipse
 10
506.8642265423
 20
640.862353044
 30
0.0
 11
9.699999999999932
 21
0.0
 31
0.0
210
0.0
220
0.0
230
1.0
 40
0.0349207695
 41
4.71238898038469
 42
4.963804097153542
  0
ELLIPSE
  5
20A
330
1F
100
AcDbEntity
  8
0
  6
Continuous
 62
     7
370
    25
100
AcDbEllipse
 10
428.8783957633
 20
769.8526440454
 30
0.0
 11
11.76933602837772
 21
-1.136868377216160E-13
 31
0.0
210
0.0
220
0.0
230
1.0
 40
0.0319536718
 41
3.15862871960348
 42
4.720188529153766
  0
LINE
  5
20B
330
1F
100
AcDbEntity
  8
0
  6
Continuous
 62
     7
370
    25
100
AcDbLine
 10
428.9547319886
 20
703.8134774753
 30
0.0
 11
428.9547319886
 21
697.8895040789
 31
0.0
  0
LINE
  5
20C
330
1F
100
AcDbEntity
  8
0
  6
Continuous
 62
     7
370
    25
100
AcDbLine
 10
428.9547319886
 20
693.8134776988
 30
0.0
 11
428.9547319886
 21
687.8895033711
 31
0.0
  0
LINE
  5
20D
330
1F
100
AcDbEntity
  8
0
  6
Continuous
 62
     7
370
    25
100
AcDbLine
 10
428.9547319886
 20
677.8895031289
 30
0.0
 11
428.9547319886
 21
683.813476991
 31
0.0
  0
LINE
  5
20E
330
1F
100
AcDbEntity
  8
0
  6
Continuous
 62
     7
370
    25
100
AcDbLine
 10
428.9547319886
 20
667.8895033525
 30
0.0
 11
428.9547319886
 21
673.8134770981
 31
0.0
  0
LINE
  5
20F
330
1F
100
AcDbEntity
  8
0
  6
Continuous
 62
     7
370
    25
100
AcDbLine
 10
428.9547319886
 20
657.8895031103
 30
0.0
 11
428.9547319886
 21
663.8134774381
 31
0.0
  0
LINE
  5
210
330
1F
100
AcDbEntity
  8
0
  6
Continuous
 62
     7
370
    25
100
AcDbLine
 10
428.9547319886
 20
647.8895033338
 30
0.0
 11
428.9547319886
 21
653.8134767303
 31
0.0
  0
ELLIPSE
  5
211
330
1F
100
AcDbEntity
  8
0
  6
Continuous
 62
     7
370
    25
100
AcDbEllipse
 10
428.8783957633
 20
631.8503365912
 30
0.0
 11
11.76933602837778
 21
0.0
 31
0.0
210
0.0
220
0.0
230
1.0
 40
0.0319536718
 41
1.56299677802582
 42
3.124556587576824
  0
LINE
  5
212
330
1F
100
AcDbEntity
  8
0
  6
Continuous
 62
     7
370
    25
100
AcDbLine
 10
417.1107675311
 20
769.8462410459
 30
0.0
 11
417.1107675311
 21
631.856742371
 31
0.0
  0
LINE
  5
213
330
1F
100
AcDbEntity
  8
0
  6
Continuous
 62
     7
370
    25
100
AcDbLine
 10
574.5906125185
 20
663.8134774381
 30
0.0
 11
574.5906125185
 21
657.8895031103
 31
0.0
  0
LINE
  5
214
330
1F
100
AcDbEntity
  8
0
  6
Continuous
 62
     7
370
    25
100
AcDbLine
 10
574.5906125185
 20
653.8134767303
 30
0.0
 11
574.5906125185
 21
647.8895033338
 31
0.0
  0
LINE
  5
215
330
1F
100
AcDbEntity
  8
0
  6
Continuous
 62
     7
370
    25
100
AcDbLine
 10
574.5906125185
 20
673.8134770981
 30
0.0
 11
574.5906125185
 21
667.8895033525
 31
0.0
  0
LINE
  5
216
330
1F
100
AcDbEntity
  8
0
  6
Continuous
 62
     7
370
    25
100
AcDbLine
 10
574.5906125185
 20
683.813476991
 30
0.0
 11
574.5906125185
 21
677.8895031289
 31
0.0
  0
LINE
  5
217
330
1F
100
AcDbEntity
  8
0
  6
Continuous
 62
     7
370
    25
100
AcDbLine
 10
574.5906125185
 20
687.8895033711
 30
0.0
 11
574.5906125185
 21
693.8134776988
 31
0.0
  0
LINE
  5
218
330
1F
100
AcDbEntity
  8
0
  6
Continuous
 62
     7
370
    25
100
AcDbLine
 10
574.5906125185
 20
697.8895040789
 30
0.0
 11
574.5906125185
 21
703.8134774753
 31
0.0
  0
ELLIPSE
  5
219
330
1F
100
AcDbEntity
  8
0
  6
Continuous
 62
     7
370
    25
100
AcDbEllipse
 10
574.6669425199
 20
769.8526440454
 30
0.0
 11
11.76933602837778
 21
1.136868377216160E-13
 31
0.0
210
0.0
220
0.0
230
1.0
 40
0.0319536718
 41
4.704589431615539
 42
6.266149241166771
  0
LINE
  5
21A
330
1F
100
AcDbEntity
  8
0
  6
Continuous
 62
     7
370
    25
100
AcDbLine
 10
586.4345695255
 20
631.856742371
 30
0.0
 11
586.4345695255
 21
769.8462410459
 31
0.0
  0
ELLIPSE
  5
21B
330
1F
100
AcDbEntity
  8
0
  6
Continuous
 62
     7
370
    25
100
AcDbEllipse
 10
574.6669425199
 20
631.8503365912
 30
0.0
 11
11.76933602837789
 21
1.136868377216160E-13
 31
0.0
210
0.0
220
0.0
230
1.0
 40
0.0319536718
 41
0.0170360660129587
 42
1.578595875564028
  0
LINE
  5
21C
330
1F
100
AcDbEntity
  8
0
  6
Continuous
 62
     7
370
    25
100
AcDbLine
 10
506.8642267388
 20
769.4753883967
 30
0.0
 11
496.6811117147
 21
769.4753883967
 31
0.0
  0
LINE
  5
21D
330
1F
100
AcDbEntity
  8
0
  6
Continuous
 62
     7
370
    25
100
AcDbLine
 10
496.6811117147
 20
632.2275950202
 30
0.0
 11
506.8642267388
 21
632.2275950202
 31
0.0
  0
LINE
  5
21E
330
1F
100
AcDbEntity
  8
0
  6
Continuous
 62
     7
370
    25
100
AcDbLine
 10
496.6811117147
 20
640.5236227998
 30
0.0
 11
506.8642267388
 21
640.5236227998
 31
0.0
  0
LINE
  5
21F
330
1F
100
AcDbEntity
  8
0
  6
Continuous
 62
     7
370
    25
100
AcDbLine
 10
506.8642267388
 20
761.1793606171
 30
0.0
 11
496.6811117147
 21
761.1793606171
 31
0.0
  0
SPLINE
  5
220
330
1F
100
AcDbEntity
  8
0
  6
Continuous
 62
     7
370
    25
100
AcDbSpline
210
0.0
220
0.0
230
1.0
 70
     8
 71
     3
 72
    12
 73
     8
 74
     0
 42
0.000000001
 43
0.00000001
 40
0.0
 40
0.0
 40
0.0
 40
0.0
 40
0.2148398430959932
 40
0.4296855619481616
 40
0.6444267203533461
 40
0.8590543817271444
 40
0.9999999999999999
 40
0.9999999999999999
 40
0.9999999999999999
 40
0.9999999999999999
 10
586.4345695254588
 20
631.8567423709945
 30
0.0
 10
586.4235174305824
 20
631.7442627439955
 30
0.0
 10
586.4014129385607
 20
631.519300413739
 30
0.0
 10
586.2289460344039
 20
631.2195133659693
 30
0.0
 10
585.9751500381202
 20
630.9933950178146
 30
0.0
 10
585.6941377254777
 20
630.8737435396403
 30
0.0
 10
585.5085658716504
 20
630.861558996918
 30
0.0
 10
585.435007083156
 20
630.8567291685657
 30
0.0
  0
SPLINE
  5
221
330
1F
100
AcDbEntity
  8
0
  6
Continuous
 62
     7
370
    25
100
AcDbSpline
210
0.0
220
0.0
230
1.0
 70
     8
 71
     3
 72
    12
 73
     8
 74
     0
 42
0.000000001
 43
0.00000001
 40
0.0
 40
0.0
 40
0.0
 40
0.0
 40
0.2145989845214965
 40
0.4291963106262424
 40
0.6437835686542088
 40
0.8584384782156541
 40
1.0
 40
1.0
 40
1.0
 40
1.0
 10
418.1103299734378
 20
630.8567291685657
 30
0.0
 10
417.9979764641138
 20
630.8677743919887
 30
0.0
 10
417.7732703137317
 20
630.8898647534774
 30
0.0
 10
417.473789067389
 20
631.0621629697586
 30
0.0
 10
417.2477647460771
 20
631.3157637089266
 30
0.0
 10
417.1278705184754
 20
631.596949807015
 30
0.0
 10
417.1156313964383
 20
631.7828607728363
 30
0.0
 10
417.1107675311351
 20
631.8567423709945
 30
0.0
  0
SPLINE
  5
222
330
1F
100
AcDbEntity
  8
0
  6
Continuous
 62
     7
370
    25
100
AcDbSpline
210
0.0
220
0.0
230
1.0
 70
     8
 71
     3
 72
    12
 73
     8
 74
     0
 42
0.000000001
 43
0.00000001
 40
0.0
 40
0.0
 40
0.0
 40
0.0
 40
0.2148369388541674
 40
0.4296813413391579
 40
0.6444250763646134
 40
0.8590537300667931
 40
1.0
 40
1.0
 40
1.0
 40
1.0
 10
417.1107675311351
 20
769.8462410458641
 30
0.0
 10
417.1218236116247
 20
769.95871773134
 30
0.0
 10
417.1439361567024
 20
770.1836750098347
 30
0.0
 10
417.3163903880339
 20
770.4834646260504
 30
0.0
 10
417.5701863392837
 20
770.7095846890945
 30
0.0
 10
417.8511993156561
 20
770.8292360988133
 30
0.0
 10
418.0367711805549
 20
770.8414206795727
 30
0.0
 10
418.1103299734378
 20
770.8462505230026
 30
0.0
  0
SPLINE
  5
223
330
1F
100
AcDbEntity
  8
0
  6
Continuous
 62
     7
370
    25
100
AcDbSpline
210
0.0
220
0.0
230
1.0
 70
     8
 71
     3
 72
    12
 73
     8
 74
     0
 42
0.000000001
 43
0.00000001
 40
0.0
 40
0.0
 40
0.0
 40
0.0
 40
0.2145989737823187
 40
0.4291989987498625
 40
0.643783087118393
 40
0.8584405893001364
 40
0.9999999999999999
 40
0.9999999999999999
 40
0.9999999999999999
 40
0.9999999999999999
 10
585.435007083156
 20
770.8462505230026
 30
0.0
 10
585.5473610941405
 20
770.835207536798
 30
0.0
 10
585.7720696664607
 20
770.8131215102959
 30
0.0
 10
586.0715429418177
 20
770.6408113293674
 30
0.0
 10
586.2975760952169
 20
770.3872192224904
 30
0.0
 10
586.417465288617
 20
770.1060317652829
 30
0.0
 10
586.4297053614296
 20
769.9201212595343
 30
0.0
 10
586.4345695254588
 20
769.8462410458641
 30
0.0
  0
ELLIPSE
  5
224
330
1F
100
AcDbEntity
  8
0
  6
Continuous
 62
     7
370
    25
100
AcDbEllipse
 10
470.5489178826
 20
614.2747574466
 30
0.0
 11
1.599999999999966
 21
0.0
 31
0.0
210
0.0
220
0.0
230
1.0
 40
0.0130952886
 41
4.400191206237473
 42
4.963804097155149
  0
LINE
  5
225
330
1F
100
AcDbEntity
  8
0
  6
Continuous
 62
     7
370
    25
100
AcDbLine
 10
470.9469567415
 20
614.2544625887
 30
0.0
 11
470.9469567415
 21
477.4485109934
 31
0.0
  0
ELLIPSE
  5
226
330
1F
100
AcDbEntity
  8
0
  6
Continuous
 62
     7
370
    25
100
AcDbEllipse
 10
470.5489178826
 20
477.4282231901
 30
0.0
 11
1.599999999999966
 21
0.0
 31
0.0
210
0.0
220
0.0
230
1.0
 40
0.0130952886
 41
1.319381210023704
 42
1.882994100941421
  0
LINE
  5
227
330
1F
100
AcDbEntity
  8
0
  6
Continuous
 62
     7
370
    25
100
AcDbLine
 10
470.0574766276
 20
477.4481682667
 30
0.0
 11
470.0574766276
 21
614.2548164913
 31
0.0
  0
ARC
  5
228
330
1F
100
AcDbEntity
  8
0
  6
Continuous
 62
     7
370
    25
100
AcDbCircle
 10
471.171801012
 20
614.4592379093
 30
0.0
 40
1.132919657283639
100
AcDbArc
 50
135.4364495796
 51
190.3952556623
  0
ELLIPSE
  5
229
330
1F
100
AcDbEntity
  8
0
  6
Continuous
 62
     7
370
    25
100
AcDbEllipse
 10
470.5489178826
 20
615.2741482736
 30
0.0
 11
0.5999999999999659
 21
0.0
 31
0.0
210
0.0
220
0.0
230
1.0
 40
0.0349207695
 41
4.400191206237287
 42
4.963804097157736
  0
ARC
  5
22A
330
1F
100
AcDbEntity
  8
0
  6
Continuous
 62
     7
370
    25
100
AcDbCircle
 10
469.6700575808
 20
614.4672674631
 30
0.0
 40
1.294510479448216
100
AcDbArc
 50
350.5381865182
 51
37.4184892614
  0
ELLIPSE
  5
22B
330
1F
100
AcDbEntity
  8
0
  6
Continuous
 62
     7
370
    25
100
AcDbEllipse
 10
532.9964204006
 20
614.2747574466
 30
0.0
 11
1.599999999999909
 21
0.0
 31
0.0
210
0.0
220
0.0
230
1.0
 40
0.0130952886
 41
4.460973863612859
 42
5.024586754530395
  0
LINE
  5
22C
330
1F
100
AcDbEntity
  8
0
  6
Continuous
 62
     7
370
    25
100
AcDbLine
 10
533.487860429
 20
614.2548164913
 30
0.0
 11
533.487860429
 21
477.4481682667
 31
0.0
  0
ELLIPSE
  5
22D
330
1F
100
AcDbEntity
  8
0
  6
Continuous
 62
     7
370
    25
100
AcDbEllipse
 10
532.9964204006
 20
477.4282231901
 30
0.0
 11
1.600000000000023
 21
0.0
 31
0.0
210
0.0
220
0.0
230
1.0
 40
0.0130952886
 41
1.258598552648382
 42
1.822211443566824
  0
LINE
  5
22E
330
1F
100
AcDbEntity
  8
0
  6
Continuous
 62
     7
370
    25
100
AcDbLine
 10
532.598380315
 20
477.4485109934
 30
0.0
 11
532.598380315
 21
614.2544625887
 31
0.0
  0
ARC
  5
22F
330
1F
100
AcDbEntity
  8
0
  6
Continuous
 62
     7
370
    25
100
AcDbCircle
 10
533.8753076331
 20
614.467260454
 30
0.0
 40
1.294537101498707
100
AcDbArc
 50
142.5820216068
 51
189.4613026136
  0
ELLIPSE
  5
230
330
1F
100
AcDbEntity
  8
0
  6
Continuous
 62
     7
370
    25
100
AcDbEllipse
 10
532.9964204006
 20
615.2741482736
 30
0.0
 11
0.6000000000000227
 21
0.0
 31
0.0
210
0.0
220
0.0
230
1.0
 40
0.0349207695
 41
4.46097386361554
 42
5.024586754527041
  0
ARC
  5
231
330
1F
100
AcDbEntity
  8
0
  6
Continuous
 62
     7
370
    25
100
AcDbCircle
 10
532.3735466132
 20
614.4592411574
 30
0.0
 40
1.132909848290073
100
AcDbArc
 50
349.6044863211
 51
44.563808437
  0
ARC
  5
232
330
1F
100
AcDbEntity
  8
0
  6
Continuous
 62
     7
370
    25
100
AcDbCircle
 10
469.6700254099
 20
477.2357141272
 30
0.0
 40
1.294540896211943
100
AcDbArc
 50
322.5820944243
 51
9.4612297961
  0
ELLIPSE
  5
233
330
1F
100
AcDbEntity
  8
0
  6
Continuous
 62
     7
370
    25
100
AcDbEllipse
 10
470.5489178826
 20
476.428832363
 30
0.0
 11
0.5999999999999659
 21
0.0
 31
0.0
210
0.0
220
0.0
230
1.0
 40
0.0349207695
 41
1.319381210030045
 42
1.882994100934044
  0
ARC
  5
234
330
1F
100
AcDbEntity
  8
0
  6
Continuous
 62
     7
370
    25
100
AcDbCircle
 10
471.1717837018
 20
477.2437415286
 30
0.0
 40
1.132903591174086
100
AcDbArc
 50
169.6043217307
 51
224.5639730273
  0
ARC
  5
235
330
1F
100
AcDbEntity
  8
0
  6
Continuous
 62
     7
370
    25
100
AcDbCircle
 10
532.3735639231
 20
477.2437382806
 30
0.0
 40
1.132893782457722
100
AcDbArc
 50
315.4357689551
 51
10.3959362869
  0
ELLIPSE
  5
236
330
1F
100
AcDbEntity
  8
0
  6
Continuous
 62
     7
370
    25
100
AcDbEllipse
 10
532.9964204006
 20
476.428832363
 30
0.0
 11
0.6000000000000227
 21
0.0
 31
0.0
210
0.0
220
0.0
230
1.0
 40
0.0349207695
 41
1.258598552655776
 42
1.822211443560676
  0
ARC
  5
237
330
1F
100
AcDbEntity
  8
0
  6
Continuous
 62
     7
370
    25
100
AcDbCircle
 10
533.8753398053
 20
477.2357211366
 30
0.0
 40
1.294567519661404
100
AcDbArc
 50
170.5392810727
 51
217.4173947069
  0
LINE
  5
238
330
1F
100
AcDbEntity
  8
0
  6
Continuous
 62
     7
370
    25
100
AcDbLine
 10
532.598380315
 20
614.2544625887
 30
0.0
 11
509.2773426687
 21
614.463637639
 31
0.0
  0
ARC
  5
239
330
1F
100
AcDbEntity
  8
0
  6
Continuous
 62
     7
370
    25
100
AcDbCircle
 10
510.5542518693
 20
614.6764404932
 30
0.0
 40
1.294520050613928
100
AcDbArc
 50
142.5817222608
 51
189.4616522375
  0
LINE
  5
23A
330
1F
100
AcDbEntity
  8
0
  6
Continuous
 62
     7
370
    25
100
AcDbLine
 10
509.5261170891
 20
615.4630287179
 30
0.0
 11
532.8471552012
 21
615.2538536676
 31
0.0
  0
LINE
  5
23B
330
1F
100
AcDbEntity
  8
0
  6
Continuous
 62
     7
370
    25
100
AcDbLine
 10
494.2679957849
 20
614.463637639
 30
0.0
 11
470.9469567415
 21
614.2544625887
 31
0.0
  0
LINE
  5
23C
330
1F
100
AcDbEntity
  8
0
  6
Continuous
 62
     7
370
    25
100
AcDbLine
 10
470.6981818554
 20
615.2538536676
 30
0.0
 11
494.0192208988
 21
615.4630287179
 31
0.0
  0
ARC
  5
23D
330
1F
100
AcDbEntity
  8
0
  6
Continuous
 62
     7
370
    25
100
AcDbCircle
 10
492.9910886721
 20
614.6764405339
 30
0.0
 40
1.294517997848351
100
AcDbArc
 50
350.5383307961
 51
37.4183449835
  0
LINE
  5
23E
330
1F
100
AcDbEntity
  8
0
  6
Continuous
 62
     7
370
    25
100
AcDbLine
 10
509.2773426687
 20
477.2393433937
 30
0.0
 11
532.598380315
 21
477.4485109934
 31
0.0
  0
LINE
  5
23F
330
1F
100
AcDbEntity
  8
0
  6
Continuous
 62
     7
370
    25
100
AcDbLine
 10
532.8471552012
 20
476.4491199144
 30
0.0
 11
509.5261170891
 21
476.2399523148
 31
0.0
  0
ARC
  5
240
330
1F
100
AcDbEntity
  8
0
  6
Continuous
 62
     7
370
    25
100
AcDbCircle
 10
510.5542444732
 20
477.0265386984
 30
0.0
 40
1.294513057766048
100
AcDbArc
 50
170.5382135705
 51
217.4184119312
  0
LINE
  5
241
330
1F
100
AcDbEntity
  8
0
  6
Continuous
 62
     7
370
    25
100
AcDbLine
 10
470.9469567415
 20
477.4485109934
 30
0.0
 11
494.2679957849
 21
477.2393433937
 31
0.0
  0
ARC
  5
242
330
1F
100
AcDbEntity
  8
0
  6
Continuous
 62
     7
370
    25
100
AcDbCircle
 10
492.9910960682
 20
477.0265386577
 30
0.0
 40
1.294511005077372
100
AcDbArc
 50
322.5815208255
 51
9.4618033949
  0
LINE
  5
243
330
1F
100
AcDbEntity
  8
0
  6
Continuous
 62
     7
370
    25
100
AcDbLine
 10
494.0192208988
 20
476.2399523148
 30
0.0
 11
470.6981818554
 21
476.4491199144
 31
0.0
  0
LINE
  5
244
330
1F
100
AcDbEntity
  8
0
  6
Continuous
 62
     7
370
    25
100
AcDbLine
 10
494.2679957849
 20
606.1687125453
 30
0.0
 11
494.2679957849
 21
614.463637639
 31
0.0
  0
LINE
  5
245
330
1F
100
AcDbEntity
  8
0
  6
Continuous
 62
     7
370
    25
100
AcDbLine
 10
494.2679957849
 20
606.1687125453
 30
0.0
 11
471.3435436961
 21
605.963091422
 31
0.0
  0
ELLIPSE
  5
246
330
1F
100
AcDbEntity
  8
0
  6
Continuous
 62
     7
370
    25
100
AcDbEllipse
 10
471.3438488906
 20
605.712941695
 30
0.0
 11
0.08686083686552593
 21
0.2349699732621957
 31
0.0
210
0.0
220
0.0
230
1.0
 40
0.9882750986
 41
0.3591729025739957
 42
1.928736980887576
  0
LINE
  5
247
330
1F
100
AcDbEntity
  8
0
  6
Continuous
 62
     7
370
    25
100
AcDbLine
 10
471.0959199247
 20
605.7110233792
 30
0.0
 11
471.0959199247
 21
485.9919576534
 31
0.0
  0
ELLIPSE
  5
248
330
1F
100
AcDbEntity
  8
0
  6
Continuous
 62
     7
370
    25
100
AcDbEllipse
 10
471.3438488906
 20
485.9900389416
 30
0.0
 11
-0.08686083686558277
 21
0.2349699732621389
 31
0.0
210
0.0
220
0.0
230
1.0
 40
0.9882750986
 41
1.212855672701202
 42
2.782419751247114
  0
LINE
  5
249
330
1F
100
AcDbEntity
  8
0
  6
Continuous
 62
     7
370
    25
100
AcDbLine
 10
471.3435436961
 20
485.7398896107
 30
0.0
 11
494.2679957849
 21
485.5342684874
 31
0.0
  0
LINE
  5
24A
330
1F
100
AcDbEntity
  8
0
  6
Continuous
 62
     7
370
    25
100
AcDbLine
 10
494.2679957849
 20
477.2393433937
 30
0.0
 11
494.2679957849
 21
485.5342684874
 31
0.0
  0
LINE
  5
24B
330
1F
100
AcDbEntity
  8
0
  6
Continuous
 62
     7
370
    25
100
AcDbLine
 10
509.2773426687
 20
485.5342684874
 30
0.0
 11
532.2017952231
 21
485.7398896107
 31
0.0
  0
ELLIPSE
  5
24C
330
1F
100
AcDbEntity
  8
0
  6
Continuous
 62
     7
370
    25
100
AcDbEllipse
 10
532.2014893926
 20
485.9900389416
 30
0.0
 11
0.08686083686552593
 21
0.2349699732621389
 31
0.0
210
0.0
220
0.0
230
1.0
 40
0.9882750986
 41
3.500765550806933
 42
5.070329634478114
  0
LINE
  5
24D
330
1F
100
AcDbEntity
  8
0
  6
Continuous
 62
     7
370
    25
100
AcDbLine
 10
532.4494171319
 20
485.9919576534
 30
0.0
 11
532.4494171319
 21
605.7110233792
 31
0.0
  0
ELLIPSE
  5
24E
330
1F
100
AcDbEntity
  8
0
  6
Continuous
 62
     7
370
    25
100
AcDbEllipse
 10
532.2014893926
 20
605.712941695
 30
0.0
 11
-0.08686083686552593
 21
0.2349699732623093
 31
0.0
210
0.0
220
0.0
230
1.0
 40
0.9882750986
 41
4.354448326292444
 42
5.924012409602057
  0
LINE
  5
24F
330
1F
100
AcDbEntity
  8
0
  6
Continuous
 62
     7
370
    25
100
AcDbLine
 10
532.2017952231
 20
605.963091422
 30
0.0
 11
509.2773426687
 21
606.1687125453
 31
0.0
  0
LINE
  5
250
330
1F
100
AcDbEntity
  8
0
  6
Continuous
 62
     7
370
    25
100
AcDbLine
 10
509.2773426687
 20
614.463637639
 30
0.0
 11
509.2773426687
 21
606.1687125453
 31
0.0
  0
LINE
  5
251
330
1F
100
AcDbEntity
  8
0
  6
Continuous
 62
     7
370
    25
100
AcDbLine
 10
509.2773426687
 20
485.5342684874
 30
0.0
 11
509.2773426687
 21
477.2393433937
 31
0.0
  0
ELLIPSE
  5
252
330
1F
100
AcDbEntity
  8
0
  6
Continuous
 62
     7
370
    25
100
AcDbEllipse
 10
429.9876809096
 20
609.8861637344
 30
0.0
 11
130.4563780682931
 21
2.273736754432321E-13
 31
0.0
210
0.0
220
0.0
230
1.0
 40
0.0351884511
 41
1.258598552652465
 42
1.578595875564
  0
ARC
  5
253
330
1F
100
AcDbEntity
  8
0
  6
Continuous
 62
     7
370
    25
100
AcDbCircle
 10
394.2610679061
 20
614.7053865633
 30
0.0
 40
34.70987816888393
100
AcDbArc
 50
359.6223100499
 51
1.2721174402
  0
ELLIPSE
  5
254
330
1F
100
AcDbEntity
  8
0
  6
Continuous
 62
     7
370
    25
100
AcDbEllipse
 10
429.9876809096
 20
610.8855545614
 30
0.0
 11
131.4563780682931
 21
2.273736754432321E-13
 31
0.0
210
0.0
220
0.0
230
1.0
 40
0.0349207695
 41
1.258598552652428
 42
1.578595875564
  0
ELLIPSE
  5
255
330
1F
100
AcDbEntity
  8
0
  6
Continuous
 62
     7
370
    25
100
AcDbEllipse
 10
573.5576573735
 20
609.8861637344
 30
0.0
 11
130.456378068293
 21
3.410605131648481E-13
 31
0.0
210
0.0
220
0.0
230
1.0
 40
0.0351884511
 41
1.562996778025794
 42
1.882994100937329
  0
ELLIPSE
  5
256
330
1F
100
AcDbEntity
  8
0
  6
Continuous
 62
     7
370
    25
100
AcDbEllipse
 10
573.5576573735
 20
610.8855545614
 30
0.0
 11
131.456378068293
 21
3.410605131648480E-13
 31
0.0
210
0.0
220
0.0
230
1.0
 40
0.0349207695
 41
1.562996778025793
 42
1.882994100937359
  0
ARC
  5
257
330
1F
100
AcDbEntity
  8
0
  6
Continuous
 62
     7
370
    25
100
AcDbCircle
 10
609.3126837143
 20
614.7051647731
 30
0.0
 40
34.73829065566656
100
AcDbArc
 50
178.7285572961
 51
180.3770152139
  0
ELLIPSE
  5
258
330
1F
100
AcDbEntity
  8
0
  6
Continuous
 62
     7
370
    25
100
AcDbEllipse
 10
429.9876809096
 20
481.8168169023
 30
0.0
 11
130.4563780682931
 21
2.842170943040401E-13
 31
0.0
210
0.0
220
0.0
230
1.0
 40
0.0351884511
 41
4.704589431615536
 42
5.024586754527193
  0
ELLIPSE
  5
259
330
1F
100
AcDbEntity
  8
0
  6
Continuous
 62
     7
370
    25
100
AcDbEllipse
 10
429.9876809096
 20
480.8174260753
 30
0.0
 11
131.4563780682931
 21
2.842170943040401E-13
 31
0.0
210
0.0
220
0.0
230
1.0
 40
0.0349207695
 41
4.704589431615537
 42
5.024586754527197
  0
ARC
  5
25A
330
1F
100
AcDbEntity
  8
0
  6
Continuous
 62
     7
370
    25
100
AcDbCircle
 10
394.260343108
 20
476.9975964015
 30
0.0
 40
34.71060291392832
100
AcDbArc
 50
358.7278997847
 51
0.3776727252
  0
ELLIPSE
  5
25B
330
1F
100
AcDbEntity
  8
0
  6
Continuous
 62
     7
370
    25
100
AcDbEllipse
 10
573.5576573735
 20
481.8168169023
 30
0.0
 11
130.456378068293
 21
2.842170943040401E-13
 31
0.0
210
0.0
220
0.0
230
1.0
 40
0.0351884511
 41
4.400191206242268
 42
4.720188529153844
  0
ARC
  5
25C
330
1F
100
AcDbEntity
  8
0
  6
Continuous
 62
     7
370
    25
100
AcDbCircle
 10
609.3134107271
 20
476.997818209
 30
0.0
 40
34.73901761541782
100
AcDbArc
 50
179.6230020354
 51
181.2714254547
  0
ELLIPSE
  5
25D
330
1F
100
AcDbEntity
  8
0
  6
Continuous
 62
     7
370
    25
100
AcDbEllipse
 10
573.5576573735
 20
480.8174260753
 30
0.0
 11
131.456378068293
 21
2.842170943040401E-13
 31
0.0
210
0.0
220
0.0
230
1.0
 40
0.0349207695
 41
4.400191206242261
 42
4.720188529153843
  0
LINE
  5
25E
330
1F
100
AcDbEntity
  8
0
  6
Continuous
 62
     7
370
    25
100
AcDbLine
 10
428.9701919434
 20
498.8134829887
 30
0.0
 11
428.9701919434
 21
492.8894965538
 31
0.0
  0
LINE
  5
25F
330
1F
100
AcDbEntity
  8
0
  6
Continuous
 62
     7
370
    25
100
AcDbLine
 10
428.9701919434
 20
502.8895019182
 30
0.0
 11
428.9701919434
 21
498.8134829887
 31
0.0
  0
LINE
  5
260
330
1F
100
AcDbEntity
  8
0
  6
Continuous
 62
     7
370
    25
100
AcDbLine
 10
428.9701919434
 20
508.813473452
 30
0.0
 11
428.9701919434
 21
502.8895019182
 31
0.0
  0
LINE
  5
261
330
1F
100
AcDbEntity
  8
0
  6
Continuous
 62
     7
370
    25
100
AcDbLine
 10
428.9701919434
 20
512.8895072826
 30
0.0
 11
428.9701919434
 21
508.813473452
 31
0.0
  0
LINE
  5
262
330
1F
100
AcDbEntity
  8
0
  6
Continuous
 62
     7
370
    25
100
AcDbLine
 10
428.9701919434
 20
518.8134788164
 30
0.0
 11
428.9701919434
 21
512.8895072826
 31
0.0
  0
LINE
  5
263
330
1F
100
AcDbEntity
  8
0
  6
Continuous
 62
     7
370
    25
100
AcDbLine
 10
428.9701919434
 20
522.8894977459
 30
0.0
 11
428.9701919434
 21
518.8134788164
 31
0.0
  0
LINE
  5
264
330
1F
100
AcDbEntity
  8
0
  6
Continuous
 62
     7
370
    25
100
AcDbLine
 10
428.9701919434
 20
528.8134841808
 30
0.0
 11
428.9701919434
 21
522.8894977459
 31
0.0
  0
LINE
  5
265
330
1F
100
AcDbEntity
  8
0
  6
Continuous
 62
     7
370
    25
100
AcDbLine
 10
428.9701919434
 20
532.8895031103
 30
0.0
 11
428.9701919434
 21
528.8134841808
 31
0.0
  0
LINE
  5
266
330
1F
100
AcDbEntity
  8
0
  6
Continuous
 62
     7
370
    25
100
AcDbLine
 10
428.9701919434
 20
538.8134746441
 30
0.0
 11
428.9701919434
 21
532.8895031103
 31
0.0
  0
LINE
  5
267
330
1F
100
AcDbEntity
  8
0
  6
Continuous
 62
     7
370
    25
100
AcDbLine
 10
428.9701919434
 20
542.8895084747
 30
0.0
 11
428.9701919434
 21
538.8134746441
 31
0.0
  0
LINE
  5
268
330
1F
100
AcDbEntity
  8
0
  6
Continuous
 62
     7
370
    25
100
AcDbLine
 10
428.9701919434
 20
548.8134800085
 30
0.0
 11
428.9701919434
 21
542.8895084747
 31
0.0
  0
LINE
  5
269
330
1F
100
AcDbEntity
  8
0
  6
Continuous
 62
     7
370
    25
100
AcDbLine
 10
428.9701919434
 20
552.889498938
 30
0.0
 11
428.9701919434
 21
548.8134800085
 31
0.0
  0
LINE
  5
26A
330
1F
100
AcDbEntity
  8
0
  6
Continuous
 62
     7
370
    25
100
AcDbLine
 10
428.9624582407
 20
558.8134779224
 30
0.0
 11
428.9624582407
 21
552.889498938
 31
0.0
  0
LINE
  5
26B
330
1F
100
AcDbEntity
  8
0
  6
Continuous
 62
     7
370
    25
100
AcDbLine
 10
428.9701919434
 20
562.8895043024
 30
0.0
 11
428.9701919434
 21
558.8134779224
 31
0.0
  0
LINE
  5
26C
330
1F
100
AcDbEntity
  8
0
  6
Continuous
 62
     7
370
    25
100
AcDbLine
 10
428.9624582407
 20
568.8134758362
 30
0.0
 11
428.9624582407
 21
562.8895043024
 31
0.0
  0
LINE
  5
26D
330
1F
100
AcDbEntity
  8
0
  6
Continuous
 62
     7
370
    25
100
AcDbLine
 10
428.9701919434
 20
572.8895022163
 30
0.0
 11
428.9701919434
 21
568.8134758362
 31
0.0
  0
LINE
  5
26E
330
1F
100
AcDbEntity
  8
0
  6
Continuous
 62
     7
370
    25
100
AcDbLine
 10
428.9624582407
 20
578.81347375
 30
0.0
 11
428.9624582407
 21
572.8895022163
 31
0.0
  0
LINE
  5
26F
330
1F
100
AcDbEntity
  8
0
  6
Continuous
 62
     7
370
    25
100
AcDbLine
 10
428.9701919434
 20
582.8895001301
 30
0.0
 11
428.9701919434
 21
578.81347375
 31
0.0
  0
LINE
  5
270
330
1F
100
AcDbEntity
  8
0
  6
Continuous
 62
     7
370
    25
100
AcDbLine
 10
428.9624582407
 20
588.8134791144
 30
0.0
 11
428.9624582407
 21
582.8895001301
 31
0.0
  0
LINE
  5
271
330
1F
100
AcDbEntity
  8
0
  6
Continuous
 62
     7
370
    25
100
AcDbLine
 10
428.9701919434
 20
592.8895054945
 30
0.0
 11
428.9701919434
 21
588.8134791144
 31
0.0
  0
LINE
  5
272
330
1F
100
AcDbEntity
  8
0
  6
Continuous
 62
     7
370
    25
100
AcDbLine
 10
428.9624582407
 20
598.8134770283
 30
0.0
 11
428.9624582407
 21
592.8895054945
 31
0.0
  0
LINE
  5
273
330
1F
100
AcDbEntity
  8
0
  6
Continuous
 62
     7
370
    25
100
AcDbLine
 10
428.9701919434
 20
614.4765830227
 30
0.0
 11
428.9701919434
 21
598.8134770283
 31
0.0
  0
LINE
  5
274
330
1F
100
AcDbEntity
  8
0
  6
Continuous
 62
     7
370
    25
100
AcDbLine
 10
428.9701919434
 20
492.8894965538
 30
0.0
 11
428.9701919434
 21
477.2263942846
 31
0.0
  0
LINE
  5
275
330
1F
100
AcDbEntity
  8
0
  6
Continuous
 62
     7
370
    25
100
AcDbLine
 10
574.5751451132
 20
598.8134770283
 30
0.0
 11
574.5751451132
 21
614.4765830227
 31
0.0
  0
LINE
  5
276
330
1F
100
AcDbEntity
  8
0
  6
Continuous
 62
     7
370
    25
100
AcDbLine
 10
574.5828788159
 20
592.8895054945
 30
0.0
 11
574.5828788159
 21
598.8134770283
 31
0.0
  0
LINE
  5
277
330
1F
100
AcDbEntity
  8
0
  6
Continuous
 62
     7
370
    25
100
AcDbLine
 10
574.5751451132
 20
588.8134791144
 30
0.0
 11
574.5751451132
 21
592.8895054945
 31
0.0
  0
LINE
  5
278
330
1F
100
AcDbEntity
  8
0
  6
Continuous
 62
     7
370
    25
100
AcDbLine
 10
574.5828788159
 20
582.8895001301
 30
0.0
 11
574.5828788159
 21
588.8134791144
 31
0.0
  0
LINE
  5
279
330
1F
100
AcDbEntity
  8
0
  6
Continuous
 62
     7
370
    25
100
AcDbLine
 10
574.5751451132
 20
578.81347375
 30
0.0
 11
574.5751451132
 21
582.8895001301
 31
0.0
  0
LINE
  5
27A
330
1F
100
AcDbEntity
  8
0
  6
Continuous
 62
     7
370
    25
100
AcDbLine
 10
574.5828788159
 20
572.8895022163
 30
0.0
 11
574.5828788159
 21
578.81347375
 31
0.0
  0
LINE
  5
27B
330
1F
100
AcDbEntity
  8
0
  6
Continuous
 62
     7
370
    25
100
AcDbLine
 10
574.5751451132
 20
568.8134758362
 30
0.0
 11
574.5751451132
 21
572.8895022163
 31
0.0
  0
LINE
  5
27C
330
1F
100
AcDbEntity
  8
0
  6
Continuous
 62
     7
370
    25
100
AcDbLine
 10
574.5828788159
 20
562.8895043024
 30
0.0
 11
574.5828788159
 21
568.8134758362
 31
0.0
  0
LINE
  5
27D
330
1F
100
AcDbEntity
  8
0
  6
Continuous
 62
     7
370
    25
100
AcDbLine
 10
574.5751451132
 20
558.8134779224
 30
0.0
 11
574.5751451132
 21
562.8895043024
 31
0.0
  0
LINE
  5
27E
330
1F
100
AcDbEntity
  8
0
  6
Continuous
 62
     7
370
    25
100
AcDbLine
 10
574.5828788159
 20
552.889498938
 30
0.0
 11
574.5828788159
 21
558.8134779224
 31
0.0
  0
LINE
  5
27F
330
1F
100
AcDbEntity
  8
0
  6
Continuous
 62
     7
370
    25
100
AcDbLine
 10
574.5751451132
 20
548.8134800085
 30
0.0
 11
574.5751451132
 21
552.889498938
 31
0.0
  0
LINE
  5
280
330
1F
100
AcDbEntity
  8
0
  6
Continuous
 62
     7
370
    25
100
AcDbLine
 10
574.5751451132
 20
542.8895084747
 30
0.0
 11
574.5751451132
 21
548.8134800085
 31
0.0
  0
LINE
  5
281
330
1F
100
AcDbEntity
  8
0
  6
Continuous
 62
     7
370
    25
100
AcDbLine
 10
574.5751451132
 20
538.8134746441
 30
0.0
 11
574.5751451132
 21
542.8895084747
 31
0.0
  0
LINE
  5
282
330
1F
100
AcDbEntity
  8
0
  6
Continuous
 62
     7
370
    25
100
AcDbLine
 10
574.5751451132
 20
532.8895031103
 30
0.0
 11
574.5751451132
 21
538.8134746441
 31
0.0
  0
LINE
  5
283
330
1F
100
AcDbEntity
  8
0
  6
Continuous
 62
     7
370
    25
100
AcDbLine
 10
574.5751451132
 20
528.8134841808
 30
0.0
 11
574.5751451132
 21
532.8895031103
 31
0.0
  0
LINE
  5
284
330
1F
100
AcDbEntity
  8
0
  6
Continuous
 62
     7
370
    25
100
AcDbLine
 10
574.5751451132
 20
522.8894977459
 30
0.0
 11
574.5751451132
 21
528.8134841808
 31
0.0
  0
LINE
  5
285
330
1F
100
AcDbEntity
  8
0
  6
Continuous
 62
     7
370
    25
100
AcDbLine
 10
574.5751451132
 20
518.8134788164
 30
0.0
 11
574.5751451132
 21
522.8894977459
 31
0.0
  0
LINE
  5
286
330
1F
100
AcDbEntity
  8
0
  6
Continuous
 62
     7
370
    25
100
AcDbLine
 10
574.5751451132
 20
512.8895072826
 30
0.0
 11
574.5751451132
 21
518.8134788164
 31
0.0
  0
LINE
  5
287
330
1F
100
AcDbEntity
  8
0
  6
Continuous
 62
     7
370
    25
100
AcDbLine
 10
574.5751451132
 20
508.813473452
 30
0.0
 11
574.5751451132
 21
512.8895072826
 31
0.0
  0
LINE
  5
288
330
1F
100
AcDbEntity
  8
0
  6
Continuous
 62
     7
370
    25
100
AcDbLine
 10
574.5751451132
 20
502.8895019182
 30
0.0
 11
574.5751451132
 21
508.813473452
 31
0.0
  0
LINE
  5
289
330
1F
100
AcDbEntity
  8
0
  6
Continuous
 62
     7
370
    25
100
AcDbLine
 10
574.5751451132
 20
498.8134829887
 30
0.0
 11
574.5751451132
 21
502.8895019182
 31
0.0
  0
LINE
  5
28A
330
1F
100
AcDbEntity
  8
0
  6
Continuous
 62
     7
370
    25
100
AcDbLine
 10
574.5751451132
 20
492.8894965538
 30
0.0
 11
574.5751451132
 21
498.8134829887
 31
0.0
  0
LINE
  5
28B
330
1F
100
AcDbEntity
  8
0
  6
Continuous
 62
     7
370
    25
100
AcDbLine
 10
574.5751451132
 20
477.2263942846
 30
0.0
 11
574.5751451132
 21
492.8894965538
 31
0.0
  0
ELLIPSE
  5
28C
330
1F
100
AcDbEntity
  8
0
  6
Continuous
 62
     7
370
    25
100
AcDbEllipse
 10
574.6669425199
 20
615.8520348725
 30
0.0
 11
10.76933602837778
 21
0.0
 31
0.0
210
0.0
220
0.0
230
1.0
 40
0.0349207695
 41
4.704589431615545
 42
6.267808266665559
  0
ELLIPSE
  5
28D
330
1F
100
AcDbEntity
  8
0
  6
Continuous
 62
     7
370
    25
100
AcDbEllipse
 10
506.8642265423
 20
615.1011250075
 30
0.0
 11
10.70000000000005
 21
0.0
 31
0.0
210
0.0
220
0.0
230
1.0
 40
0.0349207695
 41
1.319381210025995
 42
1.570796326794897
  0
LINE
  5
28E
330
1F
100
AcDbEntity
  8
0
  6
Continuous
 62
     7
370
    25
100
AcDbLine
 10
496.6811117147
 20
615.4747782835
 30
0.0
 11
506.8642267388
 21
615.4747782835
 31
0.0
  0
ELLIPSE
  5
28F
330
1F
100
AcDbEntity
  8
0
  6
Continuous
 62
     7
370
    25
100
AcDbEllipse
 10
496.6811117409
 20
615.1011250075
 30
0.0
 11
10.70000000000005
 21
0.0
 31
0.0
210
0.0
220
0.0
230
1.0
 40
0.0349207695
 41
1.570796326794897
 42
1.822211443563798
  0
ELLIPSE
  5
290
330
1F
100
AcDbEntity
  8
0
  6
Continuous
 62
     7
370
    25
100
AcDbEllipse
 10
428.8783957633
 20
615.8520348725
 30
0.0
 11
10.76933602837772
 21
1.136868377216160E-13
 31
0.0
210
0.0
220
0.0
230
1.0
 40
0.0349207695
 41
3.156969694103403
 42
4.720188529153776
  0
LINE
  5
291
330
1F
100
AcDbEntity
  8
0
  6
Continuous
 62
     7
370
    25
100
AcDbLine
 10
418.1103299734
 20
615.8462530562
 30
0.0
 11
585.4350070832
 21
615.8462530562
 31
0.0
  0
ELLIPSE
  5
292
330
1F
100
AcDbEntity
  8
0
  6
Continuous
 62
     7
370
    25
100
AcDbEllipse
 10
428.8783957633
 20
475.8509457642
 30
0.0
 11
10.76933602837778
 21
5.684341886080801E-14
 31
0.0
210
0.0
220
0.0
230
1.0
 40
0.0349207695
 41
1.56299677802583
 42
3.12621561307476
  0
ELLIPSE
  5
293
330
1F
100
AcDbEntity
  8
0
  6
Continuous
 62
     7
370
    25
100
AcDbEllipse
 10
496.6811117409
 20
476.6018556291
 30
0.0
 11
10.69999999999993
 21
0.0
 31
0.0
210
0.0
220
0.0
230
1.0
 40
0.0349207695
 41
4.460973863616077
 42
4.71238898038469
  0
LINE
  5
294
330
1F
100
AcDbEntity
  8
0
  6
Continuous
 62
     7
370
    25
100
AcDbLine
 10
506.8642267388
 20
476.2282101997
 30
0.0
 11
496.6811117147
 21
476.2282101997
 31
0.0
  0
ELLIPSE
  5
295
330
1F
100
AcDbEntity
  8
0
  6
Continuous
 62
     7
370
    25
100
AcDbEllipse
 10
506.8642265423
 20
476.6018556291
 30
0.0
 11
10.70000000000005
 21
0.0
 31
0.0
210
0.0
220
0.0
230
1.0
 40
0.0349207695
 41
4.71238898038469
 42
4.963804097153351
  0
ELLIPSE
  5
296
330
1F
100
AcDbEntity
  8
0
  6
Continuous
 62
     7
370
    25
100
AcDbEllipse
 10
574.6669425199
 20
475.8509457642
 30
0.0
 11
10.76933602837789
 21
0.0
 31
0.0
210
0.0
220
0.0
230
1.0
 40
0.0349207695
 41
0.0153770405150277
 42
1.578595875564027
  0
LINE
  5
297
330
1F
100
AcDbEntity
  8
0
  6
Continuous
 62
     7
370
    25
100
AcDbLine
 10
585.4350070832
 20
475.8567242512
 30
0.0
 11
418.1103299734
 21
475.8567242512
 31
0.0
  0
ELLIPSE
  5
298
330
1F
100
AcDbEntity
  8
0
  6
Continuous
 62
     7
370
    25
100
AcDbEllipse
 10
496.6811117409
 20
614.1017341805
 30
0.0
 11
9.700000000000045
 21
0.0
 31
0.0
210
0.0
220
0.0
230
1.0
 40
0.0385208488
 41
1.570796326794897
 42
1.822211443563494
  0
LINE
  5
299
330
1F
100
AcDbEntity
  8
0
  6
Continuous
 62
     7
370
    25
100
AcDbLine
 10
496.6811117147
 20
614.4753872046
 30
0.0
 11
496.6811117147
 21
615.4747782835
 31
0.0
  0
ELLIPSE
  5
29A
330
1F
100
AcDbEntity
  8
0
  6
Continuous
 62
     7
370
    25
100
AcDbEllipse
 10
506.8642265423
 20
477.6012464562
 30
0.0
 11
9.700000000000045
 21
0.0
 31
0.0
210
0.0
220
0.0
230
1.0
 40
0.0385208488
 41
4.71238898038469
 42
4.963804097153242
  0
LINE
  5
29B
330
1F
100
AcDbEntity
  8
0
  6
Continuous
 62
     7
370
    25
100
AcDbLine
 10
506.8642267388
 20
477.2276012787
 30
0.0
 11
506.8642267388
 21
476.2282101997
 31
0.0
  0
ELLIPSE
  5
29C
330
1F
100
AcDbEntity
  8
0
  6
Continuous
 62
     7
370
    25
100
AcDbEllipse
 10
496.6811117409
 20
477.6012464562
 30
0.0
 11
9.699999999999932
 21
0.0
 31
0.0
210
0.0
220
0.0
230
1.0
 40
0.0385208488
 41
4.460973863616182
 42
4.71238898038469
  0
LINE
  5
29D
330
1F
100
AcDbEntity
  8
0
  6
Continuous
 62
     7
370
    25
100
AcDbLine
 10
496.6811117147
 20
477.2276012787
 30
0.0
 11
496.6811117147
 21
476.2282101997
 31
0.0
  0
ELLIPSE
  5
29E
330
1F
100
AcDbEntity
  8
0
  6
Continuous
 62
     7
370
    25
100
AcDbEllipse
 10
506.8642265423
 20
614.1017341805
 30
0.0
 11
9.700000000000045
 21
0.0
 31
0.0
210
0.0
220
0.0
230
1.0
 40
0.0385208488
 41
1.319381210026293
 42
1.570796326794897
  0
LINE
  5
29F
330
1F
100
AcDbEntity
  8
0
  6
Continuous
 62
     7
370
    25
100
AcDbLine
 10
506.8642267388
 20
614.4753872046
 30
0.0
 11
506.8642267388
 21
615.4747782835
 31
0.0
  0
LINE
  5
2A0
330
1F
100
AcDbEntity
  8
0
  6
Continuous
 62
     7
370
    25
100
AcDbLine
 10
496.6811117147
 20
606.179359425
 30
0.0
 11
496.6811117147
 21
614.4753872046
 31
0.0
  0
ELLIPSE
  5
2A1
330
1F
100
AcDbEntity
  8
0
  6
Continuous
 62
     7
370
    25
100
AcDbEllipse
 10
496.6811117409
 20
605.8406275927
 30
0.0
 11
9.699999999999989
 21
0.0
 31
0.0
210
0.0
220
0.0
230
1.0
 40
0.0349207695
 41
1.570796326794897
 42
1.822211443563722
  0
LINE
  5
2A2
330
1F
100
AcDbEntity
  8
0
  6
Continuous
 62
     7
370
    25
100
AcDbLine
 10
496.6811117147
 20
477.2276012787
 30
0.0
 11
496.6811117147
 21
485.5236141571
 31
0.0
  0
ELLIPSE
  5
2A3
330
1F
100
AcDbEntity
  8
0
  6
Continuous
 62
     7
370
    25
100
AcDbEllipse
 10
496.6811117409
 20
485.862353044
 30
0.0
 11
9.699999999999989
 21
0.0
 31
0.0
210
0.0
220
0.0
230
1.0
 40
0.0349207695
 41
4.460973863615894
 42
4.71238898038469
  0
LINE
  5
2A4
330
1F
100
AcDbEntity
  8
0
  6
Continuous
 62
     7
370
    25
100
AcDbLine
 10
506.8642267388
 20
614.4753872046
 30
0.0
 11
506.8642267388
 21
606.179359425
 31
0.0
  0
ELLIPSE
  5
2A5
330
1F
100
AcDbEntity
  8
0
  6
Continuous
 62
     7
370
    25
100
AcDbEllipse
 10
506.8642265423
 20
605.8406275927
 30
0.0
 11
9.699999999999932
 21
0.0
 31
0.0
210
0.0
220
0.0
230
1.0
 40
0.0349207695
 41
1.31938121002608
 42
1.570796326794897
  0
LINE
  5
2A6
330
1F
100
AcDbEntity
  8
0
  6
Continuous
 62
     7
370
    25
100
AcDbLine
 10
506.8642267388
 20
485.5236141571
 30
0.0
 11
506.8642267388
 21
477.2276012787
 31
0.0
  0
ELLIPSE
  5
2A7
330
1F
100
AcDbEntity
  8
0
  6
Continuous
 62
     7
370
    25
100
AcDbEllipse
 10
506.8642265423
 20
485.862353044
 30
0.0
 11
9.699999999999932
 21
0.0
 31
0.0
210
0.0
220
0.0
230
1.0
 40
0.0349207695
 41
4.71238898038469
 42
4.963804097153542
  0
LINE
  5
2A8
330
1F
100
AcDbEntity
  8
0
  6
Continuous
 62
     7
370
    25
100
AcDbLine
 10
428.9547319886
 20
548.8134800085
 30
0.0
 11
428.9547319886
 21
542.8895084747
 31
0.0
  0
ELLIPSE
  5
2A9
330
1F
100
AcDbEntity
  8
0
  6
Continuous
 62
     7
370
    25
100
AcDbEllipse
 10
428.8783957633
 20
614.8526440454
 30
0.0
 11
11.76933602837772
 21
-1.136868377216160E-13
 31
0.0
210
0.0
220
0.0
230
1.0
 40
0.0319536718
 41
3.158628719603194
 42
4.720188529153766
  0
LINE
  5
2AA
330
1F
100
AcDbEntity
  8
0
  6
Continuous
 62
     7
370
    25
100
AcDbLine
 10
428.9547319886
 20
538.8134746441
 30
0.0
 11
428.9547319886
 21
532.8895031103
 31
0.0
  0
LINE
  5
2AB
330
1F
100
AcDbEntity
  8
0
  6
Continuous
 62
     7
370
    25
100
AcDbLine
 10
428.9547319886
 20
522.8894977459
 30
0.0
 11
428.9547319886
 21
528.8134841808
 31
0.0
  0
LINE
  5
2AC
330
1F
100
AcDbEntity
  8
0
  6
Continuous
 62
     7
370
    25
100
AcDbLine
 10
428.9547319886
 20
512.8895072826
 30
0.0
 11
428.9547319886
 21
518.8134788164
 31
0.0
  0
LINE
  5
2AD
330
1F
100
AcDbEntity
  8
0
  6
Continuous
 62
     7
370
    25
100
AcDbLine
 10
428.9547319886
 20
502.8895019182
 30
0.0
 11
428.9547319886
 21
508.813473452
 31
0.0
  0
LINE
  5
2AE
330
1F
100
AcDbEntity
  8
0
  6
Continuous
 62
     7
370
    25
100
AcDbLine
 10
428.9547319886
 20
492.8894965538
 30
0.0
 11
428.9547319886
 21
498.8134829887
 31
0.0
  0
ELLIPSE
  5
2AF
330
1F
100
AcDbEntity
  8
0
  6
Continuous
 62
     7
370
    25
100
AcDbEllipse
 10
428.8783957633
 20
476.8503365912
 30
0.0
 11
11.76933602837778
 21
-5.684341886080801E-14
 31
0.0
210
0.0
220
0.0
230
1.0
 40
0.0319536718
 41
1.562996778025817
 42
3.124556587577135
  0
LINE
  5
2B0
330
1F
100
AcDbEntity
  8
0
  6
Continuous
 62
     7
370
    25
100
AcDbLine
 10
417.1107675311
 20
614.8462361285
 30
0.0
 11
417.1107675311
 21
476.8567411789
 31
0.0
  0
LINE
  5
2B1
330
1F
100
AcDbEntity
  8
0
  6
Continuous
 62
     7
370
    25
100
AcDbLine
 10
574.5906125185
 20
508.813473452
 30
0.0
 11
574.5906125185
 21
502.8895019182
 31
0.0
  0
LINE
  5
2B2
330
1F
100
AcDbEntity
  8
0
  6
Continuous
 62
     7
370
    25
100
AcDbLine
 10
574.5906125185
 20
498.8134829887
 30
0.0
 11
574.5906125185
 21
492.8894965538
 31
0.0
  0
LINE
  5
2B3
330
1F
100
AcDbEntity
  8
0
  6
Continuous
 62
     7
370
    25
100
AcDbLine
 10
574.5906125185
 20
518.8134788164
 30
0.0
 11
574.5906125185
 21
512.8895072826
 31
0.0
  0
LINE
  5
2B4
330
1F
100
AcDbEntity
  8
0
  6
Continuous
 62
     7
370
    25
100
AcDbLine
 10
574.5906125185
 20
528.8134841808
 30
0.0
 11
574.5906125185
 21
522.8894977459
 31
0.0
  0
LINE
  5
2B5
330
1F
100
AcDbEntity
  8
0
  6
Continuous
 62
     7
370
    25
100
AcDbLine
 10
574.5906125185
 20
532.8895031103
 30
0.0
 11
574.5906125185
 21
538.8134746441
 31
0.0
  0
LINE
  5
2B6
330
1F
100
AcDbEntity
  8
0
  6
Continuous
 62
     7
370
    25
100
AcDbLine
 10
574.5906125185
 20
542.8895084747
 30
0.0
 11
574.5906125185
 21
548.8134800085
 31
0.0
  0
ELLIPSE
  5
2B7
330
1F
100
AcDbEntity
  8
0
  6
Continuous
 62
     7
370
    25
100
AcDbEllipse
 10
574.6669425199
 20
614.8526440454
 30
0.0
 11
11.76933602837778
 21
1.136868377216160E-13
 31
0.0
210
0.0
220
0.0
230
1.0
 40
0.0319536718
 41
4.704589431615538
 42
6.266149241167072
  0
LINE
  5
2B8
330
1F
100
AcDbEntity
  8
0
  6
Continuous
 62
     7
370
    25
100
AcDbLine
 10
586.4345695255
 20
476.8567411789
 30
0.0
 11
586.4345695255
 21
614.8462361285
 31
0.0
  0
ELLIPSE
  5
2B9
330
1F
100
AcDbEntity
  8
0
  6
Continuous
 62
     7
370
    25
100
AcDbEllipse
 10
574.6669425199
 20
476.8503365912
 30
0.0
 11
11.76933602837789
 21
5.684341886080801E-14
 31
0.0
210
0.0
220
0.0
230
1.0
 40
0.0319536718
 41
0.0170360660128075
 42
1.578595875564029
  0
LINE
  5
2BA
330
1F
100
AcDbEntity
  8
0
  6
Continuous
 62
     7
370
    25
100
AcDbLine
 10
506.8642267388
 20
614.4753872046
 30
0.0
 11
496.6811117147
 21
614.4753872046
 31
0.0
  0
LINE
  5
2BB
330
1F
100
AcDbEntity
  8
0
  6
Continuous
 62
     7
370
    25
100
AcDbLine
 10
496.6811117147
 20
477.2276012787
 30
0.0
 11
506.8642267388
 21
477.2276012787
 31
0.0
  0
LINE
  5
2BC
330
1F
100
AcDbEntity
  8
0
  6
Continuous
 62
     7
370
    25
100
AcDbLine
 10
496.6811117147
 20
485.5236141571
 30
0.0
 11
506.8642267388
 21
485.5236141571
 31
0.0
  0
LINE
  5
2BD
330
1F
100
AcDbEntity
  8
0
  6
Continuous
 62
     7
370
    25
100
AcDbLine
 10
506.8642267388
 20
606.179359425
 30
0.0
 11
496.6811117147
 21
606.179359425
 31
0.0
  0
SPLINE
  5
2BE
330
1F
100
AcDbEntity
  8
0
  6
Continuous
 62
     7
370
    25
100
AcDbSpline
210
0.0
220
0.0
230
1.0
 70
     8
 71
     3
 72
    12
 73
     8
 74
     0
 42
0.000000001
 43
0.00000001
 40
0.0
 40
0.0
 40
0.0
 40
0.0
 40
0.2148357018554876
 40
0.4296819767594256
 40
0.6444252747096764
 40
0.85905349157088
 40
1.0
 40
1.0
 40
1.0
 40
1.0
 10
586.4345695254588
 20
476.8567411789016
 30
0.0
 10
586.4235171364998
 20
476.744264030622
 30
0.0
 10
586.4014118146431
 20
476.5193041985474
 30
0.0
 10
586.2289448605943
 20
476.2195199773536
 30
0.0
 10
585.975151554683
 20
475.9933961877993
 30
0.0
 10
585.6941370168906
 20
475.8737492467727
 30
0.0
 10
585.508565789026
 20
475.8615571032773
 30
0.0
 10
585.435007083156
 20
475.8567242511825
 30
0.0
  0
SPLINE
  5
2BF
330
1F
100
AcDbEntity
  8
0
  6
Continuous
 62
     7
370
    25
100
AcDbSpline
210
0.0
220
0.0
230
1.0
 70
     8
 71
     3
 72
    12
 73
     8
 74
     0
 42
0.000000001
 43
0.00000001
 40
0.0
 40
0.0
 40
0.0
 40
0.0
 40
0.214600569214125
 40
0.4291959704878245
 40
0.643787172136388
 40
0.8584358565854676
 40
0.9999999999999999
 40
0.9999999999999999
 40
0.9999999999999999
 40
0.9999999999999999
 10
418.1103299734378
 20
475.8567242511825
 30
0.0
 10
417.9979770819897
 20
475.8677748064121
 30
0.0
 10
417.7732740047391
 20
475.8898756507552
 30
0.0
 10
417.4737837185727
 20
476.0621594999756
 30
0.0
 10
417.2477708883018
 20
476.3157681821435
 30
0.0
 10
417.1278683993634
 20
476.5969487803083
 30
0.0
 10
417.115630893448
 20
476.7828581138052
 30
0.0
 10
417.1107675311351
 20
476.8567411789016
 30
0.0
  0
SPLINE
  5
2C0
330
1F
100
AcDbEntity
  8
0
  6
Continuous
 62
     7
370
    25
100
AcDbSpline
210
0.0
220
0.0
230
1.0
 70
     8
 71
     3
 72
    12
 73
     8
 74
     0
 42
0.000000001
 43
0.00000001
 40
0.0
 40
0.0
 40
0.0
 40
0.0
 40
0.2145986104280687
 40
0.4291967172699179
 40
0.6437818218152569
 40
0.8584363571857846
 40
1.0
 40
1.0
 40
1.0
 40
1.0
 10
585.435007083156
 20
615.8462530562
 30
0.0
 10
585.5473608139121
 20
615.8352081777915
 30
0.0
 10
585.7720680117703
 20
615.8131184468928
 30
0.0
 10
586.071545545064
 20
615.6408148482311
 30
0.0
 10
586.297573597755
 20
615.3872185999501
 30
0.0
 10
586.4174669270274
 20
615.1060310998774
 30
0.0
 10
586.429705735675
 20
614.9201189441728
 30
0.0
 10
586.4345695254588
 20
614.8462361284809
 30
0.0
  0
SPLINE
  5
2C1
330
1F
100
AcDbEntity
  8
0
  6
Continuous
 62
     7
370
    25
100
AcDbSpline
210
0.0
220
0.0
230
1.0
 70
     8
 71
     3
 72
    12
 73
     8
 74
     0
 42
0.000000001
 43
0.00000001
 40
0.0
 40
0.0
 40
0.0
 40
0.0
 40
0.2148407649720916
 40
0.4296842962946459
 40
0.6444271605658571
 40
0.8590540389192799
 40
1.0
 40
1.0
 40
1.0
 40
1.0
 10
417.1107675311351
 20
614.8462361284809
 30
0.0
 10
417.1218232409423
 20
614.9587154220417
 30
0.0
 10
417.1439348029131
 20
615.1836754574784
 30
0.0
 10
417.3163905574761
 20
615.483466696645
 30
0.0
 10
417.5701854021117
 20
615.709588654084
 30
0.0
 10
417.8512003630748
 20
615.8292327649882
 30
0.0
 10
418.0367712845438
 20
615.8414215346137
 30
0.0
 10
418.1103299734378
 20
615.8462530562
 30
0.0
  0
LINE
  5
2C2
330
1F
100
AcDbEntity
  8
0
  6
Continuous
 62
     7
370
    25
100
AcDbLine
 10
502.3280026172
 20
615.8462530562
 30
0.0
 11
502.3280026172
 21
616.6067300924
 31
0.0
  0
LINE
  5
2C3
330
1F
100
AcDbEntity
  8
0
  6
Continuous
 62
     7
370
    25
100
AcDbLine
 10
498.341759284
 20
630.1787188837
 30
0.0
 11
506.0408318778
 21
630.1787188837
 31
0.0
  0
LINE
  5
2C4
330
1F
100
AcDbEntity
  8
0
  6
Continuous
 62
     7
370
    25
100
AcDbLine
 10
498.2100753942
 20
630.1787188837
 30
0.0
 11
498.341759284
 21
630.1787188837
 31
0.0
  0
LINE
  5
2C5
330
1F
100
AcDbEntity
  8
0
  6
Continuous
 62
     7
370
    25
100
AcDbLine
 10
498.2091480297
 20
630.1787188837
 30
0.0
 11
498.2100753942
 21
630.1787188837
 31
0.0
  0
LINE
  5
2C6
330
1F
100
AcDbEntity
  8
0
  6
Continuous
 62
     7
370
    25
100
AcDbLine
 10
498.341759284
 20
475.1787214169
 30
0.0
 11
504.4910878306
 21
475.1787214169
 31
0.0
  0
LINE
  5
2C7
330
1F
100
AcDbEntity
  8
0
  6
Continuous
 62
     7
370
    25
100
AcDbLine
 10
498.2100753942
 20
475.1787214169
 30
0.0
 11
498.341759284
 21
475.1787214169
 31
0.0
  0
LINE
  5
2C8
330
1F
100
AcDbEntity
  8
0
  6
Continuous
 62
     7
370
    25
100
AcDbLine
 10
498.2091480297
 20
475.1787214169
 30
0.0
 11
498.2100753942
 21
475.1787214169
 31
0.0
  0
LINE
  5
2C9
330
1F
100
AcDbEntity
  8
0
  6
Continuous
 62
     7
370
    25
100
AcDbLine
 10
460.3025357601
 20
266.5748475679
 30
0.0
 11
456.8331691799
 21
268.6477182993
 31
0.0
  0
LINE
  5
2CA
330
1F
100
AcDbEntity
  8
0
  6
Continuous
 62
     7
370
    25
100
AcDbLine
 10
453.3033187864
 20
266.6796027311
 30
0.0
 11
453.2428312478
 21
262.6386164316
 31
0.0
  0
LINE
  5
2CB
330
1F
100
AcDbEntity
  8
0
  6
Continuous
 62
     7
370
    25
100
AcDbLine
 10
453.2428312478
 20
262.6386164316
 30
0.0
 11
456.712197828
 21
260.5657158979
 31
0.0
  0
LINE
  5
2CC
330
1F
100
AcDbEntity
  8
0
  6
Continuous
 62
     7
370
    25
100
AcDbLine
 10
456.712197828
 20
260.5657158979
 30
0.0
 11
460.2420482216
 21
262.5338314661
 31
0.0
  0
CIRCLE
  5
2CD
330
1F
100
AcDbEntity
  8
0
  6
Continuous
 62
     7
370
    25
100
AcDbCircle
 10
456.7726834295
 20
264.6067284235
 30
0.0
 40
7.999999999999985
  0
LINE
  5
2CE
330
1F
100
AcDbEntity
  8
0
  6
Continuous
 62
     7
370
    25
100
AcDbLine
 10
456.8331691799
 20
268.6477182993
 30
0.0
 11
453.3033187864
 21
266.6796027311
 31
0.0
  0
LINE
  5
2CF
330
1F
100
AcDbEntity
  8
0
  6
Continuous
 62
     7
370
    25
100
AcDbLine
 10
460.2420482216
 20
262.5338314661
 30
0.0
 11
460.3025357601
 21
266.5748475679
 31
0.0
  0
CIRCLE
  5
2D0
330
1F
100
AcDbEntity
  8
0
  6
Continuous
 62
     7
370
    25
100
AcDbCircle
 10
546.7726834295
 20
264.6067284235
 30
0.0
 40
7.999999999999928
  0
LINE
  5
2D1
330
1F
100
AcDbEntity
  8
0
  6
Continuous
 62
     7
370
    25
100
AcDbLine
 10
546.712197679
 20
260.5657158979
 30
0.0
 11
550.2420480726
 21
262.5338314661
 31
0.0
  0
LINE
  5
2D2
330
1F
100
AcDbEntity
  8
0
  6
Continuous
 62
     7
370
    25
100
AcDbLine
 10
550.2420480726
 20
262.5338314661
 30
0.0
 11
550.3025356111
 21
266.5748475679
 31
0.0
  0
LINE
  5
2D3
330
1F
100
AcDbEntity
  8
0
  6
Continuous
 62
     7
370
    25
100
AcDbLine
 10
546.8331690309
 20
268.6477182993
 30
0.0
 11
543.3033186373
 21
266.6796027311
 31
0.0
  0
LINE
  5
2D4
330
1F
100
AcDbEntity
  8
0
  6
Continuous
 62
     7
370
    25
100
AcDbLine
 10
543.2428310988
 20
262.6386164316
 30
0.0
 11
546.712197679
 21
260.5657158979
 31
0.0
  0
LINE
  5
2D5
330
1F
100
AcDbEntity
  8
0
  6
Continuous
 62
     7
370
    25
100
AcDbLine
 10
550.3025356111
 20
266.5748475679
 30
0.0
 11
546.8331690309
 21
268.6477182993
 31
0.0
  0
LINE
  5
2D6
330
1F
100
AcDbEntity
  8
0
  6
Continuous
 62
     7
370
    25
100
AcDbLine
 10
543.3033186373
 20
266.6796027311
 30
0.0
 11
543.2428310988
 21
262.6386164316
 31
0.0
  0
LINE
  5
2D7
330
1F
100
AcDbEntity
  8
0
  6
Continuous
 62
     7
370
    25
100
AcDbLine
 10
409.7726832506
 20
824.606734384
 30
0.0
 11
409.7726832506
 21
821.6067283043
 31
0.0
  0
LINE
  5
2D8
330
1F
100
AcDbEntity
  8
0
  6
Continuous
 62
     7
370
    25
100
AcDbLine
 10
409.7726832506
 20
821.6067283043
 30
0.0
 11
407.7726866481
 21
821.6067283043
 31
0.0
  0
LINE
  5
2D9
330
1F
100
AcDbEntity
  8
0
  6
Continuous
 62
     7
370
    25
100
AcDbLine
 10
407.7726866481
 20
821.6067283043
 30
0.0
 11
407.7726866481
 21
824.606734384
 31
0.0
  0
LINE
  5
2DA
330
1F
100
AcDbEntity
  8
0
  6
Continuous
 62
     7
370
    25
100
AcDbLine
 10
407.7726866481
 20
824.606734384
 30
0.0
 11
409.7726832506
 21
824.606734384
 31
0.0
  0
LINE
  5
2DB
330
1F
100
AcDbEntity
  8
0
  6
Continuous
 62
     7
370
    25
100
AcDbLine
 10
593.7726836083
 20
821.6067283043
 30
0.0
 11
593.7726836083
 21
824.606734384
 31
0.0
  0
LINE
  5
2DC
330
1F
100
AcDbEntity
  8
0
  6
Continuous
 62
     7
370
    25
100
AcDbLine
 10
409.7726832506
 20
821.6067283043
 30
0.0
 11
593.7726836083
 21
821.6067283043
 31
0.0
  0
LINE
  5
2DD
330
1F
100
AcDbEntity
  8
0
  6
Continuous
 62
     7
370
    25
100
AcDbLine
 10
409.7726832506
 20
824.606734384
 30
0.0
 11
593.7726836083
 21
824.606734384
 31
0.0
  0
LINE
  5
2DE
330
1F
100
AcDbEntity
  8
0
  6
Continuous
 62
     7
370
    25
100
AcDbLine
 10
595.7726802108
 20
824.606734384
 30
0.0
 11
595.7726802108
 21
821.6067283043
 31
0.0
  0
LINE
  5
2DF
330
1F
100
AcDbEntity
  8
0
  6
Continuous
 62
     7
370
    25
100
AcDbLine
 10
595.7726802108
 20
821.6067283043
 30
0.0
 11
593.7726836083
 21
821.6067283043
 31
0.0
  0
LINE
  5
2E0
330
1F
100
AcDbEntity
  8
0
  6
Continuous
 62
     7
370
    25
100
AcDbLine
 10
593.7726836083
 20
824.606734384
 30
0.0
 11
595.7726802108
 21
824.606734384
 31
0.0
  0
LINE
  5
2E1
330
1F
100
AcDbEntity
  8
0
  6
Continuous
 62
     8
370
    25
100
AcDbLine
 10
583.4677483318
 20
771.6067312845
 30
0.0
 11
583.4677483318
 21
770.846250523
 31
0.0
  0
LINE
  5
2E2
330
1F
100
AcDbEntity
  8
0
  6
Continuous
 62
     8
370
    25
100
AcDbLine
 10
583.4677483318
 20
630.8462536522
 30
0.0
 11
583.4677483318
 21
630.1067276486
 31
0.0
  0
LINE
  5
2E3
330
1F
100
AcDbEntity
  8
0
  6
Continuous
 62
     8
370
    25
100
AcDbLine
 10
583.4677483318
 20
616.6067300924
 30
0.0
 11
583.4677483318
 21
615.8462530562
 31
0.0
  0
LINE
  5
2E4
330
1F
100
AcDbEntity
  8
0
  6
Continuous
 62
     8
370
    25
100
AcDbLine
 10
583.4677483318
 20
475.8462487349
 30
0.0
 11
583.4677483318
 21
475.1067339071
 31
0.0
  0
LINE
  5
2E5
330
1F
100
AcDbEntity
  8
0
  6
Continuous
 62
     8
370
    25
100
AcDbLine
 10
420.0776185272
 20
475.1067339071
 30
0.0
 11
420.0776185272
 21
475.8462487349
 31
0.0
  0
LINE
  5
2E6
330
1F
100
AcDbEntity
  8
0
  6
Continuous
 62
     8
370
    25
100
AcDbLine
 10
420.0776185272
 20
615.8462530562
 30
0.0
 11
420.0776185272
 21
616.6067300924
 31
0.0
  0
LINE
  5
2E7
330
1F
100
AcDbEntity
  8
0
  6
Continuous
 62
     8
370
    25
100
AcDbLine
 10
420.0776185272
 20
630.1067276486
 30
0.0
 11
420.0776185272
 21
630.8462536522
 31
0.0
  0
LINE
  5
2E8
330
1F
100
AcDbEntity
  8
0
  6
Continuous
 62
     8
370
    25
100
AcDbLine
 10
420.0776185272
 20
770.846250523
 30
0.0
 11
420.0776185272
 21
771.6067312845
 31
0.0
  0
LINE
  5
2E9
330
1F
100
AcDbEntity
  8
0
  6
Continuous
 62
     8
370
    25
100
AcDbLine
 10
532.142160776
 20
605.9323503265
 30
0.0
 11
532.2909805355
 21
605.9380202183
 31
0.0
  0
LINE
  5
2EA
330
1F
100
AcDbEntity
  8
0
  6
Continuous
 62
     8
370
    25
100
AcDbLine
 10
471.4369758395
 20
485.7613174805
 30
0.0
 11
471.2875563082
 21
485.7556252369
 31
0.0
  0
LINE
  5
2EB
330
1F
100
AcDbEntity
  8
0
  6
Continuous
 62
     8
370
    25
100
AcDbLine
 10
532.1087486473
 20
485.7614217886
 30
0.0
 11
532.2573262629
 21
485.7557593474
 31
0.0
  0
LINE
  5
2EC
330
1F
100
AcDbEntity
  8
0
  6
Continuous
 62
     8
370
    25
100
AcDbLine
 10
471.4035655734
 20
605.9324546346
 30
0.0
 11
471.2560533908
 21
605.9380798229
 31
0.0
  0
LINE
  5
2ED
330
1F
100
AcDbEntity
  8
0
  6
Continuous
 62
     8
370
    25
100
AcDbLine
 10
532.142160776
 20
760.9323515185
 30
0.0
 11
532.2909805355
 21
760.9380214104
 31
0.0
  0
LINE
  5
2EE
330
1F
100
AcDbEntity
  8
0
  6
Continuous
 62
     8
370
    25
100
AcDbLine
 10
471.4369758395
 20
640.7613223979
 30
0.0
 11
471.2875563082
 21
640.755626429
 31
0.0
  0
LINE
  5
2EF
330
1F
100
AcDbEntity
  8
0
  6
Continuous
 62
     8
370
    25
100
AcDbLine
 10
532.1087486473
 20
640.761426706
 30
0.0
 11
532.2573262629
 21
640.7557642647
 31
0.0
  0
LINE
  5
2F0
330
1F
100
AcDbEntity
  8
0
  6
Continuous
 62
     8
370
    25
100
AcDbLine
 10
471.4035655734
 20
760.9324558267
 30
0.0
 11
471.2560533908
 21
760.938081015
 31
0.0
  0
LINE
  5
2F1
330
1F
100
AcDbEntity
  8
0
  6
Continuous
 62
     8
370
    25
100
AcDbLine
 10
496.1977641461
 20
616.6067300924
 30
0.0
 11
496.1977641461
 21
615.8462530562
 31
0.0
  0
LINE
  5
2F2
330
1F
100
AcDbEntity
  8
0
  6
Continuous
 62
     8
370
    25
100
AcDbLine
 10
498.2697873739
 20
630.1067276486
 30
0.0
 11
498.341759284
 21
630.1787188837
 31
0.0
  0
LINE
  5
2F3
330
1F
100
AcDbEntity
  8
0
  6
Continuous
 62
     8
370
    25
100
AcDbLine
 10
496.0551064824
 20
616.6067300924
 30
0.0
 11
496.0551064824
 21
615.8462530562
 31
0.0
  0
LINE
  5
2F4
330
1F
100
AcDbEntity
  8
0
  6
Continuous
 62
     8
370
    25
100
AcDbLine
 10
498.2100753942
 20
630.1787188837
 30
0.0
 11
498.1381034841
 21
630.1067276486
 31
0.0
  0
LINE
  5
2F5
330
1F
100
AcDbEntity
  8
0
  6
Continuous
 62
     8
370
    25
100
AcDbLine
 10
498.2697873739
 20
475.1067339071
 30
0.0
 11
498.341759284
 21
475.1787214169
 31
0.0
  0
LINE
  5
2F6
330
1F
100
AcDbEntity
  8
0
  6
Continuous
 62
     8
370
    25
100
AcDbLine
 10
498.2100753942
 20
475.1787214169
 30
0.0
 11
498.1381034841
 21
475.1067339071
 31
0.0
  0
LINE
  5
2F7
330
1F
100
AcDbEntity
  8
0
  6
Continuous
 62
     7
370
    25
100
AcDbLine
 10
595.7726802108
 20
145.2297799987
 30
0.0
 11
596.7726822374
 21
145.2297799987
 31
0.0
  0
LINE
  5
2F8
330
1F
100
AcDbEntity
  8
0
  6
Continuous
 62
     7
370
    25
100
AcDbLine
 10
596.7726822374
 20
157.729780185
 30
0.0
 11
595.7726802108
 21
157.729780185
 31
0.0
  0
LINE
  5
2F9
330
1F
100
AcDbEntity
  8
0
  6
Continuous
 62
     7
370
    25
100
AcDbLine
 10
407.7726866481
 20
157.729780185
 30
0.0
 11
406.7726846216
 21
157.729780185
 31
0.0
  0
LINE
  5
2FA
330
1F
100
AcDbEntity
  8
0
  6
Continuous
 62
     7
370
    25
100
AcDbLine
 10
406.7726846216
 20
145.2297799987
 30
0.0
 11
407.7726866481
 21
145.2297799987
 31
0.0
  0
LINE
  5
2FB
330
1F
100
AcDbEntity
  8
0
  6
Continuous
 62
     7
370
    25
100
AcDbLine
 10
596.7726822374
 20
146.2297801626
 30
0.0
 11
597.5726808784
 21
146.2297801626
 31
0.0
  0
LINE
  5
2FC
330
1F
100
AcDbEntity
  8
0
  6
Continuous
 62
     7
370
    25
100
AcDbLine
 10
597.5726808784
 20
156.7297800211
 30
0.0
 11
596.7726822374
 21
156.7297800211
 31
0.0
  0
ARC
  5
2FD
330
1F
100
AcDbEntity
  8
0
  6
Continuous
 62
     7
370
    25
100
AcDbCircle
 10
596.0914844719
 20
150.2993407816
 30
0.0
 40
4.330736029719065
100
AcDbArc
 50
290.0
 51
336.8223913264
  0
ARC
  5
2FE
330
1F
100
AcDbEntity
  8
0
  6
Continuous
 62
     7
370
    25
100
AcDbCircle
 10
596.0914844719
 20
152.6602194022
 30
0.0
 40
4.330736029719148
100
AcDbArc
 50
23.1776086736
 51
70.0
  0
ARC
  5
2FF
330
1F
100
AcDbEntity
  8
0
  6
Continuous
 62
     7
370
    25
100
AcDbCircle
 10
407.453882387
 20
152.6602194022
 30
0.0
 40
4.330736029719073
100
AcDbArc
 50
110.0
 51
156.8223913264
  0
ARC
  5
300
330
1F
100
AcDbEntity
  8
0
  6
Continuous
 62
     7
370
    25
100
AcDbCircle
 10
407.453882387
 20
150.2993407816
 30
0.0
 40
4.330736029719092
100
AcDbArc
 50
203.1776086736
 51
250.0
  0
LINE
  5
301
330
1F
100
AcDbEntity
  8
0
  6
Continuous
 62
     7
370
    25
100
AcDbLine
 10
406.7726846216
 20
156.7297800211
 30
0.0
 11
405.9726859805
 21
156.7297800211
 31
0.0
  0
LINE
  5
302
330
1F
100
AcDbEntity
  8
0
  6
Continuous
 62
     7
370
    25
100
AcDbLine
 10
405.9726859805
 20
146.2297801626
 30
0.0
 11
406.7726846216
 21
146.2297801626
 31
0.0
  0
LINE
  5
303
330
1F
100
AcDbEntity
  8
0
  6
Continuous
 62
     7
370
    25
100
AcDbLine
 10
596.7726822374
 20
157.729780185
 30
0.0
 11
596.7726822374
 21
145.2297799987
 31
0.0
  0
LINE
  5
304
330
1F
100
AcDbEntity
  8
0
  6
Continuous
 62
     7
370
    25
100
AcDbLine
 10
406.7726846216
 20
152.4615839589
 30
0.0
 11
406.7726846216
 21
157.729780185
 31
0.0
  0
LINE
  5
305
330
1F
100
AcDbEntity
  8
0
  6
Continuous
 62
     7
370
    25
100
AcDbLine
 10
406.7726846216
 20
145.2297799987
 30
0.0
 11
406.7726846216
 21
152.4615839589
 31
0.0
  0
LINE
  5
306
330
1F
100
AcDbEntity
  8
0
  6
Continuous
 62
     7
370
    25
100
AcDbLine
 10
597.5726808784
 20
154.271315434
 30
0.0
 11
597.5726808784
 21
156.7297800211
 31
0.0
  0
LINE
  5
307
330
1F
100
AcDbEntity
  8
0
  6
Continuous
 62
     7
370
    25
100
AcDbLine
 10
597.5726808784
 20
146.2297801626
 30
0.0
 11
597.5726808784
 21
154.271315434
 31
0.0
  0
LINE
  5
308
330
1F
100
AcDbEntity
  8
0
  6
Continuous
 62
     7
370
    25
100
AcDbLine
 10
600.0726859448
 20
153.0137644149
 30
0.0
 11
600.0726859448
 21
154.3647221988
 31
0.0
  0
LINE
  5
309
330
1F
100
AcDbEntity
  8
0
  6
Continuous
 62
     7
370
    25
100
AcDbLine
 10
600.0726859448
 20
148.594837985
 30
0.0
 11
600.0726859448
 21
153.0137644149
 31
0.0
  0
LINE
  5
30A
330
1F
100
AcDbEntity
  8
0
  6
Continuous
 62
     7
370
    25
100
AcDbLine
 10
405.9726859805
 20
156.7297800211
 30
0.0
 11
405.9726859805
 21
146.2297801626
 31
0.0
  0
LINE
  5
30B
330
1F
100
AcDbEntity
  8
0
  6
Continuous
 62
     7
370
    25
100
AcDbLine
 10
403.4726809141
 20
154.3647221988
 30
0.0
 11
403.4726809141
 21
148.594837985
 31
0.0
  0
LWPOLYLINE
  5
30C
330
1F
100
AcDbEntity
  8
0
  6
Continuous
 62
     7
370
    25
100
AcDbPolyline
 90
        9
 70
   128
 43
0.0
 10
428.9701919434
 20
79.6001026174
 10
428.9699982283
 20
79.6184757491
 10
428.9695213911
 20
79.6729171415
 10
428.9687837837
 20
79.7614225884
 10
428.9678152082
 20
79.8807510873
 10
428.9666380164
 20
80.0265142461
 10
428.9653118131
 20
80.1933476468
 10
428.9638813016
 20
80.3751269122
 10
428.9623911855
 20
80.5651688715
  0
ARC
  5
30D
330
1F
100
AcDbEntity
  8
0
  6
Continuous
 62
     7
370
    25
100
AcDbCircle
 10
428.8783957633
 20
91.3690797662
 30
0.0
 40
11.76933602837784
100
AcDbArc
 50
184.3334414477
 51
270.4468812266
  0
ARC
  5
30E
330
1F
100
AcDbEntity
  8
0
  6
Continuous
 62
     7
370
    25
100
AcDbCircle
 10
574.6669425199
 20
91.3690797662
 30
0.0
 40
11.76933602837781
100
AcDbArc
 50
269.5531187734
 51
355.6665585523
  0
LWPOLYLINE
  5
30F
330
1F
100
AcDbEntity
  8
0
  6
Continuous
 62
     7
370
    25
100
AcDbPolyline
 90
        9
 70
   128
 43
0.0
 10
574.5751451132
 20
79.6001026174
 10
574.5753462789
 20
79.6184757491
 10
574.5758156655
 20
79.6729171415
 10
574.5765532729
 20
79.7614225884
 10
574.577529299
 20
79.8807510873
 10
574.5786990402
 20
80.0265142461
 10
574.5800252435
 20
80.1933476468
 10
574.581455755
 20
80.3751269122
 10
574.5829458711
 20
80.5651688715
  0
ARC
  5
310
330
1F
100
AcDbEntity
  8
0
  6
Continuous
 62
     7
370
    25
100
AcDbCircle
 10
573.5576573735
 20
-50.8872078434
 30
0.0
 40
131.4563780682929
100
AcDbArc
 50
89.5531187734
 51
107.8876148317
  0
ARC
  5
311
330
1F
100
AcDbEntity
  8
0
  6
Continuous
 62
     7
370
    25
100
AcDbCircle
 10
532.9964204006
 20
74.7856732557
 30
0.0
 40
0.5999999999999718
100
AcDbArc
 50
255.5949749034
 51
287.8876148317
  0
LINE
  5
312
330
1F
100
AcDbEntity
  8
0
  6
Continuous
 62
     7
370
    25
100
AcDbLine
 10
509.5261170891
 20
80.1945397397
 30
0.0
 11
532.8471552012
 21
74.2045337101
 31
0.0
  0
ARC
  5
313
330
1F
100
AcDbEntity
  8
0
  6
Continuous
 62
     7
370
    25
100
AcDbCircle
 10
506.8642265423
 20
69.8309351836
 30
0.0
 40
10.70000000000029
100
AcDbArc
 50
75.5949749034
 51
90.0
  0
LINE
  5
314
330
1F
100
AcDbEntity
  8
0
  6
Continuous
 62
     7
370
    25
100
AcDbLine
 10
496.6811117147
 20
80.5309334537
 30
0.0
 11
506.8642267388
 21
80.5309334537
 31
0.0
  0
ARC
  5
315
330
1F
100
AcDbEntity
  8
0
  6
Continuous
 62
     7
370
    25
100
AcDbCircle
 10
496.6811117409
 20
69.8309351836
 30
0.0
 40
10.70000000000008
100
AcDbArc
 50
90.0
 51
104.4050250966
  0
LINE
  5
316
330
1F
100
AcDbEntity
  8
0
  6
Continuous
 62
     7
370
    25
100
AcDbLine
 10
470.6981818554
 20
74.2045337101
 30
0.0
 11
494.0192208988
 21
80.1945397397
 31
0.0
  0
ARC
  5
317
330
1F
100
AcDbEntity
  8
0
  6
Continuous
 62
     7
370
    25
100
AcDbCircle
 10
470.5489178826
 20
74.7856732557
 30
0.0
 40
0.6000000000000203
100
AcDbArc
 50
252.1123851683
 51
284.4050250966
  0
ARC
  5
318
330
1F
100
AcDbEntity
  8
0
  6
Continuous
 62
     7
370
    25
100
AcDbCircle
 10
429.9876809096
 20
-50.8872078434
 30
0.0
 40
131.456378068293
100
AcDbArc
 50
72.1123851683
 51
90.4468812266
  0
ARC
  5
319
330
1F
100
AcDbEntity
  8
0
  6
Continuous
 62
     7
370
    25
100
AcDbCircle
 10
573.5576573735
 20
-50.8523083467
 30
0.0
 40
130.4563780682933
100
AcDbArc
 50
89.5531187734
 51
107.8876148317
  0
ARC
  5
31A
330
1F
100
AcDbEntity
  8
0
  6
Continuous
 62
     7
370
    25
100
AcDbCircle
 10
554.4685974367
 20
80.8371360812
 30
0.0
 40
22.29419533890234
100
AcDbArc
 50
197.2804281792
 51
199.7653945701
  0
ARC
  5
31B
330
1F
100
AcDbEntity
  8
0
  6
Continuous
 62
     7
370
    25
100
AcDbCircle
 10
429.9876809096
 20
-50.8523083467
 30
0.0
 40
130.4563780682933
100
AcDbArc
 50
72.1123851683
 51
90.4468812266
  0
ARC
  5
31C
330
1F
100
AcDbEntity
  8
0
  6
Continuous
 62
     7
370
    25
100
AcDbCircle
 10
449.0824448552
 20
80.835224599
 30
0.0
 40
22.28817982172793
100
AcDbArc
 50
340.2342700345
 51
342.7199072161
  0
ARC
  5
31D
330
1F
100
AcDbEntity
  8
0
  6
Continuous
 62
     7
370
    25
100
AcDbCircle
 10
506.8642265423
 20
69.8658346803
 30
0.0
 40
9.700000000000133
100
AcDbArc
 50
75.5949749034
 51
90.0
  0
LINE
  5
31E
330
1F
100
AcDbEntity
  8
0
  6
Continuous
 62
     7
370
    25
100
AcDbLine
 10
506.8642267388
 20
79.5658373972
 30
0.0
 11
506.8642267388
 21
80.5309334537
 31
0.0
  0
ARC
  5
31F
330
1F
100
AcDbEntity
  8
0
  6
Continuous
 62
     7
370
    25
100
AcDbCircle
 10
482.8420967243
 20
86.8045276704
 30
0.0
 40
27.4905235176162
100
AcDbArc
 50
344.0731961451
 51
346.0871316217
  0
ARC
  5
320
330
1F
100
AcDbEntity
  8
0
  6
Continuous
 62
     7
370
    25
100
AcDbCircle
 10
496.6811117409
 20
69.8658346803
 30
0.0
 40
9.700000000000063
100
AcDbArc
 50
90.0
 51
104.4050250966
  0
ARC
  5
321
330
1F
100
AcDbEntity
  8
0
  6
Continuous
 62
     7
370
    25
100
AcDbCircle
 10
520.7027129286
 20
86.8044000797
 30
0.0
 40
27.48998000401768
100
AcDbArc
 50
193.912875024
 51
195.9268505728
  0
LINE
  5
322
330
1F
100
AcDbEntity
  8
0
  6
Continuous
 62
     7
370
    25
100
AcDbLine
 10
496.6811117147
 20
79.5658373972
 30
0.0
 11
496.6811117147
 21
80.5309334537
 31
0.0
  0
LINE
  5
323
330
1F
100
AcDbEntity
  8
0
  6
Continuous
 62
     7
370
    25
100
AcDbLine
 10
506.8642267388
 20
79.5658373972
 30
0.0
 11
496.6811117147
 21
79.5658373972
 31
0.0
  0
LINE
  5
324
330
1F
100
AcDbEntity
  8
0
  6
Continuous
 62
     7
370
    25
100
AcDbLine
 10
532.598380315
 20
73.2708716532
 30
0.0
 11
509.2773426687
 21
79.2608776828
 31
0.0
  0
ARC
  5
325
330
1F
100
AcDbEntity
  8
0
  6
Continuous
 62
     7
370
    25
100
AcDbCircle
 10
506.1679991225
 20
80.813238733
 30
0.0
 40
27.48549346741775
100
AcDbArc
 50
344.0729850368
 51
346.0872893665
  0
LINE
  5
326
330
1F
100
AcDbEntity
  8
0
  6
Continuous
 62
     7
370
    25
100
AcDbLine
 10
494.2679957849
 20
79.2608776828
 30
0.0
 11
470.9469567415
 21
73.2708716532
 31
0.0
  0
ARC
  5
327
330
1F
100
AcDbEntity
  8
0
  6
Continuous
 62
     7
370
    25
100
AcDbCircle
 10
497.3941141458
 20
80.817708766
 30
0.0
 40
27.50285230971899
100
AcDbArc
 50
193.9133463783
 51
195.9263792184
  0
ARC
  5
328
330
1F
100
AcDbEntity
  8
0
  6
Continuous
 62
     7
370
    25
100
AcDbCircle
 10
532.9964204006
 20
74.8205727524
 30
0.0
 40
1.599999999999908
100
AcDbArc
 50
255.5949749034
 51
287.8876148317
  0
ARC
  5
329
330
1F
100
AcDbEntity
  8
0
  6
Continuous
 62
     7
370
    25
100
AcDbCircle
 10
470.5489178826
 20
74.8205727524
 30
0.0
 40
1.600000000000005
100
AcDbArc
 50
252.1123851683
 51
284.4050250966
  0
ARC
  5
32A
330
1F
100
AcDbEntity
  8
0
  6
Continuous
 62
     7
370
    25
100
AcDbCircle
 10
409.7726834295
 20
92.4797800919
 30
0.0
 40
2.0
100
AcDbArc
 50
180.0
 51
270.0
  0
LINE
  5
32B
330
1F
100
AcDbEntity
  8
0
  6
Continuous
 62
     7
370
    25
100
AcDbLine
 10
407.7726866481
 20
210.4797804495
 30
0.0
 11
407.7726866481
 21
92.4797797342
 31
0.0
  0
LINE
  5
32C
330
1F
100
AcDbEntity
  8
0
  6
Continuous
 62
     7
370
    25
100
AcDbLine
 10
593.7726836083
 20
212.4797807773
 30
0.0
 11
409.7726832506
 21
212.4797807773
 31
0.0
  0
ARC
  5
32D
330
1F
100
AcDbEntity
  8
0
  6
Continuous
 62
     7
370
    25
100
AcDbCircle
 10
593.7726834295
 20
210.4797800919
 30
0.0
 40
2.0
100
AcDbArc
 50
0.0
 51
90.0
  0
LINE
  5
32E
330
1F
100
AcDbEntity
  8
0
  6
Continuous
 62
     7
370
    25
100
AcDbLine
 10
595.7726802108
 20
92.4797797342
 30
0.0
 11
595.7726802108
 21
210.4797804495
 31
0.0
  0
ARC
  5
32F
330
1F
100
AcDbEntity
  8
0
  6
Continuous
 62
     7
370
    25
100
AcDbCircle
 10
593.7726834295
 20
92.4797800919
 30
0.0
 40
2.0
100
AcDbArc
 50
270.0
 51
0.0
  0
LINE
  5
330
330
1F
100
AcDbEntity
  8
0
  6
Continuous
 62
     7
370
    25
100
AcDbLine
 10
409.7726832506
 20
90.4797794064
 30
0.0
 11
593.7726836083
 21
90.4797794064
 31
0.0
  0
ARC
  5
331
330
1F
100
AcDbEntity
  8
0
  6
Continuous
 62
     7
370
    25
100
AcDbCircle
 10
409.7726834295
 20
210.4797800919
 30
0.0
 40
2.0
100
AcDbArc
 50
90.0
 51
180.0
  0
ARC
  5
332
330
1F
100
AcDbEntity
  8
0
  6
Continuous
 62
     8
370
    25
100
AcDbCircle
 10
428.8783957633
 20
91.3341802695
 30
0.0
 40
10.76933602837788
100
AcDbArc
 50
184.5504220923
 51
270.4468812266
  0
ARC
  5
333
330
1F
100
AcDbEntity
  8
0
  6
Continuous
 62
     8
370
    25
100
AcDbCircle
 10
574.6669425199
 20
91.3341802695
 30
0.0
 40
10.7693360283778
100
AcDbArc
 50
269.5531187734
 51
355.4495779077
  0
ENDSEC
  0
SECTION
  2
OBJECTS
  0
DICTIONARY
  5
C
330
0
100
AcDbDictionary
281
     1
  3
ACAD_GROUP
350
D
  3
ACAD_LAYOUT
350
1A
  3
ACAD_MLINESTYLE
350
17
  3
ACAD_PLOTSETTINGS
350
19
  3
ACAD_PLOTSTYLENAME
350
E
  3
ACAD_SCALELIST
350
47
  0
DICTIONARY
  5
D
102
{ACAD_REACTORS
330
C
102
}
330
C
100
AcDbDictionary
281
     1
  0
DICTIONARY
  5
1A
102
{ACAD_REACTORS
330
C
102
}
330
C
100
AcDbDictionary
281
     1
  3
Layout1
350
1E
  3
Layout2
350
26
  3
Model
350
22
  0
DICTIONARY
  5
17
102
{ACAD_REACTORS
330
C
102
}
330
C
100
AcDbDictionary
281
     1
  3
Standard
350
18
  0
DICTIONARY
  5
19
102
{ACAD_REACTORS
330
C
102
}
330
C
100
AcDbDictionary
281
     1
  0
ACDBDICTIONARYWDFLT
  5
E
102
{ACAD_REACTORS
330
C
102
}
330
C
100
AcDbDictionary
281
     1
  3
Normal
350
F
100
AcDbDictionaryWithDefault
340
F
  0
DICTIONARY
  5
47
102
{ACAD_REACTORS
330
C
102
}
330
C
100
AcDbDictionary
281
     1
  3
A0
350
48
  3
A1
350
49
  3
A2
350
4A
  3
A3
350
4B
  3
A4
350
4C
  3
A5
350
4D
  3
A6
350
4E
  3
A7
350
4F
  3
A8
350
50
  3
A9
350
51
  3
B0
350
52
  3
B1
350
53
  3
B2
350
54
  3
B3
350
55
  3
B4
350
56
  3
B5
350
57
  3
B6
350
58
  3
B7
350
59
  3
B8
350
5A
  3
B9
350
5B
  3
C0
350
5C
  3
C1
350
5D
  3
C2
350
5E
  3
C3
350
5F
  3
C4
350
60
  3
C5
350
61
  3
C6
350
62
  3
C7
350
63
  3
C8
350
64
  3
C9
350
65
  3
D0
350
66
  3
D1
350
67
  3
D2
350
68
  0
LAYOUT
  5
1E
102
{ACAD_REACTORS
330
1A
102
}
330
1A
100
AcDbPlotSettings
  1

  2
none_device
  4

  6

 40
0.0
 41
0.0
 42
0.0
 43
0.0
 44
0.0
 45
0.0
 46
0.0
 47
0.0
 48
0.0
 49
0.0
140
0.0
141
0.0
142
1.0
143
1.0
 70
   688
 72
     1
 73
     0
 74
     5
  7

 75
    16
147
1.0
148
0.0
149
0.0
100
AcDbLayout
  1
Layout1
 70
     1
 71
     1
 10
0.0
 20
0.0
 11
420.0
 21
297.0
 12
0.0
 22
0.0
 32
0.0
 14
1.0000000000E+20
 24
1.0000000000E+20
 34
1.0000000000E+20
 15
-1.0000000000E+20
 25
-1.0000000000E+20
 35
-1.0000000000E+20
146
0.0
 13
0.0
 23
0.0
 33
0.0
 16
1.0
 26
0.0
 36
0.0
 17
0.0
 27
1.0
 37
0.0
 76
     0
330
1B
  0
LAYOUT
  5
26
102
{ACAD_REACTORS
330
1A
102
}
330
1A
100
AcDbPlotSettings
  1

  2
none_device
  4

  6

 40
0.0
 41
0.0
 42
0.0
 43
0.0
 44
0.0
 45
0.0
 46
0.0
 47
0.0
 48
0.0
 49
0.0
140
0.0
141
0.0
142
1.0
143
1.0
 70
   688
 72
     1
 73
     0
 74
     5
  7

 75
    16
147
1.0
148
0.0
149
0.0
100
AcDbLayout
  1
Layout2
 70
     1
 71
     2
 10
0.0
 20
0.0
 11
0.0
 21
0.0
 12
0.0
 22
0.0
 32
0.0
 14
0.0
 24
0.0
 34
0.0
 15
0.0
 25
0.0
 35
0.0
146
0.0
 13
0.0
 23
0.0
 33
0.0
 16
1.0
 26
0.0
 36
0.0
 17
0.0
 27
1.0
 37
0.0
 76
     0
330
23
  0
LAYOUT
  5
22
102
{ACAD_REACTORS
330
1A
102
}
330
1A
100
AcDbPlotSettings
  1

  2
none_device
  4
Letter_(8.50_x_11.00_Inches)
  6

 40
6.35
 41
6.35
 42
6.35000508
 43
6.35000508
 44
215.9
 45
279.4
 46
0.0
 47
0.0
 48
0.0
 49
0.0
140
0.0
141
0.0
142
1.0
143
1.0
 70
  1712
 72
     1
 73
     0
 74
     0
  7

 75
     0
147
1.0
148
0.0
149
0.0
100
AcDbLayout
  1
Model
 70
     1
 71
     0
 10
0.0
 20
0.0
 11
1189.0
 21
841.0
 12
0.0
 22
0.0
 32
0.0
 14
0.0
 24
0.0
 34
0.0
 15
1189.0
 25
841.0
 35
0.0
146
0.0
 13
0.0
 23
0.0
 33
0.0
 16
1.0
 26
0.0
 36
0.0
 17
0.0
 27
1.0
 37
0.0
 76
     0
330
1F
331
29
  0
MLINESTYLE
  5
18
102
{ACAD_REACTORS
330
17
102
}
330
17
100
AcDbMlineStyle
  2
Standard
 70
     0
  3

 62
   256
 51
90.0
 52
90.0
 71
     2
 49
0.5
 62
   256
  6
BYLAYER
 49
-0.5
 62
   256
  6
BYLAYER
  0
ACDBPLACEHOLDER
  5
F
102
{ACAD_REACTORS
330
E
102
}
330
E
  0
SCALE
  5
48
102
{ACAD_REACTORS
330
47
102
}
330
47
100
AcDbScale
 70
     0
300
1:1
140
1.0
141
1.0
290
     1
  0
SCALE
  5
49
102
{ACAD_REACTORS
330
47
102
}
330
47
100
AcDbScale
 70
     0
300
1:2
140
1.0
141
2.0
290
     0
  0
SCALE
  5
4A
102
{ACAD_REACTORS
330
47
102
}
330
47
100
AcDbScale
 70
     0
300
1:4
140
1.0
141
4.0
290
     0
  0
SCALE
  5
4B
102
{ACAD_REACTORS
330
47
102
}
330
47
100
AcDbScale
 70
     0
300
1:5
140
1.0
141
5.0
290
     0
  0
SCALE
  5
4C
102
{ACAD_REACTORS
330
47
102
}
330
47
100
AcDbScale
 70
     0
300
1:8
140
1.0
141
8.0
290
     0
  0
SCALE
  5
4D
102
{ACAD_REACTORS
330
47
102
}
330
47
100
AcDbScale
 70
     0
300
1:10
140
1.0
141
10.0
290
     0
  0
SCALE
  5
4E
102
{ACAD_REACTORS
330
47
102
}
330
47
100
AcDbScale
 70
     0
300
1:16
140
1.0
141
16.0
290
     0
  0
SCALE
  5
4F
102
{ACAD_REACTORS
330
47
102
}
330
47
100
AcDbScale
 70
     0
300
1:20
140
1.0
141
20.0
290
     0
  0
SCALE
  5
50
102
{ACAD_REACTORS
330
47
102
}
330
47
100
AcDbScale
 70
     0
300
1:30
140
1.0
141
30.0
290
     0
  0
SCALE
  5
51
102
{ACAD_REACTORS
330
47
102
}
330
47
100
AcDbScale
 70
     0
300
1:40
140
1.0
141
40.0
290
     0
  0
SCALE
  5
52
102
{ACAD_REACTORS
330
47
102
}
330
47
100
AcDbScale
 70
     0
300
1:50
140
1.0
141
50.0
290
     0
  0
SCALE
  5
53
102
{ACAD_REACTORS
330
47
102
}
330
47
100
AcDbScale
 70
     0
300
1:100
140
1.0
141
100.0
290
     0
  0
SCALE
  5
54
102
{ACAD_REACTORS
330
47
102
}
330
47
100
AcDbScale
 70
     0
300
2:1
140
2.0
141
1.0
290
     0
  0
SCALE
  5
55
102
{ACAD_REACTORS
330
47
102
}
330
47
100
AcDbScale
 70
     0
300
4:1
140
4.0
141
1.0
290
     0
  0
SCALE
  5
56
102
{ACAD_REACTORS
330
47
102
}
330
47
100
AcDbScale
 70
     0
300
8:1
140
8.0
141
1.0
290
     0
  0
SCALE
  5
57
102
{ACAD_REACTORS
330
47
102
}
330
47
100
AcDbScale
 70
     0
300
10:1
140
10.0
141
1.0
290
     0
  0
SCALE
  5
58
102
{ACAD_REACTORS
330
47
102
}
330
47
100
AcDbScale
 70
     0
300
100:1
140
100.0
141
1.0
290
     0
  0
SCALE
  5
59
102
{ACAD_REACTORS
330
47
102
}
330
47
100
AcDbScale
 70
     0
300
1/128" = 1'-0"
140
0.0078125
141
12.0
290
     0
  0
SCALE
  5
5A
102
{ACAD_REACTORS
330
47
102
}
330
47
100
AcDbScale
 70
     0
300
1/64" = 1'-0"
140
0.015625
141
12.0
290
     0
  0
SCALE
  5
5B
102
{ACAD_REACTORS
330
47
102
}
330
47
100
AcDbScale
 70
     0
300
1/32" = 1'-0"
140
0.03125
141
12.0
290
     0
  0
SCALE
  5
5C
102
{ACAD_REACTORS
330
47
102
}
330
47
100
AcDbScale
 70
     0
300
1/16" = 1'-0"
140
0.0625
141
12.0
290
     0
  0
SCALE
  5
5D
102
{ACAD_REACTORS
330
47
102
}
330
47
100
AcDbScale
 70
     0
300
3/32" = 1'-0"
140
0.09375
141
12.0
290
     0
  0
SCALE
  5
5E
102
{ACAD_REACTORS
330
47
102
}
330
47
100
AcDbScale
 70
     0
300
1/8" = 1'-0"
140
0.125
141
12.0
290
     0
  0
SCALE
  5
5F
102
{ACAD_REACTORS
330
47
102
}
330
47
100
AcDbScale
 70
     0
300
3/16" = 1'-0"
140
0.1875
141
12.0
290
     0
  0
SCALE
  5
60
102
{ACAD_REACTORS
330
47
102
}
330
47
100
AcDbScale
 70
     0
300
1/4" = 1'-0"
140
0.25
141
12.0
290
     0
  0
SCALE
  5
61
102
{ACAD_REACTORS
330
47
102
}
330
47
100
AcDbScale
 70
     0
300
3/8" = 1'-0"
140
0.375
141
12.0
290
     0
  0
SCALE
  5
62
102
{ACAD_REACTORS
330
47
102
}
330
47
100
AcDbScale
 70
     0
300
1/2" = 1'-0"
140
0.5
141
12.0
290
     0
  0
SCALE
  5
63
102
{ACAD_REACTORS
330
47
102
}
330
47
100
AcDbScale
 70
     0
300
3/4" = 1'-0"
140
0.75
141
12.0
290
     0
  0
SCALE
  5
64
102
{ACAD_REACTORS
330
47
102
}
330
47
100
AcDbScale
 70
     0
300
1" = 1'-0"
140
1.0
141
12.0
290
     0
  0
SCALE
  5
65
102
{ACAD_REACTORS
330
47
102
}
330
47
100
AcDbScale
 70
     0
300
1-1/2" = 1'-0"
140
1.5
141
12.0
290
     0
  0
SCALE
  5
66
102
{ACAD_REACTORS
330
47
102
}
330
47
100
AcDbScale
 70
     0
300
3" = 1'-0"
140
3.0
141
12.0
290
     0
  0
SCALE
  5
67
102
{ACAD_REACTORS
330
47
102
}
330
47
100
AcDbScale
 70
     0
300
6" = 1'-0"
140
6.0
141
12.0
290
     0
  0
SCALE
  5
68
102
{ACAD_REACTORS
330
47
102
}
330
47
100
AcDbScale
 70
     0
300
1'-0" = 1'-0"
140
12.0
141
12.0
290
     0
  0
ENDSEC
  0
EOF
