  0
SECTION
  2
HEADER
  9
$ACADVER
  1
AC1015
  9
$ACADMAINTVER
 70
     6
  9
$DWGCODEPAGE
  3
ANSI_1254
  9
$INSBASE
 10
0.0
 20
0.0
 30
0.0
  9
$EXTMIN
 10
0.0
 20
0.0
 30
0.0
  9
$EXTMAX
 10
420.0
 20
297.0
 30
0.0
  9
$LIMMIN
 10
0.0
 20
0.0
  9
$LIMMAX
 10
420.0
 20
297.0
  9
$ORTHOMODE
 70
     0
  9
$REGENMODE
 70
     1
  9
$FILLMODE
 70
     1
  9
$QTEXTMODE
 70
     0
  9
$MIRRTEXT
 70
     1
  9
$LTSCALE
 40
1.0
  9
$ATTMODE
 70
     1
  9
$TEXTSIZE
 40
3.5
  9
$TRACEWID
 40
1.0
  9
$TEXTSTYLE
  7
Standard
  9
$CLAYER
  8
0
  9
$CELTYPE
  6
ByLayer
  9
$CECOLOR
 62
   256
  9
$CELTSCALE
 40
1.0
  9
$DISPSILH
 70
     0
  9
$DIMSCALE
 40
1.0
  9
$DIMASZ
 40
3.302
  9
$DIMEXO
 40
1.0
  9
$DIMDLI
 40
3.75
  9
$DIMRND
 40
0.0
  9
$DIMDLE
 40
0.0
  9
$DIMEXE
 40
1.0
  9
$DIMTP
 40
0.0
  9
$DIMTM
 40
0.0
  9
$DIMTXT
 40
3.5
  9
$DIMCEN
 40
2.5
  9
$DIMTSZ
 40
0.0
  9
$DIMTOL
 70
     0
  9
$DIMLIM
 70
     0
  9
$DIMTIH
 70
     1
  9
$DIMTOH
 70
     1
  9
$DIMSE1
 70
     0
  9
$DIMSE2
 70
     0
  9
$DIMTAD
 70
     1
  9
$DIMZIN
 70
     0
  9
$DIMBLK
  1

  9
$DIMASO
 70
     1
  9
$DIMSHO
 70
     1
  9
$DIMPOST
  1

  9
$DIMAPOST
  1

  9
$DIMALT
 70
     0
  9
$DIMALTD
 70
     3
  9
$DIMALTF
 40
0.0393700787
  9
$DIMLFAC
 40
1.0
  9
$DIMTOFL
 70
     1
  9
$DIMTVP
 40
0.0
  9
$DIMTIX
 70
     0
  9
$DIMSOXD
 70
     0
  9
$DIMSAH
 70
     0
  9
$DIMBLK1
  1

  9
$DIMBLK2
  1

  9
$DIMSTYLE
  2
ISO-25
  9
$DIMCLRD
 70
     0
  9
$DIMCLRE
 70
     0
  9
$DIMCLRT
 70
     0
  9
$DIMTFAC
 40
1.0
  9
$DIMGAP
 40
1.524
  9
$DIMJUST
 70
     0
  9
$DIMSD1
 70
     0
  9
$DIMSD2
 70
     0
  9
$DIMTOLJ
 70
     0
  9
$DIMTZIN
 70
     0
  9
$DIMALTZ
 70
     0
  9
$DIMALTTZ
 70
     0
  9
$DIMUPT
 70
     0
  9
$DIMDEC
 70
     2
  9
$DIMTDEC
 70
     2
  9
$DIMALTU
 70
     2
  9
$DIMALTTD
 70
     3
  9
$DIMTXSTY
  7
Standard
  9
$DIMAUNIT
 70
     0
  9
$DIMADEC
 70
     2
  9
$DIMALTRND
 40
0.0
  9
$DIMAZIN
 70
     0
  9
$DIMDSEP
 70
    44
  9
$DIMATFIT
 70
     3
  9
$DIMFRAC
 70
     0
  9
$DIMLDRBLK
  1

  9
$DIMLUNIT
 70
     2
  9
$DIMLWD
 70
    -2
  9
$DIMLWE
 70
    -2
  9
$DIMTMOVE
 70
     0
  9
$LUNITS
 70
     2
  9
$LUPREC
 70
     2
  9
$SKETCHINC
 40
1.0
  9
$FILLETRAD
 40
10.0
  9
$AUNITS
 70
     0
  9
$AUPREC
 70
     2
  9
$MENU
  1
.
  9
$ELEVATION
 40
0.0
  9
$PELEVATION
 40
0.0
  9
$THICKNESS
 40
0.0
  9
$LIMCHECK
 70
     0
  9
$CHAMFERA
 40
0.0
  9
$CHAMFERB
 40
0.0
  9
$CHAMFERC
 40
0.0
  9
$CHAMFERD
 40
0.0
  9
$SKPOLY
 70
     0
  9
$TDCREATE
 40
2459107.394755023
  9
$TDUCREATE
 40
2459107.269755023
  9
$TDUPDATE
 40
2459107.394755382
  9
$TDUUPDATE
 40
2459107.269755382
  9
$TDINDWG
 40
0.0000000116
  9
$TDUSRTIMER
 40
0.0000000116
  9
$USRTIMER
 70
     1
  9
$ANGBASE
 50
0.0
  9
$ANGDIR
 70
     0
  9
$PDMODE
 70
     0
  9
$PDSIZE
 40
-1.0
  9
$PLINEWID
 40
0.0
  9
$SPLFRAME
 70
     0
  9
$SPLINETYPE
 70
     6
  9
$SPLINESEGS
 70
     8
  9
$HANDSEED
  5
241
  9
$SURFTAB1
 70
     6
  9
$SURFTAB2
 70
     6
  9
$SURFTYPE
 70
     6
  9
$SURFU
 70
     6
  9
$SURFV
 70
     6
  9
$UCSBASE
  2

  9
$UCSNAME
  2

  9
$UCSORG
 10
0.0
 20
0.0
 30
0.0
  9
$UCSXDIR
 10
1.0
 20
0.0
 30
0.0
  9
$UCSYDIR
 10
0.0
 20
1.0
 30
0.0
  9
$UCSORTHOREF
  2

  9
$UCSORTHOVIEW
 70
     0
  9
$UCSORGTOP
 10
0.0
 20
0.0
 30
0.0
  9
$UCSORGBOTTOM
 10
0.0
 20
0.0
 30
0.0
  9
$UCSORGLEFT
 10
0.0
 20
0.0
 30
0.0
  9
$UCSORGRIGHT
 10
0.0
 20
0.0
 30
0.0
  9
$UCSORGFRONT
 10
0.0
 20
0.0
 30
0.0
  9
$UCSORGBACK
 10
0.0
 20
0.0
 30
0.0
  9
$PUCSBASE
  2

  9
$PUCSNAME
  2

  9
$PUCSORG
 10
0.0
 20
0.0
 30
0.0
  9
$PUCSXDIR
 10
1.0
 20
0.0
 30
0.0
  9
$PUCSYDIR
 10
0.0
 20
1.0
 30
0.0
  9
$PUCSORTHOREF
  2

  9
$PUCSORTHOVIEW
 70
     0
  9
$PUCSORGTOP
 10
0.0
 20
0.0
 30
0.0
  9
$PUCSORGBOTTOM
 10
0.0
 20
0.0
 30
0.0
  9
$PUCSORGLEFT
 10
0.0
 20
0.0
 30
0.0
  9
$PUCSORGRIGHT
 10
0.0
 20
0.0
 30
0.0
  9
$PUCSORGFRONT
 10
0.0
 20
0.0
 30
0.0
  9
$PUCSORGBACK
 10
0.0
 20
0.0
 30
0.0
  9
$USERI1
 70
     0
  9
$USERI2
 70
     0
  9
$USERI3
 70
     0
  9
$USERI4
 70
     0
  9
$USERI5
 70
     0
  9
$USERR1
 40
0.0
  9
$USERR2
 40
0.0
  9
$USERR3
 40
0.0
  9
$USERR4
 40
0.0
  9
$USERR5
 40
0.0
  9
$WORLDVIEW
 70
     1
  9
$SHADEDGE
 70
     3
  9
$SHADEDIF
 70
    70
  9
$TILEMODE
 70
     1
  9
$MAXACTVP
 70
    64
  9
$PINSBASE
 10
0.0
 20
0.0
 30
0.0
  9
$PLIMCHECK
 70
     0
  9
$PEXTMIN
 10
1.0000000000E+20
 20
1.0000000000E+20
 30
1.0000000000E+20
  9
$PEXTMAX
 10
-1.0000000000E+20
 20
-1.0000000000E+20
 30
-1.0000000000E+20
  9
$PLIMMIN
 10
0.0
 20
0.0
  9
$PLIMMAX
 10
420.0
 20
297.0
  9
$UNITMODE
 70
     0
  9
$VISRETAIN
 70
     1
  9
$PLINEGEN
 70
     0
  9
$PSLTSCALE
 70
     1
  9
$TREEDEPTH
 70
  3020
  9
$CMLSTYLE
  2
Standard
  9
$CMLJUST
 70
     0
  9
$CMLSCALE
 40
20.0
  9
$PROXYGRAPHICS
 70
     1
  9
$MEASUREMENT
 70
     1
  9
$CELWEIGHT
370
    -1
  9
$ENDCAPS
280
     0
  9
$JOINSTYLE
280
     0
  9
$LWDISPLAY
290
     1
  9
$INSUNITS
 70
     4
  9
$HYPERLINKBASE
  1

  9
$STYLESHEET
  1

  9
$XEDIT
290
     1
  9
$CEPSNTYPE
380
     0
  9
$PSTYLEMODE
290
     1
  9
$FINGERPRINTGUID
  2
{d24176eb-8579-445d-969e-982ccadcf69a}
  9
$VERSIONGUID
  2
{FAEB1C32-E019-11D5-929B-00C0DF256EC4}
  9
$EXTNAMES
290
     1
  9
$PSVPSCALE
 40
0.0
  9
$OLESTARTUP
290
     0
  0
ENDSEC
  0
SECTION
  2
CLASSES
  0
CLASS
  1
ACDBDICTIONARYWDFLT
  2
AcDbDictionaryWithDefault
  3
ObjectDBX Classes
 90
        0
280
     0
281
     0
  0
CLASS
  1
VISUALSTYLE
  2
AcDbVisualStyle
  3
ObjectDBX Classes
 90
     4095
280
     0
281
     0
  0
CLASS
  1
MATERIAL
  2
AcDbMaterial
  3
ObjectDBX Classes
 90
     1153
280
     0
281
     0
  0
CLASS
  1
SCALE
  2
AcDbScale
  3
ObjectDBX Classes
 90
     1153
280
     0
281
     0
  0
CLASS
  1
TABLESTYLE
  2
AcDbTableStyle
  3
ObjectDBX Classes
 90
     4095
280
     0
281
     0
  0
CLASS
  1
MLEADERSTYLE
  2
AcDbMLeaderStyle
  3
ACDB_MLEADERSTYLE_CLASS
 90
     4095
280
     0
281
     0
  0
CLASS
  1
SUN
  2
AcDbSun
  3
SCENEOE
 90
     1153
280
     0
281
     0
  0
CLASS
  1
ACDBPLACEHOLDER
  2
AcDbPlaceHolder
  3
ObjectDBX Classes
 90
        0
280
     0
281
     0
  0
CLASS
  1
LAYOUT
  2
AcDbLayout
  3
ObjectDBX Classes
 90
        0
280
     0
281
     0
  0
ENDSEC
  0
SECTION
  2
TABLES
  0
TABLE
  2
VPORT
  5
8
330
0
100
AcDbSymbolTable
 70
     1
  0
VPORT
  5
29
330
8
100
AcDbSymbolTableRecord
100
AcDbViewportTableRecord
  2
*Active
 70
     0
 10
0.0
 20
0.0
 11
1.0
 21
1.0
 12
210.0
 22
148.5
 13
0.0
 23
0.0
 14
10.0
 24
10.0
 15
10.0
 25
10.0
 16
0.0
 26
0.0
 36
1.0
 17
0.0
 27
0.0
 37
0.0
 40
297.0
 41
1.4141414141
 42
50.0
 43
0.0
 44
0.0
 50
0.0
 51
0.0
 71
     0
 72
  2000
 73
     1
 74
     3
 75
     0
 76
     0
 77
     0
 78
     0
281
     0
 65
     1
110
0.0
120
0.0
130
0.0
111
1.0
121
0.0
131
0.0
112
0.0
122
1.0
132
0.0
 79
     0
146
0.0
  0
ENDTAB
  0
TABLE
  2
LTYPE
  5
5
330
0
100
AcDbSymbolTable
 70
     6
  0
LTYPE
  5
14
330
5
100
AcDbSymbolTableRecord
100
AcDbLinetypeTableRecord
  2
ByBlock
 70
     0
  3

 72
    65
 73
     0
 40
0.0
  0
LTYPE
  5
15
330
5
100
AcDbSymbolTableRecord
100
AcDbLinetypeTableRecord
  2
ByLayer
 70
     0
  3

 72
    65
 73
     0
 40
0.0
  0
LTYPE
  5
16
330
5
100
AcDbSymbolTableRecord
100
AcDbLinetypeTableRecord
  2
Continuous
 70
     0
  3
Solid line
 72
    65
 73
     0
 40
0.0
  0
LTYPE
  5
6E
330
5
100
AcDbSymbolTableRecord
100
AcDbLinetypeTableRecord
  2
HIDDEN
 70
     0
  3
Hidden __ __ __ __ __ __ __ __ __ __ __ __ __ __
 72
    65
 73
     2
 40
1.905
 49
1.27
 74
     0
 49
-0.635
 74
     0
  0
LTYPE
  5
6F
330
5
100
AcDbSymbolTableRecord
100
AcDbLinetypeTableRecord
  2
PHANTOM
 70
     0
  3
Phantom ______  __  __  ______  __  __  ______
 72
    65
 73
     6
 40
12.7
 49
6.35
 74
     0
 49
-1.27
 74
     0
 49
1.27
 74
     0
 49
-1.27
 74
     0
 49
1.27
 74
     0
 49
-1.27
 74
     0
  0
LTYPE
  5
70
330
5
100
AcDbSymbolTableRecord
100
AcDbLinetypeTableRecord
  2
CENTER
 70
     0
  3
Center ____ _ ____ _ ____ _ ____ _ ____ _ ____
 72
    65
 73
     4
 40
10.16
 49
6.35
 74
     0
 49
-1.27
 74
     0
 49
1.27
 74
     0
 49
-1.27
 74
     0
  0
LTYPE
  5
71
330
5
100
AcDbSymbolTableRecord
100
AcDbLinetypeTableRecord
  2
CENTERX2
 70
     0
  3
Center (2x) ________  __  ________  __  _____
 72
    65
 73
     4
 40
20.32
 49
12.7
 74
     0
 49
-2.54
 74
     0
 49
2.54
 74
     0
 49
-2.54
 74
     0
  0
LTYPE
  5
72
330
5
100
AcDbSymbolTableRecord
100
AcDbLinetypeTableRecord
  2
DOT2
 70
     0
  3
Dot (.5x) ........................................
 72
    65
 73
     2
 40
0.635
 49
0.0
 74
     0
 49
-0.635
 74
     0
  0
ENDTAB
  0
TABLE
  2
LAYER
  5
2
330
0
100
AcDbSymbolTable
 70
     2
  0
LAYER
  5
10
330
2
100
AcDbSymbolTableRecord
100
AcDbLayerTableRecord
  2
0
 70
     0
 62
     7
  6
Continuous
370
    -3
390
F
  0
LAYER
  5
73
330
2
100
AcDbSymbolTableRecord
100
AcDbLayerTableRecord
  2
FORMAT
 70
     0
 62
     7
  6
Continuous
370
    -3
390
F
  0
ENDTAB
  0
TABLE
  2
STYLE
  5
3
330
0
100
AcDbSymbolTable
 70
     1
  0
STYLE
  5
11
330
3
100
AcDbSymbolTableRecord
100
AcDbTextStyleTableRecord
  2
Standard
 70
     0
 40
0.0
 41
1.0
 50
0.0
 71
     0
 42
3.5
  3
txt
  4

  0
ENDTAB
  0
TABLE
  2
VIEW
  5
6
330
0
100
AcDbSymbolTable
 70
     0
  0
ENDTAB
  0
TABLE
  2
UCS
  5
7
330
0
100
AcDbSymbolTable
 70
     0
  0
ENDTAB
  0
TABLE
  2
APPID
  5
9
330
0
100
AcDbSymbolTable
 70
     1
  0
APPID
  5
12
330
9
100
AcDbSymbolTableRecord
100
AcDbRegAppTableRecord
  2
ACAD
 70
     0
  0
ENDTAB
  0
TABLE
  2
DIMSTYLE
  5
A
330
0
100
AcDbSymbolTable
 70
     1
100
AcDbDimStyleTable
  0
DIMSTYLE
105
27
330
A
100
AcDbSymbolTableRecord
100
AcDbDimStyleTableRecord
  2
ISO-25
 70
     0
 41
2.5
 42
0.625
 43
3.75
 44
1.25
 73
     0
 74
     0
 77
     1
 78
     8
140
2.5
141
2.5
143
0.0393700787
147
0.625
171
     3
172
     1
178
     0
271
     2
272
     2
274
     3
278
    44
283
     0
284
     8
340
11
  0
ENDTAB
  0
TABLE
  2
BLOCK_RECORD
  5
1
330
0
100
AcDbSymbolTable
 70
     1
  0
BLOCK_RECORD
  5
1F
330
1
100
AcDbSymbolTableRecord
100
AcDbBlockTableRecord
  2
*Model_Space
340
22
  0
BLOCK_RECORD
  5
1B
330
1
100
AcDbSymbolTableRecord
100
AcDbBlockTableRecord
  2
*Paper_Space
340
1E
  0
BLOCK_RECORD
  5
23
330
1
100
AcDbSymbolTableRecord
100
AcDbBlockTableRecord
  2
*Paper_Space0
340
26
  0
ENDTAB
  0
ENDSEC
  0
SECTION
  2
BLOCKS
  0
BLOCK
  5
20
330
1F
100
AcDbEntity
  8
0
100
AcDbBlockBegin
  2
*Model_Space
 70
     0
 10
0.0
 20
0.0
 30
0.0
  3
*Model_Space
  1

  0
ENDBLK
  5
21
330
1F
100
AcDbEntity
  8
0
100
AcDbBlockEnd
  0
BLOCK
  5
1C
330
1B
100
AcDbEntity
 67
     1
  8
0
100
AcDbBlockBegin
  2
*Paper_Space
 70
     0
 10
0.0
 20
0.0
 30
0.0
  3
*Paper_Space
  1

  0
ENDBLK
  5
1D
330
1B
100
AcDbEntity
 67
     1
  8
0
100
AcDbBlockEnd
  0
BLOCK
  5
24
330
23
100
AcDbEntity
  8
0
100
AcDbBlockBegin
  2
*Paper_Space0
 70
     0
 10
0.0
 20
0.0
 30
0.0
  3
*Paper_Space0
  1

  0
ENDBLK
  5
25
330
23
100
AcDbEntity
  8
0
100
AcDbBlockEnd
  0
ENDSEC
  0
SECTION
  2
ENTITIES
  0
LINE
  5
74
330
1F
100
AcDbEntity
  8
0
  6
Continuous
 62
     7
370
    25
100
AcDbLine
 10
357.7710770022
 20
85.8422325964
 30
0.0
 11
332.7710770022
 21
85.8422325964
 31
0.0
  0
LINE
  5
75
330
1F
100
AcDbEntity
  8
0
  6
Continuous
 62
     7
370
    25
100
AcDbLine
 10
292.7710770022
 20
85.8422325964
 30
0.0
 11
122.7710770022
 21
85.8422325964
 31
0.0
  0
LINE
  5
76
330
1F
100
AcDbEntity
  8
0
  6
Continuous
 62
     7
370
    25
100
AcDbLine
 10
82.7710770022
 20
85.8422325964
 30
0.0
 11
57.7710770022
 21
85.8422325964
 31
0.0
  0
ARC
  5
77
330
1F
100
AcDbEntity
  8
0
  6
Continuous
 62
     7
370
    25
100
AcDbCircle
 10
52.7710770022
 20
81.3922325964
 30
0.0
 40
0.2000000000000028
100
AcDbArc
 50
90.0
 51
180.0
  0
ARC
  5
78
330
1F
100
AcDbEntity
  8
0
  6
Continuous
 62
     7
370
    25
100
AcDbCircle
 10
52.7710770022
 20
63.7922325964
 30
0.0
 40
0.2000000000000099
100
AcDbArc
 50
180.0
 51
270.0
  0
LINE
  5
79
330
1F
100
AcDbEntity
  8
0
  6
Continuous
 62
     7
370
    25
100
AcDbLine
 10
56.1877436689
 20
63.5922325964
 30
0.0
 11
57.7710770022
 21
63.5922325964
 31
0.0
  0
LINE
  5
7A
330
1F
100
AcDbEntity
  8
0
  6
Continuous
 62
     7
370
    25
100
AcDbLine
 10
57.7710770022
 20
81.5922325964
 30
0.0
 11
56.1877436689
 21
81.5922325964
 31
0.0
  0
LINE
  5
7B
330
1F
100
AcDbEntity
  8
0
  6
Continuous
 62
     7
370
    25
100
AcDbLine
 10
52.7710770022
 20
63.5922325964
 30
0.0
 11
56.0377436689
 21
63.5922325964
 31
0.0
  0
LINE
  5
7C
330
1F
100
AcDbEntity
  8
0
  6
Continuous
 62
     7
370
    25
100
AcDbLine
 10
56.0377436689
 20
81.5922325964
 30
0.0
 11
52.7710770022
 21
81.5922325964
 31
0.0
  0
LINE
  5
7D
330
1F
100
AcDbEntity
  8
0
  6
Continuous
 62
     7
370
    25
100
AcDbLine
 10
56.0377436689
 20
64.4922325964
 30
0.0
 11
56.1877436689
 21
64.4922325964
 31
0.0
  0
LINE
  5
7E
330
1F
100
AcDbEntity
  8
0
  6
Continuous
 62
     7
370
    25
100
AcDbLine
 10
56.1877436689
 20
80.6922325964
 30
0.0
 11
56.0377436689
 21
80.6922325964
 31
0.0
  0
ARC
  5
7F
330
1F
100
AcDbEntity
  8
0
  6
Continuous
 62
     7
370
    25
100
AcDbCircle
 10
375.0563931028
 20
75.7522352759
 30
0.0
 40
5.242568576313063
100
AcDbArc
 50
9.220031224
 51
67.400126467
  0
ARC
  5
80
330
1F
100
AcDbEntity
  8
0
  6
Continuous
 62
     7
370
    25
100
AcDbCircle
 10
375.0563931028
 20
69.4322299169
 30
0.0
 40
5.242568576313081
100
AcDbArc
 50
292.599873533
 51
350.779968776
  0
LINE
  5
81
330
1F
100
AcDbEntity
  8
0
  6
Continuous
 62
     7
370
    25
100
AcDbLine
 10
362.7710770022
 20
66.3422325964
 30
0.0
 11
366.7710770022
 21
66.3422325964
 31
0.0
  0
LINE
  5
82
330
1F
100
AcDbEntity
  8
0
  6
Continuous
 62
     7
370
    25
100
AcDbLine
 10
366.7710770022
 20
78.8422325964
 30
0.0
 11
362.7710770022
 21
78.8422325964
 31
0.0
  0
LINE
  5
83
330
1F
100
AcDbEntity
  8
0
  6
Continuous
 62
     7
370
    25
100
AcDbLine
 10
57.7710770022
 20
35.5922325964
 30
0.0
 11
357.7710770022
 21
35.5922325964
 31
0.0
  0
LINE
  5
84
330
1F
100
AcDbEntity
  8
0
  6
Continuous
 62
     7
370
    25
100
AcDbLine
 10
57.7710770022
 20
35.5922325964
 30
0.0
 11
57.7710770022
 21
35.7922325964
 31
0.0
  0
LINE
  5
85
330
1F
100
AcDbEntity
  8
0
  6
Continuous
 62
     7
370
    25
100
AcDbLine
 10
57.7710770022
 20
35.7922325964
 30
0.0
 11
357.7710770022
 21
35.7922325964
 31
0.0
  0
LINE
  5
86
330
1F
100
AcDbEntity
  8
0
  6
Continuous
 62
     7
370
    25
100
AcDbLine
 10
357.7710770022
 20
35.5922325964
 30
0.0
 11
357.7710770022
 21
35.7922325964
 31
0.0
  0
LINE
  5
87
330
1F
100
AcDbEntity
  8
0
  6
Continuous
 62
     7
370
    25
100
AcDbLine
 10
57.7710770022
 20
44.3922325964
 30
0.0
 11
357.7710770022
 21
44.3922325964
 31
0.0
  0
LINE
  5
88
330
1F
100
AcDbEntity
  8
0
  6
Continuous
 62
     7
370
    25
100
AcDbLine
 10
57.7710770022
 20
44.5922325964
 30
0.0
 11
357.7710770022
 21
44.5922325964
 31
0.0
  0
LINE
  5
89
330
1F
100
AcDbEntity
  8
0
  6
Continuous
 62
     7
370
    25
100
AcDbLine
 10
57.7710770022
 20
44.3922325964
 30
0.0
 11
57.7710770022
 21
44.5922325964
 31
0.0
  0
LINE
  5
8A
330
1F
100
AcDbEntity
  8
0
  6
Continuous
 62
     7
370
    25
100
AcDbLine
 10
357.7710770022
 20
44.3922325964
 30
0.0
 11
357.7710770022
 21
44.5922325964
 31
0.0
  0
LINE
  5
8B
330
1F
100
AcDbEntity
  8
0
  6
Continuous
 62
     7
370
    25
100
AcDbLine
 10
57.7710770022
 20
35.7922325964
 30
0.0
 11
57.7710770022
 21
44.3922325964
 31
0.0
  0
LINE
  5
8C
330
1F
100
AcDbEntity
  8
0
  6
Continuous
 62
     7
370
    25
100
AcDbLine
 10
357.7710770022
 20
35.7922325964
 30
0.0
 11
357.7710770022
 21
44.3922325964
 31
0.0
  0
LINE
  5
8D
330
1F
100
AcDbEntity
  8
0
  6
Continuous
 62
     7
370
    25
100
AcDbLine
 10
57.7710770022
 20
57.379371983
 30
0.0
 11
357.7710770022
 21
57.379371983
 31
0.0
  0
LINE
  5
8E
330
1F
100
AcDbEntity
  8
0
  6
Continuous
 62
     7
370
    25
100
AcDbLine
 10
357.7710770022
 20
58.2209757705
 30
0.0
 11
57.7710770022
 21
58.2209757705
 31
0.0
  0
SPLINE
  5
8F
330
1F
100
AcDbEntity
  8
0
  6
Continuous
 62
     7
370
    25
100
AcDbSpline
210
0.0
220
0.0
230
1.0
 70
    24
 71
     3
 72
    17
 73
    13
 74
     0
 42
0.000000001
 43
0.00000001
 40
0.0
 40
0.0
 40
0.0
 40
0.0
 40
0.0807688326335324
 40
0.1591514708616968
 40
0.2360814823219691
 40
0.31254565947699
 40
0.3895487058437108
 40
0.4680746439059971
 40
0.5490519974341036
 40
0.7025010042598031
 40
0.8504312026369173
 40
1.0
 40
1.0
 40
1.0
 40
1.0
 10
57.77107700224649
 20
57.37937198302881
 30
0.0
 10
57.77107700224649
 20
57.38186559999972
 30
0.0
 10
57.77107700224649
 20
57.38677916375627
 30
0.0
 10
57.77107700224637
 20
57.40818540536935
 30
0.0
 10
57.7710770022466
 20
57.43991826458436
 30
0.0
 10
57.77107700224627
 20
57.4829069528142
 30
0.0
 10
57.77107700224649
 20
57.53687815557131
 30
0.0
 10
57.77107700224627
 20
57.60188601891482
 30
0.0
 10
57.77107700224693
 20
57.69927452371912
 30
0.0
 10
57.7710770022466
 20
57.83586234556095
 30
0.0
 10
57.77107700224637
 20
58.02091730561436
 30
0.0
 10
57.77107700224649
 20
58.15404872178176
 30
0.0
 10
57.77107700224649
 20
58.22098106808383
 30
0.0
  0
SPLINE
  5
90
330
1F
100
AcDbEntity
  8
0
  6
Continuous
 62
     7
370
    25
100
AcDbSpline
210
0.0
220
0.0
230
1.0
 70
    24
 71
     3
 72
    11
 73
     7
 74
     0
 42
0.000000001
 43
0.00000001
 40
0.0
 40
0.0
 40
0.0
 40
0.0
 40
0.25
 40
0.25
 40
0.25
 40
0.4570202114643965
 40
0.4570202114643965
 40
0.4570202114643965
 40
0.4570202114643965
 10
357.7710770022465
 20
57.37937198302883
 30
0.0
 10
357.7710770022465
 20
57.38982657581813
 30
0.0
 10
357.7710770022465
 20
57.48937241716863
 30
0.0
 10
357.7710770022465
 20
57.67800950708033
 30
0.0
 10
357.7710770022465
 20
57.83373607961553
 30
0.0
 10
357.7710770022465
 20
58.01472483407691
 30
0.0
 10
357.7710770022465
 20
58.22097577046445
 30
0.0
  0
LINE
  5
91
330
1F
100
AcDbEntity
  8
0
  6
Continuous
 62
     7
370
    25
100
AcDbLine
 10
57.7710770022
 20
58.4866169018
 30
0.0
 11
357.7710770022
 21
58.4866169018
 31
0.0
  0
LINE
  5
92
330
1F
100
AcDbEntity
  8
0
  6
Continuous
 62
     7
370
    25
100
AcDbLine
 10
57.7710770022
 20
58.2209810681
 30
0.0
 11
57.7710770022
 21
58.4866221997
 31
0.0
  0
LINE
  5
93
330
1F
100
AcDbEntity
  8
0
  6
Continuous
 62
     7
370
    25
100
AcDbLine
 10
357.7710770022
 20
58.2209757705
 30
0.0
 11
357.7710770022
 21
58.4866150054
 31
0.0
  0
LINE
  5
94
330
1F
100
AcDbEntity
  8
0
  6
Continuous
 62
     7
370
    25
100
AcDbLine
 10
57.7710770022
 20
59.3273430408
 30
0.0
 11
357.7710770022
 21
59.3273430408
 31
0.0
  0
SPLINE
  5
95
330
1F
100
AcDbEntity
  8
0
  6
Continuous
 62
     7
370
    25
100
AcDbSpline
210
0.0
220
0.0
230
1.0
 70
    24
 71
     3
 72
    17
 73
    13
 74
     0
 42
0.000000001
 43
0.00000001
 40
0.0
 40
0.0
 40
0.0
 40
0.0
 40
0.0750459532310205
 40
0.1489442119889799
 40
0.2225840592526108
 40
0.2968640597171254
 40
0.3726600143549078
 40
0.4507967657356987
 40
0.5905965802101907
 40
0.7251815116789717
 40
0.8598780608166217
 40
1.0
 40
1.0
 40
1.0
 40
1.0
 10
57.77107700224649
 20
58.48662219969475
 30
0.0
 10
57.7710770022466
 20
58.52025081387877
 30
0.0
 10
57.77107700224649
 20
58.5869937523621
 30
0.0
 10
57.77107700224649
 20
58.68387475809911
 30
0.0
 10
57.77107700224637
 20
58.77676479121152
 30
0.0
 10
57.77107700224637
 20
58.86550578815216
 30
0.0
 10
57.77107700224649
 20
58.95011296082102
 30
0.0
 10
57.77107700224649
 20
59.05055368785439
 30
0.0
 10
57.77107700224682
 20
59.15696132646021
 30
0.0
 10
57.77107700224649
 20
59.25012302622331
 30
0.0
 10
57.77107700224637
 20
59.31066805058293
 30
0.0
 10
57.77107700224649
 20
59.32171203499043
 30
0.0
 10
57.77107700224649
 20
59.32734304082611
 30
0.0
  0
SPLINE
  5
96
330
1F
100
AcDbEntity
  8
0
  6
Continuous
 62
     7
370
    25
100
AcDbSpline
210
0.0
220
0.0
230
1.0
 70
    24
 71
     3
 72
    11
 73
     7
 74
     0
 42
0.000000001
 43
0.00000001
 40
0.5437715498325006
 40
0.5437715498325006
 40
0.5437715498325006
 40
0.5437715498325006
 40
0.75
 40
0.75
 40
0.75
 40
1.0
 40
1.0
 40
1.0
 40
1.0
 10
357.7710770022465
 20
58.48661634341525
 30
0.0
 10
357.7710770022465
 20
58.6917206137591
 30
0.0
 10
357.7710770022465
 20
58.87229679553426
 30
0.0
 10
357.7710770022465
 20
59.02834488874073
 30
0.0
 10
357.7710770022465
 20
59.217196211568
 30
0.0
 10
357.7710770022465
 20
59.31686226226313
 30
0.0
 10
357.7710770022465
 20
59.32734304082613
 30
0.0
  0
LINE
  5
97
330
1F
100
AcDbEntity
  8
0
  6
Continuous
 62
     7
370
    25
100
AcDbLine
 10
57.7710770022
 20
54.3862915519
 30
0.0
 11
357.7710770022
 21
54.3862915519
 31
0.0
  0
LINE
  5
98
330
1F
100
AcDbEntity
  8
0
  6
Continuous
 62
     7
370
    25
100
AcDbLine
 10
357.7710770022
 20
53.3867751538
 30
0.0
 11
57.7710770022
 21
53.3867751538
 31
0.0
  0
LINE
  5
99
330
1F
100
AcDbEntity
  8
0
  6
Continuous
 62
     7
370
    25
100
AcDbLine
 10
57.7710770022
 20
53.3867751538
 30
0.0
 11
57.7710770022
 21
54.3862915519
 31
0.0
  0
LINE
  5
9A
330
1F
100
AcDbEntity
  8
0
  6
Continuous
 62
     7
370
    25
100
AcDbLine
 10
357.7710770022
 20
54.3862915519
 30
0.0
 11
357.7710770022
 21
53.3867751538
 31
0.0
  0
LINE
  5
9B
330
1F
100
AcDbEntity
  8
0
  6
Continuous
 62
     7
370
    25
100
AcDbLine
 10
357.7710770022
 20
47.2918162892
 30
0.0
 11
57.7710770022
 21
47.2918162892
 31
0.0
  0
LINE
  5
9C
330
1F
100
AcDbEntity
  8
0
  6
Continuous
 62
     7
370
    25
100
AcDbLine
 10
57.7710770022
 20
48.2914245196
 30
0.0
 11
357.7710770022
 21
48.2914245196
 31
0.0
  0
LINE
  5
9D
330
1F
100
AcDbEntity
  8
0
  6
Continuous
 62
     7
370
    25
100
AcDbLine
 10
57.7710770022
 20
47.2918162892
 30
0.0
 11
57.7710770022
 21
48.2914245196
 31
0.0
  0
LINE
  5
9E
330
1F
100
AcDbEntity
  8
0
  6
Continuous
 62
     7
370
    25
100
AcDbLine
 10
357.7710770022
 20
48.2914245196
 30
0.0
 11
357.7710770022
 21
47.2918162892
 31
0.0
  0
LINE
  5
9F
330
1F
100
AcDbEntity
  8
0
  6
Continuous
 62
     7
370
    25
100
AcDbLine
 10
57.7710770022
 20
53.3136058403
 30
0.0
 11
357.7710770022
 21
53.3136058403
 31
0.0
  0
LINE
  5
A0
330
1F
100
AcDbEntity
  8
0
  6
Continuous
 62
     7
370
    25
100
AcDbLine
 10
57.7710770022
 20
53.3867751538
 30
0.0
 11
57.7710770022
 21
53.3136058403
 31
0.0
  0
LINE
  5
A1
330
1F
100
AcDbEntity
  8
0
  6
Continuous
 62
     7
370
    25
100
AcDbLine
 10
357.7710770022
 20
53.3867751538
 30
0.0
 11
357.7710770022
 21
53.3136058403
 31
0.0
  0
LINE
  5
A2
330
1F
100
AcDbEntity
  8
0
  6
Continuous
 62
     7
370
    25
100
AcDbLine
 10
357.7710770022
 20
48.3930406732
 30
0.0
 11
57.7710770022
 21
48.3930406732
 31
0.0
  0
LINE
  5
A3
330
1F
100
AcDbEntity
  8
0
  6
Continuous
 62
     7
370
    25
100
AcDbLine
 10
57.7710770022
 20
48.3930406732
 30
0.0
 11
57.7710770022
 21
48.2914245196
 31
0.0
  0
LINE
  5
A4
330
1F
100
AcDbEntity
  8
0
  6
Continuous
 62
     7
370
    25
100
AcDbLine
 10
357.7710770022
 20
48.3930406732
 30
0.0
 11
357.7710770022
 21
48.2914245196
 31
0.0
  0
LINE
  5
A5
330
1F
100
AcDbEntity
  8
0
  6
Continuous
 62
     7
370
    25
100
AcDbLine
 10
57.7710770022
 20
49.3926489035
 30
0.0
 11
357.7710770022
 21
49.3926489035
 31
0.0
  0
LINE
  5
A6
330
1F
100
AcDbEntity
  8
0
  6
Continuous
 62
     7
370
    25
100
AcDbLine
 10
57.7710770022
 20
48.3930406732
 30
0.0
 11
57.7710770022
 21
49.3926489035
 31
0.0
  0
LINE
  5
A7
330
1F
100
AcDbEntity
  8
0
  6
Continuous
 62
     7
370
    25
100
AcDbLine
 10
357.7710770022
 20
49.3926489035
 30
0.0
 11
357.7710770022
 21
48.3930406732
 31
0.0
  0
LINE
  5
A8
330
1F
100
AcDbEntity
  8
0
  6
Continuous
 62
     7
370
    25
100
AcDbLine
 10
357.7710770022
 20
52.3140894422
 30
0.0
 11
57.7710770022
 21
52.3140894422
 31
0.0
  0
LINE
  5
A9
330
1F
100
AcDbEntity
  8
0
  6
Continuous
 62
     7
370
    25
100
AcDbLine
 10
57.7710770022
 20
52.3140894422
 30
0.0
 11
57.7710770022
 21
53.3136058403
 31
0.0
  0
LINE
  5
AA
330
1F
100
AcDbEntity
  8
0
  6
Continuous
 62
     7
370
    25
100
AcDbLine
 10
357.7710770022
 20
53.3136058403
 30
0.0
 11
357.7710770022
 21
52.3140894422
 31
0.0
  0
LINE
  5
AB
330
1F
100
AcDbEntity
  8
0
  6
Continuous
 62
     7
370
    25
100
AcDbLine
 10
57.7710770022
 20
57.099919091
 30
0.0
 11
357.7710770022
 21
57.099919091
 31
0.0
  0
LINE
  5
AC
330
1F
100
AcDbEntity
  8
0
  6
Continuous
 62
     7
370
    25
100
AcDbLine
 10
57.7710770022
 20
57.099919091
 30
0.0
 11
57.7710770022
 21
57.379371983
 31
0.0
  0
LINE
  5
AD
330
1F
100
AcDbEntity
  8
0
  6
Continuous
 62
     7
370
    25
100
AcDbLine
 10
357.7710770022
 20
57.099919091
 30
0.0
 11
357.7710770022
 21
57.379371983
 31
0.0
  0
LINE
  5
AE
330
1F
100
AcDbEntity
  8
0
  6
Continuous
 62
     7
370
    25
100
AcDbLine
 10
57.7710770022
 20
59.5922325964
 30
0.0
 11
357.7710770022
 21
59.5922325964
 31
0.0
  0
LINE
  5
AF
330
1F
100
AcDbEntity
  8
0
  6
Continuous
 62
     7
370
    25
100
AcDbLine
 10
57.7710770022
 20
59.3273430408
 30
0.0
 11
57.7710770022
 21
59.5922325964
 31
0.0
  0
LINE
  5
B0
330
1F
100
AcDbEntity
  8
0
  6
Continuous
 62
     7
370
    25
100
AcDbLine
 10
357.7710770022
 20
59.3273430408
 30
0.0
 11
357.7710770022
 21
59.5922325964
 31
0.0
  0
LINE
  5
B1
330
1F
100
AcDbEntity
  8
0
  6
Continuous
 62
     7
370
    25
100
AcDbLine
 10
57.7710770022
 20
54.5922325964
 30
0.0
 11
357.7710770022
 21
54.5922325964
 31
0.0
  0
LINE
  5
B2
330
1F
100
AcDbEntity
  8
0
  6
Continuous
 62
     7
370
    25
100
AcDbLine
 10
57.7710770022
 20
54.3862915519
 30
0.0
 11
57.7710770022
 21
54.5922325964
 31
0.0
  0
LINE
  5
B3
330
1F
100
AcDbEntity
  8
0
  6
Continuous
 62
     7
370
    25
100
AcDbLine
 10
357.7710770022
 20
54.3862915519
 30
0.0
 11
357.7710770022
 21
54.5922325964
 31
0.0
  0
LINE
  5
B4
330
1F
100
AcDbEntity
  8
0
  6
Continuous
 62
     7
370
    25
100
AcDbLine
 10
57.7710770022
 20
52.0982613457
 30
0.0
 11
357.7710770022
 21
52.0982613457
 31
0.0
  0
LINE
  5
B5
330
1F
100
AcDbEntity
  8
0
  6
Continuous
 62
     7
370
    25
100
AcDbLine
 10
57.7710770022
 20
52.0982613457
 30
0.0
 11
57.7710770022
 21
52.3140894422
 31
0.0
  0
LINE
  5
B6
330
1F
100
AcDbEntity
  8
0
  6
Continuous
 62
     7
370
    25
100
AcDbLine
 10
357.7710770022
 20
52.0982613457
 30
0.0
 11
357.7710770022
 21
52.3140894422
 31
0.0
  0
LINE
  5
B7
330
1F
100
AcDbEntity
  8
0
  6
Continuous
 62
     7
370
    25
100
AcDbLine
 10
57.7710770022
 20
47.0976758578
 30
0.0
 11
357.7710770022
 21
47.0976758578
 31
0.0
  0
LINE
  5
B8
330
1F
100
AcDbEntity
  8
0
  6
Continuous
 62
     7
370
    25
100
AcDbLine
 10
57.7710770022
 20
47.0976758578
 30
0.0
 11
57.7710770022
 21
47.2918162892
 31
0.0
  0
LINE
  5
B9
330
1F
100
AcDbEntity
  8
0
  6
Continuous
 62
     7
370
    25
100
AcDbLine
 10
357.7710770022
 20
47.0976758578
 30
0.0
 11
357.7710770022
 21
47.2918162892
 31
0.0
  0
LINE
  5
BA
330
1F
100
AcDbEntity
  8
0
  6
Continuous
 62
     7
370
    25
100
AcDbLine
 10
57.7710770022
 20
49.586789335
 30
0.0
 11
357.7710770022
 21
49.586789335
 31
0.0
  0
LINE
  5
BB
330
1F
100
AcDbEntity
  8
0
  6
Continuous
 62
     7
370
    25
100
AcDbLine
 10
57.7710770022
 20
49.3926489035
 30
0.0
 11
57.7710770022
 21
49.586789335
 31
0.0
  0
LINE
  5
BC
330
1F
100
AcDbEntity
  8
0
  6
Continuous
 62
     7
370
    25
100
AcDbLine
 10
357.7710770022
 20
49.3926489035
 30
0.0
 11
357.7710770022
 21
49.586789335
 31
0.0
  0
LINE
  5
BD
330
1F
100
AcDbEntity
  8
0
  6
Continuous
 62
     7
370
    25
100
AcDbLine
 10
57.7710770022
 20
44.7922325964
 30
0.0
 11
357.7710770022
 21
44.7922325964
 31
0.0
  0
LINE
  5
BE
330
1F
100
AcDbEntity
  8
0
  6
Continuous
 62
     7
370
    25
100
AcDbLine
 10
57.7710770022
 20
44.5922325964
 30
0.0
 11
57.7710770022
 21
44.7922325964
 31
0.0
  0
LINE
  5
BF
330
1F
100
AcDbEntity
  8
0
  6
Continuous
 62
     7
370
    25
100
AcDbLine
 10
357.7710770022
 20
44.5922325964
 30
0.0
 11
357.7710770022
 21
44.7922325964
 31
0.0
  0
LINE
  5
C0
330
1F
100
AcDbEntity
  8
0
  6
Continuous
 62
     7
370
    25
100
AcDbLine
 10
57.7710770022
 20
54.7922325964
 30
0.0
 11
357.7710770022
 21
54.7922325964
 31
0.0
  0
LINE
  5
C1
330
1F
100
AcDbEntity
  8
0
  6
Continuous
 62
     7
370
    25
100
AcDbLine
 10
57.7710770022
 20
54.5922325964
 30
0.0
 11
57.7710770022
 21
54.7922325964
 31
0.0
  0
LINE
  5
C2
330
1F
100
AcDbEntity
  8
0
  6
Continuous
 62
     7
370
    25
100
AcDbLine
 10
357.7710770022
 20
54.5922325964
 30
0.0
 11
357.7710770022
 21
54.7922325964
 31
0.0
  0
LINE
  5
C3
330
1F
100
AcDbEntity
  8
0
  6
Continuous
 62
     7
370
    25
100
AcDbLine
 10
57.7710770022
 20
49.786710981
 30
0.0
 11
357.7710770022
 21
49.786710981
 31
0.0
  0
LINE
  5
C4
330
1F
100
AcDbEntity
  8
0
  6
Continuous
 62
     7
370
    25
100
AcDbLine
 10
57.7710770022
 20
49.586789335
 30
0.0
 11
57.7710770022
 21
49.786710981
 31
0.0
  0
LINE
  5
C5
330
1F
100
AcDbEntity
  8
0
  6
Continuous
 62
     7
370
    25
100
AcDbLine
 10
357.7710770022
 20
49.586789335
 30
0.0
 11
357.7710770022
 21
49.786710981
 31
0.0
  0
LINE
  5
C6
330
1F
100
AcDbEntity
  8
0
  6
Continuous
 62
     7
370
    25
100
AcDbLine
 10
57.7710770022
 20
46.8977542117
 30
0.0
 11
357.7710770022
 21
46.8977542117
 31
0.0
  0
LINE
  5
C7
330
1F
100
AcDbEntity
  8
0
  6
Continuous
 62
     7
370
    25
100
AcDbLine
 10
57.7710770022
 20
46.8977542117
 30
0.0
 11
57.7710770022
 21
47.0976758578
 31
0.0
  0
LINE
  5
C8
330
1F
100
AcDbEntity
  8
0
  6
Continuous
 62
     7
370
    25
100
AcDbLine
 10
357.7710770022
 20
46.8977542117
 30
0.0
 11
357.7710770022
 21
47.0976758578
 31
0.0
  0
LINE
  5
C9
330
1F
100
AcDbEntity
  8
0
  6
Continuous
 62
     7
370
    25
100
AcDbLine
 10
57.7710770022
 20
51.8983580661
 30
0.0
 11
357.7710770022
 21
51.8983580661
 31
0.0
  0
LINE
  5
CA
330
1F
100
AcDbEntity
  8
0
  6
Continuous
 62
     7
370
    25
100
AcDbLine
 10
57.7710770022
 20
51.8983580661
 30
0.0
 11
57.7710770022
 21
52.0982613457
 31
0.0
  0
LINE
  5
CB
330
1F
100
AcDbEntity
  8
0
  6
Continuous
 62
     7
370
    25
100
AcDbLine
 10
357.7710770022
 20
51.8983580661
 30
0.0
 11
357.7710770022
 21
52.0982613457
 31
0.0
  0
LINE
  5
CC
330
1F
100
AcDbEntity
  8
0
  6
Continuous
 62
     7
370
    25
100
AcDbLine
 10
57.7710770022
 20
56.90007917
 30
0.0
 11
357.7710770022
 21
56.90007917
 31
0.0
  0
LINE
  5
CD
330
1F
100
AcDbEntity
  8
0
  6
Continuous
 62
     7
370
    25
100
AcDbLine
 10
57.7710770022
 20
56.90007917
 30
0.0
 11
57.7710770022
 21
57.099919091
 31
0.0
  0
LINE
  5
CE
330
1F
100
AcDbEntity
  8
0
  6
Continuous
 62
     7
370
    25
100
AcDbLine
 10
357.7710770022
 20
56.90007917
 30
0.0
 11
357.7710770022
 21
57.099919091
 31
0.0
  0
LINE
  5
CF
330
1F
100
AcDbEntity
  8
0
  6
Continuous
 62
     7
370
    25
100
AcDbLine
 10
57.7710770022
 20
49.786710981
 30
0.0
 11
57.7710770022
 21
51.8983580661
 31
0.0
  0
LINE
  5
D0
330
1F
100
AcDbEntity
  8
0
  6
Continuous
 62
     7
370
    25
100
AcDbLine
 10
357.7710770022
 20
49.786710981
 30
0.0
 11
357.7710770022
 21
51.8983580661
 31
0.0
  0
LINE
  5
D1
330
1F
100
AcDbEntity
  8
0
  6
Continuous
 62
     7
370
    25
100
AcDbLine
 10
57.7710770022
 20
54.7922325964
 30
0.0
 11
57.7710770022
 21
56.90007917
 31
0.0
  0
LINE
  5
D2
330
1F
100
AcDbEntity
  8
0
  6
Continuous
 62
     7
370
    25
100
AcDbLine
 10
357.7710770022
 20
54.7922325964
 30
0.0
 11
357.7710770022
 21
56.90007917
 31
0.0
  0
LINE
  5
D3
330
1F
100
AcDbEntity
  8
0
  6
Continuous
 62
     7
370
    25
100
AcDbLine
 10
57.7710770022
 20
44.7922325964
 30
0.0
 11
57.7710770022
 21
46.8977542117
 31
0.0
  0
LINE
  5
D4
330
1F
100
AcDbEntity
  8
0
  6
Continuous
 62
     7
370
    25
100
AcDbLine
 10
357.7710770022
 20
44.7922325964
 30
0.0
 11
357.7710770022
 21
46.8977542117
 31
0.0
  0
LINE
  5
D5
330
1F
100
AcDbEntity
  8
0
  6
Continuous
 62
     7
370
    25
100
AcDbLine
 10
57.7710770022
 20
59.7922325964
 30
0.0
 11
357.7710770022
 21
59.7922325964
 31
0.0
  0
LINE
  5
D6
330
1F
100
AcDbEntity
  8
0
  6
Continuous
 62
     7
370
    25
100
AcDbLine
 10
57.7710770022
 20
59.5922325964
 30
0.0
 11
57.7710770022
 21
59.7922325964
 31
0.0
  0
LINE
  5
D7
330
1F
100
AcDbEntity
  8
0
  6
Continuous
 62
     7
370
    25
100
AcDbLine
 10
357.7710770022
 20
59.7922325964
 30
0.0
 11
357.7710770022
 21
59.5922325964
 31
0.0
  0
LINE
  5
D8
330
1F
100
AcDbEntity
  8
0
  6
Continuous
 62
     7
370
    25
100
AcDbLine
 10
57.7710770022
 20
59.7922325964
 30
0.0
 11
57.7710770022
 21
66.1422325964
 31
0.0
  0
LINE
  5
D9
330
1F
100
AcDbEntity
  8
0
  6
Continuous
 62
     7
370
    25
100
AcDbLine
 10
357.7710770022
 20
66.1422325964
 30
0.0
 11
357.7710770022
 21
59.7922325964
 31
0.0
  0
LINE
  5
DA
330
1F
100
AcDbEntity
  8
0
  6
Continuous
 62
     7
370
    25
100
AcDbLine
 10
57.7710770022
 20
73.0422325964
 30
0.0
 11
57.7710770022
 21
77.5093898839
 31
0.0
  0
LINE
  5
DB
330
1F
100
AcDbEntity
  8
0
  6
Continuous
 62
     7
370
    25
100
AcDbLine
 10
357.7710770022
 20
77.5093898839
 30
0.0
 11
357.7710770022
 21
73.0422325964
 31
0.0
  0
LINE
  5
DC
330
1F
100
AcDbEntity
  8
0
  6
Continuous
 62
     7
370
    25
100
AcDbLine
 10
57.7710770022
 20
66.3422325964
 30
0.0
 11
82.9648295042
 21
66.3422325964
 31
0.0
  0
LINE
  5
DD
330
1F
100
AcDbEntity
  8
0
  6
Continuous
 62
     7
370
    25
100
AcDbLine
 10
122.5773245002
 20
66.3422325964
 30
0.0
 11
292.9648295042
 21
66.3422325964
 31
0.0
  0
LINE
  5
DE
330
1F
100
AcDbEntity
  8
0
  6
Continuous
 62
     7
370
    25
100
AcDbLine
 10
332.5773245002
 20
66.3422325964
 30
0.0
 11
357.7710770022
 21
66.3422325964
 31
0.0
  0
LINE
  5
DF
330
1F
100
AcDbEntity
  8
0
  6
Continuous
 62
     7
370
    25
100
AcDbLine
 10
57.7710770022
 20
66.3422325964
 30
0.0
 11
57.7710770022
 21
66.1422325964
 31
0.0
  0
LINE
  5
E0
330
1F
100
AcDbEntity
  8
0
  6
Continuous
 62
     7
370
    25
100
AcDbLine
 10
357.7710770022
 20
66.1422325964
 30
0.0
 11
357.7710770022
 21
66.3422325964
 31
0.0
  0
LINE
  5
E1
330
1F
100
AcDbEntity
  8
0
  6
Continuous
 62
     7
370
    25
100
AcDbLine
 10
357.7710770022
 20
72.8422325964
 30
0.0
 11
332.7710770022
 21
72.8422325964
 31
0.0
  0
LINE
  5
E2
330
1F
100
AcDbEntity
  8
0
  6
Continuous
 62
     7
370
    25
100
AcDbLine
 10
292.7710770022
 20
72.8422325964
 30
0.0
 11
122.7710770022
 21
72.8422325964
 31
0.0
  0
LINE
  5
E3
330
1F
100
AcDbEntity
  8
0
  6
Continuous
 62
     7
370
    25
100
AcDbLine
 10
82.7710770022
 20
72.8422325964
 30
0.0
 11
57.7710770022
 21
72.8422325964
 31
0.0
  0
LINE
  5
E4
330
1F
100
AcDbEntity
  8
0
  6
Continuous
 62
     7
370
    25
100
AcDbLine
 10
57.7710770022
 20
73.0422325964
 30
0.0
 11
57.7710770022
 21
72.8422325964
 31
0.0
  0
LINE
  5
E5
330
1F
100
AcDbEntity
  8
0
  6
Continuous
 62
     7
370
    25
100
AcDbLine
 10
357.7710770022
 20
72.8422325964
 30
0.0
 11
357.7710770022
 21
73.0422325964
 31
0.0
  0
LINE
  5
E6
330
1F
100
AcDbEntity
  8
0
  6
Continuous
 62
     7
370
    25
100
AcDbLine
 10
57.7710770022
 20
77.5093898839
 30
0.0
 11
57.7710770022
 21
77.6508112402
 31
0.0
  0
LINE
  5
E7
330
1F
100
AcDbEntity
  8
0
  6
Continuous
 62
     7
370
    25
100
AcDbLine
 10
357.7710770022
 20
77.6508112402
 30
0.0
 11
357.7710770022
 21
77.5093898839
 31
0.0
  0
LINE
  5
E8
330
1F
100
AcDbEntity
  8
0
  6
Continuous
 62
     7
370
    25
100
AcDbLine
 10
57.7710770022
 20
77.6508112402
 30
0.0
 11
57.7710770022
 21
79.5336539526
 31
0.0
  0
LINE
  5
E9
330
1F
100
AcDbEntity
  8
0
  6
Continuous
 62
     7
370
    25
100
AcDbLine
 10
357.7710770022
 20
79.5336539526
 30
0.0
 11
357.7710770022
 21
77.6508112402
 31
0.0
  0
LINE
  5
EA
330
1F
100
AcDbEntity
  8
0
  6
Continuous
 62
     7
370
    25
100
AcDbLine
 10
57.7710770022
 20
79.5922325964
 30
0.0
 11
82.7710770022
 21
79.5922325964
 31
0.0
  0
LINE
  5
EB
330
1F
100
AcDbEntity
  8
0
  6
Continuous
 62
     7
370
    25
100
AcDbLine
 10
122.7710770022
 20
79.5922325964
 30
0.0
 11
292.7710770022
 21
79.5922325964
 31
0.0
  0
LINE
  5
EC
330
1F
100
AcDbEntity
  8
0
  6
Continuous
 62
     7
370
    25
100
AcDbLine
 10
332.7710770022
 20
79.5922325964
 30
0.0
 11
357.7710770022
 21
79.5922325964
 31
0.0
  0
LINE
  5
ED
330
1F
100
AcDbEntity
  8
0
  6
Continuous
 62
     7
370
    25
100
AcDbLine
 10
57.7710770022
 20
79.5336539526
 30
0.0
 11
57.7710770022
 21
79.5922325964
 31
0.0
  0
LINE
  5
EE
330
1F
100
AcDbEntity
  8
0
  6
Continuous
 62
     7
370
    25
100
AcDbLine
 10
357.7710770022
 20
79.5922325964
 30
0.0
 11
357.7710770022
 21
79.5336539526
 31
0.0
  0
LINE
  5
EF
330
1F
100
AcDbEntity
  8
0
  6
Continuous
 62
     7
370
    25
100
AcDbLine
 10
57.7710770022
 20
79.5922325964
 30
0.0
 11
57.7710770022
 21
80.0308290876
 31
0.0
  0
LINE
  5
F0
330
1F
100
AcDbEntity
  8
0
  6
Continuous
 62
     7
370
    25
100
AcDbLine
 10
357.7710770022
 20
80.0308290876
 30
0.0
 11
357.7710770022
 21
79.5922325964
 31
0.0
  0
LINE
  5
F1
330
1F
100
AcDbEntity
  8
0
  6
Continuous
 62
     7
370
    25
100
AcDbLine
 10
57.7710770022
 20
80.0308290876
 30
0.0
 11
57.7710770022
 21
85.8422325964
 31
0.0
  0
LINE
  5
F2
330
1F
100
AcDbEntity
  8
0
  6
Continuous
 62
     7
370
    25
100
AcDbLine
 10
357.7710770022
 20
85.8422325964
 30
0.0
 11
357.7710770022
 21
80.0308290876
 31
0.0
  0
LINE
  5
F3
330
1F
100
AcDbEntity
  8
0
  6
Continuous
 62
     7
370
    25
100
AcDbLine
 10
57.7710770022
 20
66.3422325964
 30
0.0
 11
57.7710770022
 21
72.8422325964
 31
0.0
  0
LINE
  5
F4
330
1F
100
AcDbEntity
  8
0
  6
Continuous
 62
     7
370
    25
100
AcDbLine
 10
357.7710770022
 20
72.8422325964
 30
0.0
 11
357.7710770022
 21
66.3422325964
 31
0.0
  0
SPLINE
  5
F5
330
1F
100
AcDbEntity
  8
0
  6
Continuous
 62
     7
370
    25
100
AcDbSpline
210
0.0
220
0.0
230
1.0
 70
    24
 71
     3
 72
    20
 73
    16
 74
     0
 42
0.000000001
 43
0.00000001
 40
0.0
 40
0.0
 40
0.0
 40
0.0
 40
0.0699486873700229
 40
0.1344005952918124
 40
0.2002202651727275
 40
0.2660399350536425
 40
0.3304918429754322
 40
0.4502202651727276
 40
0.5699486873700229
 40
0.6344005952918124
 40
0.7002202651727275
 40
0.7660399350536425
 40
0.830491842975432
 40
0.9502202651727273
 40
0.9999999999999999
 40
0.9999999999999999
 40
0.9999999999999999
 40
0.9999999999999999
 10
52.57107700224628
 20
81.24084675130999
 30
0.0
 10
52.57107700224617
 20
81.26419315846906
 30
0.0
 10
52.57107700224606
 20
81.30905134148978
 30
0.0
 10
52.57107700224639
 20
80.65623910872267
 30
0.0
 10
52.57107700224606
 20
79.76542368551833
 30
0.0
 10
52.57107700224639
 20
78.54861259682
 30
0.0
 10
52.57107700224595
 20
76.69204869957021
 30
0.0
 10
52.5710770022465
 20
74.00036994847699
 30
0.0
 10
52.57107700224606
 20
71.14128457549373
 30
0.0
 10
52.57107700224628
 20
68.95042508576468
 30
0.0
 10
52.57107700224628
 20
67.38289202141287
 30
0.0
 10
52.57107700224617
 20
66.0276762944416
 30
0.0
 10
52.57107700224606
 20
64.68658581552634
 30
0.0
 10
52.57107700224628
 20
63.78108232557489
 30
0.0
 10
52.57107700224628
 20
63.90672171779963
 30
0.0
 10
52.57107700224617
 20
63.94361844146526
 30
0.0
  0
LINE
  5
F6
330
1F
100
AcDbEntity
  8
0
  6
Continuous
 62
     7
370
    25
100
AcDbLine
 10
56.1877436689
 20
63.7028008647
 30
0.0
 11
56.1877436689
 21
63.5922325964
 31
0.0
  0
LINE
  5
F7
330
1F
100
AcDbEntity
  8
0
  6
Continuous
 62
     7
370
    25
100
AcDbLine
 10
56.1877436689
 20
81.5922325964
 30
0.0
 11
56.1877436689
 21
63.7028008647
 31
0.0
  0
LINE
  5
F8
330
1F
100
AcDbEntity
  8
0
  6
Continuous
 62
     7
370
    25
100
AcDbLine
 10
56.0377436689
 20
63.5922325964
 30
0.0
 11
56.0377436689
 21
81.5922325964
 31
0.0
  0
SPLINE
  5
F9
330
1F
100
AcDbEntity
  8
0
  6
Continuous
 62
     7
370
    25
100
AcDbSpline
210
0.0
220
0.0
230
1.0
 70
     8
 71
     3
 72
    11
 73
     7
 74
     0
 42
0.000000001
 43
0.00000001
 40
0.0
 40
0.0
 40
0.0
 40
0.0
 40
0.0751899812743858
 40
0.2793537492081868
 40
0.6278405698486555
 40
1.0
 40
1.0
 40
1.0
 40
1.0
 10
377.0710770022461
 20
68.59223259638856
 30
0.0
 10
377.0655297430503
 20
68.46943458146811
 30
0.0
 10
377.0449199805805
 20
68.01320244412835
 30
0.0
 10
376.6770651876472
 20
67.01823897811346
 30
0.0
 10
375.644204288788
 20
65.77349969692963
 30
0.0
 10
374.6245036036204
 20
64.99451792365257
 30
0.0
 10
374.0979051158047
 20
64.59223259638897
 30
0.0
  0
LINE
  5
FA
330
1F
100
AcDbEntity
  8
0
  6
Continuous
 62
     7
370
    25
100
AcDbLine
 10
374.0979051158
 20
64.5922325964
 30
0.0
 11
366.7710770022
 21
64.5922325964
 31
0.0
  0
LINE
  5
FB
330
1F
100
AcDbEntity
  8
0
  6
Continuous
 62
     7
370
    25
100
AcDbLine
 10
366.7710770022
 20
72.5922325964
 30
0.0
 11
366.7710770022
 21
64.5922325964
 31
0.0
  0
LINE
  5
FC
330
1F
100
AcDbEntity
  8
0
  6
Continuous
 62
     7
370
    25
100
AcDbLine
 10
374.0979051158
 20
72.5922325964
 30
0.0
 11
366.7710770022
 21
72.5922325964
 31
0.0
  0
SPLINE
  5
FD
330
1F
100
AcDbEntity
  8
0
  6
Continuous
 62
     7
370
    25
100
AcDbSpline
210
0.0
220
0.0
230
1.0
 70
     8
 71
     3
 72
    11
 73
     7
 74
     0
 42
0.000000001
 43
0.00000001
 40
0.0
 40
0.0
 40
0.0
 40
0.0
 40
0.2952963167244968
 40
0.5964521095477718
 40
0.8340441814209537
 40
1.0
 40
1.0
 40
1.0
 40
1.0
 10
374.0979051158048
 20
72.59223259638873
 30
0.0
 10
374.5180527087253
 20
72.2746602961593
 30
0.0
 10
375.3666847570304
 20
71.6332142039532
 30
0.0
 10
376.3661512194093
 20
70.57560333351007
 30
0.0
 10
376.9781726834416
 20
69.52466732721044
 30
0.0
 10
377.0440042860685
 20
68.8639480682479
 30
0.0
 10
377.0710770022461
 20
68.59223259638856
 30
0.0
  0
LINE
  5
FE
330
1F
100
AcDbEntity
  8
0
  6
Continuous
 62
     7
370
    25
100
AcDbLine
 10
377.0710770022
 20
76.5922325964
 30
0.0
 11
377.0710770022
 21
68.5922325964
 31
0.0
  0
SPLINE
  5
FF
330
1F
100
AcDbEntity
  8
0
  6
Continuous
 62
     7
370
    25
100
AcDbSpline
210
0.0
220
0.0
230
1.0
 70
     8
 71
     3
 72
    11
 73
     7
 74
     0
 42
0.000000001
 43
0.00000001
 40
0.0
 40
0.0
 40
0.0
 40
0.0
 40
0.0751899812743732
 40
0.2793537492082788
 40
0.6278405698486458
 40
1.0
 40
1.0
 40
1.0
 40
1.0
 10
377.0710770022461
 20
76.59223259638861
 30
0.0
 10
377.0655297430502
 20
76.46943458146812
 30
0.0
 10
377.0449199805801
 20
76.01320244412803
 30
0.0
 10
376.6770651876475
 20
75.01823897811383
 30
0.0
 10
375.6442042887872
 20
73.77349969692955
 30
0.0
 10
374.6245036036203
 20
72.99451792365241
 30
0.0
 10
374.0979051158048
 20
72.59223259638873
 30
0.0
  0
LINE
  5
100
330
1F
100
AcDbEntity
  8
0
  6
Continuous
 62
     7
370
    25
100
AcDbLine
 10
366.7710770022
 20
80.5922325964
 30
0.0
 11
366.7710770022
 21
72.5922325964
 31
0.0
  0
LINE
  5
101
330
1F
100
AcDbEntity
  8
0
  6
Continuous
 62
     7
370
    25
100
AcDbLine
 10
374.0979051158
 20
80.5922325964
 30
0.0
 11
366.7710770022
 21
80.5922325964
 31
0.0
  0
SPLINE
  5
102
330
1F
100
AcDbEntity
  8
0
  6
Continuous
 62
     7
370
    25
100
AcDbSpline
210
0.0
220
0.0
230
1.0
 70
     8
 71
     3
 72
    11
 73
     7
 74
     0
 42
0.000000001
 43
0.00000001
 40
0.0
 40
0.0
 40
0.0
 40
0.0
 40
0.2952963167245073
 40
0.5964521095477727
 40
0.8340441814209149
 40
0.9999999999999999
 40
0.9999999999999999
 40
0.9999999999999999
 40
0.9999999999999999
 10
374.0979051158047
 20
80.592232596389
 30
0.0
 10
374.5180527087252
 20
80.27466029615937
 30
0.0
 10
375.36668475703
 20
79.6332142039529
 30
0.0
 10
376.3661512194095
 20
78.5756033335102
 30
0.0
 10
376.9781726834417
 20
77.52466732721038
 30
0.0
 10
377.0440042860685
 20
76.86394806824796
 30
0.0
 10
377.0710770022461
 20
76.59223259638861
 30
0.0
  0
LINE
  5
103
330
1F
100
AcDbEntity
  8
0
  6
Continuous
 62
     7
370
    25
100
AcDbLine
 10
362.7710770022
 20
80.0922325964
 30
0.0
 11
357.7710770022
 21
80.0922325964
 31
0.0
  0
LINE
  5
104
330
1F
100
AcDbEntity
  8
0
  6
Continuous
 62
     7
370
    25
100
AcDbLine
 10
362.7710770022
 20
80.0922325964
 30
0.0
 11
362.7710770022
 21
72.5922325964
 31
0.0
  0
LINE
  5
105
330
1F
100
AcDbEntity
  8
0
  6
Continuous
 62
     7
370
    25
100
AcDbLine
 10
362.7710770022
 20
72.5922325964
 30
0.0
 11
357.7710770022
 21
72.5922325964
 31
0.0
  0
LINE
  5
106
330
1F
100
AcDbEntity
  8
0
  6
Continuous
 62
     7
370
    25
100
AcDbLine
 10
362.7710770022
 20
65.0922325964
 30
0.0
 11
357.7710770022
 21
65.0922325964
 31
0.0
  0
LINE
  5
107
330
1F
100
AcDbEntity
  8
0
  6
Continuous
 62
     7
370
    25
100
AcDbLine
 10
362.7710770022
 20
72.5922325964
 30
0.0
 11
362.7710770022
 21
65.0922325964
 31
0.0
  0
LINE
  5
108
330
1F
100
AcDbEntity
  8
0
  6
Continuous
 62
     7
370
    25
100
AcDbLine
 10
377.0710770022
 20
68.5922325964
 30
0.0
 11
377.0710770022
 21
64.5922325964
 31
0.0
  0
LINE
  5
109
330
1F
100
AcDbEntity
  8
0
  6
Continuous
 62
     7
370
    25
100
AcDbLine
 10
377.0710770022
 20
80.5922325964
 30
0.0
 11
377.0710770022
 21
76.5922325964
 31
0.0
  0
LINE
  5
10A
330
1F
100
AcDbEntity
  8
0
  6
Continuous
 62
     7
370
    25
100
AcDbLine
 10
380.2312293107
 20
76.5922325964
 30
0.0
 11
380.2312293107
 21
68.5922325964
 31
0.0
  0
SPLINE
  5
10B
330
1F
100
AcDbEntity
  8
0
  6
Continuous
 62
     7
370
    25
100
AcDbSpline
210
0.0
220
0.0
230
1.0
 70
    24
 71
     3
 72
    11
 73
     7
 74
     0
 42
0.000000001
 43
0.00000001
 40
0.0
 40
0.0
 40
0.0
 40
0.0
 40
0.1261535701327089
 40
0.3761480968261315
 40
0.8190923348809444
 40
1.0
 40
1.0
 40
1.0
 40
1.0
 10
377.0710770022461
 20
80.592232596389
 30
0.0
 10
377.0554283652901
 20
80.592232596389
 30
0.0
 10
377.0087693210577
 20
80.59223259638898
 30
0.0
 10
376.3576405351721
 20
80.59223259638912
 30
0.0
 10
375.246640531466
 20
80.59223259638837
 30
0.0
 10
374.3561375743857
 20
80.59223259638887
 30
0.0
 10
374.0979051158047
 20
80.592232596389
 30
0.0
  0
SPLINE
  5
10C
330
1F
100
AcDbEntity
  8
0
  6
Continuous
 62
     7
370
    25
100
AcDbSpline
210
0.0
220
0.0
230
1.0
 70
    24
 71
     3
 72
    11
 73
     7
 74
     0
 42
0.000000001
 43
0.00000001
 40
0.0
 40
0.0
 40
0.0
 40
0.0
 40
0.1809076651190739
 40
0.6238519031739039
 40
0.8738464298672793
 40
0.9999999999999999
 40
0.9999999999999999
 40
0.9999999999999999
 40
0.9999999999999999
 10
374.0979051158047
 20
64.59223259638898
 30
0.0
 10
374.3561375743856
 20
64.59223259638898
 30
0.0
 10
375.246640531466
 20
64.59223259638898
 30
0.0
 10
376.3576405351725
 20
64.59223259638897
 30
0.0
 10
377.0087693210572
 20
64.59223259638901
 30
0.0
 10
377.05542836529
 20
64.592232596389
 30
0.0
 10
377.0710770022461
 20
64.592232596389
 30
0.0
  0
CIRCLE
  5
10D
330
1F
100
AcDbEntity
  8
0
  6
Continuous
 62
     7
370
    25
100
AcDbCircle
 10
312.7710770022
 20
68.8422325964
 30
0.0
 40
5.25000000000001
  0
CIRCLE
  5
10E
330
1F
100
AcDbEntity
  8
0
  6
Continuous
 62
     7
370
    25
100
AcDbCircle
 10
312.7710770022
 20
68.8422325964
 30
0.0
 40
2.884941999999988
  0
LINE
  5
10F
330
1F
100
AcDbEntity
  8
0
  6
Continuous
 62
     7
370
    25
100
AcDbLine
 10
313.8138585196
 20
66.7816647037
 30
0.0
 11
315.0769719022
 21
68.7150239347
 31
0.0
  0
LINE
  5
110
330
1F
100
AcDbEntity
  8
0
  6
Continuous
 62
     7
370
    25
100
AcDbLine
 10
315.0769719022
 20
68.7150239347
 30
0.0
 11
314.0341903849
 21
70.7755918274
 31
0.0
  0
LINE
  5
111
330
1F
100
AcDbEntity
  8
0
  6
Continuous
 62
     7
370
    25
100
AcDbLine
 10
314.0341903849
 20
70.7755918274
 30
0.0
 11
311.7282954849
 21
70.9028004891
 31
0.0
  0
LINE
  5
112
330
1F
100
AcDbEntity
  8
0
  6
Continuous
 62
     7
370
    25
100
AcDbLine
 10
311.7282954849
 20
70.9028004891
 30
0.0
 11
310.4651821023
 21
68.9694412581
 31
0.0
  0
LINE
  5
113
330
1F
100
AcDbEntity
  8
0
  6
Continuous
 62
     7
370
    25
100
AcDbLine
 10
310.4651821023
 20
68.9694412581
 30
0.0
 11
311.5079636196
 21
66.9088733654
 31
0.0
  0
LINE
  5
114
330
1F
100
AcDbEntity
  8
0
  6
Continuous
 62
     7
370
    25
100
AcDbLine
 10
311.5079636196
 20
66.9088733654
 30
0.0
 11
313.8138585196
 21
66.7816647037
 31
0.0
  0
CIRCLE
  5
115
330
1F
100
AcDbEntity
  8
0
  6
Continuous
 62
     7
370
    25
100
AcDbCircle
 10
102.7710770022
 20
68.8422325964
 30
0.0
 40
2.884941999999973
  0
LINE
  5
116
330
1F
100
AcDbEntity
  8
0
  6
Continuous
 62
     7
370
    25
100
AcDbLine
 10
103.8138585196
 20
66.7816647037
 30
0.0
 11
105.0769719022
 21
68.7150239347
 31
0.0
  0
LINE
  5
117
330
1F
100
AcDbEntity
  8
0
  6
Continuous
 62
     7
370
    25
100
AcDbLine
 10
105.0769719022
 20
68.7150239347
 30
0.0
 11
104.0341903849
 21
70.7755918274
 31
0.0
  0
LINE
  5
118
330
1F
100
AcDbEntity
  8
0
  6
Continuous
 62
     7
370
    25
100
AcDbLine
 10
104.0341903849
 20
70.7755918274
 30
0.0
 11
101.7282954849
 21
70.9028004891
 31
0.0
  0
LINE
  5
119
330
1F
100
AcDbEntity
  8
0
  6
Continuous
 62
     7
370
    25
100
AcDbLine
 10
101.7282954849
 20
70.9028004891
 30
0.0
 11
100.4651821023
 21
68.9694412581
 31
0.0
  0
LINE
  5
11A
330
1F
100
AcDbEntity
  8
0
  6
Continuous
 62
     7
370
    25
100
AcDbLine
 10
100.4651821023
 20
68.9694412581
 30
0.0
 11
101.5079636196
 21
66.9088733654
 31
0.0
  0
LINE
  5
11B
330
1F
100
AcDbEntity
  8
0
  6
Continuous
 62
     7
370
    25
100
AcDbLine
 10
101.5079636196
 20
66.9088733654
 30
0.0
 11
103.8138585196
 21
66.7816647037
 31
0.0
  0
CIRCLE
  5
11C
330
1F
100
AcDbEntity
  8
0
  6
Continuous
 62
     7
370
    25
100
AcDbCircle
 10
102.7710770022
 20
68.8422325964
 30
0.0
 40
5.25000000000001
  0
LINE
  5
11D
330
1F
100
AcDbEntity
  8
0
  6
Continuous
 62
     7
370
    25
100
AcDbLine
 10
114.7710770022
 20
90.0922325964
 30
0.0
 11
114.7710770022
 21
92.0922325964
 31
0.0
  0
LINE
  5
11E
330
1F
100
AcDbEntity
  8
0
  6
Continuous
 62
     7
370
    25
100
AcDbLine
 10
114.7710770022
 20
92.0922325964
 30
0.0
 11
122.7710770022
 21
92.0922325964
 31
0.0
  0
LINE
  5
11F
330
1F
100
AcDbEntity
  8
0
  6
Continuous
 62
     7
370
    25
100
AcDbLine
 10
122.7710770022
 20
92.0922325964
 30
0.0
 11
122.7710770022
 21
90.0922325964
 31
0.0
  0
LINE
  5
120
330
1F
100
AcDbEntity
  8
0
  6
Continuous
 62
     7
370
    25
100
AcDbLine
 10
122.7710770022
 20
90.0922325964
 30
0.0
 11
114.7710770022
 21
90.0922325964
 31
0.0
  0
LINE
  5
121
330
1F
100
AcDbEntity
  8
0
  6
Continuous
 62
     7
370
    25
100
AcDbLine
 10
82.7710770022
 20
90.0922325964
 30
0.0
 11
82.7710770022
 21
92.0922325964
 31
0.0
  0
LINE
  5
122
330
1F
100
AcDbEntity
  8
0
  6
Continuous
 62
     7
370
    25
100
AcDbLine
 10
82.7710770022
 20
92.0922325964
 30
0.0
 11
90.7710770022
 21
92.0922325964
 31
0.0
  0
LINE
  5
123
330
1F
100
AcDbEntity
  8
0
  6
Continuous
 62
     7
370
    25
100
AcDbLine
 10
90.7710770022
 20
92.0922325964
 30
0.0
 11
90.7710770022
 21
90.0922325964
 31
0.0
  0
LINE
  5
124
330
1F
100
AcDbEntity
  8
0
  6
Continuous
 62
     7
370
    25
100
AcDbLine
 10
90.7710770022
 20
90.0922325964
 30
0.0
 11
82.7710770022
 21
90.0922325964
 31
0.0
  0
LINE
  5
125
330
1F
100
AcDbEntity
  8
0
  6
Continuous
 62
     7
370
    25
100
AcDbLine
 10
114.7710770022
 20
90.0922325964
 30
0.0
 11
90.7710770022
 21
90.0922325964
 31
0.0
  0
LINE
  5
126
330
1F
100
AcDbEntity
  8
0
  6
Continuous
 62
     7
370
    25
100
AcDbLine
 10
114.7710770022
 20
92.0922325964
 30
0.0
 11
90.7710770022
 21
92.0922325964
 31
0.0
  0
LINE
  5
127
330
1F
100
AcDbEntity
  8
0
  6
Continuous
 62
     7
370
    25
100
AcDbLine
 10
122.7710770022
 20
89.0922325964
 30
0.0
 11
122.7710770022
 21
90.0922325964
 31
0.0
  0
LINE
  5
128
330
1F
100
AcDbEntity
  8
0
  6
Continuous
 62
     7
370
    25
100
AcDbLine
 10
122.7710770022
 20
89.0922325964
 30
0.0
 11
82.7710770022
 21
89.0922325964
 31
0.0
  0
LINE
  5
129
330
1F
100
AcDbEntity
  8
0
  6
Continuous
 62
     7
370
    25
100
AcDbLine
 10
82.7710770022
 20
89.0922325964
 30
0.0
 11
82.7710770022
 21
90.0922325964
 31
0.0
  0
ARC
  5
12A
330
1F
100
AcDbEntity
  8
0
  6
Continuous
 62
     7
370
    25
100
AcDbCircle
 10
90.7710770022
 20
68.0922325964
 30
0.0
 40
8.0
100
AcDbArc
 50
180.0
 51
270.0
  0
LINE
  5
12B
330
1F
100
AcDbEntity
  8
0
  6
Continuous
 62
     7
370
    25
100
AcDbLine
 10
82.7710770022
 20
68.0922325964
 30
0.0
 11
82.7710770022
 21
89.0922325964
 31
0.0
  0
LINE
  5
12C
330
1F
100
AcDbEntity
  8
0
  6
Continuous
 62
     7
370
    25
100
AcDbLine
 10
122.7710770022
 20
68.0922325964
 30
0.0
 11
122.7710770022
 21
89.0922325964
 31
0.0
  0
LINE
  5
12D
330
1F
100
AcDbEntity
  8
0
  6
Continuous
 62
     7
370
    25
100
AcDbLine
 10
114.7710770022
 20
60.0922325964
 30
0.0
 11
90.7710770022
 21
60.0922325964
 31
0.0
  0
ARC
  5
12E
330
1F
100
AcDbEntity
  8
0
  6
Continuous
 62
     7
370
    25
100
AcDbCircle
 10
114.7710770022
 20
68.0922325964
 30
0.0
 40
8.0
100
AcDbArc
 50
270.0
 51
0.0
  0
LINE
  5
12F
330
1F
100
AcDbEntity
  8
0
  6
Continuous
 62
     7
370
    25
100
AcDbLine
 10
324.7710770022
 20
90.0922325964
 30
0.0
 11
324.7710770022
 21
92.0922325964
 31
0.0
  0
LINE
  5
130
330
1F
100
AcDbEntity
  8
0
  6
Continuous
 62
     7
370
    25
100
AcDbLine
 10
324.7710770022
 20
92.0922325964
 30
0.0
 11
332.7710770022
 21
92.0922325964
 31
0.0
  0
LINE
  5
131
330
1F
100
AcDbEntity
  8
0
  6
Continuous
 62
     7
370
    25
100
AcDbLine
 10
332.7710770022
 20
92.0922325964
 30
0.0
 11
332.7710770022
 21
90.0922325964
 31
0.0
  0
LINE
  5
132
330
1F
100
AcDbEntity
  8
0
  6
Continuous
 62
     7
370
    25
100
AcDbLine
 10
332.7710770022
 20
90.0922325964
 30
0.0
 11
324.7710770022
 21
90.0922325964
 31
0.0
  0
LINE
  5
133
330
1F
100
AcDbEntity
  8
0
  6
Continuous
 62
     7
370
    25
100
AcDbLine
 10
300.7710770022
 20
92.0922325964
 30
0.0
 11
300.7710770022
 21
90.0922325964
 31
0.0
  0
LINE
  5
134
330
1F
100
AcDbEntity
  8
0
  6
Continuous
 62
     7
370
    25
100
AcDbLine
 10
324.7710770022
 20
92.0922325964
 30
0.0
 11
300.7710770022
 21
92.0922325964
 31
0.0
  0
LINE
  5
135
330
1F
100
AcDbEntity
  8
0
  6
Continuous
 62
     7
370
    25
100
AcDbLine
 10
324.7710770022
 20
90.0922325964
 30
0.0
 11
300.7710770022
 21
90.0922325964
 31
0.0
  0
LINE
  5
136
330
1F
100
AcDbEntity
  8
0
  6
Continuous
 62
     7
370
    25
100
AcDbLine
 10
292.7710770022
 20
90.0922325964
 30
0.0
 11
292.7710770022
 21
92.0922325964
 31
0.0
  0
LINE
  5
137
330
1F
100
AcDbEntity
  8
0
  6
Continuous
 62
     7
370
    25
100
AcDbLine
 10
292.7710770022
 20
92.0922325964
 30
0.0
 11
300.7710770022
 21
92.0922325964
 31
0.0
  0
LINE
  5
138
330
1F
100
AcDbEntity
  8
0
  6
Continuous
 62
     7
370
    25
100
AcDbLine
 10
300.7710770022
 20
90.0922325964
 30
0.0
 11
292.7710770022
 21
90.0922325964
 31
0.0
  0
LINE
  5
139
330
1F
100
AcDbEntity
  8
0
  6
Continuous
 62
     7
370
    25
100
AcDbLine
 10
332.7710770022
 20
89.0922325964
 30
0.0
 11
332.7710770022
 21
90.0922325964
 31
0.0
  0
LINE
  5
13A
330
1F
100
AcDbEntity
  8
0
  6
Continuous
 62
     7
370
    25
100
AcDbLine
 10
332.7710770022
 20
89.0922325964
 30
0.0
 11
292.7710770022
 21
89.0922325964
 31
0.0
  0
LINE
  5
13B
330
1F
100
AcDbEntity
  8
0
  6
Continuous
 62
     7
370
    25
100
AcDbLine
 10
292.7710770022
 20
89.0922325964
 30
0.0
 11
292.7710770022
 21
90.0922325964
 31
0.0
  0
LINE
  5
13C
330
1F
100
AcDbEntity
  8
0
  6
Continuous
 62
     7
370
    25
100
AcDbLine
 10
324.7710770022
 20
60.0922325964
 30
0.0
 11
300.7710770022
 21
60.0922325964
 31
0.0
  0
LINE
  5
13D
330
1F
100
AcDbEntity
  8
0
  6
Continuous
 62
     7
370
    25
100
AcDbLine
 10
292.7710770022
 20
68.0922325964
 30
0.0
 11
292.7710770022
 21
89.0922325964
 31
0.0
  0
ARC
  5
13E
330
1F
100
AcDbEntity
  8
0
  6
Continuous
 62
     7
370
    25
100
AcDbCircle
 10
324.7710770022
 20
68.0922325964
 30
0.0
 40
8.0
100
AcDbArc
 50
270.0
 51
0.0
  0
ARC
  5
13F
330
1F
100
AcDbEntity
  8
0
  6
Continuous
 62
     7
370
    25
100
AcDbCircle
 10
300.7710770022
 20
68.0922325964
 30
0.0
 40
8.0
100
AcDbArc
 50
180.0
 51
270.0
  0
LINE
  5
140
330
1F
100
AcDbEntity
  8
0
  6
Continuous
 62
     7
370
    25
100
AcDbLine
 10
332.7710770022
 20
68.0922325964
 30
0.0
 11
332.7710770022
 21
89.0922325964
 31
0.0
  0
LINE
  5
141
330
1F
100
AcDbEntity
  8
0
  6
Continuous
 62
     8
370
    25
100
AcDbLine
 10
357.7710770022
 20
66.1422325964
 30
0.0
 11
332.5297817911
 21
66.1422325964
 31
0.0
  0
LINE
  5
142
330
1F
100
AcDbEntity
  8
0
  6
Continuous
 62
     8
370
    25
100
AcDbLine
 10
293.0123722134
 20
66.1422325964
 30
0.0
 11
122.5297817911
 21
66.1422325964
 31
0.0
  0
LINE
  5
143
330
1F
100
AcDbEntity
  8
0
  6
Continuous
 62
     8
370
    25
100
AcDbLine
 10
83.0123722134
 20
66.1422325964
 30
0.0
 11
57.7710770022
 21
66.1422325964
 31
0.0
  0
LINE
  5
144
330
1F
100
AcDbEntity
  8
0
  6
Continuous
 62
     8
370
    25
100
AcDbLine
 10
57.7710770022
 20
77.5093898839
 30
0.0
 11
82.7710770022
 21
77.5093898839
 31
0.0
  0
LINE
  5
145
330
1F
100
AcDbEntity
  8
0
  6
Continuous
 62
     8
370
    25
100
AcDbLine
 10
122.7710770022
 20
77.5093898839
 30
0.0
 11
292.7710770022
 21
77.5093898839
 31
0.0
  0
LINE
  5
146
330
1F
100
AcDbEntity
  8
0
  6
Continuous
 62
     8
370
    25
100
AcDbLine
 10
332.7710770022
 20
77.5093898839
 30
0.0
 11
357.7710770022
 21
77.5093898839
 31
0.0
  0
LINE
  5
147
330
1F
100
AcDbEntity
  8
0
  6
Continuous
 62
     8
370
    25
100
AcDbLine
 10
57.7710770022
 20
73.0422325964
 30
0.0
 11
82.7710770022
 21
73.0422325964
 31
0.0
  0
LINE
  5
148
330
1F
100
AcDbEntity
  8
0
  6
Continuous
 62
     8
370
    25
100
AcDbLine
 10
122.7710770022
 20
73.0422325964
 30
0.0
 11
292.7710770022
 21
73.0422325964
 31
0.0
  0
LINE
  5
149
330
1F
100
AcDbEntity
  8
0
  6
Continuous
 62
     8
370
    25
100
AcDbLine
 10
332.7710770022
 20
73.0422325964
 30
0.0
 11
357.7710770022
 21
73.0422325964
 31
0.0
  0
LINE
  5
14A
330
1F
100
AcDbEntity
  8
0
  6
Continuous
 62
     8
370
    25
100
AcDbLine
 10
57.7710770022
 20
77.6508112402
 30
0.0
 11
82.7710770022
 21
77.6508112402
 31
0.0
  0
LINE
  5
14B
330
1F
100
AcDbEntity
  8
0
  6
Continuous
 62
     8
370
    25
100
AcDbLine
 10
122.7710770022
 20
77.6508112402
 30
0.0
 11
292.7710770022
 21
77.6508112402
 31
0.0
  0
LINE
  5
14C
330
1F
100
AcDbEntity
  8
0
  6
Continuous
 62
     8
370
    25
100
AcDbLine
 10
332.7710770022
 20
77.6508112402
 30
0.0
 11
357.7710770022
 21
77.6508112402
 31
0.0
  0
LINE
  5
14D
330
1F
100
AcDbEntity
  8
0
  6
Continuous
 62
     8
370
    25
100
AcDbLine
 10
57.7710770022
 20
79.5336539526
 30
0.0
 11
82.7710770022
 21
79.5336539526
 31
0.0
  0
LINE
  5
14E
330
1F
100
AcDbEntity
  8
0
  6
Continuous
 62
     8
370
    25
100
AcDbLine
 10
122.7710770022
 20
79.5336539526
 30
0.0
 11
292.7710770022
 21
79.5336539526
 31
0.0
  0
LINE
  5
14F
330
1F
100
AcDbEntity
  8
0
  6
Continuous
 62
     8
370
    25
100
AcDbLine
 10
332.7710770022
 20
79.5336539526
 30
0.0
 11
357.7710770022
 21
79.5336539526
 31
0.0
  0
LINE
  5
150
330
1F
100
AcDbEntity
  8
0
  6
Continuous
 62
     8
370
    25
100
AcDbLine
 10
57.7710770022
 20
80.0308290876
 30
0.0
 11
82.7710770022
 21
80.0308290876
 31
0.0
  0
LINE
  5
151
330
1F
100
AcDbEntity
  8
0
  6
Continuous
 62
     8
370
    25
100
AcDbLine
 10
122.7710770022
 20
80.0308290876
 30
0.0
 11
292.7710770022
 21
80.0308290876
 31
0.0
  0
LINE
  5
152
330
1F
100
AcDbEntity
  8
0
  6
Continuous
 62
     8
370
    25
100
AcDbLine
 10
332.7710770022
 20
80.0308290876
 30
0.0
 11
357.7710770022
 21
80.0308290876
 31
0.0
  0
LINE
  5
153
330
1F
100
AcDbEntity
  8
0
  6
Continuous
 62
     8
370
    25
100
AcDbLine
 10
52.7710770022
 20
81.5922325964
 30
0.0
 11
52.7710770022
 21
63.5922325964
 31
0.0
  0
ARC
  5
154
330
1F
100
AcDbEntity
  8
0
  6
Continuous
 62
     7
370
    25
100
AcDbCircle
 10
52.7710770022
 20
179.8793851933
 30
0.0
 40
0.2000000000000171
100
AcDbArc
 50
90.0
 51
180.0
  0
ARC
  5
155
330
1F
100
AcDbEntity
  8
0
  6
Continuous
 62
     7
370
    25
100
AcDbCircle
 10
52.7710770022
 20
162.2793851933
 30
0.0
 40
0.2000000000000171
100
AcDbArc
 50
180.0
 51
270.0
  0
LINE
  5
156
330
1F
100
AcDbEntity
  8
0
  6
Continuous
 62
     7
370
    25
100
AcDbLine
 10
52.7710770022
 20
162.0793851933
 30
0.0
 11
56.0377436689
 21
162.0793851933
 31
0.0
  0
LINE
  5
157
330
1F
100
AcDbEntity
  8
0
  6
Continuous
 62
     7
370
    25
100
AcDbLine
 10
56.0377436689
 20
180.0793851933
 30
0.0
 11
52.7710770022
 21
180.0793851933
 31
0.0
  0
LINE
  5
158
330
1F
100
AcDbEntity
  8
0
  6
Continuous
 62
     7
370
    25
100
AcDbLine
 10
56.1877436689
 20
162.0793851933
 30
0.0
 11
57.7710770022
 21
162.0793851933
 31
0.0
  0
LINE
  5
159
330
1F
100
AcDbEntity
  8
0
  6
Continuous
 62
     7
370
    25
100
AcDbLine
 10
57.7710770022
 20
180.0793851933
 30
0.0
 11
56.1877436689
 21
180.0793851933
 31
0.0
  0
LINE
  5
15A
330
1F
100
AcDbEntity
  8
0
  6
Continuous
 62
     7
370
    25
100
AcDbLine
 10
56.0377436689
 20
162.9793851933
 30
0.0
 11
56.1877436689
 21
162.9793851933
 31
0.0
  0
LINE
  5
15B
330
1F
100
AcDbEntity
  8
0
  6
Continuous
 62
     7
370
    25
100
AcDbLine
 10
56.1877436689
 20
179.1793851933
 30
0.0
 11
56.0377436689
 21
179.1793851933
 31
0.0
  0
ARC
  5
15C
330
1F
100
AcDbEntity
  8
0
  6
Continuous
 62
     7
370
    25
100
AcDbCircle
 10
375.0563931028
 20
174.2393878727
 30
0.0
 40
5.242568576313046
100
AcDbArc
 50
9.220031224
 51
67.400126467
  0
ARC
  5
15D
330
1F
100
AcDbEntity
  8
0
  6
Continuous
 62
     7
370
    25
100
AcDbCircle
 10
375.0563931028
 20
167.9193825138
 30
0.0
 40
5.242568576313041
100
AcDbArc
 50
292.599873533
 51
350.779968776
  0
LINE
  5
15E
330
1F
100
AcDbEntity
  8
0
  6
Continuous
 62
     7
370
    25
100
AcDbLine
 10
362.7710770022
 20
164.8293851933
 30
0.0
 11
366.7710770022
 21
164.8293851933
 31
0.0
  0
LINE
  5
15F
330
1F
100
AcDbEntity
  8
0
  6
Continuous
 62
     7
370
    25
100
AcDbLine
 10
366.7710770022
 20
177.3293851933
 30
0.0
 11
362.7710770022
 21
177.3293851933
 31
0.0
  0
LINE
  5
160
330
1F
100
AcDbEntity
  8
0
  6
Continuous
 62
     7
370
    25
100
AcDbLine
 10
377.0710770022
 20
179.0793851933
 30
0.0
 11
374.0979051158
 21
180.3169895003
 31
0.0
  0
LINE
  5
161
330
1F
100
AcDbEntity
  8
0
  6
Continuous
 62
     7
370
    25
100
AcDbLine
 10
374.0979051158
 20
161.8417808862
 30
0.0
 11
377.0710770022
 21
163.0793851933
 31
0.0
  0
ARC
  5
162
330
1F
100
AcDbEntity
  8
0
  6
Continuous
 62
     7
370
    25
100
AcDbCircle
 10
244.7289422502
 20
158.0372504412
 30
0.0
 40
1.957865247939196
100
AcDbArc
 50
180.0
 51
270.0
  0
LINE
  5
163
330
1F
100
AcDbEntity
  8
0
  6
Continuous
 62
     7
370
    25
100
AcDbLine
 10
242.7710770022
 20
184.1215199453
 30
0.0
 11
242.7710770022
 21
158.0372504412
 31
0.0
  0
ARC
  5
164
330
1F
100
AcDbEntity
  8
0
  6
Continuous
 62
     7
370
    25
100
AcDbCircle
 10
244.7289422502
 20
184.1215199453
 30
0.0
 40
1.957865247939196
100
AcDbArc
 50
90.0
 51
180.0
  0
LINE
  5
165
330
1F
100
AcDbEntity
  8
0
  6
Continuous
 62
     7
370
    25
100
AcDbLine
 10
270.8132117543
 20
186.0793851933
 30
0.0
 11
244.7289422502
 21
186.0793851933
 31
0.0
  0
LINE
  5
166
330
1F
100
AcDbEntity
  8
0
  6
Continuous
 62
     7
370
    25
100
AcDbLine
 10
272.7710770022
 20
158.0372504412
 30
0.0
 11
272.7710770022
 21
184.1215199453
 31
0.0
  0
ARC
  5
167
330
1F
100
AcDbEntity
  8
0
  6
Continuous
 62
     7
370
    25
100
AcDbCircle
 10
270.8132117543
 20
158.0372504412
 30
0.0
 40
1.957865247939139
100
AcDbArc
 50
270.0
 51
0.0
  0
LINE
  5
168
330
1F
100
AcDbEntity
  8
0
  6
Continuous
 62
     7
370
    25
100
AcDbLine
 10
244.7289422502
 20
156.0793851933
 30
0.0
 11
270.8132117543
 21
156.0793851933
 31
0.0
  0
ARC
  5
169
330
1F
100
AcDbEntity
  8
0
  6
Continuous
 62
     7
370
    25
100
AcDbCircle
 10
270.8132117543
 20
184.1215199453
 30
0.0
 40
1.957865247939139
100
AcDbArc
 50
0.0
 51
90.0
  0
ARC
  5
16A
330
1F
100
AcDbEntity
  8
0
  6
Continuous
 62
     7
370
    25
100
AcDbCircle
 10
220.8132117543
 20
158.0372504412
 30
0.0
 40
1.957865247939168
100
AcDbArc
 50
270.0
 51
0.0
  0
LINE
  5
16B
330
1F
100
AcDbEntity
  8
0
  6
Continuous
 62
     7
370
    25
100
AcDbLine
 10
194.7289422502
 20
156.0793851933
 30
0.0
 11
220.8132117543
 21
156.0793851933
 31
0.0
  0
ARC
  5
16C
330
1F
100
AcDbEntity
  8
0
  6
Continuous
 62
     7
370
    25
100
AcDbCircle
 10
194.7289422502
 20
158.0372504412
 30
0.0
 40
1.957865247939168
100
AcDbArc
 50
180.0
 51
270.0
  0
LINE
  5
16D
330
1F
100
AcDbEntity
  8
0
  6
Continuous
 62
     7
370
    25
100
AcDbLine
 10
192.7710770022
 20
184.1215199453
 30
0.0
 11
192.7710770022
 21
158.0372504412
 31
0.0
  0
ARC
  5
16E
330
1F
100
AcDbEntity
  8
0
  6
Continuous
 62
     7
370
    25
100
AcDbCircle
 10
194.7289422502
 20
184.1215199453
 30
0.0
 40
1.957865247939168
100
AcDbArc
 50
90.0
 51
180.0
  0
LINE
  5
16F
330
1F
100
AcDbEntity
  8
0
  6
Continuous
 62
     7
370
    25
100
AcDbLine
 10
220.8132117543
 20
186.0793851933
 30
0.0
 11
194.7289422502
 21
186.0793851933
 31
0.0
  0
LINE
  5
170
330
1F
100
AcDbEntity
  8
0
  6
Continuous
 62
     7
370
    25
100
AcDbLine
 10
222.7710770022
 20
158.0372504412
 30
0.0
 11
222.7710770022
 21
184.1215199453
 31
0.0
  0
ARC
  5
171
330
1F
100
AcDbEntity
  8
0
  6
Continuous
 62
     7
370
    25
100
AcDbCircle
 10
220.8132117543
 20
184.1215199453
 30
0.0
 40
1.957865247939168
100
AcDbArc
 50
0.0
 51
90.0
  0
ARC
  5
172
330
1F
100
AcDbEntity
  8
0
  6
Continuous
 62
     7
370
    25
100
AcDbCircle
 10
144.7289422502
 20
184.1215199453
 30
0.0
 40
1.957865247939139
100
AcDbArc
 50
90.0
 51
180.0
  0
LINE
  5
173
330
1F
100
AcDbEntity
  8
0
  6
Continuous
 62
     7
370
    25
100
AcDbLine
 10
170.8132117543
 20
186.0793851933
 30
0.0
 11
144.7289422502
 21
186.0793851933
 31
0.0
  0
ARC
  5
174
330
1F
100
AcDbEntity
  8
0
  6
Continuous
 62
     7
370
    25
100
AcDbCircle
 10
170.8132117543
 20
184.1215199453
 30
0.0
 40
1.957865247939139
100
AcDbArc
 50
0.0
 51
90.0
  0
LINE
  5
175
330
1F
100
AcDbEntity
  8
0
  6
Continuous
 62
     7
370
    25
100
AcDbLine
 10
172.7710770022
 20
158.0372504412
 30
0.0
 11
172.7710770022
 21
184.1215199453
 31
0.0
  0
ARC
  5
176
330
1F
100
AcDbEntity
  8
0
  6
Continuous
 62
     7
370
    25
100
AcDbCircle
 10
170.8132117543
 20
158.0372504412
 30
0.0
 40
1.957865247939139
100
AcDbArc
 50
270.0
 51
0.0
  0
LINE
  5
177
330
1F
100
AcDbEntity
  8
0
  6
Continuous
 62
     7
370
    25
100
AcDbLine
 10
144.7289422502
 20
156.0793851933
 30
0.0
 11
170.8132117543
 21
156.0793851933
 31
0.0
  0
ARC
  5
178
330
1F
100
AcDbEntity
  8
0
  6
Continuous
 62
     7
370
    25
100
AcDbCircle
 10
144.7289422502
 20
158.0372504412
 30
0.0
 40
1.957865247939111
100
AcDbArc
 50
180.0
 51
270.0
  0
LINE
  5
179
330
1F
100
AcDbEntity
  8
0
  6
Continuous
 62
     7
370
    25
100
AcDbLine
 10
142.7710770022
 20
184.1215199453
 30
0.0
 11
142.7710770022
 21
158.0372504412
 31
0.0
  0
ARC
  5
17A
330
1F
100
AcDbEntity
  8
0
  6
Continuous
 62
     7
370
    25
100
AcDbCircle
 10
94.7289422502
 20
184.1215199453
 30
0.0
 40
1.957865247939182
100
AcDbArc
 50
90.0
 51
180.0
  0
LINE
  5
17B
330
1F
100
AcDbEntity
  8
0
  6
Continuous
 62
     7
370
    25
100
AcDbLine
 10
120.8132117543
 20
186.0793851933
 30
0.0
 11
94.7289422502
 21
186.0793851933
 31
0.0
  0
ARC
  5
17C
330
1F
100
AcDbEntity
  8
0
  6
Continuous
 62
     7
370
    25
100
AcDbCircle
 10
120.8132117543
 20
184.1215199453
 30
0.0
 40
1.957865247939168
100
AcDbArc
 50
0.0
 51
90.0
  0
LINE
  5
17D
330
1F
100
AcDbEntity
  8
0
  6
Continuous
 62
     7
370
    25
100
AcDbLine
 10
122.7710770022
 20
158.0372504412
 30
0.0
 11
122.7710770022
 21
184.1215199453
 31
0.0
  0
ARC
  5
17E
330
1F
100
AcDbEntity
  8
0
  6
Continuous
 62
     7
370
    25
100
AcDbCircle
 10
120.8132117543
 20
158.0372504412
 30
0.0
 40
1.957865247939168
100
AcDbArc
 50
270.0
 51
0.0
  0
LINE
  5
17F
330
1F
100
AcDbEntity
  8
0
  6
Continuous
 62
     7
370
    25
100
AcDbLine
 10
94.7289422502
 20
156.0793851933
 30
0.0
 11
120.8132117543
 21
156.0793851933
 31
0.0
  0
ARC
  5
180
330
1F
100
AcDbEntity
  8
0
  6
Continuous
 62
     7
370
    25
100
AcDbCircle
 10
94.7289422502
 20
158.0372504412
 30
0.0
 40
1.957865247939182
100
AcDbArc
 50
180.0
 51
270.0
  0
LINE
  5
181
330
1F
100
AcDbEntity
  8
0
  6
Continuous
 62
     7
370
    25
100
AcDbLine
 10
92.7710770022
 20
184.1215199453
 30
0.0
 11
92.7710770022
 21
158.0372504412
 31
0.0
  0
LINE
  5
182
330
1F
100
AcDbEntity
  8
0
  6
Continuous
 62
     7
370
    25
100
AcDbLine
 10
356.2710770022
 20
206.8293851933
 30
0.0
 11
357.2710770022
 21
205.8293851933
 31
0.0
  0
LINE
  5
183
330
1F
100
AcDbEntity
  8
0
  6
Continuous
 62
     7
370
    25
100
AcDbLine
 10
356.2710770022
 20
205.8293851933
 30
0.0
 11
357.2710770022
 21
205.8293851933
 31
0.0
  0
LINE
  5
184
330
1F
100
AcDbEntity
  8
0
  6
Continuous
 62
     7
370
    25
100
AcDbLine
 10
356.2710770022
 20
205.8293851933
 30
0.0
 11
356.2710770022
 21
206.8293851933
 31
0.0
  0
LINE
  5
185
330
1F
100
AcDbEntity
  8
0
  6
Continuous
 62
     7
370
    25
100
AcDbLine
 10
356.2710770022
 20
205.8293851933
 30
0.0
 11
59.2710770022
 21
205.8293851933
 31
0.0
  0
LINE
  5
186
330
1F
100
AcDbEntity
  8
0
  6
Continuous
 62
     7
370
    25
100
AcDbLine
 10
59.2710770022
 20
205.8293851933
 30
0.0
 11
59.2710770022
 21
206.8293851933
 31
0.0
  0
LINE
  5
187
330
1F
100
AcDbEntity
  8
0
  6
Continuous
 62
     7
370
    25
100
AcDbLine
 10
59.2710770022
 20
206.8293851933
 30
0.0
 11
356.2710770022
 21
206.8293851933
 31
0.0
  0
LINE
  5
188
330
1F
100
AcDbEntity
  8
0
  6
Continuous
 62
     7
370
    25
100
AcDbLine
 10
356.2710770022
 20
136.3293851933
 30
0.0
 11
356.2710770022
 21
205.8293851933
 31
0.0
  0
LINE
  5
189
330
1F
100
AcDbEntity
  8
0
  6
Continuous
 62
     7
370
    25
100
AcDbLine
 10
357.2710770022
 20
205.8293851933
 30
0.0
 11
357.2710770022
 21
136.3293851933
 31
0.0
  0
LINE
  5
18A
330
1F
100
AcDbEntity
  8
0
  6
Continuous
 62
     7
370
    25
100
AcDbLine
 10
357.2710770022
 20
136.3293851933
 30
0.0
 11
356.2710770022
 21
136.3293851933
 31
0.0
  0
LINE
  5
18B
330
1F
100
AcDbEntity
  8
0
  6
Continuous
 62
     7
370
    25
100
AcDbLine
 10
341.4561961024
 20
196.2179883927
 30
0.0
 11
341.4561961024
 21
195.1132284745
 31
0.0
  0
LINE
  5
18C
330
1F
100
AcDbEntity
  8
0
  6
Continuous
 62
     7
370
    25
100
AcDbLine
 10
351.2087929019
 20
195.1132284745
 30
0.0
 11
341.4561961024
 21
195.1132284745
 31
0.0
  0
LINE
  5
18D
330
1F
100
AcDbEntity
  8
0
  6
Continuous
 62
     7
370
    25
100
AcDbLine
 10
351.2087929019
 20
196.2179883927
 30
0.0
 11
351.2087929019
 21
195.1132284745
 31
0.0
  0
LINE
  5
18E
330
1F
100
AcDbEntity
  8
0
  6
Continuous
 62
     7
370
    25
100
AcDbLine
 10
351.2087929019
 20
196.2179883927
 30
0.0
 11
341.4561961024
 21
196.2179883927
 31
0.0
  0
LINE
  5
18F
330
1F
100
AcDbEntity
  8
0
  6
Continuous
 62
     7
370
    25
100
AcDbLine
 10
352.2680717279
 20
202.7992356929
 30
0.0
 11
352.2680717279
 21
203.304096322
 31
0.0
  0
LINE
  5
190
330
1F
100
AcDbEntity
  8
0
  6
Continuous
 62
     7
370
    25
100
AcDbLine
 10
353.2958715167
 20
202.7992356929
 30
0.0
 11
352.2680717279
 21
202.7992356929
 31
0.0
  0
LINE
  5
191
330
1F
100
AcDbEntity
  8
0
  6
Continuous
 62
     7
370
    25
100
AcDbLine
 10
353.2958715167
 20
201.8001563806
 30
0.0
 11
353.2958715167
 21
202.7992356929
 31
0.0
  0
LINE
  5
192
330
1F
100
AcDbEntity
  8
0
  6
Continuous
 62
     7
370
    25
100
AcDbLine
 10
353.7742228898
 20
201.8001563806
 30
0.0
 11
353.2958715167
 21
201.8001563806
 31
0.0
  0
LINE
  5
193
330
1F
100
AcDbEntity
  8
0
  6
Continuous
 62
     7
370
    25
100
AcDbLine
 10
353.7742228898
 20
203.271238873
 30
0.0
 11
353.7742228898
 21
201.8001563806
 31
0.0
  0
LINE
  5
194
330
1F
100
AcDbEntity
  8
0
  6
Continuous
 62
     7
370
    25
100
AcDbLine
 10
353.7413654408
 20
203.304096322
 30
0.0
 11
353.7742228898
 21
203.271238873
 31
0.0
  0
LINE
  5
195
330
1F
100
AcDbEntity
  8
0
  6
Continuous
 62
     7
370
    25
100
AcDbLine
 10
352.2680717279
 20
203.304096322
 30
0.0
 11
353.7413654408
 21
203.304096322
 31
0.0
  0
LINE
  5
196
330
1F
100
AcDbEntity
  8
0
  6
Continuous
 62
     7
370
    25
100
AcDbLine
 10
351.0791230042
 20
201.6194646055
 30
0.0
 11
351.0791230042
 21
201.1876679257
 31
0.0
  0
LINE
  5
197
330
1F
100
AcDbEntity
  8
0
  6
Continuous
 62
     7
370
    25
100
AcDbLine
 10
349.9916833945
 20
201.6194646055
 30
0.0
 11
351.0791230042
 21
201.6194646055
 31
0.0
  0
LINE
  5
198
330
1F
100
AcDbEntity
  8
0
  6
Continuous
 62
     7
370
    25
100
AcDbLine
 10
349.9916833945
 20
201.6194646055
 30
0.0
 11
349.9916833945
 21
200.0316659469
 31
0.0
  0
ARC
  5
199
330
1F
100
AcDbEntity
  8
0
  6
Continuous
 62
     7
370
    25
100
AcDbCircle
 10
347.5159000872
 20
199.1380051819
 30
0.0
 40
2.632134599031344
100
AcDbArc
 50
19.8475961543
 51
156.7107934134
  0
ARC
  5
19A
330
1F
100
AcDbEntity
  8
0
  6
Continuous
 62
     7
370
    25
100
AcDbCircle
 10
342.8676321635
 20
199.3529488532
 30
0.0
 40
2.378527774791171
100
AcDbArc
 50
20.3137113631
 51
137.1841312077
  0
LINE
  5
19B
330
1F
100
AcDbEntity
  8
0
  6
Continuous
 62
     7
370
    25
100
AcDbLine
 10
341.1228829596
 20
201.6194646055
 30
0.0
 11
341.1228829596
 21
200.9695021591
 31
0.0
  0
LINE
  5
19C
330
1F
100
AcDbEntity
  8
0
  6
Continuous
 62
     7
370
    25
100
AcDbLine
 10
340.0246236866
 20
201.6194646055
 30
0.0
 11
341.1228829596
 21
201.6194646055
 31
0.0
  0
LINE
  5
19D
330
1F
100
AcDbEntity
  8
0
  6
Continuous
 62
     7
370
    25
100
AcDbLine
 10
340.0246236866
 20
200.0323195851
 30
0.0
 11
340.0246236866
 21
201.6194646055
 31
0.0
  0
LINE
  5
19E
330
1F
100
AcDbEntity
  8
0
  6
Continuous
 62
     7
370
    25
100
AcDbLine
 10
340.0246236866
 20
200.0323195851
 30
0.0
 11
340.024403435
 21
200.0323195851
 31
0.0
  0
ARC
  5
19F
330
1F
100
AcDbEntity
  8
0
  6
Continuous
 62
     7
370
    25
100
AcDbCircle
 10
337.5484829465
 20
199.1976631058
 30
0.0
 40
2.612821024013822
100
AcDbArc
 50
18.6294536577
 51
161.1610424299
  0
ARC
  5
1A0
330
1F
100
AcDbEntity
  8
0
  6
Continuous
 62
     7
370
    25
100
AcDbCircle
 10
333.1446244531
 20
199.8253414551
 30
0.0
 40
1.943052560236309
100
AcDbArc
 50
6.3832597124
 51
131.7808607209
  0
LINE
  5
1A1
330
1F
100
AcDbEntity
  8
0
  6
Continuous
 62
     7
370
    25
100
AcDbLine
 10
331.8500007642
 20
203.304096322
 30
0.0
 11
331.8500007642
 21
201.2742730463
 31
0.0
  0
LINE
  5
1A2
330
1F
100
AcDbEntity
  8
0
  6
Continuous
 62
     7
370
    25
100
AcDbLine
 10
330.6248100207
 20
203.304096322
 30
0.0
 11
331.8500007642
 21
203.304096322
 31
0.0
  0
LINE
  5
1A3
330
1F
100
AcDbEntity
  8
0
  6
Continuous
 62
     7
370
    25
100
AcDbLine
 10
330.6248100207
 20
203.304096322
 30
0.0
 11
330.6248100207
 21
196.4011256015
 31
0.0
  0
LINE
  5
1A4
330
1F
100
AcDbEntity
  8
0
  6
Continuous
 62
     7
370
    25
100
AcDbLine
 10
330.6248100207
 20
196.4011256015
 30
0.0
 11
331.8500007642
 21
196.4011256015
 31
0.0
  0
LINE
  5
1A5
330
1F
100
AcDbEntity
  8
0
  6
Continuous
 62
     7
370
    25
100
AcDbLine
 10
331.8500007642
 20
196.4011256015
 30
0.0
 11
331.8500007642
 21
199.4880043786
 31
0.0
  0
ARC
  5
1A6
330
1F
100
AcDbEntity
  8
0
  6
Continuous
 62
     7
370
    25
100
AcDbCircle
 10
332.871562019
 20
199.5852776441
 30
0.0
 40
1.026181994387925
100
AcDbArc
 50
354.5606841606
 51
185.4393158394
  0
LINE
  5
1A7
330
1F
100
AcDbEntity
  8
0
  6
Continuous
 62
     7
370
    25
100
AcDbLine
 10
333.8931232739
 20
196.4011256015
 30
0.0
 11
333.8931232739
 21
199.4880043786
 31
0.0
  0
LINE
  5
1A8
330
1F
100
AcDbEntity
  8
0
  6
Continuous
 62
     7
370
    25
100
AcDbLine
 10
333.8931232739
 20
196.4011256015
 30
0.0
 11
335.1016377604
 21
196.4011256015
 31
0.0
  0
LINE
  5
1A9
330
1F
100
AcDbEntity
  8
0
  6
Continuous
 62
     7
370
    25
100
AcDbLine
 10
335.1016377604
 20
198.040482362
 30
0.0
 11
335.1016377604
 21
196.4011256015
 31
0.0
  0
ARC
  5
1AA
330
1F
100
AcDbEntity
  8
0
  6
Continuous
 62
     7
370
    25
100
AcDbCircle
 10
337.570932576
 20
199.0583020466
 30
0.0
 40
2.670837658187136
100
AcDbArc
 50
202.4009878317
 51
336.5563634177
  0
LINE
  5
1AB
330
1F
100
AcDbEntity
  8
0
  6
Continuous
 62
     7
370
    25
100
AcDbLine
 10
340.0212976358
 20
198.0015302841
 30
0.0
 11
340.0212976358
 21
197.9957179935
 31
0.0
  0
LINE
  5
1AC
330
1F
100
AcDbEntity
  8
0
  6
Continuous
 62
     7
370
    25
100
AcDbLine
 10
340.0212976358
 20
198.0015302841
 30
0.0
 11
338.6687323667
 21
198.0015302841
 31
0.0
  0
ARC
  5
1AD
330
1F
100
AcDbEntity
  8
0
  6
Continuous
 62
     7
370
    25
100
AcDbCircle
 10
337.6060958793
 20
199.1274144885
 30
0.0
 40
1.548163927432729
100
AcDbArc
 50
201.4906336022
 51
313.3446266267
  0
LINE
  5
1AE
330
1F
100
AcDbEntity
  8
0
  6
Continuous
 62
     7
370
    25
100
AcDbLine
 10
336.1655642263
 20
198.5602459925
 30
0.0
 11
340.0238099146
 21
198.5602459925
 31
0.0
  0
LINE
  5
1AF
330
1F
100
AcDbEntity
  8
0
  6
Continuous
 62
     7
370
    25
100
AcDbLine
 10
340.0238099146
 20
198.5602459925
 30
0.0
 11
340.0238099146
 21
195.1132284745
 31
0.0
  0
LINE
  5
1B0
330
1F
100
AcDbEntity
  8
0
  6
Continuous
 62
     7
370
    25
100
AcDbLine
 10
340.0238099146
 20
195.1132284745
 30
0.0
 11
341.220487545
 21
195.1132284745
 31
0.0
  0
LINE
  5
1B1
330
1F
100
AcDbEntity
  8
0
  6
Continuous
 62
     7
370
    25
100
AcDbLine
 10
341.220487545
 20
195.1132284745
 30
0.0
 11
341.220487545
 21
197.1075197509
 31
0.0
  0
ARC
  5
1B2
330
1F
100
AcDbEntity
  8
0
  6
Continuous
 62
     7
370
    25
100
AcDbCircle
 10
342.8635285607
 20
198.7945671184
 30
0.0
 40
2.35493367196127
100
AcDbArc
 50
225.7571064751
 51
339.438145131
  0
ARC
  5
1B3
330
1F
100
AcDbEntity
  8
0
  6
Continuous
 62
     7
370
    25
100
AcDbCircle
 10
347.4809437556
 20
199.0738178363
 30
0.0
 40
2.654088912773312
100
AcDbArc
 50
204.6356304262
 51
336.8189458327
  0
LINE
  5
1B4
330
1F
100
AcDbEntity
  8
0
  6
Continuous
 62
     7
370
    25
100
AcDbLine
 10
348.5865052661
 20
198.0290676905
 30
0.0
 11
349.9207562668
 21
198.0290676905
 31
0.0
  0
ARC
  5
1B5
330
1F
100
AcDbEntity
  8
0
  6
Continuous
 62
     7
370
    25
100
AcDbCircle
 10
347.5281414752
 20
199.0283321001
 30
0.0
 40
1.455562871929744
100
AcDbArc
 50
199.4207660368
 51
316.6452021968
  0
LINE
  5
1B6
330
1F
100
AcDbEntity
  8
0
  6
Continuous
 62
     7
370
    25
100
AcDbLine
 10
346.1553969155
 20
198.5443531256
 30
0.0
 11
349.9916833945
 21
198.5443531256
 31
0.0
  0
LINE
  5
1B7
330
1F
100
AcDbEntity
  8
0
  6
Continuous
 62
     7
370
    25
100
AcDbLine
 10
349.9916833945
 20
198.5443531256
 30
0.0
 11
349.9916833945
 21
196.4011256015
 31
0.0
  0
LINE
  5
1B8
330
1F
100
AcDbEntity
  8
0
  6
Continuous
 62
     7
370
    25
100
AcDbLine
 10
349.9916833945
 20
196.4011256015
 30
0.0
 11
351.2087929019
 21
196.4011256015
 31
0.0
  0
LINE
  5
1B9
330
1F
100
AcDbEntity
  8
0
  6
Continuous
 62
     7
370
    25
100
AcDbLine
 10
351.2087929019
 20
196.4011256015
 30
0.0
 11
351.2087929019
 21
199.5852776441
 31
0.0
  0
ARC
  5
1BA
330
1F
100
AcDbEntity
  8
0
  6
Continuous
 62
     7
370
    25
100
AcDbCircle
 10
352.1335708868
 20
199.6801357182
 30
0.0
 40
0.9296302359368375
100
AcDbArc
 50
81.4938917448
 51
185.856568454
  0
LINE
  5
1BB
330
1F
100
AcDbEntity
  8
0
  6
Continuous
 62
     7
370
    25
100
AcDbLine
 10
352.2710770022
 20
201.7601091542
 30
0.0
 11
352.2710770022
 21
200.5995401144
 31
0.0
  0
LINE
  5
1BC
330
1F
100
AcDbEntity
  8
0
  6
Continuous
 62
     7
370
    25
100
AcDbLine
 10
351.9341286442
 20
201.7601091542
 30
0.0
 11
352.2710770022
 21
201.7601091542
 31
0.0
  0
ARC
  5
1BD
330
1F
100
AcDbEntity
  8
0
  6
Continuous
 62
     7
370
    25
100
AcDbCircle
 10
352.0721125729
 20
200.629270201
 30
0.0
 40
1.139226185847412
100
AcDbArc
 50
96.9567885801
 51
150.649212123
  0
LINE
  5
1BE
330
1F
100
AcDbEntity
  8
0
  6
Continuous
 62
     7
370
    25
100
AcDbLine
 10
294.7289422502
 20
156.0793851933
 30
0.0
 11
320.8132117543
 21
156.0793851933
 31
0.0
  0
ARC
  5
1BF
330
1F
100
AcDbEntity
  8
0
  6
Continuous
 62
     7
370
    25
100
AcDbCircle
 10
320.8132117543
 20
158.0372504412
 30
0.0
 40
1.957865247939139
100
AcDbArc
 50
270.0
 51
0.0
  0
LINE
  5
1C0
330
1F
100
AcDbEntity
  8
0
  6
Continuous
 62
     7
370
    25
100
AcDbLine
 10
322.7710770022
 20
158.0372504412
 30
0.0
 11
322.7710770022
 21
184.1215199453
 31
0.0
  0
ARC
  5
1C1
330
1F
100
AcDbEntity
  8
0
  6
Continuous
 62
     7
370
    25
100
AcDbCircle
 10
320.8132117543
 20
184.1215199453
 30
0.0
 40
1.957865247939111
100
AcDbArc
 50
0.0
 51
90.0
  0
LINE
  5
1C2
330
1F
100
AcDbEntity
  8
0
  6
Continuous
 62
     7
370
    25
100
AcDbLine
 10
320.8132117543
 20
186.0793851933
 30
0.0
 11
294.7289422502
 21
186.0793851933
 31
0.0
  0
ARC
  5
1C3
330
1F
100
AcDbEntity
  8
0
  6
Continuous
 62
     7
370
    25
100
AcDbCircle
 10
294.7289422502
 20
184.1215199453
 30
0.0
 40
1.957865247939139
100
AcDbArc
 50
90.0
 51
180.0
  0
LINE
  5
1C4
330
1F
100
AcDbEntity
  8
0
  6
Continuous
 62
     7
370
    25
100
AcDbLine
 10
292.7710770022
 20
184.1215199453
 30
0.0
 11
292.7710770022
 21
158.0372504412
 31
0.0
  0
ARC
  5
1C5
330
1F
100
AcDbEntity
  8
0
  6
Continuous
 62
     7
370
    25
100
AcDbCircle
 10
294.7289422502
 20
158.0372504412
 30
0.0
 40
1.957865247939111
100
AcDbArc
 50
180.0
 51
270.0
  0
LINE
  5
1C6
330
1F
100
AcDbEntity
  8
0
  6
Continuous
 62
     7
370
    25
100
AcDbLine
 10
353.809210991
 20
203.304096322
 30
0.0
 11
355.2841317556
 21
203.304096322
 31
0.0
  0
LINE
  5
1C7
330
1F
100
AcDbEntity
  8
0
  6
Continuous
 62
     7
370
    25
100
AcDbLine
 10
355.2841317556
 20
203.8136853242
 30
0.0
 11
354.2828902476
 21
203.8136853242
 31
0.0
  0
LINE
  5
1C8
330
1F
100
AcDbEntity
  8
0
  6
Continuous
 62
     7
370
    25
100
AcDbLine
 10
354.2828902476
 20
204.8293851933
 30
0.0
 11
353.7742228898
 21
204.8293851933
 31
0.0
  0
LINE
  5
1C9
330
1F
100
AcDbEntity
  8
0
  6
Continuous
 62
     7
370
    25
100
AcDbLine
 10
353.7742228898
 20
204.8293851933
 30
0.0
 11
353.7742228898
 21
203.3390844231
 31
0.0
  0
LINE
  5
1CA
330
1F
100
AcDbEntity
  8
0
  6
Continuous
 62
     7
370
    25
100
AcDbLine
 10
353.7742228898
 20
203.3390844231
 30
0.0
 11
353.809210991
 21
203.304096322
 31
0.0
  0
LINE
  5
1CB
330
1F
100
AcDbEntity
  8
0
  6
Continuous
 62
     7
370
    25
100
AcDbLine
 10
330.6248100207
 20
195.1132284745
 30
0.0
 11
339.80044892
 21
195.1132284745
 31
0.0
  0
LINE
  5
1CC
330
1F
100
AcDbEntity
  8
0
  6
Continuous
 62
     7
370
    25
100
AcDbLine
 10
339.80044892
 20
196.2179883927
 30
0.0
 11
339.80044892
 21
195.1132284745
 31
0.0
  0
LINE
  5
1CD
330
1F
100
AcDbEntity
  8
0
  6
Continuous
 62
     7
370
    25
100
AcDbLine
 10
330.6248100207
 20
196.2179883927
 30
0.0
 11
339.80044892
 21
196.2179883927
 31
0.0
  0
LINE
  5
1CE
330
1F
100
AcDbEntity
  8
0
  6
Continuous
 62
     7
370
    25
100
AcDbLine
 10
330.6248100207
 20
196.2179883927
 30
0.0
 11
330.6248100207
 21
195.1132284745
 31
0.0
  0
LINE
  5
1CF
330
1F
100
AcDbEntity
  8
0
  6
Continuous
 62
     7
370
    25
100
AcDbLine
 10
59.2710770022
 20
136.3293851933
 30
0.0
 11
356.2710770022
 21
136.3293851933
 31
0.0
  0
LINE
  5
1D0
330
1F
100
AcDbEntity
  8
0
  6
Continuous
 62
     7
370
    25
100
AcDbLine
 10
59.2710770022
 20
205.8293851933
 30
0.0
 11
59.2710770022
 21
136.3293851933
 31
0.0
  0
LINE
  5
1D1
330
1F
100
AcDbEntity
  8
0
  6
Continuous
 62
     7
370
    25
100
AcDbLine
 10
354.2828902476
 20
203.8136853242
 30
0.0
 11
354.2828902476
 21
204.8293851933
 31
0.0
  0
LINE
  5
1D2
330
1F
100
AcDbEntity
  8
0
  6
Continuous
 62
     7
370
    25
100
AcDbLine
 10
355.2841317556
 20
203.304096322
 30
0.0
 11
355.2841317556
 21
203.8136853242
 31
0.0
  0
ARC
  5
1D3
330
1F
100
AcDbEntity
  8
0
  6
Continuous
 62
     7
370
    25
100
AcDbCircle
 10
347.5108059402
 20
199.1085678457
 30
0.0
 40
1.5030650279294
100
AcDbArc
 50
20.1849307017
 51
159.8150692983
  0
LINE
  5
1D4
330
1F
100
AcDbEntity
  8
0
  6
Continuous
 62
     7
370
    25
100
AcDbLine
 10
346.1000534444
 20
199.6272024703
 30
0.0
 11
348.9215584359
 21
199.6272024703
 31
0.0
  0
CIRCLE
  5
1D5
330
1F
100
AcDbEntity
  8
0
  6
Continuous
 62
     7
370
    25
100
AcDbCircle
 10
342.6136551808
 20
199.1072821026
 30
0.0
 40
1.517057112547491
  0
ARC
  5
1D6
330
1F
100
AcDbEntity
  8
0
  6
Continuous
 62
     7
370
    25
100
AcDbCircle
 10
337.5803539789
 20
199.1072821026
 30
0.0
 40
1.496448723068738
100
AcDbArc
 50
20.3305779225
 51
159.6694220775
  0
LINE
  5
1D7
330
1F
100
AcDbEntity
  8
0
  6
Continuous
 62
     7
370
    25
100
AcDbLine
 10
336.1771285544
 20
199.6272024703
 30
0.0
 11
338.9835794034
 21
199.6272024703
 31
0.0
  0
LINE
  5
1D8
330
1F
100
AcDbEntity
  8
0
  6
Continuous
 62
     7
370
    25
100
AcDbLine
 10
356.2710770022
 20
135.3293851933
 30
0.0
 11
356.2710770022
 21
136.3293851933
 31
0.0
  0
LINE
  5
1D9
330
1F
100
AcDbEntity
  8
0
  6
Continuous
 62
     7
370
    25
100
AcDbLine
 10
357.2710770022
 20
136.3293851933
 30
0.0
 11
356.2710770022
 21
135.3293851933
 31
0.0
  0
LINE
  5
1DA
330
1F
100
AcDbEntity
  8
0
  6
Continuous
 62
     7
370
    25
100
AcDbLine
 10
356.2710770022
 20
135.3293851933
 30
0.0
 11
59.2710770022
 21
135.3293851933
 31
0.0
  0
LINE
  5
1DB
330
1F
100
AcDbEntity
  8
0
  6
Continuous
 62
     7
370
    25
100
AcDbLine
 10
59.2710770022
 20
135.3293851933
 30
0.0
 11
59.2710770022
 21
136.3293851933
 31
0.0
  0
LINE
  5
1DC
330
1F
100
AcDbEntity
  8
0
  6
Continuous
 62
     7
370
    25
100
AcDbLine
 10
58.2710770022
 20
205.8293851933
 30
0.0
 11
59.2710770022
 21
206.8293851933
 31
0.0
  0
LINE
  5
1DD
330
1F
100
AcDbEntity
  8
0
  6
Continuous
 62
     7
370
    25
100
AcDbLine
 10
58.2710770022
 20
205.8293851933
 30
0.0
 11
59.2710770022
 21
205.8293851933
 31
0.0
  0
LINE
  5
1DE
330
1F
100
AcDbEntity
  8
0
  6
Continuous
 62
     7
370
    25
100
AcDbLine
 10
58.2710770022
 20
136.3293851933
 30
0.0
 11
58.2710770022
 21
205.8293851933
 31
0.0
  0
LINE
  5
1DF
330
1F
100
AcDbEntity
  8
0
  6
Continuous
 62
     7
370
    25
100
AcDbLine
 10
59.2710770022
 20
136.3293851933
 30
0.0
 11
58.2710770022
 21
136.3293851933
 31
0.0
  0
LINE
  5
1E0
330
1F
100
AcDbEntity
  8
0
  6
Continuous
 62
     7
370
    25
100
AcDbLine
 10
59.2710770022
 20
135.3293851933
 30
0.0
 11
58.2710770022
 21
136.3293851933
 31
0.0
  0
LINE
  5
1E1
330
1F
100
AcDbEntity
  8
0
  6
Continuous
 62
     7
370
    25
100
AcDbLine
 10
57.7710770022
 20
134.6293851933
 30
0.0
 11
357.7710770022
 21
134.6293851933
 31
0.0
  0
LINE
  5
1E2
330
1F
100
AcDbEntity
  8
0
  6
Continuous
 62
     7
370
    25
100
AcDbLine
 10
57.7710770022
 20
134.8293851933
 30
0.0
 11
357.7710770022
 21
134.8293851933
 31
0.0
  0
LINE
  5
1E3
330
1F
100
AcDbEntity
  8
0
  6
Continuous
 62
     7
370
    25
100
AcDbLine
 10
357.7710770022
 20
134.6293851933
 30
0.0
 11
357.7710770022
 21
134.8293851933
 31
0.0
  0
LINE
  5
1E4
330
1F
100
AcDbEntity
  8
0
  6
Continuous
 62
     7
370
    25
100
AcDbLine
 10
57.7710770022
 20
134.6293851933
 30
0.0
 11
57.7710770022
 21
134.8293851933
 31
0.0
  0
LINE
  5
1E5
330
1F
100
AcDbEntity
  8
0
  6
Continuous
 62
     7
370
    25
100
AcDbLine
 10
57.7710770022
 20
207.3293851933
 30
0.0
 11
357.7710770022
 21
207.3293851933
 31
0.0
  0
LINE
  5
1E6
330
1F
100
AcDbEntity
  8
0
  6
Continuous
 62
     7
370
    25
100
AcDbLine
 10
57.7710770022
 20
207.5293851933
 30
0.0
 11
357.7710770022
 21
207.5293851933
 31
0.0
  0
LINE
  5
1E7
330
1F
100
AcDbEntity
  8
0
  6
Continuous
 62
     7
370
    25
100
AcDbLine
 10
357.7710770022
 20
207.3293851933
 30
0.0
 11
357.7710770022
 21
207.5293851933
 31
0.0
  0
LINE
  5
1E8
330
1F
100
AcDbEntity
  8
0
  6
Continuous
 62
     7
370
    25
100
AcDbLine
 10
57.7710770022
 20
207.3293851933
 30
0.0
 11
57.7710770022
 21
207.5293851933
 31
0.0
  0
LINE
  5
1E9
330
1F
100
AcDbEntity
  8
0
  6
Continuous
 62
     7
370
    25
100
AcDbLine
 10
57.7710770022
 20
210.8793851933
 30
0.0
 11
357.7710770022
 21
210.8793851933
 31
0.0
  0
LINE
  5
1EA
330
1F
100
AcDbEntity
  8
0
  6
Continuous
 62
     7
370
    25
100
AcDbLine
 10
357.7710770022
 20
207.5293851933
 30
0.0
 11
357.7710770022
 21
210.8793851933
 31
0.0
  0
LINE
  5
1EB
330
1F
100
AcDbEntity
  8
0
  6
Continuous
 62
     7
370
    25
100
AcDbLine
 10
57.7710770022
 20
207.5293851933
 30
0.0
 11
57.7710770022
 21
210.8793851933
 31
0.0
  0
LINE
  5
1EC
330
1F
100
AcDbEntity
  8
0
  6
Continuous
 62
     7
370
    25
100
AcDbLine
 10
57.7710770022
 20
131.0793851933
 30
0.0
 11
357.7710770022
 21
131.0793851933
 31
0.0
  0
LINE
  5
1ED
330
1F
100
AcDbEntity
  8
0
  6
Continuous
 62
     7
370
    25
100
AcDbLine
 10
57.7710770022
 20
131.2793851933
 30
0.0
 11
357.7710770022
 21
131.2793851933
 31
0.0
  0
LINE
  5
1EE
330
1F
100
AcDbEntity
  8
0
  6
Continuous
 62
     7
370
    25
100
AcDbLine
 10
357.7710770022
 20
131.0793851933
 30
0.0
 11
357.7710770022
 21
131.2793851933
 31
0.0
  0
LINE
  5
1EF
330
1F
100
AcDbEntity
  8
0
  6
Continuous
 62
     7
370
    25
100
AcDbLine
 10
57.7710770022
 20
131.0793851933
 30
0.0
 11
57.7710770022
 21
131.2793851933
 31
0.0
  0
LINE
  5
1F0
330
1F
100
AcDbEntity
  8
0
  6
Continuous
 62
     7
370
    25
100
AcDbLine
 10
357.7710770022
 20
131.2793851933
 30
0.0
 11
357.7710770022
 21
134.6293851933
 31
0.0
  0
LINE
  5
1F1
330
1F
100
AcDbEntity
  8
0
  6
Continuous
 62
     7
370
    25
100
AcDbLine
 10
57.7710770022
 20
131.2793851933
 30
0.0
 11
57.7710770022
 21
134.6293851933
 31
0.0
  0
LINE
  5
1F2
330
1F
100
AcDbEntity
  8
0
  6
Continuous
 62
     7
370
    25
100
AcDbLine
 10
57.7710770022
 20
211.0793851933
 30
0.0
 11
357.7710770022
 21
211.0793851933
 31
0.0
  0
LINE
  5
1F3
330
1F
100
AcDbEntity
  8
0
  6
Continuous
 62
     7
370
    25
100
AcDbLine
 10
357.7710770022
 20
210.8793851933
 30
0.0
 11
357.7710770022
 21
211.0793851933
 31
0.0
  0
LINE
  5
1F4
330
1F
100
AcDbEntity
  8
0
  6
Continuous
 62
     7
370
    25
100
AcDbLine
 10
57.7710770022
 20
210.8793851933
 30
0.0
 11
57.7710770022
 21
211.0793851933
 31
0.0
  0
LINE
  5
1F5
330
1F
100
AcDbEntity
  8
0
  6
Continuous
 62
     7
370
    25
100
AcDbLine
 10
57.7710770022
 20
207.1293851933
 30
0.0
 11
357.7710770022
 21
207.1293851933
 31
0.0
  0
LINE
  5
1F6
330
1F
100
AcDbEntity
  8
0
  6
Continuous
 62
     7
370
    25
100
AcDbLine
 10
357.7710770022
 20
207.1293851933
 30
0.0
 11
357.7710770022
 21
207.3293851933
 31
0.0
  0
LINE
  5
1F7
330
1F
100
AcDbEntity
  8
0
  6
Continuous
 62
     7
370
    25
100
AcDbLine
 10
57.7710770022
 20
207.1293851933
 30
0.0
 11
57.7710770022
 21
207.3293851933
 31
0.0
  0
LINE
  5
1F8
330
1F
100
AcDbEntity
  8
0
  6
Continuous
 62
     7
370
    25
100
AcDbLine
 10
57.7710770022
 20
135.0293851933
 30
0.0
 11
357.7710770022
 21
135.0293851933
 31
0.0
  0
LINE
  5
1F9
330
1F
100
AcDbEntity
  8
0
  6
Continuous
 62
     7
370
    25
100
AcDbLine
 10
357.7710770022
 20
134.8293851933
 30
0.0
 11
357.7710770022
 21
135.0293851933
 31
0.0
  0
LINE
  5
1FA
330
1F
100
AcDbEntity
  8
0
  6
Continuous
 62
     7
370
    25
100
AcDbLine
 10
57.7710770022
 20
134.8293851933
 30
0.0
 11
57.7710770022
 21
135.0293851933
 31
0.0
  0
LINE
  5
1FB
330
1F
100
AcDbEntity
  8
0
  6
Continuous
 62
     7
370
    25
100
AcDbLine
 10
357.7710770022
 20
135.0293851933
 30
0.0
 11
357.7710770022
 21
207.1293851933
 31
0.0
  0
LINE
  5
1FC
330
1F
100
AcDbEntity
  8
0
  6
Continuous
 62
     7
370
    25
100
AcDbLine
 10
57.7710770022
 20
135.0293851933
 30
0.0
 11
57.7710770022
 21
207.1293851933
 31
0.0
  0
SPLINE
  5
1FD
330
1F
100
AcDbEntity
  8
0
  6
Continuous
 62
     7
370
    25
100
AcDbSpline
210
0.0
220
0.0
230
1.0
 70
    24
 71
     3
 72
    20
 73
    16
 74
     0
 42
0.000000001
 43
0.00000001
 40
0.0
 40
0.0
 40
0.0
 40
0.0
 40
0.0699486873700228
 40
0.1344005952918123
 40
0.2002202651727275
 40
0.2660399350536425
 40
0.330491842975432
 40
0.4502202651727274
 40
0.5699486873700227
 40
0.6344005952918121
 40
0.7002202651727273
 40
0.7660399350536424
 40
0.8304918429754318
 40
0.9502202651727275
 40
1.0
 40
1.0
 40
1.0
 40
1.0
 10
52.57107700224623
 20
179.7279993481807
 30
0.0
 10
52.57107700224623
 20
179.7513457553398
 30
0.0
 10
52.57107700224633
 20
179.7962039383605
 30
0.0
 10
52.57107700224611
 20
179.1433917055934
 30
0.0
 10
52.57107700224645
 20
178.252576282389
 30
0.0
 10
52.57107700224589
 20
177.0357651936907
 30
0.0
 10
52.57107700224645
 20
175.1792012964409
 30
0.0
 10
52.57107700224611
 20
172.4875225453477
 30
0.0
 10
52.57107700224611
 20
169.6284371723644
 30
0.0
 10
52.57107700224623
 20
167.4375776826354
 30
0.0
 10
52.57107700224623
 20
165.8700446182836
 30
0.0
 10
52.57107700224611
 20
164.5148288913123
 30
0.0
 10
52.57107700224633
 20
163.1737384123971
 30
0.0
 10
52.57107700224623
 20
162.2682349224456
 30
0.0
 10
52.57107700224623
 20
162.3938743146704
 30
0.0
 10
52.57107700224623
 20
162.430771038336
 30
0.0
  0
LINE
  5
1FE
330
1F
100
AcDbEntity
  8
0
  6
Continuous
 62
     7
370
    25
100
AcDbLine
 10
56.0377436689
 20
172.4858003123
 30
0.0
 11
56.0377436689
 21
180.0793851933
 31
0.0
  0
LINE
  5
1FF
330
1F
100
AcDbEntity
  8
0
  6
Continuous
 62
     7
370
    25
100
AcDbLine
 10
56.0377436689
 20
162.0793851933
 30
0.0
 11
56.0377436689
 21
172.4858003123
 31
0.0
  0
LINE
  5
200
330
1F
100
AcDbEntity
  8
0
  6
Continuous
 62
     7
370
    25
100
AcDbLine
 10
56.1877436689
 20
172.4858003123
 30
0.0
 11
56.1877436689
 21
162.0793851933
 31
0.0
  0
LINE
  5
201
330
1F
100
AcDbEntity
  8
0
  6
Continuous
 62
     7
370
    25
100
AcDbLine
 10
56.1877436689
 20
180.0793851933
 30
0.0
 11
56.1877436689
 21
172.4858003123
 31
0.0
  0
SPLINE
  5
202
330
1F
100
AcDbEntity
  8
0
  6
Continuous
 62
     7
370
    25
100
AcDbSpline
210
0.0
220
0.0
230
1.0
 70
     8
 71
     3
 72
    11
 73
     7
 74
     0
 42
0.000000001
 43
0.00000001
 40
0.0
 40
0.0
 40
0.0
 40
0.0
 40
0.0751899812743858
 40
0.2793537492081868
 40
0.6278405698486555
 40
1.0
 40
1.0
 40
1.0
 40
1.0
 10
377.071077002246
 20
178.0075884235342
 30
0.0
 10
377.0655297430503
 20
177.9366909565639
 30
0.0
 10
377.0449199805804
 20
177.6732852092579
 30
0.0
 10
376.6770651876471
 20
177.09884278432
 30
0.0
 10
375.644204288788
 20
176.3801922252571
 30
0.0
 10
374.6245036036203
 20
175.9304468887618
 30
0.0
 10
374.0979051158047
 20
175.6981873467752
 30
0.0
  0
LINE
  5
203
330
1F
100
AcDbEntity
  8
0
  6
Continuous
 62
     7
370
    25
100
AcDbLine
 10
374.0979051158
 20
175.6981873468
 30
0.0
 11
366.7710770022
 21
175.6981873468
 31
0.0
  0
LINE
  5
204
330
1F
100
AcDbEntity
  8
0
  6
Continuous
 62
     7
370
    25
100
AcDbLine
 10
366.7710770022
 20
180.3169895003
 30
0.0
 11
366.7710770022
 21
175.6981873468
 31
0.0
  0
LINE
  5
205
330
1F
100
AcDbEntity
  8
0
  6
Continuous
 62
     7
370
    25
100
AcDbLine
 10
374.0979051158
 20
180.3169895003
 30
0.0
 11
366.7710770022
 21
180.3169895003
 31
0.0
  0
SPLINE
  5
206
330
1F
100
AcDbEntity
  8
0
  6
Continuous
 62
     7
370
    25
100
AcDbSpline
210
0.0
220
0.0
230
1.0
 70
     8
 71
     3
 72
    11
 73
     7
 74
     0
 42
0.000000001
 43
0.00000001
 40
0.0
 40
0.0
 40
0.0
 40
0.0
 40
0.2952963167244979
 40
0.5964521095477726
 40
0.8340441814209542
 40
1.0
 40
1.0
 40
1.0
 40
1.0
 10
374.0979051158048
 20
180.3169895002924
 30
0.0
 10
374.5180527087253
 20
180.1336390472677
 30
0.0
 10
375.3666847570303
 20
179.7632999732617
 30
0.0
 10
376.3661512194092
 20
179.152688052513
 30
0.0
 10
376.9781726834418
 20
178.545929866376
 30
0.0
 10
377.0440042860685
 20
178.1644634243552
 30
0.0
 10
377.071077002246
 20
178.0075884235342
 30
0.0
  0
SPLINE
  5
207
330
1F
100
AcDbEntity
  8
0
  6
Continuous
 62
     7
370
    25
100
AcDbSpline
210
0.0
220
0.0
230
1.0
 70
     8
 71
     3
 72
    11
 73
     7
 74
     0
 42
0.000000001
 43
0.00000001
 40
0.0
 40
0.0
 40
0.0
 40
0.0
 40
0.108660019975563
 40
0.3402707953846045
 40
0.674233936239058
 40
1.0
 40
1.0
 40
1.0
 40
1.0
 10
377.071077002246
 20
171.0793851932583
 30
0.0
 10
377.0594936815643
 20
170.8742581981309
 30
0.0
 10
377.0232203057408
 20
170.2318993452379
 30
0.0
 10
376.5356927287255
 20
169.0262322491599
 30
0.0
 10
375.4961810901124
 20
167.6872314937112
 30
0.0
 10
374.5601202829584
 20
166.8660648835319
 30
0.0
 10
374.0979051158047
 20
166.4605830397412
 30
0.0
  0
LINE
  5
208
330
1F
100
AcDbEntity
  8
0
  6
Continuous
 62
     7
370
    25
100
AcDbLine
 10
374.0979051158
 20
166.4605830397
 30
0.0
 11
366.7710770022
 21
166.4605830397
 31
0.0
  0
LINE
  5
209
330
1F
100
AcDbEntity
  8
0
  6
Continuous
 62
     7
370
    25
100
AcDbLine
 10
366.7710770022
 20
175.6981873468
 30
0.0
 11
366.7710770022
 21
166.4605830397
 31
0.0
  0
SPLINE
  5
20A
330
1F
100
AcDbEntity
  8
0
  6
Continuous
 62
     7
370
    25
100
AcDbSpline
210
0.0
220
0.0
230
1.0
 70
     8
 71
     3
 72
    11
 73
     7
 74
     0
 42
0.000000001
 43
0.00000001
 40
0.0
 40
0.0
 40
0.0
 40
0.0
 40
0.1809076651190739
 40
0.6238519031739038
 40
0.8738464298672793
 40
1.0
 40
1.0
 40
1.0
 40
1.0
 10
374.0979051158047
 20
175.6981873467752
 30
0.0
 10
374.3561375743857
 20
175.4759612104802
 30
0.0
 10
375.2466405314661
 20
174.7096244277277
 30
0.0
 10
376.3576405351723
 20
173.4695931181391
 30
0.0
 10
377.0087693210574
 20
172.0275375623169
 30
0.0
 10
377.05542836529
 20
171.3175146167793
 30
0.0
 10
377.071077002246
 20
171.0793851932583
 30
0.0
  0
LINE
  5
20B
330
1F
100
AcDbEntity
  8
0
  6
Continuous
 62
     7
370
    25
100
AcDbLine
 10
377.0710770022
 20
171.0793851933
 30
0.0
 11
377.0710770022
 21
164.151181963
 31
0.0
  0
SPLINE
  5
20C
330
1F
100
AcDbEntity
  8
0
  6
Continuous
 62
     7
370
    25
100
AcDbSpline
210
0.0
220
0.0
230
1.0
 70
     8
 71
     3
 72
    11
 73
     7
 74
     0
 42
0.000000001
 43
0.00000001
 40
0.0
 40
0.0
 40
0.0
 40
0.0
 40
0.2952963167245155
 40
0.5964521095477613
 40
0.8340441814209549
 40
1.0
 40
1.0
 40
1.0
 40
1.0
 10
374.0979051158047
 20
166.4605830397412
 30
0.0
 10
374.5180527087248
 20
166.2772325867163
 30
0.0
 10
375.3666847570291
 20
165.9068935127099
 30
0.0
 10
376.3661512194097
 20
165.2962815919629
 30
0.0
 10
376.9781726834412
 20
164.6895234058249
 30
0.0
 10
377.0440042860682
 20
164.3080569638041
 30
0.0
 10
377.0710770022459
 20
164.1511819629832
 30
0.0
  0
SPLINE
  5
20D
330
1F
100
AcDbEntity
  8
0
  6
Continuous
 62
     7
370
    25
100
AcDbSpline
210
0.0
220
0.0
230
1.0
 70
     8
 71
     3
 72
    11
 73
     7
 74
     0
 42
0.000000001
 43
0.00000001
 40
0.0
 40
0.0
 40
0.0
 40
0.0
 40
0.0751899812744016
 40
0.2793537492082619
 40
0.6278405698487624
 40
1.0
 40
1.0
 40
1.0
 40
1.0
 10
377.071077002246
 20
164.1511819629832
 30
0.0
 10
377.0655297430504
 20
164.0802844960129
 30
0.0
 10
377.044919980581
 20
163.8168787487067
 30
0.0
 10
376.6770651876467
 20
163.242436323769
 30
0.0
 10
375.6442042887879
 20
162.5237857647065
 30
0.0
 10
374.6245036036201
 20
162.074040428211
 30
0.0
 10
374.0979051158046
 20
161.8417808862244
 30
0.0
  0
LINE
  5
20E
330
1F
100
AcDbEntity
  8
0
  6
Continuous
 62
     7
370
    25
100
AcDbLine
 10
374.0979051158
 20
161.8417808862
 30
0.0
 11
366.7710770022
 21
161.8417808862
 31
0.0
  0
LINE
  5
20F
330
1F
100
AcDbEntity
  8
0
  6
Continuous
 62
     7
370
    25
100
AcDbLine
 10
366.7710770022
 20
166.4605830397
 30
0.0
 11
366.7710770022
 21
161.8417808862
 31
0.0
  0
LINE
  5
210
330
1F
100
AcDbEntity
  8
0
  6
Continuous
 62
     7
370
    25
100
AcDbLine
 10
377.0710770022
 20
178.0075884235
 30
0.0
 11
377.0710770022
 21
171.0793851933
 31
0.0
  0
LINE
  5
211
330
1F
100
AcDbEntity
  8
0
  6
Continuous
 62
     7
370
    25
100
AcDbLine
 10
380.2312293107
 20
171.0793851933
 30
0.0
 11
380.2312293107
 21
167.0793851933
 31
0.0
  0
LINE
  5
212
330
1F
100
AcDbEntity
  8
0
  6
Continuous
 62
     7
370
    25
100
AcDbLine
 10
380.2312293107
 20
175.0793851933
 30
0.0
 11
380.2312293107
 21
171.0793851933
 31
0.0
  0
LINE
  5
213
330
1F
100
AcDbEntity
  8
0
  6
Continuous
 62
     7
370
    25
100
AcDbLine
 10
362.7710770022
 20
175.4095122122
 30
0.0
 11
357.7710770022
 21
175.4095122122
 31
0.0
  0
LINE
  5
214
330
1F
100
AcDbEntity
  8
0
  6
Continuous
 62
     7
370
    25
100
AcDbLine
 10
362.7710770022
 20
166.7492581743
 30
0.0
 11
357.7710770022
 21
166.7492581743
 31
0.0
  0
LINE
  5
215
330
1F
100
AcDbEntity
  8
0
  6
Continuous
 62
     7
370
    25
100
AcDbLine
 10
362.7710770022
 20
175.4095122122
 30
0.0
 11
362.7710770022
 21
166.7492581743
 31
0.0
  0
LINE
  5
216
330
1F
100
AcDbEntity
  8
0
  6
Continuous
 62
     7
370
    25
100
AcDbLine
 10
362.7710770022
 20
179.7396392311
 30
0.0
 11
357.7710770022
 21
179.7396392311
 31
0.0
  0
LINE
  5
217
330
1F
100
AcDbEntity
  8
0
  6
Continuous
 62
     7
370
    25
100
AcDbLine
 10
362.7710770022
 20
179.7396392311
 30
0.0
 11
362.7710770022
 21
175.4095122122
 31
0.0
  0
LINE
  5
218
330
1F
100
AcDbEntity
  8
0
  6
Continuous
 62
     7
370
    25
100
AcDbLine
 10
362.7710770022
 20
162.4191311554
 30
0.0
 11
357.7710770022
 21
162.4191311554
 31
0.0
  0
LINE
  5
219
330
1F
100
AcDbEntity
  8
0
  6
Continuous
 62
     7
370
    25
100
AcDbLine
 10
362.7710770022
 20
166.7492581743
 30
0.0
 11
362.7710770022
 21
162.4191311554
 31
0.0
  0
LINE
  5
21A
330
1F
100
AcDbEntity
  8
0
  6
Continuous
 62
     7
370
    25
100
AcDbLine
 10
122.7710770022
 20
131.0793851933
 30
0.0
 11
122.7710770022
 21
118.3293851933
 31
0.0
  0
ARC
  5
21B
330
1F
100
AcDbEntity
  8
0
  6
Continuous
 62
     7
370
    25
100
AcDbCircle
 10
114.7710770022
 20
118.3293851933
 30
0.0
 40
8.0
100
AcDbArc
 50
270.0
 51
0.0
  0
LINE
  5
21C
330
1F
100
AcDbEntity
  8
0
  6
Continuous
 62
     7
370
    25
100
AcDbLine
 10
90.7710770022
 20
110.3293851933
 30
0.0
 11
114.7710770022
 21
110.3293851933
 31
0.0
  0
LINE
  5
21D
330
1F
100
AcDbEntity
  8
0
  6
Continuous
 62
     7
370
    25
100
AcDbLine
 10
82.7710770022
 20
131.0793851933
 30
0.0
 11
82.7710770022
 21
118.3293851933
 31
0.0
  0
ARC
  5
21E
330
1F
100
AcDbEntity
  8
0
  6
Continuous
 62
     7
370
    25
100
AcDbCircle
 10
92.7710770022
 20
120.3293851933
 30
0.0
 40
3.499999999999943
100
AcDbArc
 50
90.0
 51
270.0
  0
LINE
  5
21F
330
1F
100
AcDbEntity
  8
0
  6
Continuous
 62
     7
370
    25
100
AcDbLine
 10
92.7710770022
 20
116.8293851933
 30
0.0
 11
112.7710770022
 21
116.8293851933
 31
0.0
  0
ARC
  5
220
330
1F
100
AcDbEntity
  8
0
  6
Continuous
 62
     7
370
    25
100
AcDbCircle
 10
112.7710770022
 20
120.3293851933
 30
0.0
 40
3.5
100
AcDbArc
 50
270.0
 51
90.0
  0
ARC
  5
221
330
1F
100
AcDbEntity
  8
0
  6
Continuous
 62
     7
370
    25
100
AcDbCircle
 10
90.7710770022
 20
118.3293851933
 30
0.0
 40
8.0
100
AcDbArc
 50
180.0
 51
270.0
  0
LINE
  5
222
330
1F
100
AcDbEntity
  8
0
  6
Continuous
 62
     7
370
    25
100
AcDbLine
 10
112.7710770022
 20
123.8293851933
 30
0.0
 11
92.7710770022
 21
123.8293851933
 31
0.0
  0
LINE
  5
223
330
1F
100
AcDbEntity
  8
0
  6
Continuous
 62
     7
370
    25
100
AcDbLine
 10
82.7710770022
 20
211.0793851933
 30
0.0
 11
82.7710770022
 21
223.8293851933
 31
0.0
  0
ARC
  5
224
330
1F
100
AcDbEntity
  8
0
  6
Continuous
 62
     7
370
    25
100
AcDbCircle
 10
90.7710770022
 20
223.8293851933
 30
0.0
 40
8.0
100
AcDbArc
 50
90.0
 51
180.0
  0
ARC
  5
225
330
1F
100
AcDbEntity
  8
0
  6
Continuous
 62
     7
370
    25
100
AcDbCircle
 10
114.7710770022
 20
223.8293851933
 30
0.0
 40
8.0
100
AcDbArc
 50
0.0
 51
90.0
  0
LINE
  5
226
330
1F
100
AcDbEntity
  8
0
  6
Continuous
 62
     7
370
    25
100
AcDbLine
 10
122.7710770022
 20
211.0793851933
 30
0.0
 11
122.7710770022
 21
223.8293851933
 31
0.0
  0
LINE
  5
227
330
1F
100
AcDbEntity
  8
0
  6
Continuous
 62
     7
370
    25
100
AcDbLine
 10
92.7710770022
 20
218.3293851933
 30
0.0
 11
112.7710770022
 21
218.3293851933
 31
0.0
  0
ARC
  5
228
330
1F
100
AcDbEntity
  8
0
  6
Continuous
 62
     7
370
    25
100
AcDbCircle
 10
112.7710770022
 20
221.8293851933
 30
0.0
 40
3.499999999999972
100
AcDbArc
 50
270.0
 51
90.0
  0
LINE
  5
229
330
1F
100
AcDbEntity
  8
0
  6
Continuous
 62
     7
370
    25
100
AcDbLine
 10
112.7710770022
 20
225.3293851933
 30
0.0
 11
92.7710770022
 21
225.3293851933
 31
0.0
  0
ARC
  5
22A
330
1F
100
AcDbEntity
  8
0
  6
Continuous
 62
     7
370
    25
100
AcDbCircle
 10
92.7710770022
 20
221.8293851933
 30
0.0
 40
3.5
100
AcDbArc
 50
90.0
 51
270.0
  0
LINE
  5
22B
330
1F
100
AcDbEntity
  8
0
  6
Continuous
 62
     7
370
    25
100
AcDbLine
 10
114.7710770022
 20
231.8293851933
 30
0.0
 11
90.7710770022
 21
231.8293851933
 31
0.0
  0
LINE
  5
22C
330
1F
100
AcDbEntity
  8
0
  6
Continuous
 62
     7
370
    25
100
AcDbLine
 10
332.7710770022
 20
131.0793851933
 30
0.0
 11
332.7710770022
 21
118.3293851933
 31
0.0
  0
ARC
  5
22D
330
1F
100
AcDbEntity
  8
0
  6
Continuous
 62
     7
370
    25
100
AcDbCircle
 10
324.7710770022
 20
118.3293851933
 30
0.0
 40
8.0
100
AcDbArc
 50
270.0
 51
0.0
  0
ARC
  5
22E
330
1F
100
AcDbEntity
  8
0
  6
Continuous
 62
     7
370
    25
100
AcDbCircle
 10
300.7710770022
 20
118.3293851933
 30
0.0
 40
8.0
100
AcDbArc
 50
180.0
 51
270.0
  0
LINE
  5
22F
330
1F
100
AcDbEntity
  8
0
  6
Continuous
 62
     7
370
    25
100
AcDbLine
 10
292.7710770022
 20
131.0793851933
 30
0.0
 11
292.7710770022
 21
118.3293851933
 31
0.0
  0
ARC
  5
230
330
1F
100
AcDbEntity
  8
0
  6
Continuous
 62
     7
370
    25
100
AcDbCircle
 10
302.7710770022
 20
120.3293851933
 30
0.0
 40
3.499999999999957
100
AcDbArc
 50
90.0
 51
270.0
  0
LINE
  5
231
330
1F
100
AcDbEntity
  8
0
  6
Continuous
 62
     7
370
    25
100
AcDbLine
 10
302.7710770022
 20
116.8293851933
 30
0.0
 11
322.7710770022
 21
116.8293851933
 31
0.0
  0
ARC
  5
232
330
1F
100
AcDbEntity
  8
0
  6
Continuous
 62
     7
370
    25
100
AcDbCircle
 10
322.7710770022
 20
120.3293851933
 30
0.0
 40
3.5
100
AcDbArc
 50
270.0
 51
90.0
  0
LINE
  5
233
330
1F
100
AcDbEntity
  8
0
  6
Continuous
 62
     7
370
    25
100
AcDbLine
 10
300.7710770022
 20
110.3293851933
 30
0.0
 11
324.7710770022
 21
110.3293851933
 31
0.0
  0
LINE
  5
234
330
1F
100
AcDbEntity
  8
0
  6
Continuous
 62
     7
370
    25
100
AcDbLine
 10
322.7710770022
 20
123.8293851933
 30
0.0
 11
302.7710770022
 21
123.8293851933
 31
0.0
  0
ARC
  5
235
330
1F
100
AcDbEntity
  8
0
  6
Continuous
 62
     7
370
    25
100
AcDbCircle
 10
300.7710770022
 20
223.8293851933
 30
0.0
 40
8.000000000000028
100
AcDbArc
 50
90.0
 51
180.0
  0
LINE
  5
236
330
1F
100
AcDbEntity
  8
0
  6
Continuous
 62
     7
370
    25
100
AcDbLine
 10
302.7710770022
 20
218.3293851933
 30
0.0
 11
322.7710770022
 21
218.3293851933
 31
0.0
  0
ARC
  5
237
330
1F
100
AcDbEntity
  8
0
  6
Continuous
 62
     7
370
    25
100
AcDbCircle
 10
322.7710770022
 20
221.8293851933
 30
0.0
 40
3.499999999999972
100
AcDbArc
 50
270.0
 51
90.0
  0
LINE
  5
238
330
1F
100
AcDbEntity
  8
0
  6
Continuous
 62
     7
370
    25
100
AcDbLine
 10
322.7710770022
 20
225.3293851933
 30
0.0
 11
302.7710770022
 21
225.3293851933
 31
0.0
  0
LINE
  5
239
330
1F
100
AcDbEntity
  8
0
  6
Continuous
 62
     7
370
    25
100
AcDbLine
 10
324.7710770022
 20
231.8293851933
 30
0.0
 11
300.7710770022
 21
231.8293851933
 31
0.0
  0
LINE
  5
23A
330
1F
100
AcDbEntity
  8
0
  6
Continuous
 62
     7
370
    25
100
AcDbLine
 10
292.7710770022
 20
211.0793851933
 30
0.0
 11
292.7710770022
 21
223.8293851933
 31
0.0
  0
ARC
  5
23B
330
1F
100
AcDbEntity
  8
0
  6
Continuous
 62
     7
370
    25
100
AcDbCircle
 10
324.7710770022
 20
223.8293851933
 30
0.0
 40
8.000000000000028
100
AcDbArc
 50
0.0
 51
90.0
  0
ARC
  5
23C
330
1F
100
AcDbEntity
  8
0
  6
Continuous
 62
     7
370
    25
100
AcDbCircle
 10
302.7710770022
 20
221.8293851933
 30
0.0
 40
3.500000000000028
100
AcDbArc
 50
90.0
 51
270.0
  0
LINE
  5
23D
330
1F
100
AcDbEntity
  8
0
  6
Continuous
 62
     7
370
    25
100
AcDbLine
 10
332.7710770022
 20
211.0793851933
 30
0.0
 11
332.7710770022
 21
223.8293851933
 31
0.0
  0
LINE
  5
23E
330
1F
100
AcDbEntity
  8
0
  6
Continuous
 62
     8
370
    25
100
AcDbLine
 10
52.7710770022
 20
180.0793851933
 30
0.0
 11
52.7710770022
 21
162.0793851933
 31
0.0
  0
LINE
  5
23F
330
1F
100
AcDbEntity
  8
0
  6
Continuous
 62
     8
370
    25
100
AcDbLine
 10
377.0710770022
 20
164.151181963
 30
0.0
 11
377.0710770022
 21
163.0793851933
 31
0.0
  0
LINE
  5
240
330
1F
100
AcDbEntity
  8
0
  6
Continuous
 62
     8
370
    25
100
AcDbLine
 10
377.0710770022
 20
179.0793851933
 30
0.0
 11
377.0710770022
 21
178.0075884235
 31
0.0
  0
ENDSEC
  0
SECTION
  2
OBJECTS
  0
DICTIONARY
  5
C
330
0
100
AcDbDictionary
281
     1
  3
ACAD_GROUP
350
D
  3
ACAD_LAYOUT
350
1A
  3
ACAD_MLINESTYLE
350
17
  3
ACAD_PLOTSETTINGS
350
19
  3
ACAD_PLOTSTYLENAME
350
E
  3
ACAD_SCALELIST
350
47
  0
DICTIONARY
  5
D
102
{ACAD_REACTORS
330
C
102
}
330
C
100
AcDbDictionary
281
     1
  0
DICTIONARY
  5
1A
102
{ACAD_REACTORS
330
C
102
}
330
C
100
AcDbDictionary
281
     1
  3
Layout1
350
1E
  3
Layout2
350
26
  3
Model
350
22
  0
DICTIONARY
  5
17
102
{ACAD_REACTORS
330
C
102
}
330
C
100
AcDbDictionary
281
     1
  3
Standard
350
18
  0
DICTIONARY
  5
19
102
{ACAD_REACTORS
330
C
102
}
330
C
100
AcDbDictionary
281
     1
  0
ACDBDICTIONARYWDFLT
  5
E
102
{ACAD_REACTORS
330
C
102
}
330
C
100
AcDbDictionary
281
     1
  3
Normal
350
F
100
AcDbDictionaryWithDefault
340
F
  0
DICTIONARY
  5
47
102
{ACAD_REACTORS
330
C
102
}
330
C
100
AcDbDictionary
281
     1
  3
A0
350
48
  3
A1
350
49
  3
A2
350
4A
  3
A3
350
4B
  3
A4
350
4C
  3
A5
350
4D
  3
A6
350
4E
  3
A7
350
4F
  3
A8
350
50
  3
A9
350
51
  3
B0
350
52
  3
B1
350
53
  3
B2
350
54
  3
B3
350
55
  3
B4
350
56
  3
B5
350
57
  3
B6
350
58
  3
B7
350
59
  3
B8
350
5A
  3
B9
350
5B
  3
C0
350
5C
  3
C1
350
5D
  3
C2
350
5E
  3
C3
350
5F
  3
C4
350
60
  3
C5
350
61
  3
C6
350
62
  3
C7
350
63
  3
C8
350
64
  3
C9
350
65
  3
D0
350
66
  3
D1
350
67
  3
D2
350
68
  0
LAYOUT
  5
1E
102
{ACAD_REACTORS
330
1A
102
}
330
1A
100
AcDbPlotSettings
  1

  2
none_device
  4

  6

 40
0.0
 41
0.0
 42
0.0
 43
0.0
 44
0.0
 45
0.0
 46
0.0
 47
0.0
 48
0.0
 49
0.0
140
0.0
141
0.0
142
1.0
143
1.0
 70
   688
 72
     1
 73
     0
 74
     5
  7

 75
    16
147
1.0
148
0.0
149
0.0
100
AcDbLayout
  1
Layout1
 70
     1
 71
     1
 10
0.0
 20
0.0
 11
420.0
 21
297.0
 12
0.0
 22
0.0
 32
0.0
 14
1.0000000000E+20
 24
1.0000000000E+20
 34
1.0000000000E+20
 15
-1.0000000000E+20
 25
-1.0000000000E+20
 35
-1.0000000000E+20
146
0.0
 13
0.0
 23
0.0
 33
0.0
 16
1.0
 26
0.0
 36
0.0
 17
0.0
 27
1.0
 37
0.0
 76
     0
330
1B
  0
LAYOUT
  5
26
102
{ACAD_REACTORS
330
1A
102
}
330
1A
100
AcDbPlotSettings
  1

  2
none_device
  4

  6

 40
0.0
 41
0.0
 42
0.0
 43
0.0
 44
0.0
 45
0.0
 46
0.0
 47
0.0
 48
0.0
 49
0.0
140
0.0
141
0.0
142
1.0
143
1.0
 70
   688
 72
     1
 73
     0
 74
     5
  7

 75
    16
147
1.0
148
0.0
149
0.0
100
AcDbLayout
  1
Layout2
 70
     1
 71
     2
 10
0.0
 20
0.0
 11
0.0
 21
0.0
 12
0.0
 22
0.0
 32
0.0
 14
0.0
 24
0.0
 34
0.0
 15
0.0
 25
0.0
 35
0.0
146
0.0
 13
0.0
 23
0.0
 33
0.0
 16
1.0
 26
0.0
 36
0.0
 17
0.0
 27
1.0
 37
0.0
 76
     0
330
23
  0
LAYOUT
  5
22
102
{ACAD_REACTORS
330
1A
102
}
330
1A
100
AcDbPlotSettings
  1

  2
none_device
  4
Letter_(8.50_x_11.00_Inches)
  6

 40
6.35
 41
6.35
 42
6.35000508
 43
6.35000508
 44
215.9
 45
279.4
 46
0.0
 47
0.0
 48
0.0
 49
0.0
140
0.0
141
0.0
142
1.0
143
1.0
 70
  1712
 72
     1
 73
     0
 74
     0
  7

 75
     0
147
1.0
148
0.0
149
0.0
100
AcDbLayout
  1
Model
 70
     1
 71
     0
 10
0.0
 20
0.0
 11
420.0
 21
297.0
 12
0.0
 22
0.0
 32
0.0
 14
0.0
 24
0.0
 34
0.0
 15
420.0
 25
297.0
 35
0.0
146
0.0
 13
0.0
 23
0.0
 33
0.0
 16
1.0
 26
0.0
 36
0.0
 17
0.0
 27
1.0
 37
0.0
 76
     0
330
1F
331
29
  0
MLINESTYLE
  5
18
102
{ACAD_REACTORS
330
17
102
}
330
17
100
AcDbMlineStyle
  2
Standard
 70
     0
  3

 62
   256
 51
90.0
 52
90.0
 71
     2
 49
0.5
 62
   256
  6
BYLAYER
 49
-0.5
 62
   256
  6
BYLAYER
  0
ACDBPLACEHOLDER
  5
F
102
{ACAD_REACTORS
330
E
102
}
330
E
  0
SCALE
  5
48
102
{ACAD_REACTORS
330
47
102
}
330
47
100
AcDbScale
 70
     0
300
1:1
140
1.0
141
1.0
290
     1
  0
SCALE
  5
49
102
{ACAD_REACTORS
330
47
102
}
330
47
100
AcDbScale
 70
     0
300
1:2
140
1.0
141
2.0
290
     0
  0
SCALE
  5
4A
102
{ACAD_REACTORS
330
47
102
}
330
47
100
AcDbScale
 70
     0
300
1:4
140
1.0
141
4.0
290
     0
  0
SCALE
  5
4B
102
{ACAD_REACTORS
330
47
102
}
330
47
100
AcDbScale
 70
     0
300
1:5
140
1.0
141
5.0
290
     0
  0
SCALE
  5
4C
102
{ACAD_REACTORS
330
47
102
}
330
47
100
AcDbScale
 70
     0
300
1:8
140
1.0
141
8.0
290
     0
  0
SCALE
  5
4D
102
{ACAD_REACTORS
330
47
102
}
330
47
100
AcDbScale
 70
     0
300
1:10
140
1.0
141
10.0
290
     0
  0
SCALE
  5
4E
102
{ACAD_REACTORS
330
47
102
}
330
47
100
AcDbScale
 70
     0
300
1:16
140
1.0
141
16.0
290
     0
  0
SCALE
  5
4F
102
{ACAD_REACTORS
330
47
102
}
330
47
100
AcDbScale
 70
     0
300
1:20
140
1.0
141
20.0
290
     0
  0
SCALE
  5
50
102
{ACAD_REACTORS
330
47
102
}
330
47
100
AcDbScale
 70
     0
300
1:30
140
1.0
141
30.0
290
     0
  0
SCALE
  5
51
102
{ACAD_REACTORS
330
47
102
}
330
47
100
AcDbScale
 70
     0
300
1:40
140
1.0
141
40.0
290
     0
  0
SCALE
  5
52
102
{ACAD_REACTORS
330
47
102
}
330
47
100
AcDbScale
 70
     0
300
1:50
140
1.0
141
50.0
290
     0
  0
SCALE
  5
53
102
{ACAD_REACTORS
330
47
102
}
330
47
100
AcDbScale
 70
     0
300
1:100
140
1.0
141
100.0
290
     0
  0
SCALE
  5
54
102
{ACAD_REACTORS
330
47
102
}
330
47
100
AcDbScale
 70
     0
300
2:1
140
2.0
141
1.0
290
     0
  0
SCALE
  5
55
102
{ACAD_REACTORS
330
47
102
}
330
47
100
AcDbScale
 70
     0
300
4:1
140
4.0
141
1.0
290
     0
  0
SCALE
  5
56
102
{ACAD_REACTORS
330
47
102
}
330
47
100
AcDbScale
 70
     0
300
8:1
140
8.0
141
1.0
290
     0
  0
SCALE
  5
57
102
{ACAD_REACTORS
330
47
102
}
330
47
100
AcDbScale
 70
     0
300
10:1
140
10.0
141
1.0
290
     0
  0
SCALE
  5
58
102
{ACAD_REACTORS
330
47
102
}
330
47
100
AcDbScale
 70
     0
300
100:1
140
100.0
141
1.0
290
     0
  0
SCALE
  5
59
102
{ACAD_REACTORS
330
47
102
}
330
47
100
AcDbScale
 70
     0
300
1/128" = 1'-0"
140
0.0078125
141
12.0
290
     0
  0
SCALE
  5
5A
102
{ACAD_REACTORS
330
47
102
}
330
47
100
AcDbScale
 70
     0
300
1/64" = 1'-0"
140
0.015625
141
12.0
290
     0
  0
SCALE
  5
5B
102
{ACAD_REACTORS
330
47
102
}
330
47
100
AcDbScale
 70
     0
300
1/32" = 1'-0"
140
0.03125
141
12.0
290
     0
  0
SCALE
  5
5C
102
{ACAD_REACTORS
330
47
102
}
330
47
100
AcDbScale
 70
     0
300
1/16" = 1'-0"
140
0.0625
141
12.0
290
     0
  0
SCALE
  5
5D
102
{ACAD_REACTORS
330
47
102
}
330
47
100
AcDbScale
 70
     0
300
3/32" = 1'-0"
140
0.09375
141
12.0
290
     0
  0
SCALE
  5
5E
102
{ACAD_REACTORS
330
47
102
}
330
47
100
AcDbScale
 70
     0
300
1/8" = 1'-0"
140
0.125
141
12.0
290
     0
  0
SCALE
  5
5F
102
{ACAD_REACTORS
330
47
102
}
330
47
100
AcDbScale
 70
     0
300
3/16" = 1'-0"
140
0.1875
141
12.0
290
     0
  0
SCALE
  5
60
102
{ACAD_REACTORS
330
47
102
}
330
47
100
AcDbScale
 70
     0
300
1/4" = 1'-0"
140
0.25
141
12.0
290
     0
  0
SCALE
  5
61
102
{ACAD_REACTORS
330
47
102
}
330
47
100
AcDbScale
 70
     0
300
3/8" = 1'-0"
140
0.375
141
12.0
290
     0
  0
SCALE
  5
62
102
{ACAD_REACTORS
330
47
102
}
330
47
100
AcDbScale
 70
     0
300
1/2" = 1'-0"
140
0.5
141
12.0
290
     0
  0
SCALE
  5
63
102
{ACAD_REACTORS
330
47
102
}
330
47
100
AcDbScale
 70
     0
300
3/4" = 1'-0"
140
0.75
141
12.0
290
     0
  0
SCALE
  5
64
102
{ACAD_REACTORS
330
47
102
}
330
47
100
AcDbScale
 70
     0
300
1" = 1'-0"
140
1.0
141
12.0
290
     0
  0
SCALE
  5
65
102
{ACAD_REACTORS
330
47
102
}
330
47
100
AcDbScale
 70
     0
300
1-1/2" = 1'-0"
140
1.5
141
12.0
290
     0
  0
SCALE
  5
66
102
{ACAD_REACTORS
330
47
102
}
330
47
100
AcDbScale
 70
     0
300
3" = 1'-0"
140
3.0
141
12.0
290
     0
  0
SCALE
  5
67
102
{ACAD_REACTORS
330
47
102
}
330
47
100
AcDbScale
 70
     0
300
6" = 1'-0"
140
6.0
141
12.0
290
     0
  0
SCALE
  5
68
102
{ACAD_REACTORS
330
47
102
}
330
47
100
AcDbScale
 70
     0
300
1'-0" = 1'-0"
140
12.0
141
12.0
290
     0
  0
ENDSEC
  0
EOF
