  0
SECTION
  2
HEADER
  9
$ACADVER
  1
AC1015
  9
$ACADMAINTVER
 70
     6
  9
$DWGCODEPAGE
  3
ANSI_1254
  9
$INSBASE
 10
0.0
 20
0.0
 30
0.0
  9
$EXTMIN
 10
3380.7534521083
 20
3361.4178385765
 30
0.0
  9
$EXTMAX
 10
5189.669733695047
 20
7365.2231229649
 30
0.0
  9
$LIMMIN
 10
0.0
 20
0.0
  9
$LIMMAX
 10
10000.0
 20
10000.0
  9
$ORTHOMODE
 70
     0
  9
$REGENMODE
 70
     1
  9
$FILLMODE
 70
     1
  9
$QTEXTMODE
 70
     0
  9
$MIRRTEXT
 70
     1
  9
$LTSCALE
 40
1.0
  9
$ATTMODE
 70
     1
  9
$TEXTSIZE
 40
4.9388888889
  9
$TRACEWID
 40
1.0
  9
$TEXTSTYLE
  7
Standard
  9
$CLAYER
  8
0
  9
$CELTYPE
  6
ByLayer
  9
$CECOLOR
 62
   256
  9
$CELTSCALE
 40
1.0
  9
$DISPSILH
 70
     0
  9
$DIMSCALE
 40
1.0
  9
$DIMASZ
 40
3.65
  9
$DIMEXO
 40
0.5
  9
$DIMDLI
 40
3.75
  9
$DIMRND
 40
0.0
  9
$DIMDLE
 40
0.0
  9
$DIMEXE
 40
1.0
  9
$DIMTP
 40
0.0
  9
$DIMTM
 40
0.0
  9
$DIMTXT
 40
4.2333333333
  9
$DIMCEN
 40
2.5
  9
$DIMTSZ
 40
0.0
  9
$DIMTOL
 70
     0
  9
$DIMLIM
 70
     0
  9
$DIMTIH
 70
     1
  9
$DIMTOH
 70
     1
  9
$DIMSE1
 70
     0
  9
$DIMSE2
 70
     0
  9
$DIMTAD
 70
     1
  9
$DIMZIN
 70
     0
  9
$DIMBLK
  1

  9
$DIMASO
 70
     1
  9
$DIMSHO
 70
     1
  9
$DIMPOST
  1

  9
$DIMAPOST
  1

  9
$DIMALT
 70
     0
  9
$DIMALTD
 70
     3
  9
$DIMALTF
 40
0.0393700787
  9
$DIMLFAC
 40
1.0
  9
$DIMTOFL
 70
     1
  9
$DIMTVP
 40
0.0
  9
$DIMTIX
 70
     0
  9
$DIMSOXD
 70
     0
  9
$DIMSAH
 70
     0
  9
$DIMBLK1
  1

  9
$DIMBLK2
  1

  9
$DIMSTYLE
  2
ISO-25
  9
$DIMCLRD
 70
     0
  9
$DIMCLRE
 70
     0
  9
$DIMCLRT
 70
     0
  9
$DIMTFAC
 40
1.0
  9
$DIMGAP
 40
1.524
  9
$DIMJUST
 70
     0
  9
$DIMSD1
 70
     0
  9
$DIMSD2
 70
     0
  9
$DIMTOLJ
 70
     0
  9
$DIMTZIN
 70
     0
  9
$DIMALTZ
 70
     0
  9
$DIMALTTZ
 70
     0
  9
$DIMUPT
 70
     0
  9
$DIMDEC
 70
     2
  9
$DIMTDEC
 70
     2
  9
$DIMALTU
 70
     2
  9
$DIMALTTD
 70
     3
  9
$DIMTXSTY
  7
Standard
  9
$DIMAUNIT
 70
     0
  9
$DIMADEC
 70
     2
  9
$DIMALTRND
 40
0.0
  9
$DIMAZIN
 70
     0
  9
$DIMDSEP
 70
    44
  9
$DIMATFIT
 70
     3
  9
$DIMFRAC
 70
     0
  9
$DIMLDRBLK
  1

  9
$DIMLUNIT
 70
     2
  9
$DIMLWD
 70
    -2
  9
$DIMLWE
 70
    -2
  9
$DIMTMOVE
 70
     0
  9
$LUNITS
 70
     2
  9
$LUPREC
 70
     2
  9
$SKETCHINC
 40
1.0
  9
$FILLETRAD
 40
10.0
  9
$AUNITS
 70
     0
  9
$AUPREC
 70
     2
  9
$MENU
  1
.
  9
$ELEVATION
 40
0.0
  9
$PELEVATION
 40
0.0
  9
$THICKNESS
 40
0.0
  9
$LIMCHECK
 70
     0
  9
$CHAMFERA
 40
0.0
  9
$CHAMFERB
 40
0.0
  9
$CHAMFERC
 40
0.0
  9
$CHAMFERD
 40
0.0
  9
$SKPOLY
 70
     0
  9
$TDCREATE
 40
2459079.661310845
  9
$TDUCREATE
 40
2459079.536310845
  9
$TDUPDATE
 40
2459079.665036493
  9
$TDUUPDATE
 40
2459079.540036493
  9
$TDINDWG
 40
0.0031485764
  9
$TDUSRTIMER
 40
0.0031485648
  9
$USRTIMER
 70
     1
  9
$ANGBASE
 50
0.0
  9
$ANGDIR
 70
     0
  9
$PDMODE
 70
     0
  9
$PDSIZE
 40
-1.0
  9
$PLINEWID
 40
0.0
  9
$SPLFRAME
 70
     0
  9
$SPLINETYPE
 70
     6
  9
$SPLINESEGS
 70
     8
  9
$HANDSEED
  5
55C
  9
$SURFTAB1
 70
     6
  9
$SURFTAB2
 70
     6
  9
$SURFTYPE
 70
     6
  9
$SURFU
 70
     6
  9
$SURFV
 70
     6
  9
$UCSBASE
  2

  9
$UCSNAME
  2

  9
$UCSORG
 10
0.0
 20
0.0
 30
0.0
  9
$UCSXDIR
 10
1.0
 20
0.0
 30
0.0
  9
$UCSYDIR
 10
0.0
 20
1.0
 30
0.0
  9
$UCSORTHOREF
  2

  9
$UCSORTHOVIEW
 70
     0
  9
$UCSORGTOP
 10
0.0
 20
0.0
 30
0.0
  9
$UCSORGBOTTOM
 10
0.0
 20
0.0
 30
0.0
  9
$UCSORGLEFT
 10
0.0
 20
0.0
 30
0.0
  9
$UCSORGRIGHT
 10
0.0
 20
0.0
 30
0.0
  9
$UCSORGFRONT
 10
0.0
 20
0.0
 30
0.0
  9
$UCSORGBACK
 10
0.0
 20
0.0
 30
0.0
  9
$PUCSBASE
  2

  9
$PUCSNAME
  2

  9
$PUCSORG
 10
0.0
 20
0.0
 30
0.0
  9
$PUCSXDIR
 10
1.0
 20
0.0
 30
0.0
  9
$PUCSYDIR
 10
0.0
 20
1.0
 30
0.0
  9
$PUCSORTHOREF
  2

  9
$PUCSORTHOVIEW
 70
     0
  9
$PUCSORGTOP
 10
0.0
 20
0.0
 30
0.0
  9
$PUCSORGBOTTOM
 10
0.0
 20
0.0
 30
0.0
  9
$PUCSORGLEFT
 10
0.0
 20
0.0
 30
0.0
  9
$PUCSORGRIGHT
 10
0.0
 20
0.0
 30
0.0
  9
$PUCSORGFRONT
 10
0.0
 20
0.0
 30
0.0
  9
$PUCSORGBACK
 10
0.0
 20
0.0
 30
0.0
  9
$USERI1
 70
     0
  9
$USERI2
 70
     0
  9
$USERI3
 70
     0
  9
$USERI4
 70
     0
  9
$USERI5
 70
     0
  9
$USERR1
 40
0.0
  9
$USERR2
 40
0.0
  9
$USERR3
 40
0.0
  9
$USERR4
 40
0.0
  9
$USERR5
 40
0.0
  9
$WORLDVIEW
 70
     1
  9
$SHADEDGE
 70
     3
  9
$SHADEDIF
 70
    70
  9
$TILEMODE
 70
     1
  9
$MAXACTVP
 70
    64
  9
$PINSBASE
 10
0.0
 20
0.0
 30
0.0
  9
$PLIMCHECK
 70
     0
  9
$PEXTMIN
 10
1.000000000000000E+20
 20
1.000000000000000E+20
 30
1.000000000000000E+20
  9
$PEXTMAX
 10
-1.000000000000000E+20
 20
-1.000000000000000E+20
 30
-1.000000000000000E+20
  9
$PLIMMIN
 10
0.0
 20
0.0
  9
$PLIMMAX
 10
0.0
 20
0.0
  9
$UNITMODE
 70
     0
  9
$VISRETAIN
 70
     1
  9
$PLINEGEN
 70
     0
  9
$PSLTSCALE
 70
     1
  9
$TREEDEPTH
 70
  3020
  9
$CMLSTYLE
  2
Standard
  9
$CMLJUST
 70
     0
  9
$CMLSCALE
 40
20.0
  9
$PROXYGRAPHICS
 70
     1
  9
$MEASUREMENT
 70
     1
  9
$CELWEIGHT
370
    -1
  9
$ENDCAPS
280
     0
  9
$JOINSTYLE
280
     0
  9
$LWDISPLAY
290
     1
  9
$INSUNITS
 70
     4
  9
$HYPERLINKBASE
  1

  9
$STYLESHEET
  1

  9
$XEDIT
290
     1
  9
$CEPSNTYPE
380
     0
  9
$PSTYLEMODE
290
     1
  9
$FINGERPRINTGUID
  2
{96cd469a-48e7-459e-a906-962d8e4469da}
  9
$VERSIONGUID
  2
{FAEB1C32-E019-11D5-929B-00C0DF256EC4}
  9
$EXTNAMES
290
     1
  9
$PSVPSCALE
 40
0.0
  9
$OLESTARTUP
290
     0
  0
ENDSEC
  0
SECTION
  2
CLASSES
  0
CLASS
  1
ACDBDICTIONARYWDFLT
  2
AcDbDictionaryWithDefault
  3
ObjectDBX Classes
 90
        0
280
     0
281
     0
  0
CLASS
  1
VISUALSTYLE
  2
AcDbVisualStyle
  3
ObjectDBX Classes
 90
     4095
280
     0
281
     0
  0
CLASS
  1
MATERIAL
  2
AcDbMaterial
  3
ObjectDBX Classes
 90
     1153
280
     0
281
     0
  0
CLASS
  1
SCALE
  2
AcDbScale
  3
ObjectDBX Classes
 90
     1153
280
     0
281
     0
  0
CLASS
  1
TABLESTYLE
  2
AcDbTableStyle
  3
ObjectDBX Classes
 90
     4095
280
     0
281
     0
  0
CLASS
  1
MLEADERSTYLE
  2
AcDbMLeaderStyle
  3
ACDB_MLEADERSTYLE_CLASS
 90
     4095
280
     0
281
     0
  0
CLASS
  1
SUN
  2
AcDbSun
  3
SCENEOE
 90
     1153
280
     0
281
     0
  0
CLASS
  1
ACDBPLACEHOLDER
  2
AcDbPlaceHolder
  3
ObjectDBX Classes
 90
        0
280
     0
281
     0
  0
CLASS
  1
LAYOUT
  2
AcDbLayout
  3
ObjectDBX Classes
 90
        0
280
     0
281
     0
  0
ENDSEC
  0
SECTION
  2
TABLES
  0
TABLE
  2
VPORT
  5
8
330
0
100
AcDbSymbolTable
 70
     1
  0
VPORT
  5
29
330
8
100
AcDbSymbolTableRecord
100
AcDbViewportTableRecord
  2
*Active
 70
     0
 10
0.0
 20
0.0
 11
1.0
 21
1.0
 12
4285.211592901674
 22
5363.3204807707
 13
0.0
 23
0.0
 14
10.0
 24
10.0
 15
10.0
 25
10.0
 16
0.0
 26
0.0
 36
1.0
 17
0.0
 27
0.0
 37
0.0
 40
4083.881390076168
 41
2.328467153284671
 42
50.0
 43
0.0
 44
0.0
 50
0.0
 51
0.0
 71
    16
 72
  2000
 73
     1
 74
     3
 75
     0
 76
     0
 77
     0
 78
     0
281
     0
 65
     1
110
0.0
120
0.0
130
0.0
111
1.0
121
0.0
131
0.0
112
0.0
122
1.0
132
0.0
 79
     0
146
0.0
  0
ENDTAB
  0
TABLE
  2
LTYPE
  5
5
330
0
100
AcDbSymbolTable
 70
     6
  0
LTYPE
  5
14
330
5
100
AcDbSymbolTableRecord
100
AcDbLinetypeTableRecord
  2
ByBlock
 70
     0
  3

 72
    65
 73
     0
 40
0.0
  0
LTYPE
  5
15
330
5
100
AcDbSymbolTableRecord
100
AcDbLinetypeTableRecord
  2
ByLayer
 70
     0
  3

 72
    65
 73
     0
 40
0.0
  0
LTYPE
  5
16
330
5
100
AcDbSymbolTableRecord
100
AcDbLinetypeTableRecord
  2
Continuous
 70
     0
  3
Solid line
 72
    65
 73
     0
 40
0.0
  0
LTYPE
  5
6E
330
5
100
AcDbSymbolTableRecord
100
AcDbLinetypeTableRecord
  2
HIDDEN
 70
     0
  3
Hidden __ __ __ __ __ __ __ __ __ __ __ __ __ __
 72
    65
 73
     2
 40
1.905
 49
1.27
 74
     0
 49
-0.635
 74
     0
  0
LTYPE
  5
6F
330
5
100
AcDbSymbolTableRecord
100
AcDbLinetypeTableRecord
  2
PHANTOM
 70
     0
  3
Phantom ______  __  __  ______  __  __  ______
 72
    65
 73
     6
 40
12.7
 49
6.35
 74
     0
 49
-1.27
 74
     0
 49
1.27
 74
     0
 49
-1.27
 74
     0
 49
1.27
 74
     0
 49
-1.27
 74
     0
  0
LTYPE
  5
70
330
5
100
AcDbSymbolTableRecord
100
AcDbLinetypeTableRecord
  2
CENTER
 70
     0
  3
Center ____ _ ____ _ ____ _ ____ _ ____ _ ____
 72
    65
 73
     4
 40
10.16
 49
6.35
 74
     0
 49
-1.27
 74
     0
 49
1.27
 74
     0
 49
-1.27
 74
     0
  0
LTYPE
  5
71
330
5
100
AcDbSymbolTableRecord
100
AcDbLinetypeTableRecord
  2
CENTERX2
 70
     0
  3
Center (2x) ________  __  ________  __  _____
 72
    65
 73
     4
 40
20.32
 49
12.7
 74
     0
 49
-2.54
 74
     0
 49
2.54
 74
     0
 49
-2.54
 74
     0
  0
LTYPE
  5
72
330
5
100
AcDbSymbolTableRecord
100
AcDbLinetypeTableRecord
  2
DOT2
 70
     0
  3
Dot (.5x) ........................................
 72
    65
 73
     2
 40
0.635
 49
0.0
 74
     0
 49
-0.635
 74
     0
  0
ENDTAB
  0
TABLE
  2
LAYER
  5
2
330
0
100
AcDbSymbolTable
 70
     5
  0
LAYER
  5
10
330
2
100
AcDbSymbolTableRecord
100
AcDbLayerTableRecord
  2
0
 70
     0
 62
     7
  6
Continuous
370
    -3
390
F
  0
LAYER
  5
73
330
2
100
AcDbSymbolTableRecord
100
AcDbLayerTableRecord
  2
FORMAT
 70
     0
 62
     7
  6
Continuous
370
    -3
390
F
  0
LAYER
  5
74
330
2
100
AcDbSymbolTableRecord
100
AcDbLayerTableRecord
  2
SLD-0
 70
     0
 62
   179
  6
Continuous
370
    -3
390
F
  0
LAYER
  5
75
330
2
100
AcDbSymbolTableRecord
100
AcDbLayerTableRecord
  2
AAA_EKSEN
 70
     0
 62
     1
  6
CENTER
370
    -3
390
F
  0
LAYER
  5
76
330
2
100
AcDbSymbolTableRecord
100
AcDbLayerTableRecord
  2
03
 70
     0
 62
     3
  6
HIDDEN
370
    -3
390
F
  0
ENDTAB
  0
TABLE
  2
STYLE
  5
3
330
0
100
AcDbSymbolTable
 70
     1
  0
STYLE
  5
11
330
3
100
AcDbSymbolTableRecord
100
AcDbTextStyleTableRecord
  2
Standard
 70
     0
 40
0.0
 41
1.0
 50
0.0
 71
     0
 42
4.9388888889
  3
txt
  4

  0
ENDTAB
  0
TABLE
  2
VIEW
  5
6
330
0
100
AcDbSymbolTable
 70
     0
  0
ENDTAB
  0
TABLE
  2
UCS
  5
7
330
0
100
AcDbSymbolTable
 70
     0
  0
ENDTAB
  0
TABLE
  2
APPID
  5
9
330
0
100
AcDbSymbolTable
 70
     1
  0
APPID
  5
12
330
9
100
AcDbSymbolTableRecord
100
AcDbRegAppTableRecord
  2
ACAD
 70
     0
  0
ENDTAB
  0
TABLE
  2
DIMSTYLE
  5
A
330
0
100
AcDbSymbolTable
 70
     1
100
AcDbDimStyleTable
  0
DIMSTYLE
105
27
330
A
100
AcDbSymbolTableRecord
100
AcDbDimStyleTableRecord
  2
ISO-25
 70
     0
 41
2.5
 42
0.625
 43
3.75
 44
1.25
 73
     0
 74
     0
 77
     1
 78
     8
140
2.5
141
2.5
143
0.0393700787
147
0.625
171
     3
172
     1
178
     0
271
     2
272
     2
274
     3
278
    44
283
     0
284
     8
340
11
  0
ENDTAB
  0
TABLE
  2
BLOCK_RECORD
  5
1
330
0
100
AcDbSymbolTable
 70
     1
  0
BLOCK_RECORD
  5
1F
330
1
100
AcDbSymbolTableRecord
100
AcDbBlockTableRecord
  2
*Model_Space
340
22
  0
BLOCK_RECORD
  5
1B
330
1
100
AcDbSymbolTableRecord
100
AcDbBlockTableRecord
  2
*Paper_Space
340
1E
  0
BLOCK_RECORD
  5
23
330
1
100
AcDbSymbolTableRecord
100
AcDbBlockTableRecord
  2
*Paper_Space0
340
26
  0
ENDTAB
  0
ENDSEC
  0
SECTION
  2
BLOCKS
  0
BLOCK
  5
20
330
1F
100
AcDbEntity
  8
0
100
AcDbBlockBegin
  2
*Model_Space
 70
     0
 10
0.0
 20
0.0
 30
0.0
  3
*Model_Space
  1

  0
ENDBLK
  5
21
330
1F
100
AcDbEntity
  8
0
100
AcDbBlockEnd
  0
BLOCK
  5
1C
330
1B
100
AcDbEntity
 67
     1
  8
0
100
AcDbBlockBegin
  2
*Paper_Space
 70
     0
 10
0.0
 20
0.0
 30
0.0
  3
*Paper_Space
  1

  0
ENDBLK
  5
1D
330
1B
100
AcDbEntity
 67
     1
  8
0
100
AcDbBlockEnd
  0
BLOCK
  5
24
330
23
100
AcDbEntity
  8
0
100
AcDbBlockBegin
  2
*Paper_Space0
 70
     0
 10
0.0
 20
0.0
 30
0.0
  3
*Paper_Space0
  1

  0
ENDBLK
  5
25
330
23
100
AcDbEntity
  8
0
100
AcDbBlockEnd
  0
ENDSEC
  0
SECTION
  2
ENTITIES
  0
LINE
  5
77
330
1F
100
AcDbEntity
  8
0
  6
Continuous
 62
     7
370
    25
100
AcDbLine
 10
5179.6704584875
 20
7361.4520562993
 30
0.0
 11
5179.6706969061
 21
7362.9519475804
 31
0.0
  0
LINE
  5
78
330
1F
100
AcDbEntity
  8
0
  6
Continuous
 62
     7
370
    25
100
AcDbLine
 10
5170.6707531729
 20
7362.9533780919
 30
0.0
 11
5170.6705147543
 21
7361.4532483922
 31
0.0
  0
LINE
  5
79
330
1F
100
AcDbEntity
  8
0
  6
Continuous
 62
     7
370
    25
100
AcDbLine
 10
5010.675733737
 20
7361.4770902501
 30
0.0
 11
5010.6759721556
 21
7362.9772199498
 31
0.0
  0
LINE
  5
7A
330
1F
100
AcDbEntity
  8
0
  6
Continuous
 62
     7
370
    25
100
AcDbLine
 10
5001.6759688177
 20
7362.9784120427
 30
0.0
 11
5001.6757303991
 21
7361.4785207615
 31
0.0
  0
LINE
  5
7B
330
1F
100
AcDbEntity
  8
0
  6
Continuous
 62
     7
370
    25
100
AcDbLine
 10
4944.170480422
 20
7361.4871038304
 30
0.0
 11
4944.1707188406
 21
7362.9869951115
 31
0.0
  0
LINE
  5
7C
330
1F
100
AcDbEntity
  8
0
  6
Continuous
 62
     7
370
    25
100
AcDbLine
 10
4935.1707155028
 20
7362.988425623
 30
0.0
 11
4935.1704770842
 21
7361.4882959233
 31
0.0
  0
LINE
  5
7D
330
1F
100
AcDbEntity
  8
0
  6
Continuous
 62
     7
370
    25
100
AcDbLine
 10
5164.1705090323
 20
7361.4542020665
 30
0.0
 11
5164.1707474508
 21
7362.9543317662
 31
0.0
  0
LINE
  5
7E
330
1F
100
AcDbEntity
  8
0
  6
Continuous
 62
     7
370
    25
100
AcDbLine
 10
5155.1706845083
 20
7362.9555238591
 30
0.0
 11
5155.1704460898
 21
7361.4556325779
 31
0.0
  0
LINE
  5
7F
330
1F
100
AcDbEntity
  8
0
  6
Continuous
 62
     7
370
    25
100
AcDbLine
 10
4708.6705023565
 20
7361.5221513615
 30
0.0
 11
4708.6707407751
 21
7363.0220426426
 31
0.0
  0
LINE
  5
80
330
1F
100
AcDbEntity
  8
0
  6
Continuous
 62
     7
370
    25
100
AcDbLine
 10
4699.6707374373
 20
7363.0234731541
 30
0.0
 11
4699.6704990187
 21
7361.523581873
 31
0.0
  0
LINE
  5
81
330
1F
100
AcDbEntity
  8
0
  6
Continuous
 62
     7
370
    25
100
AcDbLine
 10
4724.1705114165
 20
7361.5197671757
 30
0.0
 11
4724.170749835
 21
7363.0198968754
 31
0.0
  0
LINE
  5
82
330
1F
100
AcDbEntity
  8
0
  6
Continuous
 62
     7
370
    25
100
AcDbLine
 10
4715.1707464972
 20
7363.0210889683
 30
0.0
 11
4715.1705080786
 21
7361.5211976872
 31
0.0
  0
LINE
  5
83
330
1F
100
AcDbEntity
  8
0
  6
Continuous
 62
     7
370
    25
100
AcDbLine
 10
4849.6757203856
 20
7361.5011705265
 30
0.0
 11
4849.6759588041
 21
7363.0010618077
 31
0.0
  0
LINE
  5
84
330
1F
100
AcDbEntity
  8
0
  6
Continuous
 62
     7
370
    25
100
AcDbLine
 10
4840.6759554663
 20
7363.0024923192
 30
0.0
 11
4840.6757170477
 21
7361.5023626194
 31
0.0
  0
LINE
  5
85
330
1F
100
AcDbEntity
  8
0
  6
Continuous
 62
     7
370
    25
100
AcDbLine
 10
4975.6757671156
 20
7361.4823354588
 30
0.0
 11
4975.6759459295
 21
7362.9824651585
 31
0.0
  0
LINE
  5
86
330
1F
100
AcDbEntity
  8
0
  6
Continuous
 62
     7
370
    25
100
AcDbLine
 10
4966.6759425917
 20
7362.9836572514
 30
0.0
 11
4966.6757637778
 21
7361.4837659703
 31
0.0
  0
LINE
  5
87
330
1F
100
AcDbEntity
  8
0
  6
Continuous
 62
     7
370
    25
100
AcDbLine
 10
5136.6757208624
 20
7361.4582551823
 30
0.0
 11
5136.675959281
 21
7362.958384882
 31
0.0
  0
LINE
  5
88
330
1F
100
AcDbEntity
  8
0
  6
Continuous
 62
     7
370
    25
100
AcDbLine
 10
5127.6760155478
 20
7362.9598153935
 30
0.0
 11
5127.6757771292
 21
7361.4596856938
 31
0.0
  0
LINE
  5
89
330
1F
100
AcDbEntity
  8
0
  6
Continuous
 62
     7
370
    25
100
AcDbLine
 10
4670.7655841627
 20
7364.6277917729
 30
0.0
 11
4670.7651669302
 21
7362.0247377263
 31
0.0
  0
LINE
  5
8A
330
1F
100
AcDbEntity
  8
0
  6
Continuous
 62
     7
370
    25
100
AcDbLine
 10
4680.7651573935
 20
7362.0247377263
 30
0.0
 11
4680.765574626
 21
7364.6263612614
 31
0.0
  0
ARC
  5
8B
330
1F
100
AcDbEntity
  8
0
  6
Continuous
 62
     7
370
    25
100
AcDbCircle
 10
4680.2655578296
 20
7364.6263760657
 30
0.0
 40
0.5000000000002768
100
AcDbArc
 50
359.9914617119
 51
89.991461712
  0
ARC
  5
8C
330
1F
100
AcDbEntity
  8
0
  6
Continuous
 62
     7
370
    25
100
AcDbCircle
 10
4671.2655579296
 20
7364.6277172569
 30
0.0
 40
0.5000000000011862
100
AcDbArc
 50
89.991461712
 51
179.991461712
  0
LINE
  5
8D
330
1F
100
AcDbEntity
  8
0
  6
Continuous
 62
     7
370
    25
100
AcDbLine
 10
4630.7655627051
 20
7364.6337522374
 30
0.0
 11
4630.7651454725
 21
7362.0247377263
 31
0.0
  0
LINE
  5
8E
330
1F
100
AcDbEntity
  8
0
  6
Continuous
 62
     7
370
    25
100
AcDbLine
 10
4640.7651955404
 20
7362.0247377263
 30
0.0
 11
4640.7655531683
 21
7364.6323217259
 31
0.0
  0
ARC
  5
8F
330
1F
100
AcDbEntity
  8
0
  6
Continuous
 62
     7
370
    25
100
AcDbCircle
 10
4640.2655582738
 20
7364.6323369152
 30
0.0
 40
0.5000000000011862
100
AcDbArc
 50
359.991461712
 51
89.991461712
  0
ARC
  5
90
330
1F
100
AcDbEntity
  8
0
  6
Continuous
 62
     7
370
    25
100
AcDbCircle
 10
4631.2655583737
 20
7364.6336781064
 30
0.0
 40
0.500000000001186
100
AcDbArc
 50
89.99146171210002
 51
179.991461712
  0
ARC
  5
91
330
1F
100
AcDbEntity
  8
0
  6
Continuous
 62
     7
370
    25
100
AcDbCircle
 10
5137.7911960169
 20
7296.8893160785
 30
0.0
 40
0.9999999999998779
100
AcDbArc
 50
270.1103763254
 51
357.9914617120999
  0
ARC
  5
92
330
1F
100
AcDbEntity
  8
0
  6
Continuous
 62
     7
370
    25
100
AcDbCircle
 10
5000.5410370887
 20
7296.9097692672
 30
0.0
 40
1.000000000000104
100
AcDbArc
 50
181.991461712
 51
269.8901061075
  0
LINE
  5
93
330
1F
100
AcDbEntity
  8
0
  6
Continuous
 62
     7
370
    25
100
AcDbLine
 10
5000.7627064505
 20
7289.5304693089
 30
0.0
 11
5137.567287139
 21
7289.5102037297
 31
0.0
  0
ARC
  5
94
330
1F
100
AcDbEntity
  8
0
  6
Continuous
 62
     7
370
    25
100
AcDbCircle
 10
5137.5674798279
 20
7290.5101783606
 30
0.0
 40
1.000000000000475
100
AcDbArc
 50
270.4216289926
 51
357.991461712
  0
ARC
  5
95
330
1F
100
AcDbEntity
  8
0
  6
Continuous
 62
     7
370
    25
100
AcDbCircle
 10
5000.7628520138
 20
7290.5305651558
 30
0.0
 40
1.000000000000104
100
AcDbArc
 50
181.991461712
 51
269.3622103339
  0
LINE
  5
96
330
1F
100
AcDbEntity
  8
0
  6
Continuous
 62
     7
370
    25
100
AcDbLine
 10
5135.9759623327
 20
7362.958384882
 30
0.0
 11
5135.9759623327
 21
7363.3384240971
 31
0.0
  0
LINE
  5
97
330
1F
100
AcDbEntity
  8
0
  6
Continuous
 62
     7
370
    25
100
AcDbLine
 10
5128.376012496
 20
7363.33961619
 30
0.0
 11
5128.376012496
 21
7362.9595769749
 31
0.0
  0
ARC
  5
98
330
1F
100
AcDbEntity
  8
0
  6
Continuous
 62
     7
370
    25
100
AcDbCircle
 10
5133.2380813861
 20
7362.3424000822
 30
0.0
 40
2.913493405396545
100
AcDbArc
 50
19.991461712
 51
75.16376183519999
  0
ARC
  5
99
330
1F
100
AcDbEntity
  8
0
  6
Continuous
 62
     7
370
    25
100
AcDbCircle
 10
5131.1136579172
 20
7362.3427166665
 30
0.0
 40
2.913493405396464
100
AcDbArc
 50
104.8191615888
 51
159.991461712
  0
LINE
  5
9A
330
1F
100
AcDbEntity
  8
0
  6
Continuous
 62
     7
370
    25
100
AcDbLine
 10
4848.9759618559
 20
7363.0013002263
 30
0.0
 11
4848.9760214606
 21
7363.3813394413
 31
0.0
  0
LINE
  5
9B
330
1F
100
AcDbEntity
  8
0
  6
Continuous
 62
     7
370
    25
100
AcDbLine
 10
4841.3760120192
 20
7363.3822931157
 30
0.0
 11
4841.3759524145
 21
7363.0022539006
 31
0.0
  0
ARC
  5
9C
330
1F
100
AcDbEntity
  8
0
  6
Continuous
 62
     7
370
    25
100
AcDbCircle
 10
4846.2380845728
 20
7362.3851691774
 30
0.0
 40
2.913493405397057
100
AcDbArc
 50
19.991461712
 51
75.16376183519999
  0
ARC
  5
9D
330
1F
100
AcDbEntity
  8
0
  6
Continuous
 62
     7
370
    25
100
AcDbCircle
 10
4844.113661104
 20
7362.3854857616
 30
0.0
 40
2.913493405396464
100
AcDbArc
 50
104.8191615888
 51
159.991461712
  0
ARC
  5
9E
330
1F
100
AcDbEntity
  8
0
  6
Continuous
 62
     7
370
    25
100
AcDbCircle
 10
5176.2328427933
 20
7362.3359929496
 30
0.0
 40
2.913493405395899
100
AcDbArc
 50
19.991461712
 51
75.16376183519999
  0
ARC
  5
9F
330
1F
100
AcDbEntity
  8
0
  6
Continuous
 62
     7
370
    25
100
AcDbCircle
 10
5174.1084193244
 20
7362.3363095338
 30
0.0
 40
2.913493405396689
100
AcDbArc
 50
104.8191615888
 51
159.9914617119
  0
LINE
  5
A0
330
1F
100
AcDbEntity
  8
0
  6
Continuous
 62
     7
370
    25
100
AcDbLine
 10
5178.9706999579
 20
7362.9519475804
 30
0.0
 11
5178.9708191672
 21
7363.3319867955
 31
0.0
  0
LINE
  5
A1
330
1F
100
AcDbEntity
  8
0
  6
Continuous
 62
     7
370
    25
100
AcDbLine
 10
5171.3707501211
 20
7363.3331788884
 30
0.0
 11
5171.3707501211
 21
7362.9531396733
 31
0.0
  0
LINE
  5
A2
330
1F
100
AcDbEntity
  8
0
  6
Continuous
 62
     7
370
    25
100
AcDbLine
 10
4707.9707438269
 20
7363.0222810612
 30
0.0
 11
4707.9708034315
 21
7363.4023202763
 31
0.0
  0
LINE
  5
A3
330
1F
100
AcDbEntity
  8
0
  6
Continuous
 62
     7
370
    25
100
AcDbLine
 10
4700.3707939902
 20
7363.4032739506
 30
0.0
 11
4700.3707343855
 21
7363.0234731541
 31
0.0
  0
ARC
  5
A4
330
1F
100
AcDbEntity
  8
0
  6
Continuous
 62
     7
370
    25
100
AcDbCircle
 10
4705.2328480231
 20
7362.4061819525
 30
0.0
 40
2.913493405397657
100
AcDbArc
 50
19.991461712
 51
75.16376183519999
  0
ARC
  5
A5
330
1F
100
AcDbEntity
  8
0
  6
Continuous
 62
     7
370
    25
100
AcDbCircle
 10
4703.1084245542
 20
7362.4064985367
 30
0.0
 40
2.91349340539561
100
AcDbArc
 50
104.8191615888
 51
159.991461712
  0
LINE
  5
A6
330
1F
100
AcDbEntity
  8
0
  6
Continuous
 62
     7
370
    25
100
AcDbLine
 10
5163.4707505026
 20
7362.9543317662
 30
0.0
 11
5163.4707505026
 21
7363.3343709813
 31
0.0
  0
LINE
  5
A7
330
1F
100
AcDbEntity
  8
0
  6
Continuous
 62
     7
370
    25
100
AcDbLine
 10
5155.8708006659
 20
7363.3355630742
 30
0.0
 11
5155.8706814566
 21
7362.9555238591
 31
0.0
  0
ARC
  5
A8
330
1F
100
AcDbEntity
  8
0
  6
Continuous
 62
     7
370
    25
100
AcDbCircle
 10
5160.7328429654
 20
7362.3383027788
 30
0.0
 40
2.913493405396545
100
AcDbArc
 50
19.991461712
 51
75.16376183519999
  0
ARC
  5
A9
330
1F
100
AcDbEntity
  8
0
  6
Continuous
 62
     7
370
    25
100
AcDbCircle
 10
5158.6084194965
 20
7362.338619363
 30
0.0
 40
2.913493405396922
100
AcDbArc
 50
104.8191615888
 51
159.991461712
  0
LINE
  5
AA
330
1F
100
AcDbEntity
  8
0
  6
Continuous
 62
     7
370
    25
100
AcDbLine
 10
4974.9759489813
 20
7362.9824651585
 30
0.0
 11
4974.9760085859
 21
7363.3625043736
 31
0.0
  0
LINE
  5
AB
330
1F
100
AcDbEntity
  8
0
  6
Continuous
 62
     7
370
    25
100
AcDbLine
 10
4967.3759991446
 20
7363.3636964665
 30
0.0
 11
4967.3759395399
 21
7362.9836572514
 31
0.0
  0
ARC
  5
AC
330
1F
100
AcDbEntity
  8
0
  6
Continuous
 62
     7
370
    25
100
AcDbCircle
 10
4972.2380831738
 20
7362.3663925015
 30
0.0
 40
2.913493405396746
100
AcDbArc
 50
19.991461712
 51
75.16376183519999
  0
ARC
  5
AD
330
1F
100
AcDbEntity
  8
0
  6
Continuous
 62
     7
370
    25
100
AcDbCircle
 10
4970.1136597049
 20
7362.3667090857
 30
0.0
 40
2.913493405396689
100
AcDbArc
 50
104.8191615888
 51
159.991461712
  0
LINE
  5
AE
330
1F
100
AcDbEntity
  8
0
  6
Continuous
 62
     7
370
    25
100
AcDbLine
 10
4943.4707218924
 20
7362.9872335301
 30
0.0
 11
4943.470781497
 21
7363.3670343266
 31
0.0
  0
LINE
  5
AF
330
1F
100
AcDbEntity
  8
0
  6
Continuous
 62
     7
370
    25
100
AcDbLine
 10
4935.8707720556
 20
7363.3682264195
 30
0.0
 11
4935.870712451
 21
7362.9881872044
 31
0.0
  0
ARC
  5
B0
330
1F
100
AcDbEntity
  8
0
  6
Continuous
 62
     7
370
    25
100
AcDbCircle
 10
4940.7328454082
 20
7362.3710874511
 30
0.0
 40
2.913493405396545
100
AcDbArc
 50
19.991461712
 51
75.16376183519999
  0
ARC
  5
B1
330
1F
100
AcDbEntity
  8
0
  6
Continuous
 62
     7
370
    25
100
AcDbCircle
 10
4938.6084219393
 20
7362.3714040353
 30
0.0
 40
2.91349340539581
100
AcDbArc
 50
104.8191615888
 51
159.991461712
  0
LINE
  5
B2
330
1F
100
AcDbEntity
  8
0
  6
Continuous
 62
     7
370
    25
100
AcDbLine
 10
5009.9759752073
 20
7362.9772199498
 30
0.0
 11
5009.976034812
 21
7363.3572591649
 31
0.0
  0
LINE
  5
B3
330
1F
100
AcDbEntity
  8
0
  6
Continuous
 62
     7
370
    25
100
AcDbLine
 10
5002.3760253706
 20
7363.3584512578
 30
0.0
 11
5002.375965766
 21
7362.9784120427
 31
0.0
  0
ARC
  5
B4
330
1F
100
AcDbEntity
  8
0
  6
Continuous
 62
     7
370
    25
100
AcDbCircle
 10
5007.2380827852
 20
7362.3611767582
 30
0.0
 40
2.913493405396545
100
AcDbArc
 50
19.991461712
 51
75.16376183519999
  0
ARC
  5
B5
330
1F
100
AcDbEntity
  8
0
  6
Continuous
 62
     7
370
    25
100
AcDbCircle
 10
5005.1136593163
 20
7362.3614933424
 30
0.0
 40
2.913493405396689
100
AcDbArc
 50
104.8191615888
 51
159.991461712
  0
LINE
  5
B6
330
1F
100
AcDbEntity
  8
0
  6
Continuous
 62
     7
370
    25
100
AcDbLine
 10
4723.4707528868
 20
7363.0198968754
 30
0.0
 11
4723.4708124914
 21
7363.3999360905
 31
0.0
  0
LINE
  5
B7
330
1F
100
AcDbEntity
  8
0
  6
Continuous
 62
     7
370
    25
100
AcDbLine
 10
4715.8708030501
 20
7363.4011281834
 30
0.0
 11
4715.8707434454
 21
7363.0210889683
 31
0.0
  0
ARC
  5
B8
330
1F
100
AcDbEntity
  8
0
  6
Continuous
 62
     7
370
    25
100
AcDbCircle
 10
4720.732847851
 20
7362.4038721233
 30
0.0
 40
2.913493405396746
100
AcDbArc
 50
19.991461712
 51
75.16376183519999
  0
ARC
  5
B9
330
1F
100
AcDbEntity
  8
0
  6
Continuous
 62
     7
370
    25
100
AcDbCircle
 10
4718.6084243821
 20
7362.4041887075
 30
0.0
 40
2.913493405396689
100
AcDbArc
 50
104.8191615888
 51
159.991461712
  0
LWPOLYLINE
  5
BA
330
1F
100
AcDbEntity
  8
0
  6
Continuous
 62
     7
370
    25
100
AcDbPolyline
 90
       13
 70
   128
 43
0.0
 10
5170.6707531729
 20
7362.9533780919
 10
5170.8530241766
 20
7362.9533780919
 10
5171.3850552359
 20
7362.9531396733
 10
5172.2238117972
 20
7362.9531396733
 10
5173.3013445654
 20
7362.9529012547
 10
5174.5302731314
 20
7362.9526628361
 10
5175.8111769476
 20
7362.9524244175
 10
5177.0401055136
 20
7362.9524244175
 10
5178.1176382818
 20
7362.952185999
 10
5178.9563948431
 20
7362.9519475804
 10
5179.4884259024
 20
7362.9519475804
 10
5179.6706969061
 20
7362.9519475804
 10
5179.6706969061
 20
7362.9519475804
  0
LWPOLYLINE
  5
BB
330
1F
100
AcDbEntity
  8
0
  6
Continuous
 62
     7
370
    25
100
AcDbPolyline
 90
       13
 70
   128
 43
0.0
 10
5001.6759688177
 20
7362.9784120427
 10
5001.8582398215
 20
7362.9784120427
 10
5002.3903304854
 20
7362.9784120427
 10
5003.2290870466
 20
7362.9781736241
 10
5004.3066198149
 20
7362.9781736241
 10
5005.5355483809
 20
7362.9779352055
 10
5006.8163925924
 20
7362.9776967869
 10
5008.0453211584
 20
7362.9774583683
 10
5009.1228539267
 20
7362.9774583683
 10
5009.961610488
 20
7362.9772199498
 10
5010.4937011519
 20
7362.9772199498
 10
5010.6759721556
 20
7362.9772199498
 10
5010.6759721556
 20
7362.9772199498
  0
LWPOLYLINE
  5
BC
330
1F
100
AcDbEntity
  8
0
  6
Continuous
 62
     7
370
    25
100
AcDbPolyline
 90
       13
 70
   128
 43
0.0
 10
4935.1707155028
 20
7362.988425623
 10
4935.3529865065
 20
7362.988425623
 10
4935.8850771704
 20
7362.9881872044
 10
4936.7238337317
 20
7362.9881872044
 10
4937.8013664999
 20
7362.9879487858
 10
4939.0302950659
 20
7362.9877103672
 10
4940.3111392775
 20
7362.9877103672
 10
4941.5400678435
 20
7362.9874719487
 10
4942.6176006117
 20
7362.9872335301
 10
4943.456357173
 20
7362.9872335301
 10
4943.9884478369
 20
7362.9869951115
 10
4944.1707188406
 20
7362.9869951115
 10
4944.1707188406
 20
7362.9869951115
  0
LWPOLYLINE
  5
BD
330
1F
100
AcDbEntity
  8
0
  6
Continuous
 62
     7
370
    25
100
AcDbPolyline
 90
       13
 70
   128
 43
0.0
 10
5155.1706845083
 20
7362.9555238591
 10
5155.3529555121
 20
7362.9555238591
 10
5155.8851057806
 20
7362.9555238591
 10
5156.7238623419
 20
7362.9552854405
 10
5157.8013951101
 20
7362.9552854405
 10
5159.0303236761
 20
7362.9550470219
 10
5160.3111082831
 20
7362.9548086033
 10
5161.540036849
 20
7362.9545701848
 10
5162.6175696173
 20
7362.9545701848
 10
5163.4563261786
 20
7362.9543317662
 10
5163.9884764471
 20
7362.9543317662
 10
5164.1707474508
 20
7362.9543317662
 10
5164.1707474508
 20
7362.9543317662
  0
LWPOLYLINE
  5
BE
330
1F
100
AcDbEntity
  8
0
  6
Continuous
 62
     7
370
    25
100
AcDbPolyline
 90
       13
 70
   128
 43
0.0
 10
4699.6707374373
 20
7363.0234731541
 10
4699.853008441
 20
7363.0234731541
 10
4700.3850991049
 20
7363.0234731541
 10
4701.2238556662
 20
7363.0232347355
 10
4702.3013884344
 20
7363.022996317
 10
4703.5303170004
 20
7363.022996317
 10
4704.811161212
 20
7363.0227578984
 10
4706.040089778
 20
7363.0225194798
 10
4707.1176225462
 20
7363.0222810612
 10
4707.9563791075
 20
7363.0222810612
 10
4708.4884697714
 20
7363.0222810612
 10
4708.6707407751
 20
7363.0220426426
 10
4708.6707407751
 20
7363.0220426426
  0
LWPOLYLINE
  5
BF
330
1F
100
AcDbEntity
  8
0
  6
Continuous
 62
     7
370
    25
100
AcDbPolyline
 90
       13
 70
   128
 43
0.0
 10
4715.1707464972
 20
7363.0210889683
 10
4715.3530175009
 20
7363.0210889683
 10
4715.8851081648
 20
7363.0210889683
 10
4716.7238647261
 20
7363.0208505497
 10
4717.8013378897
 20
7363.0208505497
 10
4719.0303260603
 20
7363.0206121312
 10
4720.3111702719
 20
7363.0203737126
 10
4721.5400988379
 20
7363.020135294
 10
4722.6175720015
 20
7363.020135294
 10
4723.4563881674
 20
7363.0198968754
 10
4723.9884192267
 20
7363.0198968754
 10
4724.170749835
 20
7363.0198968754
 10
4724.170749835
 20
7363.0198968754
  0
LWPOLYLINE
  5
C0
330
1F
100
AcDbEntity
  8
0
  6
Continuous
 62
     7
370
    25
100
AcDbPolyline
 90
       13
 70
   128
 43
0.0
 10
4840.6759554663
 20
7363.0024923192
 10
4840.85822647
 20
7363.0024923192
 10
4841.3903171339
 20
7363.0022539006
 10
4842.2290736952
 20
7363.0022539006
 10
4843.3066064634
 20
7363.002015482
 10
4844.5355350294
 20
7363.002015482
 10
4845.816379241
 20
7363.0017770634
 10
4847.045307807
 20
7363.0015386448
 10
4848.1228405752
 20
7363.0013002263
 10
4848.9615971365
 20
7363.0013002263
 10
4849.4936878004
 20
7363.0010618077
 10
4849.6759588041
 20
7363.0010618077
 10
4849.6759588041
 20
7363.0010618077
  0
LWPOLYLINE
  5
C1
330
1F
100
AcDbEntity
  8
0
  6
Continuous
 62
     7
370
    25
100
AcDbPolyline
 90
       13
 70
   128
 43
0.0
 10
4966.6759425917
 20
7362.9836572514
 10
4966.8582732001
 20
7362.9836572514
 10
4967.3903042593
 20
7362.9836572514
 10
4968.2290608206
 20
7362.9834188328
 10
4969.3065935888
 20
7362.9834188328
 10
4970.5355221548
 20
7362.9831804142
 10
4971.8163663664
 20
7362.9829419957
 10
4973.045354537
 20
7362.9827035771
 10
4974.1228277006
 20
7362.9827035771
 10
4974.9615842619
 20
7362.9824651585
 10
4975.4936749258
 20
7362.9824651585
 10
4975.6759459295
 20
7362.9824651585
 10
4975.6759459295
 20
7362.9824651585
  0
LWPOLYLINE
  5
C2
330
1F
100
AcDbEntity
  8
0
  6
Continuous
 62
     7
370
    25
100
AcDbPolyline
 90
       13
 70
   128
 43
0.0
 10
5127.6760155478
 20
7362.9598153935
 10
5127.8582865515
 20
7362.9595769749
 10
5128.3903176108
 20
7362.9595769749
 10
5129.229074172
 20
7362.9595769749
 10
5130.3066069403
 20
7362.9593385563
 10
5131.5355355063
 20
7362.9591001378
 10
5132.8163201132
 20
7362.9588617192
 10
5134.0453678885
 20
7362.9588617192
 10
5135.1227814474
 20
7362.9586233006
 10
5135.961657218
 20
7362.958384882
 10
5136.4936882773
 20
7362.958384882
 10
5136.675959281
 20
7362.958384882
 10
5136.675959281
 20
7362.958384882
  0
LWPOLYLINE
  5
C3
330
1F
100
AcDbEntity
  8
0
  6
Continuous
 62
     7
370
    25
100
AcDbPolyline
 90
       13
 70
   128
 43
0.0
 10
4671.2656075278
 20
7365.1277555333
 10
4671.2915951529
 20
7365.1277555333
 10
4671.608870677
 20
7365.1277555333
 10
4672.2628528395
 20
7365.1275171147
 10
4673.2006723204
 20
7365.1275171147
 10
4674.3462139883
 20
7365.1272786961
 10
4675.6067926207
 20
7365.1270402775
 10
4676.8802458563
 20
7365.1268018589
 10
4678.0633980551
 20
7365.1268018589
 10
4679.0603453436
 20
7365.1265634404
 10
4679.7904426375
 20
7365.1265634404
 10
4680.1944429197
 20
7365.1263250218
 10
4680.2656108656
 20
7365.1263250218
  0
LINE
  5
C4
330
1F
100
AcDbEntity
  8
0
  6
Continuous
 62
     7
370
    25
100
AcDbLine
 10
4638.0515748778
 20
7331.7763341771
 30
0.0
 11
4635.3848630705
 21
7330.6707872258
 31
0.0
  0
LINE
  5
C5
330
1F
100
AcDbEntity
  8
0
  6
Continuous
 62
     7
370
    25
100
AcDbLine
 10
4638.4276801863
 20
7334.6383108006
 30
0.0
 11
4638.0515748778
 21
7331.7763341771
 31
0.0
  0
LINE
  5
C6
330
1F
100
AcDbEntity
  8
0
  6
Continuous
 62
     7
370
    25
100
AcDbLine
 10
4636.1370140829
 20
7336.39521731
 30
0.0
 11
4638.4276801863
 21
7334.6383108006
 31
0.0
  0
LINE
  5
C7
330
1F
100
AcDbEntity
  8
0
  6
Continuous
 62
     7
370
    25
100
AcDbLine
 10
4633.4703022757
 20
7335.2896703587
 30
0.0
 11
4636.1370140829
 21
7336.39521731
 31
0.0
  0
LINE
  5
C8
330
1F
100
AcDbEntity
  8
0
  6
Continuous
 62
     7
370
    25
100
AcDbLine
 10
4635.3848630705
 20
7330.6707872258
 30
0.0
 11
4633.0941969671
 21
7332.4276937352
 31
0.0
  0
CIRCLE
  5
C9
330
1F
100
AcDbEntity
  8
0
  6
Continuous
 62
     7
370
    25
100
AcDbCircle
 10
4635.760923763
 20
7333.5330078561
 30
0.0
 40
4.499999999999544
  0
LINE
  5
CA
330
1F
100
AcDbEntity
  8
0
  6
Continuous
 62
     7
370
    25
100
AcDbLine
 10
4633.0941969671
 20
7332.4276937352
 30
0.0
 11
4633.4703022757
 21
7335.2896703587
 31
0.0
  0
CIRCLE
  5
CB
330
1F
100
AcDbEntity
  8
0
  6
Continuous
 62
     7
370
    25
100
AcDbCircle
 10
4635.760923763
 20
7333.5330078561
 30
0.0
 40
5.00000000000056
  0
LWPOLYLINE
  5
CC
330
1F
100
AcDbEntity
  8
0
  6
Continuous
 62
     7
370
    25
100
AcDbPolyline
 90
       13
 70
   128
 43
0.0
 10
4631.2656456747
 20
7365.1337159977
 10
4631.2916332998
 20
7365.1337159977
 10
4631.6088492193
 20
7365.1337159977
 10
4632.2628909865
 20
7365.1334775792
 10
4633.2006508627
 20
7365.1334775792
 10
4634.3462521353
 20
7365.1332391606
 10
4635.606771163
 20
7365.133000742
 10
4636.8802243986
 20
7365.1327623234
 10
4638.0633765974
 20
7365.1327623234
 10
4639.0603834906
 20
7365.1325239048
 10
4639.7904211798
 20
7365.1325239048
 10
4640.1944214621
 20
7365.1322854863
 10
4640.2656490126
 20
7365.1322854863
  0
CIRCLE
  5
CD
330
1F
100
AcDbEntity
  8
0
  6
Continuous
 62
     7
370
    25
100
AcDbCircle
 10
4675.7609233192
 20
7333.5270470066
 30
0.0
 40
4.500000000000385
  0
CIRCLE
  5
CE
330
1F
100
AcDbEntity
  8
0
  6
Continuous
 62
     7
370
    25
100
AcDbCircle
 10
4675.7609233192
 20
7333.5270470066
 30
0.0
 40
4.999999999999718
  0
LINE
  5
CF
330
1F
100
AcDbEntity
  8
0
  6
Continuous
 62
     7
370
    25
100
AcDbLine
 10
4678.4276420393
 20
7334.6323503361
 30
0.0
 11
4678.0515963354
 21
7331.7703737126
 31
0.0
  0
LINE
  5
D0
330
1F
100
AcDbEntity
  8
0
  6
Continuous
 62
     7
370
    25
100
AcDbLine
 10
4676.1370355406
 20
7336.3892568455
 30
0.0
 11
4678.4276420393
 21
7334.6323503361
 31
0.0
  0
LINE
  5
D1
330
1F
100
AcDbEntity
  8
0
  6
Continuous
 62
     7
370
    25
100
AcDbLine
 10
4673.4702641287
 20
7335.2837098942
 30
0.0
 11
4676.1370355406
 21
7336.3892568455
 31
0.0
  0
LINE
  5
D2
330
1F
100
AcDbEntity
  8
0
  6
Continuous
 62
     7
370
    25
100
AcDbLine
 10
4678.0515963354
 20
7331.7703737126
 30
0.0
 11
4675.3848249235
 21
7330.6648267613
 31
0.0
  0
LINE
  5
D3
330
1F
100
AcDbEntity
  8
0
  6
Continuous
 62
     7
370
    25
100
AcDbLine
 10
4673.0941588202
 20
7332.4217332707
 30
0.0
 11
4673.4702641287
 21
7335.2837098942
 31
0.0
  0
LINE
  5
D4
330
1F
100
AcDbEntity
  8
0
  6
Continuous
 62
     7
370
    25
100
AcDbLine
 10
4675.3848249235
 20
7330.6648267613
 30
0.0
 11
4673.0941588202
 21
7332.4217332707
 31
0.0
  0
LWPOLYLINE
  5
D5
330
1F
100
AcDbEntity
  8
0
  6
Continuous
 62
     7
370
    25
100
AcDbPolyline
 90
        9
 70
   128
 43
0.0
 10
5139.1624266424
 20
7307.4578775273
 10
5139.0892321387
 20
7305.3702844487
 10
5139.0190178671
 20
7303.3685220585
 10
5138.9545256415
 20
7301.5286458836
 10
5138.8981396475
 20
7299.9207509861
 10
5138.8520056524
 20
7298.606110941
 10
5138.8179117956
 20
7297.6345552311
 10
5138.7971693793
 20
7297.043277155
 10
5138.7906128683
 20
7296.8546880589
  0
LWPOLYLINE
  5
D6
330
1F
100
AcDbEntity
  8
0
  6
Continuous
 62
     7
370
    25
100
AcDbPolyline
 90
       10
 70
   128
 43
0.0
 10
5137.7910429754
 20
7295.8895696507
 10
5137.7961689749
 20
7296.0505021916
 10
5137.8126198569
 20
7296.5600026951
 10
5137.8396803656
 20
7297.4025739537
 10
5137.8765160361
 20
7298.553420435
 10
5137.9222924032
 20
7299.977494608
 10
5137.9754597464
 20
7301.6323579655
 10
5138.0343491354
 20
7303.467942606
 10
5138.0972916403
 20
7305.4296506749
 10
5138.1623799124
 20
7307.4581159459
  0
LWPOLYLINE
  5
D7
330
1F
100
AcDbEntity
  8
0
  6
Continuous
 62
     7
370
    25
100
AcDbPolyline
 90
       10
 70
   128
 43
0.0
 10
5000.1729184904
 20
7307.4786199437
 10
5000.2374703207
 20
7305.4501546727
 10
5000.2998763838
 20
7303.4884466038
 10
5000.358229331
 20
7301.6528619633
 10
5000.4108602324
 20
7299.9979986058
 10
5000.4561597624
 20
7298.5739244328
 10
5000.4927570143
 20
7297.4230779515
 10
5000.5195791044
 20
7296.5805066929
 10
5000.5357319632
 20
7296.0710061894
 10
5000.5408579626
 20
7295.9100736485
  0
LWPOLYLINE
  5
D8
330
1F
100
AcDbEntity
  8
0
  6
Continuous
 62
     7
370
    25
100
AcDbPolyline
 90
        9
 70
   128
 43
0.0
 10
4999.5416456976
 20
7296.8754304753
 10
4999.5350891867
 20
7297.0640195713
 10
4999.5145255842
 20
7297.6552976475
 10
4999.4807297507
 20
7298.6268533574
 10
4999.4350129881
 20
7299.9414934025
 10
4999.3791038313
 20
7301.5493883
 10
4999.3151480475
 20
7303.3892644749
 10
4999.2455298224
 20
7305.3912652836
 10
4999.172931365
 20
7307.4788583622
  0
LINE
  5
D9
330
1F
100
AcDbEntity
  8
0
  6
Continuous
 62
     7
370
    25
100
AcDbLine
 10
5137.7910429754
 20
7295.8895696507
 30
0.0
 11
5122.1280152121
 21
7295.8919538365
 31
0.0
  0
LWPOLYLINE
  5
DA
330
1F
100
AcDbEntity
  8
0
  6
Continuous
 62
     7
370
    25
100
AcDbPolyline
 90
        3
 70
   128
 43
0.0
 10
5122.1280152121
 20
7295.8919538365
 10
5118.8105398932
 20
7295.8924306736
 10
5116.2040287771
 20
7295.8929075108
  0
LINE
  5
DB
330
1F
100
AcDbEntity
  8
0
  6
Continuous
 62
     7
370
    25
100
AcDbLine
 10
5116.2040287771
 20
7295.8929075108
 30
0.0
 11
5112.1279055395
 21
7295.893384348
 31
0.0
  0
LWPOLYLINE
  5
DC
330
1F
100
AcDbEntity
  8
0
  6
Continuous
 62
     7
370
    25
100
AcDbPolyline
 90
        3
 70
   128
 43
0.0
 10
5112.1279055395
 20
7295.893384348
 10
5108.8105494299
 20
7295.8938611851
 10
5106.2039191046
 20
7295.8943380223
  0
LINE
  5
DD
330
1F
100
AcDbEntity
  8
0
  6
Continuous
 62
     7
370
    25
100
AcDbLine
 10
5106.2039191046
 20
7295.8943380223
 30
0.0
 11
5102.1279150763
 21
7295.895053278
 31
0.0
  0
LWPOLYLINE
  5
DE
330
1F
100
AcDbEntity
  8
0
  6
Continuous
 62
     7
370
    25
100
AcDbPolyline
 90
        3
 70
   128
 43
0.0
 10
5102.1279150763
 20
7295.8948148594
 10
5098.8105589667
 20
7295.8955301152
 10
5096.2039286413
 20
7295.8957685338
  0
LINE
  5
DF
330
1F
100
AcDbEntity
  8
0
  6
Continuous
 62
     7
370
    25
100
AcDbLine
 10
5096.2039286413
 20
7295.8957685338
 30
0.0
 11
5092.127924613
 21
7295.8964837895
 31
0.0
  0
LWPOLYLINE
  5
E0
330
1F
100
AcDbEntity
  8
0
  6
Continuous
 62
     7
370
    25
100
AcDbPolyline
 90
        3
 70
   128
 43
0.0
 10
5092.127924613
 20
7295.8964837895
 10
5088.8105685034
 20
7295.8969606266
 10
5086.2039977827
 20
7295.8971990452
  0
LINE
  5
E1
330
1F
100
AcDbEntity
  8
0
  6
Continuous
 62
     7
370
    25
100
AcDbLine
 10
5086.2039977827
 20
7295.8974374638
 30
0.0
 11
5082.1279341498
 21
7295.897914301
 31
0.0
  0
LWPOLYLINE
  5
E2
330
1F
100
AcDbEntity
  8
0
  6
Continuous
 62
     7
370
    25
100
AcDbPolyline
 90
        3
 70
   128
 43
0.0
 10
5082.1279341498
 20
7295.897914301
 10
5078.8105184355
 20
7295.8983911381
 10
5076.2040073195
 20
7295.8988679753
  0
LINE
  5
E3
330
1F
100
AcDbEntity
  8
0
  6
Continuous
 62
     7
370
    25
100
AcDbLine
 10
5076.2040073195
 20
7295.8988679753
 30
0.0
 11
5072.1279436865
 21
7295.8993448124
 31
0.0
  0
LINE
  5
E4
330
1F
100
AcDbEntity
  8
0
  6
Continuous
 62
     7
370
    25
100
AcDbLine
 10
5072.1279436865
 20
7295.8993448124
 30
0.0
 11
5066.2039572516
 21
7295.9002984868
 31
0.0
  0
LINE
  5
E5
330
1F
100
AcDbEntity
  8
0
  6
Continuous
 62
     7
370
    25
100
AcDbLine
 10
5066.2039572516
 20
7295.9002984868
 30
0.0
 11
5062.1279532232
 21
7295.9010137425
 31
0.0
  0
LINE
  5
E6
330
1F
100
AcDbEntity
  8
0
  6
Continuous
 62
     7
370
    25
100
AcDbLine
 10
5062.1279532232
 20
7295.9007753239
 30
0.0
 11
5056.2039667883
 21
7295.9017289982
 31
0.0
  0
LINE
  5
E7
330
1F
100
AcDbEntity
  8
0
  6
Continuous
 62
     7
370
    25
100
AcDbLine
 10
5056.2039667883
 20
7295.9017289982
 30
0.0
 11
5052.12796276
 21
7295.902444254
 31
0.0
  0
LINE
  5
E8
330
1F
100
AcDbEntity
  8
0
  6
Continuous
 62
     7
370
    25
100
AcDbLine
 10
5046.2039763251
 20
7295.9031595097
 30
0.0
 11
5052.12796276
 21
7295.902444254
 31
0.0
  0
LINE
  5
E9
330
1F
100
AcDbEntity
  8
0
  6
Continuous
 62
     7
370
    25
100
AcDbLine
 10
5046.2039763251
 20
7295.9033979283
 30
0.0
 11
5042.1279722967
 21
7295.9038747654
 31
0.0
  0
LINE
  5
EA
330
1F
100
AcDbEntity
  8
0
  6
Continuous
 62
     7
370
    25
100
AcDbLine
 10
5036.2039858618
 20
7295.9045900212
 30
0.0
 11
5042.1279722967
 21
7295.9038747654
 31
0.0
  0
LINE
  5
EB
330
1F
100
AcDbEntity
  8
0
  6
Continuous
 62
     7
370
    25
100
AcDbLine
 10
5036.2039858618
 20
7295.9048284398
 30
0.0
 11
5032.1279818335
 21
7295.9053052769
 31
0.0
  0
LINE
  5
EC
330
1F
100
AcDbEntity
  8
0
  6
Continuous
 62
     7
370
    25
100
AcDbLine
 10
5026.2039953985
 20
7295.9062589512
 30
0.0
 11
5032.1279818335
 21
7295.9053052769
 31
0.0
  0
LINE
  5
ED
330
1F
100
AcDbEntity
  8
0
  6
Continuous
 62
     7
370
    25
100
AcDbLine
 10
5026.2039953985
 20
7295.9062589512
 30
0.0
 11
5022.1279317656
 21
7295.906974207
 31
0.0
  0
LINE
  5
EE
330
1F
100
AcDbEntity
  8
0
  6
Continuous
 62
     7
370
    25
100
AcDbLine
 10
5016.2040049353
 20
7295.9076894627
 30
0.0
 11
5022.1279317656
 21
7295.9067357884
 31
0.0
  0
LINE
  5
EF
330
1F
100
AcDbEntity
  8
0
  6
Continuous
 62
     7
370
    25
100
AcDbLine
 10
5016.2040049353
 20
7295.9076894627
 30
0.0
 11
5000.5408579626
 21
7295.9100736485
 31
0.0
  0
LINE
  5
F0
330
1F
100
AcDbEntity
  8
0
  6
Continuous
 62
     7
370
    25
100
AcDbLine
 10
5000.7616931715
 20
7289.6079553471
 30
0.0
 11
5137.5683600226
 21
7289.5874513493
 31
0.0
  0
ARC
  5
F1
330
1F
100
AcDbEntity
  8
0
  6
Continuous
 62
     7
370
    25
100
AcDbCircle
 10
5000.7353790399
 20
7290.5822455092
 30
0.0
 40
0.9746454500979749
100
AcDbArc
 50
183.3722997289
 51
271.5470978807
  0
LWPOLYLINE
  5
F2
330
1F
100
AcDbEntity
  8
0
  6
Continuous
 62
     7
370
    25
100
AcDbPolyline
 90
        7
 70
   128
 43
0.0
 10
4999.7624213019
 20
7290.5249132023
 10
4999.6938163557
 20
7292.4992574559
 10
4999.6376687803
 20
7294.1123975621
 10
4999.5943362036
 20
7295.3598035679
 10
4999.5638186255
 20
7296.2374223576
 10
4999.5462352553
 20
7296.7431081639
 10
4999.5416456976
 20
7296.8754304753
  0
ARC
  5
F3
330
1F
100
AcDbEntity
  8
0
  6
Continuous
 62
     7
370
    25
100
AcDbCircle
 10
5137.5946044613
 20
7290.5621487994
 30
0.0
 40
0.9750507113532797
100
AcDbArc
 50
268.457642068
 51
356.5910941054
  0
LWPOLYLINE
  5
F4
330
1F
100
AcDbEntity
  8
0
  6
Continuous
 62
     7
370
    25
100
AcDbPolyline
 90
        7
 70
   128
 43
0.0
 10
5138.7906128683
 20
7296.8542112217
 10
5138.785963706
 20
7296.7223657475
 10
5138.7682015219
 20
7296.2166799412
 10
5138.7374455252
 20
7295.3390611515
 10
5138.6936957159
 20
7294.0918935643
 10
5138.6370713034
 20
7292.4787534581
 10
5138.5679299154
 20
7290.5041707859
  0
LWPOLYLINE
  5
F5
330
1F
100
AcDbEntity
  8
0
  6
Continuous
 62
     7
370
    25
100
AcDbPolyline
 90
        3
 70
   128
 43
0.0
 10
5138.5679299154
 20
7290.5041707859
 10
5138.5669762411
 20
7290.4798520909
 10
5138.5668570318
 20
7290.4750837193
  0
LWPOLYLINE
  5
F6
330
1F
100
AcDbEntity
  8
0
  6
Continuous
 62
     7
370
    25
100
AcDbPolyline
 90
        3
 70
   128
 43
0.0
 10
4999.7634345808
 20
7290.4958261357
 10
4999.7633153715
 20
7290.5003560887
 10
4999.7624213019
 20
7290.5249132023
  0
LINE
  5
F7
330
1F
100
AcDbEntity
  8
0
  6
Continuous
 62
     7
370
    25
100
AcDbLine
 10
5185.6705004492
 20
7361.4511026249
 30
0.0
 11
5185.6701428213
 21
7359.4510091649
 31
0.0
  0
LINE
  5
F8
330
1F
100
AcDbEntity
  8
0
  6
Continuous
 62
     7
370
    25
100
AcDbLine
 10
5184.6702153006
 20
7359.4512475834
 30
0.0
 11
5184.6704537192
 21
7361.4511026249
 31
0.0
  0
LINE
  5
F9
330
1F
100
AcDbEntity
  8
0
  6
Continuous
 62
     7
370
    25
100
AcDbLine
 10
5184.6704537192
 20
7361.4511026249
 30
0.0
 11
5185.6705004492
 21
7361.4511026249
 31
0.0
  0
LINE
  5
FA
330
1F
100
AcDbEntity
  8
0
  6
Continuous
 62
     7
370
    25
100
AcDbLine
 10
4694.6705037871
 20
7361.5242971287
 30
0.0
 11
4694.6702057638
 21
7359.5242036686
 31
0.0
  0
LINE
  5
FB
330
1F
100
AcDbEntity
  8
0
  6
Continuous
 62
     7
370
    25
100
AcDbLine
 10
5184.6704537192
 20
7361.4511026249
 30
0.0
 11
4694.6705037871
 21
7361.5242971287
 31
0.0
  0
LINE
  5
FC
330
1F
100
AcDbEntity
  8
0
  6
Continuous
 62
     7
370
    25
100
AcDbLine
 10
4693.6702186384
 20
7359.5244420872
 30
0.0
 11
4693.6705166617
 21
7361.5242971287
 31
0.0
  0
LINE
  5
FD
330
1F
100
AcDbEntity
  8
0
  6
Continuous
 62
     7
370
    25
100
AcDbLine
 10
4693.6705166617
 20
7361.5242971287
 30
0.0
 11
4694.6705037871
 21
7361.5242971287
 31
0.0
  0
LINE
  5
FE
330
1F
100
AcDbEntity
  8
0
  6
Continuous
 62
     7
370
    25
100
AcDbLine
 10
5186.9487816611
 20
7310.2509511815
 30
0.0
 11
4693.1628639021
 21
7310.3243841038
 31
0.0
  0
LINE
  5
FF
330
1F
100
AcDbEntity
  8
0
  6
Continuous
 62
     7
370
    25
100
AcDbLine
 10
4693.1697780409
 20
7356.7244542942
 30
0.0
 11
4693.1628639021
 21
7310.3243841038
 31
0.0
  0
LINE
  5
100
330
1F
100
AcDbEntity
  8
0
  6
Continuous
 62
     7
370
    25
100
AcDbLine
 10
4693.1697780409
 20
7356.7244542942
 30
0.0
 11
5186.6506392279
 21
7356.6510213719
 31
0.0
  0
LINE
  5
101
330
1F
100
AcDbEntity
  8
0
  6
Continuous
 62
     7
370
    25
100
AcDbLine
 10
5187.3095089712
 20
7311.4506734715
 30
0.0
 11
5187.3159462729
 21
7354.9258245335
 31
0.0
  0
LINE
  5
102
330
1F
100
AcDbEntity
  8
0
  6
Continuous
 62
     7
370
    25
100
AcDbLine
 10
5187.3095089712
 20
7311.4506734715
 30
0.0
 11
5186.9487816611
 21
7310.2509511815
 31
0.0
  0
SPLINE
  5
103
330
1F
100
AcDbEntity
  8
0
  6
Continuous
 62
     7
370
    25
100
AcDbSpline
210
0.0
220
0.0
230
1.0
 70
     8
 71
     3
 72
     9
 73
     5
 74
     0
 42
0.000000001
 43
0.00000001
 40
0.0
 40
0.0
 40
0.0
 40
0.0
 40
0.5007036082431598
 40
0.9999999999999999
 40
0.9999999999999999
 40
0.9999999999999999
 40
0.9999999999999999
 10
5187.315946272867
 20
7354.925824533508
 30
0.0
 10
5187.15225084597
 20
7355.193466447619
 30
0.0
 10
5186.825320054576
 20
7355.727998074126
 30
0.0
 10
5186.708811519205
 20
7356.34363571778
 30
0.0
 10
5186.650639227884
 20
7356.651021371887
 30
0.0
  0
LINE
  5
104
330
1F
100
AcDbEntity
  8
0
  6
Continuous
 62
     7
370
    25
100
AcDbLine
 10
5186.3669211188
 20
7359.4510091649
 30
0.0
 11
4693.1701952734
 21
7359.5244420872
 31
0.0
  0
LWPOLYLINE
  5
105
330
1F
100
AcDbEntity
  8
0
  6
Continuous
 62
     7
370
    25
100
AcDbPolyline
 90
        9
 70
   128
 43
0.0
 10
4693.1701952734
 20
7359.5244420872
 10
4693.1701952734
 20
7359.4705594883
 10
4693.1701952734
 20
7359.3112958775
 10
4693.1701356688
 20
7359.0526117192
 10
4693.1700760641
 20
7358.7042821751
 10
4693.1700164595
 20
7358.2801355229
 10
4693.1699568548
 20
7357.7959073887
 10
4693.1698972502
 20
7357.270671259
 10
4693.1697780409
 20
7356.7244542942
  0
SPLINE
  5
106
330
1F
100
AcDbEntity
  8
0
  6
Continuous
 62
     7
370
    25
100
AcDbSpline
210
0.0
220
0.0
230
1.0
 70
     8
 71
     3
 72
    13
 73
     9
 74
     0
 42
0.000000001
 43
0.00000001
 40
0.0
 40
0.0
 40
0.0
 40
0.0
 40
0.2254897874630055
 40
0.3573210114975104
 40
0.5016653599609866
 40
0.690516187556722
 40
0.8302741603054353
 40
1.0
 40
1.0
 40
1.0
 40
1.0
 10
5186.650639227884
 20
7356.651021371887
 30
0.0
 10
5186.633954095239
 20
7356.982878479294
 30
0.0
 10
5186.60751410192
 20
7357.508753813275
 30
0.0
 10
5186.561943844812
 20
7358.16996133048
 30
0.0
 10
5186.517495751412
 20
7358.705848531386
 30
0.0
 10
5186.468866692958
 20
7359.118419953664
 30
0.0
 10
5186.417169199789
 20
7359.39697996927
 30
0.0
 10
5186.384717917521
 20
7359.431873175947
 30
0.0
 10
5186.366921118753
 20
7359.451009164855
 30
0.0
  0
LINE
  5
107
330
1F
100
AcDbEntity
  8
0
  6
Continuous
 62
     7
370
    25
100
AcDbLine
 10
4693.1624466696
 20
7307.5243963109
 30
0.0
 11
5186.7034489432
 21
7307.4509633885
 31
0.0
  0
LWPOLYLINE
  5
108
330
1F
100
AcDbEntity
  8
0
  6
Continuous
 62
     7
370
    25
100
AcDbPolyline
 90
        9
 70
   128
 43
0.0
 10
4693.1628639021
 20
7310.3243841038
 10
4693.1628042975
 20
7309.7781671391
 10
4693.1627446928
 20
7309.2529310093
 10
4693.1626254835
 20
7308.7687028752
 10
4693.1625658789
 20
7308.344556223
 10
4693.1625062742
 20
7307.9962266789
 10
4693.1625062742
 20
7307.7375425206
 10
4693.1624466696
 20
7307.5782789097
 10
4693.1624466696
 20
7307.5243963109
  0
SPLINE
  5
109
330
1F
100
AcDbEntity
  8
0
  6
Continuous
 62
     7
370
    25
100
AcDbSpline
210
0.0
220
0.0
230
1.0
 70
     8
 71
     3
 72
    13
 73
     9
 74
     0
 42
0.000000001
 43
0.00000001
 40
0.0
 40
0.0
 40
0.0
 40
0.0
 40
0.1792239919048262
 40
0.3223004551110584
 40
0.4992236247110983
 40
0.6449320239973085
 40
0.7771063893849249
 40
1.0
 40
1.0
 40
1.0
 40
1.0
 10
5186.703448943155
 20
7307.450963388488
 30
0.0
 10
5186.718769934252
 20
7307.472184832729
 30
0.0
 10
5186.746321839278
 20
7307.510347586856
 30
0.0
 10
5186.788660448715
 20
7307.802309792313
 30
0.0
 10
5186.828394076912
 20
7308.214168740406
 30
0.0
 10
5186.865824898009
 20
7308.739437790453
 30
0.0
 10
5186.905904620162
 20
7309.400913503664
 30
0.0
 10
5186.932245928093
 20
7309.923130143608
 30
0.0
 10
5186.948781661051
 20
7310.250951181457
 30
0.0
  0
LINE
  5
10A
330
1F
100
AcDbEntity
  8
0
  6
Continuous
 62
     7
370
    25
100
AcDbLine
 10
5187.663083724
 20
7311.4506734715
 30
0.0
 11
5187.6628453055
 21
7310.2507127629
 31
0.0
  0
LINE
  5
10B
330
1F
100
AcDbEntity
  8
0
  6
Continuous
 62
     7
370
    25
100
AcDbLine
 10
5189.6630579748
 20
7311.4504350529
 30
0.0
 11
5187.663083724
 21
7311.4506734715
 31
0.0
  0
LINE
  5
10C
330
1F
100
AcDbEntity
  8
0
  6
Continuous
 62
     7
370
    25
100
AcDbLine
 10
5189.6630579748
 20
7311.4504350529
 30
0.0
 11
5189.6628195563
 21
7310.2504743443
 31
0.0
  0
LINE
  5
10D
330
1F
100
AcDbEntity
  8
0
  6
Continuous
 62
     7
370
    25
100
AcDbLine
 10
5189.6628195563
 20
7310.2504743443
 30
0.0
 11
5187.6628453055
 21
7310.2507127629
 31
0.0
  0
SPLINE
  5
10E
330
1F
100
AcDbEntity
  8
0
  6
Continuous
 62
     7
370
    25
100
AcDbSpline
210
0.0
220
0.0
230
1.0
 70
     8
 71
     3
 72
     9
 73
     5
 74
     0
 42
0.000000001
 43
0.00000001
 40
0.0
 40
0.0
 40
0.0
 40
0.0
 40
0.5007815247338905
 40
0.9999999999999999
 40
0.9999999999999999
 40
0.9999999999999999
 40
0.9999999999999999
 10
5187.669521025675
 20
7354.925824533508
 30
0.0
 10
5187.669560730952
 20
7355.193461822736
 30
0.0
 10
5187.669640017578
 20
7355.727901046247
 30
0.0
 10
5187.669719676866
 20
7356.343476375851
 30
0.0
 10
5187.669759444254
 20
7356.650782953307
 30
0.0
  0
LINE
  5
10F
330
1F
100
AcDbEntity
  8
0
  6
Continuous
 62
     7
370
    25
100
AcDbLine
 10
5189.669733695
 20
7356.6505445347
 30
0.0
 11
5187.6697594443
 21
7356.6507829533
 31
0.0
  0
LINE
  5
110
330
1F
100
AcDbEntity
  8
0
  6
Continuous
 62
     7
370
    25
100
AcDbLine
 10
5189.6694952765
 20
7354.9253476963
 30
0.0
 11
5187.6695210257
 21
7354.9258245335
 31
0.0
  0
SPLINE
  5
111
330
1F
100
AcDbEntity
  8
0
  6
Continuous
 62
     7
370
    25
100
AcDbSpline
210
0.0
220
0.0
230
1.0
 70
     8
 71
     3
 72
     9
 73
     5
 74
     0
 42
0.000000001
 43
0.00000001
 40
0.0
 40
0.0
 40
0.0
 40
0.0
 40
0.5007193707905604
 40
1.0
 40
1.0
 40
1.0
 40
1.0
 10
5189.669495276468
 20
7354.925347696349
 30
0.0
 10
5189.66953498423
 20
7355.192984637791
 30
0.0
 10
5189.669614285661
 20
7355.727489506295
 30
0.0
 10
5189.669693930115
 20
7356.34315478633
 30
0.0
 10
5189.669733695047
 20
7356.650544534728
 30
0.0
  0
LINE
  5
112
330
1F
100
AcDbEntity
  8
0
  6
Continuous
 62
     7
370
    25
100
AcDbLine
 10
5187.663083724
 20
7311.4506734715
 30
0.0
 11
5187.6695210257
 21
7354.9258245335
 31
0.0
  0
LINE
  5
113
330
1F
100
AcDbEntity
  8
0
  6
Continuous
 62
     7
370
    25
100
AcDbLine
 10
5189.6630579748
 20
7311.4504350529
 30
0.0
 11
5189.6694952765
 21
7354.9253476963
 31
0.0
  0
LINE
  5
114
330
1F
100
AcDbEntity
  8
0
  6
Continuous
 62
     7
370
    25
100
AcDbLine
 10
5186.8624741354
 20
7307.4509633885
 30
0.0
 11
5186.8625933447
 21
7308.711005579
 31
0.0
  0
SPLINE
  5
115
330
1F
100
AcDbEntity
  8
0
  6
Continuous
 62
     7
370
    25
100
AcDbSpline
210
0.0
220
0.0
230
1.0
 70
     8
 71
     3
 72
    13
 73
     9
 74
     0
 42
0.000000001
 43
0.00000001
 40
0.0
 40
0.0
 40
0.0
 40
0.0
 40
0.2220293319220361
 40
0.3540547083229296
 40
0.4996121933286734
 40
0.6769851182418519
 40
0.8203659846161417
 40
1.0
 40
1.0
 40
1.0
 40
1.0
 10
5187.66284530546
 20
7310.250712762878
 30
0.0
 10
5187.653535659808
 20
7310.157134452347
 30
0.0
 10
5187.638690216427
 20
7310.007911639518
 30
0.0
 10
5187.54343446866
 20
7309.819145791646
 30
0.0
 10
5187.424777778331
 20
7309.669152927485
 30
0.0
 10
5187.267106517586
 20
7309.551415718838
 30
0.0
 10
5187.073047182665
 20
7309.46772103497
 30
0.0
 10
5186.937880835746
 20
7309.456858993932
 30
0.0
 10
5186.862712553995
 20
7309.450818429992
 30
0.0
  0
SPLINE
  5
116
330
1F
100
AcDbEntity
  8
0
  6
Continuous
 62
     7
370
    25
100
AcDbSpline
210
0.0
220
0.0
230
1.0
 70
     8
 71
     3
 72
    13
 73
     9
 74
     0
 42
0.000000001
 43
0.00000001
 40
0.0
 40
0.0
 40
0.0
 40
0.0
 40
0.222732295824995
 40
0.3547696008944255
 40
0.5003621561551259
 40
0.6774410783988151
 40
0.8206571720048879
 40
1.0
 40
1.0
 40
1.0
 40
1.0
 10
5189.662819556253
 20
7310.250474344299
 30
0.0
 10
5189.630294514746
 20
7309.922904477887
 30
0.0
 10
5189.578488394975
 20
7309.401148841412
 30
0.0
 10
5189.244591962319
 20
7308.740160187821
 30
0.0
 10
5188.830210207792
 20
7308.214770243522
 30
0.0
 10
5188.277755323475
 20
7307.80288851429
 30
0.0
 10
5187.598647266664
 20
7307.510207002262
 30
0.0
 10
5187.125528351421
 20
7307.472132705478
 30
0.0
 10
5186.862474135416
 20
7307.450963388488
 30
0.0
  0
SPLINE
  5
117
330
1F
100
AcDbEntity
  8
0
  6
Continuous
 62
     7
370
    25
100
AcDbSpline
210
0.0
220
0.0
230
1.0
 70
     8
 71
     3
 72
    13
 73
     9
 74
     0
 42
0.000000001
 43
0.00000001
 40
0.0
 40
0.0
 40
0.0
 40
0.0
 40
0.1704175963676852
 40
0.3106694600097777
 40
0.4999317660188122
 40
0.6445312739048074
 40
0.7760132265261965
 40
1.0
 40
1.0
 40
1.0
 40
1.0
 10
5186.869865111368
 20
7357.450915704772
 30
0.0
 10
5186.940910627639
 20
7357.44553782611
 30
0.0
 10
5187.070425845823
 20
7357.435734010687
 30
0.0
 10
5187.264869096499
 20
7357.355784557575
 30
0.0
 10
5187.426899096528
 20
7357.238561033403
 30
0.0
 10
5187.548301578652
 20
7357.085241728241
 30
0.0
 10
5187.645038816659
 20
7356.896671440532
 30
0.0
 10
5187.66020376031
 20
7356.745830405491
 30
0.0
 10
5187.669759444254
 20
7356.650782953307
 30
0.0
  0
LINE
  5
118
330
1F
100
AcDbEntity
  8
0
  6
Continuous
 62
     7
370
    25
100
AcDbLine
 10
5186.8702227392
 20
7359.4507707463
 30
0.0
 11
5186.8698651114
 21
7357.4509157048
 31
0.0
  0
SPLINE
  5
119
330
1F
100
AcDbEntity
  8
0
  6
Continuous
 62
     7
370
    25
100
AcDbSpline
210
0.0
220
0.0
230
1.0
 70
     8
 71
     3
 72
    13
 73
     9
 74
     0
 42
0.000000001
 43
0.00000001
 40
0.0
 40
0.0
 40
0.0
 40
0.0
 40
0.1695936977996385
 40
0.3092558214731695
 40
0.4979677332004233
 40
0.6423752750264861
 40
0.7743471138570598
 40
0.9999999999999999
 40
0.9999999999999999
 40
0.9999999999999999
 40
0.9999999999999999
 10
5186.870222739237
 20
7359.450770746276
 30
0.0
 10
5187.118766533007
 20
7359.431707090154
 30
0.0
 10
5187.571988652176
 20
7359.396944320601
 30
0.0
 10
5188.253385343277
 20
7359.118690269437
 30
0.0
 10
5188.81987184372
 20
7358.70628366463
 30
0.0
 10
5189.245333761413
 20
7358.170619878889
 30
0.0
 10
5189.583784995247
 20
7357.508992730414
 30
0.0
 10
5189.636482680778
 20
7356.982652795475
 30
0.0
 10
5189.669733695047
 20
7356.650544534728
 30
0.0
  0
LINE
  5
11A
330
1F
100
AcDbEntity
  8
0
  6
Continuous
 62
     7
370
    25
100
AcDbLine
 10
5186.6699511328
 20
7357.4509157048
 30
0.0
 11
5186.8698651114
 21
7357.4509157048
 31
0.0
  0
LINE
  5
11B
330
1F
100
AcDbEntity
  8
0
  6
Continuous
 62
     7
370
    25
100
AcDbLine
 10
5186.6701895514
 20
7359.4510091649
 30
0.0
 11
5186.6699511328
 21
7357.4509157048
 31
0.0
  0
LINE
  5
11C
330
1F
100
AcDbEntity
  8
0
  6
Continuous
 62
     7
370
    25
100
AcDbLine
 10
5186.6701895514
 20
7359.4510091649
 30
0.0
 11
5186.8702227392
 21
7359.4507707463
 31
0.0
  0
LINE
  5
11D
330
1F
100
AcDbEntity
  8
0
  6
Continuous
 62
     7
370
    25
100
AcDbLine
 10
5186.6701895514
 20
7359.4510091649
 30
0.0
 11
5186.3669211188
 21
7359.4510091649
 31
0.0
  0
LINE
  5
11E
330
1F
100
AcDbEntity
  8
0
  6
Continuous
 62
     7
370
    25
100
AcDbLine
 10
4692.4624497214
 20
7307.5246347294
 30
0.0
 11
4692.4627477446
 21
7309.5244897709
 31
0.0
  0
LINE
  5
11F
330
1F
100
AcDbEntity
  8
0
  6
Continuous
 62
     7
370
    25
100
AcDbLine
 10
4692.4624497214
 20
7307.5246347294
 30
0.0
 11
4693.1624466696
 21
7307.5243963109
 31
0.0
  0
LINE
  5
120
330
1F
100
AcDbEntity
  8
0
  6
Continuous
 62
     7
370
    25
100
AcDbLine
 10
4692.4627477446
 20
7309.5244897709
 30
0.0
 11
4693.1627446928
 21
7309.5244897709
 31
0.0
  0
ARC
  5
121
330
1F
100
AcDbEntity
  8
0
  6
Continuous
 62
     7
370
    25
100
AcDbCircle
 10
4692.4628748617
 20
7310.3245221465
 30
0.0
 40
0.800000000000079
100
AcDbArc
 50
179.991461712
 51
269.991461712
  0
ARC
  5
122
330
1F
100
AcDbEntity
  8
0
  6
Continuous
 62
     7
370
    25
100
AcDbCircle
 10
4692.4628748617
 20
7310.3245221465
 30
0.0
 40
2.799999999999591
100
AcDbArc
 50
230.8271261271001
 51
269.991461712
  0
LINE
  5
123
330
1F
100
AcDbEntity
  8
0
  6
Continuous
 62
     7
370
    25
100
AcDbLine
 10
4691.6632110396
 20
7312.5247491703
 30
0.0
 11
4691.6628534117
 21
7310.3246225224
 31
0.0
  0
ARC
  5
124
330
1F
100
AcDbEntity
  8
0
  6
Continuous
 62
     7
370
    25
100
AcDbCircle
 10
4692.4697894524
 20
7356.7245572883
 30
0.0
 40
2.799999999999714
100
AcDbArc
 50
89.991461712
 51
130.0052010925
  0
LINE
  5
125
330
1F
100
AcDbEntity
  8
0
  6
Continuous
 62
     7
370
    25
100
AcDbLine
 10
4692.4701983252
 20
7359.5244420872
 30
0.0
 11
4692.469900302
 21
7357.5245870457
 31
0.0
  0
LINE
  5
126
330
1F
100
AcDbEntity
  8
0
  6
Continuous
 62
     7
370
    25
100
AcDbLine
 10
4692.4701983252
 20
7359.5244420872
 30
0.0
 11
4693.1701952734
 21
7359.5244420872
 31
0.0
  0
LWPOLYLINE
  5
127
330
1F
100
AcDbEntity
  8
0
  6
Continuous
 62
     7
370
    25
100
AcDbPolyline
 90
       12
 70
   128
 43
0.0
 10
5135.9759623327
 20
7363.3384240971
 10
5135.8199173727
 20
7363.3384240971
 10
5135.3083903113
 20
7363.3386625157
 10
5134.4902569571
 20
7363.3386625157
 10
5133.4456259527
 20
7363.3389009343
 10
5132.2766596594
 20
7363.3389009343
 10
5131.0979182043
 20
7363.3391393528
 10
5130.0246769705
 20
7363.3393777714
 10
5129.161959342
 20
7363.3393777714
 10
5128.5944039145
 20
7363.33961619
 10
5128.3773237982
 20
7363.33961619
 10
5128.376012496
 20
7363.33961619
  0
LWPOLYLINE
  5
128
330
1F
100
AcDbEntity
  8
0
  6
Continuous
 62
     7
370
    25
100
AcDbPolyline
 90
       10
 70
   128
 43
0.0
 10
5133.9840943136
 20
7365.1587499485
 10
5133.9447552481
 20
7365.1587499485
 10
5133.6665207663
 20
7365.1587499485
 10
5133.1613117972
 20
7365.1589883671
 10
5132.5062567511
 20
7365.1589883671
 10
5131.8010145941
 20
7365.1589883671
 10
5131.1527544775
 20
7365.1592267857
 10
5130.6604201117
 20
7365.1592267857
 10
5130.3988749304
 20
7365.1592267857
 10
5130.3684765616
 20
7365.1592267857
  0
LWPOLYLINE
  5
129
330
1F
100
AcDbEntity
  8
0
  6
Continuous
 62
     7
370
    25
100
AcDbPolyline
 90
       12
 70
   128
 43
0.0
 10
4848.9760214606
 20
7363.3813394413
 10
4848.8198572912
 20
7363.3813394413
 10
4848.3083898344
 20
7363.3813394413
 10
4847.4902564802
 20
7363.3813394413
 10
4846.4455658713
 20
7363.3815778599
 10
4845.2766591826
 20
7363.3818162785
 10
4844.0978581228
 20
7363.3820546971
 10
4843.024616889
 20
7363.3820546971
 10
4842.1620184698
 20
7363.3822931157
 10
4841.5944034376
 20
7363.3822931157
 10
4841.377382926
 20
7363.3822931157
 10
4841.3760120192
 20
7363.3822931157
  0
LWPOLYLINE
  5
12A
330
1F
100
AcDbEntity
  8
0
  6
Continuous
 62
     7
370
    25
100
AcDbPolyline
 90
       10
 70
   128
 43
0.0
 10
4846.9840938368
 20
7365.2014268742
 10
4846.9446951666
 20
7365.2014268742
 10
4846.6664606848
 20
7365.2016652928
 10
4846.161370925
 20
7365.2016652928
 10
4845.5063158789
 20
7365.2016652928
 10
4844.8009545126
 20
7365.2019037114
 10
4844.1528136053
 20
7365.2019037114
 10
4843.6604196348
 20
7365.2021421299
 10
4843.3988744536
 20
7365.2021421299
 10
4843.3684760847
 20
7365.2021421299
  0
LWPOLYLINE
  5
12B
330
1F
100
AcDbEntity
  8
0
  6
Continuous
 62
     7
370
    25
100
AcDbPolyline
 90
       12
 70
   128
 43
0.0
 10
5178.9708191672
 20
7363.3319867955
 10
5178.9615208426
 20
7363.3319867955
 10
5178.6937767782
 20
7363.3319867955
 10
5178.0812794485
 20
7363.332225214
 10
5177.1838719168
 20
7363.332225214
 10
5176.0894114294
 20
7363.3324636326
 10
5174.9049479284
 20
7363.3327020512
 10
5173.7465912619
 20
7363.3329404698
 10
5172.7277094641
 20
7363.3329404698
 10
5171.9478422918
 20
7363.3331788884
 10
5171.483522109
 20
7363.3331788884
 10
5171.3707501211
 20
7363.3331788884
  0
LWPOLYLINE
  5
12C
330
1F
100
AcDbEntity
  8
0
  6
Continuous
 62
     7
370
    25
100
AcDbPolyline
 90
       10
 70
   128
 43
0.0
 10
5176.9788319388
 20
7365.1523126469
 10
5176.8951470175
 20
7365.1523126469
 10
5176.5557581701
 20
7365.1523126469
 10
5176.0054880896
 20
7365.1525510655
 10
5175.3282601156
 20
7365.1525510655
 10
5174.6270710745
 20
7365.1527894841
 10
5174.0087324896
 20
7365.1527894841
 10
5173.5673004904
 20
7365.1527894841
 10
5173.3701283255
 20
7365.1527894841
 10
5173.3632141867
 20
7365.1527894841
  0
LWPOLYLINE
  5
12D
330
1F
100
AcDbEntity
  8
0
  6
Continuous
 62
     7
370
    25
100
AcDbPolyline
 90
       12
 70
   128
 43
0.0
 10
4707.9708034315
 20
7363.4023202763
 10
4707.9615051069
 20
7363.4023202763
 10
4707.6938206473
 20
7363.4023202763
 10
4707.0813233175
 20
7363.4023202763
 10
4706.1838561812
 20
7363.4025586949
 10
4705.0893956938
 20
7363.4025586949
 10
4703.9049917975
 20
7363.4027971135
 10
4702.7466351309
 20
7363.403035532
 10
4701.7276341238
 20
7363.4032739506
 10
4700.9478265562
 20
7363.4032739506
 10
4700.4835063734
 20
7363.4032739506
 10
4700.3707939902
 20
7363.4032739506
  0
LWPOLYLINE
  5
12E
330
1F
100
AcDbEntity
  8
0
  6
Continuous
 62
     7
370
    25
100
AcDbPolyline
 90
       10
 70
   128
 43
0.0
 10
4705.9788758078
 20
7365.2226461277
 10
4705.8950716772
 20
7365.2226461277
 10
4705.5556828299
 20
7365.2226461277
 10
4705.0055319586
 20
7365.2226461277
 10
4704.3283039847
 20
7365.2228845463
 10
4703.6271149435
 20
7365.2228845463
 10
4703.0087763586
 20
7365.2228845463
 10
4702.5673443594
 20
7365.2231229649
 10
4702.3701125899
 20
7365.2231229649
 10
4702.3632580557
 20
7365.2231229649
  0
LWPOLYLINE
  5
12F
330
1F
100
AcDbEntity
  8
0
  6
Continuous
 62
     7
370
    25
100
AcDbPolyline
 90
       12
 70
   128
 43
0.0
 10
5163.4707505026
 20
7363.3343709813
 10
5163.4341532507
 20
7363.3343709813
 10
5163.0872542181
 20
7363.3343709813
 10
5162.4059731283
 20
7363.3346093998
 10
5161.4568287649
 20
7363.3346093998
 10
5160.3330427923
 20
7363.3348478184
 10
5159.1442877569
 20
7363.335086237
 10
5158.0071503439
 20
7363.335086237
 10
5157.0328528204
 20
7363.3353246556
 10
5156.3167626181
 20
7363.3353246556
 10
5155.9289747992
 20
7363.3355630742
 10
5155.8708006659
 20
7363.3355630742
  0
LWPOLYLINE
  5
130
330
1F
100
AcDbEntity
  8
0
  6
Continuous
 62
     7
370
    25
100
AcDbPolyline
 90
       10
 70
   128
 43
0.0
 10
5161.4788824835
 20
7365.1546968327
 10
5161.4755446234
 20
7365.1546968327
 10
5161.2963730612
 20
7365.1546968327
 10
5160.8698422232
 20
7365.1546968327
 10
5160.2606827536
 20
7365.1549352513
 10
5159.5618778982
 20
7365.1549352513
 10
5158.8795239248
 20
7365.1549352513
 10
5158.3178097525
 20
7365.1551736699
 10
5157.9620892325
 20
7365.1551736699
 10
5157.8632647314
 20
7365.1551736699
  0
LWPOLYLINE
  5
131
330
1F
100
AcDbEntity
  8
0
  6
Continuous
 62
     7
370
    25
100
AcDbPolyline
 90
       12
 70
   128
 43
0.0
 10
4974.9760085859
 20
7363.3625043736
 10
4974.8198444166
 20
7363.3625043736
 10
4974.3083769598
 20
7363.3625043736
 10
4973.4902436056
 20
7363.3627427922
 10
4972.4456126013
 20
7363.3627427922
 10
4971.276646308
 20
7363.3629812108
 10
4970.0979048529
 20
7363.3632196293
 10
4969.0246636191
 20
7363.3634580479
 10
4968.1620055952
 20
7363.3634580479
 10
4967.594390563
 20
7363.3634580479
 10
4967.3773700514
 20
7363.3636964665
 10
4967.3759991446
 20
7363.3636964665
  0
LWPOLYLINE
  5
132
330
1F
100
AcDbEntity
  8
0
  6
Continuous
 62
     7
370
    25
100
AcDbPolyline
 90
       10
 70
   128
 43
0.0
 10
4972.9840809622
 20
7365.182830225
 10
4972.9447418966
 20
7365.182830225
 10
4972.6664478102
 20
7365.182830225
 10
4972.1613580504
 20
7365.182830225
 10
4971.5063030043
 20
7365.1830686436
 10
4970.800941638
 20
7365.1830686436
 10
4970.1528007307
 20
7365.1830686436
 10
4969.6604067602
 20
7365.1833070622
 10
4969.398861579
 20
7365.1833070622
 10
4969.3684632101
 20
7365.1833070622
  0
LWPOLYLINE
  5
133
330
1F
100
AcDbEntity
  8
0
  6
Continuous
 62
     7
370
    25
100
AcDbPolyline
 90
       12
 70
   128
 43
0.0
 10
4943.470781497
 20
7363.3670343266
 10
4943.4341246405
 20
7363.3672727452
 10
4943.0872256079
 20
7363.3672727452
 10
4942.4059445181
 20
7363.3672727452
 10
4941.4568597593
 20
7363.3675111638
 10
4940.3330141821
 20
7363.3675111638
 10
4939.1443187514
 20
7363.3677495823
 10
4938.0071217337
 20
7363.3679880009
 10
4937.0328242102
 20
7363.3682264195
 10
4936.3167340079
 20
7363.3682264195
 10
4935.9289461889
 20
7363.3682264195
 10
4935.8707720556
 20
7363.3682264195
  0
LWPOLYLINE
  5
134
330
1F
100
AcDbEntity
  8
0
  6
Continuous
 62
     7
370
    25
100
AcDbPolyline
 90
       10
 70
   128
 43
0.0
 10
4941.4788538733
 20
7365.187360178
 10
4941.4755756178
 20
7365.187360178
 10
4941.2964040556
 20
7365.187360178
 10
4940.869813613
 20
7365.1875985966
 10
4940.260713748
 20
7365.1875985966
 10
4939.561849288
 20
7365.1878370152
 10
4938.8795549193
 20
7365.1878370152
 10
4938.3178407469
 20
7365.1878370152
 10
4937.9621202269
 20
7365.1880754338
 10
4937.8632361212
 20
7365.1880754338
  0
LWPOLYLINE
  5
135
330
1F
100
AcDbEntity
  8
0
  6
Continuous
 62
     7
370
    25
100
AcDbPolyline
 90
       12
 70
   128
 43
0.0
 10
5009.976034812
 20
7363.3572591649
 10
5009.8198706427
 20
7363.3572591649
 10
5009.3083435812
 20
7363.3572591649
 10
5008.4902698317
 20
7363.3574975834
 10
5007.4455792227
 20
7363.357736002
 10
5006.276672534
 20
7363.357736002
 10
5005.0978714743
 20
7363.3579744206
 10
5004.0246302405
 20
7363.3582128392
 10
5003.1619722166
 20
7363.3582128392
 10
5002.5943571844
 20
7363.3584512578
 10
5002.3773366728
 20
7363.3584512578
 10
5002.3760253706
 20
7363.3584512578
  0
LWPOLYLINE
  5
136
330
1F
100
AcDbEntity
  8
0
  6
Continuous
 62
     7
370
    25
100
AcDbPolyline
 90
       10
 70
   128
 43
0.0
 10
5007.9841071882
 20
7365.1775850163
 10
5007.944708518
 20
7365.1775850163
 10
5007.6664740362
 20
7365.1775850163
 10
5007.1613842764
 20
7365.1775850163
 10
5006.5062696257
 20
7365.1778234349
 10
5005.8009678641
 20
7365.1778234349
 10
5005.1527673521
 20
7365.1780618535
 10
5004.6604329863
 20
7365.1780618535
 10
5004.3988282004
 20
7365.1780618535
 10
5004.3684894362
 20
7365.1780618535
  0
LWPOLYLINE
  5
137
330
1F
100
AcDbEntity
  8
0
  6
Continuous
 62
     7
370
    25
100
AcDbPolyline
 90
       12
 70
   128
 43
0.0
 10
4723.4708124914
 20
7363.3999360905
 10
4723.4341556349
 20
7363.3999360905
 10
4723.0872566023
 20
7363.3999360905
 10
4722.4059159079
 20
7363.4001745091
 10
4721.4568907538
 20
7363.4001745091
 10
4720.3329855719
 20
7363.4004129277
 10
4719.1442901411
 20
7363.4006513463
 10
4718.0071527281
 20
7363.4006513463
 10
4717.0327956
 20
7363.4008897648
 10
4716.3167053976
 20
7363.4008897648
 10
4715.9289175787
 20
7363.4011281834
 10
4715.8708030501
 20
7363.4011281834
  0
LWPOLYLINE
  5
138
330
1F
100
AcDbEntity
  8
0
  6
Continuous
 62
     7
370
    25
100
AcDbPolyline
 90
       10
 70
   128
 43
0.0
 10
4721.4788848677
 20
7365.220261942
 10
4721.4755470076
 20
7365.220261942
 10
4721.29643505
 20
7365.220261942
 10
4720.8697850027
 20
7365.220261942
 10
4720.2606851378
 20
7365.2205003605
 10
4719.5618206778
 20
7365.2205003605
 10
4718.8795859137
 20
7365.2207387791
 10
4718.3178121367
 20
7365.2207387791
 10
4717.9620916166
 20
7365.2207387791
 10
4717.8632671156
 20
7365.2207387791
  0
LINE
  5
139
330
1F
100
AcDbEntity
  8
0
  6
Continuous
 62
     7
370
    25
100
AcDbLine
 10
4693.16322153
 20
7312.5245107518
 30
0.0
 11
4690.6697804251
 21
7312.5247491703
 31
0.0
  0
LINE
  5
13A
330
1F
100
AcDbEntity
  8
0
  6
Continuous
 62
     7
370
    25
100
AcDbLine
 10
4693.1698972502
 20
7357.5243486271
 30
0.0
 11
4690.6697804251
 21
7357.5248254643
 31
0.0
  0
LINE
  5
13B
330
1F
100
AcDbEntity
  8
0
  6
Continuous
 62
     7
370
    25
100
AcDbLine
 10
3995.2514151254
 20
6848.4179509984
 30
0.0
 11
3997.2511062541
 21
6848.4179509984
 31
0.0
  0
LINE
  5
13C
330
1F
100
AcDbEntity
  8
0
  6
Continuous
 62
     7
370
    25
100
AcDbLine
 10
3997.3558390656
 20
6842.4179090367
 30
0.0
 11
3997.2511062541
 21
6848.4179509984
 31
0.0
  0
LINE
  5
13D
330
1F
100
AcDbEntity
  8
0
  6
Continuous
 62
     7
370
    25
100
AcDbLine
 10
3995.3561404863
 20
6842.4179090367
 30
0.0
 11
3997.3558390656
 21
6842.4179090367
 31
0.0
  0
LINE
  5
13E
330
1F
100
AcDbEntity
  8
0
  6
Continuous
 62
     7
370
    25
100
AcDbLine
 10
3995.2514151254
 20
6848.4179509984
 30
0.0
 11
3995.3561404863
 21
6842.4179090367
 31
0.0
  0
LINE
  5
13F
330
1F
100
AcDbEntity
  8
0
  6
Continuous
 62
     7
370
    25
100
AcDbLine
 10
4179.4611791291
 20
6848.4179509984
 30
0.0
 11
4179.3564463177
 21
6842.4179090367
 31
0.0
  0
LINE
  5
140
330
1F
100
AcDbEntity
  8
0
  6
Continuous
 62
     7
370
    25
100
AcDbLine
 10
3997.3558390656
 20
6842.4179090367
 30
0.0
 11
4179.3564463177
 21
6842.4179090367
 31
0.0
  0
LINE
  5
141
330
1F
100
AcDbEntity
  8
0
  6
Continuous
 62
     7
370
    25
100
AcDbLine
 10
3997.2511062541
 20
6848.4179509984
 30
0.0
 11
4179.4611791291
 21
6848.4179509984
 31
0.0
  0
LINE
  5
142
330
1F
100
AcDbEntity
  8
0
  6
Continuous
 62
     7
370
    25
100
AcDbLine
 10
4181.4608702579
 20
6848.4179509984
 30
0.0
 11
4181.356144897
 21
6842.4179090367
 31
0.0
  0
LINE
  5
143
330
1F
100
AcDbEntity
  8
0
  6
Continuous
 62
     7
370
    25
100
AcDbLine
 10
4179.3564463177
 20
6842.4179090367
 30
0.0
 11
4181.356144897
 21
6842.4179090367
 31
0.0
  0
LINE
  5
144
330
1F
100
AcDbEntity
  8
0
  6
Continuous
 62
     7
370
    25
100
AcDbLine
 10
4179.4611791291
 20
6848.4179509984
 30
0.0
 11
4181.4608702579
 21
6848.4179509984
 31
0.0
  0
LINE
  5
145
330
1F
100
AcDbEntity
  8
0
  6
Continuous
 62
     7
370
    25
100
AcDbLine
 10
4547.8837544241
 20
7311.04989184
 30
0.0
 11
4584.9430913248
 21
7311.04989184
 31
0.0
  0
SPLINE
  5
146
330
1F
100
AcDbEntity
  8
0
  6
Continuous
 62
     7
370
    25
100
AcDbSpline
210
0.0
220
0.0
230
1.0
 70
     8
 71
     3
 72
    10
 73
     6
 74
     0
 42
0.000000001
 43
0.00000001
 40
0.0
 40
0.0
 40
0.0
 40
0.0
 40
0.3917356236567964
 40
0.7841045956531383
 40
1.0
 40
1.0
 40
1.0
 40
1.0
 10
4583.440964869516
 20
7310.370160471008
 30
0.0
 10
4583.600597433806
 20
7310.520135720826
 30
0.0
 10
4583.920120652317
 20
7310.820328696689
 30
0.0
 10
4584.472569008518
 20
7311.022726606066
 30
0.0
 10
4584.819834150531
 20
7311.042775684509
 30
0.0
 10
4584.943091324823
 20
7311.049891840026
 30
0.0
  0
LINE
  5
147
330
1F
100
AcDbEntity
  8
0
  6
Continuous
 62
     7
370
    25
100
AcDbLine
 10
4177.3618290343
 20
6848.4179509984
 30
0.0
 11
4583.4409648695
 21
7310.370160471
 31
0.0
  0
LWPOLYLINE
  5
148
330
1F
100
AcDbEntity
  8
0
  6
Continuous
 62
     7
370
    25
100
AcDbPolyline
 90
        4
 70
   128
 43
0.0
 10
4547.8837544241
 20
7311.04989184
 10
4379.3194646158
 20
7168.9214242802
 10
4210.7551748076
 20
7026.7929567204
 10
3999.2022121468
 20
6848.4179509984
  0
LINE
  5
149
330
1F
100
AcDbEntity
  8
0
  6
Continuous
 62
     7
370
    25
100
AcDbLine
 10
4606.0743386069
 20
7311.04989184
 30
0.0
 11
4606.0743386069
 21
7359.0247167454
 31
0.0
  0
LINE
  5
14A
330
1F
100
AcDbEntity
  8
0
  6
Continuous
 62
     7
370
    25
100
AcDbLine
 10
4584.9430913248
 20
7311.04989184
 30
0.0
 11
4606.0743386069
 21
7311.04989184
 31
0.0
  0
ARC
  5
14B
330
1F
100
AcDbEntity
  8
0
  6
Continuous
 62
     7
370
    25
100
AcDbCircle
 10
4605.330082719
 20
7357.5248248198
 30
0.0
 40
1.5
100
AcDbArc
 50
90.0
 51
130.1365928768
  0
LINE
  5
14C
330
1F
100
AcDbEntity
  8
0
  6
Continuous
 62
     7
370
    25
100
AcDbLine
 10
4606.0743386069
 20
7359.0247167454
 30
0.0
 11
4605.3300554075
 21
7359.0247167454
 31
0.0
  0
LINE
  5
14D
330
1F
100
AcDbEntity
  8
0
  6
Continuous
 62
     7
370
    25
100
AcDbLine
 10
4547.8837544241
 20
7311.04989184
 30
0.0
 11
4604.36314886
 21
7358.6716188298
 31
0.0
  0
LINE
  5
14E
330
1F
100
AcDbEntity
  8
0
  6
Continuous
 62
     7
370
    25
100
AcDbLine
 10
4606.0743386069
 20
7359.0247167454
 30
0.0
 11
4607.0743853369
 21
7359.0247167454
 31
0.0
  0
LINE
  5
14F
330
1F
100
AcDbEntity
  8
0
  6
Continuous
 62
     7
370
    25
100
AcDbLine
 10
4606.6690737524
 20
7311.04989184
 30
0.0
 11
4607.0743853369
 21
7311.04989184
 31
0.0
  0
LWPOLYLINE
  5
150
330
1F
100
AcDbEntity
  8
0
  6
Continuous
 62
     7
370
    25
100
AcDbPolyline
 90
        4
 70
   128
 43
0.0
 10
4547.8837544241
 20
7311.04989184
 10
4547.4003011503
 20
7311.6232885228
 10
4546.9168478766
 20
7312.1966852055
 10
4545.9499115267
 20
7313.3432401524
  0
LINE
  5
151
330
1F
100
AcDbEntity
  8
0
  6
Continuous
 62
     7
370
    25
100
AcDbLine
 10
4545.9499115267
 20
7313.3432401524
 30
0.0
 11
4602.4104410925
 21
7360.9492315159
 31
0.0
  0
LINE
  5
152
330
1F
100
AcDbEntity
  8
0
  6
Continuous
 62
     7
370
    25
100
AcDbLine
 10
4547.8837544241
 20
7311.04989184
 30
0.0
 11
4602.4104410925
 21
7357.0251001225
 31
0.0
  0
LINE
  5
153
330
1F
100
AcDbEntity
  8
0
  6
Continuous
 62
     7
370
    25
100
AcDbLine
 10
4602.4104410925
 20
7360.9492315159
 30
0.0
 11
4602.4104410925
 21
7357.0251001225
 31
0.0
  0
LWPOLYLINE
  5
154
330
1F
100
AcDbEntity
  8
0
  6
Continuous
 62
     7
370
    25
100
AcDbPolyline
 90
        5
 70
   128
 43
0.0
 10
3999.2145652094
 20
6848.4282029973
 10
3998.7311044851
 20
6849.00159968
 10
3998.2476512113
 20
6849.5749963627
 10
3997.7641904869
 20
6850.1483930455
 10
3997.2807297626
 20
6850.7217897282
  0
LWPOLYLINE
  5
155
330
1F
100
AcDbEntity
  8
0
  6
Continuous
 62
     7
370
    25
100
AcDbPolyline
 90
       32
 70
   128
 43
0.0
 10
3997.2807297626
 20
6850.7217897282
 10
4002.6451626935
 20
6855.2448285923
 10
4024.1029018679
 20
6873.337460886
 10
4045.5606410422
 20
6891.4298547612
 10
4056.2895069041
 20
6900.476170908
 10
4077.7472460785
 20
6918.5688032017
 10
4099.2049833902
 20
6936.6611970768
 10
4109.9338529774
 20
6945.7075132237
 10
4131.3915902891
 20
6963.8001455174
 10
4142.1204598763
 20
6972.8462232457
 10
4163.5781953254
 20
6990.9388555394
 10
4185.0359344998
 20
7009.0314878331
 10
4195.7648003617
 20
7018.0775655613
 10
4217.2225469866
 20
7036.170197855
 10
4227.9514128485
 20
7045.2165140019
 10
4249.4091445723
 20
7063.308907877
 10
4270.8668911972
 20
7081.4015401707
 10
4281.5957570591
 20
7090.4478563176
 10
4303.0534887829
 20
7108.5402501927
 10
4313.7823546448
 20
7117.5865663395
 10
4335.2401012697
 20
7135.6791986332
 10
4356.6978329935
 20
7153.7715925084
 10
4367.4266988554
 20
7162.8179086552
 10
4388.8844305792
 20
7180.9103025303
 10
4399.6132964411
 20
7189.9566186772
 10
4421.0710579672
 20
7208.0492509709
 10
4442.528789691
 20
7226.141644846
 10
4453.2576555529
 20
7235.1879609929
 10
4474.7153872767
 20
7253.2805932866
 10
4485.4442531386
 20
7262.3266710148
 10
4506.9019848623
 20
7280.4193033085
 10
4545.9499115267
 20
7313.3432401524
  0
LWPOLYLINE
  5
156
330
1F
100
AcDbEntity
  8
0
  6
Continuous
 62
     7
370
    25
100
AcDbPolyline
 90
       33
 70
   128
 43
0.0
 10
3999.2145652094
 20
6848.4282029973
 10
4004.5789981404
 20
6852.95148028
 10
4026.0367373147
 20
6871.0438741551
 10
4047.4944764891
 20
6889.1365064488
 10
4058.2233442136
 20
6898.1825841771
 10
4079.6810824567
 20
6916.2752164708
 10
4101.1388197684
 20
6934.3678487645
 10
4111.8676884242
 20
6943.4139264927
 10
4133.325425736
 20
6961.5065587864
 10
4144.0542953232
 20
6970.5528749333
 10
4165.5120307722
 20
6988.6452688084
 10
4186.9697699466
 20
7006.7379011021
 10
4197.6986358085
 20
7015.784217249
 10
4219.1563749829
 20
7033.8766111241
 10
4229.8852408447
 20
7042.9229272709
 10
4251.3429874697
 20
7061.0155595646
 10
4272.8007191935
 20
7079.1079534398
 10
4283.5295850554
 20
7088.1542695866
 10
4304.9873316803
 20
7106.2466634617
 10
4315.7161975422
 20
7115.2929796086
 10
4337.173929266
 20
7133.3856119023
 10
4358.6316758909
 20
7151.4780057774
 10
4369.3605417528
 20
7160.5243219243
 10
4390.8182734766
 20
7178.616954218
 10
4401.5471393385
 20
7187.6630319462
 10
4423.0048710623
 20
7205.7556642399
 10
4444.4626325884
 20
7223.8482965336
 10
4455.1914984503
 20
7232.8943742619
 10
4476.6492301741
 20
7250.9870065556
 10
4487.378096036
 20
7260.0333227025
 10
4508.8358277598
 20
7278.1257165776
 10
4528.3598059931
 20
7294.5878042088
 10
4547.8837544241
 20
7311.04989184
  0
LINE
  5
157
330
1F
100
AcDbEntity
  8
0
  6
Continuous
 62
     7
370
    25
100
AcDbLine
 10
4607.0743853369
 20
7308.0496324406
 30
0.0
 11
4690.6697804251
 21
7308.0248369084
 31
0.0
  0
LINE
  5
158
330
1F
100
AcDbEntity
  8
0
  6
Continuous
 62
     7
370
    25
100
AcDbLine
 10
4607.0743853369
 20
7358.2248224125
 30
0.0
 11
4607.0743853369
 21
7308.0496324406
 31
0.0
  0
LINE
  5
159
330
1F
100
AcDbEntity
  8
0
  6
Continuous
 62
     7
370
    25
100
AcDbLine
 10
4690.6697804251
 20
7358.2248224125
 30
0.0
 11
4607.0743853369
 21
7358.2248224125
 31
0.0
  0
LINE
  5
15A
330
1F
100
AcDbEntity
  8
0
  6
Continuous
 62
     7
370
    25
100
AcDbLine
 10
4639.1698176184
 20
7338.0248082982
 30
0.0
 11
4637.9571611204
 21
7338.0248082982
 31
0.0
  0
LINE
  5
15B
330
1F
100
AcDbEntity
  8
0
  6
Continuous
 62
     7
370
    25
100
AcDbLine
 10
4633.5646564284
 20
7338.0248082982
 30
0.0
 11
4632.1697885313
 21
7338.0248082982
 31
0.0
  0
ARC
  5
15C
330
1F
100
AcDbEntity
  8
0
  6
Continuous
 62
     7
370
    25
100
AcDbCircle
 10
4632.1697894446
 20
7334.5248248198
 30
0.0
 40
3.500000000000031
100
AcDbArc
 50
90.0
 51
257.0441531
  0
ARC
  5
15D
330
1F
100
AcDbEntity
  8
0
  6
Continuous
 62
     7
370
    25
100
AcDbCircle
 10
4639.1697894446
 20
7334.5248248198
 30
0.0
 40
3.499999999999974
100
AcDbArc
 50
286.5586944596
 51
90.0
  0
LINE
  5
15E
330
1F
100
AcDbEntity
  8
0
  6
Continuous
 62
     7
370
    25
100
AcDbLine
 10
4679.1697794714
 20
7338.0248082982
 30
0.0
 11
4677.9449636259
 21
7338.0248082982
 31
0.0
  0
LINE
  5
15F
330
1F
100
AcDbEntity
  8
0
  6
Continuous
 62
     7
370
    25
100
AcDbLine
 10
4673.5768968382
 20
7338.0248082982
 30
0.0
 11
4672.169809989
 21
7338.0248082982
 31
0.0
  0
ARC
  5
160
330
1F
100
AcDbEntity
  8
0
  6
Continuous
 62
     7
370
    25
100
AcDbCircle
 10
4672.1697894446
 20
7334.5248248198
 30
0.0
 40
3.499999999999318
100
AcDbArc
 50
90.0
 51
256.9805230197
  0
ARC
  5
161
330
1F
100
AcDbEntity
  8
0
  6
Continuous
 62
     7
370
    25
100
AcDbCircle
 10
4679.1697894446
 20
7334.5248248198
 30
0.0
 40
3.500000000000586
100
AcDbArc
 50
286.6238098934
 51
90.0
  0
LINE
  5
162
330
1F
100
AcDbEntity
  8
0
  6
Continuous
 62
     7
370
    25
100
AcDbLine
 10
4690.6697804251
 20
7308.0248369084
 30
0.0
 11
4690.6697804251
 21
7358.2248224125
 31
0.0
  0
LINE
  5
163
330
1F
100
AcDbEntity
  8
0
  6
Continuous
 62
     7
370
    25
100
AcDbLine
 10
4607.0743853369
 20
7358.2248224125
 30
0.0
 11
4607.0743853369
 21
7362.0247377263
 31
0.0
  0
LINE
  5
164
330
1F
100
AcDbEntity
  8
0
  6
Continuous
 62
     7
370
    25
100
AcDbLine
 10
4607.0743853369
 20
7362.0247377263
 30
0.0
 11
4690.6697804251
 21
7362.0247377263
 31
0.0
  0
LINE
  5
165
330
1F
100
AcDbEntity
  8
0
  6
Continuous
 62
     7
370
    25
100
AcDbLine
 10
4690.6697804251
 20
7362.0247377263
 30
0.0
 11
4690.6697804251
 21
7358.2248224125
 31
0.0
  0
ARC
  5
166
330
1F
100
AcDbEntity
  8
0
  6
Continuous
 62
     7
370
    25
100
AcDbCircle
 10
4605.0743582097
 20
7358.2248248198
 30
0.0
 40
0.8000000000165528
100
AcDbArc
 50
90.0
 51
130.1365928769
  0
ARC
  5
167
330
1F
100
AcDbEntity
  8
0
  6
Continuous
 62
     7
370
    25
100
AcDbCircle
 10
4605.0743582097
 20
7358.2248248198
 30
0.0
 40
3.800000000000182
100
AcDbArc
 50
90.0
 51
130.1365928768
  0
LINE
  5
168
330
1F
100
AcDbEntity
  8
0
  6
Continuous
 62
     7
370
    25
100
AcDbLine
 10
4605.0743514815
 20
7359.0247167454
 30
0.0
 11
4605.3300554075
 21
7359.0247167454
 31
0.0
  0
LINE
  5
169
330
1F
100
AcDbEntity
  8
0
  6
Continuous
 62
     7
370
    25
100
AcDbLine
 10
4607.0743853369
 20
7362.0247377263
 30
0.0
 11
4605.0743514815
 21
7362.0247377263
 31
0.0
  0
LINE
  5
16A
330
1F
100
AcDbEntity
  8
0
  6
Continuous
 62
     7
370
    25
100
AcDbLine
 10
4602.6248389998
 20
7361.1299527989
 30
0.0
 11
4602.4104410925
 21
7360.9492315159
 31
0.0
  0
LINE
  5
16B
330
1F
100
AcDbEntity
  8
0
  6
Continuous
 62
     7
370
    25
100
AcDbLine
 10
4604.5586520949
 20
7358.8363660679
 30
0.0
 11
4604.3632084646
 21
7358.6716188298
 31
0.0
  0
LINE
  5
16C
330
1F
100
AcDbEntity
  8
0
  6
Continuous
 62
     7
370
    25
100
AcDbLine
 10
4584.7210044184
 20
7307.2826398716
 30
0.0
 11
4182.8474829116
 21
6850.1142991887
 31
0.0
  0
LINE
  5
16D
330
1F
100
AcDbEntity
  8
0
  6
Continuous
 62
     7
370
    25
100
AcDbLine
 10
4182.8474829116
 20
6850.1142991887
 30
0.0
 11
4180.5942783275
 21
6852.0950807438
 31
0.0
  0
LINE
  5
16E
330
1F
100
AcDbEntity
  8
0
  6
Continuous
 62
     7
370
    25
100
AcDbLine
 10
4584.7210044184
 20
7307.2826398716
 30
0.0
 11
4582.4677998343
 21
7309.2631830082
 31
0.0
  0
LINE
  5
16F
330
1F
100
AcDbEntity
  8
0
  6
Continuous
 62
     7
370
    25
100
AcDbLine
 10
4606.0743386069
 20
7311.04989184
 30
0.0
 11
4607.0743853369
 21
7311.0496534214
 31
0.0
  0
LINE
  5
170
330
1F
100
AcDbEntity
  8
0
  6
Continuous
 62
     7
370
    25
100
AcDbLine
 10
4690.6697804251
 20
7311.0248578892
 30
0.0
 11
4690.6950527945
 21
7311.0248578892
 31
0.0
  0
LINE
  5
171
330
1F
100
AcDbEntity
  8
0
  6
Continuous
 62
     7
370
    25
100
AcDbLine
 10
4690.6941587248
 20
7308.0248369084
 30
0.0
 11
4690.6950527945
 21
7311.0248578892
 31
0.0
  0
LINE
  5
172
330
1F
100
AcDbEntity
  8
0
  6
Continuous
 62
     7
370
    25
100
AcDbLine
 10
4585.7631320276
 20
7308.0560697422
 30
0.0
 11
4607.0743853369
 21
7308.0496324406
 31
0.0
  0
LINE
  5
173
330
1F
100
AcDbEntity
  8
0
  6
Continuous
 62
     7
370
    25
100
AcDbLine
 10
4690.6697804251
 20
7308.0248369084
 30
0.0
 11
4690.6941587248
 21
7308.0248369084
 31
0.0
  0
ARC
  5
174
330
1F
100
AcDbEntity
  8
0
  6
Continuous
 62
     7
370
    25
100
AcDbCircle
 10
4585.7628795477
 20
7307.2560555758
 30
0.0
 40
3.800000000001288
100
AcDbArc
 50
93.2815239572
 51
138.682923424
  0
LINE
  5
175
330
1F
100
AcDbEntity
  8
0
  6
Continuous
 62
     7
370
    25
100
AcDbLine
 10
4585.1620191851
 20
7307.7842725621
 30
0.0
 11
4582.908814601
 21
7309.7648156987
 31
0.0
  0
ARC
  5
176
330
1F
100
AcDbEntity
  8
0
  6
Continuous
 62
     7
370
    25
100
AcDbCircle
 10
4585.7628795477
 20
7307.2560555758
 30
0.0
 40
0.8000000000006793
100
AcDbArc
 50
89.982923424
 51
138.682923424
  0
LINE
  5
177
330
1F
100
AcDbEntity
  8
0
  6
Continuous
 62
     7
370
    25
100
AcDbLine
 10
4584.7210044184
 20
7307.2826398716
 30
0.0
 11
4585.1620191851
 21
7307.7842725621
 31
0.0
  0
LINE
  5
178
330
1F
100
AcDbEntity
  8
0
  6
Continuous
 62
     7
370
    25
100
AcDbLine
 10
4182.676596395
 20
6849.9199880467
 30
0.0
 11
4180.4233918109
 21
6851.9005311833
 31
0.0
  0
LINE
  5
179
330
1F
100
AcDbEntity
  8
0
  6
Continuous
 62
     7
370
    25
100
AcDbLine
 10
4182.8474829116
 20
6850.1142991887
 30
0.0
 11
4182.676596395
 21
6849.9199880467
 31
0.0
  0
ARC
  5
17A
330
1F
100
AcDbEntity
  8
0
  6
Continuous
 62
     7
370
    25
100
AcDbCircle
 10
4635.760923763
 20
7333.5330078562
 30
0.0
 40
6.000000000001291
100
AcDbArc
 50
131.8257541493
 51
197.2406306677
  0
ARC
  5
17B
330
1F
100
AcDbEntity
  8
0
  6
Continuous
 62
     7
370
    25
100
AcDbCircle
 10
4635.760923763
 20
7333.5330078562
 30
0.0
 40
6.000000000000346
100
AcDbArc
 50
344.7979815616999
 51
47.6469603523
  0
ARC
  5
17C
330
1F
100
AcDbEntity
  8
0
  6
Continuous
 62
     7
370
    25
100
AcDbCircle
 10
4675.7609233192
 20
7333.5270470066
 30
0.0
 40
5.999999999999861
100
AcDbArc
 50
131.7822594005
 51
197.1623892903
  0
ARC
  5
17D
330
1F
100
AcDbEntity
  8
0
  6
Continuous
 62
     7
370
    25
100
AcDbCircle
 10
4675.7609233192
 20
7333.5270470066
 30
0.0
 40
6.000000000000791
100
AcDbArc
 50
344.8763776378
 51
47.7532143493
  0
LINE
  5
17E
330
1F
100
AcDbEntity
  8
0
  6
Continuous
 62
     7
370
    25
100
AcDbLine
 10
4181.356144897
 20
3376.4178382413
 30
0.0
 11
4181.356144897
 21
6842.4179090367
 31
0.0
  0
LINE
  5
17F
330
1F
100
AcDbEntity
  8
0
  6
Continuous
 62
     7
370
    25
100
AcDbLine
 10
4179.3561408439
 20
3376.4178382413
 30
0.0
 11
4179.3561408439
 21
6842.4179090367
 31
0.0
  0
LINE
  5
180
330
1F
100
AcDbEntity
  8
0
  6
Continuous
 62
     7
370
    25
100
AcDbLine
 10
4181.356144897
 20
6842.4179090367
 30
0.0
 11
4179.3561408439
 21
6842.4179090367
 31
0.0
  0
LINE
  5
181
330
1F
100
AcDbEntity
  8
0
  6
Continuous
 62
     7
370
    25
100
AcDbLine
 10
3997.3561445394
 20
3376.4178382413
 30
0.0
 11
3997.3561445394
 21
6842.4179090367
 31
0.0
  0
LINE
  5
182
330
1F
100
AcDbEntity
  8
0
  6
Continuous
 62
     7
370
    25
100
AcDbLine
 10
3995.3561404863
 20
3376.4178382413
 30
0.0
 11
3995.3561404863
 21
6842.4179090367
 31
0.0
  0
LINE
  5
183
330
1F
100
AcDbEntity
  8
0
  6
Continuous
 62
     7
370
    25
100
AcDbLine
 10
3997.3561445394
 20
6842.4179090367
 30
0.0
 11
3995.3561404863
 21
6842.4179090367
 31
0.0
  0
LINE
  5
184
330
1F
100
AcDbEntity
  8
0
  6
Continuous
 62
     7
370
    25
100
AcDbLine
 10
4179.3561408439
 20
6842.4179090367
 30
0.0
 11
3997.3561445394
 21
6842.4179090367
 31
0.0
  0
LINE
  5
185
330
1F
100
AcDbEntity
  8
0
  6
Continuous
 62
     7
370
    25
100
AcDbLine
 10
4253.3561492481
 20
3376.4178382413
 30
0.0
 11
4253.3561492481
 21
3361.4178385765
 31
0.0
  0
LINE
  5
186
330
1F
100
AcDbEntity
  8
0
  6
Continuous
 62
     7
370
    25
100
AcDbLine
 10
4253.3561492481
 20
3361.4178385765
 30
0.0
 11
4228.3561432877
 21
3361.4178385765
 31
0.0
  0
LINE
  5
187
330
1F
100
AcDbEntity
  8
0
  6
Continuous
 62
     7
370
    25
100
AcDbLine
 10
4228.3561432877
 20
3361.4178385765
 30
0.0
 11
4228.3561432877
 21
3376.4178382413
 31
0.0
  0
LINE
  5
188
330
1F
100
AcDbEntity
  8
0
  6
Continuous
 62
     7
370
    25
100
AcDbLine
 10
4228.3561432877
 20
3376.4178382413
 30
0.0
 11
4253.3561492481
 21
3376.4178382413
 31
0.0
  0
LINE
  5
189
330
1F
100
AcDbEntity
  8
0
  6
Continuous
 62
     7
370
    25
100
AcDbLine
 10
3948.3561420956
 20
3376.4178382413
 30
0.0
 11
3948.3561420956
 21
3361.4178385765
 31
0.0
  0
LINE
  5
18A
330
1F
100
AcDbEntity
  8
0
  6
Continuous
 62
     7
370
    25
100
AcDbLine
 10
3923.3561361351
 20
3361.4178385765
 30
0.0
 11
3923.3561361351
 21
3376.4178382413
 31
0.0
  0
LINE
  5
18B
330
1F
100
AcDbEntity
  8
0
  6
Continuous
 62
     7
370
    25
100
AcDbLine
 10
3923.3561361351
 20
3376.4178382413
 30
0.0
 11
3948.3561420956
 21
3376.4178382413
 31
0.0
  0
LINE
  5
18C
330
1F
100
AcDbEntity
  8
0
  6
Continuous
 62
     7
370
    25
100
AcDbLine
 10
3948.3561420956
 20
3361.4178385765
 30
0.0
 11
3923.3561361351
 21
3361.4178385765
 31
0.0
  0
LINE
  5
18D
330
1F
100
AcDbEntity
  8
0
  6
Continuous
 62
     7
370
    25
100
AcDbLine
 10
3948.3561420956
 20
3376.4178382413
 30
0.0
 11
4228.3561432877
 21
3376.4178382413
 31
0.0
  0
LINE
  5
18E
330
1F
100
AcDbEntity
  8
0
  6
Continuous
 62
     7
370
    25
100
AcDbLine
 10
3948.3561420956
 20
3361.4178385765
 30
0.0
 11
4228.3561432877
 21
3361.4178385765
 31
0.0
  0
LWPOLYLINE
  5
18F
330
1F
100
AcDbEntity
  8
0
  6
Continuous
 62
     8
370
    25
100
AcDbPolyline
 90
       13
 70
   128
 43
0.0
 10
4680.765574626
 20
7364.6263612614
 10
4680.7069236555
 20
7364.6263612614
 10
4680.3177649298
 20
7364.6263612614
 10
4679.5909458914
 20
7364.6263612614
 10
4678.5804087439
 20
7364.62659968
 10
4677.3611361304
 20
7364.6268380986
 10
4676.0235482969
 20
7364.6270765172
 10
4674.6667677679
 20
7364.6273149357
 10
4673.391526393
 20
7364.6273149357
 10
4672.292297534
 20
7364.6275533543
 10
4671.4507395544
 20
7364.6277917729
 10
4670.929139308
 20
7364.6277917729
 10
4670.7655841627
 20
7364.6277917729
  0
LWPOLYLINE
  5
190
330
1F
100
AcDbEntity
  8
0
  6
Continuous
 62
     8
370
    25
100
AcDbPolyline
 90
       13
 70
   128
 43
0.0
 10
4640.7655531683
 20
7364.6323217259
 10
4640.7069618025
 20
7364.6323217259
 10
4640.3177434721
 20
7364.6323217259
 10
4639.5909244337
 20
7364.6323217259
 10
4638.5804468908
 20
7364.6325601445
 10
4637.3611742773
 20
7364.632798563
 10
4636.0235268393
 20
7364.6330369816
 10
4634.6668059149
 20
7364.6332754002
 10
4633.3915049353
 20
7364.6332754002
 10
4632.292335681
 20
7364.6335138188
 10
4631.4507180968
 20
7364.6337522374
 10
4630.9291178503
 20
7364.6337522374
 10
4630.7655627051
 20
7364.6337522374
  0
LWPOLYLINE
  5
191
330
1F
100
AcDbEntity
  8
0
  6
Continuous
 62
     8
370
    25
100
AcDbPolyline
 90
        7
 70
   128
 43
0.0
 10
5137.5683600226
 20
7289.5874513493
 10
5137.6376206198
 20
7291.5470136509
 10
5137.694125823
 20
7293.1479944096
 10
5137.7378756323
 20
7294.3856252537
 10
5137.768631629
 20
7295.2565683232
 10
5137.7863938132
 20
7295.7584394322
 10
5137.7910429754
 20
7295.8895696507
  0
LWPOLYLINE
  5
192
330
1F
100
AcDbEntity
  8
0
  6
Continuous
 62
     8
370
    25
100
AcDbPolyline
 90
        7
 70
   128
 43
0.0
 10
5000.5408579626
 20
7295.9100736485
 10
5000.5454475203
 20
7295.77894343
 10
5000.5630308905
 20
7295.277072321
 10
5000.5936080733
 20
7294.4061292515
 10
5000.63694065
 20
7293.1682599888
 10
5000.6930286207
 20
7291.5675176487
 10
5000.7616931715
 20
7289.6079553471
  0
LWPOLYLINE
  5
193
330
1F
100
AcDbEntity
  8
0
  6
Continuous
 62
     8
370
    25
100
AcDbPolyline
 90
        3
 70
   128
 43
0.0
 10
5137.567287139
 20
7289.5102037297
 10
5137.5675255575
 20
7289.5226014958
 10
5137.5683600226
 20
7289.5874513493
  0
LWPOLYLINE
  5
194
330
1F
100
AcDbEntity
  8
0
  6
Continuous
 62
     8
370
    25
100
AcDbPolyline
 90
        3
 70
   128
 43
0.0
 10
5000.7616931715
 20
7289.6079553471
 10
5000.7625276365
 20
7289.542867075
 10
5000.7627064505
 20
7289.5304693089
  0
LINE
  5
195
330
1F
100
AcDbEntity
  8
0
  6
Continuous
 62
     8
370
    25
100
AcDbLine
 10
4690.6948739805
 20
7310.324860941
 30
0.0
 11
4691.6628534117
 21
7310.3246225224
 31
0.0
  0
LINE
  5
196
330
1F
100
AcDbEntity
  8
0
  6
Continuous
 62
     8
370
    25
100
AcDbLine
 10
4690.6697804251
 20
7352.7247442112
 30
0.0
 11
4693.1691819945
 21
7352.7245057927
 31
0.0
  0
LINE
  5
197
330
1F
100
AcDbEntity
  8
0
  6
Continuous
 62
     8
370
    25
100
AcDbLine
 10
4585.7631320276
 20
7308.0560697422
 30
0.0
 11
4585.763996295
 21
7311.04989184
 31
0.0
  0
LINE
  5
198
330
1F
100
AcDbEntity
  8
0
  6
Continuous
 62
     7
370
    25
100
AcDbLine
 10
3614.8534558351
 20
7361.4525331364
 30
0.0
 11
3614.8534558351
 21
7362.9526628361
 31
0.0
  0
LINE
  5
199
330
1F
100
AcDbEntity
  8
0
  6
Continuous
 62
     7
370
    25
100
AcDbLine
 10
3605.8534557568
 20
7362.9526628361
 30
0.0
 11
3605.8534557568
 21
7361.4525331364
 31
0.0
  0
LINE
  5
19A
330
1F
100
AcDbEntity
  8
0
  6
Continuous
 62
     7
370
    25
100
AcDbLine
 10
3596.1018625284
 20
7362.9829419957
 30
0.0
 11
3596.1018625284
 21
7363.0017770634
 31
0.0
  0
LINE
  5
19B
330
1F
100
AcDbEntity
  8
0
  6
Continuous
 62
     7
370
    25
100
AcDbLine
 10
3587.1018638472
 20
7363.0017770634
 30
0.0
 11
3587.1018638472
 21
7362.9829419957
 31
0.0
  0
LINE
  5
19C
330
1F
100
AcDbEntity
  8
0
  6
Continuous
 62
     7
370
    25
100
AcDbLine
 10
3596.1018625284
 20
7362.9591001378
 30
0.0
 11
3596.1018625284
 21
7362.9776967869
 31
0.0
  0
LINE
  5
19D
330
1F
100
AcDbEntity
  8
0
  6
Continuous
 62
     7
370
    25
100
AcDbLine
 10
3587.1018638472
 20
7362.9776967869
 30
0.0
 11
3587.1018638472
 21
7362.9591001378
 31
0.0
  0
LINE
  5
19E
330
1F
100
AcDbEntity
  8
0
  6
Continuous
 62
     7
370
    25
100
AcDbLine
 10
3787.6018678407
 20
7362.9776967869
 30
0.0
 11
3787.6018678407
 21
7362.9829419957
 31
0.0
  0
LINE
  5
19F
330
1F
100
AcDbEntity
  8
0
  6
Continuous
 62
     7
370
    25
100
AcDbLine
 10
3778.6018645028
 20
7362.9829419957
 30
0.0
 11
3778.6018645028
 21
7362.9776967869
 31
0.0
  0
LINE
  5
1A0
330
1F
100
AcDbEntity
  8
0
  6
Continuous
 62
     7
370
    25
100
AcDbLine
 10
3442.1018605689
 20
7362.9591001378
 30
0.0
 11
3442.1018605689
 21
7362.9776967869
 31
0.0
  0
LINE
  5
1A1
330
1F
100
AcDbEntity
  8
0
  6
Continuous
 62
     7
370
    25
100
AcDbLine
 10
3433.101857231
 20
7362.9776967869
 30
0.0
 11
3433.101857231
 21
7362.9591001378
 31
0.0
  0
LINE
  5
1A2
330
1F
100
AcDbEntity
  8
0
  6
Continuous
 62
     7
370
    25
100
AcDbLine
 10
3826.3534551124
 20
7362.9877103672
 30
0.0
 11
3826.3534551124
 21
7363.0206121312
 31
0.0
  0
LINE
  5
1A3
330
1F
100
AcDbEntity
  8
0
  6
Continuous
 62
     7
370
    25
100
AcDbLine
 10
3817.3534517745
 20
7363.0206121312
 30
0.0
 11
3817.3534517745
 21
7362.9877103672
 31
0.0
  0
LINE
  5
1A4
330
1F
100
AcDbEntity
  8
0
  6
Continuous
 62
     7
370
    25
100
AcDbLine
 10
3403.3534621457
 20
7362.9550470219
 30
0.0
 11
3403.3534621457
 21
7362.9877103672
 31
0.0
  0
LINE
  5
1A5
330
1F
100
AcDbEntity
  8
0
  6
Continuous
 62
     7
370
    25
100
AcDbLine
 10
3394.3534588078
 20
7362.9877103672
 30
0.0
 11
3394.3534588078
 21
7362.9550470219
 31
0.0
  0
LINE
  5
1A6
330
1F
100
AcDbEntity
  8
0
  6
Continuous
 62
     7
370
    25
100
AcDbLine
 10
3826.3534551124
 20
7362.9550470219
 30
0.0
 11
3826.3534551124
 21
7362.9877103672
 31
0.0
  0
LINE
  5
1A7
330
1F
100
AcDbEntity
  8
0
  6
Continuous
 62
     7
370
    25
100
AcDbLine
 10
3817.3534517745
 20
7362.9877103672
 30
0.0
 11
3817.3534517745
 21
7362.9550470219
 31
0.0
  0
LINE
  5
1A8
330
1F
100
AcDbEntity
  8
0
  6
Continuous
 62
     7
370
    25
100
AcDbLine
 10
3826.3534551124
 20
7361.4549173222
 30
0.0
 11
3826.3534551124
 21
7362.9550470219
 31
0.0
  0
LINE
  5
1A9
330
1F
100
AcDbEntity
  8
0
  6
Continuous
 62
     7
370
    25
100
AcDbLine
 10
3817.3534517745
 20
7362.9550470219
 30
0.0
 11
3817.3534517745
 21
7361.4549173222
 31
0.0
  0
LINE
  5
1AA
330
1F
100
AcDbEntity
  8
0
  6
Continuous
 62
     7
370
    25
100
AcDbLine
 10
3403.3534621457
 20
7361.4549173222
 30
0.0
 11
3403.3534621457
 21
7362.9550470219
 31
0.0
  0
LINE
  5
1AB
330
1F
100
AcDbEntity
  8
0
  6
Continuous
 62
     7
370
    25
100
AcDbLine
 10
3394.3534588078
 20
7362.9550470219
 30
0.0
 11
3394.3534588078
 21
7361.4549173222
 31
0.0
  0
LINE
  5
1AC
330
1F
100
AcDbEntity
  8
0
  6
Continuous
 62
     7
370
    25
100
AcDbLine
 10
3614.8534558351
 20
7362.9526628361
 30
0.0
 11
3614.8534558351
 21
7363.0227578984
 31
0.0
  0
LINE
  5
1AD
330
1F
100
AcDbEntity
  8
0
  6
Continuous
 62
     7
370
    25
100
AcDbLine
 10
3605.8534557568
 20
7363.0227578984
 30
0.0
 11
3605.8534557568
 21
7362.9526628361
 31
0.0
  0
LINE
  5
1AE
330
1F
100
AcDbEntity
  8
0
  6
Continuous
 62
     7
370
    25
100
AcDbLine
 10
3596.1018625284
 20
7362.9776967869
 30
0.0
 11
3596.1018625284
 21
7362.9829419957
 31
0.0
  0
LINE
  5
1AF
330
1F
100
AcDbEntity
  8
0
  6
Continuous
 62
     7
370
    25
100
AcDbLine
 10
3587.1018638472
 20
7362.9829419957
 30
0.0
 11
3587.1018638472
 21
7362.9776967869
 31
0.0
  0
LINE
  5
1B0
330
1F
100
AcDbEntity
  8
0
  6
Continuous
 62
     7
370
    25
100
AcDbLine
 10
3403.3534621457
 20
7362.9877103672
 30
0.0
 11
3403.3534621457
 21
7363.0206121312
 31
0.0
  0
LINE
  5
1B1
330
1F
100
AcDbEntity
  8
0
  6
Continuous
 62
     7
370
    25
100
AcDbLine
 10
3394.3534588078
 20
7363.0206121312
 30
0.0
 11
3394.3534588078
 21
7362.9877103672
 31
0.0
  0
LINE
  5
1B2
330
1F
100
AcDbEntity
  8
0
  6
Continuous
 62
     7
370
    25
100
AcDbLine
 10
3596.1018625284
 20
7361.458970438
 30
0.0
 11
3596.1018625284
 21
7362.9591001378
 31
0.0
  0
LINE
  5
1B3
330
1F
100
AcDbEntity
  8
0
  6
Continuous
 62
     7
370
    25
100
AcDbLine
 10
3587.1018638472
 20
7362.9591001378
 30
0.0
 11
3587.1018638472
 21
7361.458970438
 31
0.0
  0
LINE
  5
1B4
330
1F
100
AcDbEntity
  8
0
  6
Continuous
 62
     7
370
    25
100
AcDbLine
 10
3787.6018678407
 20
7361.458970438
 30
0.0
 11
3787.6018678407
 21
7362.9591001378
 31
0.0
  0
LINE
  5
1B5
330
1F
100
AcDbEntity
  8
0
  6
Continuous
 62
     7
370
    25
100
AcDbLine
 10
3778.6018645028
 20
7362.9591001378
 30
0.0
 11
3778.6018645028
 21
7361.458970438
 31
0.0
  0
LINE
  5
1B6
330
1F
100
AcDbEntity
  8
0
  6
Continuous
 62
     7
370
    25
100
AcDbLine
 10
3633.6018630872
 20
7362.9829419957
 30
0.0
 11
3633.6018630872
 21
7363.0017770634
 31
0.0
  0
LINE
  5
1B7
330
1F
100
AcDbEntity
  8
0
  6
Continuous
 62
     7
370
    25
100
AcDbLine
 10
3624.6018625433
 20
7363.0017770634
 30
0.0
 11
3624.6018625433
 21
7362.9829419957
 31
0.0
  0
LINE
  5
1B8
330
1F
100
AcDbEntity
  8
0
  6
Continuous
 62
     7
370
    25
100
AcDbLine
 10
3442.1018605689
 20
7362.9829419957
 30
0.0
 11
3442.1018605689
 21
7363.0017770634
 31
0.0
  0
LINE
  5
1B9
330
1F
100
AcDbEntity
  8
0
  6
Continuous
 62
     7
370
    25
100
AcDbLine
 10
3433.101857231
 20
7363.0017770634
 30
0.0
 11
3433.101857231
 21
7362.9829419957
 31
0.0
  0
LINE
  5
1BA
330
1F
100
AcDbEntity
  8
0
  6
Continuous
 62
     7
370
    25
100
AcDbLine
 10
3633.6018630872
 20
7362.9776967869
 30
0.0
 11
3633.6018630872
 21
7362.9829419957
 31
0.0
  0
LINE
  5
1BB
330
1F
100
AcDbEntity
  8
0
  6
Continuous
 62
     7
370
    25
100
AcDbLine
 10
3624.6018625433
 20
7362.9829419957
 30
0.0
 11
3624.6018625433
 21
7362.9776967869
 31
0.0
  0
LINE
  5
1BC
330
1F
100
AcDbEntity
  8
0
  6
Continuous
 62
     7
370
    25
100
AcDbLine
 10
3442.1018605689
 20
7362.9776967869
 30
0.0
 11
3442.1018605689
 21
7362.9829419957
 31
0.0
  0
LINE
  5
1BD
330
1F
100
AcDbEntity
  8
0
  6
Continuous
 62
     7
370
    25
100
AcDbLine
 10
3433.101857231
 20
7362.9829419957
 30
0.0
 11
3433.101857231
 21
7362.9776967869
 31
0.0
  0
LINE
  5
1BE
330
1F
100
AcDbEntity
  8
0
  6
Continuous
 62
     7
370
    25
100
AcDbLine
 10
3787.6018678407
 20
7362.9829419957
 30
0.0
 11
3787.6018678407
 21
7363.0017770634
 31
0.0
  0
LINE
  5
1BF
330
1F
100
AcDbEntity
  8
0
  6
Continuous
 62
     7
370
    25
100
AcDbLine
 10
3778.6018645028
 20
7363.0017770634
 30
0.0
 11
3778.6018645028
 21
7362.9829419957
 31
0.0
  0
LINE
  5
1C0
330
1F
100
AcDbEntity
  8
0
  6
Continuous
 62
     7
370
    25
100
AcDbLine
 10
3633.6018630872
 20
7362.9591001378
 30
0.0
 11
3633.6018630872
 21
7362.9776967869
 31
0.0
  0
LINE
  5
1C1
330
1F
100
AcDbEntity
  8
0
  6
Continuous
 62
     7
370
    25
100
AcDbLine
 10
3624.6018625433
 20
7362.9776967869
 30
0.0
 11
3624.6018625433
 21
7362.9591001378
 31
0.0
  0
LINE
  5
1C2
330
1F
100
AcDbEntity
  8
0
  6
Continuous
 62
     7
370
    25
100
AcDbLine
 10
3442.1018605689
 20
7361.458970438
 30
0.0
 11
3442.1018605689
 21
7362.9591001378
 31
0.0
  0
LINE
  5
1C3
330
1F
100
AcDbEntity
  8
0
  6
Continuous
 62
     7
370
    25
100
AcDbLine
 10
3433.101857231
 20
7362.9591001378
 30
0.0
 11
3433.101857231
 21
7361.458970438
 31
0.0
  0
LINE
  5
1C4
330
1F
100
AcDbEntity
  8
0
  6
Continuous
 62
     7
370
    25
100
AcDbLine
 10
3633.6018630872
 20
7361.458970438
 30
0.0
 11
3633.6018630872
 21
7362.9591001378
 31
0.0
  0
LINE
  5
1C5
330
1F
100
AcDbEntity
  8
0
  6
Continuous
 62
     7
370
    25
100
AcDbLine
 10
3624.6018625433
 20
7362.9591001378
 30
0.0
 11
3624.6018625433
 21
7361.458970438
 31
0.0
  0
LINE
  5
1C6
330
1F
100
AcDbEntity
  8
0
  6
Continuous
 62
     7
370
    25
100
AcDbLine
 10
3787.6018678407
 20
7362.9591001378
 30
0.0
 11
3787.6018678407
 21
7362.9776967869
 31
0.0
  0
LINE
  5
1C7
330
1F
100
AcDbEntity
  8
0
  6
Continuous
 62
     7
370
    25
100
AcDbLine
 10
3778.6018645028
 20
7362.9776967869
 30
0.0
 11
3778.6018645028
 21
7362.9591001378
 31
0.0
  0
SPLINE
  5
1C8
330
1F
100
AcDbEntity
  8
0
  6
Continuous
 62
     7
370
    25
100
AcDbSpline
210
0.0
220
0.0
230
1.0
 70
     8
 71
     3
 72
    12
 73
     8
 74
     0
 42
0.000000001
 43
0.00000001
 40
0.0
 40
0.0
 40
0.0
 40
0.0
 40
0.0735500202419416
 40
0.3308800654504811
 40
0.6406326198098018
 40
0.9501164640913388
 40
1.0
 40
1.0
 40
1.0
 40
1.0
 10
3402.15378455915
 20
7365.080787073181
 30
0.0
 10
3402.140354069904
 20
7365.076053349317
 30
0.0
 10
3402.079934220305
 20
7365.054757707833
 30
0.0
 10
3401.981587245178
 20
7364.972084016553
 30
0.0
 10
3401.88918001055
 20
7364.831327037395
 30
0.0
 10
3401.845489400629
 20
7364.700707187513
 30
0.0
 10
3401.857283281107
 20
7364.632073551404
 30
0.0
 10
3401.858920381446
 20
7364.622546564147
 30
0.0
  0
SPLINE
  5
1C9
330
1F
100
AcDbEntity
  8
0
  6
Continuous
 62
     7
370
    25
100
AcDbSpline
210
0.0
220
0.0
230
1.0
 70
     8
 71
     3
 72
    12
 73
     8
 74
     0
 42
0.000000001
 43
0.00000001
 40
0.0
 40
0.0
 40
0.0
 40
0.0
 40
0.1231586790996926
 40
0.4769217517812682
 40
0.7598407405727385
 40
0.9981727882438995
 40
1.0
 40
1.0
 40
1.0
 40
1.0
 10
3411.846751497169
 20
7364.622069726989
 30
0.0
 10
3411.849001094085
 20
7364.642199659749
 30
0.0
 10
3411.857712471225
 20
7364.720151151799
 30
0.0
 10
3411.812528562071
 20
7364.842674992852
 30
0.0
 10
3411.732660657967
 20
7364.961270735274
 30
0.0
 10
3411.668146534511
 20
7365.019936706224
 30
0.0
 10
3411.63484215492
 20
7365.040812341672
 30
0.0
 10
3411.634588764091
 20
7365.040971170471
 30
0.0
  0
LINE
  5
1CA
330
1F
100
AcDbEntity
  8
0
  6
Continuous
 62
     7
370
    25
100
AcDbLine
 10
3411.8540977696
 20
7362.0247377263
 30
0.0
 11
3411.8540977696
 21
7364.6270765172
 31
0.0
  0
LINE
  5
1CB
330
1F
100
AcDbEntity
  8
0
  6
Continuous
 62
     7
370
    25
100
AcDbLine
 10
3385.35345547
 20
7338.5331167088
 30
0.0
 11
3381.2534605721
 21
7338.5331167088
 31
0.0
  0
ARC
  5
1CC
330
1F
100
AcDbEntity
  8
0
  6
Continuous
 62
     7
370
    25
100
AcDbCircle
 10
3381.2534559847
 20
7338.0330078561
 30
0.0
 40
0.5
100
AcDbArc
 50
90.0
 51
180.0
  0
LINE
  5
1CD
330
1F
100
AcDbEntity
  8
0
  6
Continuous
 62
     7
370
    25
100
AcDbLine
 10
3839.4534533481
 20
7338.5271562443
 30
0.0
 11
3835.3534584502
 21
7338.5271562443
 31
0.0
  0
LINE
  5
1CE
330
1F
100
AcDbEntity
  8
0
  6
Continuous
 62
     7
370
    25
100
AcDbLine
 10
3835.3534584502
 20
7328.5271657811
 30
0.0
 11
3839.4534533481
 21
7328.5271657811
 31
0.0
  0
ARC
  5
1CF
330
1F
100
AcDbEntity
  8
0
  6
Continuous
 62
     7
370
    25
100
AcDbCircle
 10
3839.4534559842
 20
7329.0270470066
 30
0.0
 40
0.5000000000009095
100
AcDbArc
 50
270.0
 51
0.0
  0
ARC
  5
1D0
330
1F
100
AcDbEntity
  8
0
  6
Continuous
 62
     7
370
    25
100
AcDbCircle
 10
3839.4534559842
 20
7338.0270470066
 30
0.0
 40
0.5
100
AcDbArc
 50
0.0
 51
90.0
  0
SPLINE
  5
1D1
330
1F
100
AcDbEntity
  8
0
  6
Continuous
 62
     7
370
    25
100
AcDbSpline
210
0.0
220
0.0
230
1.0
 70
     8
 71
     3
 72
    21
 73
    17
 74
     0
 42
0.000000001
 43
0.00000001
 40
0.0
 40
0.0
 40
0.0
 40
0.0
 40
0.1329575049793202
 40
0.2611756946885508
 40
0.3668583736485662
 40
0.4563229073440299
 40
0.5299822813782004
 40
0.5870923985120605
 40
0.6262439114833154
 40
0.6408218567153159
 40
0.6487209093759857
 40
0.6554573155657057
 40
0.6652453936140433
 40
0.6848640194022172
 40
0.7445159535911643
 40
1.0
 40
1.0
 40
1.0
 40
1.0
 10
3818.846488521476
 20
7364.628983865783
 30
0.0
 10
3818.844030875547
 20
7364.682089782144
 30
0.0
 10
3818.839203187308
 20
7364.786408636503
 30
0.0
 10
3818.76730806116
 20
7364.917138891066
 30
0.0
 10
3818.679810916705
 20
7365.011208680734
 30
0.0
 10
3818.59049257989
 20
7365.070419995941
 30
0.0
 10
3818.509691215928
 20
7365.103821948926
 30
0.0
 10
3818.444270456227
 20
7365.119689502018
 30
0.0
 10
3818.400787296654
 20
7365.125202329386
 30
0.0
 10
3818.376946639365
 20
7365.126507448806
 30
0.0
 10
3818.368307289697
 20
7365.126862089123
 30
0.0
 10
3818.363754147748
 20
7365.126732677392
 30
0.0
 10
3818.35987496265
 20
7365.127238869176
 30
0.0
 10
3818.355724459676
 20
7365.126821070597
 30
0.0
 10
3818.35082077385
 20
7365.127415487086
 30
0.0
 10
3818.337132716329
 20
7365.127208270326
 30
0.0
 10
3818.326035664459
 20
7365.127040277526
 30
0.0
  0
SPLINE
  5
1D2
330
1F
100
AcDbEntity
  8
0
  6
Continuous
 62
     7
370
    25
100
AcDbSpline
210
0.0
220
0.0
230
1.0
 70
     8
 71
     3
 72
    27
 73
    23
 74
     0
 42
0.000000001
 43
0.00000001
 40
0.0
 40
0.0
 40
0.0
 40
0.0
 40
0.0648409121370029
 40
0.1890869897515262
 40
0.3135977287814443
 40
0.4381073811720795
 40
0.562619680821104
 40
0.6871368565397239
 40
0.8116561910725435
 40
0.8740733992702786
 40
0.905319103867225
 40
0.9135492135266193
 40
0.9178430273616145
 40
0.9189033645962457
 40
0.9200249419285148
 40
0.9228250028714854
 40
0.9295234482107102
 40
0.9432126099400783
 40
0.9580911788347186
 40
0.9768840555585113
 40
0.9955807544658374
 40
1.0
 40
1.0
 40
1.0
 40
1.0
 10
3815.576562807937
 20
7365.127755533264
 30
0.0
 10
3815.382008488173
 20
7365.12775628986
 30
0.0
 10
3814.814655416557
 20
7365.127758496225
 30
0.0
 10
3813.80455703057
 20
7365.127730142738
 30
0.0
 10
3812.612939187035
 20
7365.127848971993
 30
0.0
 10
3811.505465685782
 20
7365.127407253283
 30
0.0
 10
3810.563398022138
 20
7365.127624701538
 30
0.0
 10
3809.85171674087
 20
7365.127196618117
 30
0.0
 10
3809.493575360727
 20
7365.127250288174
 30
0.0
 10
3809.37665347068
 20
7365.127334462515
 30
0.0
 10
3809.356833022119
 20
7365.126623664191
 30
0.0
 10
3809.349332853244
 20
7365.127339801099
 30
0.0
 10
3809.346391067065
 20
7365.126647989312
 30
0.0
 10
3809.335873971853
 20
7365.126917242749
 30
0.0
 10
3809.322432663868
 20
7365.126033437768
 30
0.0
 10
3809.288187619268
 20
7365.123944826063
 30
0.0
 10
3809.215560778104
 20
7365.111130325833
 30
0.0
 10
3809.108974177405
 20
7365.070731398199
 30
0.0
 10
3808.985122500644
 20
7364.979402032368
 30
0.0
 10
3808.891632963125
 20
7364.839636487797
 30
0.0
 10
3808.845225827019
 20
7364.706080326024
 30
0.0
 10
3808.857152211316
 20
7364.632950964658
 30
0.0
 10
3808.859432266136
 20
7364.618970285461
 30
0.0
  0
LINE
  5
1D3
330
1F
100
AcDbEntity
  8
0
  6
Continuous
 62
     7
370
    25
100
AcDbLine
 10
3808.8528161506
 20
7364.6270765172
 30
0.0
 11
3808.8528161506
 21
7362.0247377263
 31
0.0
  0
LINE
  5
1D4
330
1F
100
AcDbEntity
  8
0
  6
Continuous
 62
     7
370
    25
100
AcDbLine
 10
3401.8541073064
 20
7364.6330369816
 30
0.0
 11
3401.8541073064
 21
7364.6270765172
 31
0.0
  0
LINE
  5
1D5
330
1F
100
AcDbEntity
  8
0
  6
Continuous
 62
     7
370
    25
100
AcDbLine
 10
3411.8540977696
 20
7364.6270765172
 30
0.0
 11
3411.8540977696
 21
7364.6330369816
 31
0.0
  0
LINE
  5
1D6
330
1F
100
AcDbEntity
  8
0
  6
Continuous
 62
     7
370
    25
100
AcDbLine
 10
3839.4534533481
 20
7338.5331167088
 30
0.0
 11
3835.3534584502
 21
7338.5331167088
 31
0.0
  0
ARC
  5
1D7
330
1F
100
AcDbEntity
  8
0
  6
Continuous
 62
     7
370
    25
100
AcDbCircle
 10
3839.4534559837
 20
7338.0330078561
 30
0.0
 40
0.5000000000004547
100
AcDbArc
 50
0.0
 51
90.0
  0
ARC
  5
1D8
330
1F
100
AcDbEntity
  8
0
  6
Continuous
 62
     7
370
    25
100
AcDbCircle
 10
3381.2534559842
 20
7338.0270470066
 30
0.0
 40
0.5
100
AcDbArc
 50
90.0
 51
180.0
  0
ARC
  5
1D9
330
1F
100
AcDbEntity
  8
0
  6
Continuous
 62
     7
370
    25
100
AcDbCircle
 10
3381.2534559842
 20
7329.0270470066
 30
0.0
 40
0.5
100
AcDbArc
 50
180.0
 51
270.0
  0
LINE
  5
1DA
330
1F
100
AcDbEntity
  8
0
  6
Continuous
 62
     7
370
    25
100
AcDbLine
 10
3381.2534605721
 20
7328.5271657811
 30
0.0
 11
3385.35345547
 21
7328.5271657811
 31
0.0
  0
LINE
  5
1DB
330
1F
100
AcDbEntity
  8
0
  6
Continuous
 62
     7
370
    25
100
AcDbLine
 10
3385.35345547
 20
7338.5271562443
 30
0.0
 11
3381.2534605721
 21
7338.5271562443
 31
0.0
  0
LINE
  5
1DC
330
1F
100
AcDbEntity
  8
0
  6
Continuous
 62
     7
370
    25
100
AcDbLine
 10
3808.8528161506
 20
7364.6330369816
 30
0.0
 11
3808.8528161506
 21
7364.6270765172
 31
0.0
  0
LINE
  5
1DD
330
1F
100
AcDbEntity
  8
0
  6
Continuous
 62
     7
370
    25
100
AcDbLine
 10
3818.8528066138
 20
7364.6270765172
 30
0.0
 11
3818.8528066138
 21
7364.6330369816
 31
0.0
  0
LINE
  5
1DE
330
1F
100
AcDbEntity
  8
0
  6
Continuous
 62
     7
370
    25
100
AcDbLine
 10
3832.2750871638
 20
7356.9592965947
 30
0.0
 11
3832.2750871638
 21
7357.7301038609
 31
0.0
  0
LINE
  5
1DF
330
1F
100
AcDbEntity
  8
0
  6
Continuous
 62
     7
370
    25
100
AcDbLine
 10
3388.4319608668
 20
7357.7320112095
 30
0.0
 11
3388.4319608668
 21
7356.9597734318
 31
0.0
  0
LINE
  5
1E0
330
1F
100
AcDbEntity
  8
0
  6
Continuous
 62
     7
370
    25
100
AcDbLine
 10
3632.9018624137
 20
7363.3629812108
 30
0.0
 11
3632.9018624137
 21
7363.3818162785
 31
0.0
  0
LINE
  5
1E1
330
1F
100
AcDbEntity
  8
0
  6
Continuous
 62
     7
370
    25
100
AcDbLine
 10
3625.3018632168
 20
7363.3818162785
 30
0.0
 11
3625.3018632168
 21
7363.3629812108
 31
0.0
  0
SPLINE
  5
1E2
330
1F
100
AcDbEntity
  8
0
  6
Continuous
 62
     7
370
    25
100
AcDbSpline
210
0.0
220
0.0
230
1.0
 70
     8
 71
     3
 72
    12
 73
     8
 74
     0
 42
0.000000001
 43
0.00000001
 40
0.0
 40
0.0
 40
0.0
 40
0.0
 40
0.0985760858741562
 40
0.368258751852409
 40
0.6545831953881245
 40
0.9408548768586963
 40
0.9999999999999999
 40
0.9999999999999999
 40
0.9999999999999999
 40
0.9999999999999999
 10
3435.828114078422
 20
7365.152789484069
 30
0.0
 10
3435.73783173938
 20
7365.132819900903
 30
0.0
 10
3435.400556616364
 20
7365.058217894678
 30
0.0
 10
3434.84992847081
 20
7364.75572239034
 30
0.0
 10
3434.27550231985
 20
7364.217824491835
 30
0.0
 10
3433.91701298722
 20
7363.719353103863
 30
0.0
 10
3433.84110723604
 20
7363.404088774364
 30
0.0
 10
3433.828110025306
 20
7363.350106607482
 30
0.0
  0
SPLINE
  5
1E3
330
1F
100
AcDbEntity
  8
0
  6
Continuous
 62
     7
370
    25
100
AcDbSpline
210
0.0
220
0.0
230
1.0
 70
     8
 71
     3
 72
    13
 73
     9
 74
     0
 42
0.000000001
 43
0.00000001
 40
0.0
 40
0.0
 40
0.0
 40
0.0
 40
0.1230165150322939
 40
0.3824733147916437
 40
0.6081781923197548
 40
0.8028764721668762
 40
0.9657595999449008
 40
1.0
 40
1.0
 40
1.0
 40
1.0
 10
3441.367799566169
 20
7363.34271563153
 30
0.0
 10
3441.335225256939
 20
7363.453566610127
 30
0.0
 10
3441.233947765661
 20
7363.798215791749
 30
0.0
 10
3440.881896092263
 20
7364.262589618267
 30
0.0
 10
3440.416184075336
 20
7364.698376020755
 30
0.0
 10
3439.941399660072
 20
7364.973087234389
 30
0.0
 10
3439.600212878674
 20
7365.114337595449
 30
0.0
 10
3439.419902572654
 20
7365.153192871468
 30
0.0
 10
3439.388582632919
 20
7365.159942041442
 30
0.0
  0
LINE
  5
1E4
330
1F
100
AcDbEntity
  8
0
  6
Continuous
 62
     7
370
    25
100
AcDbLine
 10
3441.4018636207
 20
7362.9591001378
 30
0.0
 11
3441.4018636207
 21
7363.3391393528
 31
0.0
  0
LINE
  5
1E5
330
1F
100
AcDbEntity
  8
0
  6
Continuous
 62
     7
370
    25
100
AcDbLine
 10
3433.8018690804
 20
7363.3391393528
 30
0.0
 11
3433.8018690804
 21
7362.9591001378
 31
0.0
  0
LINE
  5
1E6
330
1F
100
AcDbEntity
  8
0
  6
Continuous
 62
     7
370
    25
100
AcDbLine
 10
3632.9018624137
 20
7363.3391393528
 30
0.0
 11
3632.9018624137
 21
7363.357736002
 31
0.0
  0
LINE
  5
1E7
330
1F
100
AcDbEntity
  8
0
  6
Continuous
 62
     7
370
    25
100
AcDbLine
 10
3625.3018632168
 20
7363.357736002
 30
0.0
 11
3625.3018632168
 21
7363.3391393528
 31
0.0
  0
LINE
  5
1E8
330
1F
100
AcDbEntity
  8
0
  6
Continuous
 62
     7
370
    25
100
AcDbLine
 10
3786.9018559913
 20
7363.3391393528
 30
0.0
 11
3786.9018559913
 21
7363.357736002
 31
0.0
  0
LINE
  5
1E9
330
1F
100
AcDbEntity
  8
0
  6
Continuous
 62
     7
370
    25
100
AcDbLine
 10
3779.301861451
 20
7363.357736002
 30
0.0
 11
3779.301861451
 21
7363.3391393528
 31
0.0
  0
SPLINE
  5
1EA
330
1F
100
AcDbEntity
  8
0
  6
Continuous
 62
     7
370
    25
100
AcDbSpline
210
0.0
220
0.0
230
1.0
 70
     8
 71
     3
 72
    12
 73
     8
 74
     0
 42
0.000000001
 43
0.00000001
 40
0.0
 40
0.0
 40
0.0
 40
0.0
 40
0.0985744087047156
 40
0.3682554063494574
 40
0.6545805834052109
 40
0.940854386306641
 40
0.9999999999999999
 40
0.9999999999999999
 40
0.9999999999999999
 40
0.9999999999999999
 10
3589.828107656022
 20
7365.152789484069
 30
0.0
 10
3589.737827177639
 20
7365.132819841135
 30
0.0
 10
3589.400556331288
 20
7365.05821702008
 30
0.0
 10
3588.849933905525
 20
7364.755720280095
 30
0.0
 10
3588.275508085783
 20
7364.217822932475
 30
0.0
 10
3587.917017274667
 20
7363.719352868633
 30
0.0
 10
3587.841103977832
 20
7363.404088773722
 30
0.0
 10
3587.828105465551
 20
7363.350106607482
 30
0.0
  0
SPLINE
  5
1EB
330
1F
100
AcDbEntity
  8
0
  6
Continuous
 62
     7
370
    25
100
AcDbSpline
210
0.0
220
0.0
230
1.0
 70
     8
 71
     3
 72
    13
 73
     9
 74
     0
 42
0.000000001
 43
0.00000001
 40
0.0
 40
0.0
 40
0.0
 40
0.0
 40
0.1230167025812726
 40
0.3824753935365557
 40
0.6081798787798044
 40
0.8028761716355507
 40
0.9657595477425436
 40
1.0
 40
1.0
 40
1.0
 40
1.0
 10
3595.367799663027
 20
7363.34271563153
 30
0.0
 10
3595.335225529007
 20
7363.453566731437
 30
0.0
 10
3595.233948186442
 20
7363.798217637955
 30
0.0
 10
3594.881888113287
 20
7364.262586722688
 30
0.0
 10
3594.416180520154
 20
7364.698374313674
 30
0.0
 10
3593.94140103714
 20
7364.973088995397
 30
0.0
 10
3593.600215751615
 20
7365.114337560137
 30
0.0
 10
3593.419905460833
 20
7365.153192866242
 30
0.0
 10
3593.388585523744
 20
7365.159942041442
 30
0.0
  0
LINE
  5
1EC
330
1F
100
AcDbEntity
  8
0
  6
Continuous
 62
     7
370
    25
100
AcDbLine
 10
3595.4018627862
 20
7362.9591001378
 30
0.0
 11
3595.4018627862
 21
7363.3391393528
 31
0.0
  0
LINE
  5
1ED
330
1F
100
AcDbEntity
  8
0
  6
Continuous
 62
     7
370
    25
100
AcDbLine
 10
3587.801862658
 20
7363.3391393528
 30
0.0
 11
3587.801862658
 21
7362.9591001378
 31
0.0
  0
LINE
  5
1EE
330
1F
100
AcDbEntity
  8
0
  6
Continuous
 62
     7
370
    25
100
AcDbLine
 10
3441.4018636207
 20
7363.3629812108
 30
0.0
 11
3441.4018636207
 21
7363.3818162785
 31
0.0
  0
LINE
  5
1EF
330
1F
100
AcDbEntity
  8
0
  6
Continuous
 62
     7
370
    25
100
AcDbLine
 10
3433.8018690804
 20
7363.3818162785
 30
0.0
 11
3433.8018690804
 21
7363.3629812108
 31
0.0
  0
SPLINE
  5
1F0
330
1F
100
AcDbEntity
  8
0
  6
Continuous
 62
     7
370
    25
100
AcDbSpline
210
0.0
220
0.0
230
1.0
 70
     8
 71
     3
 72
    12
 73
     8
 74
     0
 42
0.000000001
 43
0.00000001
 40
0.0
 40
0.0
 40
0.0
 40
0.0
 40
0.2146726695848565
 40
0.462185454755843
 40
0.677533936723917
 40
0.861914415186364
 40
1.0
 40
1.0
 40
1.0
 40
1.0
 10
3614.127502693837
 20
7363.340808282897
 30
0.0
 10
3614.054398644962
 20
7363.52870910975
 30
0.0
 10
3613.89700726329
 20
7363.933255386068
 30
0.0
 10
3613.479026697219
 20
7364.423679455084
 30
0.0
 10
3613.003355419367
 20
7364.799439345386
 30
0.0
 10
3612.554672202209
 20
7365.035022571929
 30
0.0
 10
3612.265039438672
 20
7365.119316122088
 30
0.0
 10
3612.141013644678
 20
7365.155412088439
 30
0.0
  0
SPLINE
  5
1F1
330
1F
100
AcDbEntity
  8
0
  6
Continuous
 62
     7
370
    25
100
AcDbSpline
210
0.0
220
0.0
230
1.0
 70
     8
 71
     3
 72
    11
 73
     7
 74
     0
 42
0.000000001
 43
0.00000001
 40
0.0
 40
0.0
 40
0.0
 40
0.0
 40
0.1718073038461372
 40
0.4348582977291999
 40
0.7940807023153343
 40
1.0
 40
1.0
 40
1.0
 40
1.0
 10
3608.552267808509
 20
7365.141583810851
 30
0.0
 10
3608.397495179173
 20
7365.097839721557
 30
0.0
 10
3608.005753031886
 20
7364.987119864013
 30
0.0
 10
3607.377820816396
 20
7364.57973587148
 30
0.0
 10
3606.82841892909
 20
7364.003242379355
 30
0.0
 10
3606.646360465763
 20
7363.505485453959
 30
0.0
 10
3606.580024269451
 20
7363.32411898236
 30
0.0
  0
LINE
  5
1F2
330
1F
100
AcDbEntity
  8
0
  6
Continuous
 62
     7
370
    25
100
AcDbLine
 10
3614.1534560929
 20
7362.9526628361
 30
0.0
 11
3614.1534560929
 21
7363.3327020512
 31
0.0
  0
LINE
  5
1F3
330
1F
100
AcDbEntity
  8
0
  6
Continuous
 62
     7
370
    25
100
AcDbLine
 10
3606.5534559647
 20
7363.3327020512
 30
0.0
 11
3606.5534559647
 21
7362.9526628361
 31
0.0
  0
SPLINE
  5
1F4
330
1F
100
AcDbEntity
  8
0
  6
Continuous
 62
     7
370
    25
100
AcDbSpline
210
0.0
220
0.0
230
1.0
 70
     8
 71
     3
 72
    12
 73
     8
 74
     0
 42
0.000000001
 43
0.00000001
 40
0.0
 40
0.0
 40
0.0
 40
0.0
 40
0.0985762773407774
 40
0.3682547486986316
 40
0.654579748368964
 40
0.94085476197975
 40
1.0
 40
1.0
 40
1.0
 40
1.0
 10
3781.328106449027
 20
7365.152789484069
 30
0.0
 10
3781.237824047666
 20
7365.132820057964
 30
0.0
 10
3780.90055301327
 20
7365.058219594335
 30
0.0
 10
3780.349932434553
 20
7364.755717801753
 30
0.0
 10
3779.775512124273
 20
7364.217820425773
 30
0.0
 10
3779.417005424155
 20
7363.719355966794
 30
0.0
 10
3779.341099527157
 20
7363.404088822485
 30
0.0
 10
3779.328102395912
 20
7363.350106607482
 30
0.0
  0
SPLINE
  5
1F5
330
1F
100
AcDbEntity
  8
0
  6
Continuous
 62
     7
370
    25
100
AcDbSpline
210
0.0
220
0.0
230
1.0
 70
     8
 71
     3
 72
    13
 73
     9
 74
     0
 42
0.000000001
 43
0.00000001
 40
0.0
 40
0.0
 40
0.0
 40
0.0
 40
0.1230152226857655
 40
0.3824758624445576
 40
0.608181478277542
 40
0.8028758273546647
 40
0.9657594879408781
 40
1.0
 40
1.0
 40
1.0
 40
1.0
 10
3786.867791936775
 20
7363.34271563153
 30
0.0
 10
3786.835223617188
 20
7363.453567047857
 30
0.0
 10
3786.733963010163
 20
7363.798223506924
 30
0.0
 10
3786.38188491306
 20
7364.262585263114
 30
0.0
 10
3785.916179354485
 20
7364.698371162724
 30
0.0
 10
3785.441403968673
 20
7364.973090917598
 30
0.0
 10
3785.100220112248
 20
7365.114337518757
 30
0.0
 10
3784.919909838768
 20
7365.153192860118
 30
0.0
 10
3784.888589904685
 20
7365.159942041442
 30
0.0
  0
LINE
  5
1F6
330
1F
100
AcDbEntity
  8
0
  6
Continuous
 62
     7
370
    25
100
AcDbLine
 10
3786.9018559913
 20
7362.9591001378
 30
0.0
 11
3786.9018559913
 21
7363.3391393528
 31
0.0
  0
LINE
  5
1F7
330
1F
100
AcDbEntity
  8
0
  6
Continuous
 62
     7
370
    25
100
AcDbLine
 10
3779.301861451
 20
7363.3391393528
 30
0.0
 11
3779.301861451
 21
7362.9591001378
 31
0.0
  0
LINE
  5
1F8
330
1F
100
AcDbEntity
  8
0
  6
Continuous
 62
     7
370
    25
100
AcDbLine
 10
3614.1534560929
 20
7363.3327020512
 30
0.0
 11
3614.1534560929
 21
7363.4027971135
 31
0.0
  0
LINE
  5
1F9
330
1F
100
AcDbEntity
  8
0
  6
Continuous
 62
     7
370
    25
100
AcDbLine
 10
3606.5534559647
 20
7363.4027971135
 30
0.0
 11
3606.5534559647
 21
7363.3327020512
 31
0.0
  0
SPLINE
  5
1FA
330
1F
100
AcDbEntity
  8
0
  6
Continuous
 62
     7
370
    25
100
AcDbSpline
210
0.0
220
0.0
230
1.0
 70
     8
 71
     3
 72
    12
 73
     8
 74
     0
 42
0.000000001
 43
0.00000001
 40
0.0
 40
0.0
 40
0.0
 40
0.0
 40
0.1265786447518268
 40
0.3489747746799546
 40
0.6486572332120076
 40
0.9329651774899475
 40
0.9999999999999999
 40
0.9999999999999999
 40
0.9999999999999999
 40
0.9999999999999999
 10
3397.075036690612
 20
7365.156127344177
 30
0.0
 10
3396.960525225247
 20
7365.125045190542
 30
0.0
 10
3396.644819421141
 20
7365.039352318867
 30
0.0
 10
3396.101201780882
 20
7364.749051865007
 30
0.0
 10
3395.545161164487
 20
7364.236611607604
 30
0.0
 10
3395.175205652092
 20
7363.725711766817
 30
0.0
 10
3395.096326127997
 20
7363.405482962108
 30
0.0
 10
3395.081276224037
 20
7363.344384561584
 30
0.0
  0
SPLINE
  5
1FB
330
1F
100
AcDbEntity
  8
0
  6
Continuous
 62
     7
370
    25
100
AcDbSpline
210
0.0
220
0.0
230
1.0
 70
     8
 71
     3
 72
    13
 73
     9
 74
     0
 42
0.000000001
 43
0.00000001
 40
0.0
 40
0.0
 40
0.0
 40
0.0
 40
0.1245957587779346
 40
0.3829692144349665
 40
0.6076785394554731
 40
0.8015267974805249
 40
0.9635386461421382
 40
1.0
 40
1.0
 40
1.0
 40
1.0
 10
3402.615988777061
 20
7363.34796084027
 30
0.0
 10
3402.582346092614
 20
7363.460222368758
 30
0.0
 10
3402.478938781159
 20
7363.805279935703
 30
0.0
 10
3402.125017867181
 20
7364.268534736839
 30
0.0
 10
3401.658445331344
 20
7364.700719234928
 30
0.0
 10
3401.184435609496
 20
7364.97325693466
 30
0.0
 10
3400.841770606405
 20
7365.113427298551
 30
0.0
 10
3400.659850783605
 20
7365.152118800684
 30
0.0
 10
3400.626430437942
 20
7365.159226785705
 30
0.0
  0
LINE
  5
1FC
330
1F
100
AcDbEntity
  8
0
  6
Continuous
 62
     7
370
    25
100
AcDbLine
 10
3402.6534502963
 20
7362.9550470219
 30
0.0
 11
3402.6534502963
 21
7363.3348478184
 31
0.0
  0
LINE
  5
1FD
330
1F
100
AcDbEntity
  8
0
  6
Continuous
 62
     7
370
    25
100
AcDbLine
 10
3395.0534557561
 20
7363.3348478184
 30
0.0
 11
3395.0534557561
 21
7362.9550470219
 31
0.0
  0
SPLINE
  5
1FE
330
1F
100
AcDbEntity
  8
0
  6
Continuous
 62
     7
370
    25
100
AcDbSpline
210
0.0
220
0.0
230
1.0
 70
     8
 71
     3
 72
    12
 73
     8
 74
     0
 42
0.000000001
 43
0.00000001
 40
0.0
 40
0.0
 40
0.0
 40
0.0
 40
0.0985737948042512
 40
0.3682554625078551
 40
0.6545804806120123
 40
0.9408543687055263
 40
1.0
 40
1.0
 40
1.0
 40
1.0
 10
3627.328107283492
 20
7365.152789484069
 30
0.0
 10
3627.237827451444
 20
7365.13281977028
 30
0.0
 10
3626.900556867796
 20
7365.058216208525
 30
0.0
 10
3626.349933808903
 20
7364.755721351052
 30
0.0
 10
3625.775508709448
 20
7364.217822457091
 30
0.0
 10
3625.417017825257
 20
7363.719352880034
 30
0.0
 10
3625.341104535426
 20
7363.404088775389
 30
0.0
 10
3625.328106024344
 20
7363.350106607482
 30
0.0
  0
SPLINE
  5
1FF
330
1F
100
AcDbEntity
  8
0
  6
Continuous
 62
     7
370
    25
100
AcDbSpline
210
0.0
220
0.0
230
1.0
 70
     8
 71
     3
 72
    13
 73
     9
 74
     0
 42
0.000000001
 43
0.00000001
 40
0.0
 40
0.0
 40
0.0
 40
0.0
 40
0.1230166662838535
 40
0.3824752806830215
 40
0.6081799447930242
 40
0.8028756092468466
 40
0.9657595578455622
 40
1.0
 40
1.0
 40
1.0
 40
1.0
 10
3632.86780022182
 20
7363.34271563153
 30
0.0
 10
3632.835226080923
 20
7363.453566722285
 30
0.0
 10
3632.733948716976
 20
7363.798217600349
 30
0.0
 10
3632.381888784864
 20
7364.262587249304
 30
0.0
 10
3631.916180368878
 20
7364.698373246293
 30
0.0
 10
3631.441401826869
 20
7364.973090093892
 30
0.0
 10
3631.100215923902
 20
7365.114337383584
 30
0.0
 10
3630.919905084928
 20
7365.153192858216
 30
0.0
 10
3630.888585151215
 20
7365.159942041442
 30
0.0
  0
LINE
  5
200
330
1F
100
AcDbEntity
  8
0
  6
Continuous
 62
     7
370
    25
100
AcDbLine
 10
3632.9018624137
 20
7362.9591001378
 30
0.0
 11
3632.9018624137
 21
7363.3391393528
 31
0.0
  0
LINE
  5
201
330
1F
100
AcDbEntity
  8
0
  6
Continuous
 62
     7
370
    25
100
AcDbLine
 10
3625.3018632168
 20
7363.3391393528
 30
0.0
 11
3625.3018632168
 21
7362.9591001378
 31
0.0
  0
SPLINE
  5
202
330
1F
100
AcDbEntity
  8
0
  6
Continuous
 62
     7
370
    25
100
AcDbSpline
210
0.0
220
0.0
230
1.0
 70
     8
 71
     3
 72
    12
 73
     8
 74
     0
 42
0.000000001
 43
0.00000001
 40
0.0
 40
0.0
 40
0.0
 40
0.0
 40
0.1265790640310074
 40
0.3489712223435917
 40
0.6486546735440042
 40
0.9329635595637533
 40
1.0
 40
1.0
 40
1.0
 40
1.0
 10
3820.075029657264
 20
7365.156127344177
 30
0.0
 10
3819.960517981862
 20
7365.125045529391
 30
0.0
 10
3819.644815858106
 20
7365.039354748047
 30
0.0
 10
3819.101209406679
 20
7364.74904554368
 30
0.0
 10
3818.545160851148
 20
7364.236614589227
 30
0.0
 10
3818.175231051152
 20
7363.725705616554
 30
0.0
 10
3818.096324504186
 20
7363.405482841222
 30
0.0
 10
3818.081269190689
 20
7363.344384561584
 30
0.0
  0
SPLINE
  5
203
330
1F
100
AcDbEntity
  8
0
  6
Continuous
 62
     7
370
    25
100
AcDbSpline
210
0.0
220
0.0
230
1.0
 70
     8
 71
     3
 72
    13
 73
     9
 74
     0
 42
0.000000001
 43
0.00000001
 40
0.0
 40
0.0
 40
0.0
 40
0.0
 40
0.1245943578510482
 40
0.3829684761902657
 40
0.6076823150820465
 40
0.8015265002915676
 40
0.9635437272537526
 40
1.0
 40
1.0
 40
1.0
 40
1.0
 10
3825.615981743713
 20
7363.34796084027
 30
0.0
 10
3825.582344634852
 20
7363.460222476831
 30
0.0
 10
3825.478953497835
 20
7363.805283590595
 30
0.0
 10
3825.125024462253
 20
7364.268541360282
 30
0.0
 10
3824.658441018327
 20
7364.700708106767
 30
0.0
 10
3824.184438348256
 20
7364.973267768593
 30
0.0
 10
3823.84177158009
 20
7365.113420082208
 30
0.0
 10
3823.659853604712
 20
7365.152118526675
 30
0.0
 10
3823.626438305755
 20
7365.159226785705
 30
0.0
  0
LINE
  5
204
330
1F
100
AcDbEntity
  8
0
  6
Continuous
 62
     7
370
    25
100
AcDbLine
 10
3825.6534581641
 20
7362.9550470219
 30
0.0
 11
3825.6534581641
 21
7363.3348478184
 31
0.0
  0
LINE
  5
205
330
1F
100
AcDbEntity
  8
0
  6
Continuous
 62
     7
370
    25
100
AcDbLine
 10
3818.0534487227
 20
7363.3348478184
 30
0.0
 11
3818.0534487227
 21
7362.9550470219
 31
0.0
  0
LINE
  5
206
330
1F
100
AcDbEntity
  8
0
  6
Continuous
 62
     7
370
    25
100
AcDbLine
 10
3595.4018627862
 20
7363.357736002
 30
0.0
 11
3595.4018627862
 21
7363.3629812108
 31
0.0
  0
LINE
  5
207
330
1F
100
AcDbEntity
  8
0
  6
Continuous
 62
     7
370
    25
100
AcDbLine
 10
3587.801862658
 20
7363.3629812108
 30
0.0
 11
3587.801862658
 21
7363.357736002
 31
0.0
  0
LINE
  5
208
330
1F
100
AcDbEntity
  8
0
  6
Continuous
 62
     7
370
    25
100
AcDbLine
 10
3825.6534581641
 20
7363.3677495823
 30
0.0
 11
3825.6534581641
 21
7363.4004129277
 31
0.0
  0
LINE
  5
209
330
1F
100
AcDbEntity
  8
0
  6
Continuous
 62
     7
370
    25
100
AcDbLine
 10
3818.0534487227
 20
7363.4004129277
 30
0.0
 11
3818.0534487227
 21
7363.3677495823
 31
0.0
  0
LINE
  5
20A
330
1F
100
AcDbEntity
  8
0
  6
Continuous
 62
     7
370
    25
100
AcDbLine
 10
3441.4018636207
 20
7363.357736002
 30
0.0
 11
3441.4018636207
 21
7363.3629812108
 31
0.0
  0
LINE
  5
20B
330
1F
100
AcDbEntity
  8
0
  6
Continuous
 62
     7
370
    25
100
AcDbLine
 10
3433.8018690804
 20
7363.3629812108
 30
0.0
 11
3433.8018690804
 21
7363.357736002
 31
0.0
  0
LINE
  5
20C
330
1F
100
AcDbEntity
  8
0
  6
Continuous
 62
     7
370
    25
100
AcDbLine
 10
3402.6534502963
 20
7363.3348478184
 30
0.0
 11
3402.6534502963
 21
7363.3677495823
 31
0.0
  0
LINE
  5
20D
330
1F
100
AcDbEntity
  8
0
  6
Continuous
 62
     7
370
    25
100
AcDbLine
 10
3395.0534557561
 20
7363.3677495823
 30
0.0
 11
3395.0534557561
 21
7363.3348478184
 31
0.0
  0
LINE
  5
20E
330
1F
100
AcDbEntity
  8
0
  6
Continuous
 62
     7
370
    25
100
AcDbLine
 10
3595.4018627862
 20
7363.3391393528
 30
0.0
 11
3595.4018627862
 21
7363.357736002
 31
0.0
  0
LINE
  5
20F
330
1F
100
AcDbEntity
  8
0
  6
Continuous
 62
     7
370
    25
100
AcDbLine
 10
3587.801862658
 20
7363.357736002
 30
0.0
 11
3587.801862658
 21
7363.3391393528
 31
0.0
  0
LINE
  5
210
330
1F
100
AcDbEntity
  8
0
  6
Continuous
 62
     7
370
    25
100
AcDbLine
 10
3595.4018627862
 20
7363.3629812108
 30
0.0
 11
3595.4018627862
 21
7363.3818162785
 31
0.0
  0
LINE
  5
211
330
1F
100
AcDbEntity
  8
0
  6
Continuous
 62
     7
370
    25
100
AcDbLine
 10
3587.801862658
 20
7363.3818162785
 30
0.0
 11
3587.801862658
 21
7363.3629812108
 31
0.0
  0
LINE
  5
212
330
1F
100
AcDbEntity
  8
0
  6
Continuous
 62
     7
370
    25
100
AcDbLine
 10
3441.4018636207
 20
7363.3391393528
 30
0.0
 11
3441.4018636207
 21
7363.357736002
 31
0.0
  0
LINE
  5
213
330
1F
100
AcDbEntity
  8
0
  6
Continuous
 62
     7
370
    25
100
AcDbLine
 10
3433.8018690804
 20
7363.357736002
 30
0.0
 11
3433.8018690804
 21
7363.3391393528
 31
0.0
  0
LINE
  5
214
330
1F
100
AcDbEntity
  8
0
  6
Continuous
 62
     7
370
    25
100
AcDbLine
 10
3632.9018624137
 20
7363.357736002
 30
0.0
 11
3632.9018624137
 21
7363.3629812108
 31
0.0
  0
LINE
  5
215
330
1F
100
AcDbEntity
  8
0
  6
Continuous
 62
     7
370
    25
100
AcDbLine
 10
3625.3018632168
 20
7363.3629812108
 30
0.0
 11
3625.3018632168
 21
7363.357736002
 31
0.0
  0
LINE
  5
216
330
1F
100
AcDbEntity
  8
0
  6
Continuous
 62
     7
370
    25
100
AcDbLine
 10
3786.9018559913
 20
7363.357736002
 30
0.0
 11
3786.9018559913
 21
7363.3629812108
 31
0.0
  0
LINE
  5
217
330
1F
100
AcDbEntity
  8
0
  6
Continuous
 62
     7
370
    25
100
AcDbLine
 10
3779.301861451
 20
7363.3629812108
 30
0.0
 11
3779.301861451
 21
7363.357736002
 31
0.0
  0
LINE
  5
218
330
1F
100
AcDbEntity
  8
0
  6
Continuous
 62
     7
370
    25
100
AcDbLine
 10
3825.6534581641
 20
7363.3348478184
 30
0.0
 11
3825.6534581641
 21
7363.3677495823
 31
0.0
  0
LINE
  5
219
330
1F
100
AcDbEntity
  8
0
  6
Continuous
 62
     7
370
    25
100
AcDbLine
 10
3818.0534487227
 20
7363.3677495823
 30
0.0
 11
3818.0534487227
 21
7363.3348478184
 31
0.0
  0
LINE
  5
21A
330
1F
100
AcDbEntity
  8
0
  6
Continuous
 62
     7
370
    25
100
AcDbLine
 10
3402.6534502963
 20
7363.3677495823
 30
0.0
 11
3402.6534502963
 21
7363.4004129277
 31
0.0
  0
LINE
  5
21B
330
1F
100
AcDbEntity
  8
0
  6
Continuous
 62
     7
370
    25
100
AcDbLine
 10
3395.0534557561
 20
7363.4004129277
 30
0.0
 11
3395.0534557561
 21
7363.3677495823
 31
0.0
  0
LINE
  5
21C
330
1F
100
AcDbEntity
  8
0
  6
Continuous
 62
     7
370
    25
100
AcDbLine
 10
3786.9018559913
 20
7363.3629812108
 30
0.0
 11
3786.9018559913
 21
7363.3818162785
 31
0.0
  0
LINE
  5
21D
330
1F
100
AcDbEntity
  8
0
  6
Continuous
 62
     7
370
    25
100
AcDbLine
 10
3779.301861451
 20
7363.3818162785
 30
0.0
 11
3779.301861451
 21
7363.3629812108
 31
0.0
  0
LWPOLYLINE
  5
21E
330
1F
100
AcDbEntity
  8
0
  6
Continuous
 62
     7
370
    25
100
AcDbPolyline
 90
        9
 70
   128
 43
0.0
 10
3610.3534559842
 20
7362.9519475804
 10
3611.6212525275
 20
7362.9519475804
 10
3612.7863397459
 20
7362.9519475804
 10
3613.7543289559
 20
7362.952185999
 10
3614.4467998865
 20
7362.9524244175
 10
3614.8076524595
 20
7362.9524244175
 10
3614.8076524595
 20
7362.9526628361
 10
3614.4467998865
 20
7362.9529012547
 10
3614.1534560929
 20
7362.9529012547
  0
LWPOLYLINE
  5
21F
330
1F
100
AcDbEntity
  8
0
  6
Continuous
 62
     7
370
    25
100
AcDbPolyline
 90
        9
 70
   128
 43
0.0
 10
3606.5534559647
 20
7362.9529012547
 10
3606.2601121711
 20
7362.9529012547
 10
3605.899259598
 20
7362.9526628361
 10
3605.899259598
 20
7362.9524244175
 10
3606.2601121711
 20
7362.9524244175
 10
3606.9525828688
 20
7362.952185999
 10
3607.9205723117
 20
7362.9519475804
 10
3609.0856595301
 20
7362.9519475804
 10
3610.3534559842
 20
7362.9519475804
  0
LWPOLYLINE
  5
220
330
1F
100
AcDbEntity
  8
0
  6
Continuous
 62
     7
370
    25
100
AcDbPolyline
 90
        7
 70
   128
 43
0.0
 10
3610.3534559842
 20
7361.4520562993
 10
3611.6212525275
 20
7361.4520562993
 10
3612.7863397459
 20
7361.4520562993
 10
3613.7543289559
 20
7361.4522947178
 10
3614.4467998865
 20
7361.4522947178
 10
3614.8076524595
 20
7361.4525331364
 10
3614.8534558351
 20
7361.4525331364
  0
LWPOLYLINE
  5
221
330
1F
100
AcDbEntity
  8
0
  6
Continuous
 62
     7
370
    25
100
AcDbPolyline
 90
        7
 70
   128
 43
0.0
 10
3605.8534557568
 20
7361.4525331364
 10
3605.899259598
 20
7361.4525331364
 10
3606.2601121711
 20
7361.4522947178
 10
3606.9525828688
 20
7361.4522947178
 10
3607.9205723117
 20
7361.4520562993
 10
3609.0856595301
 20
7361.4520562993
 10
3610.3534559842
 20
7361.4520562993
  0
LWPOLYLINE
  5
222
330
1F
100
AcDbEntity
  8
0
  6
Continuous
 62
     7
370
    25
100
AcDbPolyline
 90
        6
 70
   128
 43
0.0
 10
3595.4018627862
 20
7363.0015386448
 10
3595.6952070455
 20
7363.0015386448
 10
3596.0560591529
 20
7363.0017770634
 10
3596.0560591529
 20
7363.002015482
 10
3595.6952070455
 20
7363.002015482
 10
3595.4018627862
 20
7363.0022539006
  0
LWPOLYLINE
  5
223
330
1F
100
AcDbEntity
  8
0
  6
Continuous
 62
     7
370
    25
100
AcDbPolyline
 90
        6
 70
   128
 43
0.0
 10
3587.801862658
 20
7363.0022539006
 10
3587.5085183988
 20
7363.002015482
 10
3587.1476662914
 20
7363.002015482
 10
3587.1476662914
 20
7363.0017770634
 10
3587.5085183988
 20
7363.0015386448
 10
3587.801862658
 20
7363.0015386448
  0
LWPOLYLINE
  5
224
330
1F
100
AcDbEntity
  8
0
  6
Continuous
 62
     7
370
    25
100
AcDbPolyline
 90
        6
 70
   128
 43
0.0
 10
3595.4018627862
 20
7362.9774583683
 10
3595.6952070455
 20
7362.9774583683
 10
3596.0560591529
 20
7362.9776967869
 10
3596.0560591529
 20
7362.9779352055
 10
3595.6952070455
 20
7362.9781736241
 10
3595.4018627862
 20
7362.9781736241
  0
LWPOLYLINE
  5
225
330
1F
100
AcDbEntity
  8
0
  6
Continuous
 62
     7
370
    25
100
AcDbPolyline
 90
        6
 70
   128
 43
0.0
 10
3587.801862658
 20
7362.9781736241
 10
3587.5085183988
 20
7362.9781736241
 10
3587.1476662914
 20
7362.9779352055
 10
3587.1476662914
 20
7362.9776967869
 10
3587.5085183988
 20
7362.9774583683
 10
3587.801862658
 20
7362.9774583683
  0
LWPOLYLINE
  5
226
330
1F
100
AcDbEntity
  8
0
  6
Continuous
 62
     7
370
    25
100
AcDbPolyline
 90
        6
 70
   128
 43
0.0
 10
3786.9018559913
 20
7362.9827035771
 10
3787.1952002505
 20
7362.9827035771
 10
3787.5560616712
 20
7362.9829419957
 10
3787.5560616712
 20
7362.9831804142
 10
3787.1952002505
 20
7362.9834188328
 10
3786.9018559913
 20
7362.9834188328
  0
LWPOLYLINE
  5
227
330
1F
100
AcDbEntity
  8
0
  6
Continuous
 62
     7
370
    25
100
AcDbPolyline
 90
        6
 70
   128
 43
0.0
 10
3779.301861451
 20
7362.9834188328
 10
3779.0085171918
 20
7362.9834188328
 10
3778.6476706723
 20
7362.9831804142
 10
3778.6476706723
 20
7362.9829419957
 10
3779.0085171918
 20
7362.9827035771
 10
3779.301861451
 20
7362.9827035771
  0
LWPOLYLINE
  5
228
330
1F
100
AcDbEntity
  8
0
  6
Continuous
 62
     7
370
    25
100
AcDbPolyline
 90
        6
 70
   128
 43
0.0
 10
3441.4018636207
 20
7362.9774583683
 10
3441.6952078799
 20
7362.9774583683
 10
3442.0560543994
 20
7362.9776967869
 10
3442.0560543994
 20
7362.9779352055
 10
3441.6952078799
 20
7362.9781736241
 10
3441.4018636207
 20
7362.9781736241
  0
LWPOLYLINE
  5
229
330
1F
100
AcDbEntity
  8
0
  6
Continuous
 62
     7
370
    25
100
AcDbPolyline
 90
        6
 70
   128
 43
0.0
 10
3433.8018690804
 20
7362.9781736241
 10
3433.5085248212
 20
7362.9781736241
 10
3433.1476634006
 20
7362.9779352055
 10
3433.1476634006
 20
7362.9776967869
 10
3433.5085248212
 20
7362.9774583683
 10
3433.8018690804
 20
7362.9774583683
  0
LWPOLYLINE
  5
22A
330
1F
100
AcDbEntity
  8
0
  6
Continuous
 62
     7
370
    25
100
AcDbPolyline
 90
        6
 70
   128
 43
0.0
 10
3825.6534581641
 20
7363.020135294
 10
3825.9468024234
 20
7363.020135294
 10
3826.3076489428
 20
7363.0203737126
 10
3826.3076489428
 20
7363.0206121312
 10
3825.9468024234
 20
7363.0208505497
 10
3825.6534581641
 20
7363.0208505497
  0
LWPOLYLINE
  5
22B
330
1F
100
AcDbEntity
  8
0
  6
Continuous
 62
     7
370
    25
100
AcDbPolyline
 90
        6
 70
   128
 43
0.0
 10
3818.0534487227
 20
7363.0208505497
 10
3817.7601193646
 20
7363.0208505497
 10
3817.399257944
 20
7363.0206121312
 10
3817.399257944
 20
7363.0203737126
 10
3817.7601193646
 20
7363.020135294
 10
3818.0534487227
 20
7363.020135294
  0
LWPOLYLINE
  5
22C
330
1F
100
AcDbEntity
  8
0
  6
Continuous
 62
     7
370
    25
100
AcDbPolyline
 90
        6
 70
   128
 43
0.0
 10
3402.6534502963
 20
7362.9874719487
 10
3402.9467945556
 20
7362.9874719487
 10
3403.3076559762
 20
7362.9877103672
 10
3403.3076559762
 20
7362.9877103672
 10
3402.9467945556
 20
7362.9879487858
 10
3402.6507531861
 20
7362.9881872044
  0
LWPOLYLINE
  5
22D
330
1F
100
AcDbEntity
  8
0
  6
Continuous
 62
     7
370
    25
100
AcDbPolyline
 90
        6
 70
   128
 43
0.0
 10
3395.0534557561
 20
7362.9881872044
 10
3394.7601114968
 20
7362.9879487858
 10
3394.3992649774
 20
7362.9877103672
 10
3394.3992649774
 20
7362.9877103672
 10
3394.7601114968
 20
7362.9874719487
 10
3395.0534557561
 20
7362.9874719487
  0
LWPOLYLINE
  5
22E
330
1F
100
AcDbEntity
  8
0
  6
Continuous
 62
     7
370
    25
100
AcDbPolyline
 90
        6
 70
   128
 43
0.0
 10
3825.6534581641
 20
7362.9874719487
 10
3825.9468024234
 20
7362.9874719487
 10
3826.3076489428
 20
7362.9877103672
 10
3826.3076489428
 20
7362.9877103672
 10
3825.9468024234
 20
7362.9879487858
 10
3825.6507610539
 20
7362.9881872044
  0
LWPOLYLINE
  5
22F
330
1F
100
AcDbEntity
  8
0
  6
Continuous
 62
     7
370
    25
100
AcDbPolyline
 90
        6
 70
   128
 43
0.0
 10
3818.0534487227
 20
7362.9881872044
 10
3817.7601193646
 20
7362.9879487858
 10
3817.399257944
 20
7362.9877103672
 10
3817.399257944
 20
7362.9877103672
 10
3817.7601193646
 20
7362.9874719487
 10
3818.0534487227
 20
7362.9874719487
  0
LWPOLYLINE
  5
230
330
1F
100
AcDbEntity
  8
0
  6
Continuous
 62
     7
370
    25
100
AcDbPolyline
 90
        9
 70
   128
 43
0.0
 10
3821.8534534434
 20
7362.9543317662
 10
3823.121259139
 20
7362.9543317662
 10
3824.2863362292
 20
7362.9543317662
 10
3825.2543305615
 20
7362.9545701848
 10
3825.9468024234
 20
7362.9545701848
 10
3826.3076489428
 20
7362.9548086033
 10
3826.3076489428
 20
7362.9550470219
 10
3825.9468024234
 20
7362.9552854405
 10
3825.6507610539
 20
7362.9552854405
  0
LWPOLYLINE
  5
231
330
1F
100
AcDbEntity
  8
0
  6
Continuous
 62
     7
370
    25
100
AcDbPolyline
 90
        9
 70
   128
 43
0.0
 10
3818.0534487227
 20
7362.9552854405
 10
3817.7601193646
 20
7362.9552854405
 10
3817.399257944
 20
7362.9550470219
 10
3817.399257944
 20
7362.9548086033
 10
3817.7601193646
 20
7362.9545701848
 10
3818.4525763253
 20
7362.9545701848
 10
3819.4205706576
 20
7362.9543317662
 10
3820.5856626491
 20
7362.9543317662
 10
3821.8534534434
 20
7362.9543317662
  0
LWPOLYLINE
  5
232
330
1F
100
AcDbEntity
  8
0
  6
Continuous
 62
     7
370
    25
100
AcDbPolyline
 90
        7
 70
   128
 43
0.0
 10
3821.8534534434
 20
7361.4542020665
 10
3823.121259139
 20
7361.4542020665
 10
3824.2863362292
 20
7361.454440485
 10
3825.2543305615
 20
7361.454440485
 10
3825.9468024234
 20
7361.4546789036
 10
3826.3076489428
 20
7361.4549173222
 10
3826.3534551124
 20
7361.4549173222
  0
LWPOLYLINE
  5
233
330
1F
100
AcDbEntity
  8
0
  6
Continuous
 62
     7
370
    25
100
AcDbPolyline
 90
        7
 70
   128
 43
0.0
 10
3817.3534517745
 20
7361.4549173222
 10
3817.399257944
 20
7361.4549173222
 10
3817.7601193646
 20
7361.4546789036
 10
3818.4525763253
 20
7361.454440485
 10
3819.4205706576
 20
7361.454440485
 10
3820.5856626491
 20
7361.4542020665
 10
3821.8534534434
 20
7361.4542020665
  0
LWPOLYLINE
  5
234
330
1F
100
AcDbEntity
  8
0
  6
Continuous
 62
     7
370
    25
100
AcDbPolyline
 90
        7
 70
   128
 43
0.0
 10
3398.8534604768
 20
7361.4542020665
 10
3400.1212512711
 20
7361.4542020665
 10
3401.2863432626
 20
7361.454440485
 10
3402.2543226937
 20
7361.454440485
 10
3402.9467945556
 20
7361.4546789036
 10
3403.3076559762
 20
7361.4549173222
 10
3403.3534621457
 20
7361.4549173222
  0
LWPOLYLINE
  5
235
330
1F
100
AcDbEntity
  8
0
  6
Continuous
 62
     7
370
    25
100
AcDbPolyline
 90
        7
 70
   128
 43
0.0
 10
3394.3534588078
 20
7361.4549173222
 10
3394.3992649774
 20
7361.4549173222
 10
3394.7601114968
 20
7361.4546789036
 10
3395.4525833587
 20
7361.454440485
 10
3396.420577691
 20
7361.454440485
 10
3397.5856547812
 20
7361.4542020665
 10
3398.8534604768
 20
7361.4542020665
  0
LWPOLYLINE
  5
236
330
1F
100
AcDbEntity
  8
0
  6
Continuous
 62
     7
370
    25
100
AcDbPolyline
 90
        9
 70
   128
 43
0.0
 10
3398.8534604768
 20
7362.9543317662
 10
3400.1212512711
 20
7362.9543317662
 10
3401.2863432626
 20
7362.9543317662
 10
3402.2543226937
 20
7362.9545701848
 10
3402.9467945556
 20
7362.9545701848
 10
3403.3076559762
 20
7362.9548086033
 10
3403.3076559762
 20
7362.9550470219
 10
3402.9467945556
 20
7362.9552854405
 10
3402.6534502963
 20
7362.9552854405
  0
LWPOLYLINE
  5
237
330
1F
100
AcDbEntity
  8
0
  6
Continuous
 62
     7
370
    25
100
AcDbPolyline
 90
        9
 70
   128
 43
0.0
 10
3395.0534557561
 20
7362.9552854405
 10
3394.7601114968
 20
7362.9552854405
 10
3394.3992649774
 20
7362.9550470219
 10
3394.3992649774
 20
7362.9548086033
 10
3394.7601114968
 20
7362.9545701848
 10
3395.4525833587
 20
7362.9545701848
 10
3396.420577691
 20
7362.9543317662
 10
3397.5856547812
 20
7362.9543317662
 10
3398.8534604768
 20
7362.9543317662
  0
LWPOLYLINE
  5
238
330
1F
100
AcDbEntity
  8
0
  6
Continuous
 62
     7
370
    25
100
AcDbPolyline
 90
        6
 70
   128
 43
0.0
 10
3614.1534560929
 20
7363.0225194798
 10
3614.4467998865
 20
7363.0225194798
 10
3614.8076524595
 20
7363.0227578984
 10
3614.8076524595
 20
7363.022996317
 10
3614.4467998865
 20
7363.022996317
 10
3614.1534560929
 20
7363.0232347355
  0
LWPOLYLINE
  5
239
330
1F
100
AcDbEntity
  8
0
  6
Continuous
 62
     7
370
    25
100
AcDbPolyline
 90
        6
 70
   128
 43
0.0
 10
3606.5534559647
 20
7363.0232347355
 10
3606.2601121711
 20
7363.022996317
 10
3605.899259598
 20
7363.022996317
 10
3605.899259598
 20
7363.0227578984
 10
3606.2601121711
 20
7363.0225194798
 10
3606.5534559647
 20
7363.0225194798
  0
LWPOLYLINE
  5
23A
330
1F
100
AcDbEntity
  8
0
  6
Continuous
 62
     7
370
    25
100
AcDbPolyline
 90
        6
 70
   128
 43
0.0
 10
3595.4018627862
 20
7362.9827035771
 10
3595.6952070455
 20
7362.9827035771
 10
3596.0560591529
 20
7362.9829419957
 10
3596.0560591529
 20
7362.9831804142
 10
3595.6952070455
 20
7362.9834188328
 10
3595.4018627862
 20
7362.9834188328
  0
LWPOLYLINE
  5
23B
330
1F
100
AcDbEntity
  8
0
  6
Continuous
 62
     7
370
    25
100
AcDbPolyline
 90
        6
 70
   128
 43
0.0
 10
3587.801862658
 20
7362.9834188328
 10
3587.5085183988
 20
7362.9834188328
 10
3587.1476662914
 20
7362.9831804142
 10
3587.1476662914
 20
7362.9829419957
 10
3587.5085183988
 20
7362.9827035771
 10
3587.801862658
 20
7362.9827035771
  0
LWPOLYLINE
  5
23C
330
1F
100
AcDbEntity
  8
0
  6
Continuous
 62
     7
370
    25
100
AcDbPolyline
 90
        6
 70
   128
 43
0.0
 10
3402.6534502963
 20
7363.020135294
 10
3402.9467945556
 20
7363.020135294
 10
3403.3076559762
 20
7363.0203737126
 10
3403.3076559762
 20
7363.0206121312
 10
3402.9467945556
 20
7363.0208505497
 10
3402.6534502963
 20
7363.0208505497
  0
LWPOLYLINE
  5
23D
330
1F
100
AcDbEntity
  8
0
  6
Continuous
 62
     7
370
    25
100
AcDbPolyline
 90
        6
 70
   128
 43
0.0
 10
3395.0534557561
 20
7363.0208505497
 10
3394.7601114968
 20
7363.0208505497
 10
3394.3992649774
 20
7363.0206121312
 10
3394.3992649774
 20
7363.0203737126
 10
3394.7601114968
 20
7363.020135294
 10
3395.0534557561
 20
7363.020135294
  0
LWPOLYLINE
  5
23E
330
1F
100
AcDbEntity
  8
0
  6
Continuous
 62
     7
370
    25
100
AcDbPolyline
 90
        9
 70
   128
 43
0.0
 10
3591.6018636534
 20
7362.958384882
 10
3592.8696600357
 20
7362.958384882
 10
3594.0347464392
 20
7362.958384882
 10
3595.0027361149
 20
7362.9586233006
 10
3595.6952070455
 20
7362.9588617192
 10
3596.0560591529
 20
7362.9588617192
 10
3596.0560591529
 20
7362.9591001378
 10
3595.6952070455
 20
7362.9593385563
 10
3595.4018627862
 20
7362.9593385563
  0
LWPOLYLINE
  5
23F
330
1F
100
AcDbEntity
  8
0
  6
Continuous
 62
     7
370
    25
100
AcDbPolyline
 90
        9
 70
   128
 43
0.0
 10
3587.801862658
 20
7362.9593385563
 10
3587.5085183988
 20
7362.9593385563
 10
3587.1476662914
 20
7362.9591001378
 10
3587.1476662914
 20
7362.9588617192
 10
3587.5085183988
 20
7362.9588617192
 10
3588.2009902606
 20
7362.9586233006
 10
3589.168979005
 20
7362.958384882
 10
3590.3340672711
 20
7362.958384882
 10
3591.6018636534
 20
7362.958384882
  0
LWPOLYLINE
  5
240
330
1F
100
AcDbEntity
  8
0
  6
Continuous
 62
     7
370
    25
100
AcDbPolyline
 90
        7
 70
   128
 43
0.0
 10
3591.6018636534
 20
7361.4582551823
 10
3592.8696600357
 20
7361.4584936009
 10
3594.0347464392
 20
7361.4584936009
 10
3595.0027361149
 20
7361.4584936009
 10
3595.6952070455
 20
7361.4587320195
 10
3596.0560591529
 20
7361.458970438
 10
3596.1018625284
 20
7361.458970438
  0
LWPOLYLINE
  5
241
330
1F
100
AcDbEntity
  8
0
  6
Continuous
 62
     7
370
    25
100
AcDbPolyline
 90
        7
 70
   128
 43
0.0
 10
3587.1018638472
 20
7361.458970438
 10
3587.1476662914
 20
7361.458970438
 10
3587.5085183988
 20
7361.4587320195
 10
3588.2009902606
 20
7361.4584936009
 10
3589.168979005
 20
7361.4584936009
 10
3590.3340672711
 20
7361.4584936009
 10
3591.6018636534
 20
7361.4582551823
  0
LWPOLYLINE
  5
242
330
1F
100
AcDbEntity
  8
0
  6
Continuous
 62
     7
370
    25
100
AcDbPolyline
 90
        7
 70
   128
 43
0.0
 10
3783.1018661717
 20
7361.4582551823
 10
3784.3696569661
 20
7361.4584936009
 10
3785.5347489575
 20
7361.4584936009
 10
3786.5027432898
 20
7361.4584936009
 10
3787.1952002505
 20
7361.4587320195
 10
3787.5560616712
 20
7361.458970438
 10
3787.6018678407
 20
7361.458970438
  0
LWPOLYLINE
  5
243
330
1F
100
AcDbEntity
  8
0
  6
Continuous
 62
     7
370
    25
100
AcDbPolyline
 90
        7
 70
   128
 43
0.0
 10
3778.6018645028
 20
7361.458970438
 10
3778.6476706723
 20
7361.458970438
 10
3779.0085171918
 20
7361.4587320195
 10
3779.7009890536
 20
7361.4584936009
 10
3780.6689833859
 20
7361.4584936009
 10
3781.8340604762
 20
7361.4584936009
 10
3783.1018661717
 20
7361.4582551823
  0
LWPOLYLINE
  5
244
330
1F
100
AcDbEntity
  8
0
  6
Continuous
 62
     7
370
    25
100
AcDbPolyline
 90
        9
 70
   128
 43
0.0
 10
3783.1018661717
 20
7362.958384882
 10
3784.3696569661
 20
7362.958384882
 10
3785.5347489575
 20
7362.958384882
 10
3786.5027432898
 20
7362.9586233006
 10
3787.1952002505
 20
7362.9588617192
 10
3787.5560616712
 20
7362.9588617192
 10
3787.5560616712
 20
7362.9591001378
 10
3787.1952002505
 20
7362.9593385563
 10
3786.9018559913
 20
7362.9593385563
  0
LWPOLYLINE
  5
245
330
1F
100
AcDbEntity
  8
0
  6
Continuous
 62
     7
370
    25
100
AcDbPolyline
 90
        9
 70
   128
 43
0.0
 10
3779.301861451
 20
7362.9593385563
 10
3779.0085171918
 20
7362.9593385563
 10
3778.6476706723
 20
7362.9591001378
 10
3778.6476706723
 20
7362.9588617192
 10
3779.0085171918
 20
7362.9588617192
 10
3779.7009890536
 20
7362.9586233006
 10
3780.6689833859
 20
7362.958384882
 10
3781.8340604762
 20
7362.958384882
 10
3783.1018661717
 20
7362.958384882
  0
LWPOLYLINE
  5
246
330
1F
100
AcDbEntity
  8
0
  6
Continuous
 62
     7
370
    25
100
AcDbPolyline
 90
        6
 70
   128
 43
0.0
 10
3632.9018624137
 20
7363.0015386448
 10
3633.1952066729
 20
7363.0015386448
 10
3633.5560587803
 20
7363.0017770634
 10
3633.5560587803
 20
7363.002015482
 10
3633.1952066729
 20
7363.002015482
 10
3632.9018624137
 20
7363.0022539006
  0
LWPOLYLINE
  5
247
330
1F
100
AcDbEntity
  8
0
  6
Continuous
 62
     7
370
    25
100
AcDbPolyline
 90
        6
 70
   128
 43
0.0
 10
3625.3018632168
 20
7363.0022539006
 10
3625.0085189576
 20
7363.002015482
 10
3624.6476668502
 20
7363.002015482
 10
3624.6476668502
 20
7363.0017770634
 10
3625.0085189576
 20
7363.0015386448
 10
3625.3018632168
 20
7363.0015386448
  0
LWPOLYLINE
  5
248
330
1F
100
AcDbEntity
  8
0
  6
Continuous
 62
     7
370
    25
100
AcDbPolyline
 90
        6
 70
   128
 43
0.0
 10
3441.4018636207
 20
7363.0015386448
 10
3441.6952078799
 20
7363.0015386448
 10
3442.0560543994
 20
7363.0017770634
 10
3442.0560543994
 20
7363.002015482
 10
3441.6952078799
 20
7363.002015482
 10
3441.4018636207
 20
7363.0022539006
  0
LWPOLYLINE
  5
249
330
1F
100
AcDbEntity
  8
0
  6
Continuous
 62
     7
370
    25
100
AcDbPolyline
 90
        6
 70
   128
 43
0.0
 10
3433.8018690804
 20
7363.0022539006
 10
3433.5085248212
 20
7363.002015482
 10
3433.1476634006
 20
7363.002015482
 10
3433.1476634006
 20
7363.0017770634
 10
3433.5085248212
 20
7363.0015386448
 10
3433.8018690804
 20
7363.0015386448
  0
LWPOLYLINE
  5
24A
330
1F
100
AcDbEntity
  8
0
  6
Continuous
 62
     7
370
    25
100
AcDbPolyline
 90
        6
 70
   128
 43
0.0
 10
3632.9018624137
 20
7362.9827035771
 10
3633.1952066729
 20
7362.9827035771
 10
3633.5560587803
 20
7362.9829419957
 10
3633.5560587803
 20
7362.9831804142
 10
3633.1952066729
 20
7362.9834188328
 10
3632.9018624137
 20
7362.9834188328
  0
LWPOLYLINE
  5
24B
330
1F
100
AcDbEntity
  8
0
  6
Continuous
 62
     7
370
    25
100
AcDbPolyline
 90
        6
 70
   128
 43
0.0
 10
3625.3018632168
 20
7362.9834188328
 10
3625.0085189576
 20
7362.9834188328
 10
3624.6476668502
 20
7362.9831804142
 10
3624.6476668502
 20
7362.9829419957
 10
3625.0085189576
 20
7362.9827035771
 10
3625.3018632168
 20
7362.9827035771
  0
LWPOLYLINE
  5
24C
330
1F
100
AcDbEntity
  8
0
  6
Continuous
 62
     7
370
    25
100
AcDbPolyline
 90
        6
 70
   128
 43
0.0
 10
3441.4018636207
 20
7362.9827035771
 10
3441.6952078799
 20
7362.9827035771
 10
3442.0560543994
 20
7362.9829419957
 10
3442.0560543994
 20
7362.9831804142
 10
3441.6952078799
 20
7362.9834188328
 10
3441.4018636207
 20
7362.9834188328
  0
LWPOLYLINE
  5
24D
330
1F
100
AcDbEntity
  8
0
  6
Continuous
 62
     7
370
    25
100
AcDbPolyline
 90
        6
 70
   128
 43
0.0
 10
3433.8018690804
 20
7362.9834188328
 10
3433.5085248212
 20
7362.9834188328
 10
3433.1476634006
 20
7362.9831804142
 10
3433.1476634006
 20
7362.9829419957
 10
3433.5085248212
 20
7362.9827035771
 10
3433.8018690804
 20
7362.9827035771
  0
LWPOLYLINE
  5
24E
330
1F
100
AcDbEntity
  8
0
  6
Continuous
 62
     7
370
    25
100
AcDbPolyline
 90
        6
 70
   128
 43
0.0
 10
3786.9018559913
 20
7363.0015386448
 10
3787.1952002505
 20
7363.0015386448
 10
3787.5560616712
 20
7363.0017770634
 10
3787.5560616712
 20
7363.002015482
 10
3787.1952002505
 20
7363.002015482
 10
3786.9018559913
 20
7363.0022539006
  0
LWPOLYLINE
  5
24F
330
1F
100
AcDbEntity
  8
0
  6
Continuous
 62
     7
370
    25
100
AcDbPolyline
 90
        6
 70
   128
 43
0.0
 10
3779.301861451
 20
7363.0022539006
 10
3779.0085171918
 20
7363.002015482
 10
3778.6476706723
 20
7363.002015482
 10
3778.6476706723
 20
7363.0017770634
 10
3779.0085171918
 20
7363.0015386448
 10
3779.301861451
 20
7363.0015386448
  0
LWPOLYLINE
  5
250
330
1F
100
AcDbEntity
  8
0
  6
Continuous
 62
     7
370
    25
100
AcDbPolyline
 90
        6
 70
   128
 43
0.0
 10
3632.9018624137
 20
7362.9774583683
 10
3633.1952066729
 20
7362.9774583683
 10
3633.5560587803
 20
7362.9776967869
 10
3633.5560587803
 20
7362.9779352055
 10
3633.1952066729
 20
7362.9781736241
 10
3632.9018624137
 20
7362.9781736241
  0
LWPOLYLINE
  5
251
330
1F
100
AcDbEntity
  8
0
  6
Continuous
 62
     7
370
    25
100
AcDbPolyline
 90
        6
 70
   128
 43
0.0
 10
3625.3018632168
 20
7362.9781736241
 10
3625.0085189576
 20
7362.9781736241
 10
3624.6476668502
 20
7362.9779352055
 10
3624.6476668502
 20
7362.9776967869
 10
3625.0085189576
 20
7362.9774583683
 10
3625.3018632168
 20
7362.9774583683
  0
LWPOLYLINE
  5
252
330
1F
100
AcDbEntity
  8
0
  6
Continuous
 62
     7
370
    25
100
AcDbPolyline
 90
        7
 70
   128
 43
0.0
 10
3437.6018589
 20
7361.4582551823
 10
3438.8696645955
 20
7361.4584936009
 10
3440.0347416858
 20
7361.4584936009
 10
3441.0027360181
 20
7361.4584936009
 10
3441.6952078799
 20
7361.4587320195
 10
3442.0560543994
 20
7361.458970438
 10
3442.1018605689
 20
7361.458970438
  0
LWPOLYLINE
  5
253
330
1F
100
AcDbEntity
  8
0
  6
Continuous
 62
     7
370
    25
100
AcDbPolyline
 90
        7
 70
   128
 43
0.0
 10
3433.101857231
 20
7361.458970438
 10
3433.1476634006
 20
7361.458970438
 10
3433.5085248212
 20
7361.4587320195
 10
3434.200996683
 20
7361.4584936009
 10
3435.1689761142
 20
7361.4584936009
 10
3436.3340681056
 20
7361.4584936009
 10
3437.6018589
 20
7361.4582551823
  0
LWPOLYLINE
  5
254
330
1F
100
AcDbEntity
  8
0
  6
Continuous
 62
     7
370
    25
100
AcDbPolyline
 90
        9
 70
   128
 43
0.0
 10
3437.6018589
 20
7362.958384882
 10
3438.8696645955
 20
7362.958384882
 10
3440.0347416858
 20
7362.958384882
 10
3441.0027360181
 20
7362.9586233006
 10
3441.6952078799
 20
7362.9588617192
 10
3442.0560543994
 20
7362.9588617192
 10
3442.0560543994
 20
7362.9591001378
 10
3441.6952078799
 20
7362.9593385563
 10
3441.4018636207
 20
7362.9593385563
  0
LWPOLYLINE
  5
255
330
1F
100
AcDbEntity
  8
0
  6
Continuous
 62
     7
370
    25
100
AcDbPolyline
 90
        9
 70
   128
 43
0.0
 10
3433.8018690804
 20
7362.9593385563
 10
3433.5085248212
 20
7362.9593385563
 10
3433.1476634006
 20
7362.9591001378
 10
3433.1476634006
 20
7362.9588617192
 10
3433.5085248212
 20
7362.9588617192
 10
3434.200996683
 20
7362.9586233006
 10
3435.1689761142
 20
7362.958384882
 10
3436.3340681056
 20
7362.958384882
 10
3437.6018589
 20
7362.958384882
  0
LWPOLYLINE
  5
256
330
1F
100
AcDbEntity
  8
0
  6
Continuous
 62
     7
370
    25
100
AcDbPolyline
 90
        7
 70
   128
 43
0.0
 10
3629.1018632809
 20
7361.4582551823
 10
3630.3696596632
 20
7361.4584936009
 10
3631.5347460667
 20
7361.4584936009
 10
3632.5027366737
 20
7361.4584936009
 10
3633.1952066729
 20
7361.4587320195
 10
3633.5560587803
 20
7361.458970438
 10
3633.6018630872
 20
7361.458970438
  0
LWPOLYLINE
  5
257
330
1F
100
AcDbEntity
  8
0
  6
Continuous
 62
     7
370
    25
100
AcDbPolyline
 90
        7
 70
   128
 43
0.0
 10
3624.6018625433
 20
7361.458970438
 10
3624.6476668502
 20
7361.458970438
 10
3625.0085189576
 20
7361.4587320195
 10
3625.7009898881
 20
7361.4584936009
 10
3626.6689786325
 20
7361.4584936009
 10
3627.8340668986
 20
7361.4584936009
 10
3629.1018632809
 20
7361.4582551823
  0
LWPOLYLINE
  5
258
330
1F
100
AcDbEntity
  8
0
  6
Continuous
 62
     7
370
    25
100
AcDbPolyline
 90
        9
 70
   128
 43
0.0
 10
3629.1018632809
 20
7362.958384882
 10
3630.3696596632
 20
7362.958384882
 10
3631.5347460667
 20
7362.958384882
 10
3632.5027366737
 20
7362.9586233006
 10
3633.1952066729
 20
7362.9588617192
 10
3633.5560587803
 20
7362.9588617192
 10
3633.5560587803
 20
7362.9591001378
 10
3633.1952066729
 20
7362.9593385563
 10
3632.9018624137
 20
7362.9593385563
  0
LWPOLYLINE
  5
259
330
1F
100
AcDbEntity
  8
0
  6
Continuous
 62
     7
370
    25
100
AcDbPolyline
 90
        9
 70
   128
 43
0.0
 10
3625.3018632168
 20
7362.9593385563
 10
3625.0085189576
 20
7362.9593385563
 10
3624.6476668502
 20
7362.9591001378
 10
3624.6476668502
 20
7362.9588617192
 10
3625.0085189576
 20
7362.9588617192
 10
3625.7009898881
 20
7362.9586233006
 10
3626.6689786325
 20
7362.958384882
 10
3627.8340668986
 20
7362.958384882
 10
3629.1018632809
 20
7362.958384882
  0
LWPOLYLINE
  5
25A
330
1F
100
AcDbEntity
  8
0
  6
Continuous
 62
     7
370
    25
100
AcDbPolyline
 90
        6
 70
   128
 43
0.0
 10
3786.9018559913
 20
7362.9774583683
 10
3787.1952002505
 20
7362.9774583683
 10
3787.5560616712
 20
7362.9776967869
 10
3787.5560616712
 20
7362.9779352055
 10
3787.1952002505
 20
7362.9781736241
 10
3786.9018559913
 20
7362.9781736241
  0
LWPOLYLINE
  5
25B
330
1F
100
AcDbEntity
  8
0
  6
Continuous
 62
     7
370
    25
100
AcDbPolyline
 90
        6
 70
   128
 43
0.0
 10
3779.301861451
 20
7362.9781736241
 10
3779.0085171918
 20
7362.9781736241
 10
3778.6476706723
 20
7362.9779352055
 10
3778.6476706723
 20
7362.9776967869
 10
3779.0085171918
 20
7362.9774583683
 10
3779.301861451
 20
7362.9774583683
  0
LWPOLYLINE
  5
25C
330
1F
100
AcDbEntity
  8
0
  6
Continuous
 62
     7
370
    25
100
AcDbPolyline
 90
       17
 70
   128
 43
0.0
 10
3408.5778241614
 20
7365.1263250218
 10
3409.6790944795
 20
7365.1265634404
 10
3410.5515127639
 20
7365.1265634404
 10
3411.1243730048
 20
7365.1268018589
 10
3411.3513027886
 20
7365.1270402775
 10
3411.2138842801
 20
7365.1272786961
 10
3410.7232635478
 20
7365.1272786961
 10
3409.9191819886
 20
7365.1275171147
 10
3408.8667874793
 20
7365.1277555333
 10
3407.6513444642
 20
7365.1277555333
 10
3406.3713049153
 20
7365.1277555333
 10
3405.1303809146
 20
7365.1277555333
 10
3404.0291105966
 20
7365.1275171147
 10
3403.1566923121
 20
7365.1275171147
 10
3402.58381717
 20
7365.1272786961
 10
3402.3569022874
 20
7365.1270402775
 10
3402.3541604737
 20
7365.1270402775
  0
LWPOLYLINE
  5
25D
330
1F
100
AcDbEntity
  8
0
  6
Continuous
 62
     7
370
    25
100
AcDbPolyline
 90
        8
 70
   128
 43
0.0
 10
3402.3703431348
 20
7365.1270402775
 10
3402.4943207959
 20
7365.1268018589
 10
3402.9849415282
 20
7365.1268018589
 10
3403.7890230874
 20
7365.1265634404
 10
3404.8414175967
 20
7365.1265634404
 10
3406.0568606118
 20
7365.1263250218
 10
3407.3369001607
 20
7365.1263250218
 10
3408.5778241614
 20
7365.1263250218
  0
LINE
  5
25E
330
1F
100
AcDbEntity
  8
0
  6
Continuous
 62
     7
370
    25
100
AcDbLine
 10
3405.0976728658
 20
7365.1268018589
 30
0.0
 11
3403.9919023971
 21
7365.1270402775
 31
0.0
  0
LINE
  5
25F
330
1F
100
AcDbEntity
  8
0
  6
Continuous
 62
     7
370
    25
100
AcDbLine
 10
3407.9598730067
 20
7365.1265634404
 30
0.0
 11
3405.0976728658
 21
7365.1268018589
 31
0.0
  0
LINE
  5
260
330
1F
100
AcDbEntity
  8
0
  6
Continuous
 62
     7
370
    25
100
AcDbLine
 10
3409.716302679
 20
7365.1270402775
 30
0.0
 11
3407.9598730067
 21
7365.1265634404
 31
0.0
  0
LINE
  5
261
330
1F
100
AcDbEntity
  8
0
  6
Continuous
 62
     7
370
    25
100
AcDbLine
 10
3408.6105322103
 20
7365.1272786961
 30
0.0
 11
3409.716302679
 21
7365.1270402775
 31
0.0
  0
LINE
  5
262
330
1F
100
AcDbEntity
  8
0
  6
Continuous
 62
     7
370
    25
100
AcDbLine
 10
3405.7483320693
 20
7365.1275171147
 30
0.0
 11
3408.6105322103
 21
7365.1272786961
 31
0.0
  0
LINE
  5
263
330
1F
100
AcDbEntity
  8
0
  6
Continuous
 62
     7
370
    25
100
AcDbLine
 10
3403.9919023971
 20
7365.1270402775
 30
0.0
 11
3405.7483320693
 21
7365.1275171147
 31
0.0
  0
LINE
  5
264
330
1F
100
AcDbEntity
  8
0
  6
Continuous
 62
     7
370
    25
100
AcDbLine
 10
3408.6105322103
 20
7365.1268018589
 30
0.0
 11
3408.6105322103
 21
7365.1272786961
 31
0.0
  0
LINE
  5
265
330
1F
100
AcDbEntity
  8
0
  6
Continuous
 62
     7
370
    25
100
AcDbLine
 10
3405.7483320693
 20
7365.1268018589
 30
0.0
 11
3405.7483320693
 21
7365.1275171147
 31
0.0
  0
LINE
  5
266
330
1F
100
AcDbEntity
  8
0
  6
Continuous
 62
     7
370
    25
100
AcDbLine
 10
3380.7534521083
 20
7338.0269540654
 30
0.0
 11
3380.7534521083
 21
7338.0329145298
 31
0.0
  0
LINE
  5
267
330
1F
100
AcDbEntity
  8
0
  6
Continuous
 62
     7
370
    25
100
AcDbLine
 10
3839.9534618119
 20
7338.0269540654
 30
0.0
 11
3839.9534618119
 21
7329.0271295414
 31
0.0
  0
LWPOLYLINE
  5
268
330
1F
100
AcDbEntity
  8
0
  6
Continuous
 62
     7
370
    25
100
AcDbPolyline
 90
       13
 70
   128
 43
0.0
 10
3809.3530183295
 20
7365.1270402775
 10
3809.3556111316
 20
7365.1270402775
 10
3809.5825260142
 20
7365.1268018589
 10
3810.1554011563
 20
7365.1265634404
 10
3811.0278194407
 20
7365.1265634404
 10
3812.1290897588
 20
7365.1263250218
 10
3813.3700137595
 20
7365.1263250218
 10
3814.6500533084
 20
7365.1263250218
 10
3815.8654963235
 20
7365.1265634404
 10
3816.9178908328
 20
7365.1265634404
 10
3817.721972392
 20
7365.1268018589
 10
3818.2125931243
 20
7365.1268018589
 10
3818.35279815
 20
7365.1270402775
  0
LWPOLYLINE
  5
269
330
1F
100
AcDbEntity
  8
0
  6
Continuous
 62
     7
370
    25
100
AcDbPolyline
 90
        5
 70
   128
 43
0.0
 10
3818.3317875127
 20
7365.1270402775
 10
3818.1230967502
 20
7365.1272786961
 10
3817.5502216081
 20
7365.1275171147
 10
3816.6778033236
 20
7365.1275171147
 10
3815.5765330056
 20
7365.1277555333
  0
LINE
  5
26A
330
1F
100
AcDbEntity
  8
0
  6
Continuous
 62
     7
370
    25
100
AcDbLine
 10
3816.7150115231
 20
7365.1270402775
 30
0.0
 11
3815.6092410544
 21
7365.1268018589
 31
0.0
  0
LINE
  5
26B
330
1F
100
AcDbEntity
  8
0
  6
Continuous
 62
     7
370
    25
100
AcDbLine
 10
3814.9585818509
 20
7365.1275171147
 30
0.0
 11
3816.7150115231
 21
7365.1270402775
 31
0.0
  0
LINE
  5
26C
330
1F
100
AcDbEntity
  8
0
  6
Continuous
 62
     7
370
    25
100
AcDbLine
 10
3812.09638171
 20
7365.1272786961
 30
0.0
 11
3814.9585818509
 21
7365.1275171147
 31
0.0
  0
LINE
  5
26D
330
1F
100
AcDbEntity
  8
0
  6
Continuous
 62
     7
370
    25
100
AcDbLine
 10
3810.9906112412
 20
7365.1270402775
 30
0.0
 11
3812.09638171
 21
7365.1272786961
 31
0.0
  0
LINE
  5
26E
330
1F
100
AcDbEntity
  8
0
  6
Continuous
 62
     7
370
    25
100
AcDbLine
 10
3812.7470409135
 20
7365.1265634404
 30
0.0
 11
3810.9906112412
 21
7365.1270402775
 31
0.0
  0
LINE
  5
26F
330
1F
100
AcDbEntity
  8
0
  6
Continuous
 62
     7
370
    25
100
AcDbLine
 10
3815.6092410544
 20
7365.1268018589
 30
0.0
 11
3812.7470409135
 21
7365.1265634404
 31
0.0
  0
LINE
  5
270
330
1F
100
AcDbEntity
  8
0
  6
Continuous
 62
     7
370
    25
100
AcDbLine
 10
3812.09638171
 20
7365.1268018589
 30
0.0
 11
3812.09638171
 21
7365.1272786961
 31
0.0
  0
LINE
  5
271
330
1F
100
AcDbEntity
  8
0
  6
Continuous
 62
     7
370
    25
100
AcDbLine
 10
3814.9585818509
 20
7365.1268018589
 30
0.0
 11
3814.9585818509
 21
7365.1275171147
 31
0.0
  0
LWPOLYLINE
  5
272
330
1F
100
AcDbEntity
  8
0
  6
Continuous
 62
     7
370
    25
100
AcDbPolyline
 90
       17
 70
   128
 43
0.0
 10
3408.5778241614
 20
7365.1322854863
 10
3409.6790944795
 20
7365.1325239048
 10
3410.5515127639
 20
7365.1325239048
 10
3411.1243730048
 20
7365.1327623234
 10
3411.3513027886
 20
7365.133000742
 10
3411.2138842801
 20
7365.1332391606
 10
3410.7232635478
 20
7365.1332391606
 10
3409.9191819886
 20
7365.1334775792
 10
3408.8667874793
 20
7365.1337159977
 10
3407.6513444642
 20
7365.1337159977
 10
3406.3713049153
 20
7365.1337159977
 10
3405.1303809146
 20
7365.1337159977
 10
3404.0291105966
 20
7365.1334775792
 10
3403.1566923121
 20
7365.1334775792
 10
3402.58381717
 20
7365.1332391606
 10
3402.3569022874
 20
7365.133000742
 10
3402.3541604737
 20
7365.133000742
  0
LWPOLYLINE
  5
273
330
1F
100
AcDbEntity
  8
0
  6
Continuous
 62
     7
370
    25
100
AcDbPolyline
 90
        8
 70
   128
 43
0.0
 10
3402.3703431348
 20
7365.133000742
 10
3402.4943207959
 20
7365.1327623234
 10
3402.9849415282
 20
7365.1327623234
 10
3403.7890230874
 20
7365.1325239048
 10
3404.8414175967
 20
7365.1325239048
 10
3406.0568606118
 20
7365.1322854863
 10
3407.3369001607
 20
7365.1322854863
 10
3408.5778241614
 20
7365.1322854863
  0
LINE
  5
274
330
1F
100
AcDbEntity
  8
0
  6
Continuous
 62
     7
370
    25
100
AcDbLine
 10
3405.0976728658
 20
7365.1327623234
 30
0.0
 11
3403.9919023971
 21
7365.133000742
 31
0.0
  0
LINE
  5
275
330
1F
100
AcDbEntity
  8
0
  6
Continuous
 62
     7
370
    25
100
AcDbLine
 10
3407.9598730067
 20
7365.1325239048
 30
0.0
 11
3405.0976728658
 21
7365.1327623234
 31
0.0
  0
LINE
  5
276
330
1F
100
AcDbEntity
  8
0
  6
Continuous
 62
     7
370
    25
100
AcDbLine
 10
3409.716302679
 20
7365.133000742
 30
0.0
 11
3407.9598730067
 21
7365.1325239048
 31
0.0
  0
LINE
  5
277
330
1F
100
AcDbEntity
  8
0
  6
Continuous
 62
     7
370
    25
100
AcDbLine
 10
3408.6105322103
 20
7365.1332391606
 30
0.0
 11
3409.716302679
 21
7365.133000742
 31
0.0
  0
LINE
  5
278
330
1F
100
AcDbEntity
  8
0
  6
Continuous
 62
     7
370
    25
100
AcDbLine
 10
3405.7483320693
 20
7365.1334775792
 30
0.0
 11
3408.6105322103
 21
7365.1332391606
 31
0.0
  0
LINE
  5
279
330
1F
100
AcDbEntity
  8
0
  6
Continuous
 62
     7
370
    25
100
AcDbLine
 10
3403.9919023971
 20
7365.133000742
 30
0.0
 11
3405.7483320693
 21
7365.1334775792
 31
0.0
  0
LINE
  5
27A
330
1F
100
AcDbEntity
  8
0
  6
Continuous
 62
     7
370
    25
100
AcDbLine
 10
3408.6105322103
 20
7365.1327623234
 30
0.0
 11
3408.6105322103
 21
7365.1332391606
 31
0.0
  0
LINE
  5
27B
330
1F
100
AcDbEntity
  8
0
  6
Continuous
 62
     7
370
    25
100
AcDbLine
 10
3405.7483320693
 20
7365.1327623234
 30
0.0
 11
3405.7483320693
 21
7365.1334775792
 31
0.0
  0
LINE
  5
27C
330
1F
100
AcDbEntity
  8
0
  6
Continuous
 62
     7
370
    25
100
AcDbLine
 10
3839.9534618119
 20
7338.0329145298
 30
0.0
 11
3839.9534618119
 21
7338.0269540654
 31
0.0
  0
LINE
  5
27D
330
1F
100
AcDbEntity
  8
0
  6
Continuous
 62
     7
370
    25
100
AcDbLine
 10
3380.7534521083
 20
7335.2500928746
 30
0.0
 11
3380.7534521083
 21
7338.0269540654
 31
0.0
  0
LINE
  5
27E
330
1F
100
AcDbEntity
  8
0
  6
Continuous
 62
     7
370
    25
100
AcDbLine
 10
3380.7534521083
 20
7329.0271295414
 30
0.0
 11
3380.7534521083
 21
7335.2500928746
 31
0.0
  0
LWPOLYLINE
  5
27F
330
1F
100
AcDbEntity
  8
0
  6
Continuous
 62
     7
370
    25
100
AcDbPolyline
 90
       13
 70
   128
 43
0.0
 10
3809.3530183295
 20
7365.133000742
 10
3809.3556111316
 20
7365.133000742
 10
3809.5825260142
 20
7365.1327623234
 10
3810.1554011563
 20
7365.1325239048
 10
3811.0278194407
 20
7365.1325239048
 10
3812.1290897588
 20
7365.1322854863
 10
3813.3700137595
 20
7365.1322854863
 10
3814.6500533084
 20
7365.1322854863
 10
3815.8654963235
 20
7365.1325239048
 10
3816.9178908328
 20
7365.1325239048
 10
3817.721972392
 20
7365.1327623234
 10
3818.2125931243
 20
7365.1327623234
 10
3818.35279815
 20
7365.133000742
  0
LWPOLYLINE
  5
280
330
1F
100
AcDbEntity
  8
0
  6
Continuous
 62
     7
370
    25
100
AcDbPolyline
 90
        5
 70
   128
 43
0.0
 10
3818.3317875127
 20
7365.133000742
 10
3818.1230967502
 20
7365.1332391606
 10
3817.5502216081
 20
7365.1334775792
 10
3816.6778033236
 20
7365.1334775792
 10
3815.5765330056
 20
7365.1337159977
  0
LINE
  5
281
330
1F
100
AcDbEntity
  8
0
  6
Continuous
 62
     7
370
    25
100
AcDbLine
 10
3816.7150115231
 20
7365.133000742
 30
0.0
 11
3815.6092410544
 21
7365.1327623234
 31
0.0
  0
LINE
  5
282
330
1F
100
AcDbEntity
  8
0
  6
Continuous
 62
     7
370
    25
100
AcDbLine
 10
3814.9585818509
 20
7365.1334775792
 30
0.0
 11
3816.7150115231
 21
7365.133000742
 31
0.0
  0
LINE
  5
283
330
1F
100
AcDbEntity
  8
0
  6
Continuous
 62
     7
370
    25
100
AcDbLine
 10
3812.09638171
 20
7365.1332391606
 30
0.0
 11
3814.9585818509
 21
7365.1334775792
 31
0.0
  0
LINE
  5
284
330
1F
100
AcDbEntity
  8
0
  6
Continuous
 62
     7
370
    25
100
AcDbLine
 10
3810.9906112412
 20
7365.133000742
 30
0.0
 11
3812.09638171
 21
7365.1332391606
 31
0.0
  0
LINE
  5
285
330
1F
100
AcDbEntity
  8
0
  6
Continuous
 62
     7
370
    25
100
AcDbLine
 10
3812.7470409135
 20
7365.1325239048
 30
0.0
 11
3810.9906112412
 21
7365.133000742
 31
0.0
  0
LINE
  5
286
330
1F
100
AcDbEntity
  8
0
  6
Continuous
 62
     7
370
    25
100
AcDbLine
 10
3815.6092410544
 20
7365.1327623234
 30
0.0
 11
3812.7470409135
 21
7365.1325239048
 31
0.0
  0
LINE
  5
287
330
1F
100
AcDbEntity
  8
0
  6
Continuous
 62
     7
370
    25
100
AcDbLine
 10
3812.09638171
 20
7365.1327623234
 30
0.0
 11
3812.09638171
 21
7365.1332391606
 31
0.0
  0
LINE
  5
288
330
1F
100
AcDbEntity
  8
0
  6
Continuous
 62
     7
370
    25
100
AcDbLine
 10
3814.9585818509
 20
7365.1327623234
 30
0.0
 11
3814.9585818509
 21
7365.1334775792
 31
0.0
  0
ELLIPSE
  5
289
330
1F
100
AcDbEntity
  8
0
  6
Continuous
 62
     7
370
    25
100
AcDbEllipse
 10
3633.2075895408
 20
7307.6235475176
 30
0.0
 11
10.76933602837789
 21
1.435182639397681E-9
 31
0.0
210
0.0
220
0.0
230
1.0
 40
0.999994785
 41
3.156969693970272
 42
4.720188529020521
  0
LWPOLYLINE
  5
28A
330
1F
100
AcDbEntity
  8
0
  6
Continuous
 62
     7
370
    25
100
AcDbPolyline
 90
        9
 70
   128
 43
0.0
 10
3633.2993844161
 20
7295.8895696507
 10
3633.2991888384
 20
7295.9079278813
 10
3633.2987138639
 20
7295.9625257359
 10
3633.297978119
 20
7296.0509790287
 10
3633.2970058183
 20
7296.1701883183
 10
3633.2958342145
 20
7296.3158620701
 10
3633.2945080111
 20
7296.4827550755
 10
3633.2930737744
 20
7296.6646684514
 10
3633.2915855209
 20
7296.8546880589
  0
ELLIPSE
  5
28B
330
1F
100
AcDbEntity
  8
0
  6
Continuous
 62
     7
370
    25
100
AcDbEllipse
 10
3633.2075895408
 20
7307.6585959443
 30
0.0
 11
11.76933602837835
 21
1.568878360558301E-9
 31
0.0
210
0.0
220
0.0
230
1.0
 40
0.9999952271
 41
3.158628719469754
 42
4.720188529020501
  0
ELLIPSE
  5
28C
330
1F
100
AcDbEntity
  8
0
  6
Continuous
 62
     7
370
    25
100
AcDbEllipse
 10
3778.9961362975
 20
7307.6585959443
 30
0.0
 11
11.76933602837744
 21
-2.117303665727377E-9
 31
0.0
210
0.0
220
0.0
230
1.0
 40
0.9999952271
 41
4.704589431795427
 42
6.266149241346251
  0
LWPOLYLINE
  5
28D
330
1F
100
AcDbEntity
  8
0
  6
Continuous
 62
     7
370
    25
100
AcDbPolyline
 90
        9
 70
   128
 43
0.0
 10
3778.9043431739
 20
7295.8895696507
 10
3778.904536889
 20
7295.9079278813
 10
3778.9050137261
 20
7295.9625257359
 10
3778.905743883
 20
7296.0509790287
 10
3778.9067273597
 20
7296.1701883183
 10
3778.9078896502
 20
7296.3158620701
 10
3778.9092158536
 20
7296.4827550755
 10
3778.9106463651
 20
7296.6646684514
 10
3778.9121364812
 20
7296.8546880589
  0
ELLIPSE
  5
28E
330
1F
100
AcDbEntity
  8
0
  6
Continuous
 62
     7
370
    25
100
AcDbEllipse
 10
3778.9961362975
 20
7307.6235475176
 30
0.0
 11
10.76933602837789
 21
-1.938133209478110E-9
 31
0.0
210
0.0
220
0.0
230
1.0
 40
0.999994785
 41
4.704589431795503
 42
6.267808266845667
  0
ELLIPSE
  5
28F
330
1F
100
AcDbEntity
  8
0
  6
Continuous
 62
     7
370
    25
100
AcDbEllipse
 10
3777.8868511511
 20
7165.4029010948
 30
0.0
 11
131.4563780682934
 21
-3.055902197957038E-9
 31
0.0
210
0.0
220
0.0
230
1.0
 40
0.9999947850000002
 41
1.562996778049038
 42
1.882994100960593
  0
ARC
  5
290
330
1F
100
AcDbEntity
  8
0
  6
Continuous
 62
     7
370
    25
100
AcDbCircle
 10
3737.3256141781
 20
7291.0751268048
 30
0.0
 40
0.5999971661744595
100
AcDbArc
 50
255.5949029061
 51
287.8877021724
  0
LINE
  5
291
330
1F
100
AcDbEntity
  8
0
  6
Continuous
 62
     7
370
    25
100
AcDbLine
 10
3713.8553132872
 20
7296.4839471684
 30
0.0
 11
3737.1763532618
 21
7290.493918787
 31
0.0
  0
ELLIPSE
  5
292
330
1F
100
AcDbEntity
  8
0
  6
Continuous
 62
     7
370
    25
100
AcDbEllipse
 10
3711.1934203198
 20
7286.1204145719
 30
0.0
 11
10.69999999999982
 21
-2.410160959698260E-10
 31
0.0
210
0.0
220
0.0
230
1.0
 40
0.9999947849999999
 41
1.319381210048697
 42
1.570796326817421
  0
LINE
  5
293
330
1F
100
AcDbEntity
  8
0
  6
Continuous
 62
     7
370
    25
100
AcDbLine
 10
3701.0103037218
 20
7296.8203557835
 30
0.0
 11
3711.1934220056
 21
7296.8203557835
 31
0.0
  0
ELLIPSE
  5
294
330
1F
100
AcDbEntity
  8
0
  6
Continuous
 62
     7
370
    25
100
AcDbEllipse
 10
3701.0103055184
 20
7286.1204145719
 30
0.0
 11
10.70000000000027
 21
-2.582964953035116E-10
 31
0.0
210
0.0
220
0.0
230
1.0
 40
0.9999947849999999
 41
1.570796326819036
 42
1.82221144358771
  0
LINE
  5
295
330
1F
100
AcDbEntity
  8
0
  6
Continuous
 62
     7
370
    25
100
AcDbLine
 10
3675.0273799161
 20
7290.493918787
 30
0.0
 11
3698.3484124402
 21
7296.4839471684
 31
0.0
  0
ARC
  5
296
330
1F
100
AcDbEntity
  8
0
  6
Continuous
 62
     7
370
    25
100
AcDbCircle
 10
3674.8781116601
 20
7291.0751268048
 30
0.0
 40
0.5999971661744595
100
AcDbArc
 50
252.1122978276
 51
284.4050970938
  0
ELLIPSE
  5
297
330
1F
100
AcDbEntity
  8
0
  6
Continuous
 62
     7
370
    25
100
AcDbEllipse
 10
3634.3168746872
 20
7165.4029010948
 30
0.0
 11
131.4563780682929
 21
-3.079549060203135E-9
 31
0.0
210
0.0
220
0.0
230
1.0
 40
0.9999947850000002
 41
1.258598552675869
 42
1.578595875587428
  0
ELLIPSE
  5
298
330
1F
100
AcDbEntity
  8
0
  6
Continuous
 62
     7
370
    25
100
AcDbEllipse
 10
3777.8868511511
 20
7165.4379495216
 30
0.0
 11
130.4563780682934
 21
-3.032255335710943E-9
 31
0.0
210
0.0
220
0.0
230
1.0
 40
0.9999947450999999
 41
1.562996778049036
 42
1.882994100960589
  0
ARC
  5
299
330
1F
100
AcDbEntity
  8
0
  6
Continuous
 62
     7
370
    25
100
AcDbCircle
 10
3758.78900422
 20
7297.1241666839
 30
0.0
 40
22.28507540372415
100
AcDbArc
 50
197.2810820238
 51
199.7669807699
  0
ELLIPSE
  5
29A
330
1F
100
AcDbEntity
  8
0
  6
Continuous
 62
     7
370
    25
100
AcDbEllipse
 10
3634.3168746872
 20
7165.4379495216
 30
0.0
 11
130.4563780682929
 21
-3.058630682062358E-9
 31
0.0
210
0.0
220
0.0
230
1.0
 40
0.9999947450999999
 41
1.258598552675891
 42
1.578595875587446
  0
ARC
  5
29B
330
1F
100
AcDbEntity
  8
0
  6
Continuous
 62
     7
370
    25
100
AcDbCircle
 10
3653.4219665137
 20
7297.1215662735
 30
0.0
 40
22.27737785593227
100
AcDbArc
 50
340.2330113953
 51
342.7197631447
  0
ELLIPSE
  5
29C
330
1F
100
AcDbEntity
  8
0
  6
Continuous
 62
     7
370
    25
100
AcDbEllipse
 10
3711.1934203198
 20
7286.1554629987
 30
0.0
 11
9.699999999999818
 21
-2.182787284255028E-10
 31
0.0
210
0.0
220
0.0
230
1.0
 40
0.9999942485
 41
1.319381210048673
 42
1.570796326817399
  0
LINE
  5
29D
330
1F
100
AcDbEntity
  8
0
  6
Continuous
 62
     7
370
    25
100
AcDbLine
 10
3711.1934220056
 20
7295.8554757939
 30
0.0
 11
3711.1934220056
 21
7296.8203557835
 31
0.0
  0
ARC
  5
29E
330
1F
100
AcDbEntity
  8
0
  6
Continuous
 62
     7
370
    25
100
AcDbCircle
 10
3687.3490693244
 20
7303.0486140418
 30
0.0
 40
27.30706538924474
100
AcDbArc
 50
344.062791834
 51
346.0897455981
  0
LINE
  5
29F
330
1F
100
AcDbEntity
  8
0
  6
Continuous
 62
     7
370
    25
100
AcDbLine
 10
3711.1934220056
 20
7295.8554757939
 30
0.0
 11
3701.0103037218
 21
7295.8554757939
 31
0.0
  0
LINE
  5
2A0
330
1F
100
AcDbEntity
  8
0
  6
Continuous
 62
     7
370
    25
100
AcDbLine
 10
3701.0103037218
 20
7295.8554757939
 30
0.0
 11
3701.0103037218
 21
7296.8203557835
 31
0.0
  0
ELLIPSE
  5
2A1
330
1F
100
AcDbEntity
  8
0
  6
Continuous
 62
     7
370
    25
100
AcDbEllipse
 10
3701.0103055184
 20
7286.1554629987
 30
0.0
 11
9.700000000000271
 21
-2.328306436538696E-10
 31
0.0
210
0.0
220
0.0
230
1.0
 40
0.9999942485
 41
1.5707963268189
 42
1.822211443587614
  0
ARC
  5
2A2
330
1F
100
AcDbEntity
  8
0
  6
Continuous
 62
     7
370
    25
100
AcDbCircle
 10
3724.854656403
 20
7303.0486140418
 30
0.0
 40
27.30706538924474
100
AcDbArc
 50
193.9102544019
 51
195.937208166
  0
LINE
  5
2A3
330
1F
100
AcDbEntity
  8
0
  6
Continuous
 62
     7
370
    25
100
AcDbLine
 10
3736.9275783757
 20
7289.5605100499
 30
0.0
 11
3713.606538401
 21
7295.5505384312
 31
0.0
  0
ARC
  5
2A4
330
1F
100
AcDbEntity
  8
0
  6
Continuous
 62
     7
370
    25
100
AcDbCircle
 10
3710.6520920453
 20
7297.0633876727
 30
0.0
 40
27.32570867374305
100
AcDbArc
 50
344.0634833625
 51
346.0890540696
  0
LINE
  5
2A5
330
1F
100
AcDbEntity
  8
0
  6
Continuous
 62
     7
370
    25
100
AcDbLine
 10
3698.5971873263
 20
7295.5505384312
 30
0.0
 11
3675.2761548022
 21
7289.5605100499
 31
0.0
  0
ARC
  5
2A6
330
1F
100
AcDbEntity
  8
0
  6
Continuous
 62
     7
370
    25
100
AcDbCircle
 10
3701.4855324068
 20
7297.0457681776
 30
0.0
 40
27.257302941759
100
AcDbArc
 50
193.9084039486
 51
195.9390586193
  0
ARC
  5
2A7
330
1F
100
AcDbEntity
  8
0
  6
Continuous
 62
     7
370
    25
100
AcDbCircle
 10
3737.3256141781
 20
7291.1101752316
 30
0.0
 40
1.599997156117802
100
AcDbArc
 50
255.5949478086999
 51
287.8876477006
  0
ARC
  5
2A8
330
1F
100
AcDbEntity
  8
0
  6
Continuous
 62
     7
370
    25
100
AcDbCircle
 10
3674.8781116601
 20
7291.1101752316
 30
0.0
 40
1.599997156117941
100
AcDbArc
 50
252.1123522994
 51
284.4050521912999
  0
ELLIPSE
  5
2A9
330
1F
100
AcDbEntity
  8
0
  6
Continuous
 62
     7
370
    25
100
AcDbEllipse
 10
3441.7075895408
 20
7307.6235475176
 30
0.0
 11
10.76933602837789
 21
1.435182639397681E-9
 31
0.0
210
0.0
220
0.0
230
1.0
 40
0.999994785
 41
3.156969693970272
 42
4.720188529020521
  0
LWPOLYLINE
  5
2AA
330
1F
100
AcDbEntity
  8
0
  6
Continuous
 62
     7
370
    25
100
AcDbPolyline
 90
        9
 70
   128
 43
0.0
 10
3441.7993818978
 20
7295.8895696507
 10
3441.7991881827
 20
7295.9079278813
 10
3441.7987113456
 20
7295.9625257359
 10
3441.7979811887
 20
7296.0509790287
 10
3441.7970126132
 20
7296.1701883183
 10
3441.7958354215
 20
7296.3158620701
 10
3441.7945092181
 20
7296.4827550755
 10
3441.7930787066
 20
7296.6646684514
 10
3441.7915885905
 20
7296.8546880589
  0
ELLIPSE
  5
2AB
330
1F
100
AcDbEntity
  8
0
  6
Continuous
 62
     7
370
    25
100
AcDbEllipse
 10
3441.7075895408
 20
7307.6585959443
 30
0.0
 11
11.76933602837789
 21
1.568878360558301E-9
 31
0.0
210
0.0
220
0.0
230
1.0
 40
0.9999952271
 41
3.158628719469753
 42
4.720188529020501
  0
ELLIPSE
  5
2AC
330
1F
100
AcDbEntity
  8
0
  6
Continuous
 62
     7
370
    25
100
AcDbEllipse
 10
3587.4961362975
 20
7307.6585959443
 30
0.0
 11
11.76933602837744
 21
-2.117303665727377E-9
 31
0.0
210
0.0
220
0.0
230
1.0
 40
0.9999952271
 41
4.704589431795427
 42
6.266149241346251
  0
LWPOLYLINE
  5
2AD
330
1F
100
AcDbEntity
  8
0
  6
Continuous
 62
     7
370
    25
100
AcDbPolyline
 90
        9
 70
   128
 43
0.0
 10
3587.4043425182
 20
7295.8895696507
 10
3587.4045362333
 20
7295.9079278813
 10
3587.4050112078
 20
7295.9625257359
 10
3587.4057488153
 20
7296.0509790287
 10
3587.4067192534
 20
7296.1701883183
 10
3587.4078908572
 20
7296.3158620701
 10
3587.4092170606
 20
7296.4827550755
 10
3587.4106512974
 20
7296.6646684514
 10
3587.4121414135
 20
7296.8546880589
  0
ELLIPSE
  5
2AE
330
1F
100
AcDbEntity
  8
0
  6
Continuous
 62
     7
370
    25
100
AcDbEllipse
 10
3587.4961362975
 20
7307.6235475176
 30
0.0
 11
10.76933602837789
 21
-1.938133209478110E-9
 31
0.0
210
0.0
220
0.0
230
1.0
 40
0.999994785
 41
4.704589431795503
 42
6.267808266845667
  0
ELLIPSE
  5
2AF
330
1F
100
AcDbEntity
  8
0
  6
Continuous
 62
     7
370
    25
100
AcDbEllipse
 10
3586.3868511511
 20
7165.4029010948
 30
0.0
 11
131.4563780682934
 21
-3.055902197957038E-9
 31
0.0
210
0.0
220
0.0
230
1.0
 40
0.9999947850000002
 41
1.562996778049038
 42
1.882994100960593
  0
ARC
  5
2B0
330
1F
100
AcDbEntity
  8
0
  6
Continuous
 62
     7
370
    25
100
AcDbCircle
 10
3545.8256141781
 20
7291.0751268048
 30
0.0
 40
0.5999971661744595
100
AcDbArc
 50
255.5949029061
 51
287.8877021724
  0
LINE
  5
2B1
330
1F
100
AcDbEntity
  8
0
  6
Continuous
 62
     7
370
    25
100
AcDbLine
 10
3522.3553126315
 20
7296.4839471684
 30
0.0
 11
3545.6763526062
 21
7290.493918787
 31
0.0
  0
ELLIPSE
  5
2B2
330
1F
100
AcDbEntity
  8
0
  6
Continuous
 62
     7
370
    25
100
AcDbEllipse
 10
3519.6934203198
 20
7286.1204145719
 30
0.0
 11
10.69999999999982
 21
-2.410160959698260E-10
 31
0.0
210
0.0
220
0.0
230
1.0
 40
0.9999947849999999
 41
1.319381210048697
 42
1.570796326817421
  0
LINE
  5
2B3
330
1F
100
AcDbEntity
  8
0
  6
Continuous
 62
     7
370
    25
100
AcDbLine
 10
3509.5103030662
 20
7296.8203557835
 30
0.0
 11
3519.6934213499
 21
7296.8203557835
 31
0.0
  0
ELLIPSE
  5
2B4
330
1F
100
AcDbEntity
  8
0
  6
Continuous
 62
     7
370
    25
100
AcDbEllipse
 10
3509.5103055184
 20
7286.1204145719
 30
0.0
 11
10.70000000000027
 21
-2.582964953035116E-10
 31
0.0
210
0.0
220
0.0
230
1.0
 40
0.9999947849999999
 41
1.570796326819036
 42
1.82221144358771
  0
LINE
  5
2B5
330
1F
100
AcDbEntity
  8
0
  6
Continuous
 62
     7
370
    25
100
AcDbLine
 10
3483.5273718099
 20
7290.493918787
 30
0.0
 11
3506.8484117845
 21
7296.4839471684
 31
0.0
  0
ARC
  5
2B6
330
1F
100
AcDbEntity
  8
0
  6
Continuous
 62
     7
370
    25
100
AcDbCircle
 10
3483.3781116601
 20
7291.0751268048
 30
0.0
 40
0.5999971661744595
100
AcDbArc
 50
252.1122978276
 51
284.4050970938
  0
ELLIPSE
  5
2B7
330
1F
100
AcDbEntity
  8
0
  6
Continuous
 62
     7
370
    25
100
AcDbEllipse
 10
3442.8168746872
 20
7165.4029010948
 30
0.0
 11
131.4563780682929
 21
-3.079549060203135E-9
 31
0.0
210
0.0
220
0.0
230
1.0
 40
0.9999947850000002
 41
1.258598552675869
 42
1.578595875587428
  0
ELLIPSE
  5
2B8
330
1F
100
AcDbEntity
  8
0
  6
Continuous
 62
     7
370
    25
100
AcDbEllipse
 10
3586.3868511511
 20
7165.4379495216
 30
0.0
 11
130.4563780682934
 21
-3.032255335710943E-9
 31
0.0
210
0.0
220
0.0
230
1.0
 40
0.9999947450999999
 41
1.562996778049036
 42
1.882994100960589
  0
ARC
  5
2B9
330
1F
100
AcDbEntity
  8
0
  6
Continuous
 62
     7
370
    25
100
AcDbCircle
 10
3567.281758558
 20
7297.1215662735
 30
0.0
 40
22.27737785593269
100
AcDbArc
 50
197.2802368553
 51
199.7669886047
  0
ELLIPSE
  5
2BA
330
1F
100
AcDbEntity
  8
0
  6
Continuous
 62
     7
370
    25
100
AcDbEllipse
 10
3442.8168746872
 20
7165.4379495216
 30
0.0
 11
130.4563780682929
 21
-3.058630682062358E-9
 31
0.0
210
0.0
220
0.0
230
1.0
 40
0.9999947450999999
 41
1.258598552675891
 42
1.578595875587446
  0
ARC
  5
2BB
330
1F
100
AcDbEntity
  8
0
  6
Continuous
 62
     7
370
    25
100
AcDbCircle
 10
3461.9147208517
 20
7297.1241666839
 30
0.0
 40
22.28507540372415
100
AcDbArc
 50
340.2330192301
 51
342.7189179762
  0
ELLIPSE
  5
2BC
330
1F
100
AcDbEntity
  8
0
  6
Continuous
 62
     7
370
    25
100
AcDbEllipse
 10
3519.6934203198
 20
7286.1554629987
 30
0.0
 11
9.699999999999818
 21
-2.182787284255028E-10
 31
0.0
210
0.0
220
0.0
230
1.0
 40
0.9999942485
 41
1.319381210048673
 42
1.570796326817399
  0
LINE
  5
2BD
330
1F
100
AcDbEntity
  8
0
  6
Continuous
 62
     7
370
    25
100
AcDbLine
 10
3519.6934213499
 20
7295.8554757939
 30
0.0
 11
3519.6934213499
 21
7296.8203557835
 31
0.0
  0
ARC
  5
2BE
330
1F
100
AcDbEntity
  8
0
  6
Continuous
 62
     7
370
    25
100
AcDbCircle
 10
3495.8490686687
 20
7303.0486140418
 30
0.0
 40
27.30706538924474
100
AcDbArc
 50
344.062791834
 51
346.0897455981
  0
LINE
  5
2BF
330
1F
100
AcDbEntity
  8
0
  6
Continuous
 62
     7
370
    25
100
AcDbLine
 10
3519.6934213499
 20
7295.8554757939
 30
0.0
 11
3509.5103030662
 21
7295.8554757939
 31
0.0
  0
LINE
  5
2C0
330
1F
100
AcDbEntity
  8
0
  6
Continuous
 62
     7
370
    25
100
AcDbLine
 10
3509.5103030662
 20
7295.8554757939
 30
0.0
 11
3509.5103030662
 21
7296.8203557835
 31
0.0
  0
ELLIPSE
  5
2C1
330
1F
100
AcDbEntity
  8
0
  6
Continuous
 62
     7
370
    25
100
AcDbEllipse
 10
3509.5103055184
 20
7286.1554629987
 30
0.0
 11
9.700000000000271
 21
-2.328306436538696E-10
 31
0.0
210
0.0
220
0.0
230
1.0
 40
0.9999942485
 41
1.5707963268189
 42
1.822211443587614
  0
ARC
  5
2C2
330
1F
100
AcDbEntity
  8
0
  6
Continuous
 62
     7
370
    25
100
AcDbCircle
 10
3533.3546557473
 20
7303.0486140418
 30
0.0
 40
27.30706538924474
100
AcDbArc
 50
193.9102544019
 51
195.937208166
  0
LINE
  5
2C3
330
1F
100
AcDbEntity
  8
0
  6
Continuous
 62
     7
370
    25
100
AcDbLine
 10
3545.4275777201
 20
7289.5605100499
 30
0.0
 11
3522.1065377454
 21
7295.5505384312
 31
0.0
  0
ARC
  5
2C4
330
1F
100
AcDbEntity
  8
0
  6
Continuous
 62
     7
370
    25
100
AcDbCircle
 10
3519.1520913897
 20
7297.0633876727
 30
0.0
 40
27.32570867374305
100
AcDbArc
 50
344.0634833625
 51
346.0890540696
  0
LINE
  5
2C5
330
1F
100
AcDbEntity
  8
0
  6
Continuous
 62
     7
370
    25
100
AcDbLine
 10
3507.0971866707
 20
7295.5505384312
 30
0.0
 11
3483.776146696
 21
7289.5605100499
 31
0.0
  0
ARC
  5
2C6
330
1F
100
AcDbEntity
  8
0
  6
Continuous
 62
     7
370
    25
100
AcDbCircle
 10
3510.0516330264
 20
7297.0633876727
 30
0.0
 40
27.32570867374349
100
AcDbArc
 50
193.9109459304
 51
195.9365166375
  0
ARC
  5
2C7
330
1F
100
AcDbEntity
  8
0
  6
Continuous
 62
     7
370
    25
100
AcDbCircle
 10
3545.8256141781
 20
7291.1101752316
 30
0.0
 40
1.599997156117802
100
AcDbArc
 50
255.5949478086999
 51
287.8876477006
  0
ARC
  5
2C8
330
1F
100
AcDbEntity
  8
0
  6
Continuous
 62
     7
370
    25
100
AcDbCircle
 10
3483.3781116601
 20
7291.1101752316
 30
0.0
 40
1.599997156117941
100
AcDbArc
 50
252.1123522994
 51
284.4050521912999
  0
LINE
  5
2C9
330
1F
100
AcDbEntity
  8
0
  6
Continuous
 62
     7
370
    25
100
AcDbLine
 10
3390.3534507016
 20
7361.5242971287
 30
0.0
 11
3389.3534486751
 21
7361.5242971287
 31
0.0
  0
LINE
  5
2CA
330
1F
100
AcDbEntity
  8
0
  6
Continuous
 62
     7
370
    25
100
AcDbLine
 10
3390.3534507016
 20
7361.5242971287
 30
0.0
 11
3394.3534588078
 21
7361.5242971287
 31
0.0
  0
LINE
  5
2CB
330
1F
100
AcDbEntity
  8
0
  6
Continuous
 62
     7
370
    25
100
AcDbLine
 10
3403.3534621457
 20
7361.5242971287
 30
0.0
 11
3433.101857231
 21
7361.5242971287
 31
0.0
  0
LINE
  5
2CC
330
1F
100
AcDbEntity
  8
0
  6
Continuous
 62
     7
370
    25
100
AcDbLine
 10
3442.1018605689
 20
7361.5242971287
 30
0.0
 11
3587.1018638472
 21
7361.5242971287
 31
0.0
  0
LINE
  5
2CD
330
1F
100
AcDbEntity
  8
0
  6
Continuous
 62
     7
370
    25
100
AcDbLine
 10
3596.1018625284
 20
7361.5242971287
 30
0.0
 11
3605.8534557568
 21
7361.5242971287
 31
0.0
  0
LINE
  5
2CE
330
1F
100
AcDbEntity
  8
0
  6
Continuous
 62
     7
370
    25
100
AcDbLine
 10
3614.8534558351
 20
7361.5242971287
 30
0.0
 11
3624.6018625433
 21
7361.5242971287
 31
0.0
  0
LINE
  5
2CF
330
1F
100
AcDbEntity
  8
0
  6
Continuous
 62
     7
370
    25
100
AcDbLine
 10
3633.6018630872
 20
7361.5242971287
 30
0.0
 11
3778.6018645028
 21
7361.5242971287
 31
0.0
  0
LINE
  5
2D0
330
1F
100
AcDbEntity
  8
0
  6
Continuous
 62
     7
370
    25
100
AcDbLine
 10
3787.6018678407
 20
7361.5242971287
 30
0.0
 11
3817.3534517745
 21
7361.5242971287
 31
0.0
  0
LINE
  5
2D1
330
1F
100
AcDbEntity
  8
0
  6
Continuous
 62
     7
370
    25
100
AcDbLine
 10
3826.3534551124
 20
7361.5242971287
 30
0.0
 11
3830.3534632186
 21
7361.5242971287
 31
0.0
  0
LINE
  5
2D2
330
1F
100
AcDbEntity
  8
0
  6
Continuous
 62
     7
370
    25
100
AcDbLine
 10
3831.353450344
 20
7361.5242971287
 30
0.0
 11
3830.3534632186
 21
7361.5242971287
 31
0.0
  0
LINE
  5
2D3
330
1F
100
AcDbEntity
  8
0
  6
Continuous
 62
     7
370
    25
100
AcDbLine
 10
3831.353450344
 20
7361.5242971287
 30
0.0
 11
3831.353450344
 21
7361.4511026249
 31
0.0
  0
LINE
  5
2D4
330
1F
100
AcDbEntity
  8
0
  6
Continuous
 62
     7
370
    25
100
AcDbLine
 10
3830.3534632186
 20
7361.4511026249
 30
0.0
 11
3831.353450344
 21
7361.4511026249
 31
0.0
  0
LINE
  5
2D5
330
1F
100
AcDbEntity
  8
0
  6
Continuous
 62
     7
370
    25
100
AcDbLine
 10
3830.3534632186
 20
7361.4511026249
 30
0.0
 11
3390.3534507016
 21
7361.4511026249
 31
0.0
  0
LINE
  5
2D6
330
1F
100
AcDbEntity
  8
0
  6
Continuous
 62
     7
370
    25
100
AcDbLine
 10
3389.3534486751
 20
7361.4511026249
 30
0.0
 11
3390.3534507016
 21
7361.4511026249
 31
0.0
  0
LINE
  5
2D7
330
1F
100
AcDbEntity
  8
0
  6
Continuous
 62
     7
370
    25
100
AcDbLine
 10
3389.3534486751
 20
7361.4511026249
 30
0.0
 11
3389.3534486751
 21
7361.5242971287
 31
0.0
  0
LINE
  5
2D8
330
1F
100
AcDbEntity
  8
0
  6
Continuous
 62
     7
370
    25
100
AcDbLine
 10
3830.3534632186
 20
7359.4510091649
 30
0.0
 11
3830.3534632186
 21
7361.4511026249
 31
0.0
  0
LINE
  5
2D9
330
1F
100
AcDbEntity
  8
0
  6
Continuous
 62
     7
370
    25
100
AcDbLine
 10
3830.3534632186
 20
7359.4510091649
 30
0.0
 11
3390.3534507016
 21
7359.4510091649
 31
0.0
  0
LINE
  5
2DA
330
1F
100
AcDbEntity
  8
0
  6
Continuous
 62
     7
370
    25
100
AcDbLine
 10
3390.3534507016
 20
7361.4511026249
 30
0.0
 11
3390.3534507016
 21
7359.4510091649
 31
0.0
  0
LINE
  5
2DB
330
1F
100
AcDbEntity
  8
0
  6
Continuous
 62
     7
370
    25
100
AcDbLine
 10
3831.353450344
 20
7361.4511026249
 30
0.0
 11
3831.353450344
 21
7359.4512475834
 31
0.0
  0
ARC
  5
2DC
330
1F
100
AcDbEntity
  8
0
  6
Continuous
 62
     7
370
    25
100
AcDbCircle
 10
3830.855736659
 20
7349.8887514875
 30
0.0
 40
9.575439963588806
100
AcDbArc
 50
87.020528548
 51
93.00679255989999
  0
ARC
  5
2DD
330
1F
100
AcDbEntity
  8
0
  6
Continuous
 62
     7
370
    25
100
AcDbCircle
 10
3389.8511747777
 20
7349.9094423707
 30
0.0
 40
9.554777757243416
100
AcDbArc
 50
86.9866843431
 51
92.9859949561
  0
LINE
  5
2DE
330
1F
100
AcDbEntity
  8
0
  6
Continuous
 62
     7
370
    25
100
AcDbLine
 10
3389.3534486751
 20
7359.4512475834
 30
0.0
 11
3389.3534486751
 21
7361.4511026249
 31
0.0
  0
LINE
  5
2DF
330
1F
100
AcDbEntity
  8
0
  6
Continuous
 62
     7
370
    25
100
AcDbLine
 10
3832.0502286414
 20
7359.4507707463
 30
0.0
 11
3388.6566852788
 21
7359.4507707463
 31
0.0
  0
SPLINE
  5
2E0
330
1F
100
AcDbEntity
  8
0
  6
Continuous
 62
     7
370
    25
100
AcDbSpline
210
0.0
220
0.0
230
1.0
 70
     8
 71
     3
 72
    13
 73
     9
 74
     0
 42
0.000000001
 43
0.00000001
 40
0.0
 40
0.0
 40
0.0
 40
0.0
 40
0.225480867560151
 40
0.3573546452622536
 40
0.5016503339354397
 40
0.6905232282472331
 40
0.8302999398037343
 40
1.0
 40
1.0
 40
1.0
 40
1.0
 10
3832.334363983055
 20
7356.650544534728
 30
0.0
 10
3832.317588084929
 20
7356.982382263474
 30
0.0
 10
3832.291000706634
 20
7357.508297189757
 30
0.0
 10
3832.245398941284
 20
7358.169662623853
 30
0.0
 10
3832.200876071374
 20
7358.705374267232
 30
0.0
 10
3832.152079921407
 20
7359.118119461446
 30
0.0
 10
3832.100444862917
 20
7359.397080880106
 30
0.0
 10
3832.068012672783
 20
7359.431756526653
 30
0.0
 10
3832.05022864141
 20
7359.450770746276
 30
0.0
  0
LINE
  5
2E1
330
1F
100
AcDbEntity
  8
0
  6
Continuous
 62
     7
370
    25
100
AcDbLine
 10
3388.3725499371
 20
7356.6505445347
 30
0.0
 11
3832.3343639831
 21
7356.6505445347
 31
0.0
  0
SPLINE
  5
2E2
330
1F
100
AcDbEntity
  8
0
  6
Continuous
 62
     7
370
    25
100
AcDbSpline
210
0.0
220
0.0
230
1.0
 70
     8
 71
     3
 72
    13
 73
     9
 74
     0
 42
0.000000001
 43
0.00000001
 40
0.0
 40
0.0
 40
0.0
 40
0.0
 40
0.1695936977996385
 40
0.3092558214731695
 40
0.4979677332004233
 40
0.6423752750264861
 40
0.7743471138570598
 40
0.9999999999999999
 40
0.9999999999999999
 40
0.9999999999999999
 40
0.9999999999999999
 10
3388.656685278793
 20
7359.450770746276
 30
0.0
 10
3388.638912104923
 20
7359.431707090154
 30
0.0
 10
3388.606502542795
 20
7359.396944320601
 30
0.0
 10
3388.554891694972
 20
7359.118690269437
 30
0.0
 10
3388.506139423761
 20
7358.70628366463
 30
0.0
 10
3388.461587059345
 20
7358.170619878889
 30
0.0
 10
3388.4159512146
 20
7357.508992730414
 30
0.0
 10
3388.389340609947
 20
7356.982652795475
 30
0.0
 10
3388.372549937149
 20
7356.650544534728
 30
0.0
  0
SPLINE
  5
2E3
330
1F
100
AcDbEntity
  8
0
  6
Continuous
 62
     7
370
    25
100
AcDbSpline
210
0.0
220
0.0
230
1.0
 70
     8
 71
     3
 72
     9
 73
     5
 74
     0
 42
0.000000001
 43
0.00000001
 40
0.0
 40
0.0
 40
0.0
 40
0.0
 40
0.9119694186876972
 40
1.0
 40
1.0
 40
1.0
 40
1.0
 10
3832.334363983055
 20
7356.650782953307
 30
0.0
 10
3832.317973317545
 20
7356.747525302959
 30
0.0
 10
3832.300000493925
 20
7356.853605997845
 30
0.0
 10
3832.27781502402
 20
7356.945267146029
 30
0.0
 10
3832.275862024208
 20
7356.953336130187
 30
0.0
  0
LINE
  5
2E4
330
1F
100
AcDbEntity
  8
0
  6
Continuous
 62
     7
370
    25
100
AcDbLine
 10
3832.3343639831
 20
7356.6505445347
 30
0.0
 11
3832.3343639831
 21
7356.6507829533
 31
0.0
  0
SPLINE
  5
2E5
330
1F
100
AcDbEntity
  8
0
  6
Continuous
 62
     7
370
    25
100
AcDbSpline
210
0.0
220
0.0
230
1.0
 70
     8
 71
     3
 72
     9
 73
     5
 74
     0
 42
0.000000001
 43
0.00000001
 40
0.0
 40
0.0
 40
0.0
 40
0.0
 40
0.0887650429478054
 40
1.0
 40
1.0
 40
1.0
 40
1.0
 10
3388.431186006446
 20
7356.953812967346
 30
0.0
 10
3388.429202543989
 20
7356.945665275457
 30
0.0
 10
3388.406857458671
 20
7356.853875854559
 30
0.0
 10
3388.388907011817
 20
7356.747613199356
 30
0.0
 10
3388.372549937149
 20
7356.650782953307
 30
0.0
  0
LINE
  5
2E6
330
1F
100
AcDbEntity
  8
0
  6
Continuous
 62
     7
370
    25
100
AcDbLine
 10
3388.3725499371
 20
7356.6505445347
 30
0.0
 11
3388.3725499371
 21
7356.6507829533
 31
0.0
  0
SPLINE
  5
2E7
330
1F
100
AcDbEntity
  8
0
  6
Continuous
 62
     7
370
    25
100
AcDbSpline
210
0.0
220
0.0
230
1.0
 70
     8
 71
     3
 72
     9
 73
     5
 74
     0
 42
0.000000001
 43
0.00000001
 40
0.0
 40
0.0
 40
0.0
 40
0.0
 40
0.5007193707905604
 40
1.0
 40
1.0
 40
1.0
 40
1.0
 10
3832.999909446617
 20
7354.925347696349
 30
0.0
 10
3832.836152582857
 20
7355.192984637791
 30
0.0
 10
3832.509109385984
 20
7355.727489506295
 30
0.0
 10
3832.392556554229
 20
7356.34315478633
 30
0.0
 10
3832.334363983055
 20
7356.650544534728
 30
0.0
  0
LINE
  5
2E8
330
1F
100
AcDbEntity
  8
0
  6
Continuous
 62
     7
370
    25
100
AcDbLine
 10
3832.9999094466
 20
7311.4504350529
 30
0.0
 11
3832.9999094466
 21
7354.9253476963
 31
0.0
  0
LINE
  5
2E9
330
1F
100
AcDbEntity
  8
0
  6
Continuous
 62
     7
370
    25
100
AcDbLine
 10
3832.9999094466
 20
7311.4504350529
 30
0.0
 11
3832.6393609504
 21
7310.2504743443
 31
0.0
  0
LINE
  5
2EA
330
1F
100
AcDbEntity
  8
0
  6
Continuous
 62
     7
370
    25
100
AcDbLine
 10
3832.6393609504
 20
7310.2504743443
 30
0.0
 11
3388.0675380687
 21
7310.2504743443
 31
0.0
  0
LINE
  5
2EB
330
1F
100
AcDbEntity
  8
0
  6
Continuous
 62
     7
370
    25
100
AcDbLine
 10
3387.7070044736
 20
7311.4504350529
 30
0.0
 11
3388.0675380687
 21
7310.2504743443
 31
0.0
  0
LINE
  5
2EC
330
1F
100
AcDbEntity
  8
0
  6
Continuous
 62
     7
370
    25
100
AcDbLine
 10
3387.7070044736
 20
7311.4504350529
 30
0.0
 11
3387.7070044736
 21
7354.9253476963
 31
0.0
  0
SPLINE
  5
2ED
330
1F
100
AcDbEntity
  8
0
  6
Continuous
 62
     7
370
    25
100
AcDbSpline
210
0.0
220
0.0
230
1.0
 70
     8
 71
     3
 72
     9
 73
     5
 74
     0
 42
0.000000001
 43
0.00000001
 40
0.0
 40
0.0
 40
0.0
 40
0.0
 40
0.5007193707905604
 40
1.0
 40
1.0
 40
1.0
 40
1.0
 10
3387.707004473586
 20
7354.925347696349
 30
0.0
 10
3387.870761337346
 20
7355.192984637791
 30
0.0
 10
3388.19780453422
 20
7355.727489506295
 30
0.0
 10
3388.314357365974
 20
7356.34315478633
 30
0.0
 10
3388.372549937149
 20
7356.650544534728
 30
0.0
  0
SPLINE
  5
2EE
330
1F
100
AcDbEntity
  8
0
  6
Continuous
 62
     7
370
    25
100
AcDbSpline
210
0.0
220
0.0
230
1.0
 70
     8
 71
     3
 72
     9
 73
     5
 74
     0
 42
0.000000001
 43
0.00000001
 40
0.0
 40
0.0
 40
0.0
 40
0.0
 40
0.5007815247338905
 40
0.9999999999999999
 40
0.9999999999999999
 40
0.9999999999999999
 40
0.9999999999999999
 10
3832.999909446617
 20
7354.925824533508
 30
0.0
 10
3832.836155124776
 20
7355.193461822736
 30
0.0
 10
3832.50915759441
 20
7355.727901046247
 30
0.0
 10
3832.392567774955
 20
7356.343476375851
 30
0.0
 10
3832.334363983055
 20
7356.650782953307
 30
0.0
  0
SPLINE
  5
2EF
330
1F
100
AcDbEntity
  8
0
  6
Continuous
 62
     7
370
    25
100
AcDbSpline
210
0.0
220
0.0
230
1.0
 70
     8
 71
     3
 72
     9
 73
     5
 74
     0
 42
0.000000001
 43
0.00000001
 40
0.0
 40
0.0
 40
0.0
 40
0.0
 40
0.5007815247338905
 40
0.9999999999999999
 40
0.9999999999999999
 40
0.9999999999999999
 40
0.9999999999999999
 10
3387.707004473586
 20
7354.925824533508
 30
0.0
 10
3387.870758795427
 20
7355.193461822736
 30
0.0
 10
3388.197756325793
 20
7355.727901046247
 30
0.0
 10
3388.314346145248
 20
7356.343476375851
 30
0.0
 10
3388.372549937149
 20
7356.650782953307
 30
0.0
  0
LINE
  5
2F0
330
1F
100
AcDbEntity
  8
0
  6
Continuous
 62
     7
370
    25
100
AcDbLine
 10
3388.3124386529
 20
7307.4509633885
 30
0.0
 11
3832.3944752673
 21
7307.4509633885
 31
0.0
  0
SPLINE
  5
2F1
330
1F
100
AcDbEntity
  8
0
  6
Continuous
 62
     7
370
    25
100
AcDbSpline
210
0.0
220
0.0
230
1.0
 70
     8
 71
     3
 72
    13
 73
     9
 74
     0
 42
0.000000001
 43
0.00000001
 40
0.0
 40
0.0
 40
0.0
 40
0.0
 40
0.222732295824995
 40
0.3547696008944255
 40
0.5003621561551259
 40
0.6774410783988151
 40
0.8206571720048879
 40
1.0
 40
1.0
 40
1.0
 40
1.0
 10
3388.067538068672
 20
7310.250474344299
 30
0.0
 10
3388.083971175665
 20
7309.922904477887
 30
0.0
 10
3388.110145946539
 20
7309.401148841412
 30
0.0
 10
3388.150292490835
 20
7308.740160187821
 30
0.0
 10
3388.187578033427
 20
7308.214770243522
 30
0.0
 10
3388.227208860795
 20
7307.80288851429
 30
0.0
 10
3388.269586259243
 20
7307.510207002262
 30
0.0
 10
3388.297126354281
 20
7307.472132705478
 30
0.0
 10
3388.312438652893
 20
7307.450963388488
 30
0.0
  0
SPLINE
  5
2F2
330
1F
100
AcDbEntity
  8
0
  6
Continuous
 62
     7
370
    25
100
AcDbSpline
210
0.0
220
0.0
230
1.0
 70
     8
 71
     3
 72
    13
 73
     9
 74
     0
 42
0.000000001
 43
0.00000001
 40
0.0
 40
0.0
 40
0.0
 40
0.0
 40
0.1792253530192994
 40
0.3222976265798306
 40
0.4992436848084242
 40
0.6449192914017541
 40
0.7771003969588469
 40
1.0
 40
1.0
 40
1.0
 40
1.0
 10
3832.394475267311
 20
7307.450963388488
 30
0.0
 10
3832.409776140768
 20
7307.472079613113
 30
0.0
 10
3832.43729141758
 20
7307.51005252802
 30
0.0
 10
3832.479653764882
 20
7307.80211425404
 30
0.0
 10
3832.519240741126
 20
7308.213905419654
 30
0.0
 10
3832.556557122568
 20
7308.738984520458
 30
0.0
 10
3832.596722337624
 20
7309.400439323029
 30
0.0
 10
3832.622917259012
 20
7309.92265613839
 30
0.0
 10
3832.63936095037
 20
7310.250474344299
 30
0.0
  0
LINE
  5
2F3
330
1F
100
AcDbEntity
  8
0
  6
Continuous
 62
     7
370
    25
100
AcDbLine
 10
3835.3534584502
 20
7356.6510213719
 30
0.0
 11
3833.3534543971
 21
7356.6510213719
 31
0.0
  0
LINE
  5
2F4
330
1F
100
AcDbEntity
  8
0
  6
Continuous
 62
     7
370
    25
100
AcDbLine
 10
3835.3534584502
 20
7354.9258245335
 30
0.0
 11
3833.3534543971
 21
7354.9258245335
 31
0.0
  0
SPLINE
  5
2F5
330
1F
100
AcDbEntity
  8
0
  6
Continuous
 62
     7
370
    25
100
AcDbSpline
210
0.0
220
0.0
230
1.0
 70
    24
 71
     3
 72
     9
 73
     5
 74
     0
 42
0.000000001
 43
0.00000001
 40
0.0
 40
0.0
 40
0.0
 40
0.0
 40
0.5007036082431598
 40
0.9999999999999999
 40
0.9999999999999999
 40
0.9999999999999999
 40
0.9999999999999999
 10
3833.353454397102
 20
7354.925824533508
 30
0.0
 10
3833.353454397102
 20
7355.193466447619
 30
0.0
 10
3833.353454397102
 20
7355.727998074126
 30
0.0
 10
3833.353454397102
 20
7356.34363571778
 30
0.0
 10
3833.353454397102
 20
7356.651021371887
 30
0.0
  0
SPLINE
  5
2F6
330
1F
100
AcDbEntity
  8
0
  6
Continuous
 62
     7
370
    25
100
AcDbSpline
210
0.0
220
0.0
230
1.0
 70
    24
 71
     3
 72
     9
 73
     5
 74
     0
 42
0.000000001
 43
0.00000001
 40
0.0
 40
0.0
 40
0.0
 40
0.0
 40
0.5007036082431598
 40
0.9999999999999999
 40
0.9999999999999999
 40
0.9999999999999999
 40
0.9999999999999999
 10
3835.353458450218
 20
7354.925824533508
 30
0.0
 10
3835.353458450218
 20
7355.193466447619
 30
0.0
 10
3835.353458450218
 20
7355.727998074126
 30
0.0
 10
3835.353458450218
 20
7356.34363571778
 30
0.0
 10
3835.353458450218
 20
7356.651021371887
 30
0.0
  0
LINE
  5
2F7
330
1F
100
AcDbEntity
  8
0
  6
Continuous
 62
     7
370
    25
100
AcDbLine
 10
3385.35345547
 20
7354.9258245335
 30
0.0
 11
3387.3534595231
 21
7354.9258245335
 31
0.0
  0
LINE
  5
2F8
330
1F
100
AcDbEntity
  8
0
  6
Continuous
 62
     7
370
    25
100
AcDbLine
 10
3385.35345547
 20
7356.6510213719
 30
0.0
 11
3387.3534595231
 21
7356.6510213719
 31
0.0
  0
SPLINE
  5
2F9
330
1F
100
AcDbEntity
  8
0
  6
Continuous
 62
     7
370
    25
100
AcDbSpline
210
0.0
220
0.0
230
1.0
 70
    24
 71
     3
 72
     9
 73
     5
 74
     0
 42
0.000000001
 43
0.00000001
 40
0.0
 40
0.0
 40
0.0
 40
0.0
 40
0.5007036082431598
 40
0.9999999999999999
 40
0.9999999999999999
 40
0.9999999999999999
 40
0.9999999999999999
 10
3385.353455469985
 20
7354.925824533508
 30
0.0
 10
3385.353455469985
 20
7355.193466447619
 30
0.0
 10
3385.353455469985
 20
7355.727998074126
 30
0.0
 10
3385.353455469985
 20
7356.34363571778
 30
0.0
 10
3385.353455469985
 20
7356.651021371887
 30
0.0
  0
SPLINE
  5
2FA
330
1F
100
AcDbEntity
  8
0
  6
Continuous
 62
     7
370
    25
100
AcDbSpline
210
0.0
220
0.0
230
1.0
 70
    24
 71
     3
 72
     9
 73
     5
 74
     0
 42
0.000000001
 43
0.00000001
 40
0.0
 40
0.0
 40
0.0
 40
0.0
 40
0.5007036082431598
 40
0.9999999999999999
 40
0.9999999999999999
 40
0.9999999999999999
 40
0.9999999999999999
 10
3387.353459523101
 20
7354.925824533508
 30
0.0
 10
3387.353459523101
 20
7355.193466447619
 30
0.0
 10
3387.353459523101
 20
7355.727998074126
 30
0.0
 10
3387.353459523101
 20
7356.34363571778
 30
0.0
 10
3387.353459523101
 20
7356.651021371887
 30
0.0
  0
LINE
  5
2FB
330
1F
100
AcDbEntity
  8
0
  6
Continuous
 62
     7
370
    25
100
AcDbLine
 10
3835.3534584502
 20
7311.4506734715
 30
0.0
 11
3833.3534543971
 21
7311.4506734715
 31
0.0
  0
LINE
  5
2FC
330
1F
100
AcDbEntity
  8
0
  6
Continuous
 62
     7
370
    25
100
AcDbLine
 10
3833.3534543971
 20
7311.4506734715
 30
0.0
 11
3833.3534543971
 21
7354.9258245335
 31
0.0
  0
LINE
  5
2FD
330
1F
100
AcDbEntity
  8
0
  6
Continuous
 62
     7
370
    25
100
AcDbLine
 10
3835.3534584502
 20
7311.4506734715
 30
0.0
 11
3835.3534584502
 21
7354.9258245335
 31
0.0
  0
LINE
  5
2FE
330
1F
100
AcDbEntity
  8
0
  6
Continuous
 62
     7
370
    25
100
AcDbLine
 10
3385.35345547
 20
7311.4506734715
 30
0.0
 11
3387.3534595231
 21
7311.4506734715
 31
0.0
  0
LINE
  5
2FF
330
1F
100
AcDbEntity
  8
0
  6
Continuous
 62
     7
370
    25
100
AcDbLine
 10
3385.35345547
 20
7311.4506734715
 30
0.0
 11
3385.35345547
 21
7354.9258245335
 31
0.0
  0
LINE
  5
300
330
1F
100
AcDbEntity
  8
0
  6
Continuous
 62
     7
370
    25
100
AcDbLine
 10
3387.3534595231
 20
7311.4506734715
 30
0.0
 11
3387.3534595231
 21
7354.9258245335
 31
0.0
  0
LINE
  5
301
330
1F
100
AcDbEntity
  8
0
  6
Continuous
 62
     7
370
    25
100
AcDbLine
 10
3835.3534584502
 20
7310.2509511815
 30
0.0
 11
3833.3534543971
 21
7310.2509511815
 31
0.0
  0
LINE
  5
302
330
1F
100
AcDbEntity
  8
0
  6
Continuous
 62
     7
370
    25
100
AcDbLine
 10
3833.3534543971
 20
7311.4506734715
 30
0.0
 11
3833.3534543971
 21
7310.2509511815
 31
0.0
  0
LINE
  5
303
330
1F
100
AcDbEntity
  8
0
  6
Continuous
 62
     7
370
    25
100
AcDbLine
 10
3835.3534584502
 20
7311.4506734715
 30
0.0
 11
3835.3534584502
 21
7310.2509511815
 31
0.0
  0
LINE
  5
304
330
1F
100
AcDbEntity
  8
0
  6
Continuous
 62
     7
370
    25
100
AcDbLine
 10
3385.35345547
 20
7310.2509511815
 30
0.0
 11
3387.3534595231
 21
7310.2509511815
 31
0.0
  0
LINE
  5
305
330
1F
100
AcDbEntity
  8
0
  6
Continuous
 62
     7
370
    25
100
AcDbLine
 10
3385.35345547
 20
7311.4506734715
 30
0.0
 11
3385.35345547
 21
7310.2509511815
 31
0.0
  0
LINE
  5
306
330
1F
100
AcDbEntity
  8
0
  6
Continuous
 62
     7
370
    25
100
AcDbLine
 10
3387.3534595231
 20
7311.4506734715
 30
0.0
 11
3387.3534595231
 21
7310.2509511815
 31
0.0
  0
SPLINE
  5
307
330
1F
100
AcDbEntity
  8
0
  6
Continuous
 62
     7
370
    25
100
AcDbSpline
210
0.0
220
0.0
230
1.0
 70
     8
 71
     3
 72
    13
 73
     9
 74
     0
 42
0.000000001
 43
0.00000001
 40
0.0
 40
0.0
 40
0.0
 40
0.0
 40
0.2227231526045376
 40
0.3548093378588359
 40
0.5003393032580394
 40
0.6774722900790505
 40
0.820650078791602
 40
1.0
 40
1.0
 40
1.0
 40
1.0
 10
3835.353458450218
 20
7310.250951181457
 30
0.0
 10
3835.320962181152
 20
7309.92339576686
 30
0.0
 10
3835.269193967677
 20
7309.401583290672
 30
0.0
 10
3834.935494829856
 20
7308.7404864633
 30
0.0
 10
3834.520855467589
 20
7308.215267602378
 30
0.0
 10
3833.968906765074
 20
7307.802760843554
 30
0.0
 10
3833.289520514365
 20
7307.510583061498
 30
0.0
 10
3832.81649429021
 20
7307.472268947839
 30
0.0
 10
3832.553455756088
 20
7307.450963388488
 30
0.0
  0
SPLINE
  5
308
330
1F
100
AcDbEntity
  8
0
  6
Continuous
 62
     7
370
    25
100
AcDbSpline
210
0.0
220
0.0
230
1.0
 70
     8
 71
     3
 72
    13
 73
     9
 74
     0
 42
0.000000001
 43
0.00000001
 40
0.0
 40
0.0
 40
0.0
 40
0.0
 40
0.222192534487182
 40
0.3540384879667042
 40
0.4997016781396054
 40
0.6770153462234224
 40
0.820402262818831
 40
1.0
 40
1.0
 40
1.0
 40
1.0
 10
3833.353454397102
 20
7310.250951181457
 30
0.0
 10
3833.34417489713
 20
7310.157270704313
 30
0.0
 10
3833.329389071193
 20
7310.008001537568
 30
0.0
 10
3833.233881113553
 20
7309.819337748626
 30
0.0
 10
3833.11559605021
 20
7309.669148620792
 30
0.0
 10
3832.957815494488
 20
7309.551402940611
 30
0.0
 10
3832.763776120447
 20
7309.467729068354
 30
0.0
 10
3832.628613704718
 20
7309.456861443911
 30
0.0
 10
3832.553455756088
 20
7309.450818429992
 30
0.0
  0
LINE
  5
309
330
1F
100
AcDbEntity
  8
0
  6
Continuous
 62
     7
370
    25
100
AcDbLine
 10
3832.5534557561
 20
7307.4509633885
 30
0.0
 11
3832.5534557561
 21
7308.7107671605
 31
0.0
  0
ARC
  5
30A
330
1F
100
AcDbEntity
  8
0
  6
Continuous
 62
     7
370
    25
100
AcDbCircle
 10
3832.5536977396
 20
7310.3242464036
 30
0.0
 40
0.7997566693144553
100
AcDbArc
 50
269.9826639312
 51
0.0098650496
  0
SPLINE
  5
30B
330
1F
100
AcDbEntity
  8
0
  6
Continuous
 62
     7
370
    25
100
AcDbSpline
210
0.0
220
0.0
230
1.0
 70
     8
 71
     3
 72
    13
 73
     9
 74
     0
 42
0.000000001
 43
0.00000001
 40
0.0
 40
0.0
 40
0.0
 40
0.0
 40
0.1794663436284066
 40
0.3227797546653981
 40
0.4997915387153955
 40
0.6455478384568255
 40
0.7775992707136854
 40
1.0
 40
1.0
 40
1.0
 40
1.0
 10
3388.153458164115
 20
7309.450818429992
 30
0.0
 10
3388.078342891447
 20
7309.456855770576
 30
0.0
 10
3387.943244082427
 20
7309.467714248399
 30
0.0
 10
3387.749484783642
 20
7309.551440510307
 30
0.0
 10
3387.591591989792
 20
7309.66875350596
 30
0.0
 10
3387.473173525882
 20
7309.818884536285
 30
0.0
 10
3387.377596018116
 20
7310.007771582117
 30
0.0
 10
3387.362765143614
 20
7310.157195353757
 30
0.0
 10
3387.353459523101
 20
7310.250951181457
 30
0.0
  0
LINE
  5
30C
330
1F
100
AcDbEntity
  8
0
  6
Continuous
 62
     7
370
    25
100
AcDbLine
 10
3388.1534581641
 20
7307.4509633885
 30
0.0
 11
3388.1534581641
 21
7308.7107671605
 31
0.0
  0
SPLINE
  5
30D
330
1F
100
AcDbEntity
  8
0
  6
Continuous
 62
     7
370
    25
100
AcDbSpline
210
0.0
220
0.0
230
1.0
 70
     8
 71
     3
 72
    13
 73
     9
 74
     0
 42
0.000000001
 43
0.00000001
 40
0.0
 40
0.0
 40
0.0
 40
0.0
 40
0.1792239919048262
 40
0.3223004551110584
 40
0.4992236247110983
 40
0.6449320239973085
 40
0.7771063893849249
 40
1.0
 40
1.0
 40
1.0
 40
1.0
 10
3388.153458164115
 20
7307.450963388488
 30
0.0
 10
3387.890591958362
 20
7307.472184832729
 30
0.0
 10
3387.417876799821
 20
7307.510347586856
 30
0.0
 10
3386.739110593659
 20
7307.802309792313
 30
0.0
 10
3386.186941753882
 20
7308.214168740406
 30
0.0
 10
3385.772203014689
 20
7308.739437790453
 30
0.0
 10
3385.437782892571
 20
7309.400913503664
 30
0.0
 10
3385.385976738058
 20
7309.923130143608
 30
0.0
 10
3385.353455469985
 20
7310.250951181457
 30
0.0
  0
ARC
  5
30E
330
1F
100
AcDbEntity
  8
0
  6
Continuous
 62
     7
370
    25
100
AcDbCircle
 10
3388.1532012154
 20
7310.3242314365
 30
0.0
 40
0.7997417068700718
100
AcDbArc
 50
179.9890624791
 51
270.0184085401
  0
LINE
  5
30F
330
1F
100
AcDbEntity
  8
0
  6
Continuous
 62
     7
370
    25
100
AcDbLine
 10
3388.7070065001
 20
7359.4510091649
 30
0.0
 11
3388.6566852788
 21
7359.4507707463
 31
0.0
  0
LINE
  5
310
330
1F
100
AcDbEntity
  8
0
  6
Continuous
 62
     7
370
    25
100
AcDbLine
 10
3388.7070065001
 20
7359.4510091649
 30
0.0
 11
3389.8455744246
 21
7359.4510091649
 31
0.0
  0
LINE
  5
311
330
1F
100
AcDbEntity
  8
0
  6
Continuous
 62
     7
370
    25
100
AcDbLine
 10
3830.8613394956
 20
7359.4510091649
 30
0.0
 11
3831.9999074201
 21
7359.4510091649
 31
0.0
  0
LINE
  5
312
330
1F
100
AcDbEntity
  8
0
  6
Continuous
 62
     7
370
    25
100
AcDbLine
 10
3831.9999074201
 20
7359.4510091649
 30
0.0
 11
3832.0502286414
 21
7359.4507707463
 31
0.0
  0
LINE
  5
313
330
1F
100
AcDbEntity
  8
0
  6
Continuous
 62
     7
370
    25
100
AcDbLine
 10
3832.3534523705
 20
7307.4509633885
 30
0.0
 11
3832.5534557561
 21
7307.4509633885
 31
0.0
  0
LINE
  5
314
330
1F
100
AcDbEntity
  8
0
  6
Continuous
 62
     7
370
    25
100
AcDbLine
 10
3388.3534615497
 20
7307.4509633885
 30
0.0
 11
3388.1534581641
 21
7307.4509633885
 31
0.0
  0
SPLINE
  5
315
330
1F
100
AcDbEntity
  8
0
  6
Continuous
 62
     7
370
    25
100
AcDbSpline
210
0.0
220
0.0
230
1.0
 70
     8
 71
     3
 72
    13
 73
     9
 74
     0
 42
0.000000001
 43
0.00000001
 40
0.0
 40
0.0
 40
0.0
 40
0.0
 40
0.1703868157183799
 40
0.3106411143096465
 40
0.4999938781301359
 40
0.6444949253402081
 40
0.7761766861570338
 40
0.9999999999999999
 40
0.9999999999999999
 40
0.9999999999999999
 40
0.9999999999999999
 10
3832.553455756088
 20
7357.450915704772
 30
0.0
 10
3832.624466087162
 20
7357.445495918513
 30
0.0
 10
3832.75392873531
 20
7357.43561482275
 30
0.0
 10
3832.948572611817
 20
7357.356184890701
 30
0.0
 10
3833.110275492154
 20
7357.238469492731
 30
0.0
 10
3833.232033976426
 20
7357.085441697748
 30
0.0
 10
3833.328550877817
 20
7356.896774359486
 30
0.0
 10
3833.343832931413
 20
7356.745967949964
 30
0.0
 10
3833.353454397102
 20
7356.651021371887
 30
0.0
  0
LINE
  5
316
330
1F
100
AcDbEntity
  8
0
  6
Continuous
 62
     7
370
    25
100
AcDbLine
 10
3832.5534557561
 20
7359.4510091649
 30
0.0
 11
3832.5534557561
 21
7357.4509157048
 31
0.0
  0
SPLINE
  5
317
330
1F
100
AcDbEntity
  8
0
  6
Continuous
 62
     7
370
    25
100
AcDbSpline
210
0.0
220
0.0
230
1.0
 70
     8
 71
     3
 72
    13
 73
     9
 74
     0
 42
0.000000001
 43
0.00000001
 40
0.0
 40
0.0
 40
0.0
 40
0.0
 40
0.1696002954062029
 40
0.3092569840001858
 40
0.4979505612003482
 40
0.6423787088383232
 40
0.7743938383344062
 40
1.0
 40
1.0
 40
1.0
 40
1.0
 10
3832.553455756088
 20
7359.451009164855
 30
0.0
 10
3832.80201126846
 20
7359.431952120668
 30
0.0
 10
3833.255238828758
 20
7359.397202629253
 30
0.0
 10
3833.936592961983
 20
7359.118890026361
 30
0.0
 10
3834.503222459967
 20
7358.706732345129
 30
0.0
 10
3834.928929353202
 20
7358.171106534508
 30
0.0
 10
3835.267092333016
 20
7357.509303681876
 30
0.0
 10
3835.320049995068
 20
7356.983025252436
 30
0.0
 10
3835.353458450218
 20
7356.651021371887
 30
0.0
  0
LINE
  5
318
330
1F
100
AcDbEntity
  8
0
  6
Continuous
 62
     7
370
    25
100
AcDbLine
 10
3832.5534557561
 20
7359.5244420872
 30
0.0
 11
3832.5534557561
 21
7359.4510091649
 31
0.0
  0
ARC
  5
319
330
1F
100
AcDbEntity
  8
0
  6
Continuous
 62
     7
370
    25
100
AcDbCircle
 10
3832.5533858482
 20
7356.7243694848
 30
0.0
 40
2.800072603289824
100
AcDbArc
 50
0.0017353919
 51
89.99856952770001
  0
LINE
  5
31A
330
1F
100
AcDbEntity
  8
0
  6
Continuous
 62
     7
370
    25
100
AcDbLine
 10
3388.1534581641
 20
7359.4510091649
 30
0.0
 11
3388.1534581641
 21
7359.5244420872
 31
0.0
  0
SPLINE
  5
31B
330
1F
100
AcDbEntity
  8
0
  6
Continuous
 62
     7
370
    25
100
AcDbSpline
210
0.0
220
0.0
230
1.0
 70
     8
 71
     3
 72
    13
 73
     9
 74
     0
 42
0.000000001
 43
0.00000001
 40
0.0
 40
0.0
 40
0.0
 40
0.0
 40
0.2254897874630055
 40
0.3573210114975104
 40
0.5016653599609866
 40
0.690516187556722
 40
0.8302741603054353
 40
1.0
 40
1.0
 40
1.0
 40
1.0
 10
3385.353455469985
 20
7356.651021371887
 30
0.0
 10
3385.386762510012
 20
7356.982878479294
 30
0.0
 10
3385.439542307121
 20
7357.508753813275
 30
0.0
 10
3385.777541965834
 20
7358.16996133048
 30
0.0
 10
3386.202602522954
 20
7358.705848531386
 30
0.0
 10
3386.769340388709
 20
7359.118419953664
 30
0.0
 10
3387.451176588886
 20
7359.39697996927
 30
0.0
 10
3387.904725006246
 20
7359.431873175947
 30
0.0
 10
3388.153458164115
 20
7359.451009164855
 30
0.0
  0
ARC
  5
31C
330
1F
100
AcDbEntity
  8
0
  6
Continuous
 62
     7
370
    25
100
AcDbCircle
 10
3388.1535131016
 20
7356.7243844553
 30
0.0
 40
2.80005763247079
100
AcDbArc
 50
90.00112415010001
 51
179.9985709302
  0
SPLINE
  5
31D
330
1F
100
AcDbEntity
  8
0
  6
Continuous
 62
     7
370
    25
100
AcDbSpline
210
0.0
220
0.0
230
1.0
 70
     8
 71
     3
 72
    13
 73
     9
 74
     0
 42
0.000000001
 43
0.00000001
 40
0.0
 40
0.0
 40
0.0
 40
0.0
 40
0.2236316317680904
 40
0.3552576127653909
 40
0.499672540579488
 40
0.6891000667621275
 40
0.8294806459299602
 40
1.0
 40
1.0
 40
1.0
 40
1.0
 10
3387.353459523101
 20
7356.651021371887
 30
0.0
 10
3387.363070891958
 20
7356.745877157293
 30
0.0
 10
3387.378339357909
 20
7356.896563532087
 30
0.0
 10
3387.474707079673
 20
7357.085180518643
 30
0.0
 10
3387.596276004677
 20
7357.238347276847
 30
0.0
 10
3387.758116107233
 20
7357.355848624449
 30
0.0
 10
3387.952825277862
 20
7357.435707820207
 30
0.0
 10
3388.082393728038
 20
7357.445529051763
 30
0.0
 10
3388.153458164115
 20
7357.450915704772
 30
0.0
  0
LINE
  5
31E
330
1F
100
AcDbEntity
  8
0
  6
Continuous
 62
     7
370
    25
100
AcDbLine
 10
3388.1534581641
 20
7359.4510091649
 30
0.0
 11
3388.1534581641
 21
7357.4509157048
 31
0.0
  0
LINE
  5
31F
330
1F
100
AcDbEntity
  8
0
  6
Continuous
 62
     7
370
    25
100
AcDbLine
 10
3832.3534523705
 20
7357.4509157048
 30
0.0
 11
3832.5534557561
 21
7357.4509157048
 31
0.0
  0
LINE
  5
320
330
1F
100
AcDbEntity
  8
0
  6
Continuous
 62
     7
370
    25
100
AcDbLine
 10
3832.3534523705
 20
7359.4510091649
 30
0.0
 11
3832.3534523705
 21
7357.4509157048
 31
0.0
  0
LINE
  5
321
330
1F
100
AcDbEntity
  8
0
  6
Continuous
 62
     7
370
    25
100
AcDbLine
 10
3832.3534523705
 20
7359.4510091649
 30
0.0
 11
3832.5534557561
 21
7359.4510091649
 31
0.0
  0
LINE
  5
322
330
1F
100
AcDbEntity
  8
0
  6
Continuous
 62
     7
370
    25
100
AcDbLine
 10
3831.9999074201
 20
7359.4510091649
 30
0.0
 11
3832.3534523705
 21
7359.4510091649
 31
0.0
  0
LINE
  5
323
330
1F
100
AcDbEntity
  8
0
  6
Continuous
 62
     7
370
    25
100
AcDbLine
 10
3831.353450344
 20
7359.5244420872
 30
0.0
 11
3832.2070037583
 21
7359.5244420872
 31
0.0
  0
LINE
  5
324
330
1F
100
AcDbEntity
  8
0
  6
Continuous
 62
     7
370
    25
100
AcDbLine
 10
3832.2070037583
 20
7359.5244420872
 30
0.0
 11
3832.5534557561
 21
7359.5244420872
 31
0.0
  0
LINE
  5
325
330
1F
100
AcDbEntity
  8
0
  6
Continuous
 62
     7
370
    25
100
AcDbLine
 10
3388.1534581641
 20
7359.5244420872
 30
0.0
 11
3388.4998952607
 21
7359.5244420872
 31
0.0
  0
LINE
  5
326
330
1F
100
AcDbEntity
  8
0
  6
Continuous
 62
     7
370
    25
100
AcDbLine
 10
3389.3534486751
 20
7359.5244420872
 30
0.0
 11
3388.4998952607
 21
7359.5244420872
 31
0.0
  0
LINE
  5
327
330
1F
100
AcDbEntity
  8
0
  6
Continuous
 62
     7
370
    25
100
AcDbLine
 10
3388.7070065001
 20
7359.4510091649
 30
0.0
 11
3388.3534615497
 21
7359.4510091649
 31
0.0
  0
LINE
  5
328
330
1F
100
AcDbEntity
  8
0
  6
Continuous
 62
     7
370
    25
100
AcDbLine
 10
3388.3534615497
 20
7359.4510091649
 30
0.0
 11
3388.1534581641
 21
7359.4510091649
 31
0.0
  0
LINE
  5
329
330
1F
100
AcDbEntity
  8
0
  6
Continuous
 62
     7
370
    25
100
AcDbLine
 10
3388.3534615497
 20
7357.4509157048
 30
0.0
 11
3388.1534581641
 21
7357.4509157048
 31
0.0
  0
LINE
  5
32A
330
1F
100
AcDbEntity
  8
0
  6
Continuous
 62
     7
370
    25
100
AcDbLine
 10
3388.3534615497
 20
7359.4510091649
 30
0.0
 11
3388.3534615497
 21
7357.4509157048
 31
0.0
  0
LINE
  5
32B
330
1F
100
AcDbEntity
  8
0
  6
Continuous
 62
     7
370
    25
100
AcDbLine
 10
3832.2750871638
 20
7357.4509157048
 30
0.0
 11
3832.3534523705
 21
7357.4509157048
 31
0.0
  0
LINE
  5
32C
330
1F
100
AcDbEntity
  8
0
  6
Continuous
 62
     7
370
    25
100
AcDbLine
 10
3388.4319608668
 20
7357.4509157048
 30
0.0
 11
3388.3534615497
 21
7357.4509157048
 31
0.0
  0
LINE
  5
32D
330
1F
100
AcDbEntity
  8
0
  6
Continuous
 62
     7
370
    25
100
AcDbLine
 10
3831.353450344
 20
7359.5244420872
 30
0.0
 11
3831.4998989562
 21
7359.5244420872
 31
0.0
  0
LINE
  5
32E
330
1F
100
AcDbEntity
  8
0
  6
Continuous
 62
     7
370
    25
100
AcDbLine
 10
3389.207014964
 20
7359.5244420872
 30
0.0
 11
3389.3534486751
 21
7359.5244420872
 31
0.0
  0
LWPOLYLINE
  5
32F
330
1F
100
AcDbEntity
  8
0
  6
Continuous
 62
     7
370
    25
100
AcDbPolyline
 90
       17
 70
   128
 43
0.0
 10
3630.5920445929
 20
7365.2016652928
 10
3630.0869362066
 20
7365.2016652928
 10
3629.4318588088
 20
7365.2014268742
 10
3628.726542146
 20
7365.2014268742
 10
3628.0783658484
 20
7365.2016652928
 10
3627.5860072682
 20
7365.2016652928
 10
3627.3244229714
 20
7365.2016652928
 10
3627.3334400366
 20
7365.2019037114
 10
3627.6116819689
 20
7365.2019037114
 10
3628.1167903552
 20
7365.2021421299
 10
3628.771867753
 20
7365.2021421299
 10
3629.4771825532
 20
7365.2021421299
 10
3630.1253607134
 20
7365.2021421299
 10
3630.6177192936
 20
7365.2019037114
 10
3630.8793017278
 20
7365.2019037114
 10
3630.8702865253
 20
7365.2016652928
 10
3630.5920445929
 20
7365.2016652928
  0
LINE
  5
330
330
1F
100
AcDbEntity
  8
0
  6
Continuous
 62
     7
370
    25
100
AcDbLine
 10
3628.4800713519
 20
7365.2019037114
 30
0.0
 11
3627.6629009853
 21
7365.2019037114
 31
0.0
  0
LINE
  5
331
330
1F
100
AcDbEntity
  8
0
  6
Continuous
 62
     7
370
    25
100
AcDbLine
 10
3627.6629009853
 20
7365.2019037114
 30
0.0
 11
3628.2846929143
 21
7365.2016652928
 31
0.0
  0
LINE
  5
332
330
1F
100
AcDbEntity
  8
0
  6
Continuous
 62
     7
370
    25
100
AcDbLine
 10
3628.2846929143
 20
7365.2016652928
 30
0.0
 11
3629.7236533473
 21
7365.2016652928
 31
0.0
  0
LINE
  5
333
330
1F
100
AcDbEntity
  8
0
  6
Continuous
 62
     7
370
    25
100
AcDbLine
 10
3629.7236533473
 20
7365.2016652928
 30
0.0
 11
3630.5408237139
 21
7365.2016652928
 31
0.0
  0
LINE
  5
334
330
1F
100
AcDbEntity
  8
0
  6
Continuous
 62
     7
370
    25
100
AcDbLine
 10
3630.5408237139
 20
7365.2016652928
 30
0.0
 11
3629.9190336476
 21
7365.2019037114
 31
0.0
  0
LINE
  5
335
330
1F
100
AcDbEntity
  8
0
  6
Continuous
 62
     7
370
    25
100
AcDbLine
 10
3629.9190336476
 20
7365.2019037114
 30
0.0
 11
3628.4800713519
 21
7365.2019037114
 31
0.0
  0
LINE
  5
336
330
1F
100
AcDbEntity
  8
0
  6
Continuous
 62
     7
370
    25
100
AcDbLine
 10
3629.9190336476
 20
7365.2016652928
 30
0.0
 11
3629.9190336476
 21
7365.2019037114
 31
0.0
  0
LINE
  5
337
330
1F
100
AcDbEntity
  8
0
  6
Continuous
 62
     7
370
    25
100
AcDbLine
 10
3628.4800713519
 20
7365.2016652928
 30
0.0
 11
3628.4800713519
 21
7365.2019037114
 31
0.0
  0
LWPOLYLINE
  5
338
330
1F
100
AcDbEntity
  8
0
  6
Continuous
 62
     7
370
    25
100
AcDbPolyline
 90
       10
 70
   128
 43
0.0
 10
3440.7342021922
 20
7363.3386625157
 10
3439.9160837392
 20
7363.3386625157
 10
3438.8714378337
 20
7363.3384240971
 10
3437.7025013427
 20
7363.3384240971
 10
3436.5237300853
 20
7363.3384240971
 10
3435.4504888514
 20
7363.3386625157
 10
3434.5878308276
 20
7363.3386625157
 10
3434.0202157954
 20
7363.3389009343
 10
3433.8031952838
 20
7363.3389009343
 10
3433.8018690804
 20
7363.3391393528
  0
LWPOLYLINE
  5
339
330
1F
100
AcDbEntity
  8
0
  6
Continuous
 62
     7
370
    25
100
AcDbPolyline
 90
        3
 70
   128
 43
0.0
 10
3441.4018636207
 20
7363.3391393528
 10
3441.2457143525
 20
7363.3389009343
 10
3440.7342021922
 20
7363.3386625157
  0
LWPOLYLINE
  5
33A
330
1F
100
AcDbEntity
  8
0
  6
Continuous
 62
     7
370
    25
100
AcDbPolyline
 90
       17
 70
   128
 43
0.0
 10
3439.0920495252
 20
7365.1589883671
 10
3438.586929963
 20
7365.1587499485
 10
3437.9318600158
 20
7365.1587499485
 10
3437.226543353
 20
7365.1587499485
 10
3436.5783726434
 20
7365.1587499485
 10
3436.0860084752
 20
7365.1589883671
 10
3435.8244185904
 20
7365.1589883671
 10
3435.833433793
 20
7365.1589883671
 10
3436.1116831759
 20
7365.1592267857
 10
3436.6167878369
 20
7365.1592267857
 10
3437.2718726853
 20
7365.1592267857
 10
3437.9771893481
 20
7365.1592267857
 10
3438.6253600577
 20
7365.1592267857
 10
3439.1177242259
 20
7365.1592267857
 10
3439.3792992095
 20
7365.1589883671
 10
3439.370284007
 20
7365.1589883671
 10
3439.0920495252
 20
7365.1589883671
  0
LWPOLYLINE
  5
33B
330
1F
100
AcDbEntity
  8
0
  6
Continuous
 62
     7
370
    25
100
AcDbPolyline
 90
       10
 70
   128
 43
0.0
 10
3440.7342021922
 20
7362.9586233006
 10
3439.9160837392
 20
7362.9586233006
 10
3438.8714378337
 20
7362.958384882
 10
3437.7025013427
 20
7362.958384882
 10
3436.5237300853
 20
7362.958384882
 10
3435.4504888514
 20
7362.9586233006
 10
3434.5878308276
 20
7362.9586233006
 10
3434.0202157954
 20
7362.9588617192
 10
3433.8031952838
 20
7362.9591001378
 10
3433.8018690804
 20
7362.9591001378
  0
LWPOLYLINE
  5
33C
330
1F
100
AcDbEntity
  8
0
  6
Continuous
 62
     7
370
    25
100
AcDbPolyline
 90
        3
 70
   128
 43
0.0
 10
3441.4018636207
 20
7362.9591001378
 10
3441.2457143525
 20
7362.9588617192
 10
3440.7342021922
 20
7362.9586233006
  0
LINE
  5
33D
330
1F
100
AcDbEntity
  8
0
  6
Continuous
 62
     7
370
    25
100
AcDbLine
 10
3436.9800781468
 20
7365.1592267857
 30
0.0
 11
3436.162898467
 21
7365.1589883671
 31
0.0
  0
LINE
  5
33E
330
1F
100
AcDbEntity
  8
0
  6
Continuous
 62
     7
370
    25
100
AcDbLine
 10
3436.162898467
 20
7365.1589883671
 30
0.0
 11
3436.7846941213
 21
7365.1587499485
 31
0.0
  0
LINE
  5
33F
330
1F
100
AcDbEntity
  8
0
  6
Continuous
 62
     7
370
    25
100
AcDbLine
 10
3436.7846941213
 20
7365.1587499485
 30
0.0
 11
3438.2236545543
 21
7365.1587499485
 31
0.0
  0
LINE
  5
340
330
1F
100
AcDbEntity
  8
0
  6
Continuous
 62
     7
370
    25
100
AcDbLine
 10
3438.2236545543
 20
7365.1587499485
 30
0.0
 11
3439.040819333
 21
7365.1589883671
 31
0.0
  0
LINE
  5
341
330
1F
100
AcDbEntity
  8
0
  6
Continuous
 62
     7
370
    25
100
AcDbLine
 10
3439.040819333
 20
7365.1589883671
 30
0.0
 11
3438.4190385798
 21
7365.1592267857
 31
0.0
  0
LINE
  5
342
330
1F
100
AcDbEntity
  8
0
  6
Continuous
 62
     7
370
    25
100
AcDbLine
 10
3438.4190385798
 20
7365.1592267857
 30
0.0
 11
3436.9800781468
 21
7365.1592267857
 31
0.0
  0
LINE
  5
343
330
1F
100
AcDbEntity
  8
0
  6
Continuous
 62
     7
370
    25
100
AcDbLine
 10
3438.4190385798
 20
7365.1589883671
 30
0.0
 11
3438.4190385798
 21
7365.1592267857
 31
0.0
  0
LINE
  5
344
330
1F
100
AcDbEntity
  8
0
  6
Continuous
 62
     7
370
    25
100
AcDbLine
 10
3436.9800781468
 20
7365.1587499485
 30
0.0
 11
3436.9800781468
 21
7365.1592267857
 31
0.0
  0
LWPOLYLINE
  5
345
330
1F
100
AcDbEntity
  8
0
  6
Continuous
 62
     7
370
    25
100
AcDbPolyline
 90
       17
 70
   128
 43
0.0
 10
3630.5920445929
 20
7365.1775850163
 10
3630.0869362066
 20
7365.1775850163
 10
3629.4318588088
 20
7365.1775850163
 10
3628.726542146
 20
7365.1775850163
 10
3628.0783658484
 20
7365.1775850163
 10
3627.5860072682
 20
7365.1775850163
 10
3627.3244229714
 20
7365.1778234349
 10
3627.3334400366
 20
7365.1778234349
 10
3627.6116819689
 20
7365.1780618535
 10
3628.1167903552
 20
7365.1780618535
 10
3628.771867753
 20
7365.1780618535
 10
3629.4771825532
 20
7365.1780618535
 10
3630.1253607134
 20
7365.1780618535
 10
3630.6177192936
 20
7365.1780618535
 10
3630.8793017278
 20
7365.1778234349
 10
3630.8702865253
 20
7365.1778234349
 10
3630.5920445929
 20
7365.1775850163
  0
LINE
  5
346
330
1F
100
AcDbEntity
  8
0
  6
Continuous
 62
     7
370
    25
100
AcDbLine
 10
3628.4800713519
 20
7365.1780618535
 30
0.0
 11
3627.6629009853
 21
7365.1778234349
 31
0.0
  0
LINE
  5
347
330
1F
100
AcDbEntity
  8
0
  6
Continuous
 62
     7
370
    25
100
AcDbLine
 10
3627.6629009853
 20
7365.1778234349
 30
0.0
 11
3628.2846929143
 21
7365.1775850163
 31
0.0
  0
LINE
  5
348
330
1F
100
AcDbEntity
  8
0
  6
Continuous
 62
     7
370
    25
100
AcDbLine
 10
3628.2846929143
 20
7365.1775850163
 30
0.0
 11
3629.7236533473
 21
7365.1775850163
 31
0.0
  0
LINE
  5
349
330
1F
100
AcDbEntity
  8
0
  6
Continuous
 62
     7
370
    25
100
AcDbLine
 10
3629.7236533473
 20
7365.1775850163
 30
0.0
 11
3630.5408237139
 21
7365.1778234349
 31
0.0
  0
LINE
  5
34A
330
1F
100
AcDbEntity
  8
0
  6
Continuous
 62
     7
370
    25
100
AcDbLine
 10
3630.5408237139
 20
7365.1778234349
 30
0.0
 11
3629.9190336476
 21
7365.1780618535
 31
0.0
  0
LINE
  5
34B
330
1F
100
AcDbEntity
  8
0
  6
Continuous
 62
     7
370
    25
100
AcDbLine
 10
3629.9190336476
 20
7365.1780618535
 30
0.0
 11
3628.4800713519
 21
7365.1780618535
 31
0.0
  0
LINE
  5
34C
330
1F
100
AcDbEntity
  8
0
  6
Continuous
 62
     7
370
    25
100
AcDbLine
 10
3629.9190336476
 20
7365.1775850163
 30
0.0
 11
3629.9190336476
 21
7365.1780618535
 31
0.0
  0
LINE
  5
34D
330
1F
100
AcDbEntity
  8
0
  6
Continuous
 62
     7
370
    25
100
AcDbLine
 10
3628.4800713519
 20
7365.1775850163
 30
0.0
 11
3628.4800713519
 21
7365.1780618535
 31
0.0
  0
LWPOLYLINE
  5
34E
330
1F
100
AcDbEntity
  8
0
  6
Continuous
 62
     7
370
    25
100
AcDbPolyline
 90
       17
 70
   128
 43
0.0
 10
3784.5920418958
 20
7365.1775850163
 10
3784.0869372348
 20
7365.1775850163
 10
3783.4318523864
 20
7365.1775850163
 10
3782.7265357236
 20
7365.1775850163
 10
3782.078365014
 20
7365.1775850163
 10
3781.5860008458
 20
7365.1775850163
 10
3781.3244258622
 20
7365.1778234349
 10
3781.3334410647
 20
7365.1778234349
 10
3781.6116755465
 20
7365.1780618535
 10
3782.1167951087
 20
7365.1780618535
 10
3782.7718650559
 20
7365.1780618535
 10
3783.4771817187
 20
7365.1780618535
 10
3784.1253673295
 20
7365.1780618535
 10
3784.6177165965
 20
7365.1780618535
 10
3784.8793064813
 20
7365.1778234349
 10
3784.8702912787
 20
7365.1778234349
 10
3784.5920418958
 20
7365.1775850163
  0
LINE
  5
34F
330
1F
100
AcDbEntity
  8
0
  6
Continuous
 62
     7
370
    25
100
AcDbLine
 10
3782.4800705174
 20
7365.1780618535
 30
0.0
 11
3781.6629057387
 21
7365.1778234349
 31
0.0
  0
LINE
  5
350
330
1F
100
AcDbEntity
  8
0
  6
Continuous
 62
     7
370
    25
100
AcDbLine
 10
3781.6629057387
 20
7365.1778234349
 30
0.0
 11
3782.2846864919
 21
7365.1775850163
 31
0.0
  0
LINE
  5
351
330
1F
100
AcDbEntity
  8
0
  6
Continuous
 62
     7
370
    25
100
AcDbLine
 10
3782.2846864919
 20
7365.1775850163
 30
0.0
 11
3783.7236469249
 21
7365.1775850163
 31
0.0
  0
LINE
  5
352
330
1F
100
AcDbEntity
  8
0
  6
Continuous
 62
     7
370
    25
100
AcDbLine
 10
3783.7236469249
 20
7365.1775850163
 30
0.0
 11
3784.5408266047
 21
7365.1778234349
 31
0.0
  0
LINE
  5
353
330
1F
100
AcDbEntity
  8
0
  6
Continuous
 62
     7
370
    25
100
AcDbLine
 10
3784.5408266047
 20
7365.1778234349
 30
0.0
 11
3783.9190309504
 21
7365.1780618535
 31
0.0
  0
LINE
  5
354
330
1F
100
AcDbEntity
  8
0
  6
Continuous
 62
     7
370
    25
100
AcDbLine
 10
3783.9190309504
 20
7365.1780618535
 30
0.0
 11
3782.4800705174
 21
7365.1780618535
 31
0.0
  0
LINE
  5
355
330
1F
100
AcDbEntity
  8
0
  6
Continuous
 62
     7
370
    25
100
AcDbLine
 10
3783.9190309504
 20
7365.1775850163
 30
0.0
 11
3783.9190309504
 21
7365.1780618535
 31
0.0
  0
LINE
  5
356
330
1F
100
AcDbEntity
  8
0
  6
Continuous
 62
     7
370
    25
100
AcDbLine
 10
3782.4800705174
 20
7365.1775850163
 30
0.0
 11
3782.4800705174
 21
7365.1780618535
 31
0.0
  0
LWPOLYLINE
  5
357
330
1F
100
AcDbEntity
  8
0
  6
Continuous
 62
     7
370
    25
100
AcDbPolyline
 90
       10
 70
   128
 43
0.0
 10
3594.7342060144
 20
7363.3386625157
 10
3593.91608663
 20
7363.3386625157
 10
3592.8714332739
 20
7363.3384240971
 10
3591.7025060961
 20
7363.3384240971
 10
3590.5237273882
 20
7363.3384240971
 10
3589.4504842917
 20
7363.3386625157
 10
3588.5878337184
 20
7363.3386625157
 10
3588.0202168236
 20
7363.3389009343
 10
3587.803196312
 20
7363.3389009343
 10
3587.801862658
 20
7363.3391393528
  0
LWPOLYLINE
  5
358
330
1F
100
AcDbEntity
  8
0
  6
Continuous
 62
     7
370
    25
100
AcDbPolyline
 90
        3
 70
   128
 43
0.0
 10
3595.4018618549
 20
7363.3391393528
 10
3595.2457107241
 20
7363.3389009343
 10
3594.7342060144
 20
7363.3386625157
  0
LWPOLYLINE
  5
359
330
1F
100
AcDbEntity
  8
0
  6
Continuous
 62
     7
370
    25
100
AcDbPolyline
 90
       17
 70
   128
 43
0.0
 10
3593.0920449654
 20
7365.1589883671
 10
3592.5869365791
 20
7365.1587499485
 10
3591.9318591813
 20
7365.1587499485
 10
3591.2265425185
 20
7365.1587499485
 10
3590.578366221
 20
7365.1587499485
 10
3590.0860076407
 20
7365.1589883671
 10
3589.8244233439
 20
7365.1589883671
 10
3589.8334385464
 20
7365.1589883671
 10
3590.1116804788
 20
7365.1592267857
 10
3590.6167907278
 20
7365.1592267857
 10
3591.2718662629
 20
7365.1592267857
 10
3591.9771829257
 20
7365.1592267857
 10
3592.6253592233
 20
7365.1592267857
 10
3593.1177196661
 20
7365.1592267857
 10
3593.3793021003
 20
7365.1589883671
 10
3593.3702868978
 20
7365.1589883671
 10
3593.0920449654
 20
7365.1589883671
  0
LWPOLYLINE
  5
35A
330
1F
100
AcDbEntity
  8
0
  6
Continuous
 62
     7
370
    25
100
AcDbPolyline
 90
       10
 70
   128
 43
0.0
 10
3594.7342060144
 20
7362.9586233006
 10
3593.91608663
 20
7362.9586233006
 10
3592.8714332739
 20
7362.958384882
 10
3591.7025060961
 20
7362.958384882
 10
3590.5237273882
 20
7362.958384882
 10
3589.4504842917
 20
7362.9586233006
 10
3588.5878337184
 20
7362.9586233006
 10
3588.0202168236
 20
7362.9588617192
 10
3587.803196312
 20
7362.9591001378
 10
3587.801862658
 20
7362.9591001378
  0
LWPOLYLINE
  5
35B
330
1F
100
AcDbEntity
  8
0
  6
Continuous
 62
     7
370
    25
100
AcDbPolyline
 90
        3
 70
   128
 43
0.0
 10
3595.4018627862
 20
7362.9591001378
 10
3595.2457107241
 20
7362.9588617192
 10
3594.7342060144
 20
7362.9586233006
  0
LINE
  5
35C
330
1F
100
AcDbEntity
  8
0
  6
Continuous
 62
     7
370
    25
100
AcDbLine
 10
3590.9800717244
 20
7365.1592267857
 30
0.0
 11
3590.1629013578
 21
7365.1589883671
 31
0.0
  0
LINE
  5
35D
330
1F
100
AcDbEntity
  8
0
  6
Continuous
 62
     7
370
    25
100
AcDbLine
 10
3590.1629013578
 20
7365.1589883671
 30
0.0
 11
3590.7846932868
 21
7365.1587499485
 31
0.0
  0
LINE
  5
35E
330
1F
100
AcDbEntity
  8
0
  6
Continuous
 62
     7
370
    25
100
AcDbLine
 10
3590.7846932868
 20
7365.1587499485
 30
0.0
 11
3592.2236537198
 21
7365.1587499485
 31
0.0
  0
LINE
  5
35F
330
1F
100
AcDbEntity
  8
0
  6
Continuous
 62
     7
370
    25
100
AcDbLine
 10
3592.2236537198
 20
7365.1587499485
 30
0.0
 11
3593.0408240864
 21
7365.1589883671
 31
0.0
  0
LINE
  5
360
330
1F
100
AcDbEntity
  8
0
  6
Continuous
 62
     7
370
    25
100
AcDbLine
 10
3593.0408240864
 20
7365.1589883671
 30
0.0
 11
3592.4190321574
 21
7365.1592267857
 31
0.0
  0
LINE
  5
361
330
1F
100
AcDbEntity
  8
0
  6
Continuous
 62
     7
370
    25
100
AcDbLine
 10
3592.4190321574
 20
7365.1592267857
 30
0.0
 11
3590.9800717244
 21
7365.1592267857
 31
0.0
  0
LINE
  5
362
330
1F
100
AcDbEntity
  8
0
  6
Continuous
 62
     7
370
    25
100
AcDbLine
 10
3592.4190321574
 20
7365.1589883671
 30
0.0
 11
3592.4190321574
 21
7365.1592267857
 31
0.0
  0
LINE
  5
363
330
1F
100
AcDbEntity
  8
0
  6
Continuous
 62
     7
370
    25
100
AcDbLine
 10
3590.9800717244
 20
7365.1587499485
 30
0.0
 11
3590.9800717244
 21
7365.1592267857
 31
0.0
  0
LWPOLYLINE
  5
364
330
1F
100
AcDbEntity
  8
0
  6
Continuous
 62
     7
370
    25
100
AcDbPolyline
 90
       17
 70
   128
 43
0.0
 10
3439.0920495252
 20
7365.2016652928
 10
3438.586929963
 20
7365.2016652928
 10
3437.9318600158
 20
7365.2014268742
 10
3437.226543353
 20
7365.2014268742
 10
3436.5783726434
 20
7365.2016652928
 10
3436.0860084752
 20
7365.2016652928
 10
3435.8244185904
 20
7365.2016652928
 10
3435.833433793
 20
7365.2019037114
 10
3436.1116831759
 20
7365.2019037114
 10
3436.6167878369
 20
7365.2021421299
 10
3437.2718726853
 20
7365.2021421299
 10
3437.9771893481
 20
7365.2021421299
 10
3438.6253600577
 20
7365.2021421299
 10
3439.1177242259
 20
7365.2019037114
 10
3439.3792992095
 20
7365.2019037114
 10
3439.370284007
 20
7365.2016652928
 10
3439.0920495252
 20
7365.2016652928
  0
LINE
  5
365
330
1F
100
AcDbEntity
  8
0
  6
Continuous
 62
     7
370
    25
100
AcDbLine
 10
3436.9800781468
 20
7365.2019037114
 30
0.0
 11
3436.162898467
 21
7365.2019037114
 31
0.0
  0
LINE
  5
366
330
1F
100
AcDbEntity
  8
0
  6
Continuous
 62
     7
370
    25
100
AcDbLine
 10
3436.162898467
 20
7365.2019037114
 30
0.0
 11
3436.7846941213
 21
7365.2016652928
 31
0.0
  0
LINE
  5
367
330
1F
100
AcDbEntity
  8
0
  6
Continuous
 62
     7
370
    25
100
AcDbLine
 10
3436.7846941213
 20
7365.2016652928
 30
0.0
 11
3438.2236545543
 21
7365.2016652928
 31
0.0
  0
LINE
  5
368
330
1F
100
AcDbEntity
  8
0
  6
Continuous
 62
     7
370
    25
100
AcDbLine
 10
3438.2236545543
 20
7365.2016652928
 30
0.0
 11
3439.040819333
 21
7365.2016652928
 31
0.0
  0
LINE
  5
369
330
1F
100
AcDbEntity
  8
0
  6
Continuous
 62
     7
370
    25
100
AcDbLine
 10
3439.040819333
 20
7365.2016652928
 30
0.0
 11
3438.4190385798
 21
7365.2019037114
 31
0.0
  0
LINE
  5
36A
330
1F
100
AcDbEntity
  8
0
  6
Continuous
 62
     7
370
    25
100
AcDbLine
 10
3438.4190385798
 20
7365.2019037114
 30
0.0
 11
3436.9800781468
 21
7365.2019037114
 31
0.0
  0
LINE
  5
36B
330
1F
100
AcDbEntity
  8
0
  6
Continuous
 62
     7
370
    25
100
AcDbLine
 10
3438.4190385798
 20
7365.2016652928
 30
0.0
 11
3438.4190385798
 21
7365.2019037114
 31
0.0
  0
LINE
  5
36C
330
1F
100
AcDbEntity
  8
0
  6
Continuous
 62
     7
370
    25
100
AcDbLine
 10
3436.9800781468
 20
7365.2016652928
 30
0.0
 11
3436.9800781468
 21
7365.2019037114
 31
0.0
  0
LWPOLYLINE
  5
36D
330
1F
100
AcDbEntity
  8
0
  6
Continuous
 62
     7
370
    25
100
AcDbPolyline
 90
       12
 70
   128
 43
0.0
 10
3614.15345586
 20
7363.3327020512
 10
3614.1441505505
 20
7363.3327020512
 10
3613.8764921679
 20
7363.3324636326
 10
3613.2639748147
 20
7363.332225214
 10
3612.3665554086
 20
7363.332225214
 10
3611.2720797291
 20
7363.3319867955
 10
3610.0876828467
 20
7363.3319867955
 10
3608.9293017621
 20
7363.3319867955
 10
3607.9103265992
 20
7363.332225214
 10
3607.1305022678
 20
7363.332225214
 10
3606.6661629929
 20
7363.3324636326
 10
3606.5534592243
 20
7363.3327020512
  0
LWPOLYLINE
  5
36E
330
1F
100
AcDbEntity
  8
0
  6
Continuous
 62
     7
370
    25
100
AcDbPolyline
 90
       17
 70
   128
 43
0.0
 10
3611.5157509093
 20
7365.1527894841
 10
3611.957159509
 20
7365.1527894841
 10
3612.1544187526
 20
7365.1525510655
 10
3612.0774976779
 20
7365.1525510655
 10
3611.7381069679
 20
7365.1525510655
 10
3611.1879156423
 20
7365.1523126469
 10
3610.5106853983
 20
7365.1523126469
 10
3609.8095184179
 20
7365.1523126469
 10
3609.1911610319
 20
7365.1523126469
 10
3608.7497524321
 20
7365.1525510655
 10
3608.552493305
 20
7365.1525510655
 10
3608.6294142632
 20
7365.1527894841
 10
3608.9688050896
 20
7365.1527894841
 10
3609.518996357
 20
7365.1527894841
 10
3610.1962265574
 20
7365.1527894841
 10
3610.8973935233
 20
7365.1527894841
 10
3611.5157509093
 20
7365.1527894841
  0
LWPOLYLINE
  5
36F
330
1F
100
AcDbEntity
  8
0
  6
Continuous
 62
     7
370
    25
100
AcDbPolyline
 90
       12
 70
   128
 43
0.0
 10
3614.1534560929
 20
7362.9526628361
 10
3614.1441505505
 20
7362.9526628361
 10
3613.8764921679
 20
7362.9524244175
 10
3613.2639748147
 20
7362.952185999
 10
3612.3665554086
 20
7362.952185999
 10
3611.2720797291
 20
7362.952185999
 10
3610.0876828467
 20
7362.9519475804
 10
3608.9293017621
 20
7362.952185999
 10
3607.9103265992
 20
7362.952185999
 10
3607.1305022678
 20
7362.9524244175
 10
3606.6661629929
 20
7362.9524244175
 10
3606.5534559647
 20
7362.9526628361
  0
LINE
  5
370
330
1F
100
AcDbEntity
  8
0
  6
Continuous
 62
     7
370
    25
100
AcDbLine
 10
3608.9970355723
 20
7365.1525510655
 30
0.0
 11
3610.1025544967
 21
7365.1523126469
 31
0.0
  0
LINE
  5
371
330
1F
100
AcDbEntity
  8
0
  6
Continuous
 62
     7
370
    25
100
AcDbLine
 10
3610.1025544967
 20
7365.1523126469
 30
0.0
 11
3611.458974924
 21
7365.1525510655
 31
0.0
  0
LINE
  5
372
330
1F
100
AcDbEntity
  8
0
  6
Continuous
 62
     7
370
    25
100
AcDbLine
 10
3611.458974924
 20
7365.1525510655
 30
0.0
 11
3611.7098763688
 21
7365.1527894841
 31
0.0
  0
LINE
  5
373
330
1F
100
AcDbEntity
  8
0
  6
Continuous
 62
     7
370
    25
100
AcDbLine
 10
3611.7098763688
 20
7365.1527894841
 30
0.0
 11
3610.6043574736
 21
7365.1527894841
 31
0.0
  0
LINE
  5
374
330
1F
100
AcDbEntity
  8
0
  6
Continuous
 62
     7
370
    25
100
AcDbLine
 10
3610.6043574736
 20
7365.1527894841
 30
0.0
 11
3609.2479370172
 21
7365.1527894841
 31
0.0
  0
LINE
  5
375
330
1F
100
AcDbEntity
  8
0
  6
Continuous
 62
     7
370
    25
100
AcDbLine
 10
3609.2479370172
 20
7365.1527894841
 30
0.0
 11
3608.9970355723
 21
7365.1525510655
 31
0.0
  0
LINE
  5
376
330
1F
100
AcDbEntity
  8
0
  6
Continuous
 62
     7
370
    25
100
AcDbLine
 10
3609.2479370172
 20
7365.1525510655
 30
0.0
 11
3609.2479370172
 21
7365.1527894841
 31
0.0
  0
LINE
  5
377
330
1F
100
AcDbEntity
  8
0
  6
Continuous
 62
     7
370
    25
100
AcDbLine
 10
3610.6043574736
 20
7365.1525510655
 30
0.0
 11
3610.6043574736
 21
7365.1527894841
 31
0.0
  0
LWPOLYLINE
  5
378
330
1F
100
AcDbEntity
  8
0
  6
Continuous
 62
     7
370
    25
100
AcDbPolyline
 90
       10
 70
   128
 43
0.0
 10
3786.234209464
 20
7363.3386625157
 10
3785.4160910109
 20
7363.3386625157
 10
3784.3714302043
 20
7363.3384240971
 10
3783.2025086144
 20
7363.3384240971
 10
3782.0237224559
 20
7363.3384240971
 10
3780.9504812221
 20
7363.3386625157
 10
3780.0878380994
 20
7363.3386625157
 10
3779.5202230672
 20
7363.3389009343
 10
3779.3032025556
 20
7363.3389009343
 10
3779.301861451
 20
7363.3391393528
  0
LWPOLYLINE
  5
379
330
1F
100
AcDbEntity
  8
0
  6
Continuous
 62
     7
370
    25
100
AcDbPolyline
 90
        3
 70
   128
 43
0.0
 10
3786.9018559913
 20
7363.3391393528
 10
3786.7457067231
 20
7363.3389009343
 10
3786.234209464
 20
7363.3386625157
  0
LWPOLYLINE
  5
37A
330
1F
100
AcDbEntity
  8
0
  6
Continuous
 62
     7
370
    25
100
AcDbPolyline
 90
       17
 70
   128
 43
0.0
 10
3784.5920418958
 20
7365.1589883671
 10
3784.0869372348
 20
7365.1587499485
 10
3783.4318523864
 20
7365.1587499485
 10
3782.7265357236
 20
7365.1587499485
 10
3782.078365014
 20
7365.1587499485
 10
3781.5860008458
 20
7365.1589883671
 10
3781.3244258622
 20
7365.1589883671
 10
3781.3334410647
 20
7365.1589883671
 10
3781.6116755465
 20
7365.1592267857
 10
3782.1167951087
 20
7365.1592267857
 10
3782.7718650559
 20
7365.1592267857
 10
3783.4771817187
 20
7365.1592267857
 10
3784.1253673295
 20
7365.1592267857
 10
3784.6177165965
 20
7365.1592267857
 10
3784.8793064813
 20
7365.1589883671
 10
3784.8702912787
 20
7365.1589883671
 10
3784.5920418958
 20
7365.1589883671
  0
LWPOLYLINE
  5
37B
330
1F
100
AcDbEntity
  8
0
  6
Continuous
 62
     7
370
    25
100
AcDbPolyline
 90
       10
 70
   128
 43
0.0
 10
3786.234209464
 20
7362.9586233006
 10
3785.4160910109
 20
7362.9586233006
 10
3784.3714302043
 20
7362.958384882
 10
3783.2025086144
 20
7362.958384882
 10
3782.0237224559
 20
7362.958384882
 10
3780.9504812221
 20
7362.9586233006
 10
3780.0878380994
 20
7362.9586233006
 10
3779.5202230672
 20
7362.9588617192
 10
3779.3032025556
 20
7362.9591001378
 10
3779.301861451
 20
7362.9591001378
  0
LWPOLYLINE
  5
37C
330
1F
100
AcDbEntity
  8
0
  6
Continuous
 62
     7
370
    25
100
AcDbPolyline
 90
        3
 70
   128
 43
0.0
 10
3786.9018559913
 20
7362.9591001378
 10
3786.7457067231
 20
7362.9588617192
 10
3786.234209464
 20
7362.9586233006
  0
LINE
  5
37D
330
1F
100
AcDbEntity
  8
0
  6
Continuous
 62
     7
370
    25
100
AcDbLine
 10
3782.4800705174
 20
7365.1592267857
 30
0.0
 11
3781.6629057387
 21
7365.1589883671
 31
0.0
  0
LINE
  5
37E
330
1F
100
AcDbEntity
  8
0
  6
Continuous
 62
     7
370
    25
100
AcDbLine
 10
3781.6629057387
 20
7365.1589883671
 30
0.0
 11
3782.2846864919
 21
7365.1587499485
 31
0.0
  0
LINE
  5
37F
330
1F
100
AcDbEntity
  8
0
  6
Continuous
 62
     7
370
    25
100
AcDbLine
 10
3782.2846864919
 20
7365.1587499485
 30
0.0
 11
3783.7236469249
 21
7365.1587499485
 31
0.0
  0
LINE
  5
380
330
1F
100
AcDbEntity
  8
0
  6
Continuous
 62
     7
370
    25
100
AcDbLine
 10
3783.7236469249
 20
7365.1587499485
 30
0.0
 11
3784.5408266047
 21
7365.1589883671
 31
0.0
  0
LINE
  5
381
330
1F
100
AcDbEntity
  8
0
  6
Continuous
 62
     7
370
    25
100
AcDbLine
 10
3784.5408266047
 20
7365.1589883671
 30
0.0
 11
3783.9190309504
 21
7365.1592267857
 31
0.0
  0
LINE
  5
382
330
1F
100
AcDbEntity
  8
0
  6
Continuous
 62
     7
370
    25
100
AcDbLine
 10
3783.9190309504
 20
7365.1592267857
 30
0.0
 11
3782.4800705174
 21
7365.1592267857
 31
0.0
  0
LINE
  5
383
330
1F
100
AcDbEntity
  8
0
  6
Continuous
 62
     7
370
    25
100
AcDbLine
 10
3783.9190309504
 20
7365.1589883671
 30
0.0
 11
3783.9190309504
 21
7365.1592267857
 31
0.0
  0
LINE
  5
384
330
1F
100
AcDbEntity
  8
0
  6
Continuous
 62
     7
370
    25
100
AcDbLine
 10
3782.4800705174
 20
7365.1587499485
 30
0.0
 11
3782.4800705174
 21
7365.1592267857
 31
0.0
  0
LWPOLYLINE
  5
385
330
1F
100
AcDbEntity
  8
0
  6
Continuous
 62
     7
370
    25
100
AcDbPolyline
 90
       17
 70
   128
 43
0.0
 10
3611.5157509093
 20
7365.2231229649
 10
3611.957159509
 20
7365.2228845463
 10
3612.1544187526
 20
7365.2228845463
 10
3612.0774976779
 20
7365.2226461277
 10
3611.7381069679
 20
7365.2226461277
 10
3611.1879156423
 20
7365.2226461277
 10
3610.5106853983
 20
7365.2226461277
 10
3609.8095184179
 20
7365.2226461277
 10
3609.1911610319
 20
7365.2226461277
 10
3608.7497524321
 20
7365.2226461277
 10
3608.552493305
 20
7365.2228845463
 10
3608.6294142632
 20
7365.2228845463
 10
3608.9688050896
 20
7365.2228845463
 10
3609.518996357
 20
7365.2231229649
 10
3610.1962265574
 20
7365.2231229649
 10
3610.8973935233
 20
7365.2231229649
 10
3611.5157509093
 20
7365.2231229649
  0
LINE
  5
386
330
1F
100
AcDbEntity
  8
0
  6
Continuous
 62
     7
370
    25
100
AcDbLine
 10
3608.9970355723
 20
7365.2226461277
 30
0.0
 11
3610.1025544967
 21
7365.2226461277
 31
0.0
  0
LINE
  5
387
330
1F
100
AcDbEntity
  8
0
  6
Continuous
 62
     7
370
    25
100
AcDbLine
 10
3610.1025544967
 20
7365.2226461277
 30
0.0
 11
3611.458974924
 21
7365.2226461277
 31
0.0
  0
LINE
  5
388
330
1F
100
AcDbEntity
  8
0
  6
Continuous
 62
     7
370
    25
100
AcDbLine
 10
3611.458974924
 20
7365.2226461277
 30
0.0
 11
3611.7098763688
 21
7365.2228845463
 31
0.0
  0
LINE
  5
389
330
1F
100
AcDbEntity
  8
0
  6
Continuous
 62
     7
370
    25
100
AcDbLine
 10
3611.7098763688
 20
7365.2228845463
 30
0.0
 11
3610.6043574736
 21
7365.2231229649
 31
0.0
  0
LINE
  5
38A
330
1F
100
AcDbEntity
  8
0
  6
Continuous
 62
     7
370
    25
100
AcDbLine
 10
3610.6043574736
 20
7365.2231229649
 30
0.0
 11
3609.2479370172
 21
7365.2228845463
 31
0.0
  0
LINE
  5
38B
330
1F
100
AcDbEntity
  8
0
  6
Continuous
 62
     7
370
    25
100
AcDbLine
 10
3609.2479370172
 20
7365.2228845463
 30
0.0
 11
3608.9970355723
 21
7365.2226461277
 31
0.0
  0
LINE
  5
38C
330
1F
100
AcDbEntity
  8
0
  6
Continuous
 62
     7
370
    25
100
AcDbLine
 10
3609.2479370172
 20
7365.2226461277
 30
0.0
 11
3609.2479370172
 21
7365.2228845463
 31
0.0
  0
LINE
  5
38D
330
1F
100
AcDbEntity
  8
0
  6
Continuous
 62
     7
370
    25
100
AcDbLine
 10
3610.6043574736
 20
7365.2226461277
 30
0.0
 11
3610.6043574736
 21
7365.2231229649
 31
0.0
  0
LWPOLYLINE
  5
38E
330
1F
100
AcDbEntity
  8
0
  6
Continuous
 62
     7
370
    25
100
AcDbPolyline
 90
       10
 70
   128
 43
0.0
 10
3402.2699242095
 20
7363.3346093998
 10
3401.5886133174
 20
7363.3346093998
 10
3400.639558361
 20
7363.3343709813
 10
3399.5156829814
 20
7363.3343709813
 10
3398.3269726495
 20
7363.3343709813
 10
3397.189790533
 20
7363.3343709813
 10
3396.2154781083
 20
7363.3346093998
 10
3395.4993730048
 20
7363.3346093998
 10
3395.1116000871
 20
7363.3348478184
 10
3395.0534557561
 20
7363.3348478184
  0
LWPOLYLINE
  5
38F
330
1F
100
AcDbEntity
  8
0
  6
Continuous
 62
     7
370
    25
100
AcDbPolyline
 90
        3
 70
   128
 43
0.0
 10
3402.6534502963
 20
7363.3348478184
 10
3402.6168083409
 20
7363.3348478184
 10
3402.2699242095
 20
7363.3346093998
  0
LWPOLYLINE
  5
390
330
1F
100
AcDbEntity
  8
0
  6
Continuous
 62
     7
370
    25
100
AcDbPolyline
 90
       17
 70
   128
 43
0.0
 10
3400.478804634
 20
7365.1549352513
 10
3400.0521992902
 20
7365.1546968327
 10
3399.4430994252
 20
7365.1546968327
 10
3398.7442349652
 20
7365.1546968327
 10
3398.0619853
 20
7365.1546968327
 10
3397.5002413253
 20
7365.1546968327
 10
3397.1445059041
 20
7365.1549352513
 10
3397.0489447574
 20
7365.1549352513
 10
3397.2281014184
 20
7365.1549352513
 10
3397.6547067622
 20
7365.1551736699
 10
3398.2638066272
 20
7365.1551736699
 10
3398.9626859883
 20
7365.1551736699
 10
3399.6449207524
 20
7365.1551736699
 10
3400.2066796283
 20
7365.1551736699
 10
3400.5624001483
 20
7365.1549352513
 10
3400.657961295
 20
7365.1549352513
 10
3400.478804634
 20
7365.1549352513
  0
LWPOLYLINE
  5
391
330
1F
100
AcDbEntity
  8
0
  6
Continuous
 62
     7
370
    25
100
AcDbPolyline
 90
       10
 70
   128
 43
0.0
 10
3402.2699242095
 20
7362.9545701848
 10
3401.5886133174
 20
7362.9545701848
 10
3400.639558361
 20
7362.9543317662
 10
3399.5156829814
 20
7362.9543317662
 10
3398.3269726495
 20
7362.9543317662
 10
3397.189790533
 20
7362.9543317662
 10
3396.2154781083
 20
7362.9545701848
 10
3395.4993730048
 20
7362.9545701848
 10
3395.1116000871
 20
7362.9548086033
 10
3395.0534557561
 20
7362.9550470219
  0
LWPOLYLINE
  5
392
330
1F
100
AcDbEntity
  8
0
  6
Continuous
 62
     7
370
    25
100
AcDbPolyline
 90
        3
 70
   128
 43
0.0
 10
3402.6534502963
 20
7362.9550470219
 10
3402.6168083409
 20
7362.9548086033
 10
3402.2699242095
 20
7362.9545701848
  0
LINE
  5
393
330
1F
100
AcDbEntity
  8
0
  6
Continuous
 62
     7
370
    25
100
AcDbLine
 10
3398.0455791215
 20
7365.1551736699
 30
0.0
 11
3397.4136655787
 21
7365.1549352513
 31
0.0
  0
LINE
  5
394
330
1F
100
AcDbEntity
  8
0
  6
Continuous
 62
     7
370
    25
100
AcDbLine
 10
3397.4136655787
 20
7365.1549352513
 30
0.0
 11
3398.2215320329
 21
7365.1546968327
 31
0.0
  0
LINE
  5
395
330
1F
100
AcDbEntity
  8
0
  6
Continuous
 62
     7
370
    25
100
AcDbLine
 10
3398.2215320329
 20
7365.1546968327
 30
0.0
 11
3399.6613418321
 21
7365.1546968327
 31
0.0
  0
LINE
  5
396
330
1F
100
AcDbEntity
  8
0
  6
Continuous
 62
     7
370
    25
100
AcDbLine
 10
3399.6613418321
 20
7365.1546968327
 30
0.0
 11
3400.2932553748
 21
7365.1549352513
 31
0.0
  0
LINE
  5
397
330
1F
100
AcDbEntity
  8
0
  6
Continuous
 62
     7
370
    25
100
AcDbLine
 10
3400.2932553748
 20
7365.1549352513
 30
0.0
 11
3399.4853740195
 21
7365.1551736699
 31
0.0
  0
LINE
  5
398
330
1F
100
AcDbEntity
  8
0
  6
Continuous
 62
     7
370
    25
100
AcDbLine
 10
3399.4853740195
 20
7365.1551736699
 30
0.0
 11
3398.0455791215
 21
7365.1551736699
 31
0.0
  0
LINE
  5
399
330
1F
100
AcDbEntity
  8
0
  6
Continuous
 62
     7
370
    25
100
AcDbLine
 10
3398.0455791215
 20
7365.1546968327
 30
0.0
 11
3398.0455791215
 21
7365.1551736699
 31
0.0
  0
LINE
  5
39A
330
1F
100
AcDbEntity
  8
0
  6
Continuous
 62
     7
370
    25
100
AcDbLine
 10
3399.4853740195
 20
7365.1546968327
 30
0.0
 11
3399.4853740195
 21
7365.1551736699
 31
0.0
  0
LWPOLYLINE
  5
39B
330
1F
100
AcDbEntity
  8
0
  6
Continuous
 62
     7
370
    25
100
AcDbPolyline
 90
       10
 70
   128
 43
0.0
 10
3632.2342065731
 20
7363.3386625157
 10
3631.4160862575
 20
7363.3386625157
 10
3630.3714329014
 20
7363.3384240971
 10
3629.2025057236
 20
7363.3384240971
 10
3628.0237288783
 20
7363.3384240971
 10
3626.9504857818
 20
7363.3386625157
 10
3626.0878333459
 20
7363.3386625157
 10
3625.5202164511
 20
7363.3389009343
 10
3625.3031959394
 20
7363.3389009343
 10
3625.3018632168
 20
7363.3391393528
  0
LWPOLYLINE
  5
39C
330
1F
100
AcDbEntity
  8
0
  6
Continuous
 62
     7
370
    25
100
AcDbPolyline
 90
        3
 70
   128
 43
0.0
 10
3632.9018624137
 20
7363.3391393528
 10
3632.7457112829
 20
7363.3389009343
 10
3632.2342065731
 20
7363.3386625157
  0
LWPOLYLINE
  5
39D
330
1F
100
AcDbEntity
  8
0
  6
Continuous
 62
     7
370
    25
100
AcDbPolyline
 90
       17
 70
   128
 43
0.0
 10
3630.5920445929
 20
7365.1589883671
 10
3630.0869362066
 20
7365.1587499485
 10
3629.4318588088
 20
7365.1587499485
 10
3628.726542146
 20
7365.1587499485
 10
3628.0783658484
 20
7365.1587499485
 10
3627.5860072682
 20
7365.1589883671
 10
3627.3244229714
 20
7365.1589883671
 10
3627.3334400366
 20
7365.1589883671
 10
3627.6116819689
 20
7365.1592267857
 10
3628.1167903552
 20
7365.1592267857
 10
3628.771867753
 20
7365.1592267857
 10
3629.4771825532
 20
7365.1592267857
 10
3630.1253607134
 20
7365.1592267857
 10
3630.6177192936
 20
7365.1592267857
 10
3630.8793017278
 20
7365.1589883671
 10
3630.8702865253
 20
7365.1589883671
 10
3630.5920445929
 20
7365.1589883671
  0
LWPOLYLINE
  5
39E
330
1F
100
AcDbEntity
  8
0
  6
Continuous
 62
     7
370
    25
100
AcDbPolyline
 90
       10
 70
   128
 43
0.0
 10
3632.2342065731
 20
7362.9586233006
 10
3631.4160862575
 20
7362.9586233006
 10
3630.3714329014
 20
7362.958384882
 10
3629.2025057236
 20
7362.958384882
 10
3628.0237288783
 20
7362.958384882
 10
3626.9504857818
 20
7362.9586233006
 10
3626.0878333459
 20
7362.9586233006
 10
3625.5202164511
 20
7362.9588617192
 10
3625.3031959394
 20
7362.9591001378
 10
3625.3018632168
 20
7362.9591001378
  0
LWPOLYLINE
  5
39F
330
1F
100
AcDbEntity
  8
0
  6
Continuous
 62
     7
370
    25
100
AcDbPolyline
 90
        3
 70
   128
 43
0.0
 10
3632.9018624137
 20
7362.9591001378
 10
3632.7457112829
 20
7362.9588617192
 10
3632.2342065731
 20
7362.9586233006
  0
LINE
  5
3A0
330
1F
100
AcDbEntity
  8
0
  6
Continuous
 62
     7
370
    25
100
AcDbLine
 10
3628.4800713519
 20
7365.1592267857
 30
0.0
 11
3627.6629009853
 21
7365.1589883671
 31
0.0
  0
LINE
  5
3A1
330
1F
100
AcDbEntity
  8
0
  6
Continuous
 62
     7
370
    25
100
AcDbLine
 10
3627.6629009853
 20
7365.1589883671
 30
0.0
 11
3628.2846929143
 21
7365.1587499485
 31
0.0
  0
LINE
  5
3A2
330
1F
100
AcDbEntity
  8
0
  6
Continuous
 62
     7
370
    25
100
AcDbLine
 10
3628.2846929143
 20
7365.1587499485
 30
0.0
 11
3629.7236533473
 21
7365.1587499485
 31
0.0
  0
LINE
  5
3A3
330
1F
100
AcDbEntity
  8
0
  6
Continuous
 62
     7
370
    25
100
AcDbLine
 10
3629.7236533473
 20
7365.1587499485
 30
0.0
 11
3630.5408237139
 21
7365.1589883671
 31
0.0
  0
LINE
  5
3A4
330
1F
100
AcDbEntity
  8
0
  6
Continuous
 62
     7
370
    25
100
AcDbLine
 10
3630.5408237139
 20
7365.1589883671
 30
0.0
 11
3629.9190336476
 21
7365.1592267857
 31
0.0
  0
LINE
  5
3A5
330
1F
100
AcDbEntity
  8
0
  6
Continuous
 62
     7
370
    25
100
AcDbLine
 10
3629.9190336476
 20
7365.1592267857
 30
0.0
 11
3628.4800713519
 21
7365.1592267857
 31
0.0
  0
LINE
  5
3A6
330
1F
100
AcDbEntity
  8
0
  6
Continuous
 62
     7
370
    25
100
AcDbLine
 10
3629.9190336476
 20
7365.1589883671
 30
0.0
 11
3629.9190336476
 21
7365.1592267857
 31
0.0
  0
LINE
  5
3A7
330
1F
100
AcDbEntity
  8
0
  6
Continuous
 62
     7
370
    25
100
AcDbLine
 10
3628.4800713519
 20
7365.1587499485
 30
0.0
 11
3628.4800713519
 21
7365.1592267857
 31
0.0
  0
LWPOLYLINE
  5
3A8
330
1F
100
AcDbEntity
  8
0
  6
Continuous
 62
     7
370
    25
100
AcDbPolyline
 90
       10
 70
   128
 43
0.0
 10
3825.2699171761
 20
7363.3346093998
 10
3824.588606284
 20
7363.3346093998
 10
3823.6395662288
 20
7363.3343709813
 10
3822.515675948
 20
7363.3343709813
 10
3821.3269656161
 20
7363.3343709813
 10
3820.1897984008
 20
7363.3343709813
 10
3819.215471075
 20
7363.3346093998
 10
3818.4993808726
 20
7363.3346093998
 10
3818.1116079549
 20
7363.3348478184
 10
3818.0534487227
 20
7363.3348478184
  0
LWPOLYLINE
  5
3A9
330
1F
100
AcDbEntity
  8
0
  6
Continuous
 62
     7
370
    25
100
AcDbPolyline
 90
        3
 70
   128
 43
0.0
 10
3825.6534581641
 20
7363.3348478184
 10
3825.6168013076
 20
7363.3348478184
 10
3825.2699171761
 20
7363.3346093998
  0
LWPOLYLINE
  5
3AA
330
1F
100
AcDbEntity
  8
0
  6
Continuous
 62
     7
370
    25
100
AcDbPolyline
 90
       17
 70
   128
 43
0.0
 10
3823.4788125018
 20
7365.1549352513
 10
3823.052207158
 20
7365.1546968327
 10
3822.4430923919
 20
7365.1546968327
 10
3821.7442279319
 20
7365.1546968327
 10
3821.0619931678
 20
7365.1546968327
 10
3820.5002342919
 20
7365.1546968327
 10
3820.1445137719
 20
7365.1549352513
 10
3820.0489526252
 20
7365.1549352513
 10
3820.2281092862
 20
7365.1549352513
 10
3820.65471463
 20
7365.1551736699
 10
3821.263814495
 20
7365.1551736699
 10
3821.962678955
 20
7365.1551736699
 10
3822.6449286202
 20
7365.1551736699
 10
3823.2066725949
 20
7365.1551736699
 10
3823.5624080161
 20
7365.1549352513
 10
3823.6579691628
 20
7365.1549352513
 10
3823.4788125018
 20
7365.1549352513
  0
LWPOLYLINE
  5
3AB
330
1F
100
AcDbEntity
  8
0
  6
Continuous
 62
     7
370
    25
100
AcDbPolyline
 90
       10
 70
   128
 43
0.0
 10
3825.2699171761
 20
7362.9545701848
 10
3824.588606284
 20
7362.9545701848
 10
3823.6395662288
 20
7362.9543317662
 10
3822.515675948
 20
7362.9543317662
 10
3821.3269656161
 20
7362.9543317662
 10
3820.1897984008
 20
7362.9543317662
 10
3819.215471075
 20
7362.9545701848
 10
3818.4993808726
 20
7362.9545701848
 10
3818.1116079549
 20
7362.9548086033
 10
3818.0534487227
 20
7362.9550470219
  0
LWPOLYLINE
  5
3AC
330
1F
100
AcDbEntity
  8
0
  6
Continuous
 62
     7
370
    25
100
AcDbPolyline
 90
        3
 70
   128
 43
0.0
 10
3825.6534581641
 20
7362.9550470219
 10
3825.6168013076
 20
7362.9548086033
 10
3825.2699171761
 20
7362.9545701848
  0
LINE
  5
3AD
330
1F
100
AcDbEntity
  8
0
  6
Continuous
 62
     7
370
    25
100
AcDbLine
 10
3821.0455720881
 20
7365.1551736699
 30
0.0
 11
3820.4136585454
 21
7365.1549352513
 31
0.0
  0
LINE
  5
3AE
330
1F
100
AcDbEntity
  8
0
  6
Continuous
 62
     7
370
    25
100
AcDbLine
 10
3820.4136585454
 20
7365.1549352513
 30
0.0
 11
3821.2215399007
 21
7365.1546968327
 31
0.0
  0
LINE
  5
3AF
330
1F
100
AcDbEntity
  8
0
  6
Continuous
 62
     7
370
    25
100
AcDbLine
 10
3821.2215399007
 20
7365.1546968327
 30
0.0
 11
3822.6613347987
 21
7365.1546968327
 31
0.0
  0
LINE
  5
3B0
330
1F
100
AcDbEntity
  8
0
  6
Continuous
 62
     7
370
    25
100
AcDbLine
 10
3822.6613347987
 20
7365.1546968327
 30
0.0
 11
3823.2932483415
 21
7365.1549352513
 31
0.0
  0
LINE
  5
3B1
330
1F
100
AcDbEntity
  8
0
  6
Continuous
 62
     7
370
    25
100
AcDbLine
 10
3823.2932483415
 20
7365.1549352513
 30
0.0
 11
3822.4853669862
 21
7365.1551736699
 31
0.0
  0
LINE
  5
3B2
330
1F
100
AcDbEntity
  8
0
  6
Continuous
 62
     7
370
    25
100
AcDbLine
 10
3822.4853669862
 20
7365.1551736699
 30
0.0
 11
3821.0455720881
 21
7365.1551736699
 31
0.0
  0
LINE
  5
3B3
330
1F
100
AcDbEntity
  8
0
  6
Continuous
 62
     7
370
    25
100
AcDbLine
 10
3821.0455720881
 20
7365.1546968327
 30
0.0
 11
3821.0455720881
 21
7365.1551736699
 31
0.0
  0
LINE
  5
3B4
330
1F
100
AcDbEntity
  8
0
  6
Continuous
 62
     7
370
    25
100
AcDbLine
 10
3822.4853669862
 20
7365.1546968327
 30
0.0
 11
3822.4853669862
 21
7365.1551736699
 31
0.0
  0
LWPOLYLINE
  5
3B5
330
1F
100
AcDbEntity
  8
0
  6
Continuous
 62
     7
370
    25
100
AcDbPolyline
 90
       17
 70
   128
 43
0.0
 10
3593.0920449654
 20
7365.182830225
 10
3592.5869365791
 20
7365.182830225
 10
3591.9318591813
 20
7365.182830225
 10
3591.2265425185
 20
7365.182830225
 10
3590.578366221
 20
7365.182830225
 10
3590.0860076407
 20
7365.182830225
 10
3589.8244233439
 20
7365.1830686436
 10
3589.8334385464
 20
7365.1830686436
 10
3590.1116804788
 20
7365.1830686436
 10
3590.6167907278
 20
7365.1833070622
 10
3591.2718662629
 20
7365.1833070622
 10
3591.9771829257
 20
7365.1833070622
 10
3592.6253592233
 20
7365.1833070622
 10
3593.1177196661
 20
7365.1830686436
 10
3593.3793021003
 20
7365.1830686436
 10
3593.3702868978
 20
7365.1830686436
 10
3593.0920449654
 20
7365.182830225
  0
LINE
  5
3B6
330
1F
100
AcDbEntity
  8
0
  6
Continuous
 62
     7
370
    25
100
AcDbLine
 10
3590.9800717244
 20
7365.1833070622
 30
0.0
 11
3590.1629013578
 21
7365.1830686436
 31
0.0
  0
LINE
  5
3B7
330
1F
100
AcDbEntity
  8
0
  6
Continuous
 62
     7
370
    25
100
AcDbLine
 10
3590.1629013578
 20
7365.1830686436
 30
0.0
 11
3590.7846932868
 21
7365.182830225
 31
0.0
  0
LINE
  5
3B8
330
1F
100
AcDbEntity
  8
0
  6
Continuous
 62
     7
370
    25
100
AcDbLine
 10
3590.7846932868
 20
7365.182830225
 30
0.0
 11
3592.2236537198
 21
7365.182830225
 31
0.0
  0
LINE
  5
3B9
330
1F
100
AcDbEntity
  8
0
  6
Continuous
 62
     7
370
    25
100
AcDbLine
 10
3592.2236537198
 20
7365.182830225
 30
0.0
 11
3593.0408240864
 21
7365.1830686436
 31
0.0
  0
LINE
  5
3BA
330
1F
100
AcDbEntity
  8
0
  6
Continuous
 62
     7
370
    25
100
AcDbLine
 10
3593.0408240864
 20
7365.1830686436
 30
0.0
 11
3592.4190321574
 21
7365.1833070622
 31
0.0
  0
LINE
  5
3BB
330
1F
100
AcDbEntity
  8
0
  6
Continuous
 62
     7
370
    25
100
AcDbLine
 10
3592.4190321574
 20
7365.1833070622
 30
0.0
 11
3590.9800717244
 21
7365.1833070622
 31
0.0
  0
LINE
  5
3BC
330
1F
100
AcDbEntity
  8
0
  6
Continuous
 62
     7
370
    25
100
AcDbLine
 10
3592.4190321574
 20
7365.182830225
 30
0.0
 11
3592.4190321574
 21
7365.1833070622
 31
0.0
  0
LINE
  5
3BD
330
1F
100
AcDbEntity
  8
0
  6
Continuous
 62
     7
370
    25
100
AcDbLine
 10
3590.9800717244
 20
7365.182830225
 30
0.0
 11
3590.9800717244
 21
7365.1833070622
 31
0.0
  0
LWPOLYLINE
  5
3BE
330
1F
100
AcDbEntity
  8
0
  6
Continuous
 62
     7
370
    25
100
AcDbPolyline
 90
       17
 70
   128
 43
0.0
 10
3823.4788125018
 20
7365.2205003605
 10
3823.052207158
 20
7365.220261942
 10
3822.4430923919
 20
7365.220261942
 10
3821.7442279319
 20
7365.220261942
 10
3821.0619931678
 20
7365.220261942
 10
3820.5002342919
 20
7365.220261942
 10
3820.1445137719
 20
7365.2205003605
 10
3820.0489526252
 20
7365.2205003605
 10
3820.2281092862
 20
7365.2207387791
 10
3820.65471463
 20
7365.2207387791
 10
3821.263814495
 20
7365.2207387791
 10
3821.962678955
 20
7365.2207387791
 10
3822.6449286202
 20
7365.2207387791
 10
3823.2066725949
 20
7365.2207387791
 10
3823.5624080161
 20
7365.2205003605
 10
3823.6579691628
 20
7365.2205003605
 10
3823.4788125018
 20
7365.2205003605
  0
LINE
  5
3BF
330
1F
100
AcDbEntity
  8
0
  6
Continuous
 62
     7
370
    25
100
AcDbLine
 10
3821.0455720881
 20
7365.2207387791
 30
0.0
 11
3820.4136585454
 21
7365.2205003605
 31
0.0
  0
LINE
  5
3C0
330
1F
100
AcDbEntity
  8
0
  6
Continuous
 62
     7
370
    25
100
AcDbLine
 10
3820.4136585454
 20
7365.2205003605
 30
0.0
 11
3821.2215399007
 21
7365.220261942
 31
0.0
  0
LINE
  5
3C1
330
1F
100
AcDbEntity
  8
0
  6
Continuous
 62
     7
370
    25
100
AcDbLine
 10
3821.2215399007
 20
7365.220261942
 30
0.0
 11
3822.6613347987
 21
7365.220261942
 31
0.0
  0
LINE
  5
3C2
330
1F
100
AcDbEntity
  8
0
  6
Continuous
 62
     7
370
    25
100
AcDbLine
 10
3822.6613347987
 20
7365.220261942
 30
0.0
 11
3823.2932483415
 21
7365.2205003605
 31
0.0
  0
LINE
  5
3C3
330
1F
100
AcDbEntity
  8
0
  6
Continuous
 62
     7
370
    25
100
AcDbLine
 10
3823.2932483415
 20
7365.2205003605
 30
0.0
 11
3822.4853669862
 21
7365.2207387791
 31
0.0
  0
LINE
  5
3C4
330
1F
100
AcDbEntity
  8
0
  6
Continuous
 62
     7
370
    25
100
AcDbLine
 10
3822.4853669862
 20
7365.2207387791
 30
0.0
 11
3821.0455720881
 21
7365.2207387791
 31
0.0
  0
LINE
  5
3C5
330
1F
100
AcDbEntity
  8
0
  6
Continuous
 62
     7
370
    25
100
AcDbLine
 10
3821.0455720881
 20
7365.220261942
 30
0.0
 11
3821.0455720881
 21
7365.2207387791
 31
0.0
  0
LINE
  5
3C6
330
1F
100
AcDbEntity
  8
0
  6
Continuous
 62
     7
370
    25
100
AcDbLine
 10
3822.4853669862
 20
7365.220261942
 30
0.0
 11
3822.4853669862
 21
7365.2207387791
 31
0.0
  0
LWPOLYLINE
  5
3C7
330
1F
100
AcDbEntity
  8
0
  6
Continuous
 62
     7
370
    25
100
AcDbPolyline
 90
       17
 70
   128
 43
0.0
 10
3439.0920495252
 20
7365.182830225
 10
3438.586929963
 20
7365.182830225
 10
3437.9318600158
 20
7365.182830225
 10
3437.226543353
 20
7365.182830225
 10
3436.5783726434
 20
7365.182830225
 10
3436.0860084752
 20
7365.182830225
 10
3435.8244185904
 20
7365.1830686436
 10
3435.833433793
 20
7365.1830686436
 10
3436.1116831759
 20
7365.1830686436
 10
3436.6167878369
 20
7365.1833070622
 10
3437.2718726853
 20
7365.1833070622
 10
3437.9771893481
 20
7365.1833070622
 10
3438.6253600577
 20
7365.1833070622
 10
3439.1177242259
 20
7365.1830686436
 10
3439.3792992095
 20
7365.1830686436
 10
3439.370284007
 20
7365.1830686436
 10
3439.0920495252
 20
7365.182830225
  0
LINE
  5
3C8
330
1F
100
AcDbEntity
  8
0
  6
Continuous
 62
     7
370
    25
100
AcDbLine
 10
3436.9800781468
 20
7365.1833070622
 30
0.0
 11
3436.162898467
 21
7365.1830686436
 31
0.0
  0
LINE
  5
3C9
330
1F
100
AcDbEntity
  8
0
  6
Continuous
 62
     7
370
    25
100
AcDbLine
 10
3436.162898467
 20
7365.1830686436
 30
0.0
 11
3436.7846941213
 21
7365.182830225
 31
0.0
  0
LINE
  5
3CA
330
1F
100
AcDbEntity
  8
0
  6
Continuous
 62
     7
370
    25
100
AcDbLine
 10
3436.7846941213
 20
7365.182830225
 30
0.0
 11
3438.2236545543
 21
7365.182830225
 31
0.0
  0
LINE
  5
3CB
330
1F
100
AcDbEntity
  8
0
  6
Continuous
 62
     7
370
    25
100
AcDbLine
 10
3438.2236545543
 20
7365.182830225
 30
0.0
 11
3439.040819333
 21
7365.1830686436
 31
0.0
  0
LINE
  5
3CC
330
1F
100
AcDbEntity
  8
0
  6
Continuous
 62
     7
370
    25
100
AcDbLine
 10
3439.040819333
 20
7365.1830686436
 30
0.0
 11
3438.4190385798
 21
7365.1833070622
 31
0.0
  0
LINE
  5
3CD
330
1F
100
AcDbEntity
  8
0
  6
Continuous
 62
     7
370
    25
100
AcDbLine
 10
3438.4190385798
 20
7365.1833070622
 30
0.0
 11
3436.9800781468
 21
7365.1833070622
 31
0.0
  0
LINE
  5
3CE
330
1F
100
AcDbEntity
  8
0
  6
Continuous
 62
     7
370
    25
100
AcDbLine
 10
3438.4190385798
 20
7365.182830225
 30
0.0
 11
3438.4190385798
 21
7365.1833070622
 31
0.0
  0
LINE
  5
3CF
330
1F
100
AcDbEntity
  8
0
  6
Continuous
 62
     7
370
    25
100
AcDbLine
 10
3436.9800781468
 20
7365.182830225
 30
0.0
 11
3436.9800781468
 21
7365.1833070622
 31
0.0
  0
LWPOLYLINE
  5
3D0
330
1F
100
AcDbEntity
  8
0
  6
Continuous
 62
     7
370
    25
100
AcDbPolyline
 90
       17
 70
   128
 43
0.0
 10
3400.478804634
 20
7365.1875985966
 10
3400.0521992902
 20
7365.1875985966
 10
3399.4430994252
 20
7365.187360178
 10
3398.7442349652
 20
7365.187360178
 10
3398.0619853
 20
7365.187360178
 10
3397.5002413253
 20
7365.1875985966
 10
3397.1445059041
 20
7365.1875985966
 10
3397.0489447574
 20
7365.1878370152
 10
3397.2281014184
 20
7365.1878370152
 10
3397.6547067622
 20
7365.1878370152
 10
3398.2638066272
 20
7365.1880754338
 10
3398.9626859883
 20
7365.1880754338
 10
3399.6449207524
 20
7365.1880754338
 10
3400.2066796283
 20
7365.1878370152
 10
3400.5624001483
 20
7365.1878370152
 10
3400.657961295
 20
7365.1875985966
 10
3400.478804634
 20
7365.1875985966
  0
LINE
  5
3D1
330
1F
100
AcDbEntity
  8
0
  6
Continuous
 62
     7
370
    25
100
AcDbLine
 10
3398.0455791215
 20
7365.1878370152
 30
0.0
 11
3397.4136655787
 21
7365.1875985966
 31
0.0
  0
LINE
  5
3D2
330
1F
100
AcDbEntity
  8
0
  6
Continuous
 62
     7
370
    25
100
AcDbLine
 10
3397.4136655787
 20
7365.1875985966
 30
0.0
 11
3398.2215320329
 21
7365.1875985966
 31
0.0
  0
LINE
  5
3D3
330
1F
100
AcDbEntity
  8
0
  6
Continuous
 62
     7
370
    25
100
AcDbLine
 10
3398.2215320329
 20
7365.1875985966
 30
0.0
 11
3399.6613418321
 21
7365.1875985966
 31
0.0
  0
LINE
  5
3D4
330
1F
100
AcDbEntity
  8
0
  6
Continuous
 62
     7
370
    25
100
AcDbLine
 10
3399.6613418321
 20
7365.1875985966
 30
0.0
 11
3400.2932553748
 21
7365.1878370152
 31
0.0
  0
LINE
  5
3D5
330
1F
100
AcDbEntity
  8
0
  6
Continuous
 62
     7
370
    25
100
AcDbLine
 10
3400.2932553748
 20
7365.1878370152
 30
0.0
 11
3399.4853740195
 21
7365.1878370152
 31
0.0
  0
LINE
  5
3D6
330
1F
100
AcDbEntity
  8
0
  6
Continuous
 62
     7
370
    25
100
AcDbLine
 10
3399.4853740195
 20
7365.1878370152
 30
0.0
 11
3398.0455791215
 21
7365.1878370152
 31
0.0
  0
LINE
  5
3D7
330
1F
100
AcDbEntity
  8
0
  6
Continuous
 62
     7
370
    25
100
AcDbLine
 10
3398.0455791215
 20
7365.1875985966
 30
0.0
 11
3398.0455791215
 21
7365.1878370152
 31
0.0
  0
LINE
  5
3D8
330
1F
100
AcDbEntity
  8
0
  6
Continuous
 62
     7
370
    25
100
AcDbLine
 10
3399.4853740195
 20
7365.1875985966
 30
0.0
 11
3399.4853740195
 21
7365.1878370152
 31
0.0
  0
LWPOLYLINE
  5
3D9
330
1F
100
AcDbEntity
  8
0
  6
Continuous
 62
     7
370
    25
100
AcDbPolyline
 90
       17
 70
   128
 43
0.0
 10
3593.0920449654
 20
7365.1775850163
 10
3592.5869365791
 20
7365.1775850163
 10
3591.9318591813
 20
7365.1775850163
 10
3591.2265425185
 20
7365.1775850163
 10
3590.578366221
 20
7365.1775850163
 10
3590.0860076407
 20
7365.1775850163
 10
3589.8244233439
 20
7365.1778234349
 10
3589.8334385464
 20
7365.1778234349
 10
3590.1116804788
 20
7365.1780618535
 10
3590.6167907278
 20
7365.1780618535
 10
3591.2718662629
 20
7365.1780618535
 10
3591.9771829257
 20
7365.1780618535
 10
3592.6253592233
 20
7365.1780618535
 10
3593.1177196661
 20
7365.1780618535
 10
3593.3793021003
 20
7365.1778234349
 10
3593.3702868978
 20
7365.1778234349
 10
3593.0920449654
 20
7365.1775850163
  0
LINE
  5
3DA
330
1F
100
AcDbEntity
  8
0
  6
Continuous
 62
     7
370
    25
100
AcDbLine
 10
3590.9800717244
 20
7365.1780618535
 30
0.0
 11
3590.1629013578
 21
7365.1778234349
 31
0.0
  0
LINE
  5
3DB
330
1F
100
AcDbEntity
  8
0
  6
Continuous
 62
     7
370
    25
100
AcDbLine
 10
3590.1629013578
 20
7365.1778234349
 30
0.0
 11
3590.7846932868
 21
7365.1775850163
 31
0.0
  0
LINE
  5
3DC
330
1F
100
AcDbEntity
  8
0
  6
Continuous
 62
     7
370
    25
100
AcDbLine
 10
3590.7846932868
 20
7365.1775850163
 30
0.0
 11
3592.2236537198
 21
7365.1775850163
 31
0.0
  0
LINE
  5
3DD
330
1F
100
AcDbEntity
  8
0
  6
Continuous
 62
     7
370
    25
100
AcDbLine
 10
3592.2236537198
 20
7365.1775850163
 30
0.0
 11
3593.0408240864
 21
7365.1778234349
 31
0.0
  0
LINE
  5
3DE
330
1F
100
AcDbEntity
  8
0
  6
Continuous
 62
     7
370
    25
100
AcDbLine
 10
3593.0408240864
 20
7365.1778234349
 30
0.0
 11
3592.4190321574
 21
7365.1780618535
 31
0.0
  0
LINE
  5
3DF
330
1F
100
AcDbEntity
  8
0
  6
Continuous
 62
     7
370
    25
100
AcDbLine
 10
3592.4190321574
 20
7365.1780618535
 30
0.0
 11
3590.9800717244
 21
7365.1780618535
 31
0.0
  0
LINE
  5
3E0
330
1F
100
AcDbEntity
  8
0
  6
Continuous
 62
     7
370
    25
100
AcDbLine
 10
3592.4190321574
 20
7365.1775850163
 30
0.0
 11
3592.4190321574
 21
7365.1780618535
 31
0.0
  0
LINE
  5
3E1
330
1F
100
AcDbEntity
  8
0
  6
Continuous
 62
     7
370
    25
100
AcDbLine
 10
3590.9800717244
 20
7365.1775850163
 30
0.0
 11
3590.9800717244
 21
7365.1780618535
 31
0.0
  0
LWPOLYLINE
  5
3E2
330
1F
100
AcDbEntity
  8
0
  6
Continuous
 62
     7
370
    25
100
AcDbPolyline
 90
       17
 70
   128
 43
0.0
 10
3593.0920449654
 20
7365.2016652928
 10
3592.5869365791
 20
7365.2016652928
 10
3591.9318591813
 20
7365.2014268742
 10
3591.2265425185
 20
7365.2014268742
 10
3590.578366221
 20
7365.2016652928
 10
3590.0860076407
 20
7365.2016652928
 10
3589.8244233439
 20
7365.2016652928
 10
3589.8334385464
 20
7365.2019037114
 10
3590.1116804788
 20
7365.2019037114
 10
3590.6167907278
 20
7365.2021421299
 10
3591.2718662629
 20
7365.2021421299
 10
3591.9771829257
 20
7365.2021421299
 10
3592.6253592233
 20
7365.2021421299
 10
3593.1177196661
 20
7365.2019037114
 10
3593.3793021003
 20
7365.2019037114
 10
3593.3702868978
 20
7365.2016652928
 10
3593.0920449654
 20
7365.2016652928
  0
LINE
  5
3E3
330
1F
100
AcDbEntity
  8
0
  6
Continuous
 62
     7
370
    25
100
AcDbLine
 10
3590.9800717244
 20
7365.2019037114
 30
0.0
 11
3590.1629013578
 21
7365.2019037114
 31
0.0
  0
LINE
  5
3E4
330
1F
100
AcDbEntity
  8
0
  6
Continuous
 62
     7
370
    25
100
AcDbLine
 10
3590.1629013578
 20
7365.2019037114
 30
0.0
 11
3590.7846932868
 21
7365.2016652928
 31
0.0
  0
LINE
  5
3E5
330
1F
100
AcDbEntity
  8
0
  6
Continuous
 62
     7
370
    25
100
AcDbLine
 10
3590.7846932868
 20
7365.2016652928
 30
0.0
 11
3592.2236537198
 21
7365.2016652928
 31
0.0
  0
LINE
  5
3E6
330
1F
100
AcDbEntity
  8
0
  6
Continuous
 62
     7
370
    25
100
AcDbLine
 10
3592.2236537198
 20
7365.2016652928
 30
0.0
 11
3593.0408240864
 21
7365.2016652928
 31
0.0
  0
LINE
  5
3E7
330
1F
100
AcDbEntity
  8
0
  6
Continuous
 62
     7
370
    25
100
AcDbLine
 10
3593.0408240864
 20
7365.2016652928
 30
0.0
 11
3592.4190321574
 21
7365.2019037114
 31
0.0
  0
LINE
  5
3E8
330
1F
100
AcDbEntity
  8
0
  6
Continuous
 62
     7
370
    25
100
AcDbLine
 10
3592.4190321574
 20
7365.2019037114
 30
0.0
 11
3590.9800717244
 21
7365.2019037114
 31
0.0
  0
LINE
  5
3E9
330
1F
100
AcDbEntity
  8
0
  6
Continuous
 62
     7
370
    25
100
AcDbLine
 10
3592.4190321574
 20
7365.2016652928
 30
0.0
 11
3592.4190321574
 21
7365.2019037114
 31
0.0
  0
LINE
  5
3EA
330
1F
100
AcDbEntity
  8
0
  6
Continuous
 62
     7
370
    25
100
AcDbLine
 10
3590.9800717244
 20
7365.2016652928
 30
0.0
 11
3590.9800717244
 21
7365.2019037114
 31
0.0
  0
LWPOLYLINE
  5
3EB
330
1F
100
AcDbEntity
  8
0
  6
Continuous
 62
     7
370
    25
100
AcDbPolyline
 90
       17
 70
   128
 43
0.0
 10
3439.0920495252
 20
7365.1775850163
 10
3438.586929963
 20
7365.1775850163
 10
3437.9318600158
 20
7365.1775850163
 10
3437.226543353
 20
7365.1775850163
 10
3436.5783726434
 20
7365.1775850163
 10
3436.0860084752
 20
7365.1775850163
 10
3435.8244185904
 20
7365.1778234349
 10
3435.833433793
 20
7365.1778234349
 10
3436.1116831759
 20
7365.1780618535
 10
3436.6167878369
 20
7365.1780618535
 10
3437.2718726853
 20
7365.1780618535
 10
3437.9771893481
 20
7365.1780618535
 10
3438.6253600577
 20
7365.1780618535
 10
3439.1177242259
 20
7365.1780618535
 10
3439.3792992095
 20
7365.1778234349
 10
3439.370284007
 20
7365.1778234349
 10
3439.0920495252
 20
7365.1775850163
  0
LINE
  5
3EC
330
1F
100
AcDbEntity
  8
0
  6
Continuous
 62
     7
370
    25
100
AcDbLine
 10
3436.9800781468
 20
7365.1780618535
 30
0.0
 11
3436.162898467
 21
7365.1778234349
 31
0.0
  0
LINE
  5
3ED
330
1F
100
AcDbEntity
  8
0
  6
Continuous
 62
     7
370
    25
100
AcDbLine
 10
3436.162898467
 20
7365.1778234349
 30
0.0
 11
3436.7846941213
 21
7365.1775850163
 31
0.0
  0
LINE
  5
3EE
330
1F
100
AcDbEntity
  8
0
  6
Continuous
 62
     7
370
    25
100
AcDbLine
 10
3436.7846941213
 20
7365.1775850163
 30
0.0
 11
3438.2236545543
 21
7365.1775850163
 31
0.0
  0
LINE
  5
3EF
330
1F
100
AcDbEntity
  8
0
  6
Continuous
 62
     7
370
    25
100
AcDbLine
 10
3438.2236545543
 20
7365.1775850163
 30
0.0
 11
3439.040819333
 21
7365.1778234349
 31
0.0
  0
LINE
  5
3F0
330
1F
100
AcDbEntity
  8
0
  6
Continuous
 62
     7
370
    25
100
AcDbLine
 10
3439.040819333
 20
7365.1778234349
 30
0.0
 11
3438.4190385798
 21
7365.1780618535
 31
0.0
  0
LINE
  5
3F1
330
1F
100
AcDbEntity
  8
0
  6
Continuous
 62
     7
370
    25
100
AcDbLine
 10
3438.4190385798
 20
7365.1780618535
 30
0.0
 11
3436.9800781468
 21
7365.1780618535
 31
0.0
  0
LINE
  5
3F2
330
1F
100
AcDbEntity
  8
0
  6
Continuous
 62
     7
370
    25
100
AcDbLine
 10
3438.4190385798
 20
7365.1775850163
 30
0.0
 11
3438.4190385798
 21
7365.1780618535
 31
0.0
  0
LINE
  5
3F3
330
1F
100
AcDbEntity
  8
0
  6
Continuous
 62
     7
370
    25
100
AcDbLine
 10
3436.9800781468
 20
7365.1775850163
 30
0.0
 11
3436.9800781468
 21
7365.1780618535
 31
0.0
  0
LWPOLYLINE
  5
3F4
330
1F
100
AcDbEntity
  8
0
  6
Continuous
 62
     7
370
    25
100
AcDbPolyline
 90
       17
 70
   128
 43
0.0
 10
3630.5920445929
 20
7365.182830225
 10
3630.0869362066
 20
7365.182830225
 10
3629.4318588088
 20
7365.182830225
 10
3628.726542146
 20
7365.182830225
 10
3628.0783658484
 20
7365.182830225
 10
3627.5860072682
 20
7365.182830225
 10
3627.3244229714
 20
7365.1830686436
 10
3627.3334400366
 20
7365.1830686436
 10
3627.6116819689
 20
7365.1830686436
 10
3628.1167903552
 20
7365.1833070622
 10
3628.771867753
 20
7365.1833070622
 10
3629.4771825532
 20
7365.1833070622
 10
3630.1253607134
 20
7365.1833070622
 10
3630.6177192936
 20
7365.1830686436
 10
3630.8793017278
 20
7365.1830686436
 10
3630.8702865253
 20
7365.1830686436
 10
3630.5920445929
 20
7365.182830225
  0
LINE
  5
3F5
330
1F
100
AcDbEntity
  8
0
  6
Continuous
 62
     7
370
    25
100
AcDbLine
 10
3628.4800713519
 20
7365.1833070622
 30
0.0
 11
3627.6629009853
 21
7365.1830686436
 31
0.0
  0
LINE
  5
3F6
330
1F
100
AcDbEntity
  8
0
  6
Continuous
 62
     7
370
    25
100
AcDbLine
 10
3627.6629009853
 20
7365.1830686436
 30
0.0
 11
3628.2846929143
 21
7365.182830225
 31
0.0
  0
LINE
  5
3F7
330
1F
100
AcDbEntity
  8
0
  6
Continuous
 62
     7
370
    25
100
AcDbLine
 10
3628.2846929143
 20
7365.182830225
 30
0.0
 11
3629.7236533473
 21
7365.182830225
 31
0.0
  0
LINE
  5
3F8
330
1F
100
AcDbEntity
  8
0
  6
Continuous
 62
     7
370
    25
100
AcDbLine
 10
3629.7236533473
 20
7365.182830225
 30
0.0
 11
3630.5408237139
 21
7365.1830686436
 31
0.0
  0
LINE
  5
3F9
330
1F
100
AcDbEntity
  8
0
  6
Continuous
 62
     7
370
    25
100
AcDbLine
 10
3630.5408237139
 20
7365.1830686436
 30
0.0
 11
3629.9190336476
 21
7365.1833070622
 31
0.0
  0
LINE
  5
3FA
330
1F
100
AcDbEntity
  8
0
  6
Continuous
 62
     7
370
    25
100
AcDbLine
 10
3629.9190336476
 20
7365.1833070622
 30
0.0
 11
3628.4800713519
 21
7365.1833070622
 31
0.0
  0
LINE
  5
3FB
330
1F
100
AcDbEntity
  8
0
  6
Continuous
 62
     7
370
    25
100
AcDbLine
 10
3629.9190336476
 20
7365.182830225
 30
0.0
 11
3629.9190336476
 21
7365.1833070622
 31
0.0
  0
LINE
  5
3FC
330
1F
100
AcDbEntity
  8
0
  6
Continuous
 62
     7
370
    25
100
AcDbLine
 10
3628.4800713519
 20
7365.182830225
 30
0.0
 11
3628.4800713519
 21
7365.1833070622
 31
0.0
  0
LWPOLYLINE
  5
3FD
330
1F
100
AcDbEntity
  8
0
  6
Continuous
 62
     7
370
    25
100
AcDbPolyline
 90
       17
 70
   128
 43
0.0
 10
3784.5920418958
 20
7365.182830225
 10
3784.0869372348
 20
7365.182830225
 10
3783.4318523864
 20
7365.182830225
 10
3782.7265357236
 20
7365.182830225
 10
3782.078365014
 20
7365.182830225
 10
3781.5860008458
 20
7365.182830225
 10
3781.3244258622
 20
7365.1830686436
 10
3781.3334410647
 20
7365.1830686436
 10
3781.6116755465
 20
7365.1830686436
 10
3782.1167951087
 20
7365.1833070622
 10
3782.7718650559
 20
7365.1833070622
 10
3783.4771817187
 20
7365.1833070622
 10
3784.1253673295
 20
7365.1833070622
 10
3784.6177165965
 20
7365.1830686436
 10
3784.8793064813
 20
7365.1830686436
 10
3784.8702912787
 20
7365.1830686436
 10
3784.5920418958
 20
7365.182830225
  0
LINE
  5
3FE
330
1F
100
AcDbEntity
  8
0
  6
Continuous
 62
     7
370
    25
100
AcDbLine
 10
3782.4800705174
 20
7365.1833070622
 30
0.0
 11
3781.6629057387
 21
7365.1830686436
 31
0.0
  0
LINE
  5
3FF
330
1F
100
AcDbEntity
  8
0
  6
Continuous
 62
     7
370
    25
100
AcDbLine
 10
3781.6629057387
 20
7365.1830686436
 30
0.0
 11
3782.2846864919
 21
7365.182830225
 31
0.0
  0
LINE
  5
400
330
1F
100
AcDbEntity
  8
0
  6
Continuous
 62
     7
370
    25
100
AcDbLine
 10
3782.2846864919
 20
7365.182830225
 30
0.0
 11
3783.7236469249
 21
7365.182830225
 31
0.0
  0
LINE
  5
401
330
1F
100
AcDbEntity
  8
0
  6
Continuous
 62
     7
370
    25
100
AcDbLine
 10
3783.7236469249
 20
7365.182830225
 30
0.0
 11
3784.5408266047
 21
7365.1830686436
 31
0.0
  0
LINE
  5
402
330
1F
100
AcDbEntity
  8
0
  6
Continuous
 62
     7
370
    25
100
AcDbLine
 10
3784.5408266047
 20
7365.1830686436
 30
0.0
 11
3783.9190309504
 21
7365.1833070622
 31
0.0
  0
LINE
  5
403
330
1F
100
AcDbEntity
  8
0
  6
Continuous
 62
     7
370
    25
100
AcDbLine
 10
3783.9190309504
 20
7365.1833070622
 30
0.0
 11
3782.4800705174
 21
7365.1833070622
 31
0.0
  0
LINE
  5
404
330
1F
100
AcDbEntity
  8
0
  6
Continuous
 62
     7
370
    25
100
AcDbLine
 10
3783.9190309504
 20
7365.182830225
 30
0.0
 11
3783.9190309504
 21
7365.1833070622
 31
0.0
  0
LINE
  5
405
330
1F
100
AcDbEntity
  8
0
  6
Continuous
 62
     7
370
    25
100
AcDbLine
 10
3782.4800705174
 20
7365.182830225
 30
0.0
 11
3782.4800705174
 21
7365.1833070622
 31
0.0
  0
LWPOLYLINE
  5
406
330
1F
100
AcDbEntity
  8
0
  6
Continuous
 62
     7
370
    25
100
AcDbPolyline
 90
       17
 70
   128
 43
0.0
 10
3823.4788125018
 20
7365.1875985966
 10
3823.052207158
 20
7365.1875985966
 10
3822.4430923919
 20
7365.187360178
 10
3821.7442279319
 20
7365.187360178
 10
3821.0619931678
 20
7365.187360178
 10
3820.5002342919
 20
7365.1875985966
 10
3820.1445137719
 20
7365.1875985966
 10
3820.0489526252
 20
7365.1878370152
 10
3820.2281092862
 20
7365.1878370152
 10
3820.65471463
 20
7365.1878370152
 10
3821.263814495
 20
7365.1880754338
 10
3821.962678955
 20
7365.1880754338
 10
3822.6449286202
 20
7365.1880754338
 10
3823.2066725949
 20
7365.1878370152
 10
3823.5624080161
 20
7365.1878370152
 10
3823.6579691628
 20
7365.1875985966
 10
3823.4788125018
 20
7365.1875985966
  0
LINE
  5
407
330
1F
100
AcDbEntity
  8
0
  6
Continuous
 62
     7
370
    25
100
AcDbLine
 10
3821.0455720881
 20
7365.1878370152
 30
0.0
 11
3820.4136585454
 21
7365.1875985966
 31
0.0
  0
LINE
  5
408
330
1F
100
AcDbEntity
  8
0
  6
Continuous
 62
     7
370
    25
100
AcDbLine
 10
3820.4136585454
 20
7365.1875985966
 30
0.0
 11
3821.2215399007
 21
7365.1875985966
 31
0.0
  0
LINE
  5
409
330
1F
100
AcDbEntity
  8
0
  6
Continuous
 62
     7
370
    25
100
AcDbLine
 10
3821.2215399007
 20
7365.1875985966
 30
0.0
 11
3822.6613347987
 21
7365.1875985966
 31
0.0
  0
LINE
  5
40A
330
1F
100
AcDbEntity
  8
0
  6
Continuous
 62
     7
370
    25
100
AcDbLine
 10
3822.6613347987
 20
7365.1875985966
 30
0.0
 11
3823.2932483415
 21
7365.1878370152
 31
0.0
  0
LINE
  5
40B
330
1F
100
AcDbEntity
  8
0
  6
Continuous
 62
     7
370
    25
100
AcDbLine
 10
3823.2932483415
 20
7365.1878370152
 30
0.0
 11
3822.4853669862
 21
7365.1878370152
 31
0.0
  0
LINE
  5
40C
330
1F
100
AcDbEntity
  8
0
  6
Continuous
 62
     7
370
    25
100
AcDbLine
 10
3822.4853669862
 20
7365.1878370152
 30
0.0
 11
3821.0455720881
 21
7365.1878370152
 31
0.0
  0
LINE
  5
40D
330
1F
100
AcDbEntity
  8
0
  6
Continuous
 62
     7
370
    25
100
AcDbLine
 10
3821.0455720881
 20
7365.1875985966
 30
0.0
 11
3821.0455720881
 21
7365.1878370152
 31
0.0
  0
LINE
  5
40E
330
1F
100
AcDbEntity
  8
0
  6
Continuous
 62
     7
370
    25
100
AcDbLine
 10
3822.4853669862
 20
7365.1875985966
 30
0.0
 11
3822.4853669862
 21
7365.1878370152
 31
0.0
  0
LWPOLYLINE
  5
40F
330
1F
100
AcDbEntity
  8
0
  6
Continuous
 62
     7
370
    25
100
AcDbPolyline
 90
       17
 70
   128
 43
0.0
 10
3400.478804634
 20
7365.2205003605
 10
3400.0521992902
 20
7365.220261942
 10
3399.4430994252
 20
7365.220261942
 10
3398.7442349652
 20
7365.220261942
 10
3398.0619853
 20
7365.220261942
 10
3397.5002413253
 20
7365.220261942
 10
3397.1445059041
 20
7365.2205003605
 10
3397.0489447574
 20
7365.2205003605
 10
3397.2281014184
 20
7365.2207387791
 10
3397.6547067622
 20
7365.2207387791
 10
3398.2638066272
 20
7365.2207387791
 10
3398.9626859883
 20
7365.2207387791
 10
3399.6449207524
 20
7365.2207387791
 10
3400.2066796283
 20
7365.2207387791
 10
3400.5624001483
 20
7365.2205003605
 10
3400.657961295
 20
7365.2205003605
 10
3400.478804634
 20
7365.2205003605
  0
LINE
  5
410
330
1F
100
AcDbEntity
  8
0
  6
Continuous
 62
     7
370
    25
100
AcDbLine
 10
3398.0455791215
 20
7365.2207387791
 30
0.0
 11
3397.4136655787
 21
7365.2205003605
 31
0.0
  0
LINE
  5
411
330
1F
100
AcDbEntity
  8
0
  6
Continuous
 62
     7
370
    25
100
AcDbLine
 10
3397.4136655787
 20
7365.2205003605
 30
0.0
 11
3398.2215320329
 21
7365.220261942
 31
0.0
  0
LINE
  5
412
330
1F
100
AcDbEntity
  8
0
  6
Continuous
 62
     7
370
    25
100
AcDbLine
 10
3398.2215320329
 20
7365.220261942
 30
0.0
 11
3399.6613418321
 21
7365.220261942
 31
0.0
  0
LINE
  5
413
330
1F
100
AcDbEntity
  8
0
  6
Continuous
 62
     7
370
    25
100
AcDbLine
 10
3399.6613418321
 20
7365.220261942
 30
0.0
 11
3400.2932553748
 21
7365.2205003605
 31
0.0
  0
LINE
  5
414
330
1F
100
AcDbEntity
  8
0
  6
Continuous
 62
     7
370
    25
100
AcDbLine
 10
3400.2932553748
 20
7365.2205003605
 30
0.0
 11
3399.4853740195
 21
7365.2207387791
 31
0.0
  0
LINE
  5
415
330
1F
100
AcDbEntity
  8
0
  6
Continuous
 62
     7
370
    25
100
AcDbLine
 10
3399.4853740195
 20
7365.2207387791
 30
0.0
 11
3398.0455791215
 21
7365.2207387791
 31
0.0
  0
LINE
  5
416
330
1F
100
AcDbEntity
  8
0
  6
Continuous
 62
     7
370
    25
100
AcDbLine
 10
3398.0455791215
 20
7365.220261942
 30
0.0
 11
3398.0455791215
 21
7365.2207387791
 31
0.0
  0
LINE
  5
417
330
1F
100
AcDbEntity
  8
0
  6
Continuous
 62
     7
370
    25
100
AcDbLine
 10
3399.4853740195
 20
7365.220261942
 30
0.0
 11
3399.4853740195
 21
7365.2207387791
 31
0.0
  0
LWPOLYLINE
  5
418
330
1F
100
AcDbEntity
  8
0
  6
Continuous
 62
     7
370
    25
100
AcDbPolyline
 90
       17
 70
   128
 43
0.0
 10
3784.5920418958
 20
7365.2016652928
 10
3784.0869372348
 20
7365.2016652928
 10
3783.4318523864
 20
7365.2014268742
 10
3782.7265357236
 20
7365.2014268742
 10
3782.078365014
 20
7365.2016652928
 10
3781.5860008458
 20
7365.2016652928
 10
3781.3244258622
 20
7365.2016652928
 10
3781.3334410647
 20
7365.2019037114
 10
3781.6116755465
 20
7365.2019037114
 10
3782.1167951087
 20
7365.2021421299
 10
3782.7718650559
 20
7365.2021421299
 10
3783.4771817187
 20
7365.2021421299
 10
3784.1253673295
 20
7365.2021421299
 10
3784.6177165965
 20
7365.2019037114
 10
3784.8793064813
 20
7365.2019037114
 10
3784.8702912787
 20
7365.2016652928
 10
3784.5920418958
 20
7365.2016652928
  0
LINE
  5
419
330
1F
100
AcDbEntity
  8
0
  6
Continuous
 62
     7
370
    25
100
AcDbLine
 10
3782.4800705174
 20
7365.2019037114
 30
0.0
 11
3781.6629057387
 21
7365.2019037114
 31
0.0
  0
LINE
  5
41A
330
1F
100
AcDbEntity
  8
0
  6
Continuous
 62
     7
370
    25
100
AcDbLine
 10
3781.6629057387
 20
7365.2019037114
 30
0.0
 11
3782.2846864919
 21
7365.2016652928
 31
0.0
  0
LINE
  5
41B
330
1F
100
AcDbEntity
  8
0
  6
Continuous
 62
     7
370
    25
100
AcDbLine
 10
3782.2846864919
 20
7365.2016652928
 30
0.0
 11
3783.7236469249
 21
7365.2016652928
 31
0.0
  0
LINE
  5
41C
330
1F
100
AcDbEntity
  8
0
  6
Continuous
 62
     7
370
    25
100
AcDbLine
 10
3783.7236469249
 20
7365.2016652928
 30
0.0
 11
3784.5408266047
 21
7365.2016652928
 31
0.0
  0
LINE
  5
41D
330
1F
100
AcDbEntity
  8
0
  6
Continuous
 62
     7
370
    25
100
AcDbLine
 10
3784.5408266047
 20
7365.2016652928
 30
0.0
 11
3783.9190309504
 21
7365.2019037114
 31
0.0
  0
LINE
  5
41E
330
1F
100
AcDbEntity
  8
0
  6
Continuous
 62
     7
370
    25
100
AcDbLine
 10
3783.9190309504
 20
7365.2019037114
 30
0.0
 11
3782.4800705174
 21
7365.2019037114
 31
0.0
  0
LINE
  5
41F
330
1F
100
AcDbEntity
  8
0
  6
Continuous
 62
     7
370
    25
100
AcDbLine
 10
3783.9190309504
 20
7365.2016652928
 30
0.0
 11
3783.9190309504
 21
7365.2019037114
 31
0.0
  0
LINE
  5
420
330
1F
100
AcDbEntity
  8
0
  6
Continuous
 62
     7
370
    25
100
AcDbLine
 10
3782.4800705174
 20
7365.2016652928
 30
0.0
 11
3782.4800705174
 21
7365.2019037114
 31
0.0
  0
LINE
  5
421
330
1F
100
AcDbEntity
  8
0
  6
Continuous
 62
     7
370
    25
100
AcDbLine
 10
3552.252004073
 20
6848.4179509984
 30
0.0
 11
3668.4620773057
 21
6848.4179509984
 31
0.0
  0
LINE
  5
422
330
1F
100
AcDbEntity
  8
0
  6
Continuous
 62
     7
370
    25
100
AcDbLine
 10
3668.4620773057
 20
6848.4179509984
 30
0.0
 11
3668.3573444942
 21
6842.4179090367
 31
0.0
  0
LINE
  5
423
330
1F
100
AcDbEntity
  8
0
  6
Continuous
 62
     7
370
    25
100
AcDbLine
 10
3552.3567368845
 20
6842.4179090367
 30
0.0
 11
3668.3573444942
 21
6842.4179090367
 31
0.0
  0
LINE
  5
424
330
1F
100
AcDbEntity
  8
0
  6
Continuous
 62
     7
370
    25
100
AcDbLine
 10
3552.252004073
 20
6848.4179509984
 30
0.0
 11
3552.3567368845
 21
6842.4179090367
 31
0.0
  0
LINE
  5
425
330
1F
100
AcDbEntity
  8
0
  6
Continuous
 62
     7
370
    25
100
AcDbLine
 10
3668.4620773057
 20
6848.4179509984
 30
0.0
 11
3670.4617721597
 21
6848.4179509984
 31
0.0
  0
LINE
  5
426
330
1F
100
AcDbEntity
  8
0
  6
Continuous
 62
     7
370
    25
100
AcDbLine
 10
3670.4617721597
 20
6848.4179509984
 30
0.0
 11
3670.3570393483
 21
6842.4179090367
 31
0.0
  0
LINE
  5
427
330
1F
100
AcDbEntity
  8
0
  6
Continuous
 62
     7
370
    25
100
AcDbLine
 10
3668.3573444942
 20
6842.4179090367
 30
0.0
 11
3670.3570393483
 21
6842.4179090367
 31
0.0
  0
LINE
  5
428
330
1F
100
AcDbEntity
  8
0
  6
Continuous
 62
     7
370
    25
100
AcDbLine
 10
3550.3570420305
 20
6842.4179090367
 30
0.0
 11
3552.3567368845
 21
6842.4179090367
 31
0.0
  0
LINE
  5
429
330
1F
100
AcDbEntity
  8
0
  6
Continuous
 62
     7
370
    25
100
AcDbLine
 10
3550.252309219
 20
6848.4179509984
 30
0.0
 11
3550.3570420305
 21
6842.4179090367
 31
0.0
  0
LINE
  5
42A
330
1F
100
AcDbEntity
  8
0
  6
Continuous
 62
     7
370
    25
100
AcDbLine
 10
3550.252309219
 20
6848.4179509984
 30
0.0
 11
3552.252004073
 21
6848.4179509984
 31
0.0
  0
LINE
  5
42B
330
1F
100
AcDbEntity
  8
0
  6
Continuous
 62
     7
370
    25
100
AcDbLine
 10
3835.268298314
 20
7359.0247167454
 30
0.0
 11
3835.3534584502
 21
7359.0247167454
 31
0.0
  0
LINE
  5
42C
330
1F
100
AcDbEntity
  8
0
  6
Continuous
 62
     7
370
    25
100
AcDbLine
 10
3834.2741971473
 20
7308.0248369084
 30
0.0
 11
3671.5403629104
 21
6851.9005311833
 31
0.0
  0
LINE
  5
42D
330
1F
100
AcDbEntity
  8
0
  6
Continuous
 62
     7
370
    25
100
AcDbLine
 10
3670.8337051431
 20
6849.9199880467
 30
0.0
 11
3670.2977811555
 21
6848.4179509984
 31
0.0
  0
LINE
  5
42E
330
1F
100
AcDbEntity
  8
0
  6
Continuous
 62
     7
370
    25
100
AcDbLine
 10
3610.8534559943
 20
6848.4179509984
 30
0.0
 11
3610.8534559943
 21
6849.9199880467
 31
0.0
  0
LINE
  5
42F
330
1F
100
AcDbEntity
  8
0
  6
Continuous
 62
     7
370
    25
100
AcDbLine
 10
3385.35345547
 20
7359.0247167454
 30
0.0
 11
3385.4386156062
 21
7359.0247167454
 31
0.0
  0
LINE
  5
430
330
1F
100
AcDbEntity
  8
0
  6
Continuous
 62
     7
370
    25
100
AcDbLine
 10
3550.4091327647
 20
6848.4179509984
 30
0.0
 11
3549.8732087771
 21
6849.9199880467
 31
0.0
  0
LINE
  5
431
330
1F
100
AcDbEntity
  8
0
  6
Continuous
 62
     7
370
    25
100
AcDbLine
 10
3549.1665510098
 20
6851.9005311833
 30
0.0
 11
3386.4327167729
 21
7308.0248369084
 31
0.0
  0
LINE
  5
432
330
1F
100
AcDbEntity
  8
0
  6
Continuous
 62
     7
370
    25
100
AcDbLine
 10
3609.853456005
 20
6849.9199880467
 30
0.0
 11
3609.853456005
 21
6848.4179509984
 31
0.0
  0
LINE
  5
433
330
1F
100
AcDbEntity
  8
0
  6
Continuous
 62
     7
370
    25
100
AcDbLine
 10
3835.3534584502
 20
7358.2248224125
 30
0.0
 11
3835.3534584502
 21
7356.8260206089
 31
0.0
  0
LINE
  5
434
330
1F
100
AcDbEntity
  8
0
  6
Continuous
 62
     7
370
    25
100
AcDbLine
 10
3835.3534584502
 20
7310.0757135258
 30
0.0
 11
3835.3534584502
 21
7308.0248369084
 31
0.0
  0
LINE
  5
435
330
1F
100
AcDbEntity
  8
0
  6
Continuous
 62
     7
370
    25
100
AcDbLine
 10
3835.3534584502
 20
7308.0248369084
 30
0.0
 11
3832.3534523705
 21
7308.0248369084
 31
0.0
  0
LINE
  5
436
330
1F
100
AcDbEntity
  8
0
  6
Continuous
 62
     7
370
    25
100
AcDbLine
 10
3832.3534523705
 20
7359.5244420872
 30
0.0
 11
3832.3534523705
 21
7360.8934415684
 31
0.0
  0
ELLIPSE
  5
437
330
1F
100
AcDbEntity
  8
0
  6
Continuous
 62
     7
370
    25
100
AcDbEllipse
 10
3831.5534559842
 20
7360.8934539699
 30
0.0
 11
0.0
 21
-1.131370849898303
 31
0.0
210
0.0
220
0.0
230
1.0
 40
0.7071067812
 41
1.570796326794897
 42
3.141587032173572
  0
ARC
  5
438
330
1F
100
AcDbEntity
  8
0
  6
Continuous
 62
     7
370
    25
100
AcDbCircle
 10
3831.5534559842
 20
7358.2248248198
 30
0.0
 40
3.800000000000182
100
AcDbArc
 50
0.0
 51
89.99993219300002
  0
LINE
  5
439
330
1F
100
AcDbEntity
  8
0
  6
Continuous
 62
     7
370
    25
100
AcDbLine
 10
3831.5534537295
 20
7362.0247377263
 30
0.0
 11
3826.3534551124
 21
7362.0247377263
 31
0.0
  0
LINE
  5
43A
330
1F
100
AcDbEntity
  8
0
  6
Continuous
 62
     7
370
    25
100
AcDbLine
 10
3817.3534517745
 20
7362.0247377263
 30
0.0
 11
3787.6018678407
 21
7362.0247377263
 31
0.0
  0
LINE
  5
43B
330
1F
100
AcDbEntity
  8
0
  6
Continuous
 62
     7
370
    25
100
AcDbLine
 10
3778.6018645028
 20
7362.0247377263
 30
0.0
 11
3633.6018630872
 21
7362.0247377263
 31
0.0
  0
LINE
  5
43C
330
1F
100
AcDbEntity
  8
0
  6
Continuous
 62
     7
370
    25
100
AcDbLine
 10
3624.6018625433
 20
7362.0247377263
 30
0.0
 11
3614.8534558351
 21
7362.0247377263
 31
0.0
  0
LINE
  5
43D
330
1F
100
AcDbEntity
  8
0
  6
Continuous
 62
     7
370
    25
100
AcDbLine
 10
3605.8534557568
 20
7362.0247377263
 30
0.0
 11
3596.1018625284
 21
7362.0247377263
 31
0.0
  0
LINE
  5
43E
330
1F
100
AcDbEntity
  8
0
  6
Continuous
 62
     7
370
    25
100
AcDbLine
 10
3587.1018638472
 20
7362.0247377263
 30
0.0
 11
3442.1018605689
 21
7362.0247377263
 31
0.0
  0
LINE
  5
43F
330
1F
100
AcDbEntity
  8
0
  6
Continuous
 62
     7
370
    25
100
AcDbLine
 10
3433.101857231
 20
7362.0247377263
 30
0.0
 11
3403.3534621457
 21
7362.0247377263
 31
0.0
  0
LINE
  5
440
330
1F
100
AcDbEntity
  8
0
  6
Continuous
 62
     7
370
    25
100
AcDbLine
 10
3394.3534588078
 20
7362.0247377263
 30
0.0
 11
3389.1534601907
 21
7362.0247377263
 31
0.0
  0
ELLIPSE
  5
441
330
1F
100
AcDbEntity
  8
0
  6
Continuous
 62
     7
370
    25
100
AcDbEllipse
 10
3389.1534559842
 20
7360.8934539699
 30
0.0
 11
0.0
 21
1.131370849899213
 31
0.0
210
0.0
220
0.0
230
1.0
 40
0.7071067812
 41
0.0
 42
1.570796326794897
  0
LINE
  5
442
330
1F
100
AcDbEntity
  8
0
  6
Continuous
 62
     7
370
    25
100
AcDbLine
 10
3385.35345547
 20
7308.0248369084
 30
0.0
 11
3386.4998167018
 21
7308.0248369084
 31
0.0
  0
ARC
  5
443
330
1F
100
AcDbEntity
  8
0
  6
Continuous
 62
     7
370
    25
100
AcDbCircle
 10
3389.1534559842
 20
7358.2248248198
 30
0.0
 40
3.800000000000182
100
AcDbArc
 50
90.0
 51
180.0
  0
LINE
  5
444
330
1F
100
AcDbEntity
  8
0
  6
Continuous
 62
     7
370
    25
100
AcDbLine
 10
3388.3534615497
 20
7356.5749658452
 30
0.0
 11
3388.3534615497
 21
7356.9504751072
 31
0.0
  0
LINE
  5
445
330
1F
100
AcDbEntity
  8
0
  6
Continuous
 62
     7
370
    25
100
AcDbLine
 10
3388.3534615497
 20
7359.5244420872
 30
0.0
 11
3388.3534615497
 21
7360.8934415684
 31
0.0
  0
LINE
  5
446
330
1F
100
AcDbEntity
  8
0
  6
Continuous
 62
     7
370
    25
100
AcDbLine
 10
3385.35345547
 20
7308.0248369084
 30
0.0
 11
3385.35345547
 21
7310.0757135258
 31
0.0
  0
LINE
  5
447
330
1F
100
AcDbEntity
  8
0
  6
Continuous
 62
     7
370
    25
100
AcDbLine
 10
3385.35345547
 20
7356.8260206089
 30
0.0
 11
3385.35345547
 21
7358.2248224125
 31
0.0
  0
LINE
  5
448
330
1F
100
AcDbEntity
  8
0
  6
Continuous
 62
     7
370
    25
100
AcDbLine
 10
3610.6787560611
 20
6848.4282029973
 30
0.0
 11
3610.3534559842
 21
6848.4282029973
 31
0.0
  0
LINE
  5
449
330
1F
100
AcDbEntity
  8
0
  6
Continuous
 62
     7
370
    25
100
AcDbLine
 10
3610.3534559842
 20
6848.4282029973
 30
0.0
 11
3610.0281559092
 21
6848.4282029973
 31
0.0
  0
LINE
  5
44A
330
1F
100
AcDbEntity
  8
0
  6
Continuous
 62
     7
370
    25
100
AcDbLine
 10
3385.35345547
 20
7360.9492315159
 30
0.0
 11
3385.35345547
 21
7359.024955164
 31
0.0
  0
LINE
  5
44B
330
1F
100
AcDbEntity
  8
0
  6
Continuous
 62
     7
370
    25
100
AcDbLine
 10
3385.35345547
 20
7360.9492315159
 30
0.0
 11
3386.541435645
 21
7360.9492315159
 31
0.0
  0
LINE
  5
44C
330
1F
100
AcDbEntity
  8
0
  6
Continuous
 62
     7
370
    25
100
AcDbLine
 10
3835.3534584502
 20
7359.024955164
 30
0.0
 11
3835.3534584502
 21
7360.9492315159
 31
0.0
  0
LINE
  5
44D
330
1F
100
AcDbEntity
  8
0
  6
Continuous
 62
     7
370
    25
100
AcDbLine
 10
3835.3534584502
 20
7360.9492315159
 30
0.0
 11
3834.2007940272
 21
7360.9492315159
 31
0.0
  0
LINE
  5
496
330
1F
100
AcDbEntity
  8
0
  6
Continuous
 62
     7
370
    25
100
AcDbLine
 10
3671.5403629104
 20
6849.9199880467
 30
0.0
 11
3670.5744398395
 21
6850.1142991887
 31
0.0
  0
LINE
  5
497
330
1F
100
AcDbEntity
  8
0
  6
Continuous
 62
     7
370
    25
100
AcDbLine
 10
3671.5403629104
 20
6849.9199880467
 30
0.0
 11
3549.1665510098
 21
6849.9199880467
 31
0.0
  0
LINE
  5
498
330
1F
100
AcDbEntity
  8
0
  6
Continuous
 62
     7
370
    25
100
AcDbLine
 10
3550.1324740807
 20
6850.1142991887
 30
0.0
 11
3549.1665510098
 21
6849.9199880467
 31
0.0
  0
LINE
  5
499
330
1F
100
AcDbEntity
  8
0
  6
Continuous
 62
     7
370
    25
100
AcDbLine
 10
3387.0261555175
 20
7307.2826398716
 30
0.0
 11
3550.1324740807
 21
6850.1142991887
 31
0.0
  0
LINE
  5
49A
330
1F
100
AcDbEntity
  8
0
  6
Continuous
 62
     7
370
    25
100
AcDbLine
 10
3387.0261555175
 20
7307.2826398716
 30
0.0
 11
3388.603458331
 21
7307.2826398716
 31
0.0
  0
LINE
  5
49B
330
1F
100
AcDbEntity
  8
0
  6
Continuous
 62
     7
370
    25
100
AcDbLine
 10
3388.603458331
 20
7307.2826398716
 30
0.0
 11
3388.603458331
 21
7307.4509633885
 31
0.0
  0
LINE
  5
49C
330
1F
100
AcDbEntity
  8
0
  6
Continuous
 62
     7
370
    25
100
AcDbLine
 10
3832.1034555892
 20
7307.2826398716
 30
0.0
 11
3833.6807584027
 21
7307.2826398716
 31
0.0
  0
LINE
  5
49D
330
1F
100
AcDbEntity
  8
0
  6
Continuous
 62
     7
370
    25
100
AcDbLine
 10
3670.5744398395
 20
6850.1142991887
 30
0.0
 11
3833.6807584027
 21
7307.2826398716
 31
0.0
  0
LINE
  5
49E
330
1F
100
AcDbEntity
  8
0
  6
Continuous
 62
     7
370
    25
100
AcDbLine
 10
3832.1034555892
 20
7307.4509633885
 30
0.0
 11
3832.1034555892
 21
7307.2826398716
 31
0.0
  0
LINE
  5
49F
330
1F
100
AcDbEntity
  8
0
  6
Continuous
 62
     7
370
    25
100
AcDbLine
 10
3833.6807584027
 20
7307.2826398716
 30
0.0
 11
3833.6807584027
 21
7308.0248369084
 31
0.0
  0
LINE
  5
4A0
330
1F
100
AcDbEntity
  8
0
  6
Continuous
 62
     7
370
    25
100
AcDbLine
 10
3387.0261555175
 20
7307.2826398716
 30
0.0
 11
3387.0261555175
 21
7307.7063096867
 31
0.0
  0
LINE
  5
4D7
330
1F
100
AcDbEntity
  8
0
  6
Continuous
 62
     7
370
    25
100
AcDbLine
 10
3671.5403629104
 20
6849.9199880467
 30
0.0
 11
3671.5403629104
 21
6851.9005311833
 31
0.0
  0
LINE
  5
4D8
330
1F
100
AcDbEntity
  8
0
  6
Continuous
 62
     7
370
    25
100
AcDbLine
 10
3671.5403629104
 20
6851.9005311833
 30
0.0
 11
3671.2337528924
 21
6851.9622815953
 31
0.0
  0
LINE
  5
4D9
330
1F
100
AcDbEntity
  8
0
  6
Continuous
 62
     7
370
    25
100
AcDbLine
 10
3549.1665510098
 20
6849.9199880467
 30
0.0
 11
3549.1665510098
 21
6851.9005311833
 31
0.0
  0
LINE
  5
4DA
330
1F
100
AcDbEntity
  8
0
  6
Continuous
 62
     7
370
    25
100
AcDbLine
 10
3549.4731573025
 20
6851.9622815953
 30
0.0
 11
3549.1665510098
 21
6851.9005311833
 31
0.0
  0
LINE
  5
4DB
330
1F
100
AcDbEntity
  8
0
  6
Continuous
 62
     7
370
    25
100
AcDbLine
 10
3610.3570406894
 20
6778.3762945042
 30
0.0
 11
3613.8570407974
 21
6780.3971303807
 31
0.0
  0
LINE
  5
4DC
330
1F
100
AcDbEntity
  8
0
  6
Continuous
 62
     7
370
    25
100
AcDbLine
 10
3613.8570407974
 20
6780.3971303807
 30
0.0
 11
3613.8570407974
 21
6784.438563715
 31
0.0
  0
LINE
  5
4DD
330
1F
100
AcDbEntity
  8
0
  6
Continuous
 62
     7
370
    25
100
AcDbLine
 10
3613.8570407974
 20
6784.438563715
 30
0.0
 11
3610.3570406894
 21
6786.4593995915
 31
0.0
  0
LINE
  5
4DE
330
1F
100
AcDbEntity
  8
0
  6
Continuous
 62
     7
370
    25
100
AcDbLine
 10
3610.3570406894
 20
6786.4593995915
 30
0.0
 11
3606.8570405813
 21
6784.438563715
 31
0.0
  0
LINE
  5
4DF
330
1F
100
AcDbEntity
  8
0
  6
Continuous
 62
     7
370
    25
100
AcDbLine
 10
3606.8570405813
 20
6784.438563715
 30
0.0
 11
3606.8570405813
 21
6780.3971303807
 31
0.0
  0
LINE
  5
4E0
330
1F
100
AcDbEntity
  8
0
  6
Continuous
 62
     7
370
    25
100
AcDbLine
 10
3606.8570405813
 20
6780.3971303807
 30
0.0
 11
3610.3570406894
 21
6778.3762945042
 31
0.0
  0
CIRCLE
  5
4E1
330
1F
100
AcDbEntity
  8
0
  6
Continuous
 62
     7
370
    25
100
AcDbCircle
 10
3610.3570406894
 20
6782.4178384648
 30
0.0
 40
8.00000000000091
  0
LINE
  5
4E2
330
1F
100
AcDbEntity
  8
0
  6
Continuous
 62
     7
370
    25
100
AcDbLine
 10
3610.3570406894
 20
6818.3764947758
 30
0.0
 11
3613.8570407974
 21
6820.3970922337
 31
0.0
  0
LINE
  5
4E3
330
1F
100
AcDbEntity
  8
0
  6
Continuous
 62
     7
370
    25
100
AcDbLine
 10
3613.8570407974
 20
6820.3970922337
 30
0.0
 11
3613.8570407974
 21
6824.4385255681
 31
0.0
  0
LINE
  5
4E4
330
1F
100
AcDbEntity
  8
0
  6
Continuous
 62
     7
370
    25
100
AcDbLine
 10
3613.8570407974
 20
6824.4385255681
 30
0.0
 11
3610.3570406894
 21
6826.4593614445
 31
0.0
  0
LINE
  5
4E5
330
1F
100
AcDbEntity
  8
0
  6
Continuous
 62
     7
370
    25
100
AcDbLine
 10
3610.3570406894
 20
6826.4593614445
 30
0.0
 11
3606.8570405813
 21
6824.4385255681
 31
0.0
  0
LINE
  5
4E6
330
1F
100
AcDbEntity
  8
0
  6
Continuous
 62
     7
370
    25
100
AcDbLine
 10
3606.8570405813
 20
6824.4385255681
 30
0.0
 11
3606.8570405813
 21
6820.3970922337
 31
0.0
  0
LINE
  5
4E7
330
1F
100
AcDbEntity
  8
0
  6
Continuous
 62
     7
370
    25
100
AcDbLine
 10
3606.8570405813
 20
6820.3970922337
 30
0.0
 11
3610.3570406894
 21
6818.3764947758
 31
0.0
  0
CIRCLE
  5
4E8
330
1F
100
AcDbEntity
  8
0
  6
Continuous
 62
     7
370
    25
100
AcDbCircle
 10
3610.3570406894
 20
6822.4178384648
 30
0.0
 40
8.00000000000091
  0
LINE
  5
4E9
330
1F
100
AcDbEntity
  8
0
  6
Continuous
 62
     7
370
    25
100
AcDbLine
 10
3670.8570403615
 20
4061.9178546772
 30
0.0
 11
3670.3570393483
 21
4061.9178546772
 31
0.0
  0
LINE
  5
4EA
330
1F
100
AcDbEntity
  8
0
  6
Continuous
 62
     7
370
    25
100
AcDbLine
 10
3670.3570393483
 20
4066.9178499089
 30
0.0
 11
3670.8570403615
 21
4066.9178499089
 31
0.0
  0
LINE
  5
4EB
330
1F
100
AcDbEntity
  8
0
  6
Continuous
 62
     7
370
    25
100
AcDbLine
 10
3670.8570403615
 20
4066.9178499089
 30
0.0
 11
3670.8570403615
 21
4061.9178546772
 31
0.0
  0
LINE
  5
4EC
330
1F
100
AcDbEntity
  8
0
  6
Continuous
 62
     7
370
    25
100
AcDbLine
 10
3670.3570393483
 20
4046.9178093777
 30
0.0
 11
3670.8570403615
 21
4046.9178093777
 31
0.0
  0
LINE
  5
4ED
330
1F
100
AcDbEntity
  8
0
  6
Continuous
 62
     7
370
    25
100
AcDbLine
 10
3670.8570403615
 20
4061.9178546772
 30
0.0
 11
3670.8570403615
 21
4046.9178093777
 31
0.0
  0
LINE
  5
4EE
330
1F
100
AcDbEntity
  8
0
  6
Continuous
 62
     7
370
    25
100
AcDbLine
 10
3670.8570403615
 20
4041.9178141461
 30
0.0
 11
3670.3570393483
 21
4041.9178141461
 31
0.0
  0
LINE
  5
4EF
330
1F
100
AcDbEntity
  8
0
  6
Continuous
 62
     7
370
    25
100
AcDbLine
 10
3670.8570403615
 20
4046.9178093777
 30
0.0
 11
3670.8570403615
 21
4041.9178141461
 31
0.0
  0
CIRCLE
  5
4F0
330
1F
100
AcDbEntity
  8
0
  6
Continuous
 62
     7
370
    25
100
AcDbCircle
 10
3610.3570406894
 20
3730.4178384648
 30
0.0
 40
8.0
  0
LINE
  5
4F1
330
1F
100
AcDbEntity
  8
0
  6
Continuous
 62
     7
370
    25
100
AcDbLine
 10
3610.3570406894
 20
3726.3763977395
 30
0.0
 11
3613.8570407974
 21
3728.3971144066
 31
0.0
  0
LINE
  5
4F2
330
1F
100
AcDbEntity
  8
0
  6
Continuous
 62
     7
370
    25
100
AcDbLine
 10
3613.8570407974
 20
3728.3971144066
 30
0.0
 11
3613.8570407974
 21
3732.4385775433
 31
0.0
  0
LINE
  5
4F3
330
1F
100
AcDbEntity
  8
0
  6
Continuous
 62
     7
370
    25
100
AcDbLine
 10
3613.8570407974
 20
3732.4385775433
 30
0.0
 11
3610.3570406894
 21
3734.4592942105
 31
0.0
  0
LINE
  5
4F4
330
1F
100
AcDbEntity
  8
0
  6
Continuous
 62
     7
370
    25
100
AcDbLine
 10
3610.3570406894
 20
3734.4592942105
 30
0.0
 11
3606.8570405813
 21
3732.4385775433
 31
0.0
  0
LINE
  5
4F5
330
1F
100
AcDbEntity
  8
0
  6
Continuous
 62
     7
370
    25
100
AcDbLine
 10
3606.8570405813
 20
3732.4385775433
 30
0.0
 11
3606.8570405813
 21
3728.3971144066
 31
0.0
  0
LINE
  5
4F6
330
1F
100
AcDbEntity
  8
0
  6
Continuous
 62
     7
370
    25
100
AcDbLine
 10
3606.8570405813
 20
3728.3971144066
 30
0.0
 11
3610.3570406894
 21
3726.3763977395
 31
0.0
  0
CIRCLE
  5
4F7
330
1F
100
AcDbEntity
  8
0
  6
Continuous
 62
     7
370
    25
100
AcDbCircle
 10
3610.3570406894
 20
3495.4178384648
 30
0.0
 40
8.0
  0
LINE
  5
4F8
330
1F
100
AcDbEntity
  8
0
  6
Continuous
 62
     7
370
    25
100
AcDbLine
 10
3610.3570406894
 20
3491.3763834343
 30
0.0
 11
3613.8570407974
 21
3493.3971150027
 31
0.0
  0
LINE
  5
4F9
330
1F
100
AcDbEntity
  8
0
  6
Continuous
 62
     7
370
    25
100
AcDbLine
 10
3613.8570407974
 20
3493.3971150027
 30
0.0
 11
3613.8570407974
 21
3497.4385632382
 31
0.0
  0
LINE
  5
4FA
330
1F
100
AcDbEntity
  8
0
  6
Continuous
 62
     7
370
    25
100
AcDbLine
 10
3613.8570407974
 20
3497.4385632382
 30
0.0
 11
3610.3570406894
 21
3499.4592948065
 31
0.0
  0
LINE
  5
4FB
330
1F
100
AcDbEntity
  8
0
  6
Continuous
 62
     7
370
    25
100
AcDbLine
 10
3610.3570406894
 20
3499.4592948065
 30
0.0
 11
3606.8570405813
 21
3497.4385632382
 31
0.0
  0
LINE
  5
4FC
330
1F
100
AcDbEntity
  8
0
  6
Continuous
 62
     7
370
    25
100
AcDbLine
 10
3606.8570405813
 20
3497.4385632382
 30
0.0
 11
3606.8570405813
 21
3493.3971150027
 31
0.0
  0
LINE
  5
4FD
330
1F
100
AcDbEntity
  8
0
  6
Continuous
 62
     7
370
    25
100
AcDbLine
 10
3606.8570405813
 20
3493.3971150027
 30
0.0
 11
3610.3570406894
 21
3491.3763834343
 31
0.0
  0
LINE
  5
4FE
330
1F
100
AcDbEntity
  8
0
  6
Continuous
 62
     7
370
    25
100
AcDbLine
 10
3670.3570393483
 20
3376.4178382413
 30
0.0
 11
3670.3570393483
 21
6842.4179090367
 31
0.0
  0
LINE
  5
4FF
330
1F
100
AcDbEntity
  8
0
  6
Continuous
 62
     7
370
    25
100
AcDbLine
 10
3668.3570390204
 20
3376.4178382413
 30
0.0
 11
3668.3570390204
 21
6842.4179090367
 31
0.0
  0
LINE
  5
500
330
1F
100
AcDbEntity
  8
0
  6
Continuous
 62
     7
370
    25
100
AcDbLine
 10
3670.3570393483
 20
6842.4179090367
 30
0.0
 11
3668.3570390204
 21
6842.4179090367
 31
0.0
  0
LINE
  5
501
330
1F
100
AcDbEntity
  8
0
  6
Continuous
 62
     7
370
    25
100
AcDbLine
 10
3668.3570390204
 20
6842.4179090367
 30
0.0
 11
3552.3570423583
 21
6842.4179090367
 31
0.0
  0
LINE
  5
502
330
1F
100
AcDbEntity
  8
0
  6
Continuous
 62
     7
370
    25
100
AcDbLine
 10
3552.3570423583
 20
3376.4178382413
 30
0.0
 11
3552.3570423583
 21
6842.4179090367
 31
0.0
  0
CIRCLE
  5
503
330
1F
100
AcDbEntity
  8
0
  6
Continuous
 62
     7
370
    25
100
AcDbCircle
 10
3610.3570406894
 20
6822.4178384648
 30
0.0
 40
9.125
  0
CIRCLE
  5
504
330
1F
100
AcDbEntity
  8
0
  6
Continuous
 62
     7
370
    25
100
AcDbCircle
 10
3610.3570406894
 20
6782.4178384648
 30
0.0
 40
9.125
  0
CIRCLE
  5
505
330
1F
100
AcDbEntity
  8
0
  6
Continuous
 62
     7
370
    25
100
AcDbCircle
 10
3610.3570406894
 20
3730.4178384648
 30
0.0
 40
8.960000000000491
  0
CIRCLE
  5
506
330
1F
100
AcDbEntity
  8
0
  6
Continuous
 62
     7
370
    25
100
AcDbCircle
 10
3610.3570406894
 20
3495.4178384648
 30
0.0
 40
8.960000000000491
  0
LINE
  5
507
330
1F
100
AcDbEntity
  8
0
  6
Continuous
 62
     7
370
    25
100
AcDbLine
 10
3550.3570420305
 20
3376.4178382413
 30
0.0
 11
3550.3570420305
 21
6842.4179090367
 31
0.0
  0
LINE
  5
508
330
1F
100
AcDbEntity
  8
0
  6
Continuous
 62
     7
370
    25
100
AcDbLine
 10
3552.3570423583
 20
6842.4179090367
 30
0.0
 11
3550.3570420305
 21
6842.4179090367
 31
0.0
  0
LINE
  5
509
330
1F
100
AcDbEntity
  8
0
  6
Continuous
 62
     7
370
    25
100
AcDbLine
 10
3775.3570472459
 20
3376.4178382413
 30
0.0
 11
3775.3570472459
 21
3361.4178385765
 31
0.0
  0
LINE
  5
50A
330
1F
100
AcDbEntity
  8
0
  6
Continuous
 62
     7
370
    25
100
AcDbLine
 10
3750.3570412854
 20
3361.4178385765
 30
0.0
 11
3750.3570412854
 21
3376.4178382413
 31
0.0
  0
LINE
  5
50B
330
1F
100
AcDbEntity
  8
0
  6
Continuous
 62
     7
370
    25
100
AcDbLine
 10
3775.3570472459
 20
3361.4178385765
 30
0.0
 11
3750.3570412854
 21
3361.4178385765
 31
0.0
  0
LINE
  5
50C
330
1F
100
AcDbEntity
  8
0
  6
Continuous
 62
     7
370
    25
100
AcDbLine
 10
3750.3570412854
 20
3376.4178382413
 30
0.0
 11
3775.3570472459
 21
3376.4178382413
 31
0.0
  0
LINE
  5
50D
330
1F
100
AcDbEntity
  8
0
  6
Continuous
 62
     7
370
    25
100
AcDbLine
 10
3470.3570400933
 20
3376.4178382413
 30
0.0
 11
3470.3570400933
 21
3361.4178385765
 31
0.0
  0
LINE
  5
50E
330
1F
100
AcDbEntity
  8
0
  6
Continuous
 62
     7
370
    25
100
AcDbLine
 10
3750.3570412854
 20
3361.4178385765
 30
0.0
 11
3470.3570400933
 21
3361.4178385765
 31
0.0
  0
LINE
  5
50F
330
1F
100
AcDbEntity
  8
0
  6
Continuous
 62
     7
370
    25
100
AcDbLine
 10
3750.3570412854
 20
3376.4178382413
 30
0.0
 11
3470.3570400933
 21
3376.4178382413
 31
0.0
  0
LINE
  5
510
330
1F
100
AcDbEntity
  8
0
  6
Continuous
 62
     7
370
    25
100
AcDbLine
 10
3445.3570341329
 20
3361.4178385765
 30
0.0
 11
3445.3570341329
 21
3376.4178382413
 31
0.0
  0
LINE
  5
511
330
1F
100
AcDbEntity
  8
0
  6
Continuous
 62
     7
370
    25
100
AcDbLine
 10
3470.3570400933
 20
3361.4178385765
 30
0.0
 11
3445.3570341329
 21
3361.4178385765
 31
0.0
  0
LINE
  5
512
330
1F
100
AcDbEntity
  8
0
  6
Continuous
 62
     7
370
    25
100
AcDbLine
 10
3445.3570341329
 20
3376.4178382413
 30
0.0
 11
3470.3570400933
 21
3376.4178382413
 31
0.0
  0
LINE
  5
513
330
1F
100
AcDbEntity
  8
0
  6
Continuous
 62
     8
370
    25
100
AcDbLine
 10
3402.3541604737
 20
7365.1270402775
 30
0.0
 11
3402.3703431348
 21
7365.1270402775
 31
0.0
  0
LWPOLYLINE
  5
514
330
1F
100
AcDbEntity
  8
0
  6
Continuous
 62
     8
370
    25
100
AcDbPolyline
 90
        9
 70
   128
 43
0.0
 10
3408.7693487863
 20
7364.6263612614
 10
3407.4522351483
 20
7364.6263612614
 10
3406.0907458524
 20
7364.6263612614
 10
3404.7858958701
 20
7364.6263612614
 10
3403.6344086389
 20
7364.6263612614
 10
3402.7217274169
 20
7364.62659968
 10
3402.1155332784
 20
7364.6268380986
 10
3401.8607532243
 20
7364.6270765172
 10
3401.8541073064
 20
7364.6270765172
  0
LWPOLYLINE
  5
515
330
1F
100
AcDbEntity
  8
0
  6
Continuous
 62
     8
370
    25
100
AcDbPolyline
 90
        6
 70
   128
 43
0.0
 10
3411.8540977696
 20
7364.6270765172
 10
3411.8360673646
 20
7364.6270765172
 10
3411.5368222455
 20
7364.6268380986
 10
3410.8902906636
 20
7364.62659968
 10
3409.9444245557
 20
7364.6263612614
 10
3408.7693487863
 20
7364.6263612614
  0
LINE
  5
516
330
1F
100
AcDbEntity
  8
0
  6
Continuous
 62
     8
370
    25
100
AcDbLine
 10
3381.2534605721
 20
7338.5331167088
 30
0.0
 11
3381.2534605721
 21
7338.5271562443
 31
0.0
  0
LINE
  5
517
330
1F
100
AcDbEntity
  8
0
  6
Continuous
 62
     8
370
    25
100
AcDbLine
 10
3839.4534533481
 20
7328.5271657811
 30
0.0
 11
3839.4534533481
 21
7338.5271562443
 31
0.0
  0
LINE
  5
518
330
1F
100
AcDbEntity
  8
0
  6
Continuous
 62
     8
370
    25
100
AcDbLine
 10
3815.5765330056
 20
7365.1277555333
 30
0.0
 11
3813.839847372
 21
7365.1277555333
 31
0.0
  0
LWPOLYLINE
  5
519
330
1F
100
AcDbEntity
  8
0
  6
Continuous
 62
     8
370
    25
100
AcDbPolyline
 90
        3
 70
   128
 43
0.0
 10
3809.5778619508
 20
7365.1272786961
 10
3809.4930296401
 20
7365.1272786961
 10
3809.3530183295
 20
7365.1270402775
  0
LINE
  5
51A
330
1F
100
AcDbEntity
  8
0
  6
Continuous
 62
     8
370
    25
100
AcDbLine
 10
3818.35279815
 20
7365.1270402775
 30
0.0
 11
3818.3317875127
 21
7365.1270402775
 31
0.0
  0
LWPOLYLINE
  5
51B
330
1F
100
AcDbEntity
  8
0
  6
Continuous
 62
     8
370
    25
100
AcDbPolyline
 90
       13
 70
   128
 43
0.0
 10
3818.8528066138
 20
7364.6270765172
 10
3818.7645172337
 20
7364.6268380986
 10
3818.3299844722
 20
7364.62659968
 10
3817.5633942346
 20
7364.62659968
 10
3816.521609352
 20
7364.6263612614
 10
3815.2819072465
 20
7364.6263612614
 10
3813.9361982802
 20
7364.6263612614
 10
3812.5843053321
 20
7364.6263612614
 10
3811.3264983157
 20
7364.6263612614
 10
3810.2560585002
 20
7364.62659968
 10
3809.4523643712
 20
7364.62659968
 10
3808.9750354747
 20
7364.6268380986
 10
3808.8528161506
 20
7364.6270765172
  0
LINE
  5
51C
330
1F
100
AcDbEntity
  8
0
  6
Continuous
 62
     8
370
    25
100
AcDbLine
 10
3402.3541604737
 20
7365.133000742
 30
0.0
 11
3402.3703431348
 21
7365.133000742
 31
0.0
  0
LINE
  5
51D
330
1F
100
AcDbEntity
  8
0
  6
Continuous
 62
     8
370
    25
100
AcDbLine
 10
3839.4534533481
 20
7338.5271562443
 30
0.0
 11
3839.4534533481
 21
7338.5331167088
 31
0.0
  0
LINE
  5
51E
330
1F
100
AcDbEntity
  8
0
  6
Continuous
 62
     8
370
    25
100
AcDbLine
 10
3381.2534605721
 20
7335.4415429936
 30
0.0
 11
3381.2534605721
 21
7328.5271657811
 31
0.0
  0
LINE
  5
51F
330
1F
100
AcDbEntity
  8
0
  6
Continuous
 62
     8
370
    25
100
AcDbLine
 10
3381.2534605721
 20
7338.5271562443
 30
0.0
 11
3381.2534605721
 21
7335.4415429936
 31
0.0
  0
LINE
  5
520
330
1F
100
AcDbEntity
  8
0
  6
Continuous
 62
     8
370
    25
100
AcDbLine
 10
3815.5765330056
 20
7365.1337159977
 30
0.0
 11
3813.839847372
 21
7365.1337159977
 31
0.0
  0
LWPOLYLINE
  5
521
330
1F
100
AcDbEntity
  8
0
  6
Continuous
 62
     8
370
    25
100
AcDbPolyline
 90
        3
 70
   128
 43
0.0
 10
3809.5778619508
 20
7365.1332391606
 10
3809.4930296401
 20
7365.1332391606
 10
3809.3530183295
 20
7365.133000742
  0
LINE
  5
522
330
1F
100
AcDbEntity
  8
0
  6
Continuous
 62
     8
370
    25
100
AcDbLine
 10
3818.35279815
 20
7365.133000742
 30
0.0
 11
3818.3317875127
 21
7365.133000742
 31
0.0
  0
LINE
  5
523
330
1F
100
AcDbEntity
  8
0
  6
Continuous
 62
     8
370
    25
100
AcDbLine
 10
3618.8534555594
 20
6849.9199880467
 30
0.0
 11
3618.8534555594
 21
6848.4179509984
 31
0.0
  0
LINE
  5
524
330
1F
100
AcDbEntity
  8
0
  6
Continuous
 62
     8
370
    25
100
AcDbLine
 10
3601.8534555668
 20
6848.4179509984
 30
0.0
 11
3601.8534555668
 21
6849.9199880467
 31
0.0
  0
LINE
  5
525
330
1F
100
AcDbEntity
  8
0
  6
Continuous
 62
     8
370
    25
100
AcDbLine
 10
3389.1534601907
 20
7362.0247377263
 30
0.0
 11
3389.1534601907
 21
7359.5244420872
 31
0.0
  0
LINE
  5
526
330
1F
100
AcDbEntity
  8
0
  6
Continuous
 62
     8
370
    25
100
AcDbLine
 10
3831.5534537295
 20
7359.5244420872
 30
0.0
 11
3831.5534537295
 21
7362.0247377263
 31
0.0
  0
ENDSEC
  0
SECTION
  2
OBJECTS
  0
DICTIONARY
  5
C
330
0
100
AcDbDictionary
281
     1
  3
ACAD_GROUP
350
D
  3
ACAD_LAYOUT
350
1A
  3
ACAD_MLINESTYLE
350
17
  3
ACAD_PLOTSETTINGS
350
19
  3
ACAD_PLOTSTYLENAME
350
E
  3
ACAD_SCALELIST
350
47
  3
APPDATA
350
55A
  3
DWGPROPS
350
55B
  0
DICTIONARY
  5
D
102
{ACAD_REACTORS
330
C
102
}
330
C
100
AcDbDictionary
281
     1
  0
DICTIONARY
  5
1A
102
{ACAD_REACTORS
330
C
102
}
330
C
100
AcDbDictionary
281
     1
  3
Layout1
350
1E
  3
Layout2
350
26
  3
Model
350
22
  0
DICTIONARY
  5
17
102
{ACAD_REACTORS
330
C
102
}
330
C
100
AcDbDictionary
281
     1
  3
Standard
350
18
  0
DICTIONARY
  5
19
102
{ACAD_REACTORS
330
C
102
}
330
C
100
AcDbDictionary
281
     1
  0
ACDBDICTIONARYWDFLT
  5
E
102
{ACAD_REACTORS
330
C
102
}
330
C
100
AcDbDictionary
281
     1
  3
Normal
350
F
100
AcDbDictionaryWithDefault
340
F
  0
DICTIONARY
  5
47
102
{ACAD_REACTORS
330
C
102
}
330
C
100
AcDbDictionary
281
     1
  3
A0
350
48
  3
A1
350
49
  3
A2
350
4A
  3
A3
350
4B
  3
A4
350
4C
  3
A5
350
4D
  3
A6
350
4E
  3
A7
350
4F
  3
A8
350
50
  3
A9
350
51
  3
B0
350
52
  3
B1
350
53
  3
B2
350
54
  3
B3
350
55
  3
B4
350
56
  3
B5
350
57
  3
B6
350
58
  3
B7
350
59
  3
B8
350
5A
  3
B9
350
5B
  3
C0
350
5C
  3
C1
350
5D
  3
C2
350
5E
  3
C3
350
5F
  3
C4
350
60
  3
C5
350
61
  3
C6
350
62
  3
C7
350
63
  3
C8
350
64
  3
C9
350
65
  3
D0
350
66
  3
D1
350
67
  3
D2
350
68
  0
DICTIONARY
  5
55A
102
{ACAD_REACTORS
330
C
102
}
330
C
100
AcDbDictionary
281
     1
  0
XRECORD
  5
55B
102
{ACAD_REACTORS
330
C
102
}
330
C
100
AcDbXrecord
280
     1
  1
DWGPROPS COOKIE
  2

  3

  4

  6

  7

  8
mbuyukdag
  9

300
=
301
=
302
=
303
=
304
=
305
=
306
=
307
=
308
=
309
=
 40
0.0
 41
2459079.536310845
 42
2459079.540036493
  1

 90
        0
  0
LAYOUT
  5
1E
102
{ACAD_REACTORS
330
1A
102
}
330
1A
100
AcDbPlotSettings
  1

  2
none_device
  4

  6

 40
0.0
 41
0.0
 42
0.0
 43
0.0
 44
0.0
 45
0.0
 46
0.0
 47
0.0
 48
0.0
 49
0.0
140
0.0
141
0.0
142
1.0
143
1.0
 70
   688
 72
     1
 73
     0
 74
     5
  7

 75
    16
147
1.0
148
0.0
149
0.0
100
AcDbLayout
  1
Layout1
 70
     1
 71
     1
 10
0.0
 20
0.0
 11
420.0
 21
297.0
 12
0.0
 22
0.0
 32
0.0
 14
1.000000000000000E+20
 24
1.000000000000000E+20
 34
1.000000000000000E+20
 15
-1.000000000000000E+20
 25
-1.000000000000000E+20
 35
-1.000000000000000E+20
146
0.0
 13
0.0
 23
0.0
 33
0.0
 16
1.0
 26
0.0
 36
0.0
 17
0.0
 27
1.0
 37
0.0
 76
     0
330
1B
  0
LAYOUT
  5
26
102
{ACAD_REACTORS
330
1A
102
}
330
1A
100
AcDbPlotSettings
  1

  2
none_device
  4

  6

 40
0.0
 41
0.0
 42
0.0
 43
0.0
 44
0.0
 45
0.0
 46
0.0
 47
0.0
 48
0.0
 49
0.0
140
0.0
141
0.0
142
1.0
143
1.0
 70
   688
 72
     1
 73
     0
 74
     5
  7

 75
    16
147
1.0
148
0.0
149
0.0
100
AcDbLayout
  1
Layout2
 70
     1
 71
     2
 10
0.0
 20
0.0
 11
0.0
 21
0.0
 12
0.0
 22
0.0
 32
0.0
 14
0.0
 24
0.0
 34
0.0
 15
0.0
 25
0.0
 35
0.0
146
0.0
 13
0.0
 23
0.0
 33
0.0
 16
1.0
 26
0.0
 36
0.0
 17
0.0
 27
1.0
 37
0.0
 76
     0
330
23
  0
LAYOUT
  5
22
102
{ACAD_REACTORS
330
1A
102
}
330
1A
100
AcDbPlotSettings
  1

  2
none_device
  4
Letter_(8.50_x_11.00_Inches)
  6

 40
6.35
 41
6.35
 42
6.35000508
 43
6.35000508
 44
215.9
 45
279.4
 46
0.0
 47
0.0
 48
0.0
 49
0.0
140
0.0
141
0.0
142
1.0
143
1.0
 70
  1712
 72
     1
 73
     0
 74
     0
  7

 75
     0
147
1.0
148
0.0
149
0.0
100
AcDbLayout
  1
Model
 70
     1
 71
     0
 10
0.0
 20
0.0
 11
10000.0
 21
10000.0
 12
0.0
 22
0.0
 32
0.0
 14
3380.7534521083
 24
3361.4178385765
 34
0.0
 15
5189.669733695047
 25
7365.2231229649
 35
0.0
146
0.0
 13
0.0
 23
0.0
 33
0.0
 16
1.0
 26
0.0
 36
0.0
 17
0.0
 27
1.0
 37
0.0
 76
     0
330
1F
331
29
  0
MLINESTYLE
  5
18
102
{ACAD_REACTORS
330
17
102
}
330
17
100
AcDbMlineStyle
  2
Standard
 70
     0
  3

 62
   256
 51
90.0
 52
90.0
 71
     2
 49
0.5
 62
   256
  6
BYLAYER
 49
-0.5
 62
   256
  6
BYLAYER
  0
ACDBPLACEHOLDER
  5
F
102
{ACAD_REACTORS
330
E
102
}
330
E
  0
SCALE
  5
48
102
{ACAD_REACTORS
330
47
102
}
330
47
100
AcDbScale
 70
     0
300
1:1
140
1.0
141
1.0
290
     1
  0
SCALE
  5
49
102
{ACAD_REACTORS
330
47
102
}
330
47
100
AcDbScale
 70
     0
300
1:2
140
1.0
141
2.0
290
     0
  0
SCALE
  5
4A
102
{ACAD_REACTORS
330
47
102
}
330
47
100
AcDbScale
 70
     0
300
1:4
140
1.0
141
4.0
290
     0
  0
SCALE
  5
4B
102
{ACAD_REACTORS
330
47
102
}
330
47
100
AcDbScale
 70
     0
300
1:5
140
1.0
141
5.0
290
     0
  0
SCALE
  5
4C
102
{ACAD_REACTORS
330
47
102
}
330
47
100
AcDbScale
 70
     0
300
1:8
140
1.0
141
8.0
290
     0
  0
SCALE
  5
4D
102
{ACAD_REACTORS
330
47
102
}
330
47
100
AcDbScale
 70
     0
300
1:10
140
1.0
141
10.0
290
     0
  0
SCALE
  5
4E
102
{ACAD_REACTORS
330
47
102
}
330
47
100
AcDbScale
 70
     0
300
1:16
140
1.0
141
16.0
290
     0
  0
SCALE
  5
4F
102
{ACAD_REACTORS
330
47
102
}
330
47
100
AcDbScale
 70
     0
300
1:20
140
1.0
141
20.0
290
     0
  0
SCALE
  5
50
102
{ACAD_REACTORS
330
47
102
}
330
47
100
AcDbScale
 70
     0
300
1:30
140
1.0
141
30.0
290
     0
  0
SCALE
  5
51
102
{ACAD_REACTORS
330
47
102
}
330
47
100
AcDbScale
 70
     0
300
1:40
140
1.0
141
40.0
290
     0
  0
SCALE
  5
52
102
{ACAD_REACTORS
330
47
102
}
330
47
100
AcDbScale
 70
     0
300
1:50
140
1.0
141
50.0
290
     0
  0
SCALE
  5
53
102
{ACAD_REACTORS
330
47
102
}
330
47
100
AcDbScale
 70
     0
300
1:100
140
1.0
141
100.0
290
     0
  0
SCALE
  5
54
102
{ACAD_REACTORS
330
47
102
}
330
47
100
AcDbScale
 70
     0
300
2:1
140
2.0
141
1.0
290
     0
  0
SCALE
  5
55
102
{ACAD_REACTORS
330
47
102
}
330
47
100
AcDbScale
 70
     0
300
4:1
140
4.0
141
1.0
290
     0
  0
SCALE
  5
56
102
{ACAD_REACTORS
330
47
102
}
330
47
100
AcDbScale
 70
     0
300
8:1
140
8.0
141
1.0
290
     0
  0
SCALE
  5
57
102
{ACAD_REACTORS
330
47
102
}
330
47
100
AcDbScale
 70
     0
300
10:1
140
10.0
141
1.0
290
     0
  0
SCALE
  5
58
102
{ACAD_REACTORS
330
47
102
}
330
47
100
AcDbScale
 70
     0
300
100:1
140
100.0
141
1.0
290
     0
  0
SCALE
  5
59
102
{ACAD_REACTORS
330
47
102
}
330
47
100
AcDbScale
 70
     0
300
1/128" = 1'-0"
140
0.0078125
141
12.0
290
     0
  0
SCALE
  5
5A
102
{ACAD_REACTORS
330
47
102
}
330
47
100
AcDbScale
 70
     0
300
1/64" = 1'-0"
140
0.015625
141
12.0
290
     0
  0
SCALE
  5
5B
102
{ACAD_REACTORS
330
47
102
}
330
47
100
AcDbScale
 70
     0
300
1/32" = 1'-0"
140
0.03125
141
12.0
290
     0
  0
SCALE
  5
5C
102
{ACAD_REACTORS
330
47
102
}
330
47
100
AcDbScale
 70
     0
300
1/16" = 1'-0"
140
0.0625
141
12.0
290
     0
  0
SCALE
  5
5D
102
{ACAD_REACTORS
330
47
102
}
330
47
100
AcDbScale
 70
     0
300
3/32" = 1'-0"
140
0.09375
141
12.0
290
     0
  0
SCALE
  5
5E
102
{ACAD_REACTORS
330
47
102
}
330
47
100
AcDbScale
 70
     0
300
1/8" = 1'-0"
140
0.125
141
12.0
290
     0
  0
SCALE
  5
5F
102
{ACAD_REACTORS
330
47
102
}
330
47
100
AcDbScale
 70
     0
300
3/16" = 1'-0"
140
0.1875
141
12.0
290
     0
  0
SCALE
  5
60
102
{ACAD_REACTORS
330
47
102
}
330
47
100
AcDbScale
 70
     0
300
1/4" = 1'-0"
140
0.25
141
12.0
290
     0
  0
SCALE
  5
61
102
{ACAD_REACTORS
330
47
102
}
330
47
100
AcDbScale
 70
     0
300
3/8" = 1'-0"
140
0.375
141
12.0
290
     0
  0
SCALE
  5
62
102
{ACAD_REACTORS
330
47
102
}
330
47
100
AcDbScale
 70
     0
300
1/2" = 1'-0"
140
0.5
141
12.0
290
     0
  0
SCALE
  5
63
102
{ACAD_REACTORS
330
47
102
}
330
47
100
AcDbScale
 70
     0
300
3/4" = 1'-0"
140
0.75
141
12.0
290
     0
  0
SCALE
  5
64
102
{ACAD_REACTORS
330
47
102
}
330
47
100
AcDbScale
 70
     0
300
1" = 1'-0"
140
1.0
141
12.0
290
     0
  0
SCALE
  5
65
102
{ACAD_REACTORS
330
47
102
}
330
47
100
AcDbScale
 70
     0
300
1-1/2" = 1'-0"
140
1.5
141
12.0
290
     0
  0
SCALE
  5
66
102
{ACAD_REACTORS
330
47
102
}
330
47
100
AcDbScale
 70
     0
300
3" = 1'-0"
140
3.0
141
12.0
290
     0
  0
SCALE
  5
67
102
{ACAD_REACTORS
330
47
102
}
330
47
100
AcDbScale
 70
     0
300
6" = 1'-0"
140
6.0
141
12.0
290
     0
  0
SCALE
  5
68
102
{ACAD_REACTORS
330
47
102
}
330
47
100
AcDbScale
 70
     0
300
1'-0" = 1'-0"
140
12.0
141
12.0
290
     0
  0
ENDSEC
  0
EOF
