  0
SECTION
  2
HEADER
  9
$ACADVER
  1
AC1015
  9
$ACADMAINTVER
 70
     6
  9
$DWGCODEPAGE
  3
ANSI_1254
  9
$INSBASE
 10
0.0
 20
0.0
 30
0.0
  9
$EXTMIN
 10
0.0
 20
0.0
 30
0.0
  9
$EXTMAX
 10
1189.0
 20
841.0
 30
0.0
  9
$LIMMIN
 10
0.0
 20
0.0
  9
$LIMMAX
 10
1189.0
 20
841.0
  9
$ORTHOMODE
 70
     0
  9
$REGENMODE
 70
     1
  9
$FILLMODE
 70
     1
  9
$QTEXTMODE
 70
     0
  9
$MIRRTEXT
 70
     1
  9
$LTSCALE
 40
1.0
  9
$ATTMODE
 70
     1
  9
$TEXTSIZE
 40
4.9388888889
  9
$TRACEWID
 40
1.0
  9
$TEXTSTYLE
  7
STANDARD
  9
$CLAYER
  8
0
  9
$CELTYPE
  6
ByLayer
  9
$CECOLOR
 62
   256
  9
$CELTSCALE
 40
1.0
  9
$DISPSILH
 70
     0
  9
$DIMSCALE
 40
1.0
  9
$DIMASZ
 40
3.65
  9
$DIMEXO
 40
0.5
  9
$DIMDLI
 40
3.75
  9
$DIMRND
 40
0.0
  9
$DIMDLE
 40
0.0
  9
$DIMEXE
 40
1.0
  9
$DIMTP
 40
0.0
  9
$DIMTM
 40
0.0
  9
$DIMTXT
 40
4.2333333333
  9
$DIMCEN
 40
2.5
  9
$DIMTSZ
 40
0.0
  9
$DIMTOL
 70
     0
  9
$DIMLIM
 70
     0
  9
$DIMTIH
 70
     1
  9
$DIMTOH
 70
     1
  9
$DIMSE1
 70
     0
  9
$DIMSE2
 70
     0
  9
$DIMTAD
 70
     1
  9
$DIMZIN
 70
     0
  9
$DIMBLK
  1

  9
$DIMASO
 70
     1
  9
$DIMSHO
 70
     1
  9
$DIMPOST
  1

  9
$DIMAPOST
  1

  9
$DIMALT
 70
     0
  9
$DIMALTD
 70
     3
  9
$DIMALTF
 40
0.0393700787
  9
$DIMLFAC
 40
1.0
  9
$DIMTOFL
 70
     1
  9
$DIMTVP
 40
0.0
  9
$DIMTIX
 70
     0
  9
$DIMSOXD
 70
     0
  9
$DIMSAH
 70
     0
  9
$DIMBLK1
  1

  9
$DIMBLK2
  1

  9
$DIMSTYLE
  2
ISO-25
  9
$DIMCLRD
 70
     0
  9
$DIMCLRE
 70
     0
  9
$DIMCLRT
 70
     0
  9
$DIMTFAC
 40
1.0
  9
$DIMGAP
 40
1.524
  9
$DIMJUST
 70
     0
  9
$DIMSD1
 70
     0
  9
$DIMSD2
 70
     0
  9
$DIMTOLJ
 70
     0
  9
$DIMTZIN
 70
     0
  9
$DIMALTZ
 70
     0
  9
$DIMALTTZ
 70
     0
  9
$DIMUPT
 70
     0
  9
$DIMDEC
 70
     2
  9
$DIMTDEC
 70
     2
  9
$DIMALTU
 70
     2
  9
$DIMALTTD
 70
     3
  9
$DIMTXSTY
  7
STANDARD
  9
$DIMAUNIT
 70
     0
  9
$DIMADEC
 70
     2
  9
$DIMALTRND
 40
0.0
  9
$DIMAZIN
 70
     0
  9
$DIMDSEP
 70
    44
  9
$DIMATFIT
 70
     3
  9
$DIMFRAC
 70
     0
  9
$DIMLDRBLK
  1

  9
$DIMLUNIT
 70
     2
  9
$DIMLWD
 70
    -2
  9
$DIMLWE
 70
    -2
  9
$DIMTMOVE
 70
     0
  9
$LUNITS
 70
     2
  9
$LUPREC
 70
     2
  9
$SKETCHINC
 40
1.0
  9
$FILLETRAD
 40
10.0
  9
$AUNITS
 70
     0
  9
$AUPREC
 70
     2
  9
$MENU
  1
.
  9
$ELEVATION
 40
0.0
  9
$PELEVATION
 40
0.0
  9
$THICKNESS
 40
0.0
  9
$LIMCHECK
 70
     0
  9
$CHAMFERA
 40
0.0
  9
$CHAMFERB
 40
0.0
  9
$CHAMFERC
 40
0.0
  9
$CHAMFERD
 40
0.0
  9
$SKPOLY
 70
     0
  9
$TDCREATE
 40
2459103.634425463
  9
$TDUCREATE
 40
2459103.509425463
  9
$TDUPDATE
 40
2459103.634426435
  9
$TDUUPDATE
 40
2459103.509426435
  9
$TDINDWG
 40
0.0000000116
  9
$TDUSRTIMER
 40
0.0000000116
  9
$USRTIMER
 70
     1
  9
$ANGBASE
 50
0.0
  9
$ANGDIR
 70
     0
  9
$PDMODE
 70
     0
  9
$PDSIZE
 40
-1.0
  9
$PLINEWID
 40
0.0
  9
$SPLFRAME
 70
     0
  9
$SPLINETYPE
 70
     6
  9
$SPLINESEGS
 70
     8
  9
$HANDSEED
  5
32B
  9
$SURFTAB1
 70
     6
  9
$SURFTAB2
 70
     6
  9
$SURFTYPE
 70
     6
  9
$SURFU
 70
     6
  9
$SURFV
 70
     6
  9
$UCSBASE
  2

  9
$UCSNAME
  2

  9
$UCSORG
 10
0.0
 20
0.0
 30
0.0
  9
$UCSXDIR
 10
1.0
 20
0.0
 30
0.0
  9
$UCSYDIR
 10
0.0
 20
1.0
 30
0.0
  9
$UCSORTHOREF
  2

  9
$UCSORTHOVIEW
 70
     0
  9
$UCSORGTOP
 10
0.0
 20
0.0
 30
0.0
  9
$UCSORGBOTTOM
 10
0.0
 20
0.0
 30
0.0
  9
$UCSORGLEFT
 10
0.0
 20
0.0
 30
0.0
  9
$UCSORGRIGHT
 10
0.0
 20
0.0
 30
0.0
  9
$UCSORGFRONT
 10
0.0
 20
0.0
 30
0.0
  9
$UCSORGBACK
 10
0.0
 20
0.0
 30
0.0
  9
$PUCSBASE
  2

  9
$PUCSNAME
  2

  9
$PUCSORG
 10
0.0
 20
0.0
 30
0.0
  9
$PUCSXDIR
 10
1.0
 20
0.0
 30
0.0
  9
$PUCSYDIR
 10
0.0
 20
1.0
 30
0.0
  9
$PUCSORTHOREF
  2

  9
$PUCSORTHOVIEW
 70
     0
  9
$PUCSORGTOP
 10
0.0
 20
0.0
 30
0.0
  9
$PUCSORGBOTTOM
 10
0.0
 20
0.0
 30
0.0
  9
$PUCSORGLEFT
 10
0.0
 20
0.0
 30
0.0
  9
$PUCSORGRIGHT
 10
0.0
 20
0.0
 30
0.0
  9
$PUCSORGFRONT
 10
0.0
 20
0.0
 30
0.0
  9
$PUCSORGBACK
 10
0.0
 20
0.0
 30
0.0
  9
$USERI1
 70
     0
  9
$USERI2
 70
     0
  9
$USERI3
 70
     0
  9
$USERI4
 70
     0
  9
$USERI5
 70
     0
  9
$USERR1
 40
0.0
  9
$USERR2
 40
0.0
  9
$USERR3
 40
0.0
  9
$USERR4
 40
0.0
  9
$USERR5
 40
0.0
  9
$WORLDVIEW
 70
     1
  9
$SHADEDGE
 70
     3
  9
$SHADEDIF
 70
    70
  9
$TILEMODE
 70
     1
  9
$MAXACTVP
 70
    64
  9
$PINSBASE
 10
0.0
 20
0.0
 30
0.0
  9
$PLIMCHECK
 70
     0
  9
$PEXTMIN
 10
1.0000000000E+20
 20
1.0000000000E+20
 30
1.0000000000E+20
  9
$PEXTMAX
 10
-1.0000000000E+20
 20
-1.0000000000E+20
 30
-1.0000000000E+20
  9
$PLIMMIN
 10
0.0
 20
0.0
  9
$PLIMMAX
 10
420.0
 20
297.0
  9
$UNITMODE
 70
     0
  9
$VISRETAIN
 70
     1
  9
$PLINEGEN
 70
     0
  9
$PSLTSCALE
 70
     1
  9
$TREEDEPTH
 70
  3020
  9
$CMLSTYLE
  2
Standard
  9
$CMLJUST
 70
     0
  9
$CMLSCALE
 40
20.0
  9
$PROXYGRAPHICS
 70
     1
  9
$MEASUREMENT
 70
     1
  9
$CELWEIGHT
370
    -1
  9
$ENDCAPS
280
     0
  9
$JOINSTYLE
280
     0
  9
$LWDISPLAY
290
     1
  9
$INSUNITS
 70
     4
  9
$HYPERLINKBASE
  1

  9
$STYLESHEET
  1

  9
$XEDIT
290
     1
  9
$CEPSNTYPE
380
     0
  9
$PSTYLEMODE
290
     1
  9
$FINGERPRINTGUID
  2
{dd6f32e3-81be-4248-9516-ec416ada0f9c}
  9
$VERSIONGUID
  2
{FAEB1C32-E019-11D5-929B-00C0DF256EC4}
  9
$EXTNAMES
290
     1
  9
$PSVPSCALE
 40
0.0
  9
$OLESTARTUP
290
     0
  0
ENDSEC
  0
SECTION
  2
CLASSES
  0
CLASS
  1
ACDBDICTIONARYWDFLT
  2
AcDbDictionaryWithDefault
  3
ObjectDBX Classes
 90
        0
280
     0
281
     0
  0
CLASS
  1
VISUALSTYLE
  2
AcDbVisualStyle
  3
ObjectDBX Classes
 90
     4095
280
     0
281
     0
  0
CLASS
  1
MATERIAL
  2
AcDbMaterial
  3
ObjectDBX Classes
 90
     1153
280
     0
281
     0
  0
CLASS
  1
SCALE
  2
AcDbScale
  3
ObjectDBX Classes
 90
     1153
280
     0
281
     0
  0
CLASS
  1
TABLESTYLE
  2
AcDbTableStyle
  3
ObjectDBX Classes
 90
     4095
280
     0
281
     0
  0
CLASS
  1
MLEADERSTYLE
  2
AcDbMLeaderStyle
  3
ACDB_MLEADERSTYLE_CLASS
 90
     4095
280
     0
281
     0
  0
CLASS
  1
SUN
  2
AcDbSun
  3
SCENEOE
 90
     1153
280
     0
281
     0
  0
CLASS
  1
ACDBPLACEHOLDER
  2
AcDbPlaceHolder
  3
ObjectDBX Classes
 90
        0
280
     0
281
     0
  0
CLASS
  1
LAYOUT
  2
AcDbLayout
  3
ObjectDBX Classes
 90
        0
280
     0
281
     0
  0
ENDSEC
  0
SECTION
  2
TABLES
  0
TABLE
  2
VPORT
  5
8
330
0
100
AcDbSymbolTable
 70
     1
  0
VPORT
  5
29
330
8
100
AcDbSymbolTableRecord
100
AcDbViewportTableRecord
  2
*Active
 70
     0
 10
0.0
 20
0.0
 11
1.0
 21
1.0
 12
594.5
 22
420.5
 13
0.0
 23
0.0
 14
10.0
 24
10.0
 15
10.0
 25
10.0
 16
0.0
 26
0.0
 36
1.0
 17
0.0
 27
0.0
 37
0.0
 40
841.0
 41
1.4137931034
 42
50.0
 43
0.0
 44
0.0
 50
0.0
 51
0.0
 71
     0
 72
  2000
 73
     1
 74
     3
 75
     0
 76
     0
 77
     0
 78
     0
281
     0
 65
     1
110
0.0
120
0.0
130
0.0
111
1.0
121
0.0
131
0.0
112
0.0
122
1.0
132
0.0
 79
     0
146
0.0
  0
ENDTAB
  0
TABLE
  2
LTYPE
  5
5
330
0
100
AcDbSymbolTable
 70
     8
  0
LTYPE
  5
14
330
5
100
AcDbSymbolTableRecord
100
AcDbLinetypeTableRecord
  2
ByBlock
 70
     0
  3

 72
    65
 73
     0
 40
0.0
  0
LTYPE
  5
15
330
5
100
AcDbSymbolTableRecord
100
AcDbLinetypeTableRecord
  2
ByLayer
 70
     0
  3

 72
    65
 73
     0
 40
0.0
  0
LTYPE
  5
16
330
5
100
AcDbSymbolTableRecord
100
AcDbLinetypeTableRecord
  2
Continuous
 70
     0
  3
Solid line
 72
    65
 73
     0
 40
0.0
  0
LTYPE
  5
6E
330
5
100
AcDbSymbolTableRecord
100
AcDbLinetypeTableRecord
  2
SLD-Katı
 70
     0
  3
SolidWorks Line Style
 72
    65
 73
     0
 40
0.0
  0
LTYPE
  5
6F
330
5
100
AcDbSymbolTableRecord
100
AcDbLinetypeTableRecord
  2
SLD-Kesikli
 70
     0
  3
SolidWorks Line Style
 72
    65
 73
     2
 40
1.905
 49
1.27
 74
     0
 49
-0.635
 74
     0
  0
LTYPE
  5
70
330
5
100
AcDbSymbolTableRecord
100
AcDbLinetypeTableRecord
  2
SLD-Hayalet
 70
     0
  3
SolidWorks Line Style
 72
    65
 73
     6
 40
12.7
 49
6.35
 74
     0
 49
-1.27
 74
     0
 49
1.27
 74
     0
 49
-1.27
 74
     0
 49
1.27
 74
     0
 49
-1.27
 74
     0
  0
LTYPE
  5
71
330
5
100
AcDbSymbolTableRecord
100
AcDbLinetypeTableRecord
  2
SLD-Zincir
 70
     0
  3
SolidWorks Line Style
 72
    65
 73
     4
 40
10.16
 49
6.35
 74
     0
 49
-1.27
 74
     0
 49
1.27
 74
     0
 49
-1.27
 74
     0
  0
LTYPE
  5
72
330
5
100
AcDbSymbolTableRecord
100
AcDbLinetypeTableRecord
  2
SLD-Merkez
 70
     0
  3
SolidWorks Line Style
 72
    65
 73
     4
 40
19.05
 49
15.24
 74
     0
 49
-1.27
 74
     0
 49
1.27
 74
     0
 49
-1.27
 74
     0
  0
LTYPE
  5
73
330
5
100
AcDbSymbolTableRecord
100
AcDbLinetypeTableRecord
  2
SLD-Dikiş
 70
     0
  3
SolidWorks Line Style
 72
    65
 73
     2
 40
0.635
 49
0.0
 74
     0
 49
-0.635
 74
     0
  0
LTYPE
  5
74
330
5
100
AcDbSymbolTableRecord
100
AcDbLinetypeTableRecord
  2
SLD-İnce-Kalın-Zincir
 70
     0
  3
SolidWorks Line Style
 72
    65
 73
     4
 40
10.16
 49
6.35
 74
     0
 49
-1.27
 74
     0
 49
1.27
 74
     0
 49
-1.27
 74
     0
  0
ENDTAB
  0
TABLE
  2
LAYER
  5
2
330
0
100
AcDbSymbolTable
 70
     5
  0
LAYER
  5
10
330
2
100
AcDbSymbolTableRecord
100
AcDbLayerTableRecord
  2
0
 70
     0
 62
     7
  6
Continuous
370
    -3
390
F
  0
LAYER
  5
75
330
2
100
AcDbSymbolTableRecord
100
AcDbLayerTableRecord
  2
FORMAT
 70
     0
 62
     7
  6
SLD-Katı
370
    -3
390
F
  0
LAYER
  5
76
330
2
100
AcDbSymbolTableRecord
100
AcDbLayerTableRecord
  2
SLD-0
 70
     0
 62
   179
  6
SLD-Katı
370
    -3
390
F
  0
LAYER
  5
77
330
2
100
AcDbSymbolTableRecord
100
AcDbLayerTableRecord
  2
AAA_EKSEN
 70
     0
 62
     1
  6
SLD-Zincir
370
    -3
390
F
  0
LAYER
  5
78
330
2
100
AcDbSymbolTableRecord
100
AcDbLayerTableRecord
  2
03
 70
     0
 62
     3
  6
SLD-Kesikli
370
    -3
390
F
  0
ENDTAB
  0
TABLE
  2
STYLE
  5
3
330
0
100
AcDbSymbolTable
 70
     1
  0
STYLE
  5
11
330
3
100
AcDbSymbolTableRecord
100
AcDbTextStyleTableRecord
  2
STANDARD
 70
     0
 40
0.0
 41
1.0
 50
0.0
 71
     0
 42
4.9388888889
  3
GOTHIC.TTF
  4

1001
ACAD
1000
CENTURY GOTHIC
1071
       34
  0
ENDTAB
  0
TABLE
  2
VIEW
  5
6
330
0
100
AcDbSymbolTable
 70
     0
  0
ENDTAB
  0
TABLE
  2
UCS
  5
7
330
0
100
AcDbSymbolTable
 70
     0
  0
ENDTAB
  0
TABLE
  2
APPID
  5
9
330
0
100
AcDbSymbolTable
 70
     1
  0
APPID
  5
12
330
9
100
AcDbSymbolTableRecord
100
AcDbRegAppTableRecord
  2
ACAD
 70
     0
  0
ENDTAB
  0
TABLE
  2
DIMSTYLE
  5
A
330
0
100
AcDbSymbolTable
 70
     1
100
AcDbDimStyleTable
  0
DIMSTYLE
105
27
330
A
100
AcDbSymbolTableRecord
100
AcDbDimStyleTableRecord
  2
ISO-25
 70
     0
 41
2.5
 42
0.625
 43
3.75
 44
1.25
 73
     0
 74
     0
 77
     1
 78
     8
140
2.5
141
2.5
143
0.0393700787
147
0.625
171
     3
172
     1
178
     0
271
     2
272
     2
274
     3
278
    44
283
     0
284
     8
340
11
  0
ENDTAB
  0
TABLE
  2
BLOCK_RECORD
  5
1
330
0
100
AcDbSymbolTable
 70
     1
  0
BLOCK_RECORD
  5
1F
330
1
100
AcDbSymbolTableRecord
100
AcDbBlockTableRecord
  2
*Model_Space
340
22
  0
BLOCK_RECORD
  5
1B
330
1
100
AcDbSymbolTableRecord
100
AcDbBlockTableRecord
  2
*Paper_Space
340
1E
  0
BLOCK_RECORD
  5
23
330
1
100
AcDbSymbolTableRecord
100
AcDbBlockTableRecord
  2
*Paper_Space0
340
26
  0
ENDTAB
  0
ENDSEC
  0
SECTION
  2
BLOCKS
  0
BLOCK
  5
20
330
1F
100
AcDbEntity
  8
0
100
AcDbBlockBegin
  2
*Model_Space
 70
     0
 10
0.0
 20
0.0
 30
0.0
  3
*Model_Space
  1

  0
ENDBLK
  5
21
330
1F
100
AcDbEntity
  8
0
100
AcDbBlockEnd
  0
BLOCK
  5
1C
330
1B
100
AcDbEntity
 67
     1
  8
0
100
AcDbBlockBegin
  2
*Paper_Space
 70
     0
 10
0.0
 20
0.0
 30
0.0
  3
*Paper_Space
  1

  0
ENDBLK
  5
1D
330
1B
100
AcDbEntity
 67
     1
  8
0
100
AcDbBlockEnd
  0
BLOCK
  5
24
330
23
100
AcDbEntity
  8
0
100
AcDbBlockBegin
  2
*Paper_Space0
 70
     0
 10
0.0
 20
0.0
 30
0.0
  3
*Paper_Space0
  1

  0
ENDBLK
  5
25
330
23
100
AcDbEntity
  8
0
100
AcDbBlockEnd
  0
ENDSEC
  0
SECTION
  2
ENTITIES
  0
LINE
  5
79
330
1F
100
AcDbEntity
  8
0
  6
SLD-Katı
 62
     7
370
    25
100
AcDbLine
 10
660.1083051322
 20
596.3627638335
 30
0.0
 11
660.0083034394
 21
596.3627638335
 31
0.0
  0
LINE
  5
7A
330
1F
100
AcDbEntity
  8
0
  6
SLD-Katı
 62
     7
370
    25
100
AcDbLine
 10
659.8163019775
 20
588.3627625222
 30
0.0
 11
660.1083051322
 21
588.3627625222
 31
0.0
  0
LINE
  5
7B
330
1F
100
AcDbEntity
  8
0
  6
SLD-Katı
 62
     7
370
    25
100
AcDbLine
 10
659.3836020587
 20
588.7954587157
 30
0.0
 11
659.8163019775
 21
588.3627625222
 31
0.0
  0
LINE
  5
7C
330
1F
100
AcDbEntity
  8
0
  6
SLD-Katı
 62
     7
370
    25
100
AcDbLine
 10
340.7082926391
 20
588.3627625222
 30
0.0
 11
341.0002957938
 21
588.3627625222
 31
0.0
  0
LINE
  5
7D
330
1F
100
AcDbEntity
  8
0
  6
SLD-Katı
 62
     7
370
    25
100
AcDbLine
 10
340.8082943318
 20
596.3627638335
 30
0.0
 11
340.7082926391
 21
596.3627638335
 31
0.0
  0
LINE
  5
7E
330
1F
100
AcDbEntity
  8
0
  6
SLD-Katı
 62
     7
370
    25
100
AcDbLine
 10
341.0002957938
 20
588.3627625222
 30
0.0
 11
341.4329957126
 21
588.7954587157
 31
0.0
  0
LINE
  5
7F
330
1F
100
AcDbEntity
  8
0
  6
SLD-Katı
 62
     7
370
    25
100
AcDbLine
 10
660.1083051322
 20
596.3627638335
 30
0.0
 11
660.1083051322
 21
596.1127633269
 31
0.0
  0
LINE
  5
80
330
1F
100
AcDbEntity
  8
0
  6
SLD-Katı
 62
     7
370
    25
100
AcDbLine
 10
660.1083051322
 20
593.2755561585
 30
0.0
 11
660.1083051322
 21
588.3627625222
 31
0.0
  0
LINE
  5
81
330
1F
100
AcDbEntity
  8
0
  6
SLD-Katı
 62
     7
370
    25
100
AcDbLine
 10
659.8163019775
 20
592.9708236868
 30
0.0
 11
659.8163019775
 21
588.3627625222
 31
0.0
  0
LINE
  5
82
330
1F
100
AcDbEntity
  8
0
  6
SLD-Katı
 62
     7
370
    25
100
AcDbLine
 10
340.7082926391
 20
473.7762639339
 30
0.0
 11
340.7082926391
 21
480.1002347882
 31
0.0
  0
LINE
  5
83
330
1F
100
AcDbEntity
  8
0
  6
SLD-Katı
 62
     7
370
    25
100
AcDbLine
 10
340.7082926391
 20
473.6127609427
 30
0.0
 11
340.7082926391
 21
473.7762639339
 31
0.0
  0
LINE
  5
84
330
1F
100
AcDbEntity
  8
0
  6
SLD-Katı
 62
     7
370
    25
100
AcDbLine
 10
341.0002957938
 20
474.1436446125
 30
0.0
 11
341.0002957938
 21
479.4879907782
 31
0.0
  0
LINE
  5
85
330
1F
100
AcDbEntity
  8
0
  6
SLD-Katı
 62
     7
370
    25
100
AcDbLine
 10
340.7082926391
 20
588.4133631403
 30
0.0
 11
340.7082926391
 21
593.2854505296
 31
0.0
  0
LINE
  5
86
330
1F
100
AcDbEntity
  8
0
  6
SLD-Katı
 62
     7
370
    25
100
AcDbLine
 10
340.7082926391
 20
596.1127633269
 30
0.0
 11
340.7082926391
 21
596.3627638335
 31
0.0
  0
LINE
  5
87
330
1F
100
AcDbEntity
  8
0
  6
SLD-Katı
 62
     7
370
    25
100
AcDbLine
 10
340.7082926391
 20
588.3627625222
 30
0.0
 11
340.7082926391
 21
588.4133631403
 31
0.0
  0
LINE
  5
88
330
1F
100
AcDbEntity
  8
0
  6
SLD-Katı
 62
     7
370
    25
100
AcDbLine
 10
341.0002957938
 20
588.3627625222
 30
0.0
 11
341.0002957938
 21
592.9983796592
 31
0.0
  0
LINE
  5
89
330
1F
100
AcDbEntity
  8
0
  6
SLD-Katı
 62
     7
370
    25
100
AcDbLine
 10
340.7082926391
 20
596.1127633269
 30
0.0
 11
343.7507968305
 21
603.7190089042
 31
0.0
  0
LINE
  5
8A
330
1F
100
AcDbEntity
  8
0
  6
SLD-Katı
 62
     7
370
    25
100
AcDbLine
 10
343.7507968305
 20
603.7190089042
 30
0.0
 11
344.7083007453
 21
603.7524471099
 31
0.0
  0
LINE
  5
8B
330
1F
100
AcDbEntity
  8
0
  6
SLD-Katı
 62
     7
370
    25
100
AcDbLine
 10
344.7083007453
 20
596.1265953297
 30
0.0
 11
344.7083007453
 21
603.7524471099
 31
0.0
  0
LINE
  5
8C
330
1F
100
AcDbEntity
  8
0
  6
SLD-Katı
 62
     7
370
    25
100
AcDbLine
 10
340.7082926391
 20
596.1127633269
 30
0.0
 11
344.7083007453
 21
596.1265953297
 31
0.0
  0
LINE
  5
8D
330
1F
100
AcDbEntity
  8
0
  6
SLD-Katı
 62
     7
370
    25
100
AcDbLine
 10
340.7082926391
 20
593.6127657111
 30
0.0
 11
344.7083007453
 21
593.5171524103
 31
0.0
  0
LINE
  5
8E
330
1F
100
AcDbEntity
  8
0
  6
SLD-Katı
 62
     7
370
    25
100
AcDbLine
 10
341.4329957126
 20
591.9712835963
 30
0.0
 11
344.7083007453
 21
591.959422272
 31
0.0
  0
SPLINE
  5
8F
330
1F
100
AcDbEntity
  8
0
  6
SLD-Katı
 62
     7
370
    25
100
AcDbSpline
210
0.0
220
0.0
230
1.0
 70
     8
 71
     3
 72
    11
 73
     7
 74
     0
 42
0.000000001
 43
0.00000001
 40
0.0
 40
0.0
 40
0.0
 40
0.0
 40
0.2646224976178895
 40
0.6067941115896381
 40
0.8652433265161121
 40
1.0
 40
1.0
 40
1.0
 40
1.0
 10
340.7082926390753
 20
593.2755561585303
 30
0.0
 10
340.803297175633
 20
593.1936435025557
 30
0.0
 10
341.0211478643552
 20
593.0058132244895
 30
0.0
 10
341.2793949918885
 20
592.644797396658
 30
0.0
 10
341.4176538484468
 20
592.2661558469379
 30
0.0
 10
341.4290798694387
 20
592.0465465154024
 30
0.0
 10
341.4329957125769
 20
591.9712835962649
 30
0.0
  0
LINE
  5
90
330
1F
100
AcDbEntity
  8
0
  6
SLD-Katı
 62
     7
370
    25
100
AcDbLine
 10
340.7082926391
 20
593.2755561585
 30
0.0
 11
340.7082926391
 21
593.6127657111
 31
0.0
  0
LINE
  5
91
330
1F
100
AcDbEntity
  8
0
  6
SLD-Katı
 62
     7
370
    25
100
AcDbLine
 10
344.7083007453
 20
591.959422272
 30
0.0
 11
344.7083007453
 21
593.5171524103
 31
0.0
  0
LINE
  5
92
330
1F
100
AcDbEntity
  8
0
  6
SLD-Katı
 62
     7
370
    25
100
AcDbLine
 10
340.7082926391
 20
593.6127657111
 30
0.0
 11
340.7082926391
 21
596.1127633269
 31
0.0
  0
LINE
  5
93
330
1F
100
AcDbEntity
  8
0
  6
SLD-Katı
 62
     7
370
    25
100
AcDbLine
 10
344.7083007453
 20
593.5171524103
 30
0.0
 11
344.7083007453
 21
596.1265953297
 31
0.0
  0
LINE
  5
94
330
1F
100
AcDbEntity
  8
0
  6
SLD-Katı
 62
     7
370
    25
100
AcDbLine
 10
341.4329957126
 20
591.9712835963
 30
0.0
 11
341.4329957126
 21
588.6197106953
 31
0.0
  0
SPLINE
  5
95
330
1F
100
AcDbEntity
  8
0
  6
SLD-Katı
 62
     7
370
    25
100
AcDbSpline
210
0.0
220
0.0
230
1.0
 70
     8
 71
     3
 72
    10
 73
     6
 74
     0
 42
0.000000001
 43
0.00000001
 40
0.0
 40
0.0
 40
0.0
 40
0.0
 40
0.2414688817980301
 40
0.5468033726169281
 40
0.9999999999999999
 40
0.9999999999999999
 40
0.9999999999999999
 40
0.9999999999999999
 10
341.4329957125769
 20
588.6197106952544
 30
0.0
 10
341.4201811867397
 20
588.5937779160867
 30
0.0
 10
341.3911628474236
 20
588.5350534502066
 30
0.0
 10
341.136851082027
 20
588.3052720211087
 30
0.0
 10
340.8685771928373
 20
588.0724439892981
 30
0.0
 10
340.7082926390753
 20
587.9333371336337
 30
0.0
  0
LINE
  5
96
330
1F
100
AcDbEntity
  8
0
  6
SLD-Katı
 62
     7
370
    25
100
AcDbLine
 10
340.7082926391
 20
588.3627625222
 30
0.0
 11
340.7082926391
 21
587.9333371336
 31
0.0
  0
LINE
  5
97
330
1F
100
AcDbEntity
  8
0
  6
SLD-Katı
 62
     7
370
    25
100
AcDbLine
 10
340.7082926391
 20
533.9385297189
 30
0.0
 11
344.7083007453
 21
533.8016690726
 31
0.0
  0
LINE
  5
98
330
1F
100
AcDbEntity
  8
0
  6
SLD-Katı
 62
     7
370
    25
100
AcDbLine
 10
340.7082926391
 20
533.9385297189
 30
0.0
 11
340.7082926391
 21
541.2869989446
 31
0.0
  0
LINE
  5
99
330
1F
100
AcDbEntity
  8
0
  6
SLD-Katı
 62
     7
370
    25
100
AcDbLine
 10
340.7082926391
 20
541.2869989446
 30
0.0
 11
344.7083007453
 21
541.4238598238
 31
0.0
  0
LINE
  5
9A
330
1F
100
AcDbEntity
  8
0
  6
SLD-Katı
 62
     7
370
    25
100
AcDbLine
 10
344.7083007453
 20
533.8016690726
 30
0.0
 11
344.7083007453
 21
541.4238598238
 31
0.0
  0
LINE
  5
9B
330
1F
100
AcDbEntity
  8
0
  6
SLD-Katı
 62
     7
370
    25
100
AcDbLine
 10
341.4329957126
 20
588.6197106953
 30
0.0
 11
344.7083007453
 21
588.5063128586
 31
0.0
  0
LINE
  5
9C
330
1F
100
AcDbEntity
  8
0
  6
SLD-Katı
 62
     7
370
    25
100
AcDbLine
 10
344.7083007453
 20
588.5063128586
 30
0.0
 11
344.7083007453
 21
591.959422272
 31
0.0
  0
LINE
  5
9D
330
1F
100
AcDbEntity
  8
0
  6
SLD-Katı
 62
     7
370
    25
100
AcDbLine
 10
340.7082926391
 20
531.489039589
 30
0.0
 11
344.7083007453
 21
531.489039589
 31
0.0
  0
LINE
  5
9E
330
1F
100
AcDbEntity
  8
0
  6
SLD-Katı
 62
     7
370
    25
100
AcDbLine
 10
340.7082926391
 20
531.489039589
 30
0.0
 11
340.7082926391
 21
533.9385297189
 31
0.0
  0
LINE
  5
9F
330
1F
100
AcDbEntity
  8
0
  6
SLD-Katı
 62
     7
370
    25
100
AcDbLine
 10
344.7083007453
 20
531.489039589
 30
0.0
 11
344.7083007453
 21
533.8016690726
 31
0.0
  0
LINE
  5
A0
330
1F
100
AcDbEntity
  8
0
  6
SLD-Katı
 62
     7
370
    25
100
AcDbLine
 10
340.7082926391
 20
543.7364886089
 30
0.0
 11
344.7083007453
 21
543.7364886089
 31
0.0
  0
LINE
  5
A1
330
1F
100
AcDbEntity
  8
0
  6
SLD-Katı
 62
     7
370
    25
100
AcDbLine
 10
340.7082926391
 20
541.2869989446
 30
0.0
 11
340.7082926391
 21
543.7364886089
 31
0.0
  0
LINE
  5
A2
330
1F
100
AcDbEntity
  8
0
  6
SLD-Katı
 62
     7
370
    25
100
AcDbLine
 10
344.7083007453
 20
541.4238598238
 30
0.0
 11
344.7083007453
 21
543.7364886089
 31
0.0
  0
LINE
  5
A3
330
1F
100
AcDbEntity
  8
0
  6
SLD-Katı
 62
     7
370
    25
100
AcDbLine
 10
340.7082926391
 20
586.6618881042
 30
0.0
 11
344.7083007453
 21
586.6618881042
 31
0.0
  0
LINE
  5
A4
330
1F
100
AcDbEntity
  8
0
  6
SLD-Katı
 62
     7
370
    25
100
AcDbLine
 10
340.7082926391
 20
586.6618881042
 30
0.0
 11
340.7082926391
 21
587.9333371336
 31
0.0
  0
LINE
  5
A5
330
1F
100
AcDbEntity
  8
0
  6
SLD-Katı
 62
     7
370
    25
100
AcDbLine
 10
344.7083007453
 20
586.6618881042
 30
0.0
 11
344.7083007453
 21
588.5063128586
 31
0.0
  0
SPLINE
  5
A6
330
1F
100
AcDbEntity
  8
0
  6
SLD-Katı
 62
     7
370
    25
100
AcDbSpline
210
0.0
220
0.0
230
1.0
 70
     8
 71
     3
 72
    10
 73
     6
 74
     0
 42
0.000000001
 43
0.00000001
 40
0.0
 40
0.0
 40
0.0
 40
0.0
 40
0.3892204042189907
 40
0.8646932564243729
 40
1.0
 40
1.0
 40
1.0
 40
1.0
 10
340.9492295144186
 20
475.6092781240817
 30
0.0
 10
341.034525249196
 20
475.3146290441302
 30
0.0
 10
341.2240185179564
 20
474.6600357348278
 30
0.0
 10
341.001796723458
 20
473.8954163375489
 30
0.0
 10
340.7615211728108
 20
473.4687077262609
 30
0.0
 10
340.7082926390753
 20
473.3741784508105
 30
0.0
  0
SPLINE
  5
A7
330
1F
100
AcDbEntity
  8
0
  6
SLD-Katı
 62
     7
370
    25
100
AcDbSpline
210
0.0
220
0.0
230
1.0
 70
     8
 71
     3
 72
    10
 73
     6
 74
     0
 42
0.000000001
 43
0.00000001
 40
0.0
 40
0.0
 40
0.0
 40
0.0
 40
0.2397186585016714
 40
0.6014150550608225
 40
1.0
 40
1.0
 40
1.0
 40
1.0
 10
340.7082926390753
 20
480.1002347881671
 30
0.0
 10
340.8738416912756
 20
479.7661883999168
 30
0.0
 10
341.2891772891244
 20
478.9281204404257
 30
0.0
 10
341.5832782667546
 20
477.3307854629332
 30
0.0
 10
341.1673066903588
 20
476.2013800049448
 30
0.0
 10
340.9492295144186
 20
475.6092781240817
 30
0.0
  0
LINE
  5
A8
330
1F
100
AcDbEntity
  8
0
  6
SLD-Katı
 62
     7
370
    25
100
AcDbLine
 10
340.9492295144
 20
475.6092781241
 30
0.0
 11
344.7083007453
 21
475.5549037869
 31
0.0
  0
LINE
  5
A9
330
1F
100
AcDbEntity
  8
0
  6
SLD-Katı
 62
     7
370
    25
100
AcDbLine
 10
340.7082926391
 20
480.1002347882
 30
0.0
 11
340.7082926391
 21
531.489039589
 31
0.0
  0
LINE
  5
AA
330
1F
100
AcDbEntity
  8
0
  6
SLD-Katı
 62
     7
370
    25
100
AcDbLine
 10
344.7083007453
 20
475.5549037869
 30
0.0
 11
344.7083007453
 21
531.489039589
 31
0.0
  0
LINE
  5
AB
330
1F
100
AcDbEntity
  8
0
  6
SLD-Katı
 62
     7
370
    25
100
AcDbLine
 10
340.7082926391
 20
543.7364886089
 30
0.0
 11
340.7082926391
 21
586.6618881042
 31
0.0
  0
LINE
  5
AC
330
1F
100
AcDbEntity
  8
0
  6
SLD-Katı
 62
     7
370
    25
100
AcDbLine
 10
344.7083007453
 20
543.7364886089
 30
0.0
 11
344.7083007453
 21
586.6618881042
 31
0.0
  0
LINE
  5
AD
330
1F
100
AcDbEntity
  8
0
  6
SLD-Katı
 62
     7
370
    25
100
AcDbLine
 10
340.7082926391
 20
472.6127663667
 30
0.0
 11
344.7083007453
 21
472.4730828817
 31
0.0
  0
LINE
  5
AE
330
1F
100
AcDbEntity
  8
0
  6
SLD-Katı
 62
     7
370
    25
100
AcDbLine
 10
340.7082926391
 20
472.6127663667
 30
0.0
 11
340.7082926391
 21
473.3741784508
 31
0.0
  0
LINE
  5
AF
330
1F
100
AcDbEntity
  8
0
  6
SLD-Katı
 62
     7
370
    25
100
AcDbLine
 10
344.7083007453
 20
472.4730828817
 30
0.0
 11
344.7083007453
 21
475.5549037869
 31
0.0
  0
LINE
  5
B0
330
1F
100
AcDbEntity
  8
0
  6
SLD-Katı
 62
     7
370
    25
100
AcDbLine
 10
344.7083007453
 20
603.7524471099
 30
0.0
 11
344.9013154863
 21
603.7524471099
 31
0.0
  0
LINE
  5
B1
330
1F
100
AcDbEntity
  8
0
  6
SLD-Katı
 62
     7
370
    25
100
AcDbLine
 10
344.9150394557
 20
603.7524471099
 30
0.0
 11
344.9013154863
 21
603.7524471099
 31
0.0
  0
LINE
  5
B2
330
1F
100
AcDbEntity
  8
0
  6
SLD-Katı
 62
     7
370
    25
100
AcDbLine
 10
345.1082926152
 20
603.7524471099
 30
0.0
 11
345.115206754
 21
603.6127636249
 31
0.0
  0
LINE
  5
B3
330
1F
100
AcDbEntity
  8
0
  6
SLD-Katı
 62
     7
370
    25
100
AcDbLine
 10
344.9150394557
 20
603.7524471099
 30
0.0
 11
345.1082926152
 21
603.7524471099
 31
0.0
  0
LINE
  5
B4
330
1F
100
AcDbEntity
  8
0
  6
SLD-Katı
 62
     7
370
    25
100
AcDbLine
 10
656.108297026
 20
593.5171524103
 30
0.0
 11
656.108297026
 21
591.959422272
 31
0.0
  0
LINE
  5
B5
330
1F
100
AcDbEntity
  8
0
  6
SLD-Katı
 62
     7
370
    25
100
AcDbLine
 10
660.1083051322
 20
593.6127657111
 30
0.0
 11
656.108297026
 21
593.5171524103
 31
0.0
  0
LINE
  5
B6
330
1F
100
AcDbEntity
  8
0
  6
SLD-Katı
 62
     7
370
    25
100
AcDbLine
 10
660.1083051322
 20
593.6127657111
 30
0.0
 11
660.1083051322
 21
593.2755561585
 31
0.0
  0
SPLINE
  5
B7
330
1F
100
AcDbEntity
  8
0
  6
SLD-Katı
 62
     7
370
    25
100
AcDbSpline
210
0.0
220
0.0
230
1.0
 70
     8
 71
     3
 72
    10
 73
     6
 74
     0
 42
0.000000001
 43
0.00000001
 40
0.0
 40
0.0
 40
0.0
 40
0.0
 40
0.2414699034715333
 40
0.5468016579650403
 40
0.9999999999999999
 40
0.9999999999999999
 40
0.9999999999999999
 40
0.9999999999999999
 10
659.3836020587073
 20
591.9712835962649
 30
0.0
 10
659.3964163242119
 20
592.1056473143807
 30
0.0
 10
659.4254338602397
 20
592.4099100932187
 30
0.0
 10
659.679749313087
 20
592.8849532697004
 30
0.0
 10
659.9480210450204
 20
593.129466840183
 30
0.0
 10
660.1083051322089
 20
593.2755561585303
 30
0.0
  0
LINE
  5
B8
330
1F
100
AcDbEntity
  8
0
  6
SLD-Katı
 62
     7
370
    25
100
AcDbLine
 10
659.3836020587
 20
591.9712835963
 30
0.0
 11
656.108297026
 21
591.959422272
 31
0.0
  0
LINE
  5
B9
330
1F
100
AcDbEntity
  8
0
  6
SLD-Katı
 62
     7
370
    25
100
AcDbLine
 10
660.1083051322
 20
596.1127633269
 30
0.0
 11
656.108297026
 21
596.1265953297
 31
0.0
  0
LINE
  5
BA
330
1F
100
AcDbEntity
  8
0
  6
SLD-Katı
 62
     7
370
    25
100
AcDbLine
 10
660.1083051322
 20
596.1127633269
 30
0.0
 11
660.1083051322
 21
593.6127657111
 31
0.0
  0
LINE
  5
BB
330
1F
100
AcDbEntity
  8
0
  6
SLD-Katı
 62
     7
370
    25
100
AcDbLine
 10
656.108297026
 20
596.1265953297
 30
0.0
 11
656.108297026
 21
593.5171524103
 31
0.0
  0
LINE
  5
BC
330
1F
100
AcDbEntity
  8
0
  6
SLD-Katı
 62
     7
370
    25
100
AcDbLine
 10
657.0658009408
 20
603.7190089042
 30
0.0
 11
660.1083051322
 21
596.1127633269
 31
0.0
  0
LINE
  5
BD
330
1F
100
AcDbEntity
  8
0
  6
SLD-Katı
 62
     7
370
    25
100
AcDbLine
 10
657.0658009408
 20
603.7190089042
 30
0.0
 11
656.108297026
 21
603.7524471099
 31
0.0
  0
LINE
  5
BE
330
1F
100
AcDbEntity
  8
0
  6
SLD-Katı
 62
     7
370
    25
100
AcDbLine
 10
656.108297026
 20
603.7524471099
 30
0.0
 11
656.108297026
 21
596.1265953297
 31
0.0
  0
SPLINE
  5
BF
330
1F
100
AcDbEntity
  8
0
  6
SLD-Katı
 62
     7
370
    25
100
AcDbSpline
210
0.0
220
0.0
230
1.0
 70
     8
 71
     3
 72
    11
 73
     7
 74
     0
 42
0.000000001
 43
0.00000001
 40
0.0
 40
0.0
 40
0.0
 40
0.0
 40
0.2646230750649282
 40
0.606793462146542
 40
0.8652431953648057
 40
0.9999999999999999
 40
0.9999999999999999
 40
0.9999999999999999
 40
0.9999999999999999
 10
660.1083051322089
 20
587.9333371336337
 30
0.0
 10
660.0133007226098
 20
588.0161872355307
 30
0.0
 10
659.7954510335542
 20
588.2061665113624
 30
0.0
 10
659.5372018977556
 20
588.4309572707004
 30
0.0
 10
659.398944004628
 20
588.5711413679365
 30
0.0
 10
659.3875179207431
 20
588.6073139115653
 30
0.0
 10
659.3836020587073
 20
588.6197106952544
 30
0.0
  0
LINE
  5
C0
330
1F
100
AcDbEntity
  8
0
  6
SLD-Katı
 62
     7
370
    25
100
AcDbLine
 10
659.3836020587
 20
588.6197106953
 30
0.0
 11
659.3836020587
 21
591.9712835963
 31
0.0
  0
LINE
  5
C1
330
1F
100
AcDbEntity
  8
0
  6
SLD-Katı
 62
     7
370
    25
100
AcDbLine
 10
660.1083051322
 20
587.9333371336
 30
0.0
 11
660.1083051322
 21
588.3627625222
 31
0.0
  0
LINE
  5
C2
330
1F
100
AcDbEntity
  8
0
  6
SLD-Katı
 62
     7
370
    25
100
AcDbLine
 10
660.1083051322
 20
541.2869989446
 30
0.0
 11
656.108297026
 21
541.4238598238
 31
0.0
  0
LINE
  5
C3
330
1F
100
AcDbEntity
  8
0
  6
SLD-Katı
 62
     7
370
    25
100
AcDbLine
 10
660.1083051322
 20
541.2869989446
 30
0.0
 11
660.1083051322
 21
533.9385297189
 31
0.0
  0
LINE
  5
C4
330
1F
100
AcDbEntity
  8
0
  6
SLD-Katı
 62
     7
370
    25
100
AcDbLine
 10
660.1083051322
 20
533.9385297189
 30
0.0
 11
656.108297026
 21
533.8016690726
 31
0.0
  0
LINE
  5
C5
330
1F
100
AcDbEntity
  8
0
  6
SLD-Katı
 62
     7
370
    25
100
AcDbLine
 10
656.108297026
 20
541.4238598238
 30
0.0
 11
656.108297026
 21
533.8016690726
 31
0.0
  0
LINE
  5
C6
330
1F
100
AcDbEntity
  8
0
  6
SLD-Katı
 62
     7
370
    25
100
AcDbLine
 10
659.3836020587
 20
588.6197106953
 30
0.0
 11
656.108297026
 21
588.5063128586
 31
0.0
  0
LINE
  5
C7
330
1F
100
AcDbEntity
  8
0
  6
SLD-Katı
 62
     7
370
    25
100
AcDbLine
 10
656.108297026
 20
591.959422272
 30
0.0
 11
656.108297026
 21
588.5063128586
 31
0.0
  0
LINE
  5
C8
330
1F
100
AcDbEntity
  8
0
  6
SLD-Katı
 62
     7
370
    25
100
AcDbLine
 10
660.1083051322
 20
531.489039589
 30
0.0
 11
656.108297026
 21
531.489039589
 31
0.0
  0
LINE
  5
C9
330
1F
100
AcDbEntity
  8
0
  6
SLD-Katı
 62
     7
370
    25
100
AcDbLine
 10
660.1083051322
 20
533.9385297189
 30
0.0
 11
660.1083051322
 21
531.489039589
 31
0.0
  0
LINE
  5
CA
330
1F
100
AcDbEntity
  8
0
  6
SLD-Katı
 62
     7
370
    25
100
AcDbLine
 10
656.108297026
 20
533.8016690726
 30
0.0
 11
656.108297026
 21
531.489039589
 31
0.0
  0
LINE
  5
CB
330
1F
100
AcDbEntity
  8
0
  6
SLD-Katı
 62
     7
370
    25
100
AcDbLine
 10
660.1083051322
 20
543.7364886089
 30
0.0
 11
656.108297026
 21
543.7364886089
 31
0.0
  0
LINE
  5
CC
330
1F
100
AcDbEntity
  8
0
  6
SLD-Katı
 62
     7
370
    25
100
AcDbLine
 10
660.1083051322
 20
543.7364886089
 30
0.0
 11
660.1083051322
 21
541.2869989446
 31
0.0
  0
LINE
  5
CD
330
1F
100
AcDbEntity
  8
0
  6
SLD-Katı
 62
     7
370
    25
100
AcDbLine
 10
656.108297026
 20
543.7364886089
 30
0.0
 11
656.108297026
 21
541.4238598238
 31
0.0
  0
LINE
  5
CE
330
1F
100
AcDbEntity
  8
0
  6
SLD-Katı
 62
     7
370
    25
100
AcDbLine
 10
660.1083051322
 20
586.6618881042
 30
0.0
 11
656.108297026
 21
586.6618881042
 31
0.0
  0
LINE
  5
CF
330
1F
100
AcDbEntity
  8
0
  6
SLD-Katı
 62
     7
370
    25
100
AcDbLine
 10
660.1083051322
 20
587.9333371336
 30
0.0
 11
660.1083051322
 21
586.6618881042
 31
0.0
  0
LINE
  5
D0
330
1F
100
AcDbEntity
  8
0
  6
SLD-Katı
 62
     7
370
    25
100
AcDbLine
 10
656.108297026
 20
588.5063128586
 30
0.0
 11
656.108297026
 21
586.6618881042
 31
0.0
  0
SPLINE
  5
D1
330
1F
100
AcDbEntity
  8
0
  6
SLD-Katı
 62
     7
370
    25
100
AcDbSpline
210
0.0
220
0.0
230
1.0
 70
     8
 71
     3
 72
    10
 73
     6
 74
     0
 42
0.000000001
 43
0.00000001
 40
0.0
 40
0.0
 40
0.0
 40
0.0
 40
0.3985849449391775
 40
0.7602813414983286
 40
1.0
 40
1.0
 40
1.0
 40
1.0
 10
659.8673682568656
 20
475.6092781240817
 30
0.0
 10
659.6492910809254
 20
476.2013800049448
 30
0.0
 10
659.2333195045297
 20
477.3307854629332
 30
0.0
 10
659.5274204821598
 20
478.9281204404258
 30
0.0
 10
659.9427560800085
 20
479.7661883999168
 30
0.0
 10
660.1083051322089
 20
480.1002347881671
 30
0.0
  0
LINE
  5
D2
330
1F
100
AcDbEntity
  8
0
  6
SLD-Katı
 62
     7
370
    25
100
AcDbLine
 10
659.8673682569
 20
475.6092781241
 30
0.0
 11
656.108297026
 21
475.5549037869
 31
0.0
  0
LINE
  5
D3
330
1F
100
AcDbEntity
  8
0
  6
SLD-Katı
 62
     7
370
    25
100
AcDbLine
 10
660.1083051322
 20
531.489039589
 30
0.0
 11
660.1083051322
 21
480.1002347882
 31
0.0
  0
LINE
  5
D4
330
1F
100
AcDbEntity
  8
0
  6
SLD-Katı
 62
     7
370
    25
100
AcDbLine
 10
656.108297026
 20
531.489039589
 30
0.0
 11
656.108297026
 21
475.5549037869
 31
0.0
  0
SPLINE
  5
D5
330
1F
100
AcDbEntity
  8
0
  6
SLD-Katı
 62
     7
370
    25
100
AcDbSpline
210
0.0
220
0.0
230
1.0
 70
     8
 71
     3
 72
    10
 73
     6
 74
     0
 42
0.000000001
 43
0.00000001
 40
0.0
 40
0.0
 40
0.0
 40
0.0
 40
0.1353067435756272
 40
0.6107795957810095
 40
1.0
 40
1.0
 40
1.0
 40
1.0
 10
660.1083051322089
 20
473.3741784508105
 30
0.0
 10
660.0550765984734
 20
473.4687077262609
 30
0.0
 10
659.8148010478261
 20
473.8954163375489
 30
0.0
 10
659.5925792533278
 20
474.6600357348278
 30
0.0
 10
659.7820725220882
 20
475.3146290441302
 30
0.0
 10
659.8673682568656
 20
475.6092781240817
 30
0.0
  0
LINE
  5
D6
330
1F
100
AcDbEntity
  8
0
  6
SLD-Katı
 62
     7
370
    25
100
AcDbLine
 10
660.1083051322
 20
473.3741784508
 30
0.0
 11
660.1083051322
 21
480.1432842429
 31
0.0
  0
LINE
  5
D7
330
1F
100
AcDbEntity
  8
0
  6
SLD-Katı
 62
     7
370
    25
100
AcDbLine
 10
660.1083051322
 20
586.6618881042
 30
0.0
 11
660.1083051322
 21
543.7364886089
 31
0.0
  0
LINE
  5
D8
330
1F
100
AcDbEntity
  8
0
  6
SLD-Katı
 62
     7
370
    25
100
AcDbLine
 10
656.108297026
 20
586.6618881042
 30
0.0
 11
656.108297026
 21
543.7364886089
 31
0.0
  0
LINE
  5
D9
330
1F
100
AcDbEntity
  8
0
  6
SLD-Katı
 62
     7
370
    25
100
AcDbLine
 10
660.1083051322
 20
472.6127663667
 30
0.0
 11
656.108297026
 21
472.4730828817
 31
0.0
  0
LINE
  5
DA
330
1F
100
AcDbEntity
  8
0
  6
SLD-Katı
 62
     7
370
    25
100
AcDbLine
 10
660.1083051322
 20
473.3741784508
 30
0.0
 11
660.1083051322
 21
472.6127663667
 31
0.0
  0
LINE
  5
DB
330
1F
100
AcDbEntity
  8
0
  6
SLD-Katı
 62
     7
370
    25
100
AcDbLine
 10
656.108297026
 20
475.5549037869
 30
0.0
 11
656.108297026
 21
472.4730828817
 31
0.0
  0
LINE
  5
DC
330
1F
100
AcDbEntity
  8
0
  6
SLD-Katı
 62
     7
370
    25
100
AcDbLine
 10
655.915282285
 20
603.7524471099
 30
0.0
 11
656.108297026
 21
603.7524471099
 31
0.0
  0
LINE
  5
DD
330
1F
100
AcDbEntity
  8
0
  6
SLD-Katı
 62
     7
370
    25
100
AcDbLine
 10
655.9015583156
 20
603.7524471099
 30
0.0
 11
655.915282285
 21
603.7524471099
 31
0.0
  0
LINE
  5
DE
330
1F
100
AcDbEntity
  8
0
  6
SLD-Katı
 62
     7
370
    25
100
AcDbLine
 10
655.7013910173
 20
603.6127636249
 30
0.0
 11
655.7083051561
 21
603.7524471099
 31
0.0
  0
LINE
  5
DF
330
1F
100
AcDbEntity
  8
0
  6
SLD-Katı
 62
     7
370
    25
100
AcDbLine
 10
655.7083051561
 20
603.7524471099
 30
0.0
 11
655.9015583156
 21
603.7524471099
 31
0.0
  0
LINE
  5
E0
330
1F
100
AcDbEntity
  8
0
  6
SLD-Katı
 62
     7
370
    25
100
AcDbLine
 10
344.7083007453
 20
596.1127633269
 30
0.0
 11
656.108297026
 21
596.1127633269
 31
0.0
  0
LINE
  5
E1
330
1F
100
AcDbEntity
  8
0
  6
SLD-Katı
 62
     7
370
    25
100
AcDbLine
 10
344.7083007453
 20
603.6127636249
 30
0.0
 11
656.108297026
 21
603.6127636249
 31
0.0
  0
LINE
  5
E2
330
1F
100
AcDbEntity
  8
0
  6
SLD-Katı
 62
     7
370
    25
100
AcDbLine
 10
344.7083007453
 20
593.6127657111
 30
0.0
 11
656.108297026
 21
593.6127657111
 31
0.0
  0
LINE
  5
E3
330
1F
100
AcDbEntity
  8
0
  6
SLD-Katı
 62
     7
370
    25
100
AcDbLine
 10
656.108297026
 20
591.9739062006
 30
0.0
 11
344.7083007453
 21
591.9739062006
 31
0.0
  0
LINE
  5
E4
330
1F
100
AcDbEntity
  8
0
  6
SLD-Katı
 62
     7
370
    25
100
AcDbLine
 10
656.108297026
 20
541.2869989446
 30
0.0
 11
344.7083007453
 21
541.2869989446
 31
0.0
  0
LINE
  5
E5
330
1F
100
AcDbEntity
  8
0
  6
SLD-Katı
 62
     7
370
    25
100
AcDbLine
 10
344.7083007453
 20
533.9385297189
 30
0.0
 11
656.108297026
 21
533.9385297189
 31
0.0
  0
LINE
  5
E6
330
1F
100
AcDbEntity
  8
0
  6
SLD-Katı
 62
     7
370
    25
100
AcDbLine
 10
344.7083007453
 20
588.6448005254
 30
0.0
 11
656.108297026
 21
588.6448005254
 31
0.0
  0
LINE
  5
E7
330
1F
100
AcDbEntity
  8
0
  6
SLD-Katı
 62
     7
370
    25
100
AcDbLine
 10
344.7083007453
 20
543.7364886089
 30
0.0
 11
656.108297026
 21
543.7364886089
 31
0.0
  0
LINE
  5
E8
330
1F
100
AcDbEntity
  8
0
  6
SLD-Katı
 62
     7
370
    25
100
AcDbLine
 10
656.108297026
 20
531.489039589
 30
0.0
 11
344.7083007453
 21
531.489039589
 31
0.0
  0
LINE
  5
E9
330
1F
100
AcDbEntity
  8
0
  6
SLD-Katı
 62
     7
370
    25
100
AcDbLine
 10
656.108297026
 20
586.6618881042
 30
0.0
 11
344.7083007453
 21
586.6618881042
 31
0.0
  0
LINE
  5
EA
330
1F
100
AcDbEntity
  8
0
  6
SLD-Katı
 62
     7
370
    25
100
AcDbLine
 10
344.7083007453
 20
475.6127649958
 30
0.0
 11
656.108297026
 21
475.6127649958
 31
0.0
  0
LINE
  5
EB
330
1F
100
AcDbEntity
  8
0
  6
SLD-Katı
 62
     7
370
    25
100
AcDbLine
 10
656.108297026
 20
472.6127663667
 30
0.0
 11
344.7083007453
 21
472.6127663667
 31
0.0
  0
LINE
  5
EC
330
1F
100
AcDbEntity
  8
0
  6
SLD-Katı
 62
     8
370
    25
100
AcDbLine
 10
344.9013154863
 20
603.7524471099
 30
0.0
 11
344.9013154863
 21
603.6127636249
 31
0.0
  0
LINE
  5
ED
330
1F
100
AcDbEntity
  8
0
  6
SLD-Katı
 62
     8
370
    25
100
AcDbLine
 10
344.9219386933
 20
603.6127636249
 30
0.0
 11
344.9150394557
 21
603.7524471099
 31
0.0
  0
LINE
  5
EE
330
1F
100
AcDbEntity
  8
0
  6
SLD-Katı
 62
     8
370
    25
100
AcDbLine
 10
655.915282285
 20
603.6127636249
 30
0.0
 11
655.915282285
 21
603.7524471099
 31
0.0
  0
LINE
  5
EF
330
1F
100
AcDbEntity
  8
0
  6
SLD-Katı
 62
     8
370
    25
100
AcDbLine
 10
655.9015583156
 20
603.7524471099
 30
0.0
 11
655.8946590779
 21
603.6127636249
 31
0.0
  0
LINE
  5
F0
330
1F
100
AcDbEntity
  8
0
  6
SLD-Katı
 62
     7
370
    25
100
AcDbLine
 10
344.7083007453
 20
452.6587683656
 30
0.0
 11
345.0083058236
 21
452.6587683656
 31
0.0
  0
LINE
  5
F1
330
1F
100
AcDbEntity
  8
0
  6
SLD-Katı
 62
     7
370
    25
100
AcDbLine
 10
655.8082919477
 20
452.6587683656
 30
0.0
 11
656.108297026
 21
452.6587683656
 31
0.0
  0
LINE
  5
F2
330
1F
100
AcDbEntity
  8
0
  6
SLD-Katı
 62
     7
370
    25
100
AcDbLine
 10
656.108297026
 20
356.5701205232
 30
0.0
 11
655.8082919477
 21
356.5701205232
 31
0.0
  0
LINE
  5
F3
330
1F
100
AcDbEntity
  8
0
  6
SLD-Katı
 62
     7
370
    25
100
AcDbLine
 10
345.0083058236
 20
356.5701205232
 30
0.0
 11
344.7083007453
 21
356.5701205232
 31
0.0
  0
LINE
  5
F4
330
1F
100
AcDbEntity
  8
0
  6
SLD-Katı
 62
     7
370
    25
100
AcDbLine
 10
660.1083051322
 20
456.3519131341
 30
0.0
 11
660.1083051322
 21
451.376974205
 31
0.0
  0
LINE
  5
F5
330
1F
100
AcDbEntity
  8
0
  6
SLD-Katı
 62
     7
370
    25
100
AcDbLine
 10
660.1083051322
 20
357.8519146838
 30
0.0
 11
660.1083051322
 21
352.8769757548
 31
0.0
  0
LINE
  5
F6
330
1F
100
AcDbEntity
  8
0
  6
SLD-Katı
 62
     7
370
    25
100
AcDbLine
 10
340.7082926391
 20
451.376974205
 30
0.0
 11
340.7082926391
 21
456.3519131341
 31
0.0
  0
LINE
  5
F7
330
1F
100
AcDbEntity
  8
0
  6
SLD-Katı
 62
     7
370
    25
100
AcDbLine
 10
340.7082926391
 20
352.8769757548
 30
0.0
 11
340.7082926391
 21
357.8519146838
 31
0.0
  0
LINE
  5
F8
330
1F
100
AcDbEntity
  8
0
  6
SLD-Katı
 62
     7
370
    25
100
AcDbLine
 10
343.7507968305
 20
457.4015472033
 30
0.0
 11
344.7083007453
 21
457.4289578893
 31
0.0
  0
LINE
  5
F9
330
1F
100
AcDbEntity
  8
0
  6
SLD-Katı
 62
     7
370
    25
100
AcDbLine
 10
344.7083007453
 20
449.8075839081
 30
0.0
 11
344.7083007453
 21
457.4289578893
 31
0.0
  0
LINE
  5
FA
330
1F
100
AcDbEntity
  8
0
  6
SLD-Katı
 62
     7
370
    25
100
AcDbLine
 10
344.7083007453
 20
449.8075839081
 30
0.0
 11
344.7083007453
 21
448.4213065305
 31
0.0
  0
LINE
  5
FB
330
1F
100
AcDbEntity
  8
0
  6
SLD-Katı
 62
     7
370
    25
100
AcDbLine
 10
344.7083007453
 20
438.6075805822
 30
0.0
 11
344.7083007453
 21
448.4213065305
 31
0.0
  0
LINE
  5
FC
330
1F
100
AcDbEntity
  8
0
  6
SLD-Katı
 62
     7
370
    25
100
AcDbLine
 10
344.7083007453
 20
438.6075805822
 30
0.0
 11
344.7083007453
 21
437.2213069299
 31
0.0
  0
LINE
  5
FD
330
1F
100
AcDbEntity
  8
0
  6
SLD-Katı
 62
     7
370
    25
100
AcDbLine
 10
344.7083007453
 20
427.5075826743
 30
0.0
 11
344.7083007453
 21
437.2213069299
 31
0.0
  0
LINE
  5
FE
330
1F
100
AcDbEntity
  8
0
  6
SLD-Katı
 62
     7
370
    25
100
AcDbLine
 10
344.7083007453
 20
427.5075826743
 30
0.0
 11
344.7083007453
 21
426.1213071593
 31
0.0
  0
LINE
  5
FF
330
1F
100
AcDbEntity
  8
0
  6
SLD-Katı
 62
     7
370
    25
100
AcDbLine
 10
344.7083007453
 20
416.4075819724
 30
0.0
 11
344.7083007453
 21
426.1213071593
 31
0.0
  0
LINE
  5
100
330
1F
100
AcDbEntity
  8
0
  6
SLD-Katı
 62
     7
370
    25
100
AcDbLine
 10
344.7083007453
 20
416.4075819724
 30
0.0
 11
344.7083007453
 21
415.0213064575
 31
0.0
  0
LINE
  5
101
330
1F
100
AcDbEntity
  8
0
  6
SLD-Katı
 62
     7
370
    25
100
AcDbLine
 10
344.7083007453
 20
405.3075822019
 30
0.0
 11
344.7083007453
 21
415.0213064575
 31
0.0
  0
LINE
  5
102
330
1F
100
AcDbEntity
  8
0
  6
SLD-Katı
 62
     7
370
    25
100
AcDbLine
 10
344.7083007453
 20
405.3075822019
 30
0.0
 11
344.7083007453
 21
403.921306687
 31
0.0
  0
LINE
  5
103
330
1F
100
AcDbEntity
  8
0
  6
SLD-Katı
 62
     7
370
    25
100
AcDbLine
 10
344.7083007453
 20
394.2075824314
 30
0.0
 11
344.7083007453
 21
403.921306687
 31
0.0
  0
LINE
  5
104
330
1F
100
AcDbEntity
  8
0
  6
SLD-Katı
 62
     7
370
    25
100
AcDbLine
 10
344.7083007453
 20
394.2075824314
 30
0.0
 11
344.7083007453
 21
392.8213069164
 31
0.0
  0
LINE
  5
105
330
1F
100
AcDbEntity
  8
0
  6
SLD-Katı
 62
     7
370
    25
100
AcDbLine
 10
344.7083007453
 20
383.1075817296
 30
0.0
 11
344.7083007453
 21
392.8213069164
 31
0.0
  0
LINE
  5
106
330
1F
100
AcDbEntity
  8
0
  6
SLD-Katı
 62
     7
370
    25
100
AcDbLine
 10
344.7083007453
 20
383.1075817296
 30
0.0
 11
344.7083007453
 21
381.7213062146
 31
0.0
  0
LINE
  5
107
330
1F
100
AcDbEntity
  8
0
  6
SLD-Katı
 62
     7
370
    25
100
AcDbLine
 10
344.7083007453
 20
372.007581959
 30
0.0
 11
344.7083007453
 21
381.7213062146
 31
0.0
  0
LINE
  5
108
330
1F
100
AcDbEntity
  8
0
  6
SLD-Katı
 62
     7
370
    25
100
AcDbLine
 10
344.7083007453
 20
372.007581959
 30
0.0
 11
344.7083007453
 21
370.6213083067
 31
0.0
  0
LINE
  5
109
330
1F
100
AcDbEntity
  8
0
  6
SLD-Katı
 62
     7
370
    25
100
AcDbLine
 10
344.7083007453
 20
360.8075823584
 30
0.0
 11
344.7083007453
 21
370.6213083067
 31
0.0
  0
LINE
  5
10A
330
1F
100
AcDbEntity
  8
0
  6
SLD-Katı
 62
     7
370
    25
100
AcDbLine
 10
344.7083007453
 20
360.8075823584
 30
0.0
 11
344.7083007453
 21
359.4213049808
 31
0.0
  0
LINE
  5
10B
330
1F
100
AcDbEntity
  8
0
  6
SLD-Katı
 62
     7
370
    25
100
AcDbLine
 10
344.7083007453
 20
351.7999309995
 30
0.0
 11
344.7083007453
 21
359.4213049808
 31
0.0
  0
LINE
  5
10C
330
1F
100
AcDbEntity
  8
0
  6
SLD-Katı
 62
     7
370
    25
100
AcDbLine
 10
343.7507968305
 20
351.8273416856
 30
0.0
 11
344.7083007453
 21
351.7999309995
 31
0.0
  0
LINE
  5
10D
330
1F
100
AcDbEntity
  8
0
  6
SLD-Katı
 62
     7
370
    25
100
AcDbLine
 10
343.7507968305
 20
351.8273416856
 30
0.0
 11
343.7507968305
 21
457.4015472033
 31
0.0
  0
LINE
  5
10E
330
1F
100
AcDbEntity
  8
0
  6
SLD-Katı
 62
     7
370
    25
100
AcDbLine
 10
343.7507968305
 20
457.4015472033
 30
0.0
 11
340.7082926391
 21
458.8144455054
 31
0.0
  0
LINE
  5
10F
330
1F
100
AcDbEntity
  8
0
  6
SLD-Katı
 62
     7
370
    25
100
AcDbLine
 10
340.7082926391
 20
458.8144455054
 30
0.0
 11
344.7083007453
 21
458.9541289904
 31
0.0
  0
LINE
  5
110
330
1F
100
AcDbEntity
  8
0
  6
SLD-Katı
 62
     7
370
    25
100
AcDbLine
 10
344.7083007453
 20
457.4289578893
 30
0.0
 11
344.7083007453
 21
458.9541289904
 31
0.0
  0
ARC
  5
111
330
1F
100
AcDbEntity
  8
0
  6
SLD-Katı
 62
     7
370
    25
100
AcDbCircle
 10
344.9082988856
 20
448.4213066895
 30
0.0
 40
0.2000000000000274
100
AcDbArc
 50
92.0
 51
180.0
  0
ARC
  5
112
330
1F
100
AcDbEntity
  8
0
  6
SLD-Katı
 62
     7
370
    25
100
AcDbCircle
 10
344.9082988856
 20
449.8075821994
 30
0.0
 40
0.1999999999999886
100
AcDbArc
 50
180.0
 51
268.0
  0
LINE
  5
113
330
1F
100
AcDbEntity
  8
0
  6
SLD-Katı
 62
     7
370
    25
100
AcDbLine
 10
344.9150394557
 20
449.60722662
 30
0.0
 11
344.9013154863
 21
449.6077034571
 31
0.0
  0
ELLIPSE
  5
114
330
1F
100
AcDbEntity
  8
0
  6
SLD-Katı
 62
     7
370
    25
100
AcDbEllipse
 10
344.9080547547
 20
449.4073469069
 30
0.0
 11
-0.2001224449699635
 21
0.006988429770956373
 31
0.0
210
0.0
220
0.0
230
1.0
 40
0.9987793495
 41
3.176456664428819
 42
4.712388980383856
  0
LINE
  5
115
330
1F
100
AcDbEntity
  8
0
  6
SLD-Katı
 62
     7
370
    25
100
AcDbLine
 10
345.1082926152
 20
449.4073312679
 30
0.0
 11
345.1082926152
 21
448.8215591707
 31
0.0
  0
ELLIPSE
  5
116
330
1F
100
AcDbEntity
  8
0
  6
SLD-Katı
 62
     7
370
    25
100
AcDbEllipse
 10
344.9080547547
 20
448.821541982
 30
0.0
 11
0.2001224449699066
 21
0.006988429770956373
 31
0.0
210
0.0
220
0.0
230
1.0
 40
0.9987793495
 41
4.712388980385541
 42
6.248321296340588
  0
LINE
  5
117
330
1F
100
AcDbEntity
  8
0
  6
SLD-Katı
 62
     7
370
    25
100
AcDbLine
 10
344.9150394557
 20
448.6216638186
 30
0.0
 11
344.9013154863
 21
448.6211832562
 31
0.0
  0
LINE
  5
118
330
1F
100
AcDbEntity
  8
0
  6
SLD-Katı
 62
     7
370
    25
100
AcDbLine
 10
344.9150394557
 20
449.60722662
 30
0.0
 11
345.0083058236
 21
449.603966991
 31
0.0
  0
LINE
  5
119
330
1F
100
AcDbEntity
  8
0
  6
SLD-Katı
 62
     7
370
    25
100
AcDbLine
 10
345.1082926152
 20
360.4073297181
 30
0.0
 11
345.1082926152
 21
359.821557621
 31
0.0
  0
LINE
  5
11A
330
1F
100
AcDbEntity
  8
0
  6
SLD-Katı
 62
     7
370
    25
100
AcDbLine
 10
345.1082926152
 20
371.6073293188
 30
0.0
 11
345.1082926152
 21
371.0215572217
 31
0.0
  0
LINE
  5
11B
330
1F
100
AcDbEntity
  8
0
  6
SLD-Katı
 62
     7
370
    25
100
AcDbLine
 10
345.1082926152
 20
382.7073290893
 30
0.0
 11
345.1082926152
 21
382.1215588548
 31
0.0
  0
LINE
  5
11C
330
1F
100
AcDbEntity
  8
0
  6
SLD-Katı
 62
     7
370
    25
100
AcDbLine
 10
345.1082926152
 20
393.8073297912
 30
0.0
 11
345.1082926152
 21
393.2215586254
 31
0.0
  0
LINE
  5
11D
330
1F
100
AcDbEntity
  8
0
  6
SLD-Katı
 62
     7
370
    25
100
AcDbLine
 10
345.1082926152
 20
404.9073298527
 30
0.0
 11
345.1082926152
 21
404.3215590362
 31
0.0
  0
LINE
  5
11E
330
1F
100
AcDbEntity
  8
0
  6
SLD-Katı
 62
     7
370
    25
100
AcDbLine
 10
345.1082926152
 20
416.0073302635
 30
0.0
 11
345.1082926152
 21
415.4215590977
 31
0.0
  0
LINE
  5
11F
330
1F
100
AcDbEntity
  8
0
  6
SLD-Katı
 62
     7
370
    25
100
AcDbLine
 10
345.1082926152
 20
427.107330034
 30
0.0
 11
345.1082926152
 21
426.5215597996
 31
0.0
  0
LINE
  5
120
330
1F
100
AcDbEntity
  8
0
  6
SLD-Katı
 62
     7
370
    25
100
AcDbLine
 10
345.1082926152
 20
437.6215595701
 30
0.0
 11
345.1082926152
 21
438.2073316672
 31
0.0
  0
LINE
  5
121
330
1F
100
AcDbEntity
  8
0
  6
SLD-Katı
 62
     7
370
    25
100
AcDbLine
 10
345.0083058236
 20
448.6249197223
 30
0.0
 11
344.9150394557
 21
448.6216638186
 31
0.0
  0
LINE
  5
122
330
1F
100
AcDbEntity
  8
0
  6
SLD-Katı
 62
     7
370
    25
100
AcDbLine
 10
344.9150394557
 20
438.407223294
 30
0.0
 11
345.0083058236
 21
438.4039673903
 31
0.0
  0
ELLIPSE
  5
123
330
1F
100
AcDbEntity
  8
0
  6
SLD-Katı
 62
     7
370
    25
100
AcDbEllipse
 10
344.9080547547
 20
438.2073469069
 30
0.0
 11
-0.2001224449699635
 21
0.006988429770956373
 31
0.0
210
0.0
220
0.0
230
1.0
 40
0.9987793495
 41
3.176456664428819
 42
4.712388980384991
  0
ARC
  5
124
330
1F
100
AcDbEntity
  8
0
  6
SLD-Katı
 62
     7
370
    25
100
AcDbCircle
 10
344.9082988856
 20
437.2213066895
 30
0.0
 40
0.1999999999999886
100
AcDbArc
 50
92.0
 51
180.0
  0
ARC
  5
125
330
1F
100
AcDbEntity
  8
0
  6
SLD-Katı
 62
     7
370
    25
100
AcDbCircle
 10
344.9082988856
 20
438.6075821994
 30
0.0
 40
0.1999999999999886
100
AcDbArc
 50
180.0
 51
268.0
  0
LINE
  5
126
330
1F
100
AcDbEntity
  8
0
  6
SLD-Katı
 62
     7
370
    25
100
AcDbLine
 10
344.9150394557
 20
438.407223294
 30
0.0
 11
344.9013154863
 21
438.4077038565
 31
0.0
  0
ELLIPSE
  5
127
330
1F
100
AcDbEntity
  8
0
  6
SLD-Katı
 62
     7
370
    25
100
AcDbEllipse
 10
344.9080547547
 20
437.621541982
 30
0.0
 11
0.2001224449699066
 21
0.006988429770899528
 31
0.0
210
0.0
220
0.0
230
1.0
 40
0.9987793495
 41
4.712388980385825
 42
6.248321296340873
  0
LINE
  5
128
330
1F
100
AcDbEntity
  8
0
  6
SLD-Katı
 62
     7
370
    25
100
AcDbLine
 10
344.9150394557
 20
437.421664218
 30
0.0
 11
344.9013154863
 21
437.4211836555
 31
0.0
  0
LINE
  5
129
330
1F
100
AcDbEntity
  8
0
  6
SLD-Katı
 62
     7
370
    25
100
AcDbLine
 10
345.0083058236
 20
437.4249201217
 30
0.0
 11
344.9150394557
 21
437.421664218
 31
0.0
  0
ARC
  5
12A
330
1F
100
AcDbEntity
  8
0
  6
SLD-Katı
 62
     7
370
    25
100
AcDbCircle
 10
344.9082988856
 20
426.1213066895
 30
0.0
 40
0.1999999999999886
100
AcDbArc
 50
92.0
 51
180.0
  0
LINE
  5
12B
330
1F
100
AcDbEntity
  8
0
  6
SLD-Katı
 62
     7
370
    25
100
AcDbLine
 10
344.9150394557
 20
427.3072253862
 30
0.0
 11
344.9013154863
 21
427.307704086
 31
0.0
  0
ELLIPSE
  5
12C
330
1F
100
AcDbEntity
  8
0
  6
SLD-Katı
 62
     7
370
    25
100
AcDbEllipse
 10
344.9080547547
 20
427.1073469069
 30
0.0
 11
-0.2001224449699635
 21
0.006988429770899531
 31
0.0
210
0.0
220
0.0
230
1.0
 40
0.9987793495
 41
3.176456664428535
 42
4.712388980384698
  0
ELLIPSE
  5
12D
330
1F
100
AcDbEntity
  8
0
  6
SLD-Katı
 62
     7
370
    25
100
AcDbEllipse
 10
344.9080547547
 20
426.521541982
 30
0.0
 11
0.2001224449699066
 21
0.006988429770956373
 31
0.0
210
0.0
220
0.0
230
1.0
 40
0.9987793495
 41
4.712388980385551
 42
6.248321296340881
  0
LINE
  5
12E
330
1F
100
AcDbEntity
  8
0
  6
SLD-Katı
 62
     7
370
    25
100
AcDbLine
 10
344.9150394557
 20
426.3216644475
 30
0.0
 11
344.9013154863
 21
426.3211857476
 31
0.0
  0
ARC
  5
12F
330
1F
100
AcDbEntity
  8
0
  6
SLD-Katı
 62
     7
370
    25
100
AcDbCircle
 10
344.9082988856
 20
427.5075821994
 30
0.0
 40
0.1999999999999886
100
AcDbArc
 50
180.0
 51
268.0
  0
LINE
  5
130
330
1F
100
AcDbEntity
  8
0
  6
SLD-Katı
 62
     7
370
    25
100
AcDbLine
 10
344.9150394557
 20
427.3072253862
 30
0.0
 11
345.0083058236
 21
427.3039676198
 31
0.0
  0
LINE
  5
131
330
1F
100
AcDbEntity
  8
0
  6
SLD-Katı
 62
     7
370
    25
100
AcDbLine
 10
345.0083058236
 20
426.3249203512
 30
0.0
 11
344.9150394557
 21
426.3216644475
 31
0.0
  0
ARC
  5
132
330
1F
100
AcDbEntity
  8
0
  6
SLD-Katı
 62
     7
370
    25
100
AcDbCircle
 10
344.9082988856
 20
415.0213066895
 30
0.0
 40
0.1999999999999886
100
AcDbArc
 50
92.0
 51
180.0
  0
ARC
  5
133
330
1F
100
AcDbEntity
  8
0
  6
SLD-Katı
 62
     7
370
    25
100
AcDbCircle
 10
344.9082988856
 20
416.4075821994
 30
0.0
 40
0.1999999999999886
100
AcDbArc
 50
180.0
 51
268.0
  0
LINE
  5
134
330
1F
100
AcDbEntity
  8
0
  6
SLD-Katı
 62
     7
370
    25
100
AcDbLine
 10
344.9150394557
 20
416.2072246843
 30
0.0
 11
344.9013154863
 21
416.2077043154
 31
0.0
  0
ELLIPSE
  5
135
330
1F
100
AcDbEntity
  8
0
  6
SLD-Katı
 62
     7
370
    25
100
AcDbEllipse
 10
344.9080547547
 20
416.0073469069
 30
0.0
 11
-0.2001224449699635
 21
0.006988429770899531
 31
0.0
210
0.0
220
0.0
230
1.0
 40
0.9987793495
 41
3.176456664428535
 42
4.712388980384707
  0
ELLIPSE
  5
136
330
1F
100
AcDbEntity
  8
0
  6
SLD-Katı
 62
     7
370
    25
100
AcDbEllipse
 10
344.9080547547
 20
415.421541982
 30
0.0
 11
0.2001224449699066
 21
0.006988429770899528
 31
0.0
210
0.0
220
0.0
230
1.0
 40
0.9987793495
 41
4.712388980385835
 42
6.248321296341167
  0
LINE
  5
137
330
1F
100
AcDbEntity
  8
0
  6
SLD-Katı
 62
     7
370
    25
100
AcDbLine
 10
344.9150394557
 20
415.2216637456
 30
0.0
 11
344.9013154863
 21
415.2211850458
 31
0.0
  0
LINE
  5
138
330
1F
100
AcDbEntity
  8
0
  6
SLD-Katı
 62
     7
370
    25
100
AcDbLine
 10
344.9150394557
 20
416.2072246843
 30
0.0
 11
345.0083058236
 21
416.2039678493
 31
0.0
  0
LINE
  5
139
330
1F
100
AcDbEntity
  8
0
  6
SLD-Katı
 62
     7
370
    25
100
AcDbLine
 10
345.0083058236
 20
415.2249205807
 30
0.0
 11
344.9150394557
 21
415.2216637456
 31
0.0
  0
LINE
  5
13A
330
1F
100
AcDbEntity
  8
0
  6
SLD-Katı
 62
     7
370
    25
100
AcDbLine
 10
344.9150394557
 20
405.1072250884
 30
0.0
 11
345.0083058236
 21
405.1039681952
 31
0.0
  0
ELLIPSE
  5
13B
330
1F
100
AcDbEntity
  8
0
  6
SLD-Katı
 62
     7
370
    25
100
AcDbEllipse
 10
344.9080547547
 20
404.9073469069
 30
0.0
 11
-0.2001224449699635
 21
0.006988429770956373
 31
0.0
210
0.0
220
0.0
230
1.0
 40
0.9987793495
 41
3.176456664428809
 42
4.71238898038498
  0
LINE
  5
13C
330
1F
100
AcDbEntity
  8
0
  6
SLD-Katı
 62
     7
370
    25
100
AcDbLine
 10
345.0083058236
 20
404.1249206937
 30
0.0
 11
344.9150394557
 21
404.1216638005
 31
0.0
  0
ELLIPSE
  5
13D
330
1F
100
AcDbEntity
  8
0
  6
SLD-Katı
 62
     7
370
    25
100
AcDbEllipse
 10
344.9080547547
 20
404.321541982
 30
0.0
 11
0.2001224449699066
 21
0.006988429770956373
 31
0.0
210
0.0
220
0.0
230
1.0
 40
0.9987793495
 41
4.712388980385551
 42
6.248321296340881
  0
ARC
  5
13E
330
1F
100
AcDbEntity
  8
0
  6
SLD-Katı
 62
     7
370
    25
100
AcDbCircle
 10
344.9082988856
 20
403.9213066895
 30
0.0
 40
0.1999999999999886
100
AcDbArc
 50
92.0
 51
180.0
  0
LINE
  5
13F
330
1F
100
AcDbEntity
  8
0
  6
SLD-Katı
 62
     7
370
    25
100
AcDbLine
 10
344.9150394557
 20
404.1216638005
 30
0.0
 11
344.9013154863
 21
404.1211848678
 31
0.0
  0
LINE
  5
140
330
1F
100
AcDbEntity
  8
0
  6
SLD-Katı
 62
     7
370
    25
100
AcDbLine
 10
344.9150394557
 20
405.1072250884
 30
0.0
 11
344.9013154863
 21
405.1077040211
 31
0.0
  0
ARC
  5
141
330
1F
100
AcDbEntity
  8
0
  6
SLD-Katı
 62
     7
370
    25
100
AcDbCircle
 10
344.9082988856
 20
405.3075821994
 30
0.0
 40
0.2000000000000274
100
AcDbArc
 50
180.0
 51
268.0
  0
ELLIPSE
  5
142
330
1F
100
AcDbEntity
  8
0
  6
SLD-Katı
 62
     7
370
    25
100
AcDbEllipse
 10
344.9080547547
 20
393.8073469069
 30
0.0
 11
-0.2001224449699635
 21
0.006988429770899531
 31
0.0
210
0.0
220
0.0
230
1.0
 40
0.9987793495
 41
3.176456664428241
 42
4.712388980384698
  0
LINE
  5
143
330
1F
100
AcDbEntity
  8
0
  6
SLD-Katı
 62
     7
370
    25
100
AcDbLine
 10
344.9150394557
 20
394.0072251433
 30
0.0
 11
345.0083058236
 21
394.0039683082
 31
0.0
  0
ARC
  5
144
330
1F
100
AcDbEntity
  8
0
  6
SLD-Katı
 62
     7
370
    25
100
AcDbCircle
 10
344.9082988856
 20
392.8213066895
 30
0.0
 40
0.2000000000000274
100
AcDbArc
 50
92.0
 51
180.0
  0
ELLIPSE
  5
145
330
1F
100
AcDbEntity
  8
0
  6
SLD-Katı
 62
     7
370
    25
100
AcDbEllipse
 10
344.9080547547
 20
393.221541982
 30
0.0
 11
0.2001224449699066
 21
0.006988429770899528
 31
0.0
210
0.0
220
0.0
230
1.0
 40
0.9987793495
 41
4.712388980385835
 42
6.248321296341167
  0
LINE
  5
146
330
1F
100
AcDbEntity
  8
0
  6
SLD-Katı
 62
     7
370
    25
100
AcDbLine
 10
344.9150394557
 20
393.0216642046
 30
0.0
 11
344.9013154863
 21
393.0211845734
 31
0.0
  0
ARC
  5
147
330
1F
100
AcDbEntity
  8
0
  6
SLD-Katı
 62
     7
370
    25
100
AcDbCircle
 10
344.9082988856
 20
394.2075821994
 30
0.0
 40
0.2000000000000274
100
AcDbArc
 50
180.0
 51
268.0
  0
LINE
  5
148
330
1F
100
AcDbEntity
  8
0
  6
SLD-Katı
 62
     7
370
    25
100
AcDbLine
 10
344.9150394557
 20
394.0072251433
 30
0.0
 11
344.9013154863
 21
394.0077038431
 31
0.0
  0
LINE
  5
149
330
1F
100
AcDbEntity
  8
0
  6
SLD-Katı
 62
     7
370
    25
100
AcDbLine
 10
345.0083058236
 20
393.0249210396
 30
0.0
 11
344.9150394557
 21
393.0216642046
 31
0.0
  0
LINE
  5
14A
330
1F
100
AcDbEntity
  8
0
  6
SLD-Katı
 62
     7
370
    25
100
AcDbLine
 10
345.0083058236
 20
381.9249212691
 30
0.0
 11
344.9150394557
 21
381.9216635027
 31
0.0
  0
ELLIPSE
  5
14B
330
1F
100
AcDbEntity
  8
0
  6
SLD-Katı
 62
     7
370
    25
100
AcDbEllipse
 10
344.9080547547
 20
382.121541982
 30
0.0
 11
0.2001224449699066
 21
0.006988429770956373
 31
0.0
210
0.0
220
0.0
230
1.0
 40
0.9987793495
 41
4.712388980385551
 42
6.248321296340881
  0
LINE
  5
14C
330
1F
100
AcDbEntity
  8
0
  6
SLD-Katı
 62
     7
370
    25
100
AcDbLine
 10
344.9150394557
 20
382.9072244414
 30
0.0
 11
345.0083058236
 21
382.9039685377
 31
0.0
  0
ELLIPSE
  5
14D
330
1F
100
AcDbEntity
  8
0
  6
SLD-Katı
 62
     7
370
    25
100
AcDbEllipse
 10
344.9080547547
 20
382.7073469069
 30
0.0
 11
-0.2001224449699635
 21
0.006988429770956373
 31
0.0
210
0.0
220
0.0
230
1.0
 40
0.9987793495
 41
3.176456664428525
 42
4.71238898038498
  0
ARC
  5
14E
330
1F
100
AcDbEntity
  8
0
  6
SLD-Katı
 62
     7
370
    25
100
AcDbCircle
 10
344.9082988856
 20
381.7213066895
 30
0.0
 40
0.2000000000000274
100
AcDbArc
 50
92.0
 51
180.0
  0
ARC
  5
14F
330
1F
100
AcDbEntity
  8
0
  6
SLD-Katı
 62
     7
370
    25
100
AcDbCircle
 10
344.9082988856
 20
383.1075821994
 30
0.0
 40
0.2000000000000274
100
AcDbArc
 50
180.0
 51
268.0
  0
LINE
  5
150
330
1F
100
AcDbEntity
  8
0
  6
SLD-Katı
 62
     7
370
    25
100
AcDbLine
 10
344.9150394557
 20
382.9072244414
 30
0.0
 11
344.9013154863
 21
382.9077031412
 31
0.0
  0
LINE
  5
151
330
1F
100
AcDbEntity
  8
0
  6
SLD-Katı
 62
     7
370
    25
100
AcDbLine
 10
344.9150394557
 20
381.9216635027
 30
0.0
 11
344.9013154863
 21
381.9211848029
 31
0.0
  0
ARC
  5
152
330
1F
100
AcDbEntity
  8
0
  6
SLD-Katı
 62
     7
370
    25
100
AcDbCircle
 10
344.9082988856
 20
370.6213066895
 30
0.0
 40
0.2000000000000274
100
AcDbArc
 50
92.0
 51
180.0
  0
ARC
  5
153
330
1F
100
AcDbEntity
  8
0
  6
SLD-Katı
 62
     7
370
    25
100
AcDbCircle
 10
344.9082988856
 20
372.0075821994
 30
0.0
 40
0.1999999999999886
100
AcDbArc
 50
180.0
 51
268.0
  0
LINE
  5
154
330
1F
100
AcDbEntity
  8
0
  6
SLD-Katı
 62
     7
370
    25
100
AcDbLine
 10
344.9150394557
 20
371.8072246709
 30
0.0
 11
344.9013154863
 21
371.8077052334
 31
0.0
  0
ELLIPSE
  5
155
330
1F
100
AcDbEntity
  8
0
  6
SLD-Katı
 62
     7
370
    25
100
AcDbEllipse
 10
344.9080547547
 20
371.6073469069
 30
0.0
 11
-0.2001224449699635
 21
0.006988429770899531
 31
0.0
210
0.0
220
0.0
230
1.0
 40
0.9987793495
 41
3.176456664428241
 42
4.712388980384698
  0
ELLIPSE
  5
156
330
1F
100
AcDbEntity
  8
0
  6
SLD-Katı
 62
     7
370
    25
100
AcDbEllipse
 10
344.9080547547
 20
371.021541982
 30
0.0
 11
0.2001224449699066
 21
0.006988429770899528
 31
0.0
210
0.0
220
0.0
230
1.0
 40
0.9987793495
 41
4.712388980385835
 42
6.248321296341167
  0
LINE
  5
157
330
1F
100
AcDbEntity
  8
0
  6
SLD-Katı
 62
     7
370
    25
100
AcDbLine
 10
344.9150394557
 20
370.8216655948
 30
0.0
 11
344.9013154863
 21
370.8211850324
 31
0.0
  0
LINE
  5
158
330
1F
100
AcDbEntity
  8
0
  6
SLD-Katı
 62
     7
370
    25
100
AcDbLine
 10
344.9150394557
 20
371.8072246709
 30
0.0
 11
345.0083058236
 21
371.8039687672
 31
0.0
  0
LINE
  5
159
330
1F
100
AcDbEntity
  8
0
  6
SLD-Katı
 62
     7
370
    25
100
AcDbLine
 10
345.0083058236
 20
370.8249214986
 30
0.0
 11
344.9150394557
 21
370.8216655948
 31
0.0
  0
LINE
  5
15A
330
1F
100
AcDbEntity
  8
0
  6
SLD-Katı
 62
     7
370
    25
100
AcDbLine
 10
344.9150394557
 20
360.6072250703
 30
0.0
 11
345.0083058236
 21
360.6039691665
 31
0.0
  0
ELLIPSE
  5
15B
330
1F
100
AcDbEntity
  8
0
  6
SLD-Katı
 62
     7
370
    25
100
AcDbEllipse
 10
344.9080547547
 20
360.4073469069
 30
0.0
 11
-0.2001224449699635
 21
0.006988429770899531
 31
0.0
210
0.0
220
0.0
230
1.0
 40
0.9987793495
 41
3.176456664428535
 42
4.712388980384707
  0
ELLIPSE
  5
15C
330
1F
100
AcDbEntity
  8
0
  6
SLD-Katı
 62
     7
370
    25
100
AcDbEllipse
 10
344.9080547547
 20
359.821541982
 30
0.0
 11
0.2001224449699066
 21
0.006988429770899528
 31
0.0
210
0.0
220
0.0
230
1.0
 40
0.9987793495
 41
4.712388980385825
 42
6.248321296340873
  0
LINE
  5
15D
330
1F
100
AcDbEntity
  8
0
  6
SLD-Katı
 62
     7
370
    25
100
AcDbLine
 10
344.9150394557
 20
359.6216622689
 30
0.0
 11
344.9013154863
 21
359.6211854317
 31
0.0
  0
ARC
  5
15E
330
1F
100
AcDbEntity
  8
0
  6
SLD-Katı
 62
     7
370
    25
100
AcDbCircle
 10
344.9082988856
 20
359.4213066895
 30
0.0
 40
0.1999999999999886
100
AcDbArc
 50
92.0
 51
180.0
  0
LINE
  5
15F
330
1F
100
AcDbEntity
  8
0
  6
SLD-Katı
 62
     7
370
    25
100
AcDbLine
 10
344.9150394557
 20
360.6072250703
 30
0.0
 11
344.9013154863
 21
360.6077056327
 31
0.0
  0
ARC
  5
160
330
1F
100
AcDbEntity
  8
0
  6
SLD-Katı
 62
     7
370
    25
100
AcDbCircle
 10
344.9082988856
 20
360.8075821994
 30
0.0
 40
0.2000000000000274
100
AcDbArc
 50
180.0
 51
268.0
  0
LINE
  5
161
330
1F
100
AcDbEntity
  8
0
  6
SLD-Katı
 62
     7
370
    25
100
AcDbLine
 10
345.0083058236
 20
359.6249218979
 30
0.0
 11
344.9150394557
 21
359.6216622689
 31
0.0
  0
LINE
  5
162
330
1F
100
AcDbEntity
  8
0
  6
SLD-Katı
 62
     7
370
    25
100
AcDbLine
 10
340.7082926391
 20
350.4144433835
 30
0.0
 11
343.7507968305
 21
351.8273416856
 31
0.0
  0
LINE
  5
163
330
1F
100
AcDbEntity
  8
0
  6
SLD-Katı
 62
     7
370
    25
100
AcDbLine
 10
340.7082926391
 20
350.4144433835
 30
0.0
 11
344.7083007453
 21
350.2747598984
 31
0.0
  0
LINE
  5
164
330
1F
100
AcDbEntity
  8
0
  6
SLD-Katı
 62
     7
370
    25
100
AcDbLine
 10
344.7083007453
 20
350.2747598984
 30
0.0
 11
344.7083007453
 21
351.7999309995
 31
0.0
  0
ELLIPSE
  5
165
330
1F
100
AcDbEntity
  8
0
  6
SLD-Katı
 62
     7
370
    25
100
AcDbEllipse
 10
338.0654417428
 20
355.3644444444
 30
0.0
 11
0.0
 21
6.546536707079952
 31
0.0
210
0.0
220
0.0
230
1.0
 40
0.4364357805
 41
4.32262824758725
 42
5.102149713182141
  0
LINE
  5
166
330
1F
100
AcDbEntity
  8
0
  6
SLD-Katı
 62
     7
370
    25
100
AcDbLine
 10
340.7082926391
 20
357.8519146838
 30
0.0
 11
340.7082926391
 21
451.376974205
 31
0.0
  0
ELLIPSE
  5
167
330
1F
100
AcDbEntity
  8
0
  6
SLD-Katı
 62
     7
370
    25
100
AcDbEllipse
 10
338.0654417428
 20
453.8644444444
 30
0.0
 11
0.0
 21
6.546536707079952
 31
0.0
210
0.0
220
0.0
230
1.0
 40
0.4364357805
 41
4.322628247587273
 42
5.102149713182158
  0
LINE
  5
168
330
1F
100
AcDbEntity
  8
0
  6
SLD-Katı
 62
     7
370
    25
100
AcDbLine
 10
340.7082926391
 20
456.3519131341
 30
0.0
 11
340.7082926391
 21
458.8144455054
 31
0.0
  0
LINE
  5
169
330
1F
100
AcDbEntity
  8
0
  6
SLD-Katı
 62
     7
370
    25
100
AcDbLine
 10
340.7082926391
 20
350.4144433835
 30
0.0
 11
340.7082926391
 21
352.8769757548
 31
0.0
  0
ARC
  5
16A
330
1F
100
AcDbEntity
  8
0
  6
SLD-Katı
 62
     7
370
    25
100
AcDbCircle
 10
346.3387077449
 20
448.5212448933
 30
0.0
 40
1.440862304833972
100
AcDbArc
 50
176.0227653136
 51
183.9772346864
  0
LINE
  5
16B
330
1F
100
AcDbEntity
  8
0
  6
SLD-Katı
 62
     7
370
    25
100
AcDbLine
 10
344.9013154863
 20
448.4213065305
 30
0.0
 11
344.9013154863
 21
438.6075805822
 31
0.0
  0
LINE
  5
16C
330
1F
100
AcDbEntity
  8
0
  6
SLD-Katı
 62
     7
370
    25
100
AcDbLine
 10
344.9013154863
 20
438.6075805822
 30
0.0
 11
344.7083007453
 21
438.6075805822
 31
0.0
  0
LINE
  5
16D
330
1F
100
AcDbEntity
  8
0
  6
SLD-Katı
 62
     7
370
    25
100
AcDbLine
 10
344.7083007453
 20
448.4213065305
 30
0.0
 11
344.9013154863
 21
448.4213065305
 31
0.0
  0
ARC
  5
16E
330
1F
100
AcDbEntity
  8
0
  6
SLD-Katı
 62
     7
370
    25
100
AcDbCircle
 10
346.3387077449
 20
437.3212452927
 30
0.0
 40
1.440862304833972
100
AcDbArc
 50
176.0227653136
 51
183.9772346864
  0
LINE
  5
16F
330
1F
100
AcDbEntity
  8
0
  6
SLD-Katı
 62
     7
370
    25
100
AcDbLine
 10
344.7083007453
 20
437.2213069299
 30
0.0
 11
344.9013154863
 21
437.2213069299
 31
0.0
  0
ARC
  5
170
330
1F
100
AcDbEntity
  8
0
  6
SLD-Katı
 62
     7
370
    25
100
AcDbCircle
 10
346.3386940475
 20
438.5076422193
 30
0.0
 40
1.440848640433192
100
AcDbArc
 50
176.0227275345
 51
183.9772724655
  0
LINE
  5
171
330
1F
100
AcDbEntity
  8
0
  6
SLD-Katı
 62
     7
370
    25
100
AcDbLine
 10
344.9013154863
 20
437.2213069299
 30
0.0
 11
344.9013154863
 21
427.5075826743
 31
0.0
  0
LINE
  5
172
330
1F
100
AcDbEntity
  8
0
  6
SLD-Katı
 62
     7
370
    25
100
AcDbLine
 10
344.9013154863
 20
427.5075826743
 30
0.0
 11
344.7083007453
 21
427.5075826743
 31
0.0
  0
LINE
  5
173
330
1F
100
AcDbEntity
  8
0
  6
SLD-Katı
 62
     7
370
    25
100
AcDbLine
 10
344.9013154863
 20
426.1213071593
 30
0.0
 11
344.7083007453
 21
426.1213071593
 31
0.0
  0
ARC
  5
174
330
1F
100
AcDbEntity
  8
0
  6
SLD-Katı
 62
     7
370
    25
100
AcDbCircle
 10
346.3387295057
 20
426.2212464535
 30
0.0
 40
1.440884077843822
100
AcDbArc
 50
176.022788387
 51
183.977211613
  0
ARC
  5
175
330
1F
100
AcDbEntity
  8
0
  6
SLD-Katı
 62
     7
370
    25
100
AcDbCircle
 10
346.3387205873
 20
427.4076433801
 30
0.0
 40
1.440875180983184
100
AcDbArc
 50
176.0227637897
 51
183.9772362103
  0
LINE
  5
176
330
1F
100
AcDbEntity
  8
0
  6
SLD-Katı
 62
     7
370
    25
100
AcDbLine
 10
344.9013154863
 20
426.1213071593
 30
0.0
 11
344.9013154863
 21
416.4075819724
 31
0.0
  0
LINE
  5
177
330
1F
100
AcDbEntity
  8
0
  6
SLD-Katı
 62
     7
370
    25
100
AcDbLine
 10
344.9013154863
 20
416.4075819724
 30
0.0
 11
344.7083007453
 21
416.4075819724
 31
0.0
  0
LINE
  5
178
330
1F
100
AcDbEntity
  8
0
  6
SLD-Katı
 62
     7
370
    25
100
AcDbLine
 10
344.9013154863
 20
415.0213064575
 30
0.0
 11
344.7083007453
 21
415.0213064575
 31
0.0
  0
ARC
  5
179
330
1F
100
AcDbEntity
  8
0
  6
SLD-Katı
 62
     7
370
    25
100
AcDbCircle
 10
346.338728471
 20
415.1212457516
 30
0.0
 40
1.440883045631701
100
AcDbArc
 50
176.0227855332
 51
183.9772144668
  0
ARC
  5
17A
330
1F
100
AcDbEntity
  8
0
  6
SLD-Katı
 62
     7
370
    25
100
AcDbCircle
 10
346.3386984088
 20
416.3076431439
 30
0.0
 40
1.440853023541806
100
AcDbArc
 50
176.0227210911
 51
183.9772789089
  0
LINE
  5
17B
330
1F
100
AcDbEntity
  8
0
  6
SLD-Katı
 62
     7
370
    25
100
AcDbLine
 10
344.9013154863
 20
415.0213064575
 30
0.0
 11
344.9013154863
 21
405.3075822019
 31
0.0
  0
LINE
  5
17C
330
1F
100
AcDbEntity
  8
0
  6
SLD-Katı
 62
     7
370
    25
100
AcDbLine
 10
344.9013154863
 20
405.3075822019
 30
0.0
 11
344.7083007453
 21
405.3075822019
 31
0.0
  0
LINE
  5
17D
330
1F
100
AcDbEntity
  8
0
  6
SLD-Katı
 62
     7
370
    25
100
AcDbLine
 10
344.9013154863
 20
403.921306687
 30
0.0
 11
344.7083007453
 21
403.921306687
 31
0.0
  0
ARC
  5
17E
330
1F
100
AcDbEntity
  8
0
  6
SLD-Katı
 62
     7
370
    25
100
AcDbCircle
 10
346.338715725
 20
404.0212457774
 30
0.0
 40
1.440870316224522
100
AcDbArc
 50
176.0227584606
 51
183.9772415394
  0
LINE
  5
17F
330
1F
100
AcDbEntity
  8
0
  6
SLD-Katı
 62
     7
370
    25
100
AcDbLine
 10
344.9013154863
 20
403.921306687
 30
0.0
 11
344.9013154863
 21
394.2075824314
 31
0.0
  0
LINE
  5
180
330
1F
100
AcDbEntity
  8
0
  6
SLD-Katı
 62
     7
370
    25
100
AcDbLine
 10
344.9013154863
 20
394.2075824314
 30
0.0
 11
344.7083007453
 21
394.2075824314
 31
0.0
  0
ARC
  5
181
330
1F
100
AcDbEntity
  8
0
  6
SLD-Katı
 62
     7
370
    25
100
AcDbCircle
 10
346.338715725
 20
405.2076431115
 30
0.0
 40
1.440870316224522
100
AcDbArc
 50
176.0227584606
 51
183.9772415394
  0
ARC
  5
182
330
1F
100
AcDbEntity
  8
0
  6
SLD-Katı
 62
     7
370
    25
100
AcDbCircle
 10
346.338728471
 20
394.1076431372
 30
0.0
 40
1.440883045631701
100
AcDbArc
 50
176.0227855332
 51
183.9772144668
  0
ARC
  5
183
330
1F
100
AcDbEntity
  8
0
  6
SLD-Katı
 62
     7
370
    25
100
AcDbCircle
 10
346.3386984088
 20
392.9212457449
 30
0.0
 40
1.440853023541806
100
AcDbArc
 50
176.0227210911
 51
183.9772789089
  0
LINE
  5
184
330
1F
100
AcDbEntity
  8
0
  6
SLD-Katı
 62
     7
370
    25
100
AcDbLine
 10
344.9013154863
 20
392.8213069164
 30
0.0
 11
344.9013154863
 21
383.1075817296
 31
0.0
  0
LINE
  5
185
330
1F
100
AcDbEntity
  8
0
  6
SLD-Katı
 62
     7
370
    25
100
AcDbLine
 10
344.9013154863
 20
383.1075817296
 30
0.0
 11
344.7083007453
 21
383.1075817296
 31
0.0
  0
LINE
  5
186
330
1F
100
AcDbEntity
  8
0
  6
SLD-Katı
 62
     7
370
    25
100
AcDbLine
 10
344.7083007453
 20
392.8213069164
 30
0.0
 11
344.9013154863
 21
392.8213069164
 31
0.0
  0
ARC
  5
187
330
1F
100
AcDbEntity
  8
0
  6
SLD-Katı
 62
     7
370
    25
100
AcDbCircle
 10
346.3387205873
 20
381.8212455088
 30
0.0
 40
1.440875180983184
100
AcDbArc
 50
176.0227637897
 51
183.9772362103
  0
LINE
  5
188
330
1F
100
AcDbEntity
  8
0
  6
SLD-Katı
 62
     7
370
    25
100
AcDbLine
 10
344.7083007453
 20
381.7213062146
 30
0.0
 11
344.9013154863
 21
381.7213062146
 31
0.0
  0
ARC
  5
189
330
1F
100
AcDbEntity
  8
0
  6
SLD-Katı
 62
     7
370
    25
100
AcDbCircle
 10
346.3387295057
 20
383.0076424354
 30
0.0
 40
1.440884077843822
100
AcDbArc
 50
176.022788387
 51
183.977211613
  0
LINE
  5
18A
330
1F
100
AcDbEntity
  8
0
  6
SLD-Katı
 62
     7
370
    25
100
AcDbLine
 10
344.9013154863
 20
381.7213062146
 30
0.0
 11
344.9013154863
 21
372.007581959
 31
0.0
  0
LINE
  5
18B
330
1F
100
AcDbEntity
  8
0
  6
SLD-Katı
 62
     7
370
    25
100
AcDbLine
 10
344.9013154863
 20
372.007581959
 30
0.0
 11
344.7083007453
 21
372.007581959
 31
0.0
  0
ARC
  5
18C
330
1F
100
AcDbEntity
  8
0
  6
SLD-Katı
 62
     7
370
    25
100
AcDbCircle
 10
346.3387077449
 20
371.9076435962
 30
0.0
 40
1.440862304834085
100
AcDbArc
 50
176.0227653136
 51
183.9772346864
  0
ARC
  5
18D
330
1F
100
AcDbEntity
  8
0
  6
SLD-Katı
 62
     7
370
    25
100
AcDbCircle
 10
346.3386940475
 20
370.7212466696
 30
0.0
 40
1.440848640433192
100
AcDbArc
 50
176.0227275345
 51
183.9772724655
  0
LINE
  5
18E
330
1F
100
AcDbEntity
  8
0
  6
SLD-Katı
 62
     7
370
    25
100
AcDbLine
 10
344.7083007453
 20
370.6213083067
 30
0.0
 11
344.9013154863
 21
370.6213083067
 31
0.0
  0
LINE
  5
18F
330
1F
100
AcDbEntity
  8
0
  6
SLD-Katı
 62
     7
370
    25
100
AcDbLine
 10
344.9013154863
 20
370.6213083067
 30
0.0
 11
344.9013154863
 21
360.8075823584
 31
0.0
  0
LINE
  5
190
330
1F
100
AcDbEntity
  8
0
  6
SLD-Katı
 62
     7
370
    25
100
AcDbLine
 10
344.9013154863
 20
360.8075823584
 30
0.0
 11
344.7083007453
 21
360.8075823584
 31
0.0
  0
ARC
  5
191
330
1F
100
AcDbEntity
  8
0
  6
SLD-Katı
 62
     7
370
    25
100
AcDbCircle
 10
346.3387077449
 20
360.7076439955
 30
0.0
 40
1.440862304834085
100
AcDbArc
 50
176.0227653136
 51
183.9772346864
  0
LINE
  5
192
330
1F
100
AcDbEntity
  8
0
  6
SLD-Katı
 62
     7
370
    25
100
AcDbLine
 10
657.0658009408
 20
351.8273416856
 30
0.0
 11
656.108297026
 21
351.7999309995
 31
0.0
  0
LINE
  5
193
330
1F
100
AcDbEntity
  8
0
  6
SLD-Katı
 62
     7
370
    25
100
AcDbLine
 10
656.108297026
 20
359.4213049808
 30
0.0
 11
656.108297026
 21
360.8075823584
 31
0.0
  0
LINE
  5
194
330
1F
100
AcDbEntity
  8
0
  6
SLD-Katı
 62
     7
370
    25
100
AcDbLine
 10
656.108297026
 20
370.6213083067
 30
0.0
 11
656.108297026
 21
360.8075823584
 31
0.0
  0
LINE
  5
195
330
1F
100
AcDbEntity
  8
0
  6
SLD-Katı
 62
     7
370
    25
100
AcDbLine
 10
656.108297026
 20
370.6213083067
 30
0.0
 11
656.108297026
 21
372.007581959
 31
0.0
  0
LINE
  5
196
330
1F
100
AcDbEntity
  8
0
  6
SLD-Katı
 62
     7
370
    25
100
AcDbLine
 10
656.108297026
 20
381.7213062146
 30
0.0
 11
656.108297026
 21
372.007581959
 31
0.0
  0
LINE
  5
197
330
1F
100
AcDbEntity
  8
0
  6
SLD-Katı
 62
     7
370
    25
100
AcDbLine
 10
656.108297026
 20
381.7213062146
 30
0.0
 11
656.108297026
 21
383.1075817296
 31
0.0
  0
LINE
  5
198
330
1F
100
AcDbEntity
  8
0
  6
SLD-Katı
 62
     7
370
    25
100
AcDbLine
 10
656.108297026
 20
392.8213069164
 30
0.0
 11
656.108297026
 21
383.1075817296
 31
0.0
  0
LINE
  5
199
330
1F
100
AcDbEntity
  8
0
  6
SLD-Katı
 62
     7
370
    25
100
AcDbLine
 10
656.108297026
 20
392.8213069164
 30
0.0
 11
656.108297026
 21
394.2075824314
 31
0.0
  0
LINE
  5
19A
330
1F
100
AcDbEntity
  8
0
  6
SLD-Katı
 62
     7
370
    25
100
AcDbLine
 10
656.108297026
 20
403.921306687
 30
0.0
 11
656.108297026
 21
394.2075824314
 31
0.0
  0
LINE
  5
19B
330
1F
100
AcDbEntity
  8
0
  6
SLD-Katı
 62
     7
370
    25
100
AcDbLine
 10
656.108297026
 20
403.921306687
 30
0.0
 11
656.108297026
 21
405.3075822019
 31
0.0
  0
LINE
  5
19C
330
1F
100
AcDbEntity
  8
0
  6
SLD-Katı
 62
     7
370
    25
100
AcDbLine
 10
656.108297026
 20
415.0213064575
 30
0.0
 11
656.108297026
 21
405.3075822019
 31
0.0
  0
LINE
  5
19D
330
1F
100
AcDbEntity
  8
0
  6
SLD-Katı
 62
     7
370
    25
100
AcDbLine
 10
656.108297026
 20
415.0213064575
 30
0.0
 11
656.108297026
 21
416.4075819724
 31
0.0
  0
LINE
  5
19E
330
1F
100
AcDbEntity
  8
0
  6
SLD-Katı
 62
     7
370
    25
100
AcDbLine
 10
656.108297026
 20
426.1213071593
 30
0.0
 11
656.108297026
 21
416.4075819724
 31
0.0
  0
LINE
  5
19F
330
1F
100
AcDbEntity
  8
0
  6
SLD-Katı
 62
     7
370
    25
100
AcDbLine
 10
656.108297026
 20
426.1213071593
 30
0.0
 11
656.108297026
 21
427.5075826743
 31
0.0
  0
LINE
  5
1A0
330
1F
100
AcDbEntity
  8
0
  6
SLD-Katı
 62
     7
370
    25
100
AcDbLine
 10
656.108297026
 20
437.2213069299
 30
0.0
 11
656.108297026
 21
427.5075826743
 31
0.0
  0
LINE
  5
1A1
330
1F
100
AcDbEntity
  8
0
  6
SLD-Katı
 62
     7
370
    25
100
AcDbLine
 10
656.108297026
 20
437.2213069299
 30
0.0
 11
656.108297026
 21
438.6075805822
 31
0.0
  0
LINE
  5
1A2
330
1F
100
AcDbEntity
  8
0
  6
SLD-Katı
 62
     7
370
    25
100
AcDbLine
 10
656.108297026
 20
448.4213065305
 30
0.0
 11
656.108297026
 21
438.6075805822
 31
0.0
  0
LINE
  5
1A3
330
1F
100
AcDbEntity
  8
0
  6
SLD-Katı
 62
     7
370
    25
100
AcDbLine
 10
656.108297026
 20
448.4213065305
 30
0.0
 11
656.108297026
 21
449.8075839081
 31
0.0
  0
LINE
  5
1A4
330
1F
100
AcDbEntity
  8
0
  6
SLD-Katı
 62
     7
370
    25
100
AcDbLine
 10
657.0658009408
 20
457.4015472033
 30
0.0
 11
656.108297026
 21
457.4289578893
 31
0.0
  0
LINE
  5
1A5
330
1F
100
AcDbEntity
  8
0
  6
SLD-Katı
 62
     7
370
    25
100
AcDbLine
 10
657.0658009408
 20
457.4015472033
 30
0.0
 11
657.0658009408
 21
351.8273416856
 31
0.0
  0
LINE
  5
1A6
330
1F
100
AcDbEntity
  8
0
  6
SLD-Katı
 62
     7
370
    25
100
AcDbLine
 10
656.108297026
 20
359.4213049808
 30
0.0
 11
656.108297026
 21
351.7999309995
 31
0.0
  0
LINE
  5
1A7
330
1F
100
AcDbEntity
  8
0
  6
SLD-Katı
 62
     7
370
    25
100
AcDbLine
 10
656.108297026
 20
457.4289578893
 30
0.0
 11
656.108297026
 21
449.8075839081
 31
0.0
  0
LINE
  5
1A8
330
1F
100
AcDbEntity
  8
0
  6
SLD-Katı
 62
     7
370
    25
100
AcDbLine
 10
660.1083051322
 20
458.8144455054
 30
0.0
 11
657.0658009408
 21
457.4015472033
 31
0.0
  0
LINE
  5
1A9
330
1F
100
AcDbEntity
  8
0
  6
SLD-Katı
 62
     7
370
    25
100
AcDbLine
 10
660.1083051322
 20
458.8144455054
 30
0.0
 11
656.108297026
 21
458.9541289904
 31
0.0
  0
LINE
  5
1AA
330
1F
100
AcDbEntity
  8
0
  6
SLD-Katı
 62
     7
370
    25
100
AcDbLine
 10
656.108297026
 20
458.9541289904
 30
0.0
 11
656.108297026
 21
457.4289578893
 31
0.0
  0
LINE
  5
1AB
330
1F
100
AcDbEntity
  8
0
  6
SLD-Katı
 62
     7
370
    25
100
AcDbLine
 10
655.7083051561
 20
448.8215591707
 30
0.0
 11
655.7083051561
 21
449.4073312679
 31
0.0
  0
LINE
  5
1AC
330
1F
100
AcDbEntity
  8
0
  6
SLD-Katı
 62
     7
370
    25
100
AcDbLine
 10
655.7083051561
 20
437.6215595701
 30
0.0
 11
655.7083051561
 21
438.2073316672
 31
0.0
  0
LINE
  5
1AD
330
1F
100
AcDbEntity
  8
0
  6
SLD-Katı
 62
     7
370
    25
100
AcDbLine
 10
655.7083051561
 20
426.5215597996
 30
0.0
 11
655.7083051561
 21
427.107330034
 31
0.0
  0
LINE
  5
1AE
330
1F
100
AcDbEntity
  8
0
  6
SLD-Katı
 62
     7
370
    25
100
AcDbLine
 10
655.7083051561
 20
415.4215590977
 30
0.0
 11
655.7083051561
 21
416.0073302635
 31
0.0
  0
LINE
  5
1AF
330
1F
100
AcDbEntity
  8
0
  6
SLD-Katı
 62
     7
370
    25
100
AcDbLine
 10
655.7083051561
 20
404.3215590362
 30
0.0
 11
655.7083051561
 21
404.9073298527
 31
0.0
  0
LINE
  5
1B0
330
1F
100
AcDbEntity
  8
0
  6
SLD-Katı
 62
     7
370
    25
100
AcDbLine
 10
655.7083051561
 20
393.2215586254
 30
0.0
 11
655.7083051561
 21
393.8073297912
 31
0.0
  0
LINE
  5
1B1
330
1F
100
AcDbEntity
  8
0
  6
SLD-Katı
 62
     7
370
    25
100
AcDbLine
 10
655.7083051561
 20
382.1215588548
 30
0.0
 11
655.7083051561
 21
382.7073290893
 31
0.0
  0
LINE
  5
1B2
330
1F
100
AcDbEntity
  8
0
  6
SLD-Katı
 62
     7
370
    25
100
AcDbLine
 10
655.7083051561
 20
371.6073293188
 30
0.0
 11
655.7083051561
 21
371.0215572217
 31
0.0
  0
LINE
  5
1B3
330
1F
100
AcDbEntity
  8
0
  6
SLD-Katı
 62
     7
370
    25
100
AcDbLine
 10
655.7083051561
 20
359.821557621
 30
0.0
 11
655.7083051561
 21
360.4073297181
 31
0.0
  0
LINE
  5
1B4
330
1F
100
AcDbEntity
  8
0
  6
SLD-Katı
 62
     7
370
    25
100
AcDbLine
 10
655.8082919477
 20
449.603966991
 30
0.0
 11
655.9015583156
 21
449.60722662
 31
0.0
  0
ELLIPSE
  5
1B5
330
1F
100
AcDbEntity
  8
0
  6
SLD-Katı
 62
     7
370
    25
100
AcDbEllipse
 10
655.9085430166
 20
449.4073469069
 30
0.0
 11
-0.2001224449699066
 21
-0.006988429770842687
 31
0.0
210
0.0
220
0.0
230
1.0
 40
0.9987793495
 41
4.712388980386391
 42
6.248321296341157
  0
ARC
  5
1B6
330
1F
100
AcDbEntity
  8
0
  6
SLD-Katı
 62
     7
370
    25
100
AcDbCircle
 10
655.9082988856
 20
448.4213066895
 30
0.0
 40
0.2000000000000455
100
AcDbArc
 50
0.0
 51
88.0
  0
LINE
  5
1B7
330
1F
100
AcDbEntity
  8
0
  6
SLD-Katı
 62
     7
370
    25
100
AcDbLine
 10
655.9015583156
 20
448.6216638186
 30
0.0
 11
655.915282285
 21
448.6211832562
 31
0.0
  0
ELLIPSE
  5
1B8
330
1F
100
AcDbEntity
  8
0
  6
SLD-Katı
 62
     7
370
    25
100
AcDbEllipse
 10
655.9085430166
 20
448.821541982
 30
0.0
 11
0.2001224449699066
 21
-0.006988429770956373
 31
0.0
210
0.0
220
0.0
230
1.0
 40
0.9987793495
 41
3.17645666442881
 42
4.712388980384717
  0
LINE
  5
1B9
330
1F
100
AcDbEntity
  8
0
  6
SLD-Katı
 62
     7
370
    25
100
AcDbLine
 10
655.9015583156
 20
449.60722662
 30
0.0
 11
655.915282285
 21
449.6077034571
 31
0.0
  0
ARC
  5
1BA
330
1F
100
AcDbEntity
  8
0
  6
SLD-Katı
 62
     7
370
    25
100
AcDbCircle
 10
655.9082988856
 20
449.8075821994
 30
0.0
 40
0.2000000000000455
100
AcDbArc
 50
272.0
 51
0.0
  0
LINE
  5
1BB
330
1F
100
AcDbEntity
  8
0
  6
SLD-Katı
 62
     7
370
    25
100
AcDbLine
 10
655.9015583156
 20
448.6216638186
 30
0.0
 11
655.8082919477
 21
448.6249197223
 31
0.0
  0
ARC
  5
1BC
330
1F
100
AcDbEntity
  8
0
  6
SLD-Katı
 62
     7
370
    25
100
AcDbCircle
 10
655.9082988856
 20
438.6075821994
 30
0.0
 40
0.2000000000000455
100
AcDbArc
 50
272.0
 51
0.0
  0
ARC
  5
1BD
330
1F
100
AcDbEntity
  8
0
  6
SLD-Katı
 62
     7
370
    25
100
AcDbCircle
 10
655.9082988856
 20
437.2213066895
 30
0.0
 40
0.2000000000000455
100
AcDbArc
 50
0.0
 51
88.0
  0
LINE
  5
1BE
330
1F
100
AcDbEntity
  8
0
  6
SLD-Katı
 62
     7
370
    25
100
AcDbLine
 10
655.9015583156
 20
437.421664218
 30
0.0
 11
655.915282285
 21
437.4211836555
 31
0.0
  0
ELLIPSE
  5
1BF
330
1F
100
AcDbEntity
  8
0
  6
SLD-Katı
 62
     7
370
    25
100
AcDbEllipse
 10
655.9085430166
 20
437.621541982
 30
0.0
 11
0.2001224449699066
 21
-0.006988429770899528
 31
0.0
210
0.0
220
0.0
230
1.0
 40
0.9987793495
 41
3.176456664428535
 42
4.712388980384434
  0
ELLIPSE
  5
1C0
330
1F
100
AcDbEntity
  8
0
  6
SLD-Katı
 62
     7
370
    25
100
AcDbEllipse
 10
655.9085430166
 20
438.2073469069
 30
0.0
 11
-0.2001224449699066
 21
-0.006988429770899528
 31
0.0
210
0.0
220
0.0
230
1.0
 40
0.9987793495
 41
4.712388980386109
 42
6.248321296340872
  0
LINE
  5
1C1
330
1F
100
AcDbEntity
  8
0
  6
SLD-Katı
 62
     7
370
    25
100
AcDbLine
 10
655.9015583156
 20
438.407223294
 30
0.0
 11
655.915282285
 21
438.4077038565
 31
0.0
  0
LINE
  5
1C2
330
1F
100
AcDbEntity
  8
0
  6
SLD-Katı
 62
     7
370
    25
100
AcDbLine
 10
655.8082919477
 20
438.4039673903
 30
0.0
 11
655.9015583156
 21
438.407223294
 31
0.0
  0
LINE
  5
1C3
330
1F
100
AcDbEntity
  8
0
  6
SLD-Katı
 62
     7
370
    25
100
AcDbLine
 10
655.9015583156
 20
437.421664218
 30
0.0
 11
655.8082919477
 21
437.4249201217
 31
0.0
  0
ELLIPSE
  5
1C4
330
1F
100
AcDbEntity
  8
0
  6
SLD-Katı
 62
     7
370
    25
100
AcDbEllipse
 10
655.9085430166
 20
427.1073469069
 30
0.0
 11
-0.2001224449699066
 21
-0.006988429770899528
 31
0.0
210
0.0
220
0.0
230
1.0
 40
0.9987793495
 41
4.712388980386109
 42
6.248321296340587
  0
LINE
  5
1C5
330
1F
100
AcDbEntity
  8
0
  6
SLD-Katı
 62
     7
370
    25
100
AcDbLine
 10
655.9015583156
 20
427.3072253862
 30
0.0
 11
655.915282285
 21
427.307704086
 31
0.0
  0
ARC
  5
1C6
330
1F
100
AcDbEntity
  8
0
  6
SLD-Katı
 62
     7
370
    25
100
AcDbCircle
 10
655.9082988856
 20
427.5075821994
 30
0.0
 40
0.2000000000000455
100
AcDbArc
 50
272.0
 51
0.0
  0
ARC
  5
1C7
330
1F
100
AcDbEntity
  8
0
  6
SLD-Katı
 62
     7
370
    25
100
AcDbCircle
 10
655.9082988856
 20
426.1213066895
 30
0.0
 40
0.2000000000000455
100
AcDbArc
 50
0.0
 51
88.0
  0
LINE
  5
1C8
330
1F
100
AcDbEntity
  8
0
  6
SLD-Katı
 62
     7
370
    25
100
AcDbLine
 10
655.9015583156
 20
426.3216644475
 30
0.0
 11
655.915282285
 21
426.3211857476
 31
0.0
  0
ELLIPSE
  5
1C9
330
1F
100
AcDbEntity
  8
0
  6
SLD-Katı
 62
     7
370
    25
100
AcDbEllipse
 10
655.9085430166
 20
426.521541982
 30
0.0
 11
0.2001224449699066
 21
-0.006988429770899528
 31
0.0
210
0.0
220
0.0
230
1.0
 40
0.9987793495
 41
3.176456664428535
 42
4.712388980384434
  0
LINE
  5
1CA
330
1F
100
AcDbEntity
  8
0
  6
SLD-Katı
 62
     7
370
    25
100
AcDbLine
 10
655.8082919477
 20
427.3039676198
 30
0.0
 11
655.9015583156
 21
427.3072253862
 31
0.0
  0
LINE
  5
1CB
330
1F
100
AcDbEntity
  8
0
  6
SLD-Katı
 62
     7
370
    25
100
AcDbLine
 10
655.9015583156
 20
426.3216644475
 30
0.0
 11
655.8082919477
 21
426.3249203512
 31
0.0
  0
ARC
  5
1CC
330
1F
100
AcDbEntity
  8
0
  6
SLD-Katı
 62
     7
370
    25
100
AcDbCircle
 10
655.9082988856
 20
416.4075821994
 30
0.0
 40
0.2000000000000455
100
AcDbArc
 50
272.0
 51
0.0
  0
ARC
  5
1CD
330
1F
100
AcDbEntity
  8
0
  6
SLD-Katı
 62
     7
370
    25
100
AcDbCircle
 10
655.9082988856
 20
415.0213066895
 30
0.0
 40
0.2000000000000455
100
AcDbArc
 50
0.0
 51
88.0
  0
LINE
  5
1CE
330
1F
100
AcDbEntity
  8
0
  6
SLD-Katı
 62
     7
370
    25
100
AcDbLine
 10
655.9015583156
 20
415.2216637456
 30
0.0
 11
655.915282285
 21
415.2211850458
 31
0.0
  0
ELLIPSE
  5
1CF
330
1F
100
AcDbEntity
  8
0
  6
SLD-Katı
 62
     7
370
    25
100
AcDbEllipse
 10
655.9085430166
 20
415.421541982
 30
0.0
 11
0.2001224449699066
 21
-0.006988429770956373
 31
0.0
210
0.0
220
0.0
230
1.0
 40
0.9987793495
 41
3.17645666442882
 42
4.712388980384717
  0
ELLIPSE
  5
1D0
330
1F
100
AcDbEntity
  8
0
  6
SLD-Katı
 62
     7
370
    25
100
AcDbEllipse
 10
655.9085430166
 20
416.0073469069
 30
0.0
 11
-0.2001224449699066
 21
-0.006988429770956373
 31
0.0
210
0.0
220
0.0
230
1.0
 40
0.9987793495
 41
4.712388980385825
 42
6.248321296340587
  0
LINE
  5
1D1
330
1F
100
AcDbEntity
  8
0
  6
SLD-Katı
 62
     7
370
    25
100
AcDbLine
 10
655.9015583156
 20
416.2072246843
 30
0.0
 11
655.915282285
 21
416.2077043154
 31
0.0
  0
LINE
  5
1D2
330
1F
100
AcDbEntity
  8
0
  6
SLD-Katı
 62
     7
370
    25
100
AcDbLine
 10
655.8082919477
 20
416.2039678493
 30
0.0
 11
655.9015583156
 21
416.2072246843
 31
0.0
  0
LINE
  5
1D3
330
1F
100
AcDbEntity
  8
0
  6
SLD-Katı
 62
     7
370
    25
100
AcDbLine
 10
655.9015583156
 20
415.2216637456
 30
0.0
 11
655.8082919477
 21
415.2249205807
 31
0.0
  0
ELLIPSE
  5
1D4
330
1F
100
AcDbEntity
  8
0
  6
SLD-Katı
 62
     7
370
    25
100
AcDbEllipse
 10
655.9085430166
 20
404.321541982
 30
0.0
 11
0.2001224449699066
 21
-0.006988429770899528
 31
0.0
210
0.0
220
0.0
230
1.0
 40
0.9987793495
 41
3.176456664428535
 42
4.712388980384434
  0
ELLIPSE
  5
1D5
330
1F
100
AcDbEntity
  8
0
  6
SLD-Katı
 62
     7
370
    25
100
AcDbEllipse
 10
655.9085430166
 20
404.9073469069
 30
0.0
 11
-0.2001224449699066
 21
-0.006988429770899528
 31
0.0
210
0.0
220
0.0
230
1.0
 40
0.9987793495
 41
4.712388980386109
 42
6.248321296340872
  0
ARC
  5
1D6
330
1F
100
AcDbEntity
  8
0
  6
SLD-Katı
 62
     7
370
    25
100
AcDbCircle
 10
655.9082988856
 20
403.9213066895
 30
0.0
 40
0.2000000000000455
100
AcDbArc
 50
0.0
 51
88.0
  0
LINE
  5
1D7
330
1F
100
AcDbEntity
  8
0
  6
SLD-Katı
 62
     7
370
    25
100
AcDbLine
 10
655.9015583156
 20
404.1216638005
 30
0.0
 11
655.915282285
 21
404.1211848678
 31
0.0
  0
ARC
  5
1D8
330
1F
100
AcDbEntity
  8
0
  6
SLD-Katı
 62
     7
370
    25
100
AcDbCircle
 10
655.9082988856
 20
405.3075821994
 30
0.0
 40
0.2000000000000455
100
AcDbArc
 50
272.0
 51
0.0
  0
LINE
  5
1D9
330
1F
100
AcDbEntity
  8
0
  6
SLD-Katı
 62
     7
370
    25
100
AcDbLine
 10
655.9015583156
 20
405.1072250884
 30
0.0
 11
655.915282285
 21
405.1077040211
 31
0.0
  0
LINE
  5
1DA
330
1F
100
AcDbEntity
  8
0
  6
SLD-Katı
 62
     7
370
    25
100
AcDbLine
 10
655.9015583156
 20
404.1216638005
 30
0.0
 11
655.8082919477
 21
404.1249206937
 31
0.0
  0
LINE
  5
1DB
330
1F
100
AcDbEntity
  8
0
  6
SLD-Katı
 62
     7
370
    25
100
AcDbLine
 10
655.8082919477
 20
405.1039681952
 30
0.0
 11
655.9015583156
 21
405.1072250884
 31
0.0
  0
ARC
  5
1DC
330
1F
100
AcDbEntity
  8
0
  6
SLD-Katı
 62
     7
370
    25
100
AcDbCircle
 10
655.9082988856
 20
392.8213066895
 30
0.0
 40
0.2000000000000455
100
AcDbArc
 50
0.0
 51
88.0
  0
LINE
  5
1DD
330
1F
100
AcDbEntity
  8
0
  6
SLD-Katı
 62
     7
370
    25
100
AcDbLine
 10
655.9015583156
 20
393.0216642046
 30
0.0
 11
655.915282285
 21
393.0211845734
 31
0.0
  0
ELLIPSE
  5
1DE
330
1F
100
AcDbEntity
  8
0
  6
SLD-Katı
 62
     7
370
    25
100
AcDbEllipse
 10
655.9085430166
 20
393.221541982
 30
0.0
 11
0.2001224449699066
 21
-0.006988429770899528
 31
0.0
210
0.0
220
0.0
230
1.0
 40
0.9987793495
 41
3.176456664428241
 42
4.712388980384423
  0
ELLIPSE
  5
1DF
330
1F
100
AcDbEntity
  8
0
  6
SLD-Katı
 62
     7
370
    25
100
AcDbEllipse
 10
655.9085430166
 20
393.8073469069
 30
0.0
 11
-0.2001224449699066
 21
-0.006988429770956373
 31
0.0
210
0.0
220
0.0
230
1.0
 40
0.9987793495
 41
4.712388980385835
 42
6.248321296340587
  0
ARC
  5
1E0
330
1F
100
AcDbEntity
  8
0
  6
SLD-Katı
 62
     7
370
    25
100
AcDbCircle
 10
655.9082988856
 20
394.2075821994
 30
0.0
 40
0.2000000000000455
100
AcDbArc
 50
272.0
 51
0.0
  0
LINE
  5
1E1
330
1F
100
AcDbEntity
  8
0
  6
SLD-Katı
 62
     7
370
    25
100
AcDbLine
 10
655.9015583156
 20
394.0072251433
 30
0.0
 11
655.915282285
 21
394.0077038431
 31
0.0
  0
LINE
  5
1E2
330
1F
100
AcDbEntity
  8
0
  6
SLD-Katı
 62
     7
370
    25
100
AcDbLine
 10
655.8082919477
 20
394.0039683082
 30
0.0
 11
655.9015583156
 21
394.0072251433
 31
0.0
  0
LINE
  5
1E3
330
1F
100
AcDbEntity
  8
0
  6
SLD-Katı
 62
     7
370
    25
100
AcDbLine
 10
655.9015583156
 20
393.0216642046
 30
0.0
 11
655.8082919477
 21
393.0249210396
 31
0.0
  0
ARC
  5
1E4
330
1F
100
AcDbEntity
  8
0
  6
SLD-Katı
 62
     7
370
    25
100
AcDbCircle
 10
655.9082988856
 20
383.1075821994
 30
0.0
 40
0.2000000000000455
100
AcDbArc
 50
272.0
 51
0.0
  0
ELLIPSE
  5
1E5
330
1F
100
AcDbEntity
  8
0
  6
SLD-Katı
 62
     7
370
    25
100
AcDbEllipse
 10
655.9085430166
 20
382.121541982
 30
0.0
 11
0.2001224449699066
 21
-0.006988429770842687
 31
0.0
210
0.0
220
0.0
230
1.0
 40
0.9987793495
 41
3.176456664427957
 42
4.712388980384141
  0
ELLIPSE
  5
1E6
330
1F
100
AcDbEntity
  8
0
  6
SLD-Katı
 62
     7
370
    25
100
AcDbEllipse
 10
655.9085430166
 20
382.7073469069
 30
0.0
 11
-0.2001224449699066
 21
-0.006988429770899528
 31
0.0
210
0.0
220
0.0
230
1.0
 40
0.9987793495
 41
4.712388980386118
 42
6.248321296340872
  0
LINE
  5
1E7
330
1F
100
AcDbEntity
  8
0
  6
SLD-Katı
 62
     7
370
    25
100
AcDbLine
 10
655.9015583156
 20
382.9072244414
 30
0.0
 11
655.915282285
 21
382.9077031412
 31
0.0
  0
LINE
  5
1E8
330
1F
100
AcDbEntity
  8
0
  6
SLD-Katı
 62
     7
370
    25
100
AcDbLine
 10
655.9015583156
 20
381.9216635027
 30
0.0
 11
655.915282285
 21
381.9211848029
 31
0.0
  0
ARC
  5
1E9
330
1F
100
AcDbEntity
  8
0
  6
SLD-Katı
 62
     7
370
    25
100
AcDbCircle
 10
655.9082988856
 20
381.7213066895
 30
0.0
 40
0.2000000000000455
100
AcDbArc
 50
0.0
 51
88.0
  0
LINE
  5
1EA
330
1F
100
AcDbEntity
  8
0
  6
SLD-Katı
 62
     7
370
    25
100
AcDbLine
 10
655.8082919477
 20
382.9039685377
 30
0.0
 11
655.9015583156
 21
382.9072244414
 31
0.0
  0
LINE
  5
1EB
330
1F
100
AcDbEntity
  8
0
  6
SLD-Katı
 62
     7
370
    25
100
AcDbLine
 10
655.9015583156
 20
381.9216635027
 30
0.0
 11
655.8082919477
 21
381.9249212691
 31
0.0
  0
ARC
  5
1EC
330
1F
100
AcDbEntity
  8
0
  6
SLD-Katı
 62
     7
370
    25
100
AcDbCircle
 10
655.9082988856
 20
372.0075821994
 30
0.0
 40
0.2000000000000455
100
AcDbArc
 50
272.0
 51
0.0
  0
ARC
  5
1ED
330
1F
100
AcDbEntity
  8
0
  6
SLD-Katı
 62
     7
370
    25
100
AcDbCircle
 10
655.9082988856
 20
370.6213066895
 30
0.0
 40
0.2000000000000455
100
AcDbArc
 50
0.0
 51
88.0
  0
LINE
  5
1EE
330
1F
100
AcDbEntity
  8
0
  6
SLD-Katı
 62
     7
370
    25
100
AcDbLine
 10
655.9015583156
 20
370.8216655948
 30
0.0
 11
655.915282285
 21
370.8211850324
 31
0.0
  0
ELLIPSE
  5
1EF
330
1F
100
AcDbEntity
  8
0
  6
SLD-Katı
 62
     7
370
    25
100
AcDbEllipse
 10
655.9085430166
 20
371.021541982
 30
0.0
 11
0.2001224449699066
 21
-0.006988429770956373
 31
0.0
210
0.0
220
0.0
230
1.0
 40
0.9987793495
 41
3.17645666442881
 42
4.712388980384707
  0
ELLIPSE
  5
1F0
330
1F
100
AcDbEntity
  8
0
  6
SLD-Katı
 62
     7
370
    25
100
AcDbEllipse
 10
655.9085430166
 20
371.6073469069
 30
0.0
 11
-0.2001224449699066
 21
-0.006988429770956373
 31
0.0
210
0.0
220
0.0
230
1.0
 40
0.9987793495
 41
4.712388980385835
 42
6.248321296340597
  0
LINE
  5
1F1
330
1F
100
AcDbEntity
  8
0
  6
SLD-Katı
 62
     7
370
    25
100
AcDbLine
 10
655.9015583156
 20
371.8072246709
 30
0.0
 11
655.915282285
 21
371.8077052334
 31
0.0
  0
LINE
  5
1F2
330
1F
100
AcDbEntity
  8
0
  6
SLD-Katı
 62
     7
370
    25
100
AcDbLine
 10
655.8082919477
 20
371.8039687672
 30
0.0
 11
655.9015583156
 21
371.8072246709
 31
0.0
  0
LINE
  5
1F3
330
1F
100
AcDbEntity
  8
0
  6
SLD-Katı
 62
     7
370
    25
100
AcDbLine
 10
655.9015583156
 20
370.8216655948
 30
0.0
 11
655.8082919477
 21
370.8249214986
 31
0.0
  0
ARC
  5
1F4
330
1F
100
AcDbEntity
  8
0
  6
SLD-Katı
 62
     7
370
    25
100
AcDbCircle
 10
655.9082988856
 20
359.4213066895
 30
0.0
 40
0.2000000000000455
100
AcDbArc
 50
0.0
 51
88.0
  0
LINE
  5
1F5
330
1F
100
AcDbEntity
  8
0
  6
SLD-Katı
 62
     7
370
    25
100
AcDbLine
 10
655.9015583156
 20
359.6216622689
 30
0.0
 11
655.915282285
 21
359.6211854317
 31
0.0
  0
ELLIPSE
  5
1F6
330
1F
100
AcDbEntity
  8
0
  6
SLD-Katı
 62
     7
370
    25
100
AcDbEllipse
 10
655.9085430166
 20
359.821541982
 30
0.0
 11
0.2001224449699066
 21
-0.006988429770956373
 31
0.0
210
0.0
220
0.0
230
1.0
 40
0.9987793495
 41
3.17645666442881
 42
4.712388980383572
  0
ELLIPSE
  5
1F7
330
1F
100
AcDbEntity
  8
0
  6
SLD-Katı
 62
     7
370
    25
100
AcDbEllipse
 10
655.9085430166
 20
360.4073469069
 30
0.0
 11
-0.2001224449699066
 21
-0.006988429770956373
 31
0.0
210
0.0
220
0.0
230
1.0
 40
0.9987793495
 41
4.712388980385835
 42
6.248321296340881
  0
LINE
  5
1F8
330
1F
100
AcDbEntity
  8
0
  6
SLD-Katı
 62
     7
370
    25
100
AcDbLine
 10
655.9015583156
 20
360.6072250703
 30
0.0
 11
655.915282285
 21
360.6077056327
 31
0.0
  0
ARC
  5
1F9
330
1F
100
AcDbEntity
  8
0
  6
SLD-Katı
 62
     7
370
    25
100
AcDbCircle
 10
655.9082988856
 20
360.8075821994
 30
0.0
 40
0.2000000000000455
100
AcDbArc
 50
272.0
 51
0.0
  0
LINE
  5
1FA
330
1F
100
AcDbEntity
  8
0
  6
SLD-Katı
 62
     7
370
    25
100
AcDbLine
 10
655.8082919477
 20
360.6039691665
 30
0.0
 11
655.9015583156
 21
360.6072250703
 31
0.0
  0
LINE
  5
1FB
330
1F
100
AcDbEntity
  8
0
  6
SLD-Katı
 62
     7
370
    25
100
AcDbLine
 10
655.9015583156
 20
359.6216622689
 30
0.0
 11
655.8082919477
 21
359.6249218979
 31
0.0
  0
LINE
  5
1FC
330
1F
100
AcDbEntity
  8
0
  6
SLD-Katı
 62
     7
370
    25
100
AcDbLine
 10
657.0658009408
 20
351.8273416856
 30
0.0
 11
660.1083051322
 21
350.4144433835
 31
0.0
  0
LINE
  5
1FD
330
1F
100
AcDbEntity
  8
0
  6
SLD-Katı
 62
     7
370
    25
100
AcDbLine
 10
660.1083051322
 20
350.4144433835
 30
0.0
 11
656.108297026
 21
350.2747598984
 31
0.0
  0
LINE
  5
1FE
330
1F
100
AcDbEntity
  8
0
  6
SLD-Katı
 62
     7
370
    25
100
AcDbLine
 10
656.108297026
 20
351.7999309995
 30
0.0
 11
656.108297026
 21
350.2747598984
 31
0.0
  0
ELLIPSE
  5
1FF
330
1F
100
AcDbEntity
  8
0
  6
SLD-Katı
 62
     7
370
    25
100
AcDbEllipse
 10
662.7511560285
 20
453.8644444444
 30
0.0
 11
0.0
 21
6.546536707080008
 31
0.0
210
0.0
220
0.0
230
1.0
 40
0.4364357805
 41
1.181035593997443
 42
1.96055705959235
  0
LINE
  5
200
330
1F
100
AcDbEntity
  8
0
  6
SLD-Katı
 62
     7
370
    25
100
AcDbLine
 10
660.1083051322
 20
451.376974205
 30
0.0
 11
660.1083051322
 21
357.8519146838
 31
0.0
  0
ELLIPSE
  5
201
330
1F
100
AcDbEntity
  8
0
  6
SLD-Katı
 62
     7
370
    25
100
AcDbEllipse
 10
662.7511560285
 20
355.3644444444
 30
0.0
 11
0.0
 21
6.546536707079894
 31
0.0
210
0.0
220
0.0
230
1.0
 40
0.4364357805
 41
1.181035593997475
 42
1.960557059592358
  0
LINE
  5
202
330
1F
100
AcDbEntity
  8
0
  6
SLD-Katı
 62
     7
370
    25
100
AcDbLine
 10
660.1083051322
 20
352.8769757548
 30
0.0
 11
660.1083051322
 21
350.4144433835
 31
0.0
  0
LINE
  5
203
330
1F
100
AcDbEntity
  8
0
  6
SLD-Katı
 62
     7
370
    25
100
AcDbLine
 10
660.1083051322
 20
458.8144455054
 30
0.0
 11
660.1083051322
 21
456.3519131341
 31
0.0
  0
ARC
  5
204
330
1F
100
AcDbEntity
  8
0
  6
SLD-Katı
 62
     7
370
    25
100
AcDbCircle
 10
654.4778900264
 20
448.5212448933
 30
0.0
 40
1.440862304833972
100
AcDbArc
 50
356.0227653136
 51
3.9772346864
  0
LINE
  5
205
330
1F
100
AcDbEntity
  8
0
  6
SLD-Katı
 62
     7
370
    25
100
AcDbLine
 10
655.915282285
 20
448.4213065305
 30
0.0
 11
656.108297026
 21
448.4213065305
 31
0.0
  0
LINE
  5
206
330
1F
100
AcDbEntity
  8
0
  6
SLD-Katı
 62
     7
370
    25
100
AcDbLine
 10
655.915282285
 20
438.6075805822
 30
0.0
 11
655.915282285
 21
448.4213065305
 31
0.0
  0
LINE
  5
207
330
1F
100
AcDbEntity
  8
0
  6
SLD-Katı
 62
     7
370
    25
100
AcDbLine
 10
656.108297026
 20
438.6075805822
 30
0.0
 11
655.915282285
 21
438.6075805822
 31
0.0
  0
ARC
  5
208
330
1F
100
AcDbEntity
  8
0
  6
SLD-Katı
 62
     7
370
    25
100
AcDbCircle
 10
654.4778900264
 20
437.3212452927
 30
0.0
 40
1.440862304833972
100
AcDbArc
 50
356.0227653136
 51
3.9772346864
  0
LINE
  5
209
330
1F
100
AcDbEntity
  8
0
  6
SLD-Katı
 62
     7
370
    25
100
AcDbLine
 10
655.915282285
 20
437.2213069299
 30
0.0
 11
656.108297026
 21
437.2213069299
 31
0.0
  0
ARC
  5
20A
330
1F
100
AcDbEntity
  8
0
  6
SLD-Katı
 62
     7
370
    25
100
AcDbCircle
 10
654.4779037238
 20
438.5076422193
 30
0.0
 40
1.440848640433192
100
AcDbArc
 50
356.0227275345
 51
3.9772724655
  0
LINE
  5
20B
330
1F
100
AcDbEntity
  8
0
  6
SLD-Katı
 62
     7
370
    25
100
AcDbLine
 10
655.915282285
 20
427.5075826743
 30
0.0
 11
655.915282285
 21
437.2213069299
 31
0.0
  0
LINE
  5
20C
330
1F
100
AcDbEntity
  8
0
  6
SLD-Katı
 62
     7
370
    25
100
AcDbLine
 10
656.108297026
 20
427.5075826743
 30
0.0
 11
655.915282285
 21
427.5075826743
 31
0.0
  0
ARC
  5
20D
330
1F
100
AcDbEntity
  8
0
  6
SLD-Katı
 62
     7
370
    25
100
AcDbCircle
 10
654.4778771839
 20
427.4076433801
 30
0.0
 40
1.440875180983298
100
AcDbArc
 50
356.0227637897
 51
3.9772362103
  0
ARC
  5
20E
330
1F
100
AcDbEntity
  8
0
  6
SLD-Katı
 62
     7
370
    25
100
AcDbCircle
 10
654.4778682656
 20
426.2212464535
 30
0.0
 40
1.440884077843652
100
AcDbArc
 50
356.022788387
 51
3.977211613
  0
LINE
  5
20F
330
1F
100
AcDbEntity
  8
0
  6
SLD-Katı
 62
     7
370
    25
100
AcDbLine
 10
655.915282285
 20
426.1213071593
 30
0.0
 11
656.108297026
 21
426.1213071593
 31
0.0
  0
LINE
  5
210
330
1F
100
AcDbEntity
  8
0
  6
SLD-Katı
 62
     7
370
    25
100
AcDbLine
 10
655.915282285
 20
416.4075819724
 30
0.0
 11
655.915282285
 21
426.1213071593
 31
0.0
  0
LINE
  5
211
330
1F
100
AcDbEntity
  8
0
  6
SLD-Katı
 62
     7
370
    25
100
AcDbLine
 10
656.108297026
 20
416.4075819724
 30
0.0
 11
655.915282285
 21
416.4075819724
 31
0.0
  0
ARC
  5
212
330
1F
100
AcDbEntity
  8
0
  6
SLD-Katı
 62
     7
370
    25
100
AcDbCircle
 10
654.4778993625
 20
416.3076431439
 30
0.0
 40
1.440853023541692
100
AcDbArc
 50
356.0227210911
 51
3.9772789089
  0
LINE
  5
213
330
1F
100
AcDbEntity
  8
0
  6
SLD-Katı
 62
     7
370
    25
100
AcDbLine
 10
655.915282285
 20
405.3075822019
 30
0.0
 11
655.915282285
 21
415.0213064575
 31
0.0
  0
LINE
  5
214
330
1F
100
AcDbEntity
  8
0
  6
SLD-Katı
 62
     7
370
    25
100
AcDbLine
 10
655.915282285
 20
415.0213064575
 30
0.0
 11
656.108297026
 21
415.0213064575
 31
0.0
  0
LINE
  5
215
330
1F
100
AcDbEntity
  8
0
  6
SLD-Katı
 62
     7
370
    25
100
AcDbLine
 10
655.915282285
 20
405.3075822019
 30
0.0
 11
656.108297026
 21
405.3075822019
 31
0.0
  0
ARC
  5
216
330
1F
100
AcDbEntity
  8
0
  6
SLD-Katı
 62
     7
370
    25
100
AcDbCircle
 10
654.4778693003
 20
415.1212457516
 30
0.0
 40
1.440883045631701
100
AcDbArc
 50
356.0227855332
 51
3.9772144668
  0
ARC
  5
217
330
1F
100
AcDbEntity
  8
0
  6
SLD-Katı
 62
     7
370
    25
100
AcDbCircle
 10
654.4778820463
 20
405.2076431115
 30
0.0
 40
1.440870316224522
100
AcDbArc
 50
356.0227584606
 51
3.9772415394
  0
ARC
  5
218
330
1F
100
AcDbEntity
  8
0
  6
SLD-Katı
 62
     7
370
    25
100
AcDbCircle
 10
654.4778820463
 20
404.0212457774
 30
0.0
 40
1.440870316224522
100
AcDbArc
 50
356.0227584606
 51
3.9772415394
  0
LINE
  5
219
330
1F
100
AcDbEntity
  8
0
  6
SLD-Katı
 62
     7
370
    25
100
AcDbLine
 10
655.915282285
 20
403.921306687
 30
0.0
 11
656.108297026
 21
403.921306687
 31
0.0
  0
LINE
  5
21A
330
1F
100
AcDbEntity
  8
0
  6
SLD-Katı
 62
     7
370
    25
100
AcDbLine
 10
655.915282285
 20
394.2075824314
 30
0.0
 11
655.915282285
 21
403.921306687
 31
0.0
  0
LINE
  5
21B
330
1F
100
AcDbEntity
  8
0
  6
SLD-Katı
 62
     7
370
    25
100
AcDbLine
 10
655.915282285
 20
394.2075824314
 30
0.0
 11
656.108297026
 21
394.2075824314
 31
0.0
  0
ARC
  5
21C
330
1F
100
AcDbEntity
  8
0
  6
SLD-Katı
 62
     7
370
    25
100
AcDbCircle
 10
654.4778693003
 20
394.1076431372
 30
0.0
 40
1.440883045631701
100
AcDbArc
 50
356.0227855332
 51
3.9772144668
  0
ARC
  5
21D
330
1F
100
AcDbEntity
  8
0
  6
SLD-Katı
 62
     7
370
    25
100
AcDbCircle
 10
654.4778993625
 20
392.9212457449
 30
0.0
 40
1.440853023541692
100
AcDbArc
 50
356.0227210911
 51
3.9772789089
  0
LINE
  5
21E
330
1F
100
AcDbEntity
  8
0
  6
SLD-Katı
 62
     7
370
    25
100
AcDbLine
 10
655.915282285
 20
392.8213069164
 30
0.0
 11
656.108297026
 21
392.8213069164
 31
0.0
  0
LINE
  5
21F
330
1F
100
AcDbEntity
  8
0
  6
SLD-Katı
 62
     7
370
    25
100
AcDbLine
 10
655.915282285
 20
383.1075817296
 30
0.0
 11
655.915282285
 21
392.8213069164
 31
0.0
  0
LINE
  5
220
330
1F
100
AcDbEntity
  8
0
  6
SLD-Katı
 62
     7
370
    25
100
AcDbLine
 10
655.915282285
 20
383.1075817296
 30
0.0
 11
656.108297026
 21
383.1075817296
 31
0.0
  0
ARC
  5
221
330
1F
100
AcDbEntity
  8
0
  6
SLD-Katı
 62
     7
370
    25
100
AcDbCircle
 10
654.4778682656
 20
383.0076424354
 30
0.0
 40
1.440884077843652
100
AcDbArc
 50
356.022788387
 51
3.977211613
  0
ARC
  5
222
330
1F
100
AcDbEntity
  8
0
  6
SLD-Katı
 62
     7
370
    25
100
AcDbCircle
 10
654.4778771839
 20
381.8212455088
 30
0.0
 40
1.440875180983298
100
AcDbArc
 50
356.0227637897
 51
3.9772362103
  0
LINE
  5
223
330
1F
100
AcDbEntity
  8
0
  6
SLD-Katı
 62
     7
370
    25
100
AcDbLine
 10
655.915282285
 20
381.7213062146
 30
0.0
 11
656.108297026
 21
381.7213062146
 31
0.0
  0
LINE
  5
224
330
1F
100
AcDbEntity
  8
0
  6
SLD-Katı
 62
     7
370
    25
100
AcDbLine
 10
655.915282285
 20
372.007581959
 30
0.0
 11
655.915282285
 21
381.7213062146
 31
0.0
  0
LINE
  5
225
330
1F
100
AcDbEntity
  8
0
  6
SLD-Katı
 62
     7
370
    25
100
AcDbLine
 10
656.108297026
 20
372.007581959
 30
0.0
 11
655.915282285
 21
372.007581959
 31
0.0
  0
ARC
  5
226
330
1F
100
AcDbEntity
  8
0
  6
SLD-Katı
 62
     7
370
    25
100
AcDbCircle
 10
654.4778900264
 20
371.9076435962
 30
0.0
 40
1.440862304834085
100
AcDbArc
 50
356.0227653136
 51
3.9772346864
  0
ARC
  5
227
330
1F
100
AcDbEntity
  8
0
  6
SLD-Katı
 62
     7
370
    25
100
AcDbCircle
 10
654.4779037238
 20
370.7212466696
 30
0.0
 40
1.440848640433192
100
AcDbArc
 50
356.0227275345
 51
3.9772724655
  0
LINE
  5
228
330
1F
100
AcDbEntity
  8
0
  6
SLD-Katı
 62
     7
370
    25
100
AcDbLine
 10
655.915282285
 20
360.8075823584
 30
0.0
 11
655.915282285
 21
370.6213083067
 31
0.0
  0
LINE
  5
229
330
1F
100
AcDbEntity
  8
0
  6
SLD-Katı
 62
     7
370
    25
100
AcDbLine
 10
655.915282285
 20
370.6213083067
 30
0.0
 11
656.108297026
 21
370.6213083067
 31
0.0
  0
LINE
  5
22A
330
1F
100
AcDbEntity
  8
0
  6
SLD-Katı
 62
     7
370
    25
100
AcDbLine
 10
656.108297026
 20
360.8075823584
 30
0.0
 11
655.915282285
 21
360.8075823584
 31
0.0
  0
ARC
  5
22B
330
1F
100
AcDbEntity
  8
0
  6
SLD-Katı
 62
     7
370
    25
100
AcDbCircle
 10
654.4778900264
 20
360.7076439955
 30
0.0
 40
1.440862304834085
100
AcDbArc
 50
356.0227653136
 51
3.9772346864
  0
LINE
  5
22C
330
1F
100
AcDbEntity
  8
0
  6
SLD-Katı
 62
     7
370
    25
100
AcDbLine
 10
344.7083007453
 20
456.3144441643
 30
0.0
 11
656.108297026
 21
456.3144441643
 31
0.0
  0
LINE
  5
22D
330
1F
100
AcDbEntity
  8
0
  6
SLD-Katı
 62
     7
370
    25
100
AcDbLine
 10
344.7083007453
 20
457.3144461909
 30
0.0
 11
656.108297026
 21
457.3144461909
 31
0.0
  0
LINE
  5
22E
330
1F
100
AcDbEntity
  8
0
  6
SLD-Katı
 62
     7
370
    25
100
AcDbLine
 10
344.7083007453
 20
458.8144455054
 30
0.0
 11
656.108297026
 21
458.8144455054
 31
0.0
  0
LINE
  5
22F
330
1F
100
AcDbEntity
  8
0
  6
SLD-Katı
 62
     7
370
    25
100
AcDbLine
 10
344.7083007453
 20
352.9144447246
 30
0.0
 11
656.108297026
 21
352.9144447246
 31
0.0
  0
LINE
  5
230
330
1F
100
AcDbEntity
  8
0
  6
SLD-Katı
 62
     7
370
    25
100
AcDbLine
 10
344.7083007453
 20
351.914442698
 30
0.0
 11
656.108297026
 21
351.914442698
 31
0.0
  0
LINE
  5
231
330
1F
100
AcDbEntity
  8
0
  6
SLD-Katı
 62
     7
370
    25
100
AcDbLine
 10
344.7083007453
 20
350.4144433835
 30
0.0
 11
656.108297026
 21
350.4144433835
 31
0.0
  0
LINE
  5
232
330
1F
100
AcDbEntity
  8
0
  6
SLD-Katı
 62
     7
370
    25
100
AcDbLine
 10
656.108297026
 20
450.1144435206
 30
0.0
 11
655.8082919477
 21
450.1144435206
 31
0.0
  0
LINE
  5
233
330
1F
100
AcDbEntity
  8
0
  6
SLD-Katı
 62
     7
370
    25
100
AcDbLine
 10
345.0083058236
 20
450.1144435206
 30
0.0
 11
344.7083007453
 21
450.1144435206
 31
0.0
  0
LINE
  5
234
330
1F
100
AcDbEntity
  8
0
  6
SLD-Katı
 62
     7
370
    25
100
AcDbLine
 10
344.7083007453
 20
359.1144453683
 30
0.0
 11
345.0083058236
 21
359.1144453683
 31
0.0
  0
LINE
  5
235
330
1F
100
AcDbEntity
  8
0
  6
SLD-Katı
 62
     7
370
    25
100
AcDbLine
 10
655.8082919477
 20
359.1144453683
 30
0.0
 11
656.108297026
 21
359.1144453683
 31
0.0
  0
LINE
  5
236
330
1F
100
AcDbEntity
  8
0
  6
SLD-Katı
 62
     7
370
    25
100
AcDbLine
 10
347.4083017467
 20
454.6144451895
 30
0.0
 11
653.4082960246
 21
454.6144451895
 31
0.0
  0
ARC
  5
237
330
1F
100
AcDbEntity
  8
0
  6
SLD-Katı
 62
     7
370
    25
100
AcDbCircle
 10
653.4082988856
 20
453.6144444444
 30
0.0
 40
1.0
100
AcDbArc
 50
0.0
 51
90.0
  0
LINE
  5
238
330
1F
100
AcDbEntity
  8
0
  6
SLD-Katı
 62
     7
370
    25
100
AcDbLine
 10
654.4082980512
 20
453.6144431629
 30
0.0
 11
654.4082980512
 21
355.6144457259
 31
0.0
  0
ARC
  5
239
330
1F
100
AcDbEntity
  8
0
  6
SLD-Katı
 62
     7
370
    25
100
AcDbCircle
 10
653.4082988856
 20
355.6144444444
 30
0.0
 40
1.0
100
AcDbArc
 50
270.0
 51
0.0
  0
LINE
  5
23A
330
1F
100
AcDbEntity
  8
0
  6
SLD-Katı
 62
     7
370
    25
100
AcDbLine
 10
653.4082960246
 20
354.6144436994
 30
0.0
 11
347.4083017467
 21
354.6144436994
 31
0.0
  0
ARC
  5
23B
330
1F
100
AcDbEntity
  8
0
  6
SLD-Katı
 62
     7
370
    25
100
AcDbCircle
 10
347.4082988856
 20
355.6144444444
 30
0.0
 40
1.0
100
AcDbArc
 50
180.0
 51
270.0
  0
LINE
  5
23C
330
1F
100
AcDbEntity
  8
0
  6
SLD-Katı
 62
     7
370
    25
100
AcDbLine
 10
346.4082997201
 20
355.6144457259
 30
0.0
 11
346.4082997201
 21
453.6144431629
 31
0.0
  0
ARC
  5
23D
330
1F
100
AcDbEntity
  8
0
  6
SLD-Katı
 62
     7
370
    25
100
AcDbCircle
 10
347.4082988856
 20
453.6144444444
 30
0.0
 40
1.0
100
AcDbArc
 50
90.0
 51
180.0
  0
LINE
  5
23E
330
1F
100
AcDbEntity
  8
0
  6
SLD-Katı
 62
     7
370
    25
100
AcDbLine
 10
356.4083050845
 20
374.614445115
 30
0.0
 11
356.4083050845
 21
444.6144435504
 31
0.0
  0
LINE
  5
23F
330
1F
100
AcDbEntity
  8
0
  6
SLD-Katı
 62
     7
370
    25
100
AcDbLine
 10
644.4082926868
 20
374.614445115
 30
0.0
 11
356.4083050845
 21
374.614445115
 31
0.0
  0
LINE
  5
240
330
1F
100
AcDbEntity
  8
0
  6
SLD-Katı
 62
     7
370
    25
100
AcDbLine
 10
644.4082926868
 20
444.6144435504
 30
0.0
 11
644.4082926868
 21
374.614445115
 31
0.0
  0
LINE
  5
241
330
1F
100
AcDbEntity
  8
0
  6
SLD-Katı
 62
     7
370
    25
100
AcDbLine
 10
356.4083050845
 20
444.6144435504
 30
0.0
 11
644.4082926868
 21
444.6144435504
 31
0.0
  0
LINE
  5
242
330
1F
100
AcDbEntity
  8
0
  6
SLD-Katı
 62
     7
370
    25
100
AcDbLine
 10
490.0470502583
 20
362.2099120119
 30
0.0
 11
490.0470502583
 21
361.1449297467
 31
0.0
  0
LINE
  5
243
330
1F
100
AcDbEntity
  8
0
  6
SLD-Katı
 62
     7
370
    25
100
AcDbLine
 10
490.0470502583
 20
361.1449297467
 30
0.0
 11
498.827396976
 21
361.1449297467
 31
0.0
  0
LINE
  5
244
330
1F
100
AcDbEntity
  8
0
  6
SLD-Katı
 62
     7
370
    25
100
AcDbLine
 10
498.827396976
 20
361.1449297467
 30
0.0
 11
498.827396976
 21
362.2099120119
 31
0.0
  0
LINE
  5
245
330
1F
100
AcDbEntity
  8
0
  6
SLD-Katı
 62
     7
370
    25
100
AcDbLine
 10
498.827396976
 20
362.2099120119
 30
0.0
 11
490.0470502583
 21
362.2099120119
 31
0.0
  0
LINE
  5
246
330
1F
100
AcDbEntity
  8
0
  6
SLD-Katı
 62
     7
370
    25
100
AcDbLine
 10
512.6789133905
 20
370.3074824014
 30
0.0
 11
512.2138844712
 21
370.3074824014
 31
0.0
  0
LINE
  5
247
330
1F
100
AcDbEntity
  8
0
  6
SLD-Katı
 62
     7
370
    25
100
AcDbLine
 10
512.2138844712
 20
370.3074824014
 30
0.0
 11
512.2138844712
 21
368.8726309636
 31
0.0
  0
LINE
  5
248
330
1F
100
AcDbEntity
  8
0
  6
SLD-Katı
 62
     7
370
    25
100
AcDbLine
 10
512.2138844712
 20
368.8726309636
 30
0.0
 11
513.6400122104
 21
368.8726309636
 31
0.0
  0
LINE
  5
249
330
1F
100
AcDbEntity
  8
0
  6
SLD-Katı
 62
     7
370
    25
100
AcDbLine
 10
513.6400122104
 20
368.8726309636
 30
0.0
 11
513.6400122104
 21
369.3464841643
 31
0.0
  0
LINE
  5
24A
330
1F
100
AcDbEntity
  8
0
  6
SLD-Katı
 62
     7
370
    25
100
AcDbLine
 10
513.6400122104
 20
369.3464841643
 30
0.0
 11
512.6789133905
 21
369.3464841643
 31
0.0
  0
LINE
  5
24B
330
1F
100
AcDbEntity
  8
0
  6
SLD-Katı
 62
     7
370
    25
100
AcDbLine
 10
512.6789133905
 20
369.3464841643
 30
0.0
 11
512.6789133905
 21
370.3074824014
 31
0.0
  0
LINE
  5
24C
330
1F
100
AcDbEntity
  8
0
  6
SLD-Katı
 62
     7
370
    25
100
AcDbLine
 10
499.0356571183
 20
367.8446557322
 30
0.0
 11
499.0356571183
 21
365.8814687231
 31
0.0
  0
SPLINE
  5
24D
330
1F
100
AcDbEntity
  8
0
  6
SLD-Katı
 62
     7
370
    25
100
AcDbSpline
210
0.0
220
0.0
230
1.0
 70
     8
 71
     3
 72
     9
 73
     5
 74
     0
 42
0.000000001
 43
0.00000001
 40
0.0
 40
0.0
 40
0.0
 40
0.0
 40
0.5476206792633718
 40
1.0
 40
1.0
 40
1.0
 40
1.0
 10
499.0356571182669
 20
365.8814687230843
 30
0.0
 10
498.9554189448644
 20
366.0604070540561
 30
0.0
 10
498.8088974995632
 20
366.3871630326881
 30
0.0
 10
498.5705899463538
 20
366.6537434039609
 30
0.0
 10
498.4627845373065
 20
366.7743388512391
 30
0.0
  0
SPLINE
  5
24E
330
1F
100
AcDbEntity
  8
0
  6
SLD-Katı
 62
     7
370
    25
100
AcDbSpline
210
0.0
220
0.0
230
1.0
 70
     8
 71
     3
 72
     9
 73
     5
 74
     0
 42
0.000000001
 43
0.00000001
 40
0.0
 40
0.0
 40
0.0
 40
0.0
 40
0.5612677968700138
 40
1.0
 40
1.0
 40
1.0
 40
1.0
 10
498.4627845373065
 20
366.7743388512391
 30
0.0
 10
498.1777446555738
 20
367.0177144786396
 30
0.0
 10
497.6698946001773
 20
367.4513321363029
 30
0.0
 10
497.0095888978107
 20
367.5076102817745
 30
0.0
 10
496.719891522272
 20
367.5323013165253
 30
0.0
  0
SPLINE
  5
24F
330
1F
100
AcDbEntity
  8
0
  6
SLD-Katı
 62
     7
370
    25
100
AcDbSpline
210
0.0
220
0.0
230
1.0
 70
     8
 71
     3
 72
     9
 73
     5
 74
     0
 42
0.000000001
 43
0.00000001
 40
0.0
 40
0.0
 40
0.0
 40
0.0
 40
0.5595571420637881
 40
1.0
 40
1.0
 40
1.0
 40
1.0
 10
496.719891522272
 20
367.5323013165253
 30
0.0
 10
496.3340628395088
 20
367.4920037752204
 30
0.0
 10
495.6445377601931
 20
367.4199869278324
 30
0.0
 10
495.1270743203331
 20
366.9662235631623
 30
0.0
 10
494.8991612440036
 20
366.7663667300004
 30
0.0
  0
SPLINE
  5
250
330
1F
100
AcDbEntity
  8
0
  6
SLD-Katı
 62
     7
370
    25
100
AcDbSpline
210
0.0
220
0.0
230
1.0
 70
     8
 71
     3
 72
     9
 73
     5
 74
     0
 42
0.000000001
 43
0.00000001
 40
0.0
 40
0.0
 40
0.0
 40
0.0
 40
0.5672201814863186
 40
1.0
 40
1.0
 40
1.0
 40
1.0
 10
494.8991612440036
 20
366.7663667300004
 30
0.0
 10
494.7565325516339
 20
366.6024180031056
 30
0.0
 10
494.5050804753062
 20
366.3133790509564
 30
0.0
 10
494.3624852998086
 20
365.9588161575342
 30
0.0
 10
494.3007729856358
 20
365.8053684928673
 30
0.0
  0
SPLINE
  5
251
330
1F
100
AcDbEntity
  8
0
  6
SLD-Katı
 62
     7
370
    25
100
AcDbSpline
210
0.0
220
0.0
230
1.0
 70
     8
 71
     3
 72
     9
 73
     5
 74
     0
 42
0.000000001
 43
0.00000001
 40
0.0
 40
0.0
 40
0.0
 40
0.0
 40
0.5940867834545874
 40
1.0
 40
1.0
 40
1.0
 40
1.0
 10
494.3007729856358
 20
365.8053684928673
 30
0.0
 10
494.2957800036654
 20
365.8595649355381
 30
0.0
 10
494.2873755380057
 20
365.9507914098179
 30
0.0
 10
494.2711458759778
 20
366.0409334538661
 30
0.0
 10
494.2645580416606
 20
366.0775233009117
 30
0.0
  0
SPLINE
  5
252
330
1F
100
AcDbEntity
  8
0
  6
SLD-Katı
 62
     7
370
    25
100
AcDbSpline
210
0.0
220
0.0
230
1.0
 70
     8
 71
     3
 72
     9
 73
     5
 74
     0
 42
0.000000001
 43
0.00000001
 40
0.0
 40
0.0
 40
0.0
 40
0.0
 40
0.5681165763461573
 40
0.9999999999999999
 40
0.9999999999999999
 40
0.9999999999999999
 40
0.9999999999999999
 10
494.2645580416606
 20
366.0775233009118
 30
0.0
 10
494.2163923926142
 20
366.2453355057968
 30
0.0
 10
494.1316111152288
 20
366.5407189039797
 30
0.0
 10
493.9447598323317
 20
366.783467543721
 30
0.0
 10
493.86406186056
 20
366.8883066573399
 30
0.0
  0
SPLINE
  5
253
330
1F
100
AcDbEntity
  8
0
  6
SLD-Katı
 62
     7
370
    25
100
AcDbSpline
210
0.0
220
0.0
230
1.0
 70
     8
 71
     3
 72
    10
 73
     6
 74
     0
 42
0.000000001
 43
0.00000001
 40
0.0
 40
0.0
 40
0.0
 40
0.0
 40
0.2867408675325775
 40
0.5597322684578476
 40
1.0
 40
1.0
 40
1.0
 40
1.0
 10
493.86406186056
 20
366.8883066573399
 30
0.0
 10
493.7556410261322
 20
366.9973564702305
 30
0.0
 10
493.5439982277945
 20
367.2102270654457
 30
0.0
 10
493.0653822982179
 20
367.4738881782984
 30
0.0
 10
492.6810062734068
 20
367.5100067166665
 30
0.0
 10
492.4437455741749
 20
367.5323013165253
 30
0.0
  0
SPLINE
  5
254
330
1F
100
AcDbEntity
  8
0
  6
SLD-Katı
 62
     7
370
    25
100
AcDbSpline
210
0.0
220
0.0
230
1.0
 70
     8
 71
     3
 72
     9
 73
     5
 74
     0
 42
0.000000001
 43
0.00000001
 40
0.0
 40
0.0
 40
0.0
 40
0.0
 40
0.5574052121244
 40
1.0
 40
1.0
 40
1.0
 40
1.0
 10
492.4437455741749
 20
367.5323013165253
 30
0.0
 10
492.3139328751076
 20
367.5254833280787
 30
0.0
 10
492.0810453881527
 20
367.5132516727257
 30
0.0
 10
491.861406735804
 20
367.435945292515
 30
0.0
 10
491.7641958130584
 20
367.4017298915642
 30
0.0
  0
SPLINE
  5
255
330
1F
100
AcDbEntity
  8
0
  6
SLD-Katı
 62
     7
370
    25
100
AcDbSpline
210
0.0
220
0.0
230
1.0
 70
     8
 71
     3
 72
     9
 73
     5
 74
     0
 42
0.000000001
 43
0.00000001
 40
0.0
 40
0.0
 40
0.0
 40
0.0
 40
0.5917278674243368
 40
1.0
 40
1.0
 40
1.0
 40
1.0
 10
491.7641958130584
 20
367.4017298915642
 30
0.0
 10
491.6371423100225
 20
367.347336673265
 30
0.0
 10
491.4224262048154
 20
367.2554139816129
 30
0.0
 10
491.2687614350307
 20
367.0813468651441
 30
0.0
 10
491.2060243917689
 20
367.0102801122922
 30
0.0
  0
LINE
  5
256
330
1F
100
AcDbEntity
  8
0
  6
SLD-Katı
 62
     7
370
    25
100
AcDbLine
 10
491.2060243918
 20
367.0102801123
 30
0.0
 11
491.2060243918
 21
368.9876120487
 31
0.0
  0
LINE
  5
257
330
1F
100
AcDbEntity
  8
0
  6
SLD-Katı
 62
     7
370
    25
100
AcDbLine
 10
491.2060243918
 20
368.9876120487
 30
0.0
 11
490.0470502583
 21
368.9876120487
 31
0.0
  0
LINE
  5
258
330
1F
100
AcDbEntity
  8
0
  6
SLD-Katı
 62
     7
370
    25
100
AcDbLine
 10
490.0470502583
 20
368.9876120487
 30
0.0
 11
490.0470502583
 21
362.3943585851
 31
0.0
  0
LINE
  5
259
330
1F
100
AcDbEntity
  8
0
  6
SLD-Katı
 62
     7
370
    25
100
AcDbLine
 10
490.0470502583
 20
362.3943585851
 30
0.0
 11
491.2060243918
 21
362.3943585851
 31
0.0
  0
LINE
  5
25A
330
1F
100
AcDbEntity
  8
0
  6
SLD-Katı
 62
     7
370
    25
100
AcDbLine
 10
491.2060243918
 20
362.3943585851
 30
0.0
 11
491.2060243918
 21
364.8925531605
 31
0.0
  0
SPLINE
  5
25B
330
1F
100
AcDbEntity
  8
0
  6
SLD-Katı
 62
     7
370
    25
100
AcDbSpline
210
0.0
220
0.0
230
1.0
 70
     8
 71
     3
 72
    10
 73
     6
 74
     0
 42
0.000000001
 43
0.00000001
 40
0.0
 40
0.0
 40
0.0
 40
0.0
 40
0.6629784023180776
 40
0.8498302022485121
 40
0.9999999999999999
 40
0.9999999999999999
 40
0.9999999999999999
 40
0.9999999999999999
 10
491.2060243917689
 20
364.8925531604546
 30
0.0
 10
491.2118542551481
 20
365.139453647451
 30
0.0
 10
491.2193271893452
 20
365.4559398105987
 30
0.0
 10
491.3054407482409
 20
365.8203376482131
 30
0.0
 10
491.3632668829123
 20
365.9318112698921
 30
0.0
 10
491.3890330029712
 20
365.9814815917271
 30
0.0
  0
SPLINE
  5
25C
330
1F
100
AcDbEntity
  8
0
  6
SLD-Katı
 62
     7
370
    25
100
AcDbSpline
210
0.0
220
0.0
230
1.0
 70
     8
 71
     3
 72
    10
 73
     6
 74
     0
 42
0.000000001
 43
0.00000001
 40
0.0
 40
0.0
 40
0.0
 40
0.0
 40
0.2830795789759843
 40
0.5514301110265606
 40
1.0
 40
1.0
 40
1.0
 40
1.0
 10
491.3890330029712
 20
365.9814815917271
 30
0.0
 10
491.4421556519575
 20
366.0523375849027
 30
0.0
 10
491.5456369003561
 20
366.1903628296944
 30
0.0
 10
491.8149824429607
 20
366.3646391100232
 30
0.0
 10
492.0408794187415
 20
366.3860966970174
 30
0.0
 10
492.1822208819971
 20
366.3995224931496
 30
0.0
  0
SPLINE
  5
25D
330
1F
100
AcDbEntity
  8
0
  6
SLD-Katı
 62
     7
370
    25
100
AcDbSpline
210
0.0
220
0.0
230
1.0
 70
     8
 71
     3
 72
    11
 73
     7
 74
     0
 42
0.000000001
 43
0.00000001
 40
0.0
 40
0.0
 40
0.0
 40
0.0
 40
0.3089131202346591
 40
0.5793207234204693
 40
0.7843314770825426
 40
1.0
 40
1.0
 40
1.0
 40
1.0
 10
492.1822208819971
 20
366.3995224931496
 30
0.0
 10
492.2872787134907
 20
366.3938356610491
 30
0.0
 10
492.4842990889786
 20
366.3831708512026
 30
0.0
 10
492.7331836580499
 20
366.2751573494902
 30
0.0
 10
492.912275429112
 20
366.1185620222647
 30
0.0
 10
492.9824677721245
 20
365.9936788671878
 30
0.0
 10
493.0184530934379
 20
365.9296553530949
 30
0.0
  0
SPLINE
  5
25E
330
1F
100
AcDbEntity
  8
0
  6
SLD-Katı
 62
     7
370
    25
100
AcDbSpline
210
0.0
220
0.0
230
1.0
 70
     8
 71
     3
 72
     9
 73
     5
 74
     0
 42
0.000000001
 43
0.00000001
 40
0.0
 40
0.0
 40
0.0
 40
0.0
 40
0.4805288932500591
 40
1.0
 40
1.0
 40
1.0
 40
1.0
 10
493.0184530934379
 20
365.9296553530949
 30
0.0
 10
493.0655193511565
 20
365.7697807868211
 30
0.0
 10
493.1634661310062
 20
365.4370753688546
 30
0.0
 10
493.164790930558
 20
365.0900760178802
 30
0.0
 10
493.1654791256473
 20
364.909819880988
 30
0.0
  0
LINE
  5
25F
330
1F
100
AcDbEntity
  8
0
  6
SLD-Katı
 62
     7
370
    25
100
AcDbLine
 10
493.1654791256
 20
364.909819881
 30
0.0
 11
493.1654791256
 21
362.3943585851
 31
0.0
  0
LINE
  5
260
330
1F
100
AcDbEntity
  8
0
  6
SLD-Katı
 62
     7
370
    25
100
AcDbLine
 10
493.1654791256
 20
362.3943585851
 30
0.0
 11
494.325610893
 21
362.3943585851
 31
0.0
  0
LINE
  5
261
330
1F
100
AcDbEntity
  8
0
  6
SLD-Katı
 62
     7
370
    25
100
AcDbLine
 10
494.325610893
 20
362.3943585851
 30
0.0
 11
494.325610893
 21
364.0029910901
 31
0.0
  0
SPLINE
  5
262
330
1F
100
AcDbEntity
  8
0
  6
SLD-Katı
 62
     7
370
    25
100
AcDbSpline
210
0.0
220
0.0
230
1.0
 70
     8
 71
     3
 72
     9
 73
     5
 74
     0
 42
0.000000001
 43
0.00000001
 40
0.0
 40
0.0
 40
0.0
 40
0.0
 40
0.5496451045326876
 40
1.0
 40
1.0
 40
1.0
 40
1.0
 10
494.3256108930395
 20
364.0029910900849
 30
0.0
 10
494.4064010368172
 20
363.8271641352675
 30
0.0
 10
494.5533870521775
 20
363.5072723480625
 30
0.0
 10
494.7917936607301
 20
363.2490174706301
 30
0.0
 10
494.8991612440036
 20
363.1327111223
 30
0.0
  0
SPLINE
  5
263
330
1F
100
AcDbEntity
  8
0
  6
SLD-Katı
 62
     7
370
    25
100
AcDbSpline
210
0.0
220
0.0
230
1.0
 70
     8
 71
     3
 72
     9
 73
     5
 74
     0
 42
0.000000001
 43
0.00000001
 40
0.0
 40
0.0
 40
0.0
 40
0.0
 40
0.5572823179662924
 40
1.0
 40
1.0
 40
1.0
 40
1.0
 10
494.8991612440036
 20
363.1327111223
 30
0.0
 10
495.1958778093713
 20
362.8948884884874
 30
0.0
 10
495.7283127275479
 20
362.4681341735822
 30
0.0
 10
496.4040926035084
 20
362.4151410806757
 30
0.0
 10
496.7032723037586
 20
362.3916801014203
 30
0.0
  0
SPLINE
  5
264
330
1F
100
AcDbEntity
  8
0
  6
SLD-Katı
 62
     7
370
    25
100
AcDbSpline
210
0.0
220
0.0
230
1.0
 70
     8
 71
     3
 72
     9
 73
     5
 74
     0
 42
0.000000001
 43
0.00000001
 40
0.0
 40
0.0
 40
0.0
 40
0.0
 40
0.5522051089347756
 40
0.9999999999999999
 40
0.9999999999999999
 40
0.9999999999999999
 40
0.9999999999999999
 10
496.7032723037586
 20
362.3916801014203
 30
0.0
 10
496.9831950470403
 20
362.416579113295
 30
0.0
 10
497.4901131083775
 20
362.4616692645305
 30
0.0
 10
497.9264589385467
 20
362.7202081721728
 30
0.0
 10
498.121852372034
 20
362.8359805741566
 30
0.0
  0
SPLINE
  5
265
330
1F
100
AcDbEntity
  8
0
  6
SLD-Katı
 62
     7
370
    25
100
AcDbSpline
210
0.0
220
0.0
230
1.0
 70
     8
 71
     3
 72
     9
 73
     5
 74
     0
 42
0.000000001
 43
0.00000001
 40
0.0
 40
0.0
 40
0.0
 40
0.0
 40
0.5793675063849347
 40
0.9999999999999999
 40
0.9999999999999999
 40
0.9999999999999999
 40
0.9999999999999999
 10
498.121852372034
 20
362.8359805741566
 30
0.0
 10
498.3473137560208
 20
363.009765256036
 30
0.0
 10
498.736464651613
 20
363.3097211216382
 30
0.0
 10
498.9359068180721
 20
363.755374911948
 30
0.0
 10
499.0197986738817
 20
363.942831377055
 30
0.0
  0
LINE
  5
266
330
1F
100
AcDbEntity
  8
0
  6
SLD-Katı
 62
     7
370
    25
100
AcDbLine
 10
499.0197986739
 20
363.9428313771
 30
0.0
 11
497.738388451
 21
363.9428313771
 31
0.0
  0
SPLINE
  5
267
330
1F
100
AcDbEntity
  8
0
  6
SLD-Katı
 62
     7
370
    25
100
AcDbSpline
210
0.0
220
0.0
230
1.0
 70
     8
 71
     3
 72
    10
 73
     6
 74
     0
 42
0.000000001
 43
0.00000001
 40
0.0
 40
0.0
 40
0.0
 40
0.0
 40
0.2598937360815611
 40
0.5269056582883238
 40
1.0
 40
1.0
 40
1.0
 40
1.0
 10
497.7383884510086
 20
363.942831377055
 30
0.0
 10
497.6635174254693
 20
363.8711128552328
 30
0.0
 10
497.5117247443786
 20
363.7257115249739
 30
0.0
 10
497.142849687826
 20
363.5574090477803
 30
0.0
 10
496.8473696888663
 20
363.5375307230757
 30
0.0
 10
496.6584915204034
 20
363.5248240032452
 30
0.0
  0
SPLINE
  5
268
330
1F
100
AcDbEntity
  8
0
  6
SLD-Katı
 62
     7
370
    25
100
AcDbSpline
210
0.0
220
0.0
230
1.0
 70
     8
 71
     3
 72
     9
 73
     5
 74
     0
 42
0.000000001
 43
0.00000001
 40
0.0
 40
0.0
 40
0.0
 40
0.0
 40
0.5576518719532957
 40
1.0
 40
1.0
 40
1.0
 40
1.0
 10
496.6584915204034
 20
363.5248240032452
 30
0.0
 10
496.4997637248022
 20
363.5381665894839
 30
0.0
 10
496.2151277295079
 20
363.5620929616701
 30
0.0
 10
495.9731173640494
 20
363.7115766183078
 30
0.0
 10
495.8660645319209
 20
363.7777004339951
 30
0.0
  0
SPLINE
  5
269
330
1F
100
AcDbEntity
  8
0
  6
SLD-Katı
 62
     7
370
    25
100
AcDbSpline
210
0.0
220
0.0
230
1.0
 70
     8
 71
     3
 72
     9
 73
     5
 74
     0
 42
0.000000001
 43
0.00000001
 40
0.0
 40
0.0
 40
0.0
 40
0.0
 40
0.5561316016063198
 40
1.0
 40
1.0
 40
1.0
 40
1.0
 10
495.8660645319209
 20
363.7777004339951
 30
0.0
 10
495.7471464477937
 20
363.8813630285563
 30
0.0
 10
495.5333156138979
 20
364.0677624244219
 30
0.0
 10
495.4316728271826
 20
364.3312838531889
 30
0.0
 10
495.3865568062351
 20
364.4482526877183
 30
0.0
  0
LINE
  5
26A
330
1F
100
AcDbEntity
  8
0
  6
SLD-Katı
 62
     7
370
    25
100
AcDbLine
 10
495.3865568062
 20
364.4482526877
 30
0.0
 11
499.0356571183
 21
364.4482526877
 31
0.0
  0
LINE
  5
26B
330
1F
100
AcDbEntity
  8
0
  6
SLD-Katı
 62
     7
370
    25
100
AcDbLine
 10
499.0356571183
 20
364.4482526877
 30
0.0
 11
499.0356571183
 21
361.1359331706
 31
0.0
  0
LINE
  5
26C
330
1F
100
AcDbEntity
  8
0
  6
SLD-Katı
 62
     7
370
    25
100
AcDbLine
 10
499.0356571183
 20
361.1359331706
 30
0.0
 11
500.1951273992
 21
361.1359331706
 31
0.0
  0
LINE
  5
26D
330
1F
100
AcDbEntity
  8
0
  6
SLD-Katı
 62
     7
370
    25
100
AcDbLine
 10
500.1951273992
 20
361.1359331706
 30
0.0
 11
500.1951273992
 21
363.0722198584
 31
0.0
  0
SPLINE
  5
26E
330
1F
100
AcDbEntity
  8
0
  6
SLD-Katı
 62
     7
370
    25
100
AcDbSpline
210
0.0
220
0.0
230
1.0
 70
     8
 71
     3
 72
    10
 73
     6
 74
     0
 42
0.000000001
 43
0.00000001
 40
0.0
 40
0.0
 40
0.0
 40
0.0
 40
0.282230755370086
 40
0.5534177516975012
 40
0.9999999999999999
 40
0.9999999999999999
 40
0.9999999999999999
 40
0.9999999999999999
 10
500.1951273992485
 20
363.0722198584336
 30
0.0
 10
500.3030045102665
 20
362.9567605678832
 30
0.0
 10
500.514537474351
 20
362.7303599372885
 30
0.0
 10
501.0127177784224
 20
362.4511192188032
 30
0.0
 10
501.4165346150392
 20
362.414477731551
 30
0.0
 10
501.6677817005724
 20
362.3916801014203
 30
0.0
  0
SPLINE
  5
26F
330
1F
100
AcDbEntity
  8
0
  6
SLD-Katı
 62
     7
370
    25
100
AcDbSpline
210
0.0
220
0.0
230
1.0
 70
     8
 71
     3
 72
     9
 73
     5
 74
     0
 42
0.000000001
 43
0.00000001
 40
0.0
 40
0.0
 40
0.0
 40
0.0
 40
0.5554482280685682
 40
1.0
 40
1.0
 40
1.0
 40
1.0
 10
501.6677817005724
 20
362.3916801014203
 30
0.0
 10
502.038612127436
 20
362.433903235314
 30
0.0
 10
502.7062358736721
 20
362.5099195618771
 30
0.0
 10
503.1935562018999
 20
362.9654339940909
 30
0.0
 10
503.4101953173117
 20
363.167933742072
 30
0.0
  0
SPLINE
  5
270
330
1F
100
AcDbEntity
  8
0
  6
SLD-Katı
 62
     7
370
    25
100
AcDbSpline
210
0.0
220
0.0
230
1.0
 70
     8
 71
     3
 72
     9
 73
     5
 74
     0
 42
0.000000001
 43
0.00000001
 40
0.0
 40
0.0
 40
0.0
 40
0.0
 40
0.5657487357839572
 40
1.0
 40
1.0
 40
1.0
 40
1.0
 10
503.4101953173117
 20
363.167933742072
 30
0.0
 10
503.5154560302881
 20
363.2955058915974
 30
0.0
 10
503.7015116170154
 20
363.5209984847864
 30
0.0
 10
503.8256561444501
 20
363.7852293325047
 30
0.0
 10
503.8795660624341
 20
363.8999719121712
 30
0.0
  0
SPLINE
  5
271
330
1F
100
AcDbEntity
  8
0
  6
SLD-Katı
 62
     7
370
    25
100
AcDbSpline
210
0.0
220
0.0
230
1.0
 70
     8
 71
     3
 72
     9
 73
     5
 74
     0
 42
0.000000001
 43
0.00000001
 40
0.0
 40
0.0
 40
0.0
 40
0.0
 40
0.5501102439750449
 40
1.0
 40
1.0
 40
1.0
 40
1.0
 10
503.8795660624341
 20
363.8999719121712
 30
0.0
 10
503.9579974919399
 20
363.7460923437593
 30
0.0
 10
504.1005715129926
 20
363.4663673793595
 30
0.0
 10
504.3135689472483
 20
363.2362421193713
 30
0.0
 10
504.4093943109796
 20
363.1327111223
 30
0.0
  0
SPLINE
  5
272
330
1F
100
AcDbEntity
  8
0
  6
SLD-Katı
 62
     7
370
    25
100
AcDbSpline
210
0.0
220
0.0
230
1.0
 70
     8
 71
     3
 72
     9
 73
     5
 74
     0
 42
0.000000001
 43
0.00000001
 40
0.0
 40
0.0
 40
0.0
 40
0.0
 40
0.5575956509067009
 40
1.0
 40
1.0
 40
1.0
 40
1.0
 10
504.4093943109796
 20
363.1327111223
 30
0.0
 10
504.7064806531075
 20
362.8948880888731
 30
0.0
 10
505.2392795399797
 20
362.4683728658076
 30
0.0
 10
505.9151675697144
 20
362.4152027790455
 30
0.0
 10
506.214183373569
 20
362.3916801014203
 30
0.0
  0
SPLINE
  5
273
330
1F
100
AcDbEntity
  8
0
  6
SLD-Katı
 62
     7
370
    25
100
AcDbSpline
210
0.0
220
0.0
230
1.0
 70
     8
 71
     3
 72
     9
 73
     5
 74
     0
 42
0.000000001
 43
0.00000001
 40
0.0
 40
0.0
 40
0.0
 40
0.0
 40
0.5518986941842582
 40
1.0
 40
1.0
 40
1.0
 40
1.0
 10
506.214183373569
 20
362.3916801014203
 30
0.0
 10
506.4940026075463
 20
362.4166339254117
 30
0.0
 10
507.0010145590618
 20
362.4618484262874
 30
0.0
 10
507.4376057550912
 20
362.72020890588
 30
0.0
 10
507.6332428401396
 20
362.8359805741566
 30
0.0
  0
SPLINE
  5
274
330
1F
100
AcDbEntity
  8
0
  6
SLD-Katı
 62
     7
370
    25
100
AcDbSpline
210
0.0
220
0.0
230
1.0
 70
     8
 71
     3
 72
     9
 73
     5
 74
     0
 42
0.000000001
 43
0.00000001
 40
0.0
 40
0.0
 40
0.0
 40
0.0
 40
0.5793901243713532
 40
1.0
 40
1.0
 40
1.0
 40
1.0
 10
507.6332428401396
 20
362.8359805741566
 30
0.0
 10
507.8587441111732
 20
363.0097579954017
 30
0.0
 10
508.247948658417
 20
363.3096896199416
 30
0.0
 10
508.4473865027823
 20
363.7553726804181
 30
0.0
 10
508.5312720296965
 20
363.942831377055
 30
0.0
  0
LINE
  5
275
330
1F
100
AcDbEntity
  8
0
  6
SLD-Katı
 62
     7
370
    25
100
AcDbLine
 10
508.5312720297
 20
363.9428313771
 30
0.0
 11
507.2504240928
 21
363.9428313771
 31
0.0
  0
SPLINE
  5
276
330
1F
100
AcDbEntity
  8
0
  6
SLD-Katı
 62
     7
370
    25
100
AcDbSpline
210
0.0
220
0.0
230
1.0
 70
     8
 71
     3
 72
    10
 73
     6
 74
     0
 42
0.000000001
 43
0.00000001
 40
0.0
 40
0.0
 40
0.0
 40
0.0
 40
0.2606348550993702
 40
0.5276922716935506
 40
1.0
 40
1.0
 40
1.0
 40
1.0
 10
507.2504240928278
 20
363.942831377055
 30
0.0
 10
507.1751260031647
 20
363.8711411924902
 30
0.0
 10
507.0226743290655
 20
363.7259942345489
 30
0.0
 10
506.6539602644753
 20
363.5574732327206
 30
0.0
 10
506.3587260670657
 20
363.5375506093659
 30
0.0
 10
506.1701299531446
 20
363.5248240032452
 30
0.0
  0
SPLINE
  5
277
330
1F
100
AcDbEntity
  8
0
  6
SLD-Katı
 62
     7
370
    25
100
AcDbSpline
210
0.0
220
0.0
230
1.0
 70
     8
 71
     3
 72
     9
 73
     5
 74
     0
 42
0.000000001
 43
0.00000001
 40
0.0
 40
0.0
 40
0.0
 40
0.0
 40
0.5576807246008941
 40
1.0
 40
1.0
 40
1.0
 40
1.0
 10
506.1701299531446
 20
363.5248240032452
 30
0.0
 10
506.0112619723886
 20
363.538163533889
 30
0.0
 10
505.7263893315607
 20
363.5620831890885
 30
0.0
 10
505.484108168339
 20
363.7115766116505
 30
0.0
 10
505.3769425397799
 20
363.7777004339951
 30
0.0
  0
SPLINE
  5
278
330
1F
100
AcDbEntity
  8
0
  6
SLD-Katı
 62
     7
370
    25
100
AcDbSpline
210
0.0
220
0.0
230
1.0
 70
     8
 71
     3
 72
     9
 73
     5
 74
     0
 42
0.000000001
 43
0.00000001
 40
0.0
 40
0.0
 40
0.0
 40
0.0
 40
0.5561655343325789
 40
0.9999999999999999
 40
0.9999999999999999
 40
0.9999999999999999
 40
0.9999999999999999
 10
505.3769425397799
 20
363.7777004339951
 30
0.0
 10
505.2580275329748
 20
363.8813571834514
 30
0.0
 10
505.0442152784133
 20
364.0677346970826
 30
0.0
 10
504.9427266825952
 20
364.3312815230407
 30
0.0
 10
504.8976825458989
 20
364.4482526877183
 30
0.0
  0
LINE
  5
279
330
1F
100
AcDbEntity
  8
0
  6
SLD-Katı
 62
     7
370
    25
100
AcDbLine
 10
504.8976825459
 20
364.4482526877
 30
0.0
 11
508.5736378936
 21
364.4482526877
 31
0.0
  0
LINE
  5
27A
330
1F
100
AcDbEntity
  8
0
  6
SLD-Katı
 62
     7
370
    25
100
AcDbLine
 10
508.5736378936
 20
364.4482526877
 30
0.0
 11
508.5736378936
 21
362.3943585851
 31
0.0
  0
LINE
  5
27B
330
1F
100
AcDbEntity
  8
0
  6
SLD-Katı
 62
     7
370
    25
100
AcDbLine
 10
508.5736378936
 20
362.3943585851
 30
0.0
 11
509.732447183
 21
362.3943585851
 31
0.0
  0
LINE
  5
27C
330
1F
100
AcDbEntity
  8
0
  6
SLD-Katı
 62
     7
370
    25
100
AcDbLine
 10
509.732447183
 20
362.3943585851
 30
0.0
 11
509.732447183
 21
365.1540610888
 31
0.0
  0
SPLINE
  5
27D
330
1F
100
AcDbEntity
  8
0
  6
SLD-Katı
 62
     7
370
    25
100
AcDbSpline
210
0.0
220
0.0
230
1.0
 70
     8
 71
     3
 72
     9
 73
     5
 74
     0
 42
0.000000001
 43
0.00000001
 40
0.0
 40
0.0
 40
0.0
 40
0.0
 40
0.6525672093875345
 40
1.0
 40
1.0
 40
1.0
 40
1.0
 10
509.7324471829519
 20
365.154061088826
 30
0.0
 10
509.7324529567409
 20
365.2781757171095
 30
0.0
 10
509.7324618045482
 20
365.4683701162426
 30
0.0
 10
509.7643842966927
 20
365.6555875605956
 30
0.0
 10
509.7754752172218
 20
365.7206330397385
 30
0.0
  0
SPLINE
  5
27E
330
1F
100
AcDbEntity
  8
0
  6
SLD-Katı
 62
     7
370
    25
100
AcDbSpline
210
0.0
220
0.0
230
1.0
 70
     8
 71
     3
 72
     9
 73
     5
 74
     0
 42
0.000000001
 43
0.00000001
 40
0.0
 40
0.0
 40
0.0
 40
0.0
 40
0.561244830146827
 40
1.0
 40
1.0
 40
1.0
 40
1.0
 10
509.7754752172218
 20
365.7206330397385
 30
0.0
 10
509.8065020911067
 20
365.8219852904727
 30
0.0
 10
509.8617843355361
 20
366.0025700287013
 30
0.0
 10
510.0019908704692
 20
366.1274211556135
 30
0.0
 10
510.0635072125182
 20
366.1822002330082
 30
0.0
  0
SPLINE
  5
27F
330
1F
100
AcDbEntity
  8
0
  6
SLD-Katı
 62
     7
370
    25
100
AcDbSpline
210
0.0
220
0.0
230
1.0
 70
     8
 71
     3
 72
     9
 73
     5
 74
     0
 42
0.000000001
 43
0.00000001
 40
0.0
 40
0.0
 40
0.0
 40
0.0
 40
0.5401633006415699
 40
0.9999999999999999
 40
0.9999999999999999
 40
0.9999999999999999
 40
0.9999999999999999
 10
510.0635072125182
 20
366.1822002330082
 30
0.0
 10
510.1807039482257
 20
366.2549429493783
 30
0.0
 10
510.3976693280806
 20
366.3896109586335
 30
0.0
 10
510.6518423945499
 20
366.4027673163407
 30
0.0
 10
510.7687204985008
 20
366.4088170924443
 30
0.0
  0
LINE
  5
280
330
1F
100
AcDbEntity
  8
0
  6
SLD-Katı
 62
     7
370
    25
100
AcDbLine
 10
510.7687204985
 20
366.4088170924
 30
0.0
 11
510.7687204985
 21
368.0018182793
 31
0.0
  0
LINE
  5
281
330
1F
100
AcDbEntity
  8
0
  6
SLD-Katı
 62
     7
370
    25
100
AcDbLine
 10
510.7687204985
 20
368.0018182793
 30
0.0
 11
510.6810774563
 21
368.0018182793
 31
0.0
  0
SPLINE
  5
282
330
1F
100
AcDbEntity
  8
0
  6
SLD-Katı
 62
     7
370
    25
100
AcDbSpline
210
0.0
220
0.0
230
1.0
 70
     8
 71
     3
 72
    10
 73
     6
 74
     0
 42
0.000000001
 43
0.00000001
 40
0.0
 40
0.0
 40
0.0
 40
0.0
 40
0.2799746556217687
 40
0.5478589942892478
 40
0.9999999999999999
 40
0.9999999999999999
 40
0.9999999999999999
 40
0.9999999999999999
 10
510.6810774562941
 20
368.001818279292
 30
0.0
 10
510.56336631893
 20
367.9934672478752
 30
0.0
 10
510.3330272363094
 20
367.9771258127439
 30
0.0
 10
509.9395673686597
 20
367.7990988271471
 30
0.0
 10
509.7475326562729
 20
367.5598907410702
 30
0.0
 10
509.6269441677318
 20
367.4096796610611
 30
0.0
  0
LINE
  5
283
330
1F
100
AcDbEntity
  8
0
  6
SLD-Katı
 62
     7
370
    25
100
AcDbLine
 10
509.6269441677
 20
367.4096796611
 30
0.0
 11
509.6269441677
 21
367.8446557322
 31
0.0
  0
LINE
  5
284
330
1F
100
AcDbEntity
  8
0
  6
SLD-Katı
 62
     7
370
    25
100
AcDbLine
 10
509.6269441677
 20
367.8446557322
 30
0.0
 11
508.5736378936
 21
367.8446557322
 31
0.0
  0
LINE
  5
285
330
1F
100
AcDbEntity
  8
0
  6
SLD-Katı
 62
     7
370
    25
100
AcDbLine
 10
508.5736378936
 20
367.8446557322
 30
0.0
 11
508.5736378936
 21
365.8066909709
 31
0.0
  0
SPLINE
  5
286
330
1F
100
AcDbEntity
  8
0
  6
SLD-Katı
 62
     7
370
    25
100
AcDbSpline
210
0.0
220
0.0
230
1.0
 70
     8
 71
     3
 72
     9
 73
     5
 74
     0
 42
0.000000001
 43
0.00000001
 40
0.0
 40
0.0
 40
0.0
 40
0.0
 40
0.5479000710912318
 40
0.9999999999999999
 40
0.9999999999999999
 40
0.9999999999999999
 40
0.9999999999999999
 10
508.5736378936157
 20
365.8066909709233
 30
0.0
 10
508.4923404256076
 20
366.0014661632833
 30
0.0
 10
508.3439603243853
 20
366.3569601714738
 30
0.0
 10
508.0884962477688
 20
366.6443912713974
 30
0.0
 10
507.9730009568916
 20
366.7743388512391
 30
0.0
  0
SPLINE
  5
287
330
1F
100
AcDbEntity
  8
0
  6
SLD-Katı
 62
     7
370
    25
100
AcDbSpline
210
0.0
220
0.0
230
1.0
 70
     8
 71
     3
 72
     9
 73
     5
 74
     0
 42
0.000000001
 43
0.00000001
 40
0.0
 40
0.0
 40
0.0
 40
0.0
 40
0.5610086167260171
 40
1.0
 40
1.0
 40
1.0
 40
1.0
 10
507.9730009568916
 20
366.7743388512391
 30
0.0
 10
507.6882768941217
 20
367.0177146406492
 30
0.0
 10
507.1807551657897
 20
367.4515329139414
 30
0.0
 10
506.5205460501352
 20
367.507661396379
 30
0.0
 10
506.2307199372039
 20
367.5323013165253
 30
0.0
  0
SPLINE
  5
288
330
1F
100
AcDbEntity
  8
0
  6
SLD-Katı
 62
     7
370
    25
100
AcDbSpline
210
0.0
220
0.0
230
1.0
 70
     8
 71
     3
 72
     9
 73
     5
 74
     0
 42
0.000000001
 43
0.00000001
 40
0.0
 40
0.0
 40
0.0
 40
0.0
 40
0.5593962746213968
 40
1.0
 40
1.0
 40
1.0
 40
1.0
 10
506.2307199372039
 20
367.5323013165253
 30
0.0
 10
505.8449461028849
 20
367.491951706179
 30
0.0
 10
505.1553207839102
 20
367.4198210678875
 30
0.0
 10
504.6375333731256
 20
366.9662235057158
 30
0.0
 10
504.4093943109796
 20
366.7663667300004
 30
0.0
  0
SPLINE
  5
289
330
1F
100
AcDbEntity
  8
0
  6
SLD-Katı
 62
     7
370
    25
100
AcDbSpline
210
0.0
220
0.0
230
1.0
 70
     8
 71
     3
 72
     9
 73
     5
 74
     0
 42
0.000000001
 43
0.00000001
 40
0.0
 40
0.0
 40
0.0
 40
0.0
 40
0.5679858128260348
 40
1.0
 40
1.0
 40
1.0
 40
1.0
 10
504.4093943109796
 20
366.7663667300004
 30
0.0
 10
504.2929505956167
 20
366.6352066743622
 30
0.0
 10
504.0879389338227
 20
366.4042853156305
 30
0.0
 10
503.9509970667488
 20
366.1280637328327
 30
0.0
 10
503.8918362373547
 20
366.0087320902604
 30
0.0
  0
SPLINE
  5
28A
330
1F
100
AcDbEntity
  8
0
  6
SLD-Katı
 62
     7
370
    25
100
AcDbSpline
210
0.0
220
0.0
230
1.0
 70
     8
 71
     3
 72
     9
 73
     5
 74
     0
 42
0.000000001
 43
0.00000001
 40
0.0
 40
0.0
 40
0.0
 40
0.0
 40
0.5543911565858252
 40
1.0
 40
1.0
 40
1.0
 40
1.0
 10
503.8918362373547
 20
366.0087320902604
 30
0.0
 10
503.8221349163525
 20
366.1571223112409
 30
0.0
 10
503.6964090273765
 20
366.4247857095795
 30
0.0
 10
503.5040486180234
 20
366.648880178982
 30
0.0
 10
503.4183311184929
 20
366.748738656308
 30
0.0
  0
SPLINE
  5
28B
330
1F
100
AcDbEntity
  8
0
  6
SLD-Katı
 62
     7
370
    25
100
AcDbSpline
210
0.0
220
0.0
230
1.0
 70
     8
 71
     3
 72
     9
 73
     5
 74
     0
 42
0.000000001
 43
0.00000001
 40
0.0
 40
0.0
 40
0.0
 40
0.0
 40
0.5625882986470044
 40
1.0
 40
1.0
 40
1.0
 40
1.0
 10
503.4183311184929
 20
366.748738656308
 30
0.0
 10
503.1334824334149
 20
367.0003146491329
 30
0.0
 10
502.6271642505395
 20
367.4474906629781
 30
0.0
 10
501.9597266965916
 20
367.5064930027165
 30
0.0
 10
501.6677817005724
 20
367.5323013165253
 30
0.0
  0
SPLINE
  5
28C
330
1F
100
AcDbEntity
  8
0
  6
SLD-Katı
 62
     7
370
    25
100
AcDbSpline
210
0.0
220
0.0
230
1.0
 70
     8
 71
     3
 72
    10
 73
     6
 74
     0
 42
0.000000001
 43
0.00000001
 40
0.0
 40
0.0
 40
0.0
 40
0.0
 40
0.2953972673050221
 40
0.5677976291988956
 40
0.9999999999999999
 40
0.9999999999999999
 40
0.9999999999999999
 40
0.9999999999999999
 10
501.6677817005724
 20
367.5323013165253
 30
0.0
 10
501.4883776049971
 20
367.5214639338497
 30
0.0
 10
501.1435361612506
 20
367.5006328671101
 30
0.0
 10
500.5616955476709
 20
367.275800996747
 30
0.0
 10
500.2747080149363
 20
366.9491226908247
 30
0.0
 10
500.098670247436
 20
366.748738656308
 30
0.0
  0
LINE
  5
28D
330
1F
100
AcDbEntity
  8
0
  6
SLD-Katı
 62
     7
370
    25
100
AcDbLine
 10
500.0986702474
 20
366.7487386563
 30
0.0
 11
500.0986702474
 21
367.8446557322
 31
0.0
  0
LINE
  5
28E
330
1F
100
AcDbEntity
  8
0
  6
SLD-Katı
 62
     7
370
    25
100
AcDbLine
 10
500.0986702474
 20
367.8446557322
 30
0.0
 11
499.0356571183
 21
367.8446557322
 31
0.0
  0
LINE
  5
28F
330
1F
100
AcDbEntity
  8
0
  6
SLD-Katı
 62
     7
370
    25
100
AcDbLine
 10
511.7308782322
 20
368.3986138501
 30
0.0
 11
511.7308782322
 21
367.4369525113
 31
0.0
  0
LINE
  5
290
330
1F
100
AcDbEntity
  8
0
  6
SLD-Katı
 62
     7
370
    25
100
AcDbLine
 10
511.7308782322
 20
367.4369525113
 30
0.0
 11
512.2043831183
 21
367.4369525113
 31
0.0
  0
LINE
  5
291
330
1F
100
AcDbEntity
  8
0
  6
SLD-Katı
 62
     7
370
    25
100
AcDbLine
 10
512.2043831183
 20
367.4369525113
 30
0.0
 11
512.2043831183
 21
368.8596036234
 31
0.0
  0
LINE
  5
292
330
1F
100
AcDbEntity
  8
0
  6
SLD-Katı
 62
     7
370
    25
100
AcDbLine
 10
512.2043831183
 20
368.8596036234
 30
0.0
 11
510.7687866224
 21
368.8596036234
 31
0.0
  0
LINE
  5
293
330
1F
100
AcDbEntity
  8
0
  6
SLD-Katı
 62
     7
370
    25
100
AcDbLine
 10
510.7687866224
 20
368.8596036234
 30
0.0
 11
510.7687866224
 21
368.3986138501
 31
0.0
  0
LINE
  5
294
330
1F
100
AcDbEntity
  8
0
  6
SLD-Katı
 62
     7
370
    25
100
AcDbLine
 10
510.7687866224
 20
368.3986138501
 30
0.0
 11
511.7308782322
 21
368.3986138501
 31
0.0
  0
LINE
  5
295
330
1F
100
AcDbEntity
  8
0
  6
SLD-Katı
 62
     7
370
    25
100
AcDbLine
 10
500.4082988856
 20
362.2105713883
 30
0.0
 11
500.4082988856
 21
361.1449297467
 31
0.0
  0
LINE
  5
296
330
1F
100
AcDbEntity
  8
0
  6
SLD-Katı
 62
     7
370
    25
100
AcDbLine
 10
500.4082988856
 20
361.1449297467
 30
0.0
 11
509.7434936
 21
361.1449297467
 31
0.0
  0
LINE
  5
297
330
1F
100
AcDbEntity
  8
0
  6
SLD-Katı
 62
     7
370
    25
100
AcDbLine
 10
509.7434936
 20
361.1449297467
 30
0.0
 11
509.7434936
 21
362.2105713883
 31
0.0
  0
LINE
  5
298
330
1F
100
AcDbEntity
  8
0
  6
SLD-Katı
 62
     7
370
    25
100
AcDbLine
 10
509.7434936
 20
362.2105713883
 30
0.0
 11
500.4082988856
 21
362.2105713883
 31
0.0
  0
SPLINE
  5
299
330
1F
100
AcDbEntity
  8
0
  6
SLD-Katı
 62
     7
370
    25
100
AcDbSpline
210
0.0
220
0.0
230
1.0
 70
     8
 71
     3
 72
     9
 73
     5
 74
     0
 42
0.000000001
 43
0.00000001
 40
0.0
 40
0.0
 40
0.0
 40
0.0
 40
0.5532414681793522
 40
1.0
 40
1.0
 40
1.0
 40
1.0
 10
496.7104160135672
 20
366.3995224931496
 30
0.0
 10
496.5466543630723
 20
366.3852740172952
 30
0.0
 10
496.250650430045
 20
366.3595194839243
 30
0.0
 10
495.996985879968
 20
366.2068735429357
 30
0.0
 10
495.8836590780006
 20
366.1386776664513
 30
0.0
  0
SPLINE
  5
29A
330
1F
100
AcDbEntity
  8
0
  6
SLD-Katı
 62
     7
370
    25
100
AcDbSpline
210
0.0
220
0.0
230
1.0
 70
     8
 71
     3
 72
     9
 73
     5
 74
     0
 42
0.000000001
 43
0.00000001
 40
0.0
 40
0.0
 40
0.0
 40
0.0
 40
0.5675800779765434
 40
1.0
 40
1.0
 40
1.0
 40
1.0
 10
495.8836590780006
 20
366.1386776664513
 30
0.0
 10
495.7540335132328
 20
366.0373504947475
 30
0.0
 10
495.5256506474529
 20
365.8588256034845
 30
0.0
 10
495.4166558396293
 20
365.5920726668123
 30
0.0
 10
495.3695243133292
 20
365.476723382737
 30
0.0
  0
LINE
  5
29B
330
1F
100
AcDbEntity
  8
0
  6
SLD-Katı
 62
     7
370
    25
100
AcDbLine
 10
495.3695243133
 20
365.4767233827
 30
0.0
 11
498.0263873844
 21
365.4767233827
 31
0.0
  0
SPLINE
  5
29C
330
1F
100
AcDbEntity
  8
0
  6
SLD-Katı
 62
     7
370
    25
100
AcDbSpline
210
0.0
220
0.0
230
1.0
 70
     8
 71
     3
 72
     9
 73
     5
 74
     0
 42
0.000000001
 43
0.00000001
 40
0.0
 40
0.0
 40
0.0
 40
0.0
 40
0.5610246033787997
 40
1.0
 40
1.0
 40
1.0
 40
1.0
 10
498.0263873843537
 20
365.476723382737
 30
0.0
 10
497.962879934646
 20
365.6264519148608
 30
0.0
 10
497.8496808889621
 20
365.8933359895021
 30
0.0
 10
497.6214287893928
 20
366.0696014241508
 30
0.0
 10
497.5212317334548
 20
366.1469776132363
 30
0.0
  0
SPLINE
  5
29D
330
1F
100
AcDbEntity
  8
0
  6
SLD-Katı
 62
     7
370
    25
100
AcDbSpline
210
0.0
220
0.0
230
1.0
 70
     8
 71
     3
 72
     9
 73
     5
 74
     0
 42
0.000000001
 43
0.00000001
 40
0.0
 40
0.0
 40
0.0
 40
0.0
 40
0.5537891669761962
 40
1.0
 40
1.0
 40
1.0
 40
1.0
 10
497.5212317334548
 20
366.1469776132363
 30
0.0
 10
497.3816561480276
 20
366.2280768972795
 30
0.0
 10
497.1296187414647
 20
366.3745212282262
 30
0.0
 10
496.8397559370069
 20
366.3918086557246
 30
0.0
 10
496.7104160135672
 20
366.3995224931496
 30
0.0
  0
SPLINE
  5
29E
330
1F
100
AcDbEntity
  8
0
  6
SLD-Katı
 62
     7
370
    25
100
AcDbSpline
210
0.0
220
0.0
230
1.0
 70
     8
 71
     3
 72
     9
 73
     5
 74
     0
 42
0.000000001
 43
0.00000001
 40
0.0
 40
0.0
 40
0.0
 40
0.0
 40
0.5527750429553877
 40
1.0
 40
1.0
 40
1.0
 40
1.0
 10
506.2224847173379
 20
366.3995224931496
 30
0.0
 10
506.0586740870177
 20
366.3852245489983
 30
0.0
 10
505.7623317821183
 20
366.3593587934193
 30
0.0
 10
505.5081482024537
 20
366.2068730821318
 30
0.0
 10
505.3944709619568
 20
366.1386776664513
 30
0.0
  0
SPLINE
  5
29F
330
1F
100
AcDbEntity
  8
0
  6
SLD-Katı
 62
     7
370
    25
100
AcDbSpline
210
0.0
220
0.0
230
1.0
 70
     8
 71
     3
 72
     9
 73
     5
 74
     0
 42
0.000000001
 43
0.00000001
 40
0.0
 40
0.0
 40
0.0
 40
0.0
 40
0.5676033216788514
 40
1.0
 40
1.0
 40
1.0
 40
1.0
 10
505.3944709619568
 20
366.1386776664513
 30
0.0
 10
505.2649101768761
 20
366.0373547582796
 30
0.0
 10
505.0366507919638
 20
365.8588446891841
 30
0.0
 10
504.9279961195539
 20
365.592074099563
 30
0.0
 10
504.8810142001198
 20
365.476723382737
 30
0.0
  0
LINE
  5
2A0
330
1F
100
AcDbEntity
  8
0
  6
SLD-Katı
 62
     7
370
    25
100
AcDbLine
 10
504.8810142001
 20
365.4767233827
 30
0.0
 11
507.5379596932
 21
365.4767233827
 31
0.0
  0
SPLINE
  5
2A1
330
1F
100
AcDbEntity
  8
0
  6
SLD-Katı
 62
     7
370
    25
100
AcDbSpline
210
0.0
220
0.0
230
1.0
 70
     8
 71
     3
 72
     9
 73
     5
 74
     0
 42
0.000000001
 43
0.00000001
 40
0.0
 40
0.0
 40
0.0
 40
0.0
 40
0.5614179917327099
 40
1.0
 40
1.0
 40
1.0
 40
1.0
 10
507.537959693192
 20
365.476723382737
 30
0.0
 10
507.4741971446168
 20
365.6264108620929
 30
0.0
 10
507.3606230349266
 20
365.8930348063913
 30
0.0
 10
507.1326777778801
 20
366.0695578029153
 30
0.0
 10
507.0327050892697
 20
366.1469776132363
 30
0.0
  0
SPLINE
  5
2A2
330
1F
100
AcDbEntity
  8
0
  6
SLD-Katı
 62
     7
370
    25
100
AcDbSpline
210
0.0
220
0.0
230
1.0
 70
     8
 71
     3
 72
     9
 73
     5
 74
     0
 42
0.000000001
 43
0.00000001
 40
0.0
 40
0.0
 40
0.0
 40
0.0
 40
0.5541483703059933
 40
1.0
 40
1.0
 40
1.0
 40
1.0
 10
507.0327050892697
 20
366.1469776132363
 30
0.0
 10
506.8931375649775
 20
366.2280773140799
 30
0.0
 10
506.6412780779324
 20
366.3744274708057
 30
0.0
 10
506.3516263930751
 20
366.3917840389545
 30
0.0
 10
506.2224847173379
 20
366.3995224931496
 30
0.0
  0
SPLINE
  5
2A3
330
1F
100
AcDbEntity
  8
0
  6
SLD-Katı
 62
     7
370
    25
100
AcDbSpline
210
0.0
220
0.0
230
1.0
 70
     8
 71
     3
 72
    15
 73
    11
 74
     0
 42
0.000000001
 43
0.00000001
 40
0.0
 40
0.0
 40
0.0
 40
0.0
 40
0.1270968927528023
 40
0.2498925117678892
 40
0.3727456647191173
 40
0.5000533943250148
 40
0.6272312114566329
 40
0.7500760711244967
 40
0.8728973267873325
 40
1.0
 40
1.0
 40
1.0
 40
1.0
 10
501.5240468459264
 20
366.3925450244206
 30
0.0
 10
501.3333926460222
 20
366.3704572024655
 30
0.0
 10
500.9585364566906
 20
366.3270290651738
 30
0.0
 10
500.4870537877572
 20
365.9957663042289
 30
0.0
 10
500.1680960979413
 20
365.5272824618177
 30
0.0
 10
500.05431720447
 20
364.9605429330889
 30
0.0
 10
500.1681876436467
 20
364.3938492250977
 30
0.0
 10
500.4871271885456
 20
363.9255868653939
 30
0.0
 10
500.9584792560848
 20
363.594096940076
 30
0.0
 10
501.3333835024033
 20
363.5505898263594
 30
0.0
 10
501.5240468459264
 20
363.5284636118668
 30
0.0
  0
SPLINE
  5
2A4
330
1F
100
AcDbEntity
  8
0
  6
SLD-Katı
 62
     7
370
    25
100
AcDbSpline
210
0.0
220
0.0
230
1.0
 70
     8
 71
     3
 72
    15
 73
    11
 74
     0
 42
0.000000001
 43
0.00000001
 40
0.0
 40
0.0
 40
0.0
 40
0.0
 40
0.1273015420219696
 40
0.2501039231957879
 40
0.3728526689526075
 40
0.499946621266063
 40
0.6271704155023952
 40
0.7499274510592263
 40
0.8727042224694451
 40
1.0
 40
1.0
 40
1.0
 40
1.0
 10
501.5240468459264
 20
363.5284636118668
 30
0.0
 10
501.7151341489374
 20
363.5505416074432
 30
0.0
 10
502.0905552427972
 20
363.5939173059793
 30
0.0
 10
502.5625005402982
 20
363.9254305515311
 30
0.0
 10
502.8812996733254
 20
364.3939016972764
 30
0.0
 10
502.9948910781288
 20
364.9605429729018
 30
0.0
 10
502.8813911531781
 20
365.5272299079476
 30
0.0
 10
502.5625739075894
 20
365.9959226317624
 30
0.0
 10
502.0904979525284
 20
366.3272085169513
 30
0.0
 10
501.7151249756735
 20
366.3705053858606
 30
0.0
 10
501.5240468459264
 20
366.3925450244206
 30
0.0
  0
LINE
  5
2A5
330
1F
100
AcDbEntity
  8
0
  6
SLD-Katı
 62
     7
370
    25
100
AcDbLine
 10
654.6315174459
 20
455.01444451
 30
0.0
 11
346.1850803254
 21
455.01444451
 31
0.0
  0
LINE
  5
2A6
330
1F
100
AcDbEntity
  8
0
  6
SLD-Katı
 62
     7
370
    25
100
AcDbLine
 10
346.1850803254
 20
455.01444451
 30
0.0
 11
346.1850803254
 21
456.0144428113
 31
0.0
  0
LINE
  5
2A7
330
1F
100
AcDbEntity
  8
0
  6
SLD-Katı
 62
     7
370
    25
100
AcDbLine
 10
654.6315174459
 20
456.0144428113
 30
0.0
 11
346.1850803254
 21
456.0144428113
 31
0.0
  0
LINE
  5
2A8
330
1F
100
AcDbEntity
  8
0
  6
SLD-Katı
 62
     7
370
    25
100
AcDbLine
 10
654.6315174459
 20
455.01444451
 30
0.0
 11
654.6315174459
 21
456.0144428113
 31
0.0
  0
LINE
  5
2A9
330
1F
100
AcDbEntity
  8
0
  6
SLD-Katı
 62
     7
370
    25
100
AcDbLine
 10
654.8083048223
 20
354.3912205794
 30
0.0
 11
654.8083048223
 21
454.8376683095
 31
0.0
  0
LINE
  5
2AA
330
1F
100
AcDbEntity
  8
0
  6
SLD-Katı
 62
     7
370
    25
100
AcDbLine
 10
654.8083048223
 20
454.8376683095
 30
0.0
 11
655.8082919477
 21
454.8376683095
 31
0.0
  0
LINE
  5
2AB
330
1F
100
AcDbEntity
  8
0
  6
SLD-Katı
 62
     7
370
    25
100
AcDbLine
 10
655.8082919477
 20
354.3912205794
 30
0.0
 11
655.8082919477
 21
359.6383217671
 31
0.0
  0
LINE
  5
2AC
330
1F
100
AcDbEntity
  8
0
  6
SLD-Katı
 62
     7
370
    25
100
AcDbLine
 10
655.8082919477
 20
360.590565572
 30
0.0
 11
655.8082919477
 21
370.8383213678
 31
0.0
  0
LINE
  5
2AD
330
1F
100
AcDbEntity
  8
0
  6
SLD-Katı
 62
     7
370
    25
100
AcDbLine
 10
655.8082919477
 20
371.790568898
 30
0.0
 11
655.8082919477
 21
381.9383211383
 31
0.0
  0
LINE
  5
2AE
330
1F
100
AcDbEntity
  8
0
  6
SLD-Katı
 62
     7
370
    25
100
AcDbLine
 10
655.8082919477
 20
382.8905668059
 30
0.0
 11
655.8082919477
 21
393.0383218401
 31
0.0
  0
LINE
  5
2AF
330
1F
100
AcDbEntity
  8
0
  6
SLD-Katı
 62
     7
370
    25
100
AcDbLine
 10
655.8082919477
 20
393.9905675077
 30
0.0
 11
655.8082919477
 21
404.1383215524
 31
0.0
  0
LINE
  5
2B0
330
1F
100
AcDbEntity
  8
0
  6
SLD-Katı
 62
     7
370
    25
100
AcDbLine
 10
655.8082919477
 20
405.0905673364
 30
0.0
 11
655.8082919477
 21
415.2383213812
 31
0.0
  0
LINE
  5
2B1
330
1F
100
AcDbEntity
  8
0
  6
SLD-Katı
 62
     7
370
    25
100
AcDbLine
 10
655.8082919477
 20
416.1905670488
 30
0.0
 11
655.8082919477
 21
426.338322083
 31
0.0
  0
LINE
  5
2B2
330
1F
100
AcDbEntity
  8
0
  6
SLD-Katı
 62
     7
370
    25
100
AcDbLine
 10
655.8082919477
 20
427.2905677506
 30
0.0
 11
655.8082919477
 21
437.4383199909
 31
0.0
  0
LINE
  5
2B3
330
1F
100
AcDbEntity
  8
0
  6
SLD-Katı
 62
     7
370
    25
100
AcDbLine
 10
655.8082919477
 20
438.3905675211
 30
0.0
 11
655.8082919477
 21
448.6383233168
 31
0.0
  0
LINE
  5
2B4
330
1F
100
AcDbEntity
  8
0
  6
SLD-Katı
 62
     7
370
    25
100
AcDbLine
 10
655.8082919477
 20
449.5905671218
 30
0.0
 11
655.8082919477
 21
454.8376683095
 31
0.0
  0
LINE
  5
2B5
330
1F
100
AcDbEntity
  8
0
  6
SLD-Katı
 62
     7
370
    25
100
AcDbLine
 10
654.8083048223
 20
354.3912205794
 30
0.0
 11
655.8082919477
 21
354.3912205794
 31
0.0
  0
LINE
  5
2B6
330
1F
100
AcDbEntity
  8
0
  6
SLD-Katı
 62
     7
370
    25
100
AcDbLine
 10
346.008292949
 20
454.8376683095
 30
0.0
 11
346.008292949
 21
354.3912205794
 31
0.0
  0
LINE
  5
2B7
330
1F
100
AcDbEntity
  8
0
  6
SLD-Katı
 62
     7
370
    25
100
AcDbLine
 10
346.008292949
 20
354.3912205794
 30
0.0
 11
345.0083058236
 21
354.3912205794
 31
0.0
  0
LINE
  5
2B8
330
1F
100
AcDbEntity
  8
0
  6
SLD-Katı
 62
     7
370
    25
100
AcDbLine
 10
345.0083058236
 20
454.8376683095
 30
0.0
 11
345.0083058236
 21
449.5905671218
 31
0.0
  0
LINE
  5
2B9
330
1F
100
AcDbEntity
  8
0
  6
SLD-Katı
 62
     7
370
    25
100
AcDbLine
 10
345.0083058236
 20
448.6383233168
 30
0.0
 11
345.0083058236
 21
438.3905675211
 31
0.0
  0
LINE
  5
2BA
330
1F
100
AcDbEntity
  8
0
  6
SLD-Katı
 62
     7
370
    25
100
AcDbLine
 10
345.0083058236
 20
437.4383199909
 30
0.0
 11
345.0083058236
 21
427.2905677506
 31
0.0
  0
LINE
  5
2BB
330
1F
100
AcDbEntity
  8
0
  6
SLD-Katı
 62
     7
370
    25
100
AcDbLine
 10
345.0083058236
 20
426.338322083
 30
0.0
 11
345.0083058236
 21
416.1905670488
 31
0.0
  0
LINE
  5
2BC
330
1F
100
AcDbEntity
  8
0
  6
SLD-Katı
 62
     7
370
    25
100
AcDbLine
 10
345.0083058236
 20
415.2383213812
 30
0.0
 11
345.0083058236
 21
405.0905673364
 31
0.0
  0
LINE
  5
2BD
330
1F
100
AcDbEntity
  8
0
  6
SLD-Katı
 62
     7
370
    25
100
AcDbLine
 10
345.0083058236
 20
404.1383215524
 30
0.0
 11
345.0083058236
 21
393.9905675077
 31
0.0
  0
LINE
  5
2BE
330
1F
100
AcDbEntity
  8
0
  6
SLD-Katı
 62
     7
370
    25
100
AcDbLine
 10
345.0083058236
 20
393.0383218401
 30
0.0
 11
345.0083058236
 21
382.8905668059
 31
0.0
  0
LINE
  5
2BF
330
1F
100
AcDbEntity
  8
0
  6
SLD-Katı
 62
     7
370
    25
100
AcDbLine
 10
345.0083058236
 20
381.9383211383
 30
0.0
 11
345.0083058236
 21
371.790568898
 31
0.0
  0
LINE
  5
2C0
330
1F
100
AcDbEntity
  8
0
  6
SLD-Katı
 62
     7
370
    25
100
AcDbLine
 10
345.0083058236
 20
370.8383213678
 30
0.0
 11
345.0083058236
 21
360.590565572
 31
0.0
  0
LINE
  5
2C1
330
1F
100
AcDbEntity
  8
0
  6
SLD-Katı
 62
     7
370
    25
100
AcDbLine
 10
345.0083058236
 20
359.6383217671
 30
0.0
 11
345.0083058236
 21
354.3912205794
 31
0.0
  0
LINE
  5
2C2
330
1F
100
AcDbEntity
  8
0
  6
SLD-Katı
 62
     7
370
    25
100
AcDbLine
 10
346.008292949
 20
454.8376683095
 30
0.0
 11
345.0083058236
 21
454.8376683095
 31
0.0
  0
LINE
  5
2C3
330
1F
100
AcDbEntity
  8
0
  6
SLD-Katı
 62
     7
370
    25
100
AcDbLine
 10
346.1850803254
 20
353.2144460776
 30
0.0
 11
654.6315174459
 21
353.2144460776
 31
0.0
  0
LINE
  5
2C4
330
1F
100
AcDbEntity
  8
0
  6
SLD-Katı
 62
     7
370
    25
100
AcDbLine
 10
346.1850803254
 20
354.2144443789
 30
0.0
 11
654.6315174459
 21
354.2144443789
 31
0.0
  0
LINE
  5
2C5
330
1F
100
AcDbEntity
  8
0
  6
SLD-Katı
 62
     7
370
    25
100
AcDbLine
 10
654.6315174459
 20
354.2144443789
 30
0.0
 11
654.6315174459
 21
353.2144460776
 31
0.0
  0
LINE
  5
2C6
330
1F
100
AcDbEntity
  8
0
  6
SLD-Katı
 62
     7
370
    25
100
AcDbLine
 10
346.1850803254
 20
354.2144443789
 30
0.0
 11
346.1850803254
 21
353.2144460776
 31
0.0
  0
LWPOLYLINE
  5
2C7
330
1F
100
AcDbEntity
  8
0
  6
SLD-Katı
 62
     7
370
    25
100
AcDbPolyline
 90
       10
 70
   128
 43
0.0
 10
654.4315289615
 20
454.8144448498
 10
654.4662486671
 20
454.8491757312
 10
654.4999252914
 20
454.8828486302
 10
654.5315157531
 20
454.9144428172
 10
654.5600812791
 20
454.9430008927
 10
654.5847277997
 20
454.9676548639
 10
654.604725158
 20
454.9876484969
 10
654.6194624065
 20
455.00238202
 10
654.628477609
 20
455.0114046731
 10
654.6315174459
 20
455.01444451
  0
LWPOLYLINE
  5
2C8
330
1F
100
AcDbEntity
  8
0
  6
SLD-Katı
 62
     7
370
    25
100
AcDbPolyline
 90
       10
 70
   128
 43
0.0
 10
654.6083014367
 20
354.5912202397
 10
654.6430211423
 20
354.5564930835
 10
654.6766977666
 20
354.5228164592
 10
654.7083031295
 20
354.4912222722
 10
654.7368537543
 20
354.4626641968
 10
654.7615151761
 20
354.4380139509
 10
654.7814976333
 20
354.4180165925
 10
654.7962348817
 20
354.4032830694
 10
654.8052649854
 20
354.3942604163
 10
654.8083048223
 20
354.3912205794
  0
LINE
  5
2C9
330
1F
100
AcDbEntity
  8
0
  6
SLD-Katı
 62
     7
370
    25
100
AcDbLine
 10
654.6083014367
 20
354.5912202397
 30
0.0
 11
654.6083014367
 21
454.6376686492
 31
0.0
  0
LWPOLYLINE
  5
2CA
330
1F
100
AcDbEntity
  8
0
  6
SLD-Katı
 62
     7
370
    25
100
AcDbPolyline
 90
        9
 70
   128
 43
0.0
 10
654.8083048223
 20
454.8376683095
 10
654.8044603227
 20
454.8338238099
 10
654.7930758355
 20
454.822443048
 10
654.7745983956
 20
454.8039618829
 10
654.7497134565
 20
454.7790881195
 10
654.7194193957
 20
454.748782883
 10
654.6848338006
 20
454.7142047384
 10
654.6473126767
 20
454.6766873398
 10
654.6083014367
 20
454.6376686492
  0
LINE
  5
2CB
330
1F
100
AcDbEntity
  8
0
  6
SLD-Katı
 62
     7
370
    25
100
AcDbLine
 10
654.4315289615
 20
454.8144448498
 30
0.0
 11
346.3850688098
 21
454.8144448498
 31
0.0
  0
LWPOLYLINE
  5
2CC
330
1F
100
AcDbEntity
  8
0
  6
SLD-Katı
 62
     7
370
    25
100
AcDbPolyline
 90
        9
 70
   128
 43
0.0
 10
346.1850803254
 20
455.01444451
 10
346.188924825
 20
455.0106000104
 10
346.200294411
 20
454.9992192486
 10
346.218786752
 20
454.9807380834
 10
346.2436567901
 20
454.9558643201
 10
346.2739657519
 20
454.9255590835
 10
346.3085364459
 20
454.8909809389
 10
346.3460575698
 20
454.8534635403
 10
346.3850688098
 20
454.8144448498
  0
LWPOLYLINE
  5
2CD
330
1F
100
AcDbEntity
  8
0
  6
SLD-Katı
 62
     7
370
    25
100
AcDbPolyline
 90
        9
 70
   128
 43
0.0
 10
346.2082963346
 20
454.6376686492
 10
346.1692850946
 20
454.6766873398
 10
346.1317639707
 20
454.7142047384
 10
346.0971783755
 20
454.748782883
 10
346.0668843148
 20
454.7790881195
 10
346.0419993756
 20
454.8039618829
 10
346.0235219358
 20
454.822443048
 10
346.0121374486
 20
454.8338238099
 10
346.008292949
 20
454.8376683095
  0
LINE
  5
2CE
330
1F
100
AcDbEntity
  8
0
  6
SLD-Katı
 62
     7
370
    25
100
AcDbLine
 10
346.2082963346
 20
454.6376686492
 30
0.0
 11
346.2082963346
 21
354.5912202397
 31
0.0
  0
LWPOLYLINE
  5
2CF
330
1F
100
AcDbEntity
  8
0
  6
SLD-Katı
 62
     7
370
    25
100
AcDbPolyline
 90
        9
 70
   128
 43
0.0
 10
346.008292949
 20
354.3912205794
 10
346.0121374486
 20
354.395065079
 10
346.0235219358
 20
354.4064458409
 10
346.0419993756
 20
354.424927006
 10
346.0668843148
 20
354.4498007694
 10
346.0971783755
 20
354.4801060059
 10
346.1317639707
 20
354.5146841505
 10
346.1692850946
 20
354.5522015491
 10
346.2082963346
 20
354.5912202397
  0
LWPOLYLINE
  5
2D0
330
1F
100
AcDbEntity
  8
0
  6
SLD-Katı
 62
     7
370
    25
100
AcDbPolyline
 90
        9
 70
   128
 43
0.0
 10
346.3850688098
 20
354.4144440391
 10
346.3460575698
 20
354.3754253485
 10
346.3085364459
 20
354.33790795
 10
346.2739657519
 20
354.3033298054
 10
346.2436567901
 20
354.2730245688
 10
346.218786752
 20
354.2481508055
 10
346.200294411
 20
354.2296696403
 10
346.188924825
 20
354.2182888785
 10
346.1850803254
 20
354.2144443789
  0
LINE
  5
2D1
330
1F
100
AcDbEntity
  8
0
  6
SLD-Katı
 62
     7
370
    25
100
AcDbLine
 10
346.3850688098
 20
354.4144440391
 30
0.0
 11
654.4315289615
 21
354.4144440391
 31
0.0
  0
LWPOLYLINE
  5
2D2
330
1F
100
AcDbEntity
  8
0
  6
SLD-Katı
 62
     7
370
    25
100
AcDbPolyline
 90
        9
 70
   128
 43
0.0
 10
654.6315174459
 20
354.2144443789
 10
654.6276729463
 20
354.2182888785
 10
654.6163033603
 20
354.2296696403
 10
654.5978110192
 20
354.2481508055
 10
654.5729409812
 20
354.2730245688
 10
654.5426320193
 20
354.3033298054
 10
654.5080613254
 20
354.33790795
 10
654.4705402015
 20
354.3754253485
 10
654.4315289615
 20
354.4144440391
  0
LINE
  5
2D3
330
1F
100
AcDbEntity
  8
0
  6
SLD-Katı
 62
     7
370
    25
100
AcDbLine
 10
346.6183464883
 20
454.2276184955
 30
0.0
 11
346.2082963346
 21
454.6376686492
 31
0.0
  0
LINE
  5
2D4
330
1F
100
AcDbEntity
  8
0
  6
SLD-Katı
 62
     7
370
    25
100
AcDbLine
 10
346.2082963346
 20
354.5912202397
 30
0.0
 11
346.6183464883
 21
355.0012703934
 31
0.0
  0
LINE
  5
2D5
330
1F
100
AcDbEntity
  8
0
  6
SLD-Katı
 62
     7
370
    25
100
AcDbLine
 10
346.3850688098
 20
454.8144448498
 30
0.0
 11
346.7951338647
 21
454.404394696
 31
0.0
  0
LINE
  5
2D6
330
1F
100
AcDbEntity
  8
0
  6
SLD-Katı
 62
     7
370
    25
100
AcDbLine
 10
654.0214639066
 20
454.404394696
 30
0.0
 11
654.4315289615
 21
454.8144448498
 31
0.0
  0
LINE
  5
2D7
330
1F
100
AcDbEntity
  8
0
  6
SLD-Katı
 62
     7
370
    25
100
AcDbLine
 10
654.198251283
 20
355.0012703934
 30
0.0
 11
654.6083014367
 21
354.5912202397
 31
0.0
  0
LINE
  5
2D8
330
1F
100
AcDbEntity
  8
0
  6
SLD-Katı
 62
     7
370
    25
100
AcDbLine
 10
654.6083014367
 20
454.6376686492
 30
0.0
 11
654.198251283
 21
454.2276184955
 31
0.0
  0
LINE
  5
2D9
330
1F
100
AcDbEntity
  8
0
  6
SLD-Katı
 62
     7
370
    25
100
AcDbLine
 10
346.7951338647
 20
354.8244941929
 30
0.0
 11
346.3850688098
 21
354.4144440391
 31
0.0
  0
LINE
  5
2DA
330
1F
100
AcDbEntity
  8
0
  6
SLD-Katı
 62
     7
370
    25
100
AcDbLine
 10
654.4315289615
 20
354.4144440391
 30
0.0
 11
654.0214639066
 21
354.8244941929
 31
0.0
  0
LINE
  5
2DB
330
1F
100
AcDbEntity
  8
0
  6
SLD-Katı
 62
     8
370
    25
100
AcDbLine
 10
345.1300334094
 20
449.4065713086
 30
0.0
 11
345.1082926152
 21
449.4073312679
 31
0.0
  0
LINE
  5
2DC
330
1F
100
AcDbEntity
  8
0
  6
SLD-Katı
 62
     8
370
    25
100
AcDbLine
 10
345.1082926152
 20
359.821557621
 30
0.0
 11
345.1300334094
 21
359.8223175802
 31
0.0
  0
LINE
  5
2DD
330
1F
100
AcDbEntity
  8
0
  6
SLD-Katı
 62
     8
370
    25
100
AcDbLine
 10
345.1300334094
 20
360.4065697589
 30
0.0
 11
345.1082926152
 21
360.4073297181
 31
0.0
  0
LINE
  5
2DE
330
1F
100
AcDbEntity
  8
0
  6
SLD-Katı
 62
     8
370
    25
100
AcDbLine
 10
345.1082926152
 20
371.0215572217
 30
0.0
 11
345.1300334094
 21
371.0223171809
 31
0.0
  0
LINE
  5
2DF
330
1F
100
AcDbEntity
  8
0
  6
SLD-Katı
 62
     8
370
    25
100
AcDbLine
 10
345.1300334094
 20
371.6065693596
 30
0.0
 11
345.1082926152
 21
371.6073293188
 31
0.0
  0
LINE
  5
2E0
330
1F
100
AcDbEntity
  8
0
  6
SLD-Katı
 62
     8
370
    25
100
AcDbLine
 10
345.1082926152
 20
382.1215588548
 30
0.0
 11
345.1300334094
 21
382.1223188141
 31
0.0
  0
LINE
  5
2E1
330
1F
100
AcDbEntity
  8
0
  6
SLD-Katı
 62
     8
370
    25
100
AcDbLine
 10
345.1300334094
 20
382.7065709927
 30
0.0
 11
345.1082926152
 21
382.7073290893
 31
0.0
  0
LINE
  5
2E2
330
1F
100
AcDbEntity
  8
0
  6
SLD-Katı
 62
     8
370
    25
100
AcDbLine
 10
345.1082926152
 20
393.2215586254
 30
0.0
 11
345.1300334094
 21
393.2223176533
 31
0.0
  0
LINE
  5
2E3
330
1F
100
AcDbEntity
  8
0
  6
SLD-Katı
 62
     8
370
    25
100
AcDbLine
 10
345.1300334094
 20
393.8065707633
 30
0.0
 11
345.1082926152
 21
393.8073297912
 31
0.0
  0
LINE
  5
2E4
330
1F
100
AcDbEntity
  8
0
  6
SLD-Katı
 62
     8
370
    25
100
AcDbLine
 10
345.1082926152
 20
404.3215590362
 30
0.0
 11
345.1300334094
 21
404.3223178894
 31
0.0
  0
LINE
  5
2E5
330
1F
100
AcDbEntity
  8
0
  6
SLD-Katı
 62
     8
370
    25
100
AcDbLine
 10
345.1300334094
 20
404.9065709994
 30
0.0
 11
345.1082926152
 21
404.9073298527
 31
0.0
  0
LINE
  5
2E6
330
1F
100
AcDbEntity
  8
0
  6
SLD-Katı
 62
     8
370
    25
100
AcDbLine
 10
345.1082926152
 20
415.4215590977
 30
0.0
 11
345.1300334094
 21
415.4223181256
 31
0.0
  0
LINE
  5
2E7
330
1F
100
AcDbEntity
  8
0
  6
SLD-Katı
 62
     8
370
    25
100
AcDbLine
 10
345.1300334094
 20
416.0065712356
 30
0.0
 11
345.1082926152
 21
416.0073302635
 31
0.0
  0
LINE
  5
2E8
330
1F
100
AcDbEntity
  8
0
  6
SLD-Katı
 62
     8
370
    25
100
AcDbLine
 10
345.1082926152
 20
426.5215597996
 30
0.0
 11
345.1300334094
 21
426.5223178962
 31
0.0
  0
LINE
  5
2E9
330
1F
100
AcDbEntity
  8
0
  6
SLD-Katı
 62
     8
370
    25
100
AcDbLine
 10
345.1300334094
 20
427.1065700748
 30
0.0
 11
345.1082926152
 21
427.107330034
 31
0.0
  0
LINE
  5
2EA
330
1F
100
AcDbEntity
  8
0
  6
SLD-Katı
 62
     8
370
    25
100
AcDbLine
 10
345.1082926152
 20
437.6215595701
 30
0.0
 11
345.1300334094
 21
437.6223195293
 31
0.0
  0
LINE
  5
2EB
330
1F
100
AcDbEntity
  8
0
  6
SLD-Katı
 62
     8
370
    25
100
AcDbLine
 10
345.1300334094
 20
438.206571708
 30
0.0
 11
345.1082926152
 21
438.2073316672
 31
0.0
  0
LINE
  5
2EC
330
1F
100
AcDbEntity
  8
0
  6
SLD-Katı
 62
     8
370
    25
100
AcDbLine
 10
345.1082926152
 20
448.8215591707
 30
0.0
 11
345.1300334094
 21
448.82231913
 31
0.0
  0
LINE
  5
2ED
330
1F
100
AcDbEntity
  8
0
  6
SLD-Katı
 62
     8
370
    25
100
AcDbLine
 10
345.0083058236
 20
448.4250429967
 30
0.0
 11
344.9013154863
 21
448.4213065305
 31
0.0
  0
LINE
  5
2EE
330
1F
100
AcDbEntity
  8
0
  6
SLD-Katı
 62
     8
370
    25
100
AcDbLine
 10
345.0083058236
 20
437.225043396
 30
0.0
 11
344.9013154863
 21
437.2213069299
 31
0.0
  0
LINE
  5
2EF
330
1F
100
AcDbEntity
  8
0
  6
SLD-Katı
 62
     8
370
    25
100
AcDbLine
 10
344.9013154863
 20
438.6075805822
 30
0.0
 11
345.0083058236
 21
438.6038478413
 31
0.0
  0
LINE
  5
2F0
330
1F
100
AcDbEntity
  8
0
  6
SLD-Katı
 62
     8
370
    25
100
AcDbLine
 10
345.0083058236
 20
426.1250417629
 30
0.0
 11
344.9013154863
 21
426.1213071593
 31
0.0
  0
LINE
  5
2F1
330
1F
100
AcDbEntity
  8
0
  6
SLD-Katı
 62
     8
370
    25
100
AcDbLine
 10
344.9013154863
 20
427.5075826743
 30
0.0
 11
345.0083058236
 21
427.5038462081
 31
0.0
  0
LINE
  5
2F2
330
1F
100
AcDbEntity
  8
0
  6
SLD-Katı
 62
     8
370
    25
100
AcDbLine
 10
345.0083058236
 20
415.0250429237
 30
0.0
 11
344.9013154863
 21
415.0213064575
 31
0.0
  0
LINE
  5
2F3
330
1F
100
AcDbEntity
  8
0
  6
SLD-Katı
 62
     8
370
    25
100
AcDbLine
 10
344.9013154863
 20
416.4075819724
 30
0.0
 11
345.0083058236
 21
416.4038464376
 31
0.0
  0
LINE
  5
2F4
330
1F
100
AcDbEntity
  8
0
  6
SLD-Katı
 62
     8
370
    25
100
AcDbLine
 10
345.0083058236
 20
403.9250425128
 30
0.0
 11
344.9013154863
 21
403.921306687
 31
0.0
  0
LINE
  5
2F5
330
1F
100
AcDbEntity
  8
0
  6
SLD-Katı
 62
     8
370
    25
100
AcDbLine
 10
344.9013154863
 20
405.3075822019
 30
0.0
 11
345.0083058236
 21
405.303846376
 31
0.0
  0
LINE
  5
2F6
330
1F
100
AcDbEntity
  8
0
  6
SLD-Katı
 62
     8
370
    25
100
AcDbLine
 10
344.9013154863
 20
394.2075824314
 30
0.0
 11
345.0083058236
 21
394.2038459652
 31
0.0
  0
LINE
  5
2F7
330
1F
100
AcDbEntity
  8
0
  6
SLD-Katı
 62
     8
370
    25
100
AcDbLine
 10
345.0083058236
 20
392.8250424513
 30
0.0
 11
344.9013154863
 21
392.8213069164
 31
0.0
  0
LINE
  5
2F8
330
1F
100
AcDbEntity
  8
0
  6
SLD-Katı
 62
     8
370
    25
100
AcDbLine
 10
345.0083058236
 20
381.7250426808
 30
0.0
 11
344.9013154863
 21
381.7213062146
 31
0.0
  0
LINE
  5
2F9
330
1F
100
AcDbEntity
  8
0
  6
SLD-Katı
 62
     8
370
    25
100
AcDbLine
 10
344.9013154863
 20
383.1075817296
 30
0.0
 11
345.0083058236
 21
383.103847126
 31
0.0
  0
LINE
  5
2FA
330
1F
100
AcDbEntity
  8
0
  6
SLD-Katı
 62
     8
370
    25
100
AcDbLine
 10
344.9013154863
 20
372.007581959
 30
0.0
 11
345.0083058236
 21
372.0038454929
 31
0.0
  0
LINE
  5
2FB
330
1F
100
AcDbEntity
  8
0
  6
SLD-Katı
 62
     8
370
    25
100
AcDbLine
 10
345.0083058236
 20
370.6250410476
 30
0.0
 11
344.9013154863
 21
370.6213083067
 31
0.0
  0
LINE
  5
2FC
330
1F
100
AcDbEntity
  8
0
  6
SLD-Katı
 62
     8
370
    25
100
AcDbLine
 10
344.9013154863
 20
360.8075823584
 30
0.0
 11
345.0083058236
 21
360.8038458922
 31
0.0
  0
LINE
  5
2FD
330
1F
100
AcDbEntity
  8
0
  6
SLD-Katı
 62
     8
370
    25
100
AcDbLine
 10
655.7083051561
 20
449.4073312679
 30
0.0
 11
655.6865643619
 21
449.4065713086
 31
0.0
  0
LINE
  5
2FE
330
1F
100
AcDbEntity
  8
0
  6
SLD-Katı
 62
     8
370
    25
100
AcDbLine
 10
655.6865643619
 20
448.82231913
 30
0.0
 11
655.7083051561
 21
448.8215591707
 31
0.0
  0
LINE
  5
2FF
330
1F
100
AcDbEntity
  8
0
  6
SLD-Katı
 62
     8
370
    25
100
AcDbLine
 10
655.7083051561
 20
438.2073316672
 30
0.0
 11
655.6865643619
 21
438.206571708
 31
0.0
  0
LINE
  5
300
330
1F
100
AcDbEntity
  8
0
  6
SLD-Katı
 62
     8
370
    25
100
AcDbLine
 10
655.6865643619
 20
437.6223195293
 30
0.0
 11
655.7083051561
 21
437.6215595701
 31
0.0
  0
LINE
  5
301
330
1F
100
AcDbEntity
  8
0
  6
SLD-Katı
 62
     8
370
    25
100
AcDbLine
 10
655.7083051561
 20
427.107330034
 30
0.0
 11
655.6865643619
 21
427.1065700748
 31
0.0
  0
LINE
  5
302
330
1F
100
AcDbEntity
  8
0
  6
SLD-Katı
 62
     8
370
    25
100
AcDbLine
 10
655.6865643619
 20
426.5223178962
 30
0.0
 11
655.7083051561
 21
426.5215597996
 31
0.0
  0
LINE
  5
303
330
1F
100
AcDbEntity
  8
0
  6
SLD-Katı
 62
     8
370
    25
100
AcDbLine
 10
655.7083051561
 20
416.0073302635
 30
0.0
 11
655.6865643619
 21
416.0065712356
 31
0.0
  0
LINE
  5
304
330
1F
100
AcDbEntity
  8
0
  6
SLD-Katı
 62
     8
370
    25
100
AcDbLine
 10
655.6865643619
 20
415.4223181256
 30
0.0
 11
655.7083051561
 21
415.4215590977
 31
0.0
  0
LINE
  5
305
330
1F
100
AcDbEntity
  8
0
  6
SLD-Katı
 62
     8
370
    25
100
AcDbLine
 10
655.7083051561
 20
404.9073298527
 30
0.0
 11
655.6865643619
 21
404.9065709994
 31
0.0
  0
LINE
  5
306
330
1F
100
AcDbEntity
  8
0
  6
SLD-Katı
 62
     8
370
    25
100
AcDbLine
 10
655.6865643619
 20
404.3223178894
 30
0.0
 11
655.7083051561
 21
404.3215590362
 31
0.0
  0
LINE
  5
307
330
1F
100
AcDbEntity
  8
0
  6
SLD-Katı
 62
     8
370
    25
100
AcDbLine
 10
655.7083051561
 20
393.8073297912
 30
0.0
 11
655.6865643619
 21
393.8065707633
 31
0.0
  0
LINE
  5
308
330
1F
100
AcDbEntity
  8
0
  6
SLD-Katı
 62
     8
370
    25
100
AcDbLine
 10
655.6865643619
 20
393.2223176533
 30
0.0
 11
655.7083051561
 21
393.2215586254
 31
0.0
  0
LINE
  5
309
330
1F
100
AcDbEntity
  8
0
  6
SLD-Katı
 62
     8
370
    25
100
AcDbLine
 10
655.7083051561
 20
382.7073290893
 30
0.0
 11
655.6865643619
 21
382.7065709927
 31
0.0
  0
LINE
  5
30A
330
1F
100
AcDbEntity
  8
0
  6
SLD-Katı
 62
     8
370
    25
100
AcDbLine
 10
655.6865643619
 20
382.1223188141
 30
0.0
 11
655.7083051561
 21
382.1215588548
 31
0.0
  0
LINE
  5
30B
330
1F
100
AcDbEntity
  8
0
  6
SLD-Katı
 62
     8
370
    25
100
AcDbLine
 10
655.7083051561
 20
371.6073293188
 30
0.0
 11
655.6865643619
 21
371.6065693596
 31
0.0
  0
LINE
  5
30C
330
1F
100
AcDbEntity
  8
0
  6
SLD-Katı
 62
     8
370
    25
100
AcDbLine
 10
655.6865643619
 20
371.0223171809
 30
0.0
 11
655.7083051561
 21
371.0215572217
 31
0.0
  0
LINE
  5
30D
330
1F
100
AcDbEntity
  8
0
  6
SLD-Katı
 62
     8
370
    25
100
AcDbLine
 10
655.7083051561
 20
360.4073297181
 30
0.0
 11
655.6865643619
 21
360.4065697589
 31
0.0
  0
LINE
  5
30E
330
1F
100
AcDbEntity
  8
0
  6
SLD-Katı
 62
     8
370
    25
100
AcDbLine
 10
655.6865643619
 20
359.8223175802
 30
0.0
 11
655.7083051561
 21
359.821557621
 31
0.0
  0
LINE
  5
30F
330
1F
100
AcDbEntity
  8
0
  6
SLD-Katı
 62
     8
370
    25
100
AcDbLine
 10
655.915282285
 20
448.4213065305
 30
0.0
 11
655.8082919477
 21
448.4250429967
 31
0.0
  0
LINE
  5
310
330
1F
100
AcDbEntity
  8
0
  6
SLD-Katı
 62
     8
370
    25
100
AcDbLine
 10
655.8082919477
 20
438.6038478413
 30
0.0
 11
655.915282285
 21
438.6075805822
 31
0.0
  0
LINE
  5
311
330
1F
100
AcDbEntity
  8
0
  6
SLD-Katı
 62
     8
370
    25
100
AcDbLine
 10
655.915282285
 20
437.2213069299
 30
0.0
 11
655.8082919477
 21
437.225043396
 31
0.0
  0
LINE
  5
312
330
1F
100
AcDbEntity
  8
0
  6
SLD-Katı
 62
     8
370
    25
100
AcDbLine
 10
655.8082919477
 20
427.5038462081
 30
0.0
 11
655.915282285
 21
427.5075826743
 31
0.0
  0
LINE
  5
313
330
1F
100
AcDbEntity
  8
0
  6
SLD-Katı
 62
     8
370
    25
100
AcDbLine
 10
655.915282285
 20
426.1213071593
 30
0.0
 11
655.8082919477
 21
426.1250417629
 31
0.0
  0
LINE
  5
314
330
1F
100
AcDbEntity
  8
0
  6
SLD-Katı
 62
     8
370
    25
100
AcDbLine
 10
655.8082919477
 20
416.4038464376
 30
0.0
 11
655.915282285
 21
416.4075819724
 31
0.0
  0
LINE
  5
315
330
1F
100
AcDbEntity
  8
0
  6
SLD-Katı
 62
     8
370
    25
100
AcDbLine
 10
655.915282285
 20
415.0213064575
 30
0.0
 11
655.8082919477
 21
415.0250429237
 31
0.0
  0
LINE
  5
316
330
1F
100
AcDbEntity
  8
0
  6
SLD-Katı
 62
     8
370
    25
100
AcDbLine
 10
655.8082919477
 20
405.303846376
 30
0.0
 11
655.915282285
 21
405.3075822019
 31
0.0
  0
LINE
  5
317
330
1F
100
AcDbEntity
  8
0
  6
SLD-Katı
 62
     8
370
    25
100
AcDbLine
 10
655.915282285
 20
403.921306687
 30
0.0
 11
655.8082919477
 21
403.9250425128
 31
0.0
  0
LINE
  5
318
330
1F
100
AcDbEntity
  8
0
  6
SLD-Katı
 62
     8
370
    25
100
AcDbLine
 10
655.8082919477
 20
394.2038459652
 30
0.0
 11
655.915282285
 21
394.2075824314
 31
0.0
  0
LINE
  5
319
330
1F
100
AcDbEntity
  8
0
  6
SLD-Katı
 62
     8
370
    25
100
AcDbLine
 10
655.915282285
 20
392.8213069164
 30
0.0
 11
655.8082919477
 21
392.8250424513
 31
0.0
  0
LINE
  5
31A
330
1F
100
AcDbEntity
  8
0
  6
SLD-Katı
 62
     8
370
    25
100
AcDbLine
 10
655.8082919477
 20
383.103847126
 30
0.0
 11
655.915282285
 21
383.1075817296
 31
0.0
  0
LINE
  5
31B
330
1F
100
AcDbEntity
  8
0
  6
SLD-Katı
 62
     8
370
    25
100
AcDbLine
 10
655.915282285
 20
381.7213062146
 30
0.0
 11
655.8082919477
 21
381.7250426808
 31
0.0
  0
LINE
  5
31C
330
1F
100
AcDbEntity
  8
0
  6
SLD-Katı
 62
     8
370
    25
100
AcDbLine
 10
655.8082919477
 20
372.0038454929
 30
0.0
 11
655.915282285
 21
372.007581959
 31
0.0
  0
LINE
  5
31D
330
1F
100
AcDbEntity
  8
0
  6
SLD-Katı
 62
     8
370
    25
100
AcDbLine
 10
655.915282285
 20
370.6213083067
 30
0.0
 11
655.8082919477
 21
370.6250410476
 31
0.0
  0
LINE
  5
31E
330
1F
100
AcDbEntity
  8
0
  6
SLD-Katı
 62
     8
370
    25
100
AcDbLine
 10
655.8082919477
 20
360.8038458922
 30
0.0
 11
655.915282285
 21
360.8075823584
 31
0.0
  0
LINE
  5
31F
330
1F
100
AcDbEntity
  8
0
  6
SLD-Katı
 62
     8
370
    25
100
AcDbLine
 10
656.108297026
 20
455.314445863
 30
0.0
 11
654.6315174459
 21
455.314445863
 31
0.0
  0
LINE
  5
320
330
1F
100
AcDbEntity
  8
0
  6
SLD-Katı
 62
     8
370
    25
100
AcDbLine
 10
346.1850803254
 20
455.314445863
 30
0.0
 11
344.7083007453
 21
455.314445863
 31
0.0
  0
LINE
  5
321
330
1F
100
AcDbEntity
  8
0
  6
SLD-Katı
 62
     8
370
    25
100
AcDbLine
 10
344.7083007453
 20
353.9144430259
 30
0.0
 11
346.1850803254
 21
353.9144430259
 31
0.0
  0
LINE
  5
322
330
1F
100
AcDbEntity
  8
0
  6
SLD-Katı
 62
     8
370
    25
100
AcDbLine
 10
654.6315174459
 20
353.9144430259
 30
0.0
 11
656.108297026
 21
353.9144430259
 31
0.0
  0
LINE
  5
323
330
1F
100
AcDbEntity
  8
0
  6
SLD-Katı
 62
     8
370
    25
100
AcDbLine
 10
344.7083007453
 20
453.3587690392
 30
0.0
 11
345.0083058236
 21
453.3587690392
 31
0.0
  0
LINE
  5
324
330
1F
100
AcDbEntity
  8
0
  6
SLD-Katı
 62
     8
370
    25
100
AcDbLine
 10
655.8082919477
 20
453.3587690392
 30
0.0
 11
656.108297026
 21
453.3587690392
 31
0.0
  0
LINE
  5
325
330
1F
100
AcDbEntity
  8
0
  6
SLD-Katı
 62
     8
370
    25
100
AcDbLine
 10
656.108297026
 20
355.8701198497
 30
0.0
 11
655.8082919477
 21
355.8701198497
 31
0.0
  0
LINE
  5
326
330
1F
100
AcDbEntity
  8
0
  6
SLD-Katı
 62
     8
370
    25
100
AcDbLine
 10
345.0083058236
 20
355.8701198497
 30
0.0
 11
344.7083007453
 21
355.8701198497
 31
0.0
  0
LINE
  5
327
330
1F
100
AcDbEntity
  8
0
  6
SLD-Katı
 62
     8
370
    25
100
AcDbLine
 10
344.7083007453
 20
451.0823223689
 30
0.0
 11
345.0083058236
 21
451.0823223689
 31
0.0
  0
LINE
  5
328
330
1F
100
AcDbEntity
  8
0
  6
SLD-Katı
 62
     8
370
    25
100
AcDbLine
 10
655.8082919477
 20
451.0823223689
 30
0.0
 11
656.108297026
 21
451.0823223689
 31
0.0
  0
LINE
  5
329
330
1F
100
AcDbEntity
  8
0
  6
SLD-Katı
 62
     8
370
    25
100
AcDbLine
 10
656.108297026
 20
358.14656652
 30
0.0
 11
655.8082919477
 21
358.14656652
 31
0.0
  0
LINE
  5
32A
330
1F
100
AcDbEntity
  8
0
  6
SLD-Katı
 62
     8
370
    25
100
AcDbLine
 10
345.0083058236
 20
358.14656652
 30
0.0
 11
344.7083007453
 21
358.14656652
 31
0.0
  0
ENDSEC
  0
SECTION
  2
OBJECTS
  0
DICTIONARY
  5
C
330
0
100
AcDbDictionary
281
     1
  3
ACAD_GROUP
350
D
  3
ACAD_LAYOUT
350
1A
  3
ACAD_MLINESTYLE
350
17
  3
ACAD_PLOTSETTINGS
350
19
  3
ACAD_PLOTSTYLENAME
350
E
  3
ACAD_SCALELIST
350
47
  0
DICTIONARY
  5
D
102
{ACAD_REACTORS
330
C
102
}
330
C
100
AcDbDictionary
281
     1
  0
DICTIONARY
  5
1A
102
{ACAD_REACTORS
330
C
102
}
330
C
100
AcDbDictionary
281
     1
  3
Layout1
350
1E
  3
Layout2
350
26
  3
Model
350
22
  0
DICTIONARY
  5
17
102
{ACAD_REACTORS
330
C
102
}
330
C
100
AcDbDictionary
281
     1
  3
Standard
350
18
  0
DICTIONARY
  5
19
102
{ACAD_REACTORS
330
C
102
}
330
C
100
AcDbDictionary
281
     1
  0
ACDBDICTIONARYWDFLT
  5
E
102
{ACAD_REACTORS
330
C
102
}
330
C
100
AcDbDictionary
281
     1
  3
Normal
350
F
100
AcDbDictionaryWithDefault
340
F
  0
DICTIONARY
  5
47
102
{ACAD_REACTORS
330
C
102
}
330
C
100
AcDbDictionary
281
     1
  3
A0
350
48
  3
A1
350
49
  3
A2
350
4A
  3
A3
350
4B
  3
A4
350
4C
  3
A5
350
4D
  3
A6
350
4E
  3
A7
350
4F
  3
A8
350
50
  3
A9
350
51
  3
B0
350
52
  3
B1
350
53
  3
B2
350
54
  3
B3
350
55
  3
B4
350
56
  3
B5
350
57
  3
B6
350
58
  3
B7
350
59
  3
B8
350
5A
  3
B9
350
5B
  3
C0
350
5C
  3
C1
350
5D
  3
C2
350
5E
  3
C3
350
5F
  3
C4
350
60
  3
C5
350
61
  3
C6
350
62
  3
C7
350
63
  3
C8
350
64
  3
C9
350
65
  3
D0
350
66
  3
D1
350
67
  3
D2
350
68
  0
LAYOUT
  5
1E
102
{ACAD_REACTORS
330
1A
102
}
330
1A
100
AcDbPlotSettings
  1

  2
none_device
  4

  6

 40
0.0
 41
0.0
 42
0.0
 43
0.0
 44
0.0
 45
0.0
 46
0.0
 47
0.0
 48
0.0
 49
0.0
140
0.0
141
0.0
142
1.0
143
1.0
 70
   688
 72
     1
 73
     0
 74
     5
  7

 75
    16
147
1.0
148
0.0
149
0.0
100
AcDbLayout
  1
Layout1
 70
     1
 71
     1
 10
0.0
 20
0.0
 11
420.0
 21
297.0
 12
0.0
 22
0.0
 32
0.0
 14
1.0000000000E+20
 24
1.0000000000E+20
 34
1.0000000000E+20
 15
-1.0000000000E+20
 25
-1.0000000000E+20
 35
-1.0000000000E+20
146
0.0
 13
0.0
 23
0.0
 33
0.0
 16
1.0
 26
0.0
 36
0.0
 17
0.0
 27
1.0
 37
0.0
 76
     0
330
1B
  0
LAYOUT
  5
26
102
{ACAD_REACTORS
330
1A
102
}
330
1A
100
AcDbPlotSettings
  1

  2
none_device
  4

  6

 40
0.0
 41
0.0
 42
0.0
 43
0.0
 44
0.0
 45
0.0
 46
0.0
 47
0.0
 48
0.0
 49
0.0
140
0.0
141
0.0
142
1.0
143
1.0
 70
   688
 72
     1
 73
     0
 74
     5
  7

 75
    16
147
1.0
148
0.0
149
0.0
100
AcDbLayout
  1
Layout2
 70
     1
 71
     2
 10
0.0
 20
0.0
 11
0.0
 21
0.0
 12
0.0
 22
0.0
 32
0.0
 14
0.0
 24
0.0
 34
0.0
 15
0.0
 25
0.0
 35
0.0
146
0.0
 13
0.0
 23
0.0
 33
0.0
 16
1.0
 26
0.0
 36
0.0
 17
0.0
 27
1.0
 37
0.0
 76
     0
330
23
  0
LAYOUT
  5
22
102
{ACAD_REACTORS
330
1A
102
}
330
1A
100
AcDbPlotSettings
  1

  2
none_device
  4
Letter_(8.50_x_11.00_Inches)
  6

 40
6.35
 41
6.35
 42
6.35000508
 43
6.35000508
 44
215.9
 45
279.4
 46
0.0
 47
0.0
 48
0.0
 49
0.0
140
0.0
141
0.0
142
1.0
143
1.0
 70
  1712
 72
     1
 73
     0
 74
     0
  7

 75
     0
147
1.0
148
0.0
149
0.0
100
AcDbLayout
  1
Model
 70
     1
 71
     0
 10
0.0
 20
0.0
 11
1189.0
 21
841.0
 12
0.0
 22
0.0
 32
0.0
 14
0.0
 24
0.0
 34
0.0
 15
1189.0
 25
841.0
 35
0.0
146
0.0
 13
0.0
 23
0.0
 33
0.0
 16
1.0
 26
0.0
 36
0.0
 17
0.0
 27
1.0
 37
0.0
 76
     0
330
1F
331
29
  0
MLINESTYLE
  5
18
102
{ACAD_REACTORS
330
17
102
}
330
17
100
AcDbMlineStyle
  2
Standard
 70
     0
  3

 62
   256
 51
90.0
 52
90.0
 71
     2
 49
0.5
 62
   256
  6
BYLAYER
 49
-0.5
 62
   256
  6
BYLAYER
  0
ACDBPLACEHOLDER
  5
F
102
{ACAD_REACTORS
330
E
102
}
330
E
  0
SCALE
  5
48
102
{ACAD_REACTORS
330
47
102
}
330
47
100
AcDbScale
 70
     0
300
1:1
140
1.0
141
1.0
290
     1
  0
SCALE
  5
49
102
{ACAD_REACTORS
330
47
102
}
330
47
100
AcDbScale
 70
     0
300
1:2
140
1.0
141
2.0
290
     0
  0
SCALE
  5
4A
102
{ACAD_REACTORS
330
47
102
}
330
47
100
AcDbScale
 70
     0
300
1:4
140
1.0
141
4.0
290
     0
  0
SCALE
  5
4B
102
{ACAD_REACTORS
330
47
102
}
330
47
100
AcDbScale
 70
     0
300
1:5
140
1.0
141
5.0
290
     0
  0
SCALE
  5
4C
102
{ACAD_REACTORS
330
47
102
}
330
47
100
AcDbScale
 70
     0
300
1:8
140
1.0
141
8.0
290
     0
  0
SCALE
  5
4D
102
{ACAD_REACTORS
330
47
102
}
330
47
100
AcDbScale
 70
     0
300
1:10
140
1.0
141
10.0
290
     0
  0
SCALE
  5
4E
102
{ACAD_REACTORS
330
47
102
}
330
47
100
AcDbScale
 70
     0
300
1:16
140
1.0
141
16.0
290
     0
  0
SCALE
  5
4F
102
{ACAD_REACTORS
330
47
102
}
330
47
100
AcDbScale
 70
     0
300
1:20
140
1.0
141
20.0
290
     0
  0
SCALE
  5
50
102
{ACAD_REACTORS
330
47
102
}
330
47
100
AcDbScale
 70
     0
300
1:30
140
1.0
141
30.0
290
     0
  0
SCALE
  5
51
102
{ACAD_REACTORS
330
47
102
}
330
47
100
AcDbScale
 70
     0
300
1:40
140
1.0
141
40.0
290
     0
  0
SCALE
  5
52
102
{ACAD_REACTORS
330
47
102
}
330
47
100
AcDbScale
 70
     0
300
1:50
140
1.0
141
50.0
290
     0
  0
SCALE
  5
53
102
{ACAD_REACTORS
330
47
102
}
330
47
100
AcDbScale
 70
     0
300
1:100
140
1.0
141
100.0
290
     0
  0
SCALE
  5
54
102
{ACAD_REACTORS
330
47
102
}
330
47
100
AcDbScale
 70
     0
300
2:1
140
2.0
141
1.0
290
     0
  0
SCALE
  5
55
102
{ACAD_REACTORS
330
47
102
}
330
47
100
AcDbScale
 70
     0
300
4:1
140
4.0
141
1.0
290
     0
  0
SCALE
  5
56
102
{ACAD_REACTORS
330
47
102
}
330
47
100
AcDbScale
 70
     0
300
8:1
140
8.0
141
1.0
290
     0
  0
SCALE
  5
57
102
{ACAD_REACTORS
330
47
102
}
330
47
100
AcDbScale
 70
     0
300
10:1
140
10.0
141
1.0
290
     0
  0
SCALE
  5
58
102
{ACAD_REACTORS
330
47
102
}
330
47
100
AcDbScale
 70
     0
300
100:1
140
100.0
141
1.0
290
     0
  0
SCALE
  5
59
102
{ACAD_REACTORS
330
47
102
}
330
47
100
AcDbScale
 70
     0
300
1/128" = 1'-0"
140
0.0078125
141
12.0
290
     0
  0
SCALE
  5
5A
102
{ACAD_REACTORS
330
47
102
}
330
47
100
AcDbScale
 70
     0
300
1/64" = 1'-0"
140
0.015625
141
12.0
290
     0
  0
SCALE
  5
5B
102
{ACAD_REACTORS
330
47
102
}
330
47
100
AcDbScale
 70
     0
300
1/32" = 1'-0"
140
0.03125
141
12.0
290
     0
  0
SCALE
  5
5C
102
{ACAD_REACTORS
330
47
102
}
330
47
100
AcDbScale
 70
     0
300
1/16" = 1'-0"
140
0.0625
141
12.0
290
     0
  0
SCALE
  5
5D
102
{ACAD_REACTORS
330
47
102
}
330
47
100
AcDbScale
 70
     0
300
3/32" = 1'-0"
140
0.09375
141
12.0
290
     0
  0
SCALE
  5
5E
102
{ACAD_REACTORS
330
47
102
}
330
47
100
AcDbScale
 70
     0
300
1/8" = 1'-0"
140
0.125
141
12.0
290
     0
  0
SCALE
  5
5F
102
{ACAD_REACTORS
330
47
102
}
330
47
100
AcDbScale
 70
     0
300
3/16" = 1'-0"
140
0.1875
141
12.0
290
     0
  0
SCALE
  5
60
102
{ACAD_REACTORS
330
47
102
}
330
47
100
AcDbScale
 70
     0
300
1/4" = 1'-0"
140
0.25
141
12.0
290
     0
  0
SCALE
  5
61
102
{ACAD_REACTORS
330
47
102
}
330
47
100
AcDbScale
 70
     0
300
3/8" = 1'-0"
140
0.375
141
12.0
290
     0
  0
SCALE
  5
62
102
{ACAD_REACTORS
330
47
102
}
330
47
100
AcDbScale
 70
     0
300
1/2" = 1'-0"
140
0.5
141
12.0
290
     0
  0
SCALE
  5
63
102
{ACAD_REACTORS
330
47
102
}
330
47
100
AcDbScale
 70
     0
300
3/4" = 1'-0"
140
0.75
141
12.0
290
     0
  0
SCALE
  5
64
102
{ACAD_REACTORS
330
47
102
}
330
47
100
AcDbScale
 70
     0
300
1" = 1'-0"
140
1.0
141
12.0
290
     0
  0
SCALE
  5
65
102
{ACAD_REACTORS
330
47
102
}
330
47
100
AcDbScale
 70
     0
300
1-1/2" = 1'-0"
140
1.5
141
12.0
290
     0
  0
SCALE
  5
66
102
{ACAD_REACTORS
330
47
102
}
330
47
100
AcDbScale
 70
     0
300
3" = 1'-0"
140
3.0
141
12.0
290
     0
  0
SCALE
  5
67
102
{ACAD_REACTORS
330
47
102
}
330
47
100
AcDbScale
 70
     0
300
6" = 1'-0"
140
6.0
141
12.0
290
     0
  0
SCALE
  5
68
102
{ACAD_REACTORS
330
47
102
}
330
47
100
AcDbScale
 70
     0
300
1'-0" = 1'-0"
140
12.0
141
12.0
290
     0
  0
ENDSEC
  0
EOF
