  0
SECTION
  2
HEADER
  9
$ACADVER
  1
AC1015
  9
$ACADMAINTVER
 70
     6
  9
$DWGCODEPAGE
  3
ANSI_1254
  9
$INSBASE
 10
0.0
 20
0.0
 30
0.0
  9
$EXTMIN
 10
0.0
 20
0.0
 30
0.0
  9
$EXTMAX
 10
420.0
 20
297.0
 30
0.0
  9
$LIMMIN
 10
0.0
 20
0.0
  9
$LIMMAX
 10
420.0
 20
297.0
  9
$ORTHOMODE
 70
     0
  9
$REGENMODE
 70
     1
  9
$FILLMODE
 70
     1
  9
$QTEXTMODE
 70
     0
  9
$MIRRTEXT
 70
     1
  9
$LTSCALE
 40
1.0
  9
$ATTMODE
 70
     1
  9
$TEXTSIZE
 40
4.9388888889
  9
$TRACEWID
 40
1.0
  9
$TEXTSTYLE
  7
Standard
  9
$CLAYER
  8
0
  9
$CELTYPE
  6
ByLayer
  9
$CECOLOR
 62
   256
  9
$CELTSCALE
 40
1.0
  9
$DISPSILH
 70
     0
  9
$DIMSCALE
 40
1.0
  9
$DIMASZ
 40
3.65
  9
$DIMEXO
 40
0.5
  9
$DIMDLI
 40
3.75
  9
$DIMRND
 40
0.0
  9
$DIMDLE
 40
0.0
  9
$DIMEXE
 40
1.0
  9
$DIMTP
 40
0.0
  9
$DIMTM
 40
0.0
  9
$DIMTXT
 40
2.6458333333
  9
$DIMCEN
 40
2.5
  9
$DIMTSZ
 40
0.0
  9
$DIMTOL
 70
     0
  9
$DIMLIM
 70
     0
  9
$DIMTIH
 70
     1
  9
$DIMTOH
 70
     1
  9
$DIMSE1
 70
     0
  9
$DIMSE2
 70
     0
  9
$DIMTAD
 70
     1
  9
$DIMZIN
 70
     0
  9
$DIMBLK
  1

  9
$DIMASO
 70
     1
  9
$DIMSHO
 70
     1
  9
$DIMPOST
  1

  9
$DIMAPOST
  1

  9
$DIMALT
 70
     0
  9
$DIMALTD
 70
     3
  9
$DIMALTF
 40
0.0393700787
  9
$DIMLFAC
 40
1.0
  9
$DIMTOFL
 70
     1
  9
$DIMTVP
 40
0.0
  9
$DIMTIX
 70
     0
  9
$DIMSOXD
 70
     0
  9
$DIMSAH
 70
     0
  9
$DIMBLK1
  1

  9
$DIMBLK2
  1

  9
$DIMSTYLE
  2
ISO-25
  9
$DIMCLRD
 70
     0
  9
$DIMCLRE
 70
     0
  9
$DIMCLRT
 70
     0
  9
$DIMTFAC
 40
1.0
  9
$DIMGAP
 40
1.524
  9
$DIMJUST
 70
     0
  9
$DIMSD1
 70
     0
  9
$DIMSD2
 70
     0
  9
$DIMTOLJ
 70
     0
  9
$DIMTZIN
 70
     0
  9
$DIMALTZ
 70
     0
  9
$DIMALTTZ
 70
     0
  9
$DIMUPT
 70
     0
  9
$DIMDEC
 70
     2
  9
$DIMTDEC
 70
     2
  9
$DIMALTU
 70
     2
  9
$DIMALTTD
 70
     3
  9
$DIMTXSTY
  7
Standard
  9
$DIMAUNIT
 70
     0
  9
$DIMADEC
 70
     2
  9
$DIMALTRND
 40
0.0
  9
$DIMAZIN
 70
     0
  9
$DIMDSEP
 70
    44
  9
$DIMATFIT
 70
     3
  9
$DIMFRAC
 70
     0
  9
$DIMLDRBLK
  1

  9
$DIMLUNIT
 70
     2
  9
$DIMLWD
 70
    -2
  9
$DIMLWE
 70
    -2
  9
$DIMTMOVE
 70
     0
  9
$LUNITS
 70
     2
  9
$LUPREC
 70
     2
  9
$SKETCHINC
 40
1.0
  9
$FILLETRAD
 40
10.0
  9
$AUNITS
 70
     0
  9
$AUPREC
 70
     2
  9
$MENU
  1
.
  9
$ELEVATION
 40
0.0
  9
$PELEVATION
 40
0.0
  9
$THICKNESS
 40
0.0
  9
$LIMCHECK
 70
     0
  9
$CHAMFERA
 40
0.0
  9
$CHAMFERB
 40
0.0
  9
$CHAMFERC
 40
0.0
  9
$CHAMFERD
 40
0.0
  9
$SKPOLY
 70
     0
  9
$TDCREATE
 40
2459102.5077
  9
$TDUCREATE
 40
2459102.3827
  9
$TDUPDATE
 40
2459102.507700613
  9
$TDUUPDATE
 40
2459102.382700613
  9
$TDINDWG
 40
0.0000000116
  9
$TDUSRTIMER
 40
0.0000000116
  9
$USRTIMER
 70
     1
  9
$ANGBASE
 50
0.0
  9
$ANGDIR
 70
     0
  9
$PDMODE
 70
     0
  9
$PDSIZE
 40
-1.0
  9
$PLINEWID
 40
0.0
  9
$SPLFRAME
 70
     0
  9
$SPLINETYPE
 70
     6
  9
$SPLINESEGS
 70
     8
  9
$HANDSEED
  5
16A
  9
$SURFTAB1
 70
     6
  9
$SURFTAB2
 70
     6
  9
$SURFTYPE
 70
     6
  9
$SURFU
 70
     6
  9
$SURFV
 70
     6
  9
$UCSBASE
  2

  9
$UCSNAME
  2

  9
$UCSORG
 10
0.0
 20
0.0
 30
0.0
  9
$UCSXDIR
 10
1.0
 20
0.0
 30
0.0
  9
$UCSYDIR
 10
0.0
 20
1.0
 30
0.0
  9
$UCSORTHOREF
  2

  9
$UCSORTHOVIEW
 70
     0
  9
$UCSORGTOP
 10
0.0
 20
0.0
 30
0.0
  9
$UCSORGBOTTOM
 10
0.0
 20
0.0
 30
0.0
  9
$UCSORGLEFT
 10
0.0
 20
0.0
 30
0.0
  9
$UCSORGRIGHT
 10
0.0
 20
0.0
 30
0.0
  9
$UCSORGFRONT
 10
0.0
 20
0.0
 30
0.0
  9
$UCSORGBACK
 10
0.0
 20
0.0
 30
0.0
  9
$PUCSBASE
  2

  9
$PUCSNAME
  2

  9
$PUCSORG
 10
0.0
 20
0.0
 30
0.0
  9
$PUCSXDIR
 10
1.0
 20
0.0
 30
0.0
  9
$PUCSYDIR
 10
0.0
 20
1.0
 30
0.0
  9
$PUCSORTHOREF
  2

  9
$PUCSORTHOVIEW
 70
     0
  9
$PUCSORGTOP
 10
0.0
 20
0.0
 30
0.0
  9
$PUCSORGBOTTOM
 10
0.0
 20
0.0
 30
0.0
  9
$PUCSORGLEFT
 10
0.0
 20
0.0
 30
0.0
  9
$PUCSORGRIGHT
 10
0.0
 20
0.0
 30
0.0
  9
$PUCSORGFRONT
 10
0.0
 20
0.0
 30
0.0
  9
$PUCSORGBACK
 10
0.0
 20
0.0
 30
0.0
  9
$USERI1
 70
     0
  9
$USERI2
 70
     0
  9
$USERI3
 70
     0
  9
$USERI4
 70
     0
  9
$USERI5
 70
     0
  9
$USERR1
 40
0.0
  9
$USERR2
 40
0.0
  9
$USERR3
 40
0.0
  9
$USERR4
 40
0.0
  9
$USERR5
 40
0.0
  9
$WORLDVIEW
 70
     1
  9
$SHADEDGE
 70
     3
  9
$SHADEDIF
 70
    70
  9
$TILEMODE
 70
     1
  9
$MAXACTVP
 70
    64
  9
$PINSBASE
 10
0.0
 20
0.0
 30
0.0
  9
$PLIMCHECK
 70
     0
  9
$PEXTMIN
 10
1.0000000000E+20
 20
1.0000000000E+20
 30
1.0000000000E+20
  9
$PEXTMAX
 10
-1.0000000000E+20
 20
-1.0000000000E+20
 30
-1.0000000000E+20
  9
$PLIMMIN
 10
0.0
 20
0.0
  9
$PLIMMAX
 10
420.0
 20
297.0
  9
$UNITMODE
 70
     0
  9
$VISRETAIN
 70
     1
  9
$PLINEGEN
 70
     0
  9
$PSLTSCALE
 70
     1
  9
$TREEDEPTH
 70
  3020
  9
$CMLSTYLE
  2
Standard
  9
$CMLJUST
 70
     0
  9
$CMLSCALE
 40
20.0
  9
$PROXYGRAPHICS
 70
     1
  9
$MEASUREMENT
 70
     1
  9
$CELWEIGHT
370
    -1
  9
$ENDCAPS
280
     0
  9
$JOINSTYLE
280
     0
  9
$LWDISPLAY
290
     1
  9
$INSUNITS
 70
     4
  9
$HYPERLINKBASE
  1

  9
$STYLESHEET
  1

  9
$XEDIT
290
     1
  9
$CEPSNTYPE
380
     0
  9
$PSTYLEMODE
290
     1
  9
$FINGERPRINTGUID
  2
{beff80e4-937a-479c-bd89-fb7728cc0f2d}
  9
$VERSIONGUID
  2
{FAEB1C32-E019-11D5-929B-00C0DF256EC4}
  9
$EXTNAMES
290
     1
  9
$PSVPSCALE
 40
0.0
  9
$OLESTARTUP
290
     0
  0
ENDSEC
  0
SECTION
  2
CLASSES
  0
CLASS
  1
ACDBDICTIONARYWDFLT
  2
AcDbDictionaryWithDefault
  3
ObjectDBX Classes
 90
        0
280
     0
281
     0
  0
CLASS
  1
VISUALSTYLE
  2
AcDbVisualStyle
  3
ObjectDBX Classes
 90
     4095
280
     0
281
     0
  0
CLASS
  1
MATERIAL
  2
AcDbMaterial
  3
ObjectDBX Classes
 90
     1153
280
     0
281
     0
  0
CLASS
  1
SCALE
  2
AcDbScale
  3
ObjectDBX Classes
 90
     1153
280
     0
281
     0
  0
CLASS
  1
TABLESTYLE
  2
AcDbTableStyle
  3
ObjectDBX Classes
 90
     4095
280
     0
281
     0
  0
CLASS
  1
MLEADERSTYLE
  2
AcDbMLeaderStyle
  3
ACDB_MLEADERSTYLE_CLASS
 90
     4095
280
     0
281
     0
  0
CLASS
  1
SUN
  2
AcDbSun
  3
SCENEOE
 90
     1153
280
     0
281
     0
  0
CLASS
  1
ACDBPLACEHOLDER
  2
AcDbPlaceHolder
  3
ObjectDBX Classes
 90
        0
280
     0
281
     0
  0
CLASS
  1
LAYOUT
  2
AcDbLayout
  3
ObjectDBX Classes
 90
        0
280
     0
281
     0
  0
ENDSEC
  0
SECTION
  2
TABLES
  0
TABLE
  2
VPORT
  5
8
330
0
100
AcDbSymbolTable
 70
     1
  0
VPORT
  5
29
330
8
100
AcDbSymbolTableRecord
100
AcDbViewportTableRecord
  2
*Active
 70
     0
 10
0.0
 20
0.0
 11
1.0
 21
1.0
 12
210.0
 22
148.5
 13
0.0
 23
0.0
 14
10.0
 24
10.0
 15
10.0
 25
10.0
 16
0.0
 26
0.0
 36
1.0
 17
0.0
 27
0.0
 37
0.0
 40
297.0
 41
1.4141414141
 42
50.0
 43
0.0
 44
0.0
 50
0.0
 51
0.0
 71
     0
 72
  2000
 73
     1
 74
     3
 75
     0
 76
     0
 77
     0
 78
     0
281
     0
 65
     1
110
0.0
120
0.0
130
0.0
111
1.0
121
0.0
131
0.0
112
0.0
122
1.0
132
0.0
 79
     0
146
0.0
  0
ENDTAB
  0
TABLE
  2
LTYPE
  5
5
330
0
100
AcDbSymbolTable
 70
     6
  0
LTYPE
  5
14
330
5
100
AcDbSymbolTableRecord
100
AcDbLinetypeTableRecord
  2
ByBlock
 70
     0
  3

 72
    65
 73
     0
 40
0.0
  0
LTYPE
  5
15
330
5
100
AcDbSymbolTableRecord
100
AcDbLinetypeTableRecord
  2
ByLayer
 70
     0
  3

 72
    65
 73
     0
 40
0.0
  0
LTYPE
  5
16
330
5
100
AcDbSymbolTableRecord
100
AcDbLinetypeTableRecord
  2
Continuous
 70
     0
  3
Solid line
 72
    65
 73
     0
 40
0.0
  0
LTYPE
  5
6E
330
5
100
AcDbSymbolTableRecord
100
AcDbLinetypeTableRecord
  2
HIDDEN
 70
     0
  3
Hidden __ __ __ __ __ __ __ __ __ __ __ __ __ __
 72
    65
 73
     2
 40
1.905
 49
1.27
 74
     0
 49
-0.635
 74
     0
  0
LTYPE
  5
6F
330
5
100
AcDbSymbolTableRecord
100
AcDbLinetypeTableRecord
  2
PHANTOM
 70
     0
  3
Phantom ______  __  __  ______  __  __  ______
 72
    65
 73
     6
 40
12.7
 49
6.35
 74
     0
 49
-1.27
 74
     0
 49
1.27
 74
     0
 49
-1.27
 74
     0
 49
1.27
 74
     0
 49
-1.27
 74
     0
  0
LTYPE
  5
70
330
5
100
AcDbSymbolTableRecord
100
AcDbLinetypeTableRecord
  2
CENTER
 70
     0
  3
Center ____ _ ____ _ ____ _ ____ _ ____ _ ____
 72
    65
 73
     4
 40
10.16
 49
6.35
 74
     0
 49
-1.27
 74
     0
 49
1.27
 74
     0
 49
-1.27
 74
     0
  0
LTYPE
  5
71
330
5
100
AcDbSymbolTableRecord
100
AcDbLinetypeTableRecord
  2
CENTERX2
 70
     0
  3
Center (2x) ________  __  ________  __  _____
 72
    65
 73
     4
 40
20.32
 49
12.7
 74
     0
 49
-2.54
 74
     0
 49
2.54
 74
     0
 49
-2.54
 74
     0
  0
LTYPE
  5
72
330
5
100
AcDbSymbolTableRecord
100
AcDbLinetypeTableRecord
  2
DOT2
 70
     0
  3
Dot (.5x) ........................................
 72
    65
 73
     2
 40
0.635
 49
0.0
 74
     0
 49
-0.635
 74
     0
  0
ENDTAB
  0
TABLE
  2
LAYER
  5
2
330
0
100
AcDbSymbolTable
 70
     5
  0
LAYER
  5
10
330
2
100
AcDbSymbolTableRecord
100
AcDbLayerTableRecord
  2
0
 70
     0
 62
     7
  6
Continuous
370
    -3
390
F
  0
LAYER
  5
73
330
2
100
AcDbSymbolTableRecord
100
AcDbLayerTableRecord
  2
FORMAT
 70
     0
 62
     7
  6
Continuous
370
    -3
390
F
  0
LAYER
  5
74
330
2
100
AcDbSymbolTableRecord
100
AcDbLayerTableRecord
  2
SLD-0
 70
     0
 62
   179
  6
Continuous
370
    -3
390
F
  0
LAYER
  5
75
330
2
100
AcDbSymbolTableRecord
100
AcDbLayerTableRecord
  2
AAA_EKSEN
 70
     0
 62
     1
  6
CENTER
370
    -3
390
F
  0
LAYER
  5
76
330
2
100
AcDbSymbolTableRecord
100
AcDbLayerTableRecord
  2
03
 70
     0
 62
     3
  6
HIDDEN
370
    -3
390
F
  0
ENDTAB
  0
TABLE
  2
STYLE
  5
3
330
0
100
AcDbSymbolTable
 70
     1
  0
STYLE
  5
11
330
3
100
AcDbSymbolTableRecord
100
AcDbTextStyleTableRecord
  2
Standard
 70
     0
 40
0.0
 41
1.0
 50
0.0
 71
     0
 42
4.9388888889
  3
txt
  4

  0
ENDTAB
  0
TABLE
  2
VIEW
  5
6
330
0
100
AcDbSymbolTable
 70
     0
  0
ENDTAB
  0
TABLE
  2
UCS
  5
7
330
0
100
AcDbSymbolTable
 70
     0
  0
ENDTAB
  0
TABLE
  2
APPID
  5
9
330
0
100
AcDbSymbolTable
 70
     1
  0
APPID
  5
12
330
9
100
AcDbSymbolTableRecord
100
AcDbRegAppTableRecord
  2
ACAD
 70
     0
  0
ENDTAB
  0
TABLE
  2
DIMSTYLE
  5
A
330
0
100
AcDbSymbolTable
 70
     1
100
AcDbDimStyleTable
  0
DIMSTYLE
105
27
330
A
100
AcDbSymbolTableRecord
100
AcDbDimStyleTableRecord
  2
ISO-25
 70
     0
 41
2.5
 42
0.625
 43
3.75
 44
1.25
 73
     0
 74
     0
 77
     1
 78
     8
140
2.5
141
2.5
143
0.0393700787
147
0.625
171
     3
172
     1
178
     0
271
     2
272
     2
274
     3
278
    44
283
     0
284
     8
340
11
  0
ENDTAB
  0
TABLE
  2
BLOCK_RECORD
  5
1
330
0
100
AcDbSymbolTable
 70
     1
  0
BLOCK_RECORD
  5
1F
330
1
100
AcDbSymbolTableRecord
100
AcDbBlockTableRecord
  2
*Model_Space
340
22
  0
BLOCK_RECORD
  5
1B
330
1
100
AcDbSymbolTableRecord
100
AcDbBlockTableRecord
  2
*Paper_Space
340
1E
  0
BLOCK_RECORD
  5
23
330
1
100
AcDbSymbolTableRecord
100
AcDbBlockTableRecord
  2
*Paper_Space0
340
26
  0
ENDTAB
  0
ENDSEC
  0
SECTION
  2
BLOCKS
  0
BLOCK
  5
20
330
1F
100
AcDbEntity
  8
0
100
AcDbBlockBegin
  2
*Model_Space
 70
     0
 10
0.0
 20
0.0
 30
0.0
  3
*Model_Space
  1

  0
ENDBLK
  5
21
330
1F
100
AcDbEntity
  8
0
100
AcDbBlockEnd
  0
BLOCK
  5
1C
330
1B
100
AcDbEntity
 67
     1
  8
0
100
AcDbBlockBegin
  2
*Paper_Space
 70
     0
 10
0.0
 20
0.0
 30
0.0
  3
*Paper_Space
  1

  0
ENDBLK
  5
1D
330
1B
100
AcDbEntity
 67
     1
  8
0
100
AcDbBlockEnd
  0
BLOCK
  5
24
330
23
100
AcDbEntity
  8
0
100
AcDbBlockBegin
  2
*Paper_Space0
 70
     0
 10
0.0
 20
0.0
 30
0.0
  3
*Paper_Space0
  1

  0
ENDBLK
  5
25
330
23
100
AcDbEntity
  8
0
100
AcDbBlockEnd
  0
ENDSEC
  0
SECTION
  2
ENTITIES
  0
LINE
  5
77
330
1F
100
AcDbEntity
  8
0
  6
Continuous
 62
     7
370
    25
100
AcDbLine
 10
135.287174133
 20
967.2541633849
 30
0.0
 11
135.287174133
 21
953.7541633849
 31
0.0
  0
LINE
  5
78
330
1F
100
AcDbEntity
  8
0
  6
Continuous
 62
     7
370
    25
100
AcDbLine
 10
292.287174133
 20
953.7541633849
 30
0.0
 11
292.287174133
 21
967.2541633849
 31
0.0
  0
ARC
  5
79
330
1F
100
AcDbEntity
  8
0
  6
Continuous
 62
     7
370
    25
100
AcDbCircle
 10
289.287174133
 20
967.2541633849
 30
0.0
 40
3.000000000000114
100
AcDbArc
 50
0.0
 51
90.0
  0
ARC
  5
7A
330
1F
100
AcDbEntity
  8
0
  6
Continuous
 62
     7
370
    25
100
AcDbCircle
 10
138.287174133
 20
967.2541633849
 30
0.0
 40
3.000000000000114
100
AcDbArc
 50
90.0
 51
180.0
  0
LINE
  5
7B
330
1F
100
AcDbEntity
  8
0
  6
Continuous
 62
     7
370
    25
100
AcDbLine
 10
189.371696745
 20
970.8541633849
 30
0.0
 11
189.371696745
 21
970.2541633849
 31
0.0
  0
LINE
  5
7C
330
1F
100
AcDbEntity
  8
0
  6
Continuous
 62
     7
370
    25
100
AcDbLine
 10
188.8927216671
 20
970.2541633849
 30
0.0
 11
188.8927216671
 21
970.8541633849
 31
0.0
  0
LINE
  5
7D
330
1F
100
AcDbEntity
  8
0
  6
Continuous
 62
     7
370
    25
100
AcDbLine
 10
212.4814922386
 20
970.2541633849
 30
0.0
 11
212.4814922386
 21
970.8541633849
 31
0.0
  0
LINE
  5
7E
330
1F
100
AcDbEntity
  8
0
  6
Continuous
 62
     7
370
    25
100
AcDbLine
 10
214.595910138
 20
970.2541633849
 30
0.0
 11
214.595910138
 21
970.8541633849
 31
0.0
  0
LINE
  5
7F
330
1F
100
AcDbEntity
  8
0
  6
Continuous
 62
     7
370
    25
100
AcDbLine
 10
193.6747330698
 20
970.9291633849
 30
0.0
 11
193.6747330698
 21
970.8541633849
 31
0.0
  0
LINE
  5
80
330
1F
100
AcDbEntity
  8
0
  6
Continuous
 62
     7
370
    25
100
AcDbLine
 10
177.7786350588
 20
970.8541633849
 30
0.0
 11
177.7786350588
 21
970.2541633849
 31
0.0
  0
LINE
  5
81
330
1F
100
AcDbEntity
  8
0
  6
Continuous
 62
     7
370
    25
100
AcDbLine
 10
221.0441517723
 20
970.8541633849
 30
0.0
 11
221.0441517723
 21
970.9291633849
 31
0.0
  0
LINE
  5
82
330
1F
100
AcDbEntity
  8
0
  6
Continuous
 62
     7
370
    25
100
AcDbLine
 10
238.8413336577
 20
970.2541633849
 30
0.0
 11
238.8413336577
 21
970.8541633849
 31
0.0
  0
LINE
  5
83
330
1F
100
AcDbEntity
  8
0
  6
Continuous
 62
     7
370
    25
100
AcDbLine
 10
218.4877198929
 20
970.9291633849
 30
0.0
 11
218.4877198929
 21
970.8541633849
 31
0.0
  0
LINE
  5
84
330
1F
100
AcDbEntity
  8
0
  6
Continuous
 62
     7
370
    25
100
AcDbLine
 10
288.787174133
 20
905.3341633849
 30
0.0
 11
288.787174133
 21
953.7541633849
 31
0.0
  0
LINE
  5
85
330
1F
100
AcDbEntity
  8
0
  6
Continuous
 62
     7
370
    25
100
AcDbLine
 10
138.787174133
 20
953.7541633849
 30
0.0
 11
138.787174133
 21
905.3341633849
 31
0.0
  0
LINE
  5
86
330
1F
100
AcDbEntity
  8
0
  6
Continuous
 62
     7
370
    25
100
AcDbLine
 10
135.887174133
 20
905.3341633849
 30
0.0
 11
135.887174133
 21
894.5341633849
 31
0.0
  0
LINE
  5
87
330
1F
100
AcDbEntity
  8
0
  6
Continuous
 62
     7
370
    25
100
AcDbLine
 10
291.687174133
 20
894.5341633849
 30
0.0
 11
291.687174133
 21
905.3341633849
 31
0.0
  0
ARC
  5
88
330
1F
100
AcDbEntity
  8
0
  6
Continuous
 62
     7
370
    25
100
AcDbCircle
 10
139.4036475651
 20
889.5963751312
 30
0.0
 40
2.91349340539639
100
AcDbArc
 50
110.0
 51
165.1723001232
  0
ARC
  5
89
330
1F
100
AcDbEntity
  8
0
  6
Continuous
 62
     7
370
    25
100
AcDbCircle
 10
139.4036475651
 20
887.4719516387
 30
0.0
 40
2.913493405396283
100
AcDbArc
 50
194.8276998768
 51
250.0
  0
LINE
  5
8A
330
1F
100
AcDbEntity
  8
0
  6
Continuous
 62
     7
370
    25
100
AcDbLine
 10
138.787174133
 20
892.3341633849
 30
0.0
 11
138.407174133
 21
892.3341633849
 31
0.0
  0
LINE
  5
8B
330
1F
100
AcDbEntity
  8
0
  6
Continuous
 62
     7
370
    25
100
AcDbLine
 10
138.407174133
 20
884.7341633849
 30
0.0
 11
138.787174133
 21
884.7341633849
 31
0.0
  0
SPLINE
  5
8C
330
1F
100
AcDbEntity
  8
0
  6
Continuous
 62
     7
370
    25
100
AcDbSpline
210
0.0
220
0.0
230
1.0
 70
     8
 71
     3
 72
    11
 73
     7
 74
     0
 42
0.000000001
 43
0.00000001
 40
0.0
 40
0.0
 40
0.0
 40
0.0
 40
0.2456175158581989
 40
0.5209762498010028
 40
0.8038530899007543
 40
1.0
 40
1.0
 40
1.0
 40
1.0
 10
253.6347647987739
 20
193.681387619954
 30
0.0
 10
253.8465394570184
 20
193.9183805748365
 30
0.0
 10
254.2957320435878
 20
194.4210633759084
 30
0.0
 10
254.6959142592867
 20
195.3963125761689
 30
0.0
 10
254.8543090795978
 20
196.3716350911003
 30
0.0
 10
254.7813857334043
 20
196.9883417261043
 30
0.0
 10
254.7515256502164
 20
197.2408659503073
 30
0.0
  0
SPLINE
  5
8D
330
1F
100
AcDbEntity
  8
0
  6
Continuous
 62
     7
370
    25
100
AcDbSpline
210
0.0
220
0.0
230
1.0
 70
     8
 71
     3
 72
    10
 73
     6
 74
     0
 42
0.000000001
 43
0.00000001
 40
0.0
 40
0.0
 40
0.0
 40
0.0
 40
0.400602143167229
 40
0.8706327832050321
 40
1.0
 40
1.0
 40
1.0
 40
1.0
 10
254.7515256502164
 20
197.2408659503073
 30
0.0
 10
254.6687155350724
 20
197.5632736725692
 30
0.0
 10
254.4887434549051
 20
198.2639657116593
 30
0.0
 10
254.0589783521768
 20
199.0106962246637
 30
0.0
 10
253.6786213841676
 20
199.3304525928681
 30
0.0
 10
253.5965294617842
 20
199.3994651709672
 30
0.0
  0
LINE
  5
8E
330
1F
100
AcDbEntity
  8
0
  6
Continuous
 62
     7
370
    25
100
AcDbLine
 10
251.287174133
 20
192.7341633849
 30
0.0
 11
251.477174133
 21
192.7341633849
 31
0.0
  0
LINE
  5
8F
330
1F
100
AcDbEntity
  8
0
  6
Continuous
 62
     7
370
    25
100
AcDbLine
 10
251.477174133
 20
200.3341633849
 30
0.0
 11
251.287174133
 21
200.3341633849
 31
0.0
  0
ARC
  5
90
330
1F
100
AcDbEntity
  8
0
  6
Continuous
 62
     7
370
    25
100
AcDbCircle
 10
139.4036475651
 20
197.5963751312
 30
0.0
 40
2.913493405396353
100
AcDbArc
 50
110.0
 51
165.1723001232
  0
ARC
  5
91
330
1F
100
AcDbEntity
  8
0
  6
Continuous
 62
     7
370
    25
100
AcDbCircle
 10
139.4036475651
 20
195.4719516387
 30
0.0
 40
2.913493405396353
100
AcDbArc
 50
194.8276998768
 51
250.0
  0
LINE
  5
92
330
1F
100
AcDbEntity
  8
0
  6
Continuous
 62
     7
370
    25
100
AcDbLine
 10
138.787174133
 20
200.3341633849
 30
0.0
 11
138.407174133
 21
200.3341633849
 31
0.0
  0
LINE
  5
93
330
1F
100
AcDbEntity
  8
0
  6
Continuous
 62
     7
370
    25
100
AcDbLine
 10
138.407174133
 20
192.7341633849
 30
0.0
 11
138.787174133
 21
192.7341633849
 31
0.0
  0
SPLINE
  5
94
330
1F
100
AcDbEntity
  8
0
  6
Continuous
 62
     7
370
    25
100
AcDbSpline
210
0.0
220
0.0
230
1.0
 70
     8
 71
     3
 72
    12
 73
     8
 74
     0
 42
0.000000001
 43
0.00000001
 40
0.0
 40
0.0
 40
0.0
 40
0.0
 40
0.1628233867787127
 40
0.3830180180215002
 40
0.608897204550842
 40
0.8420206704171593
 40
1.0
 40
1.0
 40
1.0
 40
1.0
 10
253.6200231442589
 20
885.6870564363437
 30
0.0
 10
253.8020845707903
 20
885.8756911147059
 30
0.0
 10
254.2303572417365
 20
886.3194263917187
 30
0.0
 10
254.645469050811
 20
887.2279413531436
 30
0.0
 10
254.8550148047187
 20
888.3077326767992
 30
0.0
 10
254.7845581026306
 20
889.31815594309
 30
0.0
 10
254.5694481507671
 20
889.9107388031919
 30
0.0
 10
254.4825581403213
 20
890.1501025818466
 30
0.0
  0
SPLINE
  5
95
330
1F
100
AcDbEntity
  8
0
  6
Continuous
 62
     7
370
    25
100
AcDbSpline
210
0.0
220
0.0
230
1.0
 70
     8
 71
     3
 72
     9
 73
     5
 74
     0
 42
0.000000001
 43
0.00000001
 40
0.0
 40
0.0
 40
0.0
 40
0.0
 40
0.6685761965337224
 40
1.0
 40
1.0
 40
1.0
 40
1.0
 10
254.4825581403213
 20
890.1501025818466
 30
0.0
 10
254.3315736424589
 20
890.4649917362436
 30
0.0
 10
254.1057437390835
 20
890.935976428833
 30
0.0
 10
253.7213264458601
 20
891.2805620901232
 30
0.0
 10
253.5939214044218
 20
891.394765980608
 30
0.0
  0
LINE
  5
96
330
1F
100
AcDbEntity
  8
0
  6
Continuous
 62
     7
370
    25
100
AcDbLine
 10
251.287174133
 20
884.7341633849
 30
0.0
 11
251.477174133
 21
884.7341633849
 31
0.0
  0
LINE
  5
97
330
1F
100
AcDbEntity
  8
0
  6
Continuous
 62
     7
370
    25
100
AcDbLine
 10
251.477174133
 20
892.3341633849
 30
0.0
 11
251.287174133
 21
892.3341633849
 31
0.0
  0
LINE
  5
98
330
1F
100
AcDbEntity
  8
0
  6
Continuous
 62
     7
370
    25
100
AcDbLine
 10
138.787174133
 20
192.7341633849
 30
0.0
 11
138.787174133
 21
176.5341633849
 31
0.0
  0
LINE
  5
99
330
1F
100
AcDbEntity
  8
0
  6
Continuous
 62
     7
370
    25
100
AcDbLine
 10
138.787174133
 20
884.7341633849
 30
0.0
 11
138.787174133
 21
200.3341633849
 31
0.0
  0
LINE
  5
9A
330
1F
100
AcDbEntity
  8
0
  6
Continuous
 62
     7
370
    25
100
AcDbLine
 10
138.787174133
 20
894.5341633849
 30
0.0
 11
138.787174133
 21
892.3341633849
 31
0.0
  0
LINE
  5
9B
330
1F
100
AcDbEntity
  8
0
  6
Continuous
 62
     7
370
    25
100
AcDbLine
 10
288.787174133
 20
176.5341633849
 30
0.0
 11
288.787174133
 21
894.5341633849
 31
0.0
  0
LINE
  5
9C
330
1F
100
AcDbEntity
  8
0
  6
Continuous
 62
     7
370
    25
100
AcDbLine
 10
288.787174133
 20
170.5341633849
 30
0.0
 11
288.787174133
 21
176.5341633849
 31
0.0
  0
LINE
  5
9D
330
1F
100
AcDbEntity
  8
0
  6
Continuous
 62
     7
370
    25
100
AcDbLine
 10
138.787174133
 20
176.5341633849
 30
0.0
 11
138.787174133
 21
170.5341633849
 31
0.0
  0
LINE
  5
9E
330
1F
100
AcDbEntity
  8
0
  6
Continuous
 62
     7
370
    25
100
AcDbLine
 10
145.804179936
 20
953.7541633849
 30
0.0
 11
135.287174133
 21
953.7541633849
 31
0.0
  0
LINE
  5
9F
330
1F
100
AcDbEntity
  8
0
  6
Continuous
 62
     7
370
    25
100
AcDbLine
 10
292.287174133
 20
953.7541633849
 30
0.0
 11
145.804179936
 21
953.7541633849
 31
0.0
  0
LINE
  5
A0
330
1F
100
AcDbEntity
  8
0
  6
Continuous
 62
     7
370
    25
100
AcDbLine
 10
148.4022561473
 20
970.2541633849
 30
0.0
 11
289.287174133
 21
970.2541633849
 31
0.0
  0
LINE
  5
A1
330
1F
100
AcDbEntity
  8
0
  6
Continuous
 62
     7
370
    25
100
AcDbLine
 10
138.287174133
 20
970.2541633849
 30
0.0
 11
148.4022561473
 21
970.2541633849
 31
0.0
  0
LINE
  5
A2
330
1F
100
AcDbEntity
  8
0
  6
Continuous
 62
     7
370
    25
100
AcDbLine
 10
190.485696745
 20
970.8541633849
 30
0.0
 11
190.485696745
 21
970.2541633849
 31
0.0
  0
LINE
  5
A3
330
1F
100
AcDbEntity
  8
0
  6
Continuous
 62
     7
370
    25
100
AcDbLine
 10
189.8026840431
 20
970.2541633849
 30
0.0
 11
189.8026840431
 21
970.8541633849
 31
0.0
  0
LINE
  5
A4
330
1F
100
AcDbEntity
  8
0
  6
Continuous
 62
     7
370
    25
100
AcDbLine
 10
189.8026840431
 20
970.8541633849
 30
0.0
 11
190.485696745
 21
970.8541633849
 31
0.0
  0
LINE
  5
A5
330
1F
100
AcDbEntity
  8
0
  6
Continuous
 62
     7
370
    25
100
AcDbLine
 10
212.2314922386
 20
970.2541633849
 30
0.0
 11
212.2314922386
 21
970.8541633849
 31
0.0
  0
LINE
  5
A6
330
1F
100
AcDbEntity
  8
0
  6
Continuous
 62
     7
370
    25
100
AcDbLine
 10
190.485696745
 20
970.8541633849
 30
0.0
 11
212.2314922386
 21
970.8541633849
 31
0.0
  0
LINE
  5
A7
330
1F
100
AcDbEntity
  8
0
  6
Continuous
 62
     7
370
    25
100
AcDbLine
 10
189.4386840431
 20
970.8541633849
 30
0.0
 11
189.4386840431
 21
970.2541633849
 31
0.0
  0
LINE
  5
A8
330
1F
100
AcDbEntity
  8
0
  6
Continuous
 62
     7
370
    25
100
AcDbLine
 10
189.4386840431
 20
970.8541633849
 30
0.0
 11
189.8026840431
 21
970.8541633849
 31
0.0
  0
LINE
  5
A9
330
1F
100
AcDbEntity
  8
0
  6
Continuous
 62
     7
370
    25
100
AcDbLine
 10
189.371696745
 20
970.8541633849
 30
0.0
 11
189.4386840431
 21
970.8541633849
 31
0.0
  0
LINE
  5
AA
330
1F
100
AcDbEntity
  8
0
  6
Continuous
 62
     7
370
    25
100
AcDbLine
 10
187.997865828
 20
970.8541633849
 30
0.0
 11
187.997865828
 21
970.2541633849
 31
0.0
  0
LINE
  5
AB
330
1F
100
AcDbEntity
  8
0
  6
Continuous
 62
     7
370
    25
100
AcDbLine
 10
187.3148531261
 20
970.2541633849
 30
0.0
 11
187.3148531261
 21
970.8541633849
 31
0.0
  0
LINE
  5
AC
330
1F
100
AcDbEntity
  8
0
  6
Continuous
 62
     7
370
    25
100
AcDbLine
 10
187.3148531261
 20
970.8541633849
 30
0.0
 11
187.997865828
 21
970.8541633849
 31
0.0
  0
LINE
  5
AD
330
1F
100
AcDbEntity
  8
0
  6
Continuous
 62
     7
370
    25
100
AcDbLine
 10
188.6427216671
 20
970.2541633849
 30
0.0
 11
188.6427216671
 21
970.8541633849
 31
0.0
  0
LINE
  5
AE
330
1F
100
AcDbEntity
  8
0
  6
Continuous
 62
     7
370
    25
100
AcDbLine
 10
187.997865828
 20
970.8541633849
 30
0.0
 11
188.6427216671
 21
970.8541633849
 31
0.0
  0
LINE
  5
AF
330
1F
100
AcDbEntity
  8
0
  6
Continuous
 62
     7
370
    25
100
AcDbLine
 10
177.8456223569
 20
970.8541633849
 30
0.0
 11
177.8456223569
 21
970.2541633849
 31
0.0
  0
LINE
  5
B0
330
1F
100
AcDbEntity
  8
0
  6
Continuous
 62
     7
370
    25
100
AcDbLine
 10
177.8456223569
 20
970.8541633849
 30
0.0
 11
187.3148531261
 21
970.8541633849
 31
0.0
  0
LINE
  5
B1
330
1F
100
AcDbEntity
  8
0
  6
Continuous
 62
     7
370
    25
100
AcDbLine
 10
188.6427216671
 20
970.8541633849
 30
0.0
 11
188.8927216671
 21
970.8541633849
 31
0.0
  0
LINE
  5
B2
330
1F
100
AcDbEntity
  8
0
  6
Continuous
 62
     7
370
    25
100
AcDbLine
 10
212.2314922386
 20
970.8541633849
 30
0.0
 11
212.4814922386
 21
970.8541633849
 31
0.0
  0
LINE
  5
B3
330
1F
100
AcDbEntity
  8
0
  6
Continuous
 62
     7
370
    25
100
AcDbLine
 10
213.7010542989
 20
970.8541633849
 30
0.0
 11
213.7010542989
 21
970.2541633849
 31
0.0
  0
LINE
  5
B4
330
1F
100
AcDbEntity
  8
0
  6
Continuous
 62
     7
370
    25
100
AcDbLine
 10
213.018041597
 20
970.2541633849
 30
0.0
 11
213.018041597
 21
970.8541633849
 31
0.0
  0
LINE
  5
B5
330
1F
100
AcDbEntity
  8
0
  6
Continuous
 62
     7
370
    25
100
AcDbLine
 10
213.018041597
 20
970.8541633849
 30
0.0
 11
213.7010542989
 21
970.8541633849
 31
0.0
  0
LINE
  5
B6
330
1F
100
AcDbEntity
  8
0
  6
Continuous
 62
     7
370
    25
100
AcDbLine
 10
214.345910138
 20
970.2541633849
 30
0.0
 11
214.345910138
 21
970.8541633849
 31
0.0
  0
LINE
  5
B7
330
1F
100
AcDbEntity
  8
0
  6
Continuous
 62
     7
370
    25
100
AcDbLine
 10
213.7010542989
 20
970.8541633849
 30
0.0
 11
214.345910138
 21
970.8541633849
 31
0.0
  0
LINE
  5
B8
330
1F
100
AcDbEntity
  8
0
  6
Continuous
 62
     7
370
    25
100
AcDbLine
 10
212.4814922386
 20
970.8541633849
 30
0.0
 11
213.018041597
 21
970.8541633849
 31
0.0
  0
LINE
  5
B9
330
1F
100
AcDbEntity
  8
0
  6
Continuous
 62
     7
370
    25
100
AcDbLine
 10
214.345910138
 20
970.8541633849
 30
0.0
 11
214.595910138
 21
970.8541633849
 31
0.0
  0
LINE
  5
BA
330
1F
100
AcDbEntity
  8
0
  6
Continuous
 62
     7
370
    25
100
AcDbLine
 10
215.5437063214
 20
970.8541633849
 30
0.0
 11
215.5437063214
 21
970.2541633849
 31
0.0
  0
LINE
  5
BB
330
1F
100
AcDbEntity
  8
0
  6
Continuous
 62
     7
370
    25
100
AcDbLine
 10
214.8606936195
 20
970.2541633849
 30
0.0
 11
214.8606936195
 21
970.8541633849
 31
0.0
  0
LINE
  5
BC
330
1F
100
AcDbEntity
  8
0
  6
Continuous
 62
     7
370
    25
100
AcDbLine
 10
214.8606936195
 20
970.8541633849
 30
0.0
 11
215.5437063214
 21
970.8541633849
 31
0.0
  0
LINE
  5
BD
330
1F
100
AcDbEntity
  8
0
  6
Continuous
 62
     7
370
    25
100
AcDbLine
 10
238.5913336577
 20
970.2541633849
 30
0.0
 11
238.5913336577
 21
970.8541633849
 31
0.0
  0
LINE
  5
BE
330
1F
100
AcDbEntity
  8
0
  6
Continuous
 62
     7
370
    25
100
AcDbLine
 10
215.5437063214
 20
970.8541633849
 30
0.0
 11
238.5913336577
 21
970.8541633849
 31
0.0
  0
LINE
  5
BF
330
1F
100
AcDbEntity
  8
0
  6
Continuous
 62
     7
370
    25
100
AcDbLine
 10
214.595910138
 20
970.8541633849
 30
0.0
 11
214.8606936195
 21
970.8541633849
 31
0.0
  0
LINE
  5
C0
330
1F
100
AcDbEntity
  8
0
  6
Continuous
 62
     7
370
    25
100
AcDbLine
 10
177.7786350588
 20
970.8541633849
 30
0.0
 11
177.8456223569
 21
970.8541633849
 31
0.0
  0
LINE
  5
C1
330
1F
100
AcDbEntity
  8
0
  6
Continuous
 62
     7
370
    25
100
AcDbLine
 10
238.5913336577
 20
970.8541633849
 30
0.0
 11
238.8413336577
 21
970.8541633849
 31
0.0
  0
LINE
  5
C2
330
1F
100
AcDbEntity
  8
0
  6
Continuous
 62
     7
370
    25
100
AcDbLine
 10
135.887174133
 20
894.5341633849
 30
0.0
 11
291.687174133
 21
894.5341633849
 31
0.0
  0
LINE
  5
C3
330
1F
100
AcDbEntity
  8
0
  6
Continuous
 62
     7
370
    25
100
AcDbLine
 10
174.837174133
 20
905.3341633849
 30
0.0
 11
291.687174133
 21
905.3341633849
 31
0.0
  0
LINE
  5
C4
330
1F
100
AcDbEntity
  8
0
  6
Continuous
 62
     7
370
    25
100
AcDbLine
 10
135.887174133
 20
905.3341633849
 30
0.0
 11
174.837174133
 21
905.3341633849
 31
0.0
  0
LINE
  5
C5
330
1F
100
AcDbEntity
  8
0
  6
Continuous
 62
     7
370
    25
100
AcDbLine
 10
138.407174133
 20
890.2167074188
 30
0.0
 11
138.407174133
 21
884.7341633849
 31
0.0
  0
LINE
  5
C6
330
1F
100
AcDbEntity
  8
0
  6
Continuous
 62
     7
370
    25
100
AcDbLine
 10
138.407174133
 20
892.3341633849
 30
0.0
 11
138.407174133
 21
890.2167074188
 31
0.0
  0
LINE
  5
C7
330
1F
100
AcDbEntity
  8
0
  6
Continuous
 62
     7
370
    25
100
AcDbLine
 10
136.587174133
 20
889.3346173264
 30
0.0
 11
136.587174133
 21
886.7263503849
 31
0.0
  0
LINE
  5
C8
330
1F
100
AcDbEntity
  8
0
  6
Continuous
 62
     7
370
    25
100
AcDbLine
 10
136.587174133
 20
890.3419763849
 30
0.0
 11
136.587174133
 21
889.3346173264
 31
0.0
  0
LINE
  5
C9
330
1F
100
AcDbEntity
  8
0
  6
Continuous
 62
     7
370
    25
100
AcDbLine
 10
138.787174133
 20
890.2167074188
 30
0.0
 11
138.787174133
 21
884.7341633849
 31
0.0
  0
LINE
  5
CA
330
1F
100
AcDbEntity
  8
0
  6
Continuous
 62
     7
370
    25
100
AcDbLine
 10
138.787174133
 20
892.3341633849
 30
0.0
 11
138.787174133
 21
890.2167074188
 31
0.0
  0
LWPOLYLINE
  5
CB
330
1F
100
AcDbEntity
  8
0
  6
Continuous
 62
     7
370
    25
100
AcDbPolyline
 90
       16
 70
   128
 43
0.0
 10
253.6330737305
 20
193.6631364082
 10
253.0891134462
 20
193.2212288045
 10
252.1236233405
 20
192.8081998098
 10
251.0948542823
 20
192.7598940902
 10
250.1035093549
 20
193.081040146
 10
249.2466283068
 20
193.7402019638
 10
248.6080886253
 20
194.6728561921
 10
248.2503950234
 20
195.787708137
 10
248.2085610431
 20
196.9756283224
 10
248.4866816858
 20
198.1203348438
 10
249.0575325651
 20
199.1097758514
 10
249.8652348198
 20
199.8470979653
 10
250.8307249255
 20
200.26012696
 10
251.8594939837
 20
200.3084326796
 10
252.8508389112
 20
199.9872866238
 10
253.6144665206
 20
199.4236803573
  0
LWPOLYLINE
  5
CC
330
1F
100
AcDbEntity
  8
0
  6
Continuous
 62
     7
370
    25
100
AcDbPolyline
 90
       17
 70
   128
 43
0.0
 10
253.9222828758
 20
196.889282201
 10
253.9231208767
 20
196.1839092241
 10
253.6901249093
 20
195.5318592681
 10
253.2587664974
 20
195.032401028
 10
252.6947160491
 20
194.7615724932
 10
252.083845132
 20
194.7606048531
 10
251.5191533055
 20
195.0296454221
 10
251.0866097815
 20
195.5277352125
 10
250.8520653903
 20
196.1790445688
 10
250.8512273894
 20
196.8844175458
 10
251.0842233568
 20
197.5364675018
 10
251.5155817686
 20
198.0359257419
 10
252.0796322169
 20
198.3067542766
 10
252.6905031341
 20
198.3077219167
 10
253.2551949605
 20
198.0386813477
 10
253.6877384846
 20
197.5405915573
 10
253.9222828758
 20
196.889282201
  0
LINE
  5
CD
330
1F
100
AcDbEntity
  8
0
  6
Continuous
 62
     7
370
    25
100
AcDbLine
 10
251.2029613917
 20
196.9962458932
 30
0.0
 11
251.4485058812
 21
195.5809918978
 31
0.0
  0
LINE
  5
CE
330
1F
100
AcDbEntity
  8
0
  6
Continuous
 62
     7
370
    25
100
AcDbLine
 10
251.4485058812
 20
195.5809918978
 30
0.0
 11
252.6327186225
 21
195.1189093895
 31
0.0
  0
LINE
  5
CF
330
1F
100
AcDbEntity
  8
0
  6
Continuous
 62
     7
370
    25
100
AcDbLine
 10
252.6327186225
 20
195.1189093895
 30
0.0
 11
253.5713868743
 21
196.0720808767
 31
0.0
  0
LINE
  5
D0
330
1F
100
AcDbEntity
  8
0
  6
Continuous
 62
     7
370
    25
100
AcDbLine
 10
253.5713868743
 20
196.0720808767
 30
0.0
 11
253.3258423849
 21
197.4873348721
 31
0.0
  0
LINE
  5
D1
330
1F
100
AcDbEntity
  8
0
  6
Continuous
 62
     7
370
    25
100
AcDbLine
 10
253.3258423849
 20
197.4873348721
 30
0.0
 11
252.1416296436
 21
197.9494173804
 31
0.0
  0
LINE
  5
D2
330
1F
100
AcDbEntity
  8
0
  6
Continuous
 62
     7
370
    25
100
AcDbLine
 10
252.1416296436
 20
197.9494173804
 30
0.0
 11
251.2029613917
 21
196.9962458932
 31
0.0
  0
LWPOLYLINE
  5
D3
330
1F
100
AcDbEntity
  8
0
  6
Continuous
 62
     7
370
    25
100
AcDbPolyline
 90
       12
 70
   128
 43
0.0
 10
251.287174133
 20
192.7341633849
 10
250.9048542823
 20
192.7598940902
 10
249.9135093549
 20
193.081040146
 10
249.0566283068
 20
193.7402019638
 10
248.4180886253
 20
194.6728561921
 10
248.0603950234
 20
195.787708137
 10
248.0185610431
 20
196.9756283224
 10
248.2966816858
 20
198.1203348438
 10
248.8675325651
 20
199.1097758514
 10
249.6752348198
 20
199.8470979653
 10
250.6407249255
 20
200.26012696
 10
251.287174133
 20
200.3341633849
  0
LINE
  5
D4
330
1F
100
AcDbEntity
  8
0
  6
Continuous
 62
     7
370
    25
100
AcDbLine
 10
252.6758423849
 20
197.4873348721
 30
0.0
 11
253.3258423849
 21
197.4873348721
 31
0.0
  0
LINE
  5
D5
330
1F
100
AcDbEntity
  8
0
  6
Continuous
 62
     7
370
    25
100
AcDbLine
 10
252.6758423849
 20
197.4873348721
 30
0.0
 11
251.9611928966
 21
197.7661927298
 31
0.0
  0
LINE
  5
D6
330
1F
100
AcDbEntity
  8
0
  6
Continuous
 62
     7
370
    25
100
AcDbLine
 10
252.1631553695
 20
195.3021340401
 30
0.0
 11
252.9213868743
 21
196.0720808767
 31
0.0
  0
LINE
  5
D7
330
1F
100
AcDbEntity
  8
0
  6
Continuous
 62
     7
370
    25
100
AcDbLine
 10
252.9213868743
 20
196.0720808767
 30
0.0
 11
253.5713868743
 21
196.0720808767
 31
0.0
  0
LINE
  5
D8
330
1F
100
AcDbEntity
  8
0
  6
Continuous
 62
     7
370
    25
100
AcDbLine
 10
252.9213868743
 20
196.0720808767
 30
0.0
 11
252.6758423849
 21
197.4873348721
 31
0.0
  0
LINE
  5
D9
330
1F
100
AcDbEntity
  8
0
  6
Continuous
 62
     7
370
    25
100
AcDbLine
 10
138.407174133
 20
197.2806186329
 30
0.0
 11
138.407174133
 21
192.7341633849
 31
0.0
  0
LINE
  5
DA
330
1F
100
AcDbEntity
  8
0
  6
Continuous
 62
     7
370
    25
100
AcDbLine
 10
138.407174133
 20
200.3341633849
 30
0.0
 11
138.407174133
 21
197.2806186329
 31
0.0
  0
LINE
  5
DB
330
1F
100
AcDbEntity
  8
0
  6
Continuous
 62
     7
370
    25
100
AcDbLine
 10
136.587174133
 20
196.889282201
 30
0.0
 11
136.587174133
 21
194.7263503849
 31
0.0
  0
LINE
  5
DC
330
1F
100
AcDbEntity
  8
0
  6
Continuous
 62
     7
370
    25
100
AcDbLine
 10
136.587174133
 20
198.3419763849
 30
0.0
 11
136.587174133
 21
196.889282201
 31
0.0
  0
LINE
  5
DD
330
1F
100
AcDbEntity
  8
0
  6
Continuous
 62
     7
370
    25
100
AcDbLine
 10
138.787174133
 20
197.2806186329
 30
0.0
 11
138.787174133
 21
192.7341633849
 31
0.0
  0
LINE
  5
DE
330
1F
100
AcDbEntity
  8
0
  6
Continuous
 62
     7
370
    25
100
AcDbLine
 10
138.787174133
 20
200.3341633849
 30
0.0
 11
138.787174133
 21
197.2806186329
 31
0.0
  0
LWPOLYLINE
  5
DF
330
1F
100
AcDbEntity
  8
0
  6
Continuous
 62
     7
370
    25
100
AcDbPolyline
 90
       16
 70
   128
 43
0.0
 10
253.6277789417
 20
885.6578465371
 10
252.9343000094
 20
885.1269584345
 10
251.9511586998
 20
884.7737842142
 10
250.9216204783
 20
884.7887021073
 10
249.9464637194
 20
885.1702518463
 10
249.1211435608
 20
885.8810846846
 10
248.5264480901
 20
886.851619351
 10
248.2205902434
 20
887.9868531505
 10
248.2335095177
 20
889.1756614891
 10
248.5639412845
 20
890.3016755237
 10
249.1795405803
 20
891.2546731551
 10
250.0200482567
 20
891.9413683353
 10
251.0031895663
 20
892.2945425556
 10
252.0327277877
 20
892.2796246626
 10
253.0078845467
 20
891.8980749235
 10
253.6097165637
 20
891.4283559105
  0
LWPOLYLINE
  5
E0
330
1F
100
AcDbEntity
  8
0
  6
Continuous
 62
     7
370
    25
100
AcDbPolyline
 90
       17
 70
   128
 43
0.0
 10
253.7909533172
 20
889.3346173264
 10
253.9493782911
 20
888.6533777627
 10
253.8699718432
 20
887.9539888907
 10
253.5648228857
 20
887.3429263261
 10
253.0803875809
 20
886.9132188052
 10
252.4904168127
 20
886.7302854026
 10
251.8847282824
 20
886.8219760706
 10
251.3555325782
 20
887.1743317363
 10
250.9833949489
 20
887.7337094435
 10
250.824969975
 20
888.4149490071
 10
250.9043764228
 20
889.1143378792
 10
251.2095253804
 20
889.7254004437
 10
251.6939606852
 20
890.1551079647
 10
252.2839314534
 20
890.3380413672
 10
252.8896199837
 20
890.2463506992
 10
253.4188156879
 20
889.8939950336
 10
253.7909533172
 20
889.3346173264
  0
LINE
  5
E1
330
1F
100
AcDbEntity
  8
0
  6
Continuous
 62
     7
370
    25
100
AcDbLine
 10
251.1398063502
 20
888.6277839972
 30
0.0
 11
251.6932747824
 21
887.3336059082
 31
0.0
  0
LINE
  5
E2
330
1F
100
AcDbEntity
  8
0
  6
Continuous
 62
     7
370
    25
100
AcDbLine
 10
251.6932747824
 20
887.3336059082
 30
0.0
 11
252.9406425652
 21
887.2399852959
 31
0.0
  0
LINE
  5
E3
330
1F
100
AcDbEntity
  8
0
  6
Continuous
 62
     7
370
    25
100
AcDbLine
 10
252.9406425652
 20
887.2399852959
 30
0.0
 11
253.6345419159
 21
888.4405427726
 31
0.0
  0
LINE
  5
E4
330
1F
100
AcDbEntity
  8
0
  6
Continuous
 62
     7
370
    25
100
AcDbLine
 10
253.6345419159
 20
888.4405427726
 30
0.0
 11
253.0810734837
 21
889.7347208616
 31
0.0
  0
LINE
  5
E5
330
1F
100
AcDbEntity
  8
0
  6
Continuous
 62
     7
370
    25
100
AcDbLine
 10
253.0810734837
 20
889.7347208616
 30
0.0
 11
251.8337057008
 21
889.8283414739
 31
0.0
  0
LINE
  5
E6
330
1F
100
AcDbEntity
  8
0
  6
Continuous
 62
     7
370
    25
100
AcDbLine
 10
251.8337057008
 20
889.8283414739
 30
0.0
 11
251.1398063502
 21
888.6277839972
 31
0.0
  0
LWPOLYLINE
  5
E7
330
1F
100
AcDbEntity
  8
0
  6
Continuous
 62
     7
370
    25
100
AcDbPolyline
 90
       12
 70
   128
 43
0.0
 10
251.287174133
 20
884.7341633849
 10
250.7316204783
 20
884.7887021073
 10
249.7564637194
 20
885.1702518463
 10
248.9311435608
 20
885.8810846846
 10
248.3364480901
 20
886.851619351
 10
248.0305902434
 20
887.9868531505
 10
248.0435095177
 20
889.1756614891
 10
248.3739412845
 20
890.3016755237
 10
248.9895405803
 20
891.2546731551
 10
249.8300482567
 20
891.9413683353
 10
250.8131895663
 20
892.2945425556
 10
251.287174133
 20
892.3341633849
  0
LINE
  5
E8
330
1F
100
AcDbEntity
  8
0
  6
Continuous
 62
     7
370
    25
100
AcDbLine
 10
252.4310734837
 20
889.7347208616
 30
0.0
 11
253.0810734837
 21
889.7347208616
 31
0.0
  0
LINE
  5
E9
330
1F
100
AcDbEntity
  8
0
  6
Continuous
 62
     7
370
    25
100
AcDbLine
 10
252.4310734837
 20
889.7347208616
 30
0.0
 11
251.8066809755
 21
889.7815843527
 31
0.0
  0
LINE
  5
EA
330
1F
100
AcDbEntity
  8
0
  6
Continuous
 62
     7
370
    25
100
AcDbLine
 10
252.3176672906
 20
887.2867424172
 30
0.0
 11
252.9845419159
 21
888.4405427726
 31
0.0
  0
LINE
  5
EB
330
1F
100
AcDbEntity
  8
0
  6
Continuous
 62
     7
370
    25
100
AcDbLine
 10
252.9845419159
 20
888.4405427726
 30
0.0
 11
253.6345419159
 21
888.4405427726
 31
0.0
  0
LINE
  5
EC
330
1F
100
AcDbEntity
  8
0
  6
Continuous
 62
     7
370
    25
100
AcDbLine
 10
252.9845419159
 20
888.4405427726
 30
0.0
 11
252.4310734837
 21
889.7347208616
 31
0.0
  0
SPLINE
  5
ED
330
1F
100
AcDbEntity
  8
0
  6
Continuous
 62
     7
370
    25
100
AcDbSpline
210
0.0
220
0.0
230
1.0
 70
     8
 71
     3
 72
    17
 73
    13
 74
     0
 42
0.000000001
 43
0.00000001
 40
0.0
 40
0.0
 40
0.0
 40
0.0
 40
0.0370088867666402
 40
0.1443361351311362
 40
0.2516812888208631
 40
0.3590685704495246
 40
0.4664564779873647
 40
0.5738024813739336
 40
0.6811294742245567
 40
0.788490007552722
 40
0.8958842882707256
 40
0.9999999999999999
 40
0.9999999999999999
 40
0.9999999999999999
 40
0.9999999999999999
 10
138.7880310750999
 20
886.3129924714985
 30
0.0
 10
138.7877970461373
 20
886.3051084755716
 30
0.0
 10
138.786884323845
 20
886.2743605768669
 30
0.0
 10
138.7931418622939
 20
886.4833143920062
 30
0.0
 10
138.8041444377742
 20
886.9178412231786
 30
0.0
 10
138.81558929397
 20
887.5517325764821
 30
0.0
 10
138.8218479952655
 20
888.2919650631575
 30
0.0
 10
138.8203515872769
 20
889.0602277441417
 30
0.0
 10
138.8116660565279
 20
889.7701640006109
 30
0.0
 10
138.799799437622
 20
890.3357455502517
 30
0.0
 10
138.7893352224662
 20
890.714048264401
 30
0.0
 10
138.7879602075602
 20
890.7585301914417
 30
0.0
 10
138.787283357006
 20
890.7804264027712
 30
0.0
  0
SPLINE
  5
EE
330
1F
100
AcDbEntity
  8
0
  6
Continuous
 62
     7
370
    25
100
AcDbSpline
210
0.0
220
0.0
230
1.0
 70
     8
 71
     3
 72
    12
 73
     8
 74
     0
 42
0.000000001
 43
0.00000001
 40
0.0
 40
0.0
 40
0.0
 40
0.0
 40
0.2011756318563056
 40
0.4023496952322347
 40
0.6035713696242146
 40
0.8048563000472186
 40
1.0
 40
1.0
 40
1.0
 40
1.0
 10
138.820555821618
 20
196.2967585635055
 30
0.0
 10
138.8206031815793
 20
196.5508198759305
 30
0.0
 10
138.8206979011326
 20
197.0589405199732
 30
0.0
 10
138.811573824774
 20
197.7704751344483
 30
0.0
 10
138.7998244127484
 20
198.335647110614
 30
0.0
 10
138.7893293350656
 20
198.7140672748255
 30
0.0
 10
138.7879582271485
 20
198.7585377778918
 30
0.0
 10
138.7872832933735
 20
198.7804285744746
 30
0.0
  0
SPLINE
  5
EF
330
1F
100
AcDbEntity
  8
0
  6
Continuous
 62
     7
370
    25
100
AcDbSpline
210
0.0
220
0.0
230
1.0
 70
     8
 71
     3
 72
    12
 73
     8
 74
     0
 42
0.000000001
 43
0.00000001
 40
0.0
 40
0.0
 40
0.0
 40
0.0
 40
0.1644796642824587
 40
0.3946342535907083
 40
0.6248629290723116
 40
0.8551616269186233
 40
0.9999999999999999
 40
0.9999999999999999
 40
0.9999999999999999
 40
0.9999999999999999
 10
138.7879457592425
 20
194.3101715797765
 30
0.0
 10
138.7880247089927
 20
194.3125693457054
 30
0.0
 10
138.7882141322618
 20
194.3183222791863
 30
0.0
 10
138.7969264515565
 20
194.6202580132679
 30
0.0
 10
138.8086420636601
 20
195.1363782117225
 30
0.0
 10
138.8177075947409
 20
195.7344959137844
 30
0.0
 10
138.8197624523314
 20
196.1401411532636
 30
0.0
 10
138.820555821618
 20
196.2967585635055
 30
0.0
  0
LINE
  5
F0
330
1F
100
AcDbEntity
  8
0
  6
Continuous
 62
     7
370
    25
100
AcDbLine
 10
138.787174133
 20
176.5341633849
 30
0.0
 11
288.787174133
 21
176.5341633849
 31
0.0
  0
LINE
  5
F1
330
1F
100
AcDbEntity
  8
0
  6
Continuous
 62
     7
370
    25
100
AcDbLine
 10
138.787174133
 20
170.5341633849
 30
0.0
 11
288.787174133
 21
170.5341633849
 31
0.0
  0
LINE
  5
F2
330
1F
100
AcDbEntity
  8
0
  6
Continuous
 62
     8
370
    25
100
AcDbLine
 10
145.804179936
 20
967.2541633849
 30
0.0
 11
135.287174133
 21
967.2541633849
 31
0.0
  0
LINE
  5
F3
330
1F
100
AcDbEntity
  8
0
  6
Continuous
 62
     8
370
    25
100
AcDbLine
 10
292.287174133
 20
967.2541633849
 30
0.0
 11
145.804179936
 21
967.2541633849
 31
0.0
  0
LINE
  5
F4
330
1F
100
AcDbEntity
  8
0
  6
Continuous
 62
     7
370
    25
100
AcDbLine
 10
245.6862246331
 20
90.5421163968
 30
0.0
 11
245.6862246331
 21
86.5421163968
 31
0.0
  0
LINE
  5
F5
330
1F
100
AcDbEntity
  8
0
  6
Continuous
 62
     7
370
    25
100
AcDbLine
 10
244.4862246331
 20
86.5421163968
 30
0.0
 11
245.6862246331
 21
86.5421163968
 31
0.0
  0
LINE
  5
F6
330
1F
100
AcDbEntity
  8
0
  6
Continuous
 62
     7
370
    25
100
AcDbLine
 10
244.4862246331
 20
89.3421163968
 30
0.0
 11
244.4862246331
 21
86.5421163968
 31
0.0
  0
LINE
  5
F7
330
1F
100
AcDbEntity
  8
0
  6
Continuous
 62
     7
370
    25
100
AcDbLine
 10
241.6862246331
 20
89.3421163968
 30
0.0
 11
244.4862246331
 21
89.3421163968
 31
0.0
  0
LINE
  5
F8
330
1F
100
AcDbEntity
  8
0
  6
Continuous
 62
     7
370
    25
100
AcDbLine
 10
241.6862246331
 20
90.5421163968
 30
0.0
 11
241.6862246331
 21
89.3421163968
 31
0.0
  0
LINE
  5
F9
330
1F
100
AcDbEntity
  8
0
  6
Continuous
 62
     7
370
    25
100
AcDbLine
 10
245.6862246331
 20
90.5421163968
 30
0.0
 11
241.6862246331
 21
90.5421163968
 31
0.0
  0
LINE
  5
FA
330
1F
100
AcDbEntity
  8
0
  6
Continuous
 62
     7
370
    25
100
AcDbLine
 10
249.7862246331
 20
91.7421163968
 30
0.0
 11
246.9862246331
 21
91.7421163968
 31
0.0
  0
LINE
  5
FB
330
1F
100
AcDbEntity
  8
0
  6
Continuous
 62
     7
370
    25
100
AcDbLine
 10
249.7862246331
 20
90.5421163968
 30
0.0
 11
249.7862246331
 21
91.7421163968
 31
0.0
  0
LINE
  5
FC
330
1F
100
AcDbEntity
  8
0
  6
Continuous
 62
     7
370
    25
100
AcDbLine
 10
245.7862246331
 20
90.5421163968
 30
0.0
 11
249.7862246331
 21
90.5421163968
 31
0.0
  0
LINE
  5
FD
330
1F
100
AcDbEntity
  8
0
  6
Continuous
 62
     7
370
    25
100
AcDbLine
 10
245.7862246331
 20
94.5421163968
 30
0.0
 11
245.7862246331
 21
90.5421163968
 31
0.0
  0
LINE
  5
FE
330
1F
100
AcDbEntity
  8
0
  6
Continuous
 62
     7
370
    25
100
AcDbLine
 10
246.9862246331
 20
94.5421163968
 30
0.0
 11
245.7862246331
 21
94.5421163968
 31
0.0
  0
LINE
  5
FF
330
1F
100
AcDbEntity
  8
0
  6
Continuous
 62
     7
370
    25
100
AcDbLine
 10
246.9862246331
 20
91.7421163968
 30
0.0
 11
246.9862246331
 21
94.5421163968
 31
0.0
  0
LINE
  5
100
330
1F
100
AcDbEntity
  8
0
  6
Continuous
 62
     7
370
    25
100
AcDbLine
 10
223.4940128045
 20
79.0690688964
 30
0.0
 11
235.5767204968
 21
79.0690688964
 31
0.0
  0
SPLINE
  5
101
330
1F
100
AcDbEntity
  8
0
  6
Continuous
 62
     7
370
    25
100
AcDbSpline
210
0.0
220
0.0
230
1.0
 70
     8
 71
     3
 72
    11
 73
     7
 74
     0
 42
0.000000001
 43
0.00000001
 40
0.0
 40
0.0
 40
0.0
 40
0.0
 40
0.2796599964070855
 40
0.5591568031759172
 40
0.7793968205636714
 40
1.0
 40
1.0
 40
1.0
 40
1.0
 10
228.6772339583031
 20
73.83522274250703
 30
0.0
 10
227.906092140375
 20
73.91959460069027
 30
0.0
 10
226.3642584879128
 20
74.08828908365481
 30
0.0
 10
224.6509344461633
 20
75.5136264394739
 30
0.0
 10
223.662005462325
 20
77.25751312429854
 30
0.0
 10
223.5500411021052
 20
78.4648854320786
 30
0.0
 10
223.4940128044566
 20
79.06906889635457
 30
0.0
  0
SPLINE
  5
102
330
1F
100
AcDbEntity
  8
0
  6
Continuous
 62
     7
370
    25
100
AcDbSpline
210
0.0
220
0.0
230
1.0
 70
     8
 71
     3
 72
    11
 73
     7
 74
     0
 42
0.000000001
 43
0.00000001
 40
0.0
 40
0.0
 40
0.0
 40
0.0
 40
0.2801392722643624
 40
0.559651183397479
 40
0.7798524044694715
 40
1.0
 40
1.0
 40
1.0
 40
1.0
 10
233.6597579545724
 20
76.46219881536084
 30
0.0
 10
233.3292338803537
 20
76.01887772333546
 30
0.0
 10
232.6689259278747
 20
75.13322833982835
 30
0.0
 10
231.3235360516774
 20
74.34261118603908
 30
0.0
 10
229.9722159848115
 20
73.91125970784809
 30
0.0
 10
229.1088595873817
 20
73.86056633981322
 30
0.0
 10
228.6772339583031
 20
73.83522274250703
 30
0.0
  0
ARC
  5
103
330
1F
100
AcDbEntity
  8
0
  6
Continuous
 62
     7
370
    25
100
AcDbCircle
 10
234.0696849521
 20
76.1759124959
 30
0.0
 40
0.4999999999999905
100
AcDbArc
 50
62.2948847891
 51
145.0701807716
  0
LINE
  5
104
330
1F
100
AcDbEntity
  8
0
  6
Continuous
 62
     7
370
    25
100
AcDbLine
 10
234.9971937573
 20
76.2536009028
 30
0.0
 11
234.3021454968
 21
76.6185885571
 31
0.0
  0
ARC
  5
105
330
1F
100
AcDbEntity
  8
0
  6
Continuous
 62
     7
370
    25
100
AcDbCircle
 10
234.7647332126
 20
75.8109248416
 30
0.0
 40
0.4999999999999974
100
AcDbArc
 50
329.1271858746
 51
62.2948847891
  0
SPLINE
  5
106
330
1F
100
AcDbEntity
  8
0
  6
Continuous
 62
     7
370
    25
100
AcDbSpline
210
0.0
220
0.0
230
1.0
 70
     8
 71
     3
 72
    11
 73
     7
 74
     0
 42
0.000000001
 43
0.00000001
 40
0.0
 40
0.0
 40
0.0
 40
0.0
 40
0.280048769747936
 40
0.5597045993646868
 40
0.7797907175549211
 40
0.9999999999999999
 40
0.9999999999999999
 40
0.9999999999999999
 40
0.9999999999999999
 10
228.8953108814215
 20
72.090607357892
 30
0.0
 10
229.6021004036162
 20
72.13012092130839
 30
0.0
 10
231.0146877422829
 20
72.20909260613796
 30
0.0
 10
232.8365365361545
 20
73.02886808470319
 30
0.0
 10
234.2665037945135
 20
74.16947555924254
 30
0.0
 10
234.8847019221085
 20
75.09264431548252
 30
0.0
 10
235.1938874504836
 20
75.55435781304345
 30
0.0
  0
SPLINE
  5
107
330
1F
100
AcDbEntity
  8
0
  6
Continuous
 62
     7
370
    25
100
AcDbSpline
210
0.0
220
0.0
230
1.0
 70
     8
 71
     3
 72
    11
 73
     7
 74
     0
 42
0.000000001
 43
0.00000001
 40
0.0
 40
0.0
 40
0.0
 40
0.0
 40
0.2799823044240011
 40
0.5595015274158933
 40
0.7795440403540165
 40
1.0
 40
1.0
 40
1.0
 40
1.0
 10
222.0530317263113
 20
77.23243955968212
 30
0.0
 10
222.3798999796236
 20
76.43211325635144
 30
0.0
 10
223.033095857014
 20
74.83278436281351
 30
0.0
 10
224.7881392721287
 20
73.09590676137
 30
0.0
 10
226.8603453947351
 20
72.2073642454957
 30
0.0
 10
228.2165647419936
 20
72.12955066539823
 30
0.0
 10
228.8953108814215
 20
72.090607357892
 30
0.0
  0
SPLINE
  5
108
330
1F
100
AcDbEntity
  8
0
  6
Continuous
 62
     7
370
    25
100
AcDbSpline
210
0.0
220
0.0
230
1.0
 70
     8
 71
     3
 72
    11
 73
     7
 74
     0
 42
0.000000001
 43
0.00000001
 40
0.0
 40
0.0
 40
0.0
 40
0.0
 40
0.2798458296774695
 40
0.5595065064116135
 40
0.7798566863979932
 40
1.0
 40
1.0
 40
1.0
 40
1.0
 10
214.9628435724342
 20
72.09060735750548
 30
0.0
 10
215.8415635318273
 20
72.16775592476021
 30
0.0
 10
217.5984220676889
 20
72.32200201586369
 30
0.0
 10
219.7089585702788
 20
73.66041677795101
 30
0.0
 10
221.2646194604551
 20
75.31618972914862
 30
0.0
 10
221.7903099300067
 20
76.5938896290826
 30
0.0
 10
222.0530317263113
 20
77.23243955968212
 30
0.0
  0
SPLINE
  5
109
330
1F
100
AcDbEntity
  8
0
  6
Continuous
 62
     7
370
    25
100
AcDbSpline
210
0.0
220
0.0
230
1.0
 70
     8
 71
     3
 72
    11
 73
     7
 74
     0
 42
0.000000001
 43
0.00000001
 40
0.0
 40
0.0
 40
0.0
 40
0.0
 40
0.280053260274255
 40
0.5598649573798666
 40
0.7799321443835062
 40
1.0
 40
1.0
 40
1.0
 40
1.0
 10
209.1682281878281
 20
74.91392466518802
 30
0.0
 10
209.5924708874149
 20
74.45584403504623
 30
0.0
 10
210.4405903511565
 20
73.54007789749183
 30
0.0
 10
211.9542249298188
 20
72.64776995651297
 30
0.0
 10
213.4940154826022
 20
72.16632510112142
 30
0.0
 10
214.4732337133107
 20
72.11584663093822
 30
0.0
 10
214.9628435724342
 20
72.09060735750548
 30
0.0
  0
LINE
  5
10A
330
1F
100
AcDbEntity
  8
0
  6
Continuous
 62
     7
370
    25
100
AcDbLine
 10
209.1682281878
 20
67.6059919729
 30
0.0
 11
209.1682281878
 21
74.9139246652
 31
0.0
  0
ARC
  5
10B
330
1F
100
AcDbEntity
  8
0
  6
Continuous
 62
     7
370
    25
100
AcDbCircle
 10
208.6682281878
 20
67.6059919729
 30
0.0
 40
0.5
100
AcDbArc
 50
270.0
 51
0.0
  0
LINE
  5
10C
330
1F
100
AcDbEntity
  8
0
  6
Continuous
 62
     7
370
    25
100
AcDbLine
 10
207.9236128032
 20
67.1059919729
 30
0.0
 11
208.6682281878
 21
67.1059919729
 31
0.0
  0
ARC
  5
10D
330
1F
100
AcDbEntity
  8
0
  6
Continuous
 62
     7
370
    25
100
AcDbCircle
 10
207.9236128032
 20
67.6059919729
 30
0.0
 40
0.5
100
AcDbArc
 50
180.0
 51
270.0
  0
LINE
  5
10E
330
1F
100
AcDbEntity
  8
0
  6
Continuous
 62
     7
370
    25
100
AcDbLine
 10
207.4236128032
 20
79.069068896
 30
0.0
 11
207.4236128032
 21
67.6059919729
 31
0.0
  0
LINE
  5
10F
330
1F
100
AcDbEntity
  8
0
  6
Continuous
 62
     7
370
    25
100
AcDbLine
 10
194.8424435724
 20
79.069068896
 30
0.0
 11
207.4236128032
 21
79.069068896
 31
0.0
  0
SPLINE
  5
110
330
1F
100
AcDbEntity
  8
0
  6
Continuous
 62
     7
370
    25
100
AcDbSpline
210
0.0
220
0.0
230
1.0
 70
     8
 71
     3
 72
    11
 73
     7
 74
     0
 42
0.000000001
 43
0.00000001
 40
0.0
 40
0.0
 40
0.0
 40
0.0
 40
0.2796599964070509
 40
0.5591568031759013
 40
0.7793968205636486
 40
1.0
 40
1.0
 40
1.0
 40
1.0
 10
200.025664726289
 20
73.83522274210894
 30
0.0
 10
199.2545229083611
 20
73.91959460029243
 30
0.0
 10
197.7126892558991
 20
74.08828908325746
 30
0.0
 10
195.9993652141496
 20
75.51362643907622
 30
0.0
 10
195.0104362303116
 20
77.2575131239011
 30
0.0
 10
194.8984718700917
 20
78.46488543168115
 30
0.0
 10
194.842443572443
 20
79.06906889595713
 30
0.0
  0
SPLINE
  5
111
330
1F
100
AcDbEntity
  8
0
  6
Continuous
 62
     7
370
    25
100
AcDbSpline
210
0.0
220
0.0
230
1.0
 70
     8
 71
     3
 72
    11
 73
     7
 74
     0
 42
0.000000001
 43
0.00000001
 40
0.0
 40
0.0
 40
0.0
 40
0.0
 40
0.2801392722643801
 40
0.5596511833974059
 40
0.7798524044694516
 40
1.0
 40
1.0
 40
1.0
 40
1.0
 10
205.0081887225589
 20
76.46219881496249
 30
0.0
 10
204.6776646483401
 20
76.01887772293708
 30
0.0
 10
204.0173566958611
 20
75.13322833943009
 30
0.0
 10
202.6719668196636
 20
74.34261118564098
 30
0.0
 10
201.3206467527976
 20
73.91125970745033
 30
0.0
 10
200.4572903553676
 20
73.86056633941521
 30
0.0
 10
200.025664726289
 20
73.83522274210894
 30
0.0
  0
ARC
  5
112
330
1F
100
AcDbEntity
  8
0
  6
Continuous
 62
     7
370
    25
100
AcDbCircle
 10
205.4181157201
 20
76.1759124955
 30
0.0
 40
0.5000000000000209
100
AcDbArc
 50
62.2948847891
 51
145.0701807716
  0
LINE
  5
113
330
1F
100
AcDbEntity
  8
0
  6
Continuous
 62
     7
370
    25
100
AcDbLine
 10
206.3456245253
 20
76.2536009024
 30
0.0
 11
205.6505762648
 21
76.6185885567
 31
0.0
  0
ARC
  5
114
330
1F
100
AcDbEntity
  8
0
  6
Continuous
 62
     7
370
    25
100
AcDbCircle
 10
206.1131639806
 20
75.8109248412
 30
0.0
 40
0.4999999999999951
100
AcDbArc
 50
329.1271858746
 51
62.2948847891
  0
SPLINE
  5
115
330
1F
100
AcDbEntity
  8
0
  6
Continuous
 62
     7
370
    25
100
AcDbSpline
210
0.0
220
0.0
230
1.0
 70
     8
 71
     3
 72
    11
 73
     7
 74
     0
 42
0.000000001
 43
0.00000001
 40
0.0
 40
0.0
 40
0.0
 40
0.0
 40
0.2800487697479764
 40
0.5597045993646957
 40
0.7797907175549496
 40
1.0
 40
1.0
 40
1.0
 40
1.0
 10
200.2437416494077
 20
72.09060735749378
 30
0.0
 10
200.9505311716025
 20
72.13012092091031
 30
0.0
 10
202.3631185102694
 20
72.20909260574015
 30
0.0
 10
204.1849673041413
 20
73.0288680843052
 30
0.0
 10
205.6149345625002
 20
74.1694755588448
 30
0.0
 10
206.2331326900954
 20
75.09264431508461
 30
0.0
 10
206.5423182184707
 20
75.5543578126454
 30
0.0
  0
SPLINE
  5
116
330
1F
100
AcDbEntity
  8
0
  6
Continuous
 62
     7
370
    25
100
AcDbSpline
210
0.0
220
0.0
230
1.0
 70
     8
 71
     3
 72
    12
 73
     8
 74
     0
 42
0.000000001
 43
0.00000001
 40
0.0
 40
0.0
 40
0.0
 40
0.0
 40
0.186821431861122
 40
0.3736728315717163
 40
0.560332254055891
 40
0.7799206537037698
 40
1.0
 40
1.0
 40
1.0
 40
1.0
 10
193.2274281848932
 20
77.9544690885567
 30
0.0
 10
193.3877279173612
 20
77.35267131628325
 30
0.0
 10
193.7083530958261
 20
76.14897923792397
 30
0.0
 10
194.7207528826636
 20
74.56085849402966
 30
0.0
 10
196.1114161790037
 20
73.14524819164507
 30
0.0
 10
198.0467418649473
 20
72.22670562116572
 30
0.0
 10
199.5108634267313
 20
72.13600720427334
 30
0.0
 10
200.2437416494077
 20
72.09060735749378
 30
0.0
  0
LINE
  5
117
330
1F
100
AcDbEntity
  8
0
  6
Continuous
 62
     7
370
    25
100
AcDbLine
 10
193.2274281849
 20
72.8398381262
 30
0.0
 11
193.2274281849
 21
77.9544690886
 31
0.0
  0
ARC
  5
118
330
1F
100
AcDbEntity
  8
0
  6
Continuous
 62
     7
370
    25
100
AcDbCircle
 10
192.7274281849
 20
72.8398381262
 30
0.0
 40
0.5
100
AcDbArc
 50
270.0
 51
360.0
  0
LINE
  5
119
330
1F
100
AcDbEntity
  8
0
  6
Continuous
 62
     7
370
    25
100
AcDbLine
 10
191.9828128003
 20
72.3398381262
 30
0.0
 11
192.7274281849
 21
72.3398381262
 31
0.0
  0
ARC
  5
11A
330
1F
100
AcDbEntity
  8
0
  6
Continuous
 62
     7
370
    25
100
AcDbCircle
 10
191.9828128003
 20
72.8398381262
 30
0.0
 40
0.5
100
AcDbArc
 50
180.0
 51
270.0
  0
LINE
  5
11B
330
1F
100
AcDbEntity
  8
0
  6
Continuous
 62
     7
370
    25
100
AcDbLine
 10
191.4828128003
 20
79.0223381262
 30
0.0
 11
191.4828128003
 21
72.8398381262
 31
0.0
  0
SPLINE
  5
11C
330
1F
100
AcDbEntity
  8
0
  6
Continuous
 62
     7
370
    25
100
AcDbSpline
210
0.0
220
0.0
230
1.0
 70
     8
 71
     3
 72
     9
 73
     5
 74
     0
 42
0.000000001
 43
0.00000001
 40
0.0
 40
0.0
 40
0.0
 40
0.0
 40
0.5596639509138264
 40
1.0
 40
1.0
 40
1.0
 40
1.0
 10
191.2803128002784
 20
82.25454966463624
 30
0.0
 10
191.3553602837146
 20
81.65370908723973
 30
0.0
 10
191.4894541150463
 20
80.58013524633847
 30
0.0
 10
191.4848431669468
 20
79.4985840894735
 30
0.0
 10
191.4828128002781
 20
79.02233812617497
 30
0.0
  0
SPLINE
  5
11D
330
1F
100
AcDbEntity
  8
0
  6
Continuous
 62
     7
370
    25
100
AcDbSpline
210
0.0
220
0.0
230
1.0
 70
     8
 71
     3
 72
    11
 73
     7
 74
     0
 42
0.000000001
 43
0.00000001
 40
0.0
 40
0.0
 40
0.0
 40
0.0
 40
0.2802830132253272
 40
0.5593947009348551
 40
0.7794791991683716
 40
0.9999999999999999
 40
0.9999999999999999
 40
0.9999999999999999
 40
0.9999999999999999
 10
187.608053184894
 20
85.050607356944
 30
0.0
 10
188.0806813852444
 20
85.02239057515604
 30
0.0
 10
189.0239626342435
 20
84.9660749318069
 30
0.0
 10
190.2127755803796
 20
84.30499818570614
 30
0.0
 10
190.9532401882751
 20
83.31853864667627
 30
0.0
 10
191.1712166470025
 20
82.60944671443075
 30
0.0
 10
191.2803128002784
 20
82.25454966463624
 30
0.0
  0
SPLINE
  5
11E
330
1F
100
AcDbEntity
  8
0
  6
Continuous
 62
     7
370
    25
100
AcDbSpline
210
0.0
220
0.0
230
1.0
 70
     8
 71
     3
 72
    11
 73
     7
 74
     0
 42
0.000000001
 43
0.00000001
 40
0.0
 40
0.0
 40
0.0
 40
0.0
 40
0.2796758226861716
 40
0.5596402670053808
 40
0.7798042861528187
 40
0.9999999999999999
 40
0.9999999999999999
 40
0.9999999999999999
 40
0.9999999999999999
 10
182.7792070310474
 20
81.28878043386759
 30
0.0
 10
183.0014738679775
 20
81.86521241829134
 30
0.0
 10
183.4462369181807
 20
83.01867125708179
 30
0.0
 10
184.7378796875564
 20
84.19885299832646
 30
0.0
 10
186.1565472593691
 20
84.93871943612157
 30
0.0
 10
187.1241946610524
 20
85.01330959380516
 30
0.0
 10
187.608053184894
 20
85.050607356944
 30
0.0
  0
SPLINE
  5
11F
330
1F
100
AcDbEntity
  8
0
  6
Continuous
 62
     7
370
    25
100
AcDbSpline
210
0.0
220
0.0
230
1.0
 70
     8
 71
     3
 72
     9
 73
     5
 74
     0
 42
0.000000001
 43
0.00000001
 40
0.0
 40
0.0
 40
0.0
 40
0.0
 40
0.5602834156016449
 40
1.0
 40
1.0
 40
1.0
 40
1.0
 10
182.5105051079732
 20
77.47632851079973
 30
0.0
 10
182.5079653372508
 20
78.19239113954553
 30
0.0
 10
182.5034323265427
 20
79.47042759182366
 30
0.0
 10
182.6949802377727
 20
80.7334211988632
 30
0.0
 10
182.7792070310474
 20
81.28878043386759
 30
0.0
  0
LINE
  5
120
330
1F
100
AcDbEntity
  8
0
  6
Continuous
 62
     7
370
    25
100
AcDbLine
 10
182.510505108
 20
72.8398381262
 30
0.0
 11
182.510505108
 21
77.4763285108
 31
0.0
  0
ARC
  5
121
330
1F
100
AcDbEntity
  8
0
  6
Continuous
 62
     7
370
    25
100
AcDbCircle
 10
182.010505108
 20
72.8398381262
 30
0.0
 40
0.5000000000000284
100
AcDbArc
 50
270.0
 51
0.0
  0
LINE
  5
122
330
1F
100
AcDbEntity
  8
0
  6
Continuous
 62
     7
370
    25
100
AcDbLine
 10
181.2658897234
 20
72.3398381262
 30
0.0
 11
182.010505108
 21
72.3398381262
 31
0.0
  0
ARC
  5
123
330
1F
100
AcDbEntity
  8
0
  6
Continuous
 62
     7
370
    25
100
AcDbCircle
 10
181.2658897234
 20
72.8398381262
 30
0.0
 40
0.5
100
AcDbArc
 50
180.0
 51
270.0
  0
LINE
  5
124
330
1F
100
AcDbEntity
  8
0
  6
Continuous
 62
     7
370
    25
100
AcDbLine
 10
180.7658897234
 20
91.7782996646
 30
0.0
 11
180.7658897234
 21
72.8398381262
 31
0.0
  0
ARC
  5
125
330
1F
100
AcDbEntity
  8
0
  6
Continuous
 62
     7
370
    25
100
AcDbCircle
 10
181.2658897234
 20
91.7782996646
 30
0.0
 40
0.5000000000000284
100
AcDbArc
 50
90.0
 51
180.0
  0
LINE
  5
126
330
1F
100
AcDbEntity
  8
0
  6
Continuous
 62
     7
370
    25
100
AcDbLine
 10
182.0105051079
 20
92.2782996646
 30
0.0
 11
181.2658897234
 21
92.2782996646
 31
0.0
  0
ARC
  5
127
330
1F
100
AcDbEntity
  8
0
  6
Continuous
 62
     7
370
    25
100
AcDbCircle
 10
182.0105051079
 20
91.7782996646
 30
0.0
 40
0.5000000000000284
100
AcDbArc
 50
360.0
 51
90.0
  0
LINE
  5
128
330
1F
100
AcDbEntity
  8
0
  6
Continuous
 62
     7
370
    25
100
AcDbLine
 10
182.5105051079
 20
83.8628669723
 30
0.0
 11
182.5105051079
 21
91.7782996646
 31
0.0
  0
SPLINE
  5
129
330
1F
100
AcDbEntity
  8
0
  6
Continuous
 62
     7
370
    25
100
AcDbSpline
210
0.0
220
0.0
230
1.0
 70
     8
 71
     3
 72
    10
 73
     6
 74
     0
 42
0.000000001
 43
0.00000001
 40
0.0
 40
0.0
 40
0.0
 40
0.0
 40
0.2801918946827635
 40
0.5603857431761744
 40
1.0
 40
1.0
 40
1.0
 40
1.0
 10
187.9156974155881
 20
86.79522274149656
 30
0.0
 10
187.3199999146911
 20
86.74723086795535
 30
0.0
 10
186.1286007590294
 20
86.65124678622001
 30
0.0
 10
184.1595061486025
 20
85.71957779164241
 30
0.0
 10
183.1357512569178
 20
84.56686973576174
 30
0.0
 10
182.5105051079051
 20
83.86286697227871
 30
0.0
  0
SPLINE
  5
12A
330
1F
100
AcDbEntity
  8
0
  6
Continuous
 62
     7
370
    25
100
AcDbSpline
210
0.0
220
0.0
230
1.0
 70
     8
 71
     3
 72
    12
 73
     8
 74
     0
 42
0.000000001
 43
0.00000001
 40
0.0
 40
0.0
 40
0.0
 40
0.0
 40
0.1872872681621686
 40
0.3740564146017993
 40
0.5605917986928768
 40
0.7802263564090596
 40
1.0
 40
1.0
 40
1.0
 40
1.0
 10
193.2020359615585
 20
80.71495541836218
 30
0.0
 10
193.1635850792053
 20
81.27861342995426
 30
0.0
 10
193.0867896871189
 20
82.40437011884542
 30
0.0
 10
192.6423240231267
 20
84.06586563277607
 30
0.0
 10
191.5623603022751
 20
85.53408760088405
 30
0.0
 10
189.9209585902686
 20
86.6105303555483
 30
0.0
 10
188.5842588423354
 20
86.73364562295559
 30
0.0
 10
187.9156974155881
 20
86.79522274149656
 30
0.0
  0
SPLINE
  5
12B
330
1F
100
AcDbEntity
  8
0
  6
Continuous
 62
     7
370
    25
100
AcDbSpline
210
0.0
220
0.0
230
1.0
 70
     8
 71
     3
 72
     9
 73
     5
 74
     0
 42
0.000000001
 43
0.00000001
 40
0.0
 40
0.0
 40
0.0
 40
0.0
 40
0.559744384757576
 40
1.0
 40
1.0
 40
1.0
 40
1.0
 10
194.7334050916677
 20
84.14714582111097
 30
0.0
 10
194.3285070555609
 20
83.55775826449879
 30
0.0
 10
193.605144665276
 20
82.50479985587192
 30
0.0
 10
193.3252577483625
 20
81.26207292700765
 30
0.0
 10
193.2020359615585
 20
80.71495541836218
 30
0.0
  0
SPLINE
  5
12C
330
1F
100
AcDbEntity
  8
0
  6
Continuous
 62
     7
370
    25
100
AcDbSpline
210
0.0
220
0.0
230
1.0
 70
     8
 71
     3
 72
    11
 73
     7
 74
     0
 42
0.000000001
 43
0.00000001
 40
0.0
 40
0.0
 40
0.0
 40
0.0
 40
0.2799979595332054
 40
0.5597588813716956
 40
0.7798339437960684
 40
0.9999999999999999
 40
0.9999999999999999
 40
0.9999999999999999
 40
0.9999999999999999
 10
200.2865781685912
 20
86.79522274418736
 30
0.0
 10
199.6895262583026
 20
86.76268986700235
 30
0.0
 10
198.4959278835817
 20
86.69765165396947
 30
0.0
 10
196.927040518985
 20
86.08580494210122
 30
0.0
 10
195.6534153728414
 20
85.21334545895631
 30
0.0
 10
195.0401174397347
 20
84.50259466893748
 30
0.0
 10
194.7334050916677
 20
84.14714582111097
 30
0.0
  0
SPLINE
  5
12D
330
1F
100
AcDbEntity
  8
0
  6
Continuous
 62
     7
370
    25
100
AcDbSpline
210
0.0
220
0.0
230
1.0
 70
     8
 71
     3
 72
    11
 73
     7
 74
     0
 42
0.000000001
 43
0.00000001
 40
0.0
 40
0.0
 40
0.0
 40
0.0
 40
0.2799738095850667
 40
0.5596618433387981
 40
0.7798089916821026
 40
1.0
 40
1.0
 40
1.0
 40
1.0
 10
206.0072031685762
 20
83.99916505189778
 30
0.0
 10
205.6010092844015
 20
84.46706820566074
 30
0.0
 10
204.7890361276728
 20
85.40239691346771
 30
0.0
 10
203.2760573995963
 20
86.27692255643879
 30
0.0
 10
201.7434235402478
 20
86.72942909463632
 30
0.0
 10
200.7722255379371
 20
86.77329007140978
 30
0.0
 10
200.2865781685912
 20
86.79522274418736
 30
0.0
  0
SPLINE
  5
12E
330
1F
100
AcDbEntity
  8
0
  6
Continuous
 62
     7
370
    25
100
AcDbSpline
210
0.0
220
0.0
230
1.0
 70
     8
 71
     3
 72
     9
 73
     5
 74
     0
 42
0.000000001
 43
0.00000001
 40
0.0
 40
0.0
 40
0.0
 40
0.0
 40
0.5598619435706672
 40
1.0
 40
1.0
 40
1.0
 40
1.0
 10
207.423612796628
 20
80.64279391049368
 30
0.0
 10
207.2719450728941
 20
81.31871739325449
 30
0.0
 10
207.0010430666484
 20
82.52602124829045
 30
0.0
 10
206.3109426324328
 20
83.5489397088024
 30
0.0
 10
206.0072031685762
 20
83.99916505189778
 30
0.0
  0
LINE
  5
12F
330
1F
100
AcDbEntity
  8
0
  6
Continuous
 62
     7
370
    25
100
AcDbLine
 10
207.4236127966
 20
86.045991975
 30
0.0
 11
207.4236127966
 21
80.6427939105
 31
0.0
  0
ARC
  5
130
330
1F
100
AcDbEntity
  8
0
  6
Continuous
 62
     7
370
    25
100
AcDbCircle
 10
207.9236127966
 20
86.045991975
 30
0.0
 40
0.5
100
AcDbArc
 50
90.0
 51
180.0
  0
LINE
  5
131
330
1F
100
AcDbEntity
  8
0
  6
Continuous
 62
     7
370
    25
100
AcDbLine
 10
208.6682281812
 20
86.545991975
 30
0.0
 11
207.9236127966
 21
86.545991975
 31
0.0
  0
ARC
  5
132
330
1F
100
AcDbEntity
  8
0
  6
Continuous
 62
     7
370
    25
100
AcDbCircle
 10
208.6682281812
 20
86.045991975
 30
0.0
 40
0.5
100
AcDbArc
 50
360.0
 51
90.0
  0
LINE
  5
133
330
1F
100
AcDbEntity
  8
0
  6
Continuous
 62
     7
370
    25
100
AcDbLine
 10
209.1682281812
 20
83.9173862057
 30
0.0
 11
209.1682281812
 21
86.045991975
 31
0.0
  0
SPLINE
  5
134
330
1F
100
AcDbEntity
  8
0
  6
Continuous
 62
     7
370
    25
100
AcDbSpline
210
0.0
220
0.0
230
1.0
 70
     8
 71
     3
 72
    11
 73
     7
 74
     0
 42
0.000000001
 43
0.00000001
 40
0.0
 40
0.0
 40
0.0
 40
0.0
 40
0.2799672577292647
 40
0.5597575037302709
 40
0.77982603597712
 40
0.9999999999999999
 40
0.9999999999999999
 40
0.9999999999999999
 40
0.9999999999999999
 10
214.90832433509
 20
86.7952227442044
 30
0.0
 10
214.283633601697
 20
86.75763170366533
 30
0.0
 10
213.0346471010482
 20
86.68247338984874
 30
0.0
 10
211.3920887647235
 20
86.03067212607482
 30
0.0
 10
210.0930450736568
 20
85.06527630746228
 30
0.0
 10
209.4765496926542
 20
84.30007732438392
 30
0.0
 10
209.1682281812434
 20
83.91738620574321
 30
0.0
  0
SPLINE
  5
135
330
1F
100
AcDbEntity
  8
0
  6
Continuous
 62
     7
370
    25
100
AcDbSpline
210
0.0
220
0.0
230
1.0
 70
     8
 71
     3
 72
    11
 73
     7
 74
     0
 42
0.000000001
 43
0.00000001
 40
0.0
 40
0.0
 40
0.0
 40
0.0
 40
0.2795408510984262
 40
0.5595050380537563
 40
0.7796699405649485
 40
1.0
 40
1.0
 40
1.0
 40
1.0
 10
222.0666259692019
 20
81.63406125534087
 30
0.0
 10
221.706301666672
 20
82.44324770146866
 30
0.0
 10
220.98510738753
 20
84.06284602333933
 30
0.0
 10
219.0737894840905
 20
85.69422422943148
 30
0.0
 10
216.9916370992245
 20
86.65798696046173
 30
0.0
 10
215.6029354806911
 20
86.74946605005648
 30
0.0
 10
214.90832433509
 20
86.7952227442044
 30
0.0
  0
SPLINE
  5
136
330
1F
100
AcDbEntity
  8
0
  6
Continuous
 62
     7
370
    25
100
AcDbSpline
210
0.0
220
0.0
230
1.0
 70
     8
 71
     3
 72
     9
 73
     5
 74
     0
 42
0.000000001
 43
0.00000001
 40
0.0
 40
0.0
 40
0.0
 40
0.0
 40
0.5599010856083014
 40
1.0
 40
1.0
 40
1.0
 40
1.0
 10
223.3849743351287
 20
84.1471458211202
 30
0.0
 10
223.0741069643917
 20
83.71118415164395
 30
0.0
 10
222.5188885897047
 20
82.93254363694908
 30
0.0
 10
222.2048388977126
 20
82.03088169648667
 30
0.0
 10
222.0666259692019
 20
81.63406125534087
 30
0.0
  0
SPLINE
  5
137
330
1F
100
AcDbEntity
  8
0
  6
Continuous
 62
     7
370
    25
100
AcDbSpline
210
0.0
220
0.0
230
1.0
 70
     8
 71
     3
 72
    11
 73
     7
 74
     0
 42
0.000000001
 43
0.00000001
 40
0.0
 40
0.0
 40
0.0
 40
0.0
 40
0.2799979595332114
 40
0.559758881371701
 40
0.7798339437960357
 40
1.0
 40
1.0
 40
1.0
 40
1.0
 10
228.938147412052
 20
86.79522274419669
 30
0.0
 10
228.3410955017633
 20
86.76268986701179
 30
0.0
 10
227.1474971270424
 20
86.69765165397914
 30
0.0
 10
225.5786097624459
 20
86.08580494211066
 30
0.0
 10
224.3049846163023
 20
85.21334545896559
 30
0.0
 10
223.6916866831957
 20
84.50259466894676
 30
0.0
 10
223.3849743351287
 20
84.1471458211202
 30
0.0
  0
SPLINE
  5
138
330
1F
100
AcDbEntity
  8
0
  6
Continuous
 62
     7
370
    25
100
AcDbSpline
210
0.0
220
0.0
230
1.0
 70
     8
 71
     3
 72
    11
 73
     7
 74
     0
 42
0.000000001
 43
0.00000001
 40
0.0
 40
0.0
 40
0.0
 40
0.0
 40
0.2799738095851052
 40
0.5596618433387657
 40
0.7798089916821017
 40
1.0
 40
1.0
 40
1.0
 40
1.0
 10
234.6587724120369
 20
83.99916505190704
 30
0.0
 10
234.2525785278623
 20
84.46706820567009
 30
0.0
 10
233.4406053711336
 20
85.40239691347709
 30
0.0
 10
231.9276266430572
 20
86.27692255644831
 30
0.0
 10
230.3949927837087
 20
86.72942909464543
 30
0.0
 10
229.4237947813979
 20
86.77329007141901
 30
0.0
 10
228.938147412052
 20
86.7952227441967
 30
0.0
  0
SPLINE
  5
139
330
1F
100
AcDbEntity
  8
0
  6
Continuous
 62
     7
370
    25
100
AcDbSpline
210
0.0
220
0.0
230
1.0
 70
     8
 71
     3
 72
     9
 73
     5
 74
     0
 42
0.000000001
 43
0.00000001
 40
0.0
 40
0.0
 40
0.0
 40
0.0
 40
0.5599958866440182
 40
0.9999999999999999
 40
0.9999999999999999
 40
0.9999999999999999
 40
0.9999999999999999
 10
235.576720490055
 20
82.41019862676788
 30
0.0
 10
235.433959823863
 20
82.72362819591424
 30
0.0
 10
235.179028190262
 20
83.28332796625492
 30
0.0
 10
234.8177404874008
 20
83.7804356335267
 30
0.0
 10
234.6587724120369
 20
83.99916505190706
 30
0.0
  0
LINE
  5
13A
330
1F
100
AcDbEntity
  8
0
  6
Continuous
 62
     7
370
    25
100
AcDbLine
 10
235.5767204901
 20
86.045991975
 30
0.0
 11
235.5767204901
 21
82.4101986268
 31
0.0
  0
ARC
  5
13B
330
1F
100
AcDbEntity
  8
0
  6
Continuous
 62
     7
370
    25
100
AcDbCircle
 10
236.0767204901
 20
86.045991975
 30
0.0
 40
0.5000000000000284
100
AcDbArc
 50
90.0
 51
180.0
  0
LINE
  5
13C
330
1F
100
AcDbEntity
  8
0
  6
Continuous
 62
     7
370
    25
100
AcDbLine
 10
236.8213358814
 20
86.545991975
 30
0.0
 11
236.0767204901
 21
86.545991975
 31
0.0
  0
ARC
  5
13D
330
1F
100
AcDbEntity
  8
0
  6
Continuous
 62
     7
370
    25
100
AcDbCircle
 10
236.8213358814
 20
86.045991975
 30
0.0
 40
0.5
100
AcDbArc
 50
0.0
 51
90.0
  0
LINE
  5
13E
330
1F
100
AcDbEntity
  8
0
  6
Continuous
 62
     7
370
    25
100
AcDbLine
 10
237.3213358814
 20
84.4547900502
 30
0.0
 11
237.3213358814
 21
86.045991975
 31
0.0
  0
SPLINE
  5
13F
330
1F
100
AcDbEntity
  8
0
  6
Continuous
 62
     7
370
    25
100
AcDbSpline
210
0.0
220
0.0
230
1.0
 70
     8
 71
     3
 72
    10
 73
     6
 74
     0
 42
0.000000001
 43
0.00000001
 40
0.0
 40
0.0
 40
0.0
 40
0.0
 40
0.279627408053447
 40
0.5597295673661662
 40
1.0
 40
1.0
 40
1.0
 40
1.0
 10
240.7872012659973
 20
86.7952227424924
 30
0.0
 10
240.3796016660204
 20
86.74726402334375
 30
0.0
 10
239.5637104436904
 20
86.6512651607595
 30
0.0
 10
238.3021411760036
 20
85.83880389293167
 30
0.0
 10
237.6933878924112
 20
84.97979245007164
 30
0.0
 10
237.3213358813675
 20
84.45479005018376
 30
0.0
  0
SPLINE
  5
140
330
1F
100
AcDbEntity
  8
0
  6
Continuous
 62
     7
370
    25
100
AcDbSpline
210
0.0
220
0.0
230
1.0
 70
     8
 71
     3
 72
     9
 73
     5
 74
     0
 42
0.000000001
 43
0.00000001
 40
0.0
 40
0.0
 40
0.0
 40
0.0
 40
0.5601050258928386
 40
1.0
 40
1.0
 40
1.0
 40
1.0
 10
241.7865435146371
 20
86.57737640607345
 30
0.0
 10
241.605515650518
 20
86.64507585458989
 30
0.0
 10
241.2823122230349
 20
86.76594505837632
 30
0.0
 10
240.9384600908024
 20
86.7862782664523
 30
0.0
 10
240.7872012659973
 20
86.7952227424924
 30
0.0
  0
ARC
  5
141
330
1F
100
AcDbEntity
  8
0
  6
Continuous
 62
     7
370
    25
100
AcDbCircle
 10
241.5923180772
 20
86.1166416891
 30
0.0
 40
0.5000000000000219
100
AcDbArc
 50
327.6244600068
 51
67.1418574009
  0
LINE
  5
142
330
1F
100
AcDbEntity
  8
0
  6
Continuous
 62
     7
370
    25
100
AcDbLine
 10
241.5728793039
 20
85.152216574
 30
0.0
 11
242.0145963758
 21
85.848908541
 31
0.0
  0
ARC
  5
143
330
1F
100
AcDbEntity
  8
0
  6
Continuous
 62
     7
370
    25
100
AcDbCircle
 10
241.1506010053
 20
85.4199497221
 30
0.0
 40
0.4999999999999918
100
AcDbArc
 50
250.4661389175
 51
327.6244600068
  0
SPLINE
  5
144
330
1F
100
AcDbEntity
  8
0
  6
Continuous
 62
     7
370
    25
100
AcDbSpline
210
0.0
220
0.0
230
1.0
 70
     8
 71
     3
 72
     9
 73
     5
 74
     0
 42
0.000000001
 43
0.00000001
 40
0.0
 40
0.0
 40
0.0
 40
0.0
 40
0.5596212172222658
 40
1.0
 40
1.0
 40
1.0
 40
1.0
 10
240.456191650612
 20
85.05060735787691
 30
0.0
 10
240.556968316217
 20
85.04352038017456
 30
0.0
 10
240.7370484534663
 20
85.03085649702605
 30
0.0
 10
240.9080941601659
 20
84.97383760632567
 30
0.0
 10
240.9834190602816
 20
84.9487276966437
 30
0.0
  0
SPLINE
  5
145
330
1F
100
AcDbEntity
  8
0
  6
Continuous
 62
     7
370
    25
100
AcDbSpline
210
0.0
220
0.0
230
1.0
 70
     8
 71
     3
 72
    11
 73
     7
 74
     0
 42
0.000000001
 43
0.00000001
 40
0.0
 40
0.0
 40
0.0
 40
0.0
 40
0.280787103268302
 40
0.5606975648921311
 40
0.780902157701854
 40
1.0
 40
1.0
 40
1.0
 40
1.0
 10
237.6328743429194
 20
81.98974197326153
 30
0.0
 10
237.7537215773696
 20
82.39028137581356
 30
0.0
 10
237.9950387507422
 20
83.1901096622277
 30
0.0
 10
238.6280868444261
 20
84.17736346923166
 30
0.0
 10
239.4765138600558
 20
84.88661235351319
 30
0.0
 10
240.1301813231195
 20
84.99603424659979
 30
0.0
 10
240.456191650612
 20
85.05060735787691
 30
0.0
  0
SPLINE
  5
146
330
1F
100
AcDbEntity
  8
0
  6
Continuous
 62
     7
370
    25
100
AcDbSpline
210
0.0
220
0.0
230
1.0
 70
     8
 71
     3
 72
     9
 73
     5
 74
     0
 42
0.000000001
 43
0.00000001
 40
0.0
 40
0.0
 40
0.0
 40
0.0
 40
0.5603040916271872
 40
1.0
 40
1.0
 40
1.0
 40
1.0
 10
237.3213358813803
 20
77.11416505020111
 30
0.0
 10
237.316626926493
 20
78.02915144461971
 30
0.0
 10
237.3082226421808
 20
79.66216895795142
 30
0.0
 10
237.5337228320824
 20
81.27888051611707
 30
0.0
 10
237.6328743429194
 20
81.98974197326153
 30
0.0
  0
LINE
  5
147
330
1F
100
AcDbEntity
  8
0
  6
Continuous
 62
     7
370
    25
100
AcDbLine
 10
237.3213358814
 20
72.8398381271
 30
0.0
 11
237.3213358814
 21
77.1141650502
 31
0.0
  0
ARC
  5
148
330
1F
100
AcDbEntity
  8
0
  6
Continuous
 62
     7
370
    25
100
AcDbCircle
 10
236.8213358814
 20
72.8398381271
 30
0.0
 40
0.5
100
AcDbArc
 50
270.0
 51
0.0
  0
LINE
  5
149
330
1F
100
AcDbEntity
  8
0
  6
Continuous
 62
     7
370
    25
100
AcDbLine
 10
236.0767204968
 20
72.3398381271
 30
0.0
 11
236.8213358814
 21
72.3398381271
 31
0.0
  0
ARC
  5
14A
330
1F
100
AcDbEntity
  8
0
  6
Continuous
 62
     7
370
    25
100
AcDbCircle
 10
236.0767204968
 20
72.8398381271
 30
0.0
 40
0.5000000000000142
100
AcDbArc
 50
180.0
 51
270.0
  0
LINE
  5
14B
330
1F
100
AcDbEntity
  8
0
  6
Continuous
 62
     7
370
    25
100
AcDbLine
 10
235.5767204968
 20
79.0690688964
 30
0.0
 11
235.5767204968
 21
72.8398381271
 31
0.0
  0
SPLINE
  5
14C
330
1F
100
AcDbEntity
  8
0
  6
Continuous
 62
     7
370
    25
100
AcDbSpline
210
0.0
220
0.0
230
1.0
 70
     8
 71
     3
 72
    11
 73
     7
 74
     0
 42
0.000000001
 43
0.00000001
 40
0.0
 40
0.0
 40
0.0
 40
0.0
 40
0.2797467241021576
 40
0.5593150469047999
 40
0.7795146309883229
 40
1.0
 40
1.0
 40
1.0
 40
1.0
 10
214.892747415644
 20
85.05060735692649
 30
0.0
 10
214.0512870337326
 20
84.96075294333117
 30
0.0
 10
212.3689028896902
 20
84.78110141848859
 30
0.0
 10
210.4742821972002
 20
83.27051970825381
 30
0.0
 10
209.332419073645
 20
81.39476265424095
 30
0.0
 10
209.2229821377946
 20
80.07304739832871
 30
0.0
 10
209.1682281848516
 20
79.41176120309703
 30
0.0
  0
SPLINE
  5
14D
330
1F
100
AcDbEntity
  8
0
  6
Continuous
 62
     7
370
    25
100
AcDbSpline
210
0.0
220
0.0
230
1.0
 70
     8
 71
     3
 72
    12
 73
     8
 74
     0
 42
0.000000001
 43
0.00000001
 40
0.0
 40
0.0
 40
0.0
 40
0.0
 40
0.1868291602321614
 40
0.3734643570658039
 40
0.5601087137622923
 40
0.7800714630838973
 40
0.9999999999999999
 40
0.9999999999999999
 40
0.9999999999999999
 40
0.9999999999999999
 10
209.1682281848516
 20
79.41176120309702
 30
0.0
 10
209.2083721686693
 20
78.85481656142876
 30
0.0
 10
209.2886184593871
 20
77.7415054901623
 30
0.0
 10
210.0290855606261
 20
76.20400075436822
 30
0.0
 10
211.2714027756372
 20
74.92882609952977
 30
0.0
 10
212.954429955535
 20
74.02146623103361
 30
0.0
 10
214.2648486449816
 20
73.89730068573802
 30
0.0
 10
214.9200070310056
 20
73.83522274155821
 30
0.0
  0
SPLINE
  5
14E
330
1F
100
AcDbEntity
  8
0
  6
Continuous
 62
     7
370
    25
100
AcDbSpline
210
0.0
220
0.0
230
1.0
 70
     8
 71
     3
 72
    11
 73
     7
 74
     0
 42
0.000000001
 43
0.00000001
 40
0.0
 40
0.0
 40
0.0
 40
0.0
 40
0.2796281390853327
 40
0.559247167065827
 40
0.7797750200575341
 40
1.0
 40
1.0
 40
1.0
 40
1.0
 10
214.9200070310056
 20
73.83522274155821
 30
0.0
 10
215.7511390262484
 20
73.93936814490623
 30
0.0
 10
217.4133759360161
 20
74.14765555823958
 30
0.0
 10
219.281187989509
 20
75.6532045311957
 30
0.0
 10
220.4127587132484
 20
77.5062375695767
 30
0.0
 10
220.5595155664923
 20
78.81063544053157
 30
0.0
 10
220.6328435695069
 20
79.46238620309772
 30
0.0
  0
SPLINE
  5
14F
330
1F
100
AcDbEntity
  8
0
  6
Continuous
 62
     7
370
    25
100
AcDbSpline
210
0.0
220
0.0
230
1.0
 70
     8
 71
     3
 72
    11
 73
     7
 74
     0
 42
0.000000001
 43
0.00000001
 40
0.0
 40
0.0
 40
0.0
 40
0.0
 40
0.2793874427746522
 40
0.5590918180334651
 40
0.7795083089071488
 40
0.9999999999999999
 40
0.9999999999999999
 40
0.9999999999999999
 40
0.9999999999999999
 10
220.6328435695069
 20
79.46238620309772
 30
0.0
 10
220.5172468540003
 20
80.29193686493794
 30
0.0
 10
220.2859222919891
 20
81.9519792171391
 30
0.0
 10
218.7499450871558
 20
83.80504477071817
 30
0.0
 10
216.8548050098805
 20
84.87192263610277
 30
0.0
 10
215.5468409747698
 20
84.9910390112529
 30
0.0
 10
214.892747415644
 20
85.05060735692649
 30
0.0
  0
LINE
  5
150
330
1F
100
AcDbEntity
  8
0
  6
Continuous
 62
     7
370
    25
100
AcDbLine
 10
223.6770416464
 20
80.81368428
 30
0.0
 11
234.4601666464
 21
80.81368428
 31
0.0
  0
SPLINE
  5
151
330
1F
100
AcDbEntity
  8
0
  6
Continuous
 62
     7
370
    25
100
AcDbSpline
210
0.0
220
0.0
230
1.0
 70
     8
 71
     3
 72
    11
 73
     7
 74
     0
 42
0.000000001
 43
0.00000001
 40
0.0
 40
0.0
 40
0.0
 40
0.0
 40
0.2801381942590498
 40
0.5591944337351917
 40
0.7795976797791772
 40
1.0
 40
1.0
 40
1.0
 40
1.0
 10
234.46016664639
 20
80.81368428002098
 30
0.0
 10
234.2467777656749
 20
81.48642648827986
 30
0.0
 10
233.8208241586256
 20
82.82931262771578
 30
0.0
 10
232.3287351770892
 20
84.18170604025525
 30
0.0
 10
230.6743111691808
 20
84.92097850602707
 30
0.0
 10
229.57657943675
 20
85.00739780047233
 30
0.0
 10
229.0277147233166
 20
85.05060735694184
 30
0.0
  0
SPLINE
  5
152
330
1F
100
AcDbEntity
  8
0
  6
Continuous
 62
     7
370
    25
100
AcDbSpline
210
0.0
220
0.0
230
1.0
 70
     8
 71
     3
 72
     9
 73
     5
 74
     0
 42
0.000000001
 43
0.00000001
 40
0.0
 40
0.0
 40
0.0
 40
0.0
 40
0.5594581993038876
 40
1.0
 40
1.0
 40
1.0
 40
1.0
 10
229.0277147233166
 20
85.05060735694184
 30
0.0
 10
228.2738860176075
 20
84.98509034262925
 30
0.0
 10
226.9264596921964
 20
84.86798237210682
 30
0.0
 10
225.8440045414968
 20
84.07022562690842
 30
0.0
 10
225.3671378002349
 20
83.71878043386124
 30
0.0
  0
SPLINE
  5
153
330
1F
100
AcDbEntity
  8
0
  6
Continuous
 62
     7
370
    25
100
AcDbSpline
210
0.0
220
0.0
230
1.0
 70
     8
 71
     3
 72
     9
 73
     5
 74
     0
 42
0.000000001
 43
0.00000001
 40
0.0
 40
0.0
 40
0.0
 40
0.0
 40
0.5587953182939822
 40
1.0
 40
1.0
 40
1.0
 40
1.0
 10
225.3671378002349
 20
83.71878043386124
 30
0.0
 10
224.9431380517364
 20
83.23882608876524
 30
0.0
 10
224.1843633544233
 20
82.37991705824341
 30
0.0
 10
223.8323511007337
 20
81.29316456700161
 30
0.0
 10
223.677041646388
 20
80.81368428001004
 30
0.0
  0
LINE
  5
154
330
1F
100
AcDbEntity
  8
0
  6
Continuous
 62
     7
370
    25
100
AcDbLine
 10
195.0254724156
 20
80.81368428
 30
0.0
 11
205.8085974156
 21
80.81368428
 31
0.0
  0
SPLINE
  5
155
330
1F
100
AcDbEntity
  8
0
  6
Continuous
 62
     7
370
    25
100
AcDbSpline
210
0.0
220
0.0
230
1.0
 70
     8
 71
     3
 72
    11
 73
     7
 74
     0
 42
0.000000001
 43
0.00000001
 40
0.0
 40
0.0
 40
0.0
 40
0.0
 40
0.2801381942590825
 40
0.5591944337352123
 40
0.7795976797792158
 40
1.0
 40
1.0
 40
1.0
 40
1.0
 10
205.8085974156303
 20
80.81368427998717
 30
0.0
 10
205.5952085349169
 20
81.48642648825052
 30
0.0
 10
205.1692549278714
 20
82.82931262769524
 30
0.0
 10
203.6771659463335
 20
84.18170604024957
 30
0.0
 10
202.0227419384172
 20
84.9209785060282
 30
0.0
 10
200.9250102059807
 20
85.00739780047405
 30
0.0
 10
200.3761454925446
 20
85.05060735694381
 30
0.0
  0
SPLINE
  5
156
330
1F
100
AcDbEntity
  8
0
  6
Continuous
 62
     7
370
    25
100
AcDbSpline
210
0.0
220
0.0
230
1.0
 70
     8
 71
     3
 72
     9
 73
     5
 74
     0
 42
0.000000001
 43
0.00000001
 40
0.0
 40
0.0
 40
0.0
 40
0.0
 40
0.5594581993039092
 40
1.0
 40
1.0
 40
1.0
 40
1.0
 10
200.3761454925446
 20
85.05060735694381
 30
0.0
 10
199.6223167868365
 20
84.98509034263147
 30
0.0
 10
198.2748904614274
 20
84.86798237210955
 30
0.0
 10
197.1924353107287
 20
84.07022562691336
 30
0.0
 10
196.7155685694671
 20
83.71878043386718
 30
0.0
  0
SPLINE
  5
157
330
1F
100
AcDbEntity
  8
0
  6
Continuous
 62
     7
370
    25
100
AcDbSpline
210
0.0
220
0.0
230
1.0
 70
     8
 71
     3
 72
     9
 73
     5
 74
     0
 42
0.000000001
 43
0.00000001
 40
0.0
 40
0.0
 40
0.0
 40
0.0
 40
0.558795318294068
 40
1.0
 40
1.0
 40
1.0
 40
1.0
 10
196.7155685694671
 20
83.71878043386718
 30
0.0
 10
196.291568820969
 20
83.23882608877211
 30
0.0
 10
195.5327941236565
 20
82.37991705825209
 30
0.0
 10
195.1807818699669
 20
81.2931645670121
 30
0.0
 10
195.0254724156212
 20
80.81368428002143
 30
0.0
  0
ARC
  5
158
330
1F
100
AcDbEntity
  8
0
  6
Continuous
 62
     7
370
    25
100
AcDbCircle
 10
236.8213358814
 20
67.8777578497
 30
0.0
 40
0.5
100
AcDbArc
 50
270.0
 51
0.0
  0
LINE
  5
159
330
1F
100
AcDbEntity
  8
0
  6
Continuous
 62
     7
370
    25
100
AcDbLine
 10
210.2082281878
 20
67.3777578497
 30
0.0
 11
236.8213358814
 21
67.3777578497
 31
0.0
  0
ARC
  5
15A
330
1F
100
AcDbEntity
  8
0
  6
Continuous
 62
     7
370
    25
100
AcDbCircle
 10
210.2082281878
 20
67.8777578497
 30
0.0
 40
0.5
100
AcDbArc
 50
180.0
 51
270.0
  0
LINE
  5
15B
330
1F
100
AcDbEntity
  8
0
  6
Continuous
 62
     7
370
    25
100
AcDbLine
 10
209.7082281878
 20
68.6057578497
 30
0.0
 11
209.7082281878
 21
67.8777578497
 31
0.0
  0
ARC
  5
15C
330
1F
100
AcDbEntity
  8
0
  6
Continuous
 62
     7
370
    25
100
AcDbCircle
 10
210.2082281878
 20
68.6057578497
 30
0.0
 40
0.5000000000000284
100
AcDbArc
 50
90.0
 51
180.0
  0
LINE
  5
15D
330
1F
100
AcDbEntity
  8
0
  6
Continuous
 62
     7
370
    25
100
AcDbLine
 10
237.3213358814
 20
67.8777578497
 30
0.0
 11
237.3213358814
 21
68.6057578497
 31
0.0
  0
ARC
  5
15E
330
1F
100
AcDbEntity
  8
0
  6
Continuous
 62
     7
370
    25
100
AcDbCircle
 10
236.8213358814
 20
68.6057578497
 30
0.0
 40
0.5
100
AcDbArc
 50
0.0
 51
90.0
  0
LINE
  5
15F
330
1F
100
AcDbEntity
  8
0
  6
Continuous
 62
     7
370
    25
100
AcDbLine
 10
236.8213358814
 20
69.1057578497
 30
0.0
 11
210.2082281878
 21
69.1057578497
 31
0.0
  0
ARC
  5
160
330
1F
100
AcDbEntity
  8
0
  6
Continuous
 62
     7
370
    25
100
AcDbCircle
 10
181.2737310392
 20
68.6057578497
 30
0.0
 40
0.5
100
AcDbArc
 50
90.0
 51
180.0
  0
LINE
  5
161
330
1F
100
AcDbEntity
  8
0
  6
Continuous
 62
     7
370
    25
100
AcDbLine
 10
206.3836128032
 20
69.1057578497
 30
0.0
 11
181.2737310392
 21
69.1057578497
 31
0.0
  0
LINE
  5
162
330
1F
100
AcDbEntity
  8
0
  6
Continuous
 62
     7
370
    25
100
AcDbLine
 10
181.2737310392
 20
67.3777578497
 30
0.0
 11
206.3836128032
 21
67.3777578497
 31
0.0
  0
ARC
  5
163
330
1F
100
AcDbEntity
  8
0
  6
Continuous
 62
     7
370
    25
100
AcDbCircle
 10
181.2737310392
 20
67.8777578497
 30
0.0
 40
0.5
100
AcDbArc
 50
180.0
 51
270.0
  0
LINE
  5
164
330
1F
100
AcDbEntity
  8
0
  6
Continuous
 62
     7
370
    25
100
AcDbLine
 10
180.7737310392
 20
68.6057578497
 30
0.0
 11
180.7737310392
 21
67.8777578497
 31
0.0
  0
ARC
  5
165
330
1F
100
AcDbEntity
  8
0
  6
Continuous
 62
     7
370
    25
100
AcDbCircle
 10
206.3836128032
 20
68.6057578497
 30
0.0
 40
0.5
100
AcDbArc
 50
0.0
 51
90.0
  0
ARC
  5
166
330
1F
100
AcDbEntity
  8
0
  6
Continuous
 62
     7
370
    25
100
AcDbCircle
 10
206.3836128032
 20
67.8777578497
 30
0.0
 40
0.5000000000000142
100
AcDbArc
 50
270.0
 51
0.0
  0
LINE
  5
167
330
1F
100
AcDbEntity
  8
0
  6
Continuous
 62
     7
370
    25
100
AcDbLine
 10
206.8836128032
 20
67.8777578497
 30
0.0
 11
206.8836128032
 21
68.6057578497
 31
0.0
  0
CIRCLE
  5
168
330
1F
100
AcDbEntity
  8
0
  6
Continuous
 62
     7
370
    25
100
AcDbCircle
 10
215.4164697344
 20
79.9117612031
 30
0.0
 40
75.49999999999997
  0
CIRCLE
  5
169
330
1F
100
AcDbEntity
  8
0
  6
Continuous
 62
     7
370
    25
100
AcDbCircle
 10
215.4164697344
 20
79.9117612031
 30
0.0
 40
78.49999999999997
  0
ENDSEC
  0
SECTION
  2
OBJECTS
  0
DICTIONARY
  5
C
330
0
100
AcDbDictionary
281
     1
  3
ACAD_GROUP
350
D
  3
ACAD_LAYOUT
350
1A
  3
ACAD_MLINESTYLE
350
17
  3
ACAD_PLOTSETTINGS
350
19
  3
ACAD_PLOTSTYLENAME
350
E
  3
ACAD_SCALELIST
350
47
  0
DICTIONARY
  5
D
102
{ACAD_REACTORS
330
C
102
}
330
C
100
AcDbDictionary
281
     1
  0
DICTIONARY
  5
1A
102
{ACAD_REACTORS
330
C
102
}
330
C
100
AcDbDictionary
281
     1
  3
Layout1
350
1E
  3
Layout2
350
26
  3
Model
350
22
  0
DICTIONARY
  5
17
102
{ACAD_REACTORS
330
C
102
}
330
C
100
AcDbDictionary
281
     1
  3
Standard
350
18
  0
DICTIONARY
  5
19
102
{ACAD_REACTORS
330
C
102
}
330
C
100
AcDbDictionary
281
     1
  0
ACDBDICTIONARYWDFLT
  5
E
102
{ACAD_REACTORS
330
C
102
}
330
C
100
AcDbDictionary
281
     1
  3
Normal
350
F
100
AcDbDictionaryWithDefault
340
F
  0
DICTIONARY
  5
47
102
{ACAD_REACTORS
330
C
102
}
330
C
100
AcDbDictionary
281
     1
  3
A0
350
48
  3
A1
350
49
  3
A2
350
4A
  3
A3
350
4B
  3
A4
350
4C
  3
A5
350
4D
  3
A6
350
4E
  3
A7
350
4F
  3
A8
350
50
  3
A9
350
51
  3
B0
350
52
  3
B1
350
53
  3
B2
350
54
  3
B3
350
55
  3
B4
350
56
  3
B5
350
57
  3
B6
350
58
  3
B7
350
59
  3
B8
350
5A
  3
B9
350
5B
  3
C0
350
5C
  3
C1
350
5D
  3
C2
350
5E
  3
C3
350
5F
  3
C4
350
60
  3
C5
350
61
  3
C6
350
62
  3
C7
350
63
  3
C8
350
64
  3
C9
350
65
  3
D0
350
66
  3
D1
350
67
  3
D2
350
68
  0
LAYOUT
  5
1E
102
{ACAD_REACTORS
330
1A
102
}
330
1A
100
AcDbPlotSettings
  1

  2
none_device
  4

  6

 40
0.0
 41
0.0
 42
0.0
 43
0.0
 44
0.0
 45
0.0
 46
0.0
 47
0.0
 48
0.0
 49
0.0
140
0.0
141
0.0
142
1.0
143
1.0
 70
   688
 72
     1
 73
     0
 74
     5
  7

 75
    16
147
1.0
148
0.0
149
0.0
100
AcDbLayout
  1
Layout1
 70
     1
 71
     1
 10
0.0
 20
0.0
 11
420.0
 21
297.0
 12
0.0
 22
0.0
 32
0.0
 14
1.0000000000E+20
 24
1.0000000000E+20
 34
1.0000000000E+20
 15
-1.0000000000E+20
 25
-1.0000000000E+20
 35
-1.0000000000E+20
146
0.0
 13
0.0
 23
0.0
 33
0.0
 16
1.0
 26
0.0
 36
0.0
 17
0.0
 27
1.0
 37
0.0
 76
     0
330
1B
  0
LAYOUT
  5
26
102
{ACAD_REACTORS
330
1A
102
}
330
1A
100
AcDbPlotSettings
  1

  2
none_device
  4

  6

 40
0.0
 41
0.0
 42
0.0
 43
0.0
 44
0.0
 45
0.0
 46
0.0
 47
0.0
 48
0.0
 49
0.0
140
0.0
141
0.0
142
1.0
143
1.0
 70
   688
 72
     1
 73
     0
 74
     5
  7

 75
    16
147
1.0
148
0.0
149
0.0
100
AcDbLayout
  1
Layout2
 70
     1
 71
     2
 10
0.0
 20
0.0
 11
0.0
 21
0.0
 12
0.0
 22
0.0
 32
0.0
 14
0.0
 24
0.0
 34
0.0
 15
0.0
 25
0.0
 35
0.0
146
0.0
 13
0.0
 23
0.0
 33
0.0
 16
1.0
 26
0.0
 36
0.0
 17
0.0
 27
1.0
 37
0.0
 76
     0
330
23
  0
LAYOUT
  5
22
102
{ACAD_REACTORS
330
1A
102
}
330
1A
100
AcDbPlotSettings
  1

  2
none_device
  4
Letter_(8.50_x_11.00_Inches)
  6

 40
6.35
 41
6.35
 42
6.35000508
 43
6.35000508
 44
215.9
 45
279.4
 46
0.0
 47
0.0
 48
0.0
 49
0.0
140
0.0
141
0.0
142
1.0
143
1.0
 70
  1712
 72
     1
 73
     0
 74
     0
  7

 75
     0
147
1.0
148
0.0
149
0.0
100
AcDbLayout
  1
Model
 70
     1
 71
     0
 10
0.0
 20
0.0
 11
420.0
 21
297.0
 12
0.0
 22
0.0
 32
0.0
 14
0.0
 24
0.0
 34
0.0
 15
420.0
 25
297.0
 35
0.0
146
0.0
 13
0.0
 23
0.0
 33
0.0
 16
1.0
 26
0.0
 36
0.0
 17
0.0
 27
1.0
 37
0.0
 76
     0
330
1F
331
29
  0
MLINESTYLE
  5
18
102
{ACAD_REACTORS
330
17
102
}
330
17
100
AcDbMlineStyle
  2
Standard
 70
     0
  3

 62
   256
 51
90.0
 52
90.0
 71
     2
 49
0.5
 62
   256
  6
BYLAYER
 49
-0.5
 62
   256
  6
BYLAYER
  0
ACDBPLACEHOLDER
  5
F
102
{ACAD_REACTORS
330
E
102
}
330
E
  0
SCALE
  5
48
102
{ACAD_REACTORS
330
47
102
}
330
47
100
AcDbScale
 70
     0
300
1:1
140
1.0
141
1.0
290
     1
  0
SCALE
  5
49
102
{ACAD_REACTORS
330
47
102
}
330
47
100
AcDbScale
 70
     0
300
1:2
140
1.0
141
2.0
290
     0
  0
SCALE
  5
4A
102
{ACAD_REACTORS
330
47
102
}
330
47
100
AcDbScale
 70
     0
300
1:4
140
1.0
141
4.0
290
     0
  0
SCALE
  5
4B
102
{ACAD_REACTORS
330
47
102
}
330
47
100
AcDbScale
 70
     0
300
1:5
140
1.0
141
5.0
290
     0
  0
SCALE
  5
4C
102
{ACAD_REACTORS
330
47
102
}
330
47
100
AcDbScale
 70
     0
300
1:8
140
1.0
141
8.0
290
     0
  0
SCALE
  5
4D
102
{ACAD_REACTORS
330
47
102
}
330
47
100
AcDbScale
 70
     0
300
1:10
140
1.0
141
10.0
290
     0
  0
SCALE
  5
4E
102
{ACAD_REACTORS
330
47
102
}
330
47
100
AcDbScale
 70
     0
300
1:16
140
1.0
141
16.0
290
     0
  0
SCALE
  5
4F
102
{ACAD_REACTORS
330
47
102
}
330
47
100
AcDbScale
 70
     0
300
1:20
140
1.0
141
20.0
290
     0
  0
SCALE
  5
50
102
{ACAD_REACTORS
330
47
102
}
330
47
100
AcDbScale
 70
     0
300
1:30
140
1.0
141
30.0
290
     0
  0
SCALE
  5
51
102
{ACAD_REACTORS
330
47
102
}
330
47
100
AcDbScale
 70
     0
300
1:40
140
1.0
141
40.0
290
     0
  0
SCALE
  5
52
102
{ACAD_REACTORS
330
47
102
}
330
47
100
AcDbScale
 70
     0
300
1:50
140
1.0
141
50.0
290
     0
  0
SCALE
  5
53
102
{ACAD_REACTORS
330
47
102
}
330
47
100
AcDbScale
 70
     0
300
1:100
140
1.0
141
100.0
290
     0
  0
SCALE
  5
54
102
{ACAD_REACTORS
330
47
102
}
330
47
100
AcDbScale
 70
     0
300
2:1
140
2.0
141
1.0
290
     0
  0
SCALE
  5
55
102
{ACAD_REACTORS
330
47
102
}
330
47
100
AcDbScale
 70
     0
300
4:1
140
4.0
141
1.0
290
     0
  0
SCALE
  5
56
102
{ACAD_REACTORS
330
47
102
}
330
47
100
AcDbScale
 70
     0
300
8:1
140
8.0
141
1.0
290
     0
  0
SCALE
  5
57
102
{ACAD_REACTORS
330
47
102
}
330
47
100
AcDbScale
 70
     0
300
10:1
140
10.0
141
1.0
290
     0
  0
SCALE
  5
58
102
{ACAD_REACTORS
330
47
102
}
330
47
100
AcDbScale
 70
     0
300
100:1
140
100.0
141
1.0
290
     0
  0
SCALE
  5
59
102
{ACAD_REACTORS
330
47
102
}
330
47
100
AcDbScale
 70
     0
300
1/128" = 1'-0"
140
0.0078125
141
12.0
290
     0
  0
SCALE
  5
5A
102
{ACAD_REACTORS
330
47
102
}
330
47
100
AcDbScale
 70
     0
300
1/64" = 1'-0"
140
0.015625
141
12.0
290
     0
  0
SCALE
  5
5B
102
{ACAD_REACTORS
330
47
102
}
330
47
100
AcDbScale
 70
     0
300
1/32" = 1'-0"
140
0.03125
141
12.0
290
     0
  0
SCALE
  5
5C
102
{ACAD_REACTORS
330
47
102
}
330
47
100
AcDbScale
 70
     0
300
1/16" = 1'-0"
140
0.0625
141
12.0
290
     0
  0
SCALE
  5
5D
102
{ACAD_REACTORS
330
47
102
}
330
47
100
AcDbScale
 70
     0
300
3/32" = 1'-0"
140
0.09375
141
12.0
290
     0
  0
SCALE
  5
5E
102
{ACAD_REACTORS
330
47
102
}
330
47
100
AcDbScale
 70
     0
300
1/8" = 1'-0"
140
0.125
141
12.0
290
     0
  0
SCALE
  5
5F
102
{ACAD_REACTORS
330
47
102
}
330
47
100
AcDbScale
 70
     0
300
3/16" = 1'-0"
140
0.1875
141
12.0
290
     0
  0
SCALE
  5
60
102
{ACAD_REACTORS
330
47
102
}
330
47
100
AcDbScale
 70
     0
300
1/4" = 1'-0"
140
0.25
141
12.0
290
     0
  0
SCALE
  5
61
102
{ACAD_REACTORS
330
47
102
}
330
47
100
AcDbScale
 70
     0
300
3/8" = 1'-0"
140
0.375
141
12.0
290
     0
  0
SCALE
  5
62
102
{ACAD_REACTORS
330
47
102
}
330
47
100
AcDbScale
 70
     0
300
1/2" = 1'-0"
140
0.5
141
12.0
290
     0
  0
SCALE
  5
63
102
{ACAD_REACTORS
330
47
102
}
330
47
100
AcDbScale
 70
     0
300
3/4" = 1'-0"
140
0.75
141
12.0
290
     0
  0
SCALE
  5
64
102
{ACAD_REACTORS
330
47
102
}
330
47
100
AcDbScale
 70
     0
300
1" = 1'-0"
140
1.0
141
12.0
290
     0
  0
SCALE
  5
65
102
{ACAD_REACTORS
330
47
102
}
330
47
100
AcDbScale
 70
     0
300
1-1/2" = 1'-0"
140
1.5
141
12.0
290
     0
  0
SCALE
  5
66
102
{ACAD_REACTORS
330
47
102
}
330
47
100
AcDbScale
 70
     0
300
3" = 1'-0"
140
3.0
141
12.0
290
     0
  0
SCALE
  5
67
102
{ACAD_REACTORS
330
47
102
}
330
47
100
AcDbScale
 70
     0
300
6" = 1'-0"
140
6.0
141
12.0
290
     0
  0
SCALE
  5
68
102
{ACAD_REACTORS
330
47
102
}
330
47
100
AcDbScale
 70
     0
300
1'-0" = 1'-0"
140
12.0
141
12.0
290
     0
  0
ENDSEC
  0
EOF
