  0
SECTION
  2
HEADER
  9
$ACADVER
  1
AC1015
  9
$ACADMAINTVER
 70
     6
  9
$DWGCODEPAGE
  3
ANSI_1254
  9
$INSBASE
 10
0.0
 20
0.0
 30
0.0
  9
$EXTMIN
 10
445.6528371173154
 20
381.2686310058
 30
0.0
  9
$EXTMAX
 10
890.5689407454
 20
1052.1921965318
 30
0.0
  9
$LIMMIN
 10
0.0
 20
0.0
  9
$LIMMAX
 10
1500.0
 20
1500.0
  9
$ORTHOMODE
 70
     0
  9
$REGENMODE
 70
     1
  9
$FILLMODE
 70
     1
  9
$QTEXTMODE
 70
     0
  9
$MIRRTEXT
 70
     1
  9
$LTSCALE
 40
1.0
  9
$ATTMODE
 70
     1
  9
$TEXTSIZE
 40
4.9388888889
  9
$TRACEWID
 40
1.0
  9
$TEXTSTYLE
  7
Standard
  9
$CLAYER
  8
0
  9
$CELTYPE
  6
ByLayer
  9
$CECOLOR
 62
   256
  9
$CELTSCALE
 40
1.0
  9
$DISPSILH
 70
     0
  9
$DIMSCALE
 40
1.0
  9
$DIMASZ
 40
3.65
  9
$DIMEXO
 40
0.5
  9
$DIMDLI
 40
3.75
  9
$DIMRND
 40
0.0
  9
$DIMDLE
 40
0.0
  9
$DIMEXE
 40
1.0
  9
$DIMTP
 40
0.0
  9
$DIMTM
 40
0.0
  9
$DIMTXT
 40
2.6458333333
  9
$DIMCEN
 40
2.5
  9
$DIMTSZ
 40
0.0
  9
$DIMTOL
 70
     0
  9
$DIMLIM
 70
     0
  9
$DIMTIH
 70
     1
  9
$DIMTOH
 70
     1
  9
$DIMSE1
 70
     0
  9
$DIMSE2
 70
     0
  9
$DIMTAD
 70
     1
  9
$DIMZIN
 70
     0
  9
$DIMBLK
  1

  9
$DIMASO
 70
     1
  9
$DIMSHO
 70
     1
  9
$DIMPOST
  1

  9
$DIMAPOST
  1

  9
$DIMALT
 70
     0
  9
$DIMALTD
 70
     3
  9
$DIMALTF
 40
0.0393700787
  9
$DIMLFAC
 40
1.0
  9
$DIMTOFL
 70
     1
  9
$DIMTVP
 40
0.0
  9
$DIMTIX
 70
     0
  9
$DIMSOXD
 70
     0
  9
$DIMSAH
 70
     0
  9
$DIMBLK1
  1

  9
$DIMBLK2
  1

  9
$DIMSTYLE
  2
ISO-25
  9
$DIMCLRD
 70
     0
  9
$DIMCLRE
 70
     0
  9
$DIMCLRT
 70
     0
  9
$DIMTFAC
 40
1.0
  9
$DIMGAP
 40
1.524
  9
$DIMJUST
 70
     0
  9
$DIMSD1
 70
     0
  9
$DIMSD2
 70
     0
  9
$DIMTOLJ
 70
     0
  9
$DIMTZIN
 70
     0
  9
$DIMALTZ
 70
     0
  9
$DIMALTTZ
 70
     0
  9
$DIMUPT
 70
     0
  9
$DIMDEC
 70
     2
  9
$DIMTDEC
 70
     2
  9
$DIMALTU
 70
     2
  9
$DIMALTTD
 70
     3
  9
$DIMTXSTY
  7
Standard
  9
$DIMAUNIT
 70
     0
  9
$DIMADEC
 70
     2
  9
$DIMALTRND
 40
0.0
  9
$DIMAZIN
 70
     0
  9
$DIMDSEP
 70
    44
  9
$DIMATFIT
 70
     3
  9
$DIMFRAC
 70
     0
  9
$DIMLDRBLK
  1

  9
$DIMLUNIT
 70
     2
  9
$DIMLWD
 70
    -2
  9
$DIMLWE
 70
    -2
  9
$DIMTMOVE
 70
     0
  9
$LUNITS
 70
     2
  9
$LUPREC
 70
     2
  9
$SKETCHINC
 40
1.0
  9
$FILLETRAD
 40
10.0
  9
$AUNITS
 70
     0
  9
$AUPREC
 70
     2
  9
$MENU
  1
.
  9
$ELEVATION
 40
0.0
  9
$PELEVATION
 40
0.0
  9
$THICKNESS
 40
0.0
  9
$LIMCHECK
 70
     0
  9
$CHAMFERA
 40
0.0
  9
$CHAMFERB
 40
0.0
  9
$CHAMFERC
 40
0.0
  9
$CHAMFERD
 40
0.0
  9
$SKPOLY
 70
     0
  9
$TDCREATE
 40
2459072.700932998
  9
$TDUCREATE
 40
2459072.575932998
  9
$TDUPDATE
 40
2459072.703536447
  9
$TDUUPDATE
 40
2459072.578536447
  9
$TDINDWG
 40
0.0021815856
  9
$TDUSRTIMER
 40
0.0021815741
  9
$USRTIMER
 70
     1
  9
$ANGBASE
 50
0.0
  9
$ANGDIR
 70
     0
  9
$PDMODE
 70
     0
  9
$PDSIZE
 40
-1.0
  9
$PLINEWID
 40
0.0
  9
$SPLFRAME
 70
     0
  9
$SPLINETYPE
 70
     6
  9
$SPLINESEGS
 70
     8
  9
$HANDSEED
  5
1A0
  9
$SURFTAB1
 70
     6
  9
$SURFTAB2
 70
     6
  9
$SURFTYPE
 70
     6
  9
$SURFU
 70
     6
  9
$SURFV
 70
     6
  9
$UCSBASE
  2

  9
$UCSNAME
  2

  9
$UCSORG
 10
0.0
 20
0.0
 30
0.0
  9
$UCSXDIR
 10
1.0
 20
0.0
 30
0.0
  9
$UCSYDIR
 10
0.0
 20
1.0
 30
0.0
  9
$UCSORTHOREF
  2

  9
$UCSORTHOVIEW
 70
     0
  9
$UCSORGTOP
 10
0.0
 20
0.0
 30
0.0
  9
$UCSORGBOTTOM
 10
0.0
 20
0.0
 30
0.0
  9
$UCSORGLEFT
 10
0.0
 20
0.0
 30
0.0
  9
$UCSORGRIGHT
 10
0.0
 20
0.0
 30
0.0
  9
$UCSORGFRONT
 10
0.0
 20
0.0
 30
0.0
  9
$UCSORGBACK
 10
0.0
 20
0.0
 30
0.0
  9
$PUCSBASE
  2

  9
$PUCSNAME
  2

  9
$PUCSORG
 10
0.0
 20
0.0
 30
0.0
  9
$PUCSXDIR
 10
1.0
 20
0.0
 30
0.0
  9
$PUCSYDIR
 10
0.0
 20
1.0
 30
0.0
  9
$PUCSORTHOREF
  2

  9
$PUCSORTHOVIEW
 70
     0
  9
$PUCSORGTOP
 10
0.0
 20
0.0
 30
0.0
  9
$PUCSORGBOTTOM
 10
0.0
 20
0.0
 30
0.0
  9
$PUCSORGLEFT
 10
0.0
 20
0.0
 30
0.0
  9
$PUCSORGRIGHT
 10
0.0
 20
0.0
 30
0.0
  9
$PUCSORGFRONT
 10
0.0
 20
0.0
 30
0.0
  9
$PUCSORGBACK
 10
0.0
 20
0.0
 30
0.0
  9
$USERI1
 70
     0
  9
$USERI2
 70
     0
  9
$USERI3
 70
     0
  9
$USERI4
 70
     0
  9
$USERI5
 70
     0
  9
$USERR1
 40
0.0
  9
$USERR2
 40
0.0
  9
$USERR3
 40
0.0
  9
$USERR4
 40
0.0
  9
$USERR5
 40
0.0
  9
$WORLDVIEW
 70
     1
  9
$SHADEDGE
 70
     3
  9
$SHADEDIF
 70
    70
  9
$TILEMODE
 70
     1
  9
$MAXACTVP
 70
    64
  9
$PINSBASE
 10
0.0
 20
0.0
 30
0.0
  9
$PLIMCHECK
 70
     0
  9
$PEXTMIN
 10
1.000000000000000E+20
 20
1.000000000000000E+20
 30
1.000000000000000E+20
  9
$PEXTMAX
 10
-1.000000000000000E+20
 20
-1.000000000000000E+20
 30
-1.000000000000000E+20
  9
$PLIMMIN
 10
0.0
 20
0.0
  9
$PLIMMAX
 10
0.0
 20
0.0
  9
$UNITMODE
 70
     0
  9
$VISRETAIN
 70
     1
  9
$PLINEGEN
 70
     0
  9
$PSLTSCALE
 70
     1
  9
$TREEDEPTH
 70
  3020
  9
$CMLSTYLE
  2
Standard
  9
$CMLJUST
 70
     0
  9
$CMLSCALE
 40
20.0
  9
$PROXYGRAPHICS
 70
     1
  9
$MEASUREMENT
 70
     1
  9
$CELWEIGHT
370
    -1
  9
$ENDCAPS
280
     0
  9
$JOINSTYLE
280
     0
  9
$LWDISPLAY
290
     1
  9
$INSUNITS
 70
     4
  9
$HYPERLINKBASE
  1

  9
$STYLESHEET
  1

  9
$XEDIT
290
     1
  9
$CEPSNTYPE
380
     0
  9
$PSTYLEMODE
290
     1
  9
$FINGERPRINTGUID
  2
{f4bbf0b8-2f4b-4b6a-ab53-bd78a80c85cf}
  9
$VERSIONGUID
  2
{FAEB1C32-E019-11D5-929B-00C0DF256EC4}
  9
$EXTNAMES
290
     1
  9
$PSVPSCALE
 40
0.0
  9
$OLESTARTUP
290
     0
  0
ENDSEC
  0
SECTION
  2
CLASSES
  0
CLASS
  1
ACDBDICTIONARYWDFLT
  2
AcDbDictionaryWithDefault
  3
ObjectDBX Classes
 90
        0
280
     0
281
     0
  0
CLASS
  1
VISUALSTYLE
  2
AcDbVisualStyle
  3
ObjectDBX Classes
 90
     4095
280
     0
281
     0
  0
CLASS
  1
MATERIAL
  2
AcDbMaterial
  3
ObjectDBX Classes
 90
     1153
280
     0
281
     0
  0
CLASS
  1
SCALE
  2
AcDbScale
  3
ObjectDBX Classes
 90
     1153
280
     0
281
     0
  0
CLASS
  1
TABLESTYLE
  2
AcDbTableStyle
  3
ObjectDBX Classes
 90
     4095
280
     0
281
     0
  0
CLASS
  1
MLEADERSTYLE
  2
AcDbMLeaderStyle
  3
ACDB_MLEADERSTYLE_CLASS
 90
     4095
280
     0
281
     0
  0
CLASS
  1
SUN
  2
AcDbSun
  3
SCENEOE
 90
     1153
280
     0
281
     0
  0
CLASS
  1
ACDBPLACEHOLDER
  2
AcDbPlaceHolder
  3
ObjectDBX Classes
 90
        0
280
     0
281
     0
  0
CLASS
  1
LAYOUT
  2
AcDbLayout
  3
ObjectDBX Classes
 90
        0
280
     0
281
     0
  0
ENDSEC
  0
SECTION
  2
TABLES
  0
TABLE
  2
VPORT
  5
8
330
0
100
AcDbSymbolTable
 70
     1
  0
VPORT
  5
29
330
8
100
AcDbSymbolTableRecord
100
AcDbViewportTableRecord
  2
*Active
 70
     0
 10
0.0
 20
0.0
 11
1.0
 21
1.0
 12
668.1108894435
 22
716.7304137688
 13
0.0
 23
0.0
 14
10.0
 24
10.0
 15
10.0
 25
10.0
 16
0.0
 26
0.0
 36
1.0
 17
0.0
 27
0.0
 37
0.0
 40
684.3420368365199
 41
2.328467153284671
 42
50.0
 43
0.0
 44
0.0
 50
0.0
 51
0.0
 71
    16
 72
  2000
 73
     1
 74
     3
 75
     0
 76
     0
 77
     0
 78
     0
281
     0
 65
     1
110
0.0
120
0.0
130
0.0
111
1.0
121
0.0
131
0.0
112
0.0
122
1.0
132
0.0
 79
     0
146
0.0
  0
ENDTAB
  0
TABLE
  2
LTYPE
  5
5
330
0
100
AcDbSymbolTable
 70
     6
  0
LTYPE
  5
14
330
5
100
AcDbSymbolTableRecord
100
AcDbLinetypeTableRecord
  2
ByBlock
 70
     0
  3

 72
    65
 73
     0
 40
0.0
  0
LTYPE
  5
15
330
5
100
AcDbSymbolTableRecord
100
AcDbLinetypeTableRecord
  2
ByLayer
 70
     0
  3

 72
    65
 73
     0
 40
0.0
  0
LTYPE
  5
16
330
5
100
AcDbSymbolTableRecord
100
AcDbLinetypeTableRecord
  2
Continuous
 70
     0
  3
Solid line
 72
    65
 73
     0
 40
0.0
  0
LTYPE
  5
6E
330
5
100
AcDbSymbolTableRecord
100
AcDbLinetypeTableRecord
  2
HIDDEN
 70
     0
  3
Hidden __ __ __ __ __ __ __ __ __ __ __ __ __ __
 72
    65
 73
     2
 40
1.905
 49
1.27
 74
     0
 49
-0.635
 74
     0
  0
LTYPE
  5
6F
330
5
100
AcDbSymbolTableRecord
100
AcDbLinetypeTableRecord
  2
PHANTOM
 70
     0
  3
Phantom ______  __  __  ______  __  __  ______
 72
    65
 73
     6
 40
12.7
 49
6.35
 74
     0
 49
-1.27
 74
     0
 49
1.27
 74
     0
 49
-1.27
 74
     0
 49
1.27
 74
     0
 49
-1.27
 74
     0
  0
LTYPE
  5
70
330
5
100
AcDbSymbolTableRecord
100
AcDbLinetypeTableRecord
  2
CENTER
 70
     0
  3
Center ____ _ ____ _ ____ _ ____ _ ____ _ ____
 72
    65
 73
     4
 40
10.16
 49
6.35
 74
     0
 49
-1.27
 74
     0
 49
1.27
 74
     0
 49
-1.27
 74
     0
  0
LTYPE
  5
71
330
5
100
AcDbSymbolTableRecord
100
AcDbLinetypeTableRecord
  2
CENTERX2
 70
     0
  3
Center (2x) ________  __  ________  __  _____
 72
    65
 73
     4
 40
20.32
 49
12.7
 74
     0
 49
-2.54
 74
     0
 49
2.54
 74
     0
 49
-2.54
 74
     0
  0
LTYPE
  5
72
330
5
100
AcDbSymbolTableRecord
100
AcDbLinetypeTableRecord
  2
DOT2
 70
     0
  3
Dot (.5x) ........................................
 72
    65
 73
     2
 40
0.635
 49
0.0
 74
     0
 49
-0.635
 74
     0
  0
ENDTAB
  0
TABLE
  2
LAYER
  5
2
330
0
100
AcDbSymbolTable
 70
     5
  0
LAYER
  5
10
330
2
100
AcDbSymbolTableRecord
100
AcDbLayerTableRecord
  2
0
 70
     0
 62
     7
  6
Continuous
370
    -3
390
F
  0
LAYER
  5
73
330
2
100
AcDbSymbolTableRecord
100
AcDbLayerTableRecord
  2
FORMAT
 70
     0
 62
     7
  6
Continuous
370
    -3
390
F
  0
LAYER
  5
74
330
2
100
AcDbSymbolTableRecord
100
AcDbLayerTableRecord
  2
SLD-0
 70
     0
 62
   179
  6
Continuous
370
    -3
390
F
  0
LAYER
  5
75
330
2
100
AcDbSymbolTableRecord
100
AcDbLayerTableRecord
  2
AAA_EKSEN
 70
     0
 62
     1
  6
CENTER
370
    -3
390
F
  0
LAYER
  5
76
330
2
100
AcDbSymbolTableRecord
100
AcDbLayerTableRecord
  2
03
 70
     0
 62
     3
  6
HIDDEN
370
    -3
390
F
  0
ENDTAB
  0
TABLE
  2
STYLE
  5
3
330
0
100
AcDbSymbolTable
 70
     1
  0
STYLE
  5
11
330
3
100
AcDbSymbolTableRecord
100
AcDbTextStyleTableRecord
  2
Standard
 70
     0
 40
0.0
 41
1.0
 50
0.0
 71
     0
 42
4.9388888889
  3
txt
  4

  0
ENDTAB
  0
TABLE
  2
VIEW
  5
6
330
0
100
AcDbSymbolTable
 70
     0
  0
ENDTAB
  0
TABLE
  2
UCS
  5
7
330
0
100
AcDbSymbolTable
 70
     0
  0
ENDTAB
  0
TABLE
  2
APPID
  5
9
330
0
100
AcDbSymbolTable
 70
     1
  0
APPID
  5
12
330
9
100
AcDbSymbolTableRecord
100
AcDbRegAppTableRecord
  2
ACAD
 70
     0
  0
ENDTAB
  0
TABLE
  2
DIMSTYLE
  5
A
330
0
100
AcDbSymbolTable
 70
     1
100
AcDbDimStyleTable
  0
DIMSTYLE
105
27
330
A
100
AcDbSymbolTableRecord
100
AcDbDimStyleTableRecord
  2
ISO-25
 70
     0
 41
2.5
 42
0.625
 43
3.75
 44
1.25
 73
     0
 74
     0
 77
     1
 78
     8
140
2.5
141
2.5
143
0.0393700787
147
0.625
171
     3
172
     1
178
     0
271
     2
272
     2
274
     3
278
    44
283
     0
284
     8
340
11
  0
ENDTAB
  0
TABLE
  2
BLOCK_RECORD
  5
1
330
0
100
AcDbSymbolTable
 70
     1
  0
BLOCK_RECORD
  5
1F
330
1
100
AcDbSymbolTableRecord
100
AcDbBlockTableRecord
  2
*Model_Space
340
22
  0
BLOCK_RECORD
  5
1B
330
1
100
AcDbSymbolTableRecord
100
AcDbBlockTableRecord
  2
*Paper_Space
340
1E
  0
BLOCK_RECORD
  5
23
330
1
100
AcDbSymbolTableRecord
100
AcDbBlockTableRecord
  2
*Paper_Space0
340
26
  0
ENDTAB
  0
ENDSEC
  0
SECTION
  2
BLOCKS
  0
BLOCK
  5
20
330
1F
100
AcDbEntity
  8
0
100
AcDbBlockBegin
  2
*Model_Space
 70
     0
 10
0.0
 20
0.0
 30
0.0
  3
*Model_Space
  1

  0
ENDBLK
  5
21
330
1F
100
AcDbEntity
  8
0
100
AcDbBlockEnd
  0
BLOCK
  5
1C
330
1B
100
AcDbEntity
 67
     1
  8
0
100
AcDbBlockBegin
  2
*Paper_Space
 70
     0
 10
0.0
 20
0.0
 30
0.0
  3
*Paper_Space
  1

  0
ENDBLK
  5
1D
330
1B
100
AcDbEntity
 67
     1
  8
0
100
AcDbBlockEnd
  0
BLOCK
  5
24
330
23
100
AcDbEntity
  8
0
100
AcDbBlockBegin
  2
*Paper_Space0
 70
     0
 10
0.0
 20
0.0
 30
0.0
  3
*Paper_Space0
  1

  0
ENDBLK
  5
25
330
23
100
AcDbEntity
  8
0
100
AcDbBlockEnd
  0
ENDSEC
  0
SECTION
  2
ENTITIES
  0
SPLINE
  5
77
330
1F
100
AcDbEntity
  8
0
  6
Continuous
 62
     7
370
    25
100
AcDbSpline
210
0.0
220
0.0
230
1.0
 70
     8
 71
     3
 72
    25
 73
    21
 74
     0
 42
0.000000001
 43
0.00000001
 40
0.0
 40
0.0
 40
0.0
 40
0.0
 40
0.0431815243689037
 40
0.1006379181190524
 40
0.1582563400549713
 40
0.2160466311524934
 40
0.2740016754398376
 40
0.3321033245772069
 40
0.3903280747714126
 40
0.4486510201719451
 40
0.5070493118649415
 40
0.5655015695977724
 40
0.6239810363710561
 40
0.6824623230084357
 40
0.740916921791242
 40
0.7993102454359626
 40
0.8576028890375447
 40
0.9157554888390231
 40
0.9737344440451624
 40
1.0
 40
1.0
 40
1.0
 40
1.0
 10
509.8072507390052
 20
880.8847729401783
 30
0.0
 10
510.0599411296903
 20
880.3925933952439
 30
0.0
 10
510.6488558384435
 20
879.2455304912154
 30
0.0
 10
511.896468577418
 20
877.6123931422147
 30
0.0
 10
513.4690169983555
 20
875.9969001951869
 30
0.0
 10
515.2721330902667
 20
874.5940540121012
 30
0.0
 10
517.2624010392983
 20
873.4239165536187
 30
0.0
 10
519.4078216397879
 20
872.5095927679679
 30
0.0
 10
521.6692113968536
 20
871.8678885086518
 30
0.0
 10
524.006150219526
 20
871.5114046145783
 30
0.0
 10
526.3763268206347
 20
871.4473307587157
 30
0.0
 10
528.7366709848186
 20
871.677774078123
 30
0.0
 10
531.0440620921805
 20
872.1993850868154
 30
0.0
 10
533.2559421776158
 20
873.0035746100094
 30
0.0
 10
535.3317441905692
 20
874.0762519661148
 30
0.0
 10
537.2311757502406
 20
875.398820717696
 30
0.0
 10
538.9243484260686
 20
876.9447622508882
 30
0.0
 10
540.3580738338599
 20
878.6935474868898
 30
0.0
 10
541.3628911721491
 20
880.2389679761559
 30
0.0
 10
541.7734057346298
 20
881.232530871541
 30
0.0
 10
541.9013950013787
 20
881.542301579018
 30
0.0
  0
SPLINE
  5
78
330
1F
100
AcDbEntity
  8
0
  6
Continuous
 62
     7
370
    25
100
AcDbSpline
210
0.0
220
0.0
230
1.0
 70
     8
 71
     3
 72
    25
 73
    21
 74
     0
 42
0.000000001
 43
0.00000001
 40
0.0
 40
0.0
 40
0.0
 40
0.0
 40
0.0414673626154471
 40
0.0982169469314113
 40
0.1551221203210287
 40
0.2121964857568736
 40
0.2694365225302638
 40
0.3268257770420886
 40
0.3843417277293681
 40
0.441960112946251
 40
0.4996576280736564
 40
0.5574127950177411
 40
0.6152010250061537
 40
0.6729964568351681
 40
0.7307719347127536
 40
0.7884946043708941
 40
0.8461265977896721
 40
0.9036281486700076
 40
0.9609641290558301
 40
1.0
 40
1.0
 40
1.0
 40
1.0
 10
549.8268658266634
 20
846.593982382317
 30
0.0
 10
550.057746628592
 20
846.1092990653314
 30
0.0
 10
550.6045961516927
 20
844.961309113224
 30
0.0
 10
551.7928055601323
 20
843.3090891279853
 30
0.0
 10
553.3139514520753
 20
841.6527160419452
 30
0.0
 10
555.0723881273068
 20
840.2030390868013
 30
0.0
 10
557.0248828684176
 20
838.980899643077
 30
0.0
 10
559.1403980093166
 20
838.0103190681092
 30
0.0
 10
561.3802956221533
 20
837.3090949347287
 30
0.0
 10
563.7045897824653
 20
836.8907848883731
 30
0.0
 10
566.0712559169108
 20
836.7638113193303
 30
0.0
 10
568.4373402544377
 20
836.931330620553
 30
0.0
 10
570.7596554614198
 20
837.3912201345307
 30
0.0
 10
572.9954783968305
 20
838.1359514485354
 30
0.0
 10
575.1037153180323
 20
839.1526399693354
 30
0.0
 10
577.0440606073909
 20
840.423599786896
 30
0.0
 10
578.7839335861355
 20
841.9241112477595
 30
0.0
 10
580.2764490447164
 20
843.6319315964371
 30
0.0
 10
581.4128899910297
 20
845.2975083308818
 30
0.0
 10
581.9175757894944
 20
846.4368449512768
 30
0.0
 10
582.122001142171
 20
846.8983385997013
 30
0.0
  0
SPLINE
  5
79
330
1F
100
AcDbEntity
  8
0
  6
Continuous
 62
     7
370
    25
100
AcDbSpline
210
0.0
220
0.0
230
1.0
 70
     8
 71
     3
 72
    25
 73
    21
 74
     0
 42
0.000000001
 43
0.00000001
 40
0.0
 40
0.0
 40
0.0
 40
0.0
 40
0.043181569153803
 40
0.1006379347781212
 40
0.1582558984343764
 40
0.2160462074355631
 40
0.2740016162367617
 40
0.3321033042913706
 40
0.3903278506892499
 40
0.4486509249998057
 40
0.507049280770323
 40
0.5655015178986738
 40
0.6239810092750454
 40
0.6824623140301628
 40
0.7409169108073748
 40
0.7993102922048995
 40
0.8576029538657768
 40
0.9157560705586507
 40
0.973734453292073
 40
1.0
 40
1.0
 40
1.0
 40
1.0
 10
550.0072490395278
 20
880.8778886037068
 30
0.0
 10
550.2599409604084
 20
880.3857095395978
 30
0.0
 10
550.848858722103
 20
879.238648755944
 30
0.0
 10
552.0964566679112
 20
877.6055069508375
 30
0.0
 10
553.6690260030418
 20
875.9900458595438
 30
0.0
 10
555.4721394541831
 20
874.587202623902
 30
0.0
 10
557.4623924029918
 20
873.4170294646979
 30
0.0
 10
559.6078162503176
 20
872.5026989353747
 30
0.0
 10
561.8692186618557
 20
871.8610531315722
 30
0.0
 10
564.206145777273
 20
871.5045071288058
 30
0.0
 10
566.5763270993162
 20
871.4404498602349
 30
0.0
 10
568.9366698170869
 20
871.6708889609571
 30
0.0
 10
571.2440620660853
 20
872.1925009798147
 30
0.0
 10
573.4559413911998
 20
872.9966900072247
 30
0.0
 10
575.5317444516489
 20
874.0693680476302
 30
0.0
 10
577.4311721733122
 20
875.3919374114921
 30
0.0
 10
579.1243576876867
 20
876.937875982665
 30
0.0
 10
580.5580549607548
 20
878.6866914297351
 30
0.0
 10
581.5628970312417
 20
880.232087926383
 30
0.0
 10
581.9734048372824
 20
881.2256460064286
 30
0.0
 10
582.1013928362399
 20
881.5354172425465
 30
0.0
  0
SPLINE
  5
7A
330
1F
100
AcDbEntity
  8
0
  6
Continuous
 62
     7
370
    25
100
AcDbSpline
210
0.0
220
0.0
230
1.0
 70
     8
 71
     3
 72
    25
 73
    21
 74
     0
 42
0.000000001
 43
0.00000001
 40
0.0
 40
0.0
 40
0.0
 40
0.0
 40
0.041467020978825
 40
0.0982168708577249
 40
0.1551220991342348
 40
0.2121964190921835
 40
0.2694362782986425
 40
0.3268256611380251
 40
0.3843416370309844
 40
0.4419599510724914
 40
0.4996574120068944
 40
0.5574125916916509
 40
0.6152008147658112
 40
0.672996218276186
 40
0.7307717094281667
 40
0.7884943721798992
 40
0.8461263253455877
 40
0.9036281606364649
 40
0.9609641222265921
 40
1.0
 40
1.0
 40
1.0
 40
1.0
 10
509.6268684574634
 20
846.6008518176274
 30
0.0
 10
509.8577492719013
 20
846.1161743023868
 30
0.0
 10
510.404602906426
 20
844.9681895231971
 30
0.0
 10
511.592799322847
 20
843.3159568687007
 30
0.0
 10
513.1139533342919
 20
841.659589515079
 30
0.0
 10
514.872384275307
 20
840.2099036013237
 30
0.0
 10
516.8248906889728
 20
838.987790666085
 30
0.0
 10
518.940394966537
 20
838.0171843494106
 30
0.0
 10
521.1802951426595
 20
837.3159614838779
 30
0.0
 10
523.50459213433
 20
836.8976726458922
 30
0.0
 10
525.8712556301448
 20
836.7706998028476
 30
0.0
 10
528.2373416449147
 20
836.938194939146
 30
0.0
 10
530.5596563575757
 20
837.3980907277818
 30
0.0
 10
532.7954791277936
 20
838.1428209768477
 30
0.0
 10
534.9037164394208
 20
839.1595091443395
 30
0.0
 10
536.8440612745056
 20
840.4304692361295
 30
0.0
 10
538.5839377554252
 20
841.9309816894267
 30
0.0
 10
540.0764462660102
 20
843.6388147834715
 30
0.0
 10
541.2128902316992
 20
845.3043928149444
 30
0.0
 10
541.7175768591921
 20
846.4437292320506
 30
0.0
 10
541.9220026088178
 20
846.9052229361729
 30
0.0
  0
LINE
  5
7B
330
1F
100
AcDbEntity
  8
0
  6
Continuous
 62
     7
370
    25
100
AcDbLine
 10
645.7052038023
 20
624.1921967181
 30
0.0
 11
645.7052038023
 21
1043.6922077375
 31
0.0
  0
LINE
  5
7C
330
1F
100
AcDbEntity
  8
0
  6
Continuous
 62
     7
370
    25
100
AcDbLine
 10
645.7052038023
 20
611.6921965318
 30
0.0
 11
645.7052038023
 21
619.2227567831
 31
0.0
  0
LINE
  5
7D
330
1F
100
AcDbEntity
  8
0
  6
Continuous
 62
     7
370
    25
100
AcDbLine
 10
445.705200822
 20
619.1964352789
 30
0.0
 11
445.705200822
 21
611.6921965318
 31
0.0
  0
LINE
  5
7E
330
1F
100
AcDbEntity
  8
0
  6
Continuous
 62
     7
370
    25
100
AcDbLine
 10
445.705200822
 20
1043.6922077375
 30
0.0
 11
445.705200822
 21
624.1601536336
 31
0.0
  0
LINE
  5
7F
330
1F
100
AcDbEntity
  8
0
  6
Continuous
 62
     7
370
    25
100
AcDbLine
 10
445.6528381416
 20
608.6921965057
 30
0.0
 11
445.7750202128
 21
601.6921967553
 31
0.0
  0
LINE
  5
80
330
1F
100
AcDbEntity
  8
0
  6
Continuous
 62
     7
370
    25
100
AcDbLine
 10
645.6353844115
 20
601.6921967553
 30
0.0
 11
645.7575664827
 21
608.6921965057
 31
0.0
  0
LINE
  5
81
330
1F
100
AcDbEntity
  8
0
  6
Continuous
 62
     7
370
    25
100
AcDbLine
 10
645.7575664827
 20
608.6921965057
 30
0.0
 11
645.7052038023
 21
611.6921965318
 31
0.0
  0
LINE
  5
82
330
1F
100
AcDbEntity
  8
0
  6
Continuous
 62
     7
370
    25
100
AcDbLine
 10
445.705200822
 20
611.6921965318
 30
0.0
 11
445.6528381416
 21
608.6921965057
 31
0.0
  0
LINE
  5
83
330
1F
100
AcDbEntity
  8
0
  6
Continuous
 62
     7
370
    25
100
AcDbLine
 10
445.705200822
 20
1050.1921836572
 30
0.0
 11
445.705200822
 21
1044.6921948629
 31
0.0
  0
LINE
  5
84
330
1F
100
AcDbEntity
  8
0
  6
Continuous
 62
     7
370
    25
100
AcDbLine
 10
645.7052038023
 20
1044.6921948629
 30
0.0
 11
645.7052038023
 21
1050.1921836572
 31
0.0
  0
ARC
  5
85
330
1F
100
AcDbEntity
  8
0
  6
Continuous
 62
     7
370
    25
100
AcDbCircle
 10
644.7052023121
 20
1044.6921965318
 30
0.0
 40
1.0
100
AcDbArc
 50
270.0
 51
0.0
  0
ARC
  5
86
330
1F
100
AcDbEntity
  8
0
  6
Continuous
 62
     7
370
    25
100
AcDbCircle
 10
446.7052023121
 20
1044.6921965318
 30
0.0
 40
1.0
100
AcDbArc
 50
180.0
 51
270.0
  0
ARC
  5
87
330
1F
100
AcDbEntity
  8
0
  6
Continuous
 62
     7
370
    25
100
AcDbCircle
 10
447.7052023121
 20
1050.1921965318
 30
0.0
 40
2.0
100
AcDbArc
 50
90.0
 51
180.0
  0
ARC
  5
88
330
1F
100
AcDbEntity
  8
0
  6
Continuous
 62
     7
370
    25
100
AcDbCircle
 10
643.7052023121
 20
1050.1921965318
 30
0.0
 40
2.0
100
AcDbArc
 50
0.0
 51
90.0
  0
LWPOLYLINE
  5
8A
330
1F
100
AcDbEntity
  8
0
  6
Continuous
 62
     7
370
    25
100
AcDbPolyline
 90
       29
 70
   128
 43
0.0
 10
509.7694688448
 20
880.8977071481
 10
508.9123875805
 20
882.9881612497
 10
508.3820738801
 20
885.1994935708
 10
508.2043887087
 20
887.4566916661
 10
508.3829530486
 20
889.7138003545
 10
508.9141310164
 20
891.9248942571
 10
509.7871118197
 20
894.0449718671
 10
510.9841220984
 20
896.0308198171
 10
512.4807947287
 20
897.8420559602
 10
514.2466642865
 20
899.4417850213
 10
516.2457761326
 20
900.7974628644
 10
518.437438921
 20
901.8814925389
 10
520.7770367124
 20
902.671790524
 10
523.2169398078
 20
903.1522635656
 10
525.7074807742
 20
903.3131663041
 10
528.1979602733
 20
903.1511608796
 10
530.6376752415
 20
902.6696149545
 10
532.9769647652
 20
901.8782738881
 10
535.1682038018
 20
900.7932905393
 10
537.1667885193
 20
899.4367186265
 10
538.9320308314
 20
897.836214705
 10
540.4279965879
 20
896.0242931085
 10
541.6242320062
 20
894.0379087167
 10
542.4963855622
 20
891.9174734788
 10
543.0267022894
 20
889.7061411576
 10
543.2043867623
 20
887.4489430623
 10
543.0258217239
 20
885.1918045716
 10
542.4946421263
 20
882.9807106691
 10
541.9402840053
 20
881.5333012777
  0
LWPOLYLINE
  5
8B
330
1F
100
AcDbEntity
  8
0
  6
Continuous
 62
     7
370
    25
100
AcDbPolyline
 90
       41
 70
   128
 43
0.0
 10
527.7710177907
 20
873.3504776197
 10
529.9973350921
 20
873.8040093618
 10
532.117937968
 20
874.567604466
 10
534.0806090244
 20
875.6224576669
 10
535.8370200702
 20
876.9426111417
 10
537.343923279
 20
878.4955207544
 10
538.5642142938
 20
880.2429799276
 10
539.4678439916
 20
882.1419541078
 10
540.0325630763
 20
884.1456834512
 10
540.244466436
 20
886.2048451143
 10
540.0983354048
 20
888.2686857419
 10
539.5977686131
 20
890.2864519792
 10
538.7550921151
 20
892.2084335523
 10
537.5910553121
 20
893.987274571
 10
536.1343196565
 20
895.5791954236
 10
534.4207559684
 20
896.9450358587
 10
532.4925578171
 20
898.0510894494
 10
530.3972021648
 20
898.8702062803
 10
528.1862870761
 20
899.3821505742
 10
525.9142492869
 20
899.574315949
 10
523.6370333442
 20
899.4420234399
 10
521.4107160428
 20
898.9884916978
 10
519.2901131668
 20
898.2248965936
 10
517.3274439731
 20
897.1700433927
 10
515.5710310647
 20
895.8499197202
 10
514.0641287872
 20
894.2969803052
 10
512.8438391694
 20
892.549521132
 10
511.9402066776
 20
890.6505469518
 10
511.3754899212
 20
888.6468176084
 10
511.1635842332
 20
886.5876559453
 10
511.3097161957
 20
884.5238153177
 10
511.8102834531
 20
882.5060490804
 10
512.6529590198
 20
880.5840973096
 10
513.8169967541
 20
878.8052264886
 10
515.2737324097
 20
877.2133056359
 10
516.9872951665
 20
875.8474652009
 10
518.9154942491
 20
874.7414116101
 10
521.0108489701
 20
873.9223245816
 10
523.2217659214
 20
873.4103802877
 10
525.4938037106
 20
873.2181851106
 10
527.7710177907
 20
873.3504776197
  0
LWPOLYLINE
  5
8C
330
1F
100
AcDbEntity
  8
0
  6
Continuous
 62
     7
370
    25
100
AcDbPolyline
 90
       41
 70
   128
 43
0.0
 10
527.7612649807
 20
873.4120194154
 10
525.4947946378
 20
873.2803527551
 10
523.2334782341
 20
873.4716538625
 10
521.0329939583
 20
873.981154366
 10
518.9475242951
 20
874.796396895
 10
517.0284242341
 20
875.8972648816
 10
515.3229453572
 20
877.2566382127
 10
513.8730847248
 20
878.8410488801
 10
512.7145380684
 20
880.6115154462
 10
511.8758373865
 20
882.524407311
 10
511.3776319632
 20
884.5326368051
 10
511.2321929046
 20
886.5867618756
 10
511.4430964896
 20
888.6362079816
 10
512.0051496634
 20
890.6304601865
 10
512.9045166978
 20
892.52049367
 10
514.1190507421
 20
894.2596975999
 10
515.618843303
 20
895.8053056436
 10
517.3669674405
 20
897.1192006307
 10
519.3203774252
 20
898.1690768438
 10
521.4309741714
 20
898.929065867
 10
523.6467861542
 20
899.3804816442
 10
525.9132564971
 20
899.5121483045
 10
528.1745747634
 20
899.3208769994
 10
530.3750590393
 20
898.8113466935
 10
532.4605268398
 20
897.9961041646
 10
534.3796278321
 20
896.8952659803
 10
536.0851057776
 20
895.5358628469
 10
537.5349682727
 20
893.9514521795
 10
538.6935130664
 20
892.1809856134
 10
539.5322132827
 20
890.2680937486
 10
540.0304182404
 20
888.2598642545
 10
540.1758596272
 20
886.2057391839
 10
539.9649565079
 20
884.1563228803
 10
539.4029019372
 20
882.1620408731
 10
538.5035353684
 20
880.2720073896
 10
537.2890022555
 20
878.5328034597
 10
535.7892096945
 20
876.987195416
 10
534.041085557
 20
875.6733004289
 10
532.087674641
 20
874.6234242158
 10
529.9770788261
 20
873.8634351926
 10
527.7612649807
 20
873.4120194154
  0
LWPOLYLINE
  5
8D
330
1F
100
AcDbEntity
  8
0
  6
Continuous
 62
     7
370
    25
100
AcDbPolyline
 90
       34
 70
   128
 43
0.0
 10
527.0902209887
 20
878.6214355664
 10
525.2387125948
 20
878.5419229703
 10
523.4040331998
 20
878.7813846307
 10
521.6524948337
 20
879.3312374788
 10
520.0473994919
 20
880.1715437608
 10
518.6467611202
 20
881.2719647126
 10
517.5012045511
 20
882.5927440362
 10
516.6521307984
 20
884.0861086087
 10
516.1302269408
 20
885.6980864244
 10
515.9543578484
 20
887.3704437452
 10
516.1308807292
 20
889.042711659
 10
516.6534122982
 20
890.6544808583
 10
517.5030690589
 20
892.1474580007
 10
518.6491415807
 20
893.4677008825
 10
520.0502083608
 20
894.5675257878
 10
521.6556296655
 20
895.4071168142
 10
523.4073840984
 20
895.9561948018
 10
525.2421566257
 20
896.1948517995
 10
527.0936352172
 20
896.1145047384
 10
528.8949006208
 20
895.7180742459
 10
530.5808515259
 20
895.0198356347
 10
532.0905533591
 20
894.0450314717
 10
533.3694417932
 20
892.8289477067
 10
534.3712934264
 20
891.4154831605
 10
535.0599002996
 20
889.855748816
 10
535.4103728169
 20
888.2061008649
 10
535.4100449913
 20
886.5261737542
 10
535.0589289301
 20
884.8766748147
 10
534.3697139033
 20
883.3172682958
 10
533.3673099959
 20
881.9042507844
 10
532.0879475185
 20
880.6887034612
 10
530.5778657058
 20
879.7145847516
 10
528.8916409918
 20
879.0170911985
 10
527.0902209887
 20
878.6214355664
  0
LWPOLYLINE
  5
8E
330
1F
100
AcDbEntity
  8
0
  6
Continuous
 62
     7
370
    25
100
AcDbPolyline
 90
       29
 70
   128
 43
0.0
 10
549.7917070025
 20
846.5979460912
 10
549.0561116458
 20
848.5016737418
 10
548.5555965425
 20
850.7186983066
 10
548.4083050833
 20
852.9776994424
 10
548.6172356614
 20
855.2326772647
 10
549.178135625
 20
857.437736197
 10
550.0795862609
 20
859.5479790406
 10
551.3032365562
 20
861.520460649
 10
552.8241766588
 20
863.3150223928
 10
554.6114447498
 20
864.8951117234
 10
556.6286568501
 20
866.2285868364
 10
558.8347486192
 20
867.2882978158
 10
561.1848098197
 20
868.0526677804
 10
563.6310012051
 20
868.5061399179
 10
566.1235240259
 20
868.6394755082
 10
568.6116398284
 20
868.4499625402
 10
571.0446939775
 20
867.9414753156
 10
573.3731606015
 20
867.1243552404
 10
575.5496353814
 20
866.0152022081
 10
577.5298134395
 20
864.6366659837
 10
579.2733871349
 20
863.016730948
 10
580.7448544511
 20
861.1884329753
 10
581.9142677793
 20
859.188965364
 10
582.7578187892
 20
857.0590380864
 10
583.2583338925
 20
854.8420135217
 10
583.4056244203
 20
852.5830123859
 10
583.1966952392
 20
850.3280345636
 10
582.6357931801
 20
848.1229756313
 10
582.1569406399
 20
846.8926910596
  0
LWPOLYLINE
  5
8F
330
1F
100
AcDbEntity
  8
0
  6
Continuous
 62
     7
370
    25
100
AcDbPolyline
 90
       41
 70
   128
 43
0.0
 10
561.6373077938
 20
839.1253713803
 10
563.8644874999
 20
838.6750582891
 10
566.1419511744
 20
838.5460440355
 10
568.4136201599
 20
838.741517468
 10
570.6235573598
 20
839.2566506105
 10
572.7173474589
 20
840.0787774759
 10
574.6434343019
 20
841.1876324849
 10
576.3543912181
 20
842.5559167104
 10
577.8080888995
 20
844.1499535279
 10
578.9687328943
 20
845.9304783778
 10
579.8077427753
 20
847.853666945
 10
580.3044618079
 20
849.8721335368
 10
580.4466598639
 20
851.9362125831
 10
580.2308314451
 20
853.9950464206
 10
579.6622925409
 20
855.9979562001
 10
578.7550427922
 20
857.8956339793
 10
577.5314227649
 20
859.6413348155
 10
576.0215588817
 20
861.1920688586
 10
574.2626332649
 20
862.5096742349
 10
572.2979542771
 20
863.5616962152
 10
570.1758985379
 20
864.3222216802
 10
567.9487188318
 20
864.7725347715
 10
565.6712551573
 20
864.9015490251
 10
563.3995880344
 20
864.7060755925
 10
561.1896499031
 20
864.1909424501
 10
559.0958598041
 20
863.3688155847
 10
557.1697729611
 20
862.2599605756
 10
555.4588151136
 20
860.8916763501
 10
554.0051174321
 20
859.2976395326
 10
552.8444734373
 20
857.5171146827
 10
552.005462625
 20
855.5939410167
 10
551.5087435925
 20
853.5754595237
 10
551.3665483305
 20
851.5113953786
 10
551.5823767492
 20
849.4525466399
 10
552.1509156534
 20
847.4496368604
 10
553.0581649364
 20
845.5519739824
 10
554.2817854294
 20
843.8062731462
 10
555.7916483813
 20
842.2555242019
 10
557.5505739981
 20
840.9379188256
 10
559.5152529859
 20
839.8859117465
 10
561.6373077938
 20
839.1253713803
  0
LWPOLYLINE
  5
90
330
1F
100
AcDbEntity
  8
0
  6
Continuous
 62
     7
370
    25
100
AcDbPolyline
 90
       41
 70
   128
 43
0.0
 10
561.6574523011
 20
839.1848270135
 10
559.5454101422
 20
839.9417612987
 10
557.5900006079
 20
840.9888211923
 10
555.8393740067
 20
842.3001978831
 10
554.3366356724
 20
843.8436303573
 10
553.1187884481
 20
845.5810908513
 10
552.2158195236
 20
847.4697981315
 10
551.6499632941
 20
849.463275476
 10
551.4351528109
 20
851.5123937564
 10
551.5766775207
 20
853.5667274432
 10
552.07105288
 20
855.5756721931
 10
552.9061051057
 20
857.4897859531
 10
554.0612724581
 20
859.261906548
 10
555.5081118801
 20
860.8484182792
 10
557.2109960922
 20
862.2102503019
 10
559.1279950896
 20
863.3138899045
 10
561.2119057187
 20
864.1321126657
 10
563.4114158311
 20
864.64483182
 10
565.6723652938
 20
864.8393813806
 10
567.9390833684
 20
864.7109631734
 10
570.1557540306
 20
864.262766047
 10
572.2677980521
 20
863.505846663
 10
574.2232066551
 20
862.4587718682
 10
575.9738341877
 20
861.1473951774
 10
577.4765715906
 20
859.6039776044
 10
578.6944174179
 20
857.8665171104
 10
579.5973868081
 20
855.977794929
 10
580.1632435032
 20
853.9843324857
 10
580.3780549177
 20
851.9352142053
 10
580.2365311393
 20
849.8808805185
 10
579.7421553144
 20
847.8719208675
 10
578.9071016916
 20
845.9578220086
 10
577.7519338736
 20
844.1856865125
 10
576.3050944516
 20
842.5991747813
 10
574.6022102394
 20
841.2373427587
 10
572.6852112421
 20
840.1337180572
 10
570.601300613
 20
839.3154803949
 10
568.4017905005
 20
838.8027761417
 10
566.1408410379
 20
838.6082265811
 10
563.8741229632
 20
838.7366298871
 10
561.6574523011
 20
839.1848270135
  0
LWPOLYLINE
  5
91
330
1F
100
AcDbEntity
  8
0
  6
Continuous
 62
     7
370
    25
100
AcDbPolyline
 90
       34
 70
   128
 43
0.0
 10
563.0444859126
 20
844.2489270406
 10
561.3323275903
 20
844.892642303
 10
559.7855060333
 20
845.8183918433
 10
558.4599294671
 20
846.9927076535
 10
557.403507919
 20
848.3731512265
 10
556.6544209578
 20
849.9098185735
 10
556.2397449249
 20
851.5471879678
 10
556.1744657316
 20
853.2260719972
 10
556.4609442809
 20
854.8857931333
 10
557.0888251969
 20
856.4663593011
 10
558.0354149425
 20
857.9106543498
 10
559.2665023142
 20
859.1664646106
 10
560.7375924447
 20
860.1884160476
 10
562.3955161282
 20
860.9395686822
 10
564.180351139
 20
861.3927576976
 10
566.0275903502
 20
861.5316365199
 10
567.8704691091
 20
861.3511536555
 10
569.6423792252
 20
860.8578358131
 10
571.2792810955
 20
860.0695345836
 10
572.722013385
 20
859.0147260862
 10
573.9184294799
 20
857.7315423923
 10
574.8252899357
 20
856.2663410144
 10
575.4098177859
 20
854.6721104818
 10
575.650886909
 20
853.0064288812
 10
575.5397857138
 20
851.3295416074
 10
575.0805263379
 20
849.7020218806
 10
574.2897086748
 20
848.1827143865
 10
573.1959187397
 20
846.8265299039
 10
571.8386837253
 20
845.6824634509
 10
570.2670601168
 20
844.791880651
 10
568.5378511408
 20
844.1869680124
 10
566.7135522672
 20
843.8896004396
 10
564.8601029971
 20
843.9104918676
 10
563.0444859126
 20
844.2489270406
  0
LWPOLYLINE
  5
92
330
1F
100
AcDbEntity
  8
0
  6
Continuous
 62
     7
370
    25
100
AcDbPolyline
 90
       29
 70
   128
 43
0.0
 10
549.9694666797
 20
880.8908526139
 10
549.1123882094
 20
882.9812769132
 10
548.5820714821
 20
885.1926092344
 10
548.4043870093
 20
887.4498073297
 10
548.5829520476
 20
889.7069458204
 10
549.1141316452
 20
891.9180397229
 10
549.9871124485
 20
894.0380875306
 10
551.1841227272
 20
896.0239354806
 10
552.6807953575
 20
897.8351716237
 10
554.4466621214
 20
899.4349304872
 10
556.4457758301
 20
900.7906083303
 10
558.6374386185
 20
901.8746380048
 10
560.9770354786
 20
902.6649061876
 10
563.4169404366
 20
903.1454090314
 10
565.907481403
 20
903.3062819677
 10
568.3979590395
 20
903.1443063455
 10
570.8376758703
 20
902.662730618
 10
573.1769644627
 20
901.871419354
 10
575.3682044306
 20
900.7864062028
 10
577.3667872855
 20
899.4298640924
 10
579.1320309946
 20
897.8293303685
 10
580.6279958197
 20
896.0174385743
 10
581.824231238
 20
894.0310541825
 10
582.6963850268
 20
891.9105891423
 10
583.2267024526
 20
889.6992568212
 10
583.4043876239
 20
887.4420587259
 10
583.2258195588
 20
885.1849500375
 10
582.694641591
 20
882.9738561349
 10
582.140284867
 20
881.5264467435
  0
LWPOLYLINE
  5
93
330
1F
100
AcDbEntity
  8
0
  6
Continuous
 62
     7
370
    25
100
AcDbPolyline
 90
       41
 70
   128
 43
0.0
 10
567.9710165569
 20
873.3435932832
 10
570.1973357209
 20
873.7971250253
 10
572.3179367342
 20
874.5607201295
 10
574.2806077906
 20
875.6155733304
 10
576.0370188364
 20
876.9357268052
 10
577.5439211139
 20
878.4886364179
 10
578.7642144569
 20
880.2360955911
 10
579.6678432235
 20
882.1350697713
 10
580.2325637051
 20
884.138828917
 10
580.4444656679
 20
886.1979607778
 10
580.2983337053
 20
888.2618312078
 10
579.7977664479
 20
890.2795676427
 10
578.9550908813
 20
892.2015492158
 10
577.791053147
 20
893.9803902345
 10
576.334319354
 20
895.5723408895
 10
574.6207547345
 20
896.9381515222
 10
572.6925575146
 20
898.0442349153
 10
570.5972027936
 20
898.8633219438
 10
568.3862858423
 20
899.3752662378
 10
566.1142480531
 20
899.5674614148
 10
563.837033973
 20
899.4351391034
 10
561.610714809
 20
898.9816073613
 10
559.4901128643
 20
898.2180122571
 10
557.5274427393
 20
897.1631590562
 10
555.7710307622
 20
895.8430353837
 10
554.2641275534
 20
894.2901257711
 10
553.0438370043
 20
892.5426367955
 10
552.1402068408
 20
890.6436626153
 10
551.5754877561
 20
888.6399332719
 10
551.363584862
 20
886.5808014112
 10
551.5097158932
 20
884.5169309812
 10
552.0102822193
 20
882.4991647439
 10
552.852959183
 20
880.5772129731
 10
554.0169964516
 20
878.7983719545
 10
555.4737311759
 20
877.2064212995
 10
557.187294864
 20
875.8406106668
 10
559.1154939466
 20
874.7345272737
 10
561.2108486676
 20
873.9154402452
 10
563.4217646876
 20
873.4034959512
 10
565.6938024768
 20
873.2113007741
 10
567.9710165569
 20
873.3435932832
  0
LWPOLYLINE
  5
94
330
1F
100
AcDbEntity
  8
0
  6
Continuous
 62
     7
370
    25
100
AcDbPolyline
 90
       41
 70
   128
 43
0.0
 10
567.9612637469
 20
873.4051648812
 10
565.6947952667
 20
873.2734982209
 10
563.4334770003
 20
873.464769526
 10
561.2329927244
 20
873.9742998319
 10
559.1475239926
 20
874.7895125585
 10
557.2284239316
 20
875.8903805452
 10
555.5229450547
 20
877.2497538762
 10
554.073083491
 20
878.8341645436
 10
552.9145382316
 20
880.6046311097
 10
552.0758375497
 20
882.5175229745
 10
551.5776330577
 20
884.5257524686
 10
551.4321916708
 20
886.5798775392
 10
551.6430947901
 20
888.6293236451
 10
552.2051493609
 20
890.6236056524
 10
553.1045159296
 20
892.5136093335
 10
554.3190485769
 20
894.2528430658
 10
555.8188420692
 20
895.7984213071
 10
557.5669662067
 20
897.1123460965
 10
559.5203761914
 20
898.1622223096
 10
561.6309729376
 20
898.9222113328
 10
563.846786783
 20
899.3735973077
 10
566.1132552632
 20
899.505263968
 10
568.3745735296
 20
899.3139926629
 10
570.5750578054
 20
898.8044623571
 10
572.6605256059
 20
897.9892198281
 10
574.5796275296
 20
896.8883816438
 10
576.2851045438
 20
895.5290083127
 10
577.7349689015
 20
893.944567843
 10
578.8935118326
 20
892.1741310792
 10
579.7322125145
 20
890.2612392144
 10
580.2304179379
 20
888.252979918
 10
580.3758607217
 20
886.1988548475
 10
580.1649571368
 20
884.1494385438
 10
579.6029002377
 20
882.1551565366
 10
578.7035332033
 20
880.2651528554
 10
577.4890028843
 20
878.5259191232
 10
575.9892084607
 20
876.9803408818
 10
574.2410843232
 20
875.6664160924
 10
572.2876743385
 20
874.6165398793
 10
570.1770775923
 20
873.8565508561
 10
567.9612637469
 20
873.4051648812
  0
LWPOLYLINE
  5
95
330
1F
100
AcDbEntity
  8
0
  6
Continuous
 62
     7
370
    25
100
AcDbPolyline
 90
       34
 70
   128
 43
0.0
 10
567.2902216175
 20
878.61455123
 10
565.438711361
 20
878.5350386338
 10
563.604031966
 20
878.7745300966
 10
561.8524935999
 20
879.3243531423
 10
560.2473982581
 20
880.1646892266
 10
558.8467617491
 20
881.2651101785
 10
557.7012042486
 20
882.5858596997
 10
556.8521295646
 20
884.0792242723
 10
556.3302266383
 20
885.6912020879
 10
556.1543575459
 20
887.3635594087
 10
556.3308794954
 20
889.0358571248
 10
556.8534110644
 20
890.6475965219
 10
557.7030678251
 20
892.1405736642
 10
558.8491403469
 20
893.4608463483
 10
560.250207127
 20
894.5606414514
 10
561.8556302943
 20
895.40026228
 10
563.6073828646
 20
895.9493104654
 10
565.4421553918
 20
896.1879972654
 10
567.2936339834
 20
896.1076502042
 10
569.094899387
 20
895.7111899095
 10
570.7808502921
 20
895.0129512983
 10
572.2905521252
 20
894.0381769376
 10
573.5694405594
 20
892.8220633702
 10
574.5712921926
 20
891.408598824
 10
575.2598990658
 20
889.8488644796
 10
575.6103725144
 20
888.1992165284
 10
575.6100446888
 20
886.5192894178
 10
575.2589286276
 20
884.8698202806
 10
574.5697126695
 20
883.3103839593
 10
573.5673096934
 20
881.8973664479
 10
572.2879462847
 20
880.6818191247
 10
570.7778644719
 20
879.7077004152
 10
569.0916416207
 20
879.0102366643
 10
567.2902216175
 20
878.61455123
  0
LWPOLYLINE
  5
96
330
1F
100
AcDbEntity
  8
0
  6
Continuous
 62
     7
370
    25
100
AcDbPolyline
 90
       29
 70
   128
 43
0.0
 10
509.5917091676
 20
846.6048155265
 10
508.8561133453
 20
848.5085431771
 10
508.355598242
 20
850.7255677419
 10
508.2083039888
 20
852.9845688777
 10
508.4172368952
 20
855.2395467
 10
508.978135229
 20
857.4446056323
 10
509.879588426
 20
859.554848476
 10
511.1032382556
 20
861.5273300843
 10
512.624177427
 20
863.3218769269
 10
514.4114450523
 20
864.9019960599
 10
516.4286580839
 20
866.2354711728
 10
518.6347489217
 20
867.2951821523
 10
520.9848110535
 20
868.0595521169
 10
523.4310024389
 20
868.5130242543
 10
525.9235252598
 20
868.6463598447
 10
528.4116391995
 20
868.4568468766
 10
530.8446952113
 20
867.9483596521
 10
533.173160904
 20
867.1312097745
 10
535.3496366152
 20
866.0220865445
 10
537.3298156047
 20
864.6435205178
 10
539.0733865061
 20
863.0236152845
 10
540.5448561506
 20
861.1953024106
 10
541.7142685474
 20
859.1958497005
 10
542.557818626
 20
857.0659224229
 10
543.0583339622
 20
854.848882957
 10
543.2056254213
 20
852.5898967223
 10
542.9966946104
 20
850.3349189
 10
542.4357946468
 20
848.1298599677
 10
541.9569430378
 20
846.8995604949
  0
LWPOLYLINE
  5
97
330
1F
100
AcDbEntity
  8
0
  6
Continuous
 62
     7
370
    25
100
AcDbPolyline
 90
       41
 70
   128
 43
0.0
 10
521.4373090276
 20
839.1322557168
 10
523.6644887337
 20
838.6819426255
 10
525.9419524082
 20
838.5529283719
 10
528.2136213937
 20
838.7483869033
 10
530.4235576623
 20
839.2635200458
 10
532.5173477614
 20
840.0856469112
 10
534.4434346044
 20
841.1945019202
 10
536.1543924519
 20
842.5627861457
 10
537.6080901333
 20
844.1568229633
 10
538.7687341281
 20
845.9373627143
 10
539.6077454061
 20
847.8605363803
 10
540.104463973
 20
849.8790178733
 10
540.2466597007
 20
851.9430820184
 10
540.0308308163
 20
854.0019158559
 10
539.4622919121
 20
856.0048405366
 10
538.5550426291
 20
857.9025034147
 10
537.3314221361
 20
859.6482042508
 10
535.8215601155
 20
861.1989531951
 10
534.0626335674
 20
862.5165585714
 10
532.0979545796
 20
863.5685805516
 10
529.9758997717
 20
864.3291060167
 10
527.7487200656
 20
864.7794191079
 10
525.4712563911
 20
864.9084333615
 10
523.1995874056
 20
864.712959929
 10
520.9896502056
 20
864.1978267865
 10
518.8958601066
 20
863.3756999212
 10
516.9697732636
 20
862.2668449121
 10
515.2588163474
 20
860.8985606866
 10
513.8051168033
 20
859.3045238691
 10
512.6444728085
 20
857.523984118
 10
511.8054629275
 20
855.600810452
 10
511.308743895
 20
853.582328959
 10
511.1665495643
 20
851.5182648139
 10
511.382377983
 20
849.4594309764
 10
511.9509168872
 20
847.4565062957
 10
512.8581666359
 20
845.5588434177
 10
514.0817866632
 20
843.8131425815
 10
515.5916486838
 20
842.2624085384
 10
517.3505743006
 20
840.9448031621
 10
519.3152532884
 20
839.8927811818
 10
521.4373090276
 20
839.1322557168
  0
LWPOLYLINE
  5
98
330
1F
100
AcDbEntity
  8
0
  6
Continuous
 62
     7
370
    25
100
AcDbPolyline
 90
       41
 70
   128
 43
0.0
 10
521.4574535349
 20
839.1916964488
 10
519.3454095134
 20
839.948630734
 10
517.3900009104
 20
840.9956906276
 10
515.6393752405
 20
842.3070822196
 10
514.1366378376
 20
843.8504997926
 10
512.9187882849
 20
845.5879602866
 10
512.0158188948
 20
847.476682468
 10
511.4499659249
 20
849.4701449113
 10
511.2351545104
 20
851.5192631917
 10
511.3766782888
 20
853.5735968785
 10
511.8710541138
 20
855.5825416284
 10
512.7061040112
 20
857.4966553884
 10
513.8612718293
 20
859.2687759834
 10
515.3081131139
 20
860.8553026157
 10
517.010997326
 20
862.2171346383
 10
518.9279963234
 20
863.3207444387
 10
521.0119069525
 20
864.1389970021
 10
523.2114170649
 20
864.6516863542
 10
525.4723665276
 20
864.8462359147
 10
527.7390846023
 20
864.7178475099
 10
529.9557552644
 20
864.2696503835
 10
532.0677983546
 20
863.5127011972
 10
534.0232069575
 20
862.4656562047
 10
535.7738344901
 20
861.1542646127
 10
537.2765718931
 20
859.6108470397
 10
538.494419583
 20
857.8733865457
 10
539.3973880419
 20
855.9846643644
 10
539.9632442714
 20
853.991201921
 10
540.1780547546
 20
851.9420836406
 10
540.0365300448
 20
849.8877499538
 10
539.5421551512
 20
847.8788052039
 10
538.7071029254
 20
845.9646914439
 10
537.5519351074
 20
844.192570849
 10
536.1050956854
 20
842.6060442167
 10
534.4022114733
 20
841.244212194
 10
532.4852124759
 20
840.1405874925
 10
530.4013018468
 20
839.3223498302
 10
528.2017917344
 20
838.809645577
 10
525.9408422717
 20
838.6150960164
 10
523.674124197
 20
838.7434993224
 10
521.4574535349
 20
839.1916964488
  0
LWPOLYLINE
  5
99
330
1F
100
AcDbEntity
  8
0
  6
Continuous
 62
     7
370
    25
100
AcDbPolyline
 90
       34
 70
   128
 43
0.0
 10
522.8444871464
 20
844.2557964759
 10
521.1323288241
 20
844.8995117383
 10
519.5855063358
 20
845.8252612786
 10
518.2599307009
 20
846.9995770889
 10
517.2035072902
 20
848.3800206619
 10
516.4544221916
 20
849.91670291
 10
516.0397452274
 20
851.5540723043
 10
515.9744669655
 20
853.2329563337
 10
516.2609455147
 20
854.8926774697
 10
516.8888264307
 20
856.4732436376
 10
517.835415245
 20
857.9175237851
 10
519.0665026167
 20
859.1733489471
 10
520.5375936785
 20
860.1952854829
 10
522.195517362
 20
860.9464381175
 10
523.9803523728
 20
861.3996420341
 10
525.827591584
 20
861.5385059552
 10
527.6704684803
 20
861.3580230909
 10
529.442380459
 20
860.8647201495
 10
531.0792823293
 20
860.0764040189
 10
532.5220136875
 20
859.0215955215
 10
533.7184307137
 20
857.7384118276
 10
534.6252911696
 20
856.2732253509
 10
535.2098190197
 20
854.6789799171
 10
535.4508881429
 20
853.0133132177
 10
535.3397860163
 20
851.3364110427
 10
534.8805266404
 20
849.7089062171
 10
534.0897099086
 20
848.189598723
 10
532.9959190422
 20
846.8333993392
 10
531.6386840278
 20
845.6893328862
 10
530.0670613506
 20
844.7987500863
 10
528.3378505119
 20
844.1938523488
 10
526.513553501
 20
843.8964698749
 10
524.6601023683
 20
843.917376204
 10
522.8444871464
 20
844.2557964759
  0
LINE
  5
9E
330
1F
100
AcDbEntity
  8
0
  6
Continuous
 62
     7
370
    25
100
AcDbLine
 10
445.705200822
 20
1043.6922077375
 30
0.0
 11
645.7052038023
 21
1043.6922077375
 31
0.0
  0
LINE
  5
9F
330
1F
100
AcDbEntity
  8
0
  6
Continuous
 62
     7
370
    25
100
AcDbLine
 10
445.705200822
 20
611.6921965318
 30
0.0
 11
645.7052038023
 21
611.6921965318
 31
0.0
  0
SPLINE
  5
A0
330
1F
100
AcDbEntity
  8
0
  6
Continuous
 62
     7
370
    25
100
AcDbSpline
210
0.0
220
0.0
230
1.0
 70
    11
 71
     3
 72
    66
 73
    62
 74
     0
 42
0.000000001
 43
0.00000001
 40
0.0
 40
0.0
 40
0.0
 40
0.0
 40
0.0312499999999999
 40
0.0312499999999999
 40
0.0624999999999999
 40
0.0624999999999999
 40
0.0937499999999998
 40
0.0937499999999998
 40
0.1249999999999998
 40
0.1249999999999998
 40
0.1562499999999997
 40
0.1562499999999997
 40
0.1874999999999996
 40
0.1874999999999996
 40
0.2187499999999995
 40
0.2187499999999995
 40
0.2499999999999994
 40
0.2499999999999994
 40
0.2812499999999993
 40
0.2812499999999993
 40
0.3124999999999992
 40
0.3124999999999992
 40
0.3437499999999991
 40
0.3437499999999991
 40
0.3749999999999989
 40
0.3749999999999989
 40
0.4062499999999988
 40
0.4062499999999988
 40
0.4374999999999987
 40
0.4374999999999987
 40
0.4687499999999986
 40
0.4687499999999986
 40
0.4999999999999984
 40
0.4999999999999984
 40
0.5312499999999982
 40
0.5312499999999982
 40
0.5624999999999981
 40
0.5624999999999981
 40
0.6249999999999982
 40
0.6249999999999982
 40
0.6562499999999983
 40
0.6562499999999983
 40
0.6874999999999986
 40
0.6874999999999986
 40
0.7187499999999987
 40
0.7187499999999987
 40
0.7499999999999988
 40
0.7499999999999988
 40
0.781249999999999
 40
0.781249999999999
 40
0.8124999999999991
 40
0.8124999999999991
 40
0.8437499999999993
 40
0.8437499999999993
 40
0.8749999999999994
 40
0.8749999999999994
 40
0.9062499999999997
 40
0.9062499999999997
 40
0.9374999999999998
 40
0.9374999999999998
 40
1.0
 40
1.0
 40
1.0
 40
1.0
 10
543.2052023121387
 20
621.6921965317921
 30
0.0
 10
543.2052023121387
 20
621.5270274780705
 30
0.0
 10
543.2214099027111
 20
621.3646197986791
 30
0.0
 10
543.2849133759087
 20
621.0451009326958
 30
0.0
 10
543.3329800279013
 20
620.8863348942697
 30
0.0
 10
543.4584658492585
 20
620.5835817154436
 30
0.0
 10
543.5352550218115
 20
620.4399907345796
 30
0.0
 10
543.7166746513143
 20
620.1682384144192
 30
0.0
 10
543.8222670594809
 20
620.0395770238864
 30
0.0
 10
544.0529235866866
 20
619.8089622348896
 30
0.0
 10
544.17877955132
 20
619.705477225507
 30
0.0
 10
544.4520541822741
 20
619.5227173750985
 30
0.0
 10
544.5975623523897
 20
619.4450553971683
 30
0.0
 10
544.8983818303514
 20
619.3203722825023
 30
0.0
 10
545.0559079511378
 20
619.2723860337376
 30
0.0
 10
545.3786150409402
 20
619.2081661841487
 30
0.0
 10
545.5408262824966
 20
619.1922836176027
 30
0.0
 10
545.8669186015053
 20
619.1921101534034
 30
0.0
 10
546.0325259126479
 20
619.2083329867455
 30
0.0
 10
546.3531644629361
 20
619.2721006863769
 30
0.0
 10
546.5090068771553
 20
619.3192833517301
 30
0.0
 10
546.8116885542669
 20
619.444418309895
 30
0.0
 10
546.958108708443
 20
619.5226889717471
 30
0.0
 10
547.2290545790048
 20
619.7036262514753
 30
0.0
 10
547.3553370458928
 20
619.8069164519973
 30
0.0
 10
547.5888035408905
 20
620.0401456760802
 30
0.0
 10
547.6924751542572
 20
620.1666580574332
 30
0.0
 10
547.8735915805215
 20
620.4373622931242
 30
0.0
 10
547.9518638489972
 20
620.5834141655033
 30
0.0
 10
548.0774404320932
 20
620.8863598862949
 30
0.0
 10
548.124740254026
 20
621.0421926786935
 30
0.0
 10
548.1887383918001
 20
621.3624733110519
 30
0.0
 10
548.2051443406671
 20
621.5281582332649
 30
0.0
 10
548.2052599696847
 20
621.8544630358251
 30
0.0
 10
548.1894997293512
 20
622.0166157001598
 30
0.0
 10
548.1256942355833
 20
622.338880614256
 30
0.0
 10
548.0777272160595
 20
622.4969557814717
 30
0.0
 10
547.8910853173135
 20
622.9483664909803
 30
0.0
 10
547.7049632479901
 20
623.2275205950656
 30
0.0
 10
547.3595435070687
 20
623.5736112005224
 30
0.0
 10
547.2310962037793
 20
623.6792522034141
 30
0.0
 10
546.9592451788984
 20
623.8610946158433
 30
0.0
 10
546.8157244886667
 20
623.9379764235205
 30
0.0
 10
546.5134531189709
 20
624.0635922094273
 30
0.0
 10
546.3544673519415
 20
624.1119083759207
 30
0.0
 10
546.034888133759
 20
624.1757137472648
 30
0.0
 10
545.8726068984745
 20
624.1920275701949
 30
0.0
 10
545.5428828442991
 20
624.1923629075457
 30
0.0
 10
545.3797468221769
 20
624.1762651927345
 30
0.0
 10
545.0602503216481
 20
624.1130549163707
 30
0.0
 10
544.9017864236496
 20
624.0652633882521
 30
0.0
 10
544.5985097870065
 20
623.9398964783869
 30
0.0
 10
544.454832222672
 20
623.8631915629626
 30
0.0
 10
544.1831502959874
 20
623.6821720206184
 30
0.0
 10
544.0543381202481
 20
623.5766809072458
 30
0.0
 10
543.823355621734
 20
623.346066833602
 30
0.0
 10
543.719819684445
 20
623.2203311242683
 30
0.0
 10
543.5370693076911
 20
622.9476401928518
 30
0.0
 10
543.4590277906763
 20
622.8017975722726
 30
0.0
 10
543.2715948156335
 20
622.3506890166121
 30
0.0
 10
543.2052023121387
 20
622.0225346392353
 30
0.0
 10
543.2052023121387
 20
621.6921965317921
 30
0.0
  0
SPLINE
  5
A1
330
1F
100
AcDbEntity
  8
0
  6
Continuous
 62
     7
370
    25
100
AcDbSpline
210
0.0
220
0.0
230
1.0
 70
     8
 71
     3
 72
    12
 73
     8
 74
     0
 42
0.000000001
 43
0.00000001
 40
0.0
 40
0.0
 40
0.0
 40
0.0
 40
0.2147919640700486
 40
0.4295823094360385
 40
0.6444150424852121
 40
0.8592749800901367
 40
1.0
 40
1.0
 40
1.0
 40
1.0
 10
445.7364560076267
 20
621.6921963082747
 30
0.0
 10
445.735750317186
 20
621.9731116878501
 30
0.0
 10
445.7343389416231
 20
622.534940329981
 30
0.0
 10
445.7244048251916
 20
623.2854600856006
 30
0.0
 10
445.7136377091318
 20
623.8454420166764
 30
0.0
 10
445.705950209218
 20
624.1628392396285
 30
0.0
 10
445.705984473742
 20
624.1609151172751
 30
0.0
 10
445.7059980341464
 20
624.1601536335544
 30
0.0
  0
SPLINE
  5
A2
330
1F
100
AcDbEntity
  8
0
  6
Continuous
 62
     7
370
    25
100
AcDbSpline
210
0.0
220
0.0
230
1.0
 70
     8
 71
     3
 72
    13
 73
     9
 74
     0
 42
0.000000001
 43
0.00000001
 40
0.0
 40
0.0
 40
0.0
 40
0.0
 40
0.0066575605834371
 40
0.2212630493407511
 40
0.4358689754742548
 40
0.6505333131559751
 40
0.8652227924672651
 40
1.0
 40
1.0
 40
1.0
 40
1.0
 10
445.7053051301509
 20
619.1964352788524
 30
0.0
 10
445.7052718669994
 20
619.1950263528652
 30
0.0
 10
445.7041663710382
 20
619.1482009043639
 30
0.0
 10
445.7083681124705
 20
619.317305907036
 30
0.0
 10
445.7173421590207
 20
619.7133914278804
 30
0.0
 10
445.7284874579638
 20
620.3647599530667
 30
0.0
 10
445.7354541328297
 20
621.0599325646356
 30
0.0
 10
445.7361771607708
 20
621.5162214683616
 30
0.0
 10
445.7364560076267
 20
621.6921963082747
 30
0.0
  0
SPLINE
  5
A3
330
1F
100
AcDbEntity
  8
0
  6
Continuous
 62
     7
370
    25
100
AcDbSpline
210
0.0
220
0.0
230
1.0
 70
     8
 71
     3
 72
    17
 73
    13
 74
     0
 42
0.000000001
 43
0.00000001
 40
0.0
 40
0.0
 40
0.0
 40
0.0
 40
0.1073474029667915
 40
0.2146940044294663
 40
0.3220616744341565
 40
0.4294430768989859
 40
0.5368015492054559
 40
0.6441362732141236
 40
0.7514834750146963
 40
0.8588598803279438
 40
0.9662367013364516
 40
1.0
 40
1.0
 40
1.0
 40
1.0
 10
645.7052038022548
 20
624.1921967180566
 30
0.0
 10
645.7044914197149
 20
624.1645642498975
 30
0.0
 10
645.7030666599543
 20
624.1092995198956
 30
0.0
 10
645.6931882274457
 20
623.6785027479567
 30
0.0
 10
645.6822184248796
 20
623.0439944591149
 30
0.0
 10
645.6743322102491
 20
622.2517016106615
 30
0.0
 10
645.6731765395192
 20
621.3974464074435
 30
0.0
 10
645.6791557955173
 20
620.5775839236131
 30
0.0
 10
645.6898363658374
 20
619.8780661842871
 30
0.0
 10
645.6999241404561
 20
619.4029304042876
 30
0.0
 10
645.7055562083293
 20
619.177804258385
 30
0.0
 10
645.7046585736667
 20
619.2140791624474
 30
0.0
 10
645.7044438430339
 20
619.2227567831175
 30
0.0
  0
LINE
  5
A4
330
1F
100
AcDbEntity
  8
0
  6
Continuous
 62
     7
370
    25
100
AcDbLine
 10
616.452905626
 20
608.6921965057
 30
0.0
 11
445.6528381416
 21
608.6921965057
 31
0.0
  0
LINE
  5
A5
330
1F
100
AcDbEntity
  8
0
  6
Continuous
 62
     7
370
    25
100
AcDbLine
 10
645.7575664827
 20
608.6921965057
 30
0.0
 11
616.452905626
 21
608.6921965057
 31
0.0
  0
LINE
  5
A6
330
1F
100
AcDbEntity
  8
0
  6
Continuous
 62
     7
370
    25
100
AcDbLine
 10
616.3665086934
 20
601.6921967553
 30
0.0
 11
445.7750202128
 21
601.6921967553
 31
0.0
  0
LINE
  5
A7
330
1F
100
AcDbEntity
  8
0
  6
Continuous
 62
     7
370
    25
100
AcDbLine
 10
645.6353844115
 20
601.6921967553
 30
0.0
 11
616.3665086934
 21
601.6921967553
 31
0.0
  0
LINE
  5
A8
330
1F
100
AcDbEntity
  8
0
  6
Continuous
 62
     7
370
    25
100
AcDbLine
 10
544.350825061
 20
1052.1921877103
 30
0.0
 11
643.7051997491
 21
1052.1921877103
 31
0.0
  0
LINE
  5
A9
330
1F
100
AcDbEntity
  8
0
  6
Continuous
 62
     7
370
    25
100
AcDbLine
 10
447.7052048751
 20
1052.1921877103
 30
0.0
 11
544.350825061
 21
1052.1921877103
 31
0.0
  0
LINE
  5
AD
330
1F
100
AcDbEntity
  8
0
  6
Continuous
 62
     7
370
    25
100
AcDbLine
 10
462.1703580925
 20
828.0928347545
 30
0.0
 11
629.3578178593
 21
828.0642543273
 31
0.0
  0
SPLINE
  5
AE
330
1F
100
AcDbEntity
  8
0
  6
Continuous
 62
     7
370
    25
100
AcDbSpline
210
0.0
220
0.0
230
1.0
 70
     8
 71
     3
 72
    22
 73
    18
 74
     0
 42
0.000000001
 43
0.00000001
 40
0.0
 40
0.0
 40
0.0
 40
0.0
 40
0.0425232013726129
 40
0.0810714105288751
 40
0.1197599643305282
 40
0.1583596957030984
 40
0.2155163529818969
 40
0.2728997950134933
 40
0.3301896133317099
 40
0.3758547895642149
 40
0.4215261132425353
 40
0.5130454929239497
 40
0.6046038563137928
 40
0.6957993744195811
 40
0.7869839451496905
 40
0.8934868458272502
 40
1.0
 40
1.0
 40
1.0
 40
1.0
 10
543.2012009405762
 20
924.71290270855
 30
0.0
 10
541.2031541839135
 20
924.5294328046691
 30
0.0
 10
537.3938344799269
 20
924.1796434328182
 30
0.0
 10
531.9308997445135
 20
922.8091654634101
 30
0.0
 10
526.8388037189256
 20
921.0021451683239
 30
0.0
 10
521.1998096695581
 20
918.356751356661
 30
0.0
 10
515.1911445788687
 20
914.6968021250484
 30
0.0
 10
509.0048579545406
 20
909.9371129288547
 30
0.0
 10
503.7149088736624
 20
905.0311660075216
 30
0.0
 10
499.1741038913891
 20
900.1898926992868
 30
0.0
 10
493.953649261167
 20
893.9679715906877
 30
0.0
 10
488.0421986021227
 20
885.7766036975363
 30
0.0
 10
481.8128758497136
 20
875.4966827608763
 30
0.0
 10
476.3008557111158
 20
864.9033623040377
 30
0.0
 10
471.162066416739
 20
853.467311527192
 30
0.0
 10
466.3719252174154
 20
841.2069892741507
 30
0.0
 10
463.5709254093402
 20
832.4643598694172
 30
0.0
 10
462.1703580924541
 20
828.0928347544865
 30
0.0
  0
LINE
  5
AF
330
1F
100
AcDbEntity
  8
0
  6
Continuous
 62
     7
370
    25
100
AcDbLine
 10
543.2012009406
 20
924.7129027085
 30
0.0
 11
548.3182208118
 21
924.7129027085
 31
0.0
  0
SPLINE
  5
B0
330
1F
100
AcDbEntity
  8
0
  6
Continuous
 62
     7
370
    25
100
AcDbSpline
210
0.0
220
0.0
230
1.0
 70
     8
 71
     3
 72
    23
 73
    19
 74
     0
 42
0.000000001
 43
0.00000001
 40
0.0
 40
0.0
 40
0.0
 40
0.0
 40
0.0424123114119892
 40
0.1273096148446946
 40
0.2122024038524678
 40
0.2970452678913136
 40
0.3820348340515235
 40
0.4670090285870711
 40
0.5518861563236555
 40
0.607901982633666
 40
0.6639057653437056
 40
0.7227974869207783
 40
0.7817875564249921
 40
0.8405343284990113
 40
0.8789835692499052
 40
0.9175200826897855
 40
0.9559184779962508
 40
1.0
 40
1.0
 40
1.0
 40
1.0
 10
629.3578178593189
 20
828.0642543273167
 30
0.0
 10
628.8133194484267
 20
829.8085238841292
 30
0.0
 10
627.1788911264033
 20
835.0443216529901
 30
0.0
 10
624.164220714003
 20
843.695182939373
 30
0.0
 10
620.130917326225
 20
853.9487781776596
 30
0.0
 10
615.6132187690015
 20
864.040623045294
 30
0.0
 10
610.561361249093
 20
873.9274874360466
 30
0.0
 10
604.89212966289
 20
883.5389964545657
 30
0.0
 10
599.2453601446095
 20
891.7358603174629
 30
0.0
 10
593.7984214414536
 20
898.5570733631652
 30
0.0
 10
588.663043817246
 20
904.1945664685121
 30
0.0
 10
582.9701838337788
 20
909.5564617667203
 30
0.0
 10
576.6440046883599
 20
914.4875761236431
 30
0.0
 10
570.5311285600053
 20
918.2454465965345
 30
0.0
 10
564.8460470703776
 20
920.9327036671174
 30
0.0
 10
559.780403130705
 20
922.7505077348428
 30
0.0
 10
554.2660737991246
 20
924.1589323470547
 30
0.0
 10
550.3898661230352
 20
924.519954075759
 30
0.0
 10
548.318220811826
 20
924.7129027085499
 30
0.0
  0
SPLINE
  5
B8
330
1F
100
AcDbEntity
  8
0
  6
Continuous
 62
     7
370
    25
100
AcDbSpline
210
0.0
220
0.0
230
1.0
 70
     8
 71
     3
 72
    23
 73
    19
 74
     0
 42
0.000000001
 43
0.00000001
 40
0.0
 40
0.0
 40
0.0
 40
0.0
 40
0.0424451856534329
 40
0.1274081391159463
 40
0.2123666652674343
 40
0.2972751800026653
 40
0.3823310077539295
 40
0.4673711655771681
 40
0.5523141784287395
 40
0.6083053040341221
 40
0.6642844877563177
 40
0.7231397443763756
 40
0.7820931122772113
 40
0.8408034273683456
 40
0.8792458928584834
 40
0.9177756000033735
 40
0.9561672461812636
 40
1.0
 40
1.0
 40
1.0
 40
1.0
 10
462.2096226521999
 20
827.5011692481236
 30
0.0
 10
462.754682535074
 20
825.7570660076817
 30
0.0
 10
464.3907942475017
 20
820.5217738333188
 30
0.0
 10
467.4082616386256
 20
811.8718690050074
 30
0.0
 10
471.4449413151719
 20
801.6195560417622
 30
0.0
 10
475.9661583032139
 20
791.5292211181646
 30
0.0
 10
481.0217364695282
 20
781.6441375691311
 30
0.0
 10
486.6951257384362
 20
772.0348979049994
 30
0.0
 10
492.3443754936795
 20
763.8431192284521
 30
0.0
 10
497.7915430824575
 20
757.0295300674978
 30
0.0
 10
502.9237677016518
 20
751.4020465468932
 30
0.0
 10
508.6123585712085
 20
746.0505335020445
 30
0.0
 10
514.9328975161628
 20
741.1300075462356
 30
0.0
 10
521.0403626294377
 20
737.3805765806728
 30
0.0
 10
526.7207858030698
 20
734.6998949976779
 30
0.0
 10
531.7829477110602
 20
732.8871288621999
 30
0.0
 10
537.2821085890312
 20
731.4866366510788
 30
0.0
 10
541.1432894042159
 20
731.1276849252768
 30
0.0
 10
543.2016344712347
 20
730.9363324480252
 30
0.0
  0
LINE
  5
BB
330
1F
100
AcDbEntity
  8
0
  6
Continuous
 62
     7
370
    25
100
AcDbLine
 10
548.3186543425
 20
730.936332448
 30
0.0
 11
543.2016344712
 21
730.936332448
 31
0.0
  0
LINE
  5
BC
330
1F
100
AcDbEntity
  8
0
  6
Continuous
 62
     7
370
    25
100
AcDbLine
 10
462.2096226522
 20
827.5011692481
 30
0.0
 11
629.3019012519
 21
827.4726037221
 31
0.0
  0
SPLINE
  5
BD
330
1F
100
AcDbEntity
  8
0
  6
Continuous
 62
     7
370
    25
100
AcDbSpline
210
0.0
220
0.0
230
1.0
 70
     8
 71
     3
 72
    22
 73
    18
 74
     0
 42
0.000000001
 43
0.00000001
 40
0.0
 40
0.0
 40
0.0
 40
0.0
 40
0.0425584852097285
 40
0.0811169959048104
 40
0.1198159696688819
 40
0.1584259665724561
 40
0.2156052693587862
 40
0.2730112799929077
 40
0.3303237268547203
 40
0.3760102235027171
 40
0.4217025394458749
 40
0.5132642633947945
 40
0.6048650644027199
 40
0.6961027736980834
 40
0.7873297407066444
 40
0.8936597862798764
 40
1.0
 40
1.0
 40
1.0
 40
1.0
 10
548.3186543424845
 20
730.9363324480252
 30
0.0
 10
550.3167116502718
 20
731.1199378507256
 30
0.0
 10
554.1250334374465
 20
731.4698920050042
 30
0.0
 10
559.585891621779
 20
732.8406448469001
 30
0.0
 10
564.6749450948124
 20
734.6474389074756
 30
0.0
 10
570.3108426557326
 20
737.2922950896933
 30
0.0
 10
576.3163015482844
 20
740.951517208299
 30
0.0
 10
582.4994509578695
 20
745.7100404296259
 30
0.0
 10
587.7867885806369
 20
750.6147016082896
 30
0.0
 10
592.3254399231618
 20
755.4546938671128
 30
0.0
 10
597.5436658336346
 20
761.6749215398728
 30
0.0
 10
603.4526078589992
 20
769.8639215618643
 30
0.0
 10
609.6795951241053
 20
780.1405770910941
 30
0.0
 10
615.1898844708703
 20
790.7303093613699
 30
0.0
 10
620.323516109671
 20
802.1535510632625
 30
0.0
 10
625.1066650798773
 20
814.3912839158136
 30
0.0
 10
627.9034446215683
 20
823.1120248019221
 30
0.0
 10
629.301901251939
 20
827.472603722115
 30
0.0
  0
SPLINE
  5
C3
330
1F
100
AcDbEntity
  8
0
  6
Continuous
 62
     7
370
    25
100
AcDbSpline
210
0.0
220
0.0
230
1.0
 70
     8
 71
     3
 72
    10
 73
     6
 74
     0
 42
0.000000001
 43
0.00000001
 40
0.0
 40
0.0
 40
0.0
 40
0.0
 40
0.363101224760715
 40
0.6808421575347783
 40
1.0
 40
1.0
 40
1.0
 40
1.0
 10
461.8043632217914
 20
827.7531925873951
 30
0.0
 10
461.8537864527902
 20
827.7222636615656
 30
0.0
 10
461.9464587351482
 20
827.664269595019
 30
0.0
 10
462.081941116262
 20
827.5800758332684
 30
0.0
 10
462.1669990640378
 20
827.5275104239544
 30
0.0
 10
462.2096226521999
 20
827.5011692481236
 30
0.0
  0
SPLINE
  5
C4
330
1F
100
AcDbEntity
  8
0
  6
Continuous
 62
     7
370
    25
100
AcDbSpline
210
0.0
220
0.0
230
1.0
 70
     8
 71
     3
 72
     9
 73
     5
 74
     0
 42
0.000000001
 43
0.00000001
 40
0.0
 40
0.0
 40
0.0
 40
0.0
 40
0.7470457687115959
 40
1.0
 40
1.0
 40
1.0
 40
1.0
 10
461.8043632217914
 20
827.7531925873951
 30
0.0
 10
461.7918911331179
 20
827.7616063340074
 30
0.0
 10
461.7751959195234
 20
827.7728690262877
 30
0.0
 10
461.7665900896986
 20
827.790595711484
 30
0.0
 10
461.7644132086307
 20
827.795079751511
 30
0.0
  0
LINE
  5
C5
330
1F
100
AcDbEntity
  8
0
  6
Continuous
 62
     7
370
    25
100
AcDbLine
 10
461.7642865488
 20
827.7941409784
 30
0.0
 11
461.762967796
 21
827.8203968244
 31
0.0
  0
SPLINE
  5
C6
330
1F
100
AcDbEntity
  8
0
  6
Continuous
 62
     7
370
    25
100
AcDbSpline
210
0.0
220
0.0
230
1.0
 70
     8
 71
     3
 72
    11
 73
     7
 74
     0
 42
0.000000001
 43
0.00000001
 40
0.0
 40
0.0
 40
0.0
 40
0.0
 40
0.0739291154550812
 40
0.3688243013728837
 40
0.8921060672123062
 40
1.0
 40
1.0
 40
1.0
 40
1.0
 10
461.763206214574
 20
827.8194282489018
 30
0.0
 10
461.7636558184859
 20
827.8209088410615
 30
0.0
 10
461.7658988434115
 20
827.8282953540149
 30
0.0
 10
461.7762426553456
 20
827.8442935192032
 30
0.0
 10
461.7913750904241
 20
827.8567689620368
 30
0.0
 10
461.8024607715506
 20
827.8638967726125
 30
0.0
 10
461.8043557712107
 20
827.8651152091221
 30
0.0
  0
SPLINE
  5
C7
330
1F
100
AcDbEntity
  8
0
  6
Continuous
 62
     7
370
    25
100
AcDbSpline
210
0.0
220
0.0
230
1.0
 70
     8
 71
     3
 72
    10
 73
     6
 74
     0
 42
0.000000001
 43
0.00000001
 40
0.0
 40
0.0
 40
0.0
 40
0.0
 40
0.4016131541675642
 40
0.7003591118566893
 40
1.0
 40
1.0
 40
1.0
 40
1.0
 10
462.170358092454
 20
828.0928347544865
 30
0.0
 10
462.1218483961655
 20
828.0628142925019
 30
0.0
 10
462.0372540360044
 20
828.0104626604029
 30
0.0
 10
461.9147711664283
 20
827.9342194404417
 30
0.0
 10
461.8411975811415
 20
827.8881729081928
 30
0.0
 10
461.8043557712108
 20
827.8651152091221
 30
0.0
  0
SPLINE
  5
C8
330
1F
100
AcDbEntity
  8
0
  6
Continuous
 62
     7
370
    25
100
AcDbSpline
210
0.0
220
0.0
230
1.0
 70
     8
 71
     3
 72
    10
 73
     6
 74
     0
 42
0.000000001
 43
0.00000001
 40
0.0
 40
0.0
 40
0.0
 40
0.0
 40
0.4109662558519593
 40
0.7050379702222307
 40
1.0
 40
1.0
 40
1.0
 40
1.0
 10
629.7153488704234
 20
827.8418395953373
 30
0.0
 10
629.665987246699
 20
827.8727056200187
 30
0.0
 10
629.5813043353849
 20
827.9256581899203
 30
0.0
 10
629.461989879803
 20
827.9998216812659
 30
0.0
 10
629.3925768383937
 20
828.0427551475427
 30
0.0
 10
629.3578178593189
 20
828.0642543273167
 30
0.0
  0
SPLINE
  5
C9
330
1F
100
AcDbEntity
  8
0
  6
Continuous
 62
     7
370
    25
100
AcDbSpline
210
0.0
220
0.0
230
1.0
 70
     8
 71
     3
 72
    10
 73
     6
 74
     0
 42
0.000000001
 43
0.00000001
 40
0.0
 40
0.0
 40
0.0
 40
0.0
 40
0.7357079907245441
 40
0.9901984241437213
 40
1.0
 40
1.0
 40
1.0
 40
1.0
 10
629.7153488704234
 20
827.8418395953373
 30
0.0
 10
629.7275624831932
 20
827.8333277397262
 30
0.0
 10
629.7440009346851
 20
827.8218715286765
 30
0.0
 10
629.7538844715589
 20
827.8041864092651
 30
0.0
 10
629.7556146958201
 20
827.7992273720387
 30
0.0
 10
629.7556788631946
 20
827.7990434603886
 30
0.0
  0
LINE
  5
CA
330
1F
100
AcDbEntity
  8
0
  6
Continuous
 62
     7
370
    25
100
AcDbLine
 10
629.7562823602
 20
827.7988050418
 30
0.0
 11
629.7539875814
 21
827.7673635917
 31
0.0
  0
SPLINE
  5
CB
330
1F
100
AcDbEntity
  8
0
  6
Continuous
 62
     7
370
    25
100
AcDbSpline
210
0.0
220
0.0
230
1.0
 70
     8
 71
     3
 72
    10
 73
     6
 74
     0
 42
0.000000001
 43
0.00000001
 40
0.0
 40
0.0
 40
0.0
 40
0.0
 40
0.3097001684468092
 40
0.8819800700120743
 40
1.0
 40
1.0
 40
1.0
 40
1.0
 10
629.7548667499095
 20
827.7704183297352
 30
0.0
 10
629.7520409292679
 20
827.7651917858179
 30
0.0
 10
629.7439934118902
 20
827.750307365208
 30
0.0
 10
629.7284169747669
 20
827.7382602538867
 30
0.0
 10
629.7173905161475
 20
827.7311224211713
 30
0.0
 10
629.715505332616
 20
827.7299020724491
 30
0.0
  0
SPLINE
  5
CC
330
1F
100
AcDbEntity
  8
0
  6
Continuous
 62
     7
370
    25
100
AcDbSpline
210
0.0
220
0.0
230
1.0
 70
     8
 71
     3
 72
    10
 73
     6
 74
     0
 42
0.000000001
 43
0.00000001
 40
0.0
 40
0.0
 40
0.0
 40
0.0
 40
0.3558685664181152
 40
0.6772400734449332
 40
1.0
 40
1.0
 40
1.0
 40
1.0
 10
629.301901251939
 20
827.472603722115
 30
0.0
 10
629.350427728283
 20
827.5026071001183
 30
0.0
 10
629.4427766388206
 20
827.5597053994346
 30
0.0
 10
629.5811955974485
 20
827.6458103848912
 30
0.0
 10
629.6706711329887
 20
827.7018312590991
 30
0.0
 10
629.715505332616
 20
827.7299020724491
 30
0.0
  0
SPLINE
  5
D9
330
1F
100
AcDbEntity
  8
0
  6
Continuous
 62
     7
370
    25
100
AcDbSpline
210
0.0
220
0.0
230
1.0
 70
     8
 71
     3
 72
    11
 73
     7
 74
     0
 42
0.000000001
 43
0.00000001
 40
0.0
 40
0.0
 40
0.0
 40
0.0
 40
0.0538028650062433
 40
0.2690121712278296
 40
0.9703255608650945
 40
1.0
 40
1.0
 40
1.0
 40
1.0
 10
461.7641896912128
 20
827.79569069912
 30
0.0
 10
461.7641948443979
 20
827.7956219364438
 30
0.0
 10
461.7642206101177
 20
827.7952781258159
 30
0.0
 10
461.7642631946014
 20
827.7938280582582
 30
0.0
 10
461.7643044248518
 20
827.7922045432533
 30
0.0
 10
461.7643660052902
 20
827.7901131576319
 30
0.0
 10
461.7643685051471
 20
827.7900282578663
 30
0.0
  0
LINE
  5
DC
330
1F
100
AcDbEntity
  8
0
  6
Continuous
 62
     7
370
    25
100
AcDbLine
 10
645.6910029956
 20
623.5541709053
 30
0.0
 11
645.6910029956
 21
619.8298035475
 31
0.0
  0
LINE
  5
DD
330
1F
100
AcDbEntity
  8
0
  6
Continuous
 62
     7
370
    25
100
AcDbLine
 10
445.7194016286
 20
619.8389873194
 30
0.0
 11
445.7194016286
 21
623.5623814451
 31
0.0
  0
LINE
  5
DE
330
1F
100
AcDbEntity
  8
0
  6
Continuous
 62
     7
370
    25
100
AcDbLine
 10
547.3902452941
 20
621.2914100202
 30
0.0
 11
546.8948154449
 21
622.9510929721
 31
0.0
  0
LINE
  5
DF
330
1F
100
AcDbEntity
  8
0
  6
Continuous
 62
     7
370
    25
100
AcDbLine
 10
546.8948154449
 20
622.9510929721
 30
0.0
 11
545.2097724629
 21
623.3518801915
 31
0.0
  0
LINE
  5
E0
330
1F
100
AcDbEntity
  8
0
  6
Continuous
 62
     7
370
    25
100
AcDbLine
 10
545.2097724629
 20
623.3518801915
 30
0.0
 11
544.0201593301
 21
622.0929835277
 31
0.0
  0
LINE
  5
E1
330
1F
100
AcDbEntity
  8
0
  6
Continuous
 62
     7
370
    25
100
AcDbLine
 10
544.0201593301
 20
622.0929835277
 30
0.0
 11
544.5155891794
 21
620.4332996445
 31
0.0
  0
LINE
  5
E2
330
1F
100
AcDbEntity
  8
0
  6
Continuous
 62
     7
370
    25
100
AcDbLine
 10
544.5155891794
 20
620.4332996445
 30
0.0
 11
546.2006321614
 21
620.0325133564
 31
0.0
  0
LINE
  5
E3
330
1F
100
AcDbEntity
  8
0
  6
Continuous
 62
     7
370
    25
100
AcDbLine
 10
546.2006321614
 20
620.0325133564
 30
0.0
 11
547.3902452941
 21
621.2914100202
 31
0.0
  0
CIRCLE
  5
E4
330
1F
100
AcDbEntity
  8
0
  6
Continuous
 62
     7
370
    25
100
AcDbCircle
 10
545.7052023121
 20
621.6921965318
 30
0.0
 40
2.249999999999914
  0
LINE
  5
E5
330
1F
100
AcDbEntity
  8
0
  6
Continuous
 62
     8
370
    25
100
AcDbLine
 10
544.323184804
 20
1050.1921836572
 30
0.0
 11
445.705200822
 21
1050.1921836572
 31
0.0
  0
LINE
  5
E6
330
1F
100
AcDbEntity
  8
0
  6
Continuous
 62
     8
370
    25
100
AcDbLine
 10
645.7052038023
 20
1050.1921836572
 30
0.0
 11
544.323184804
 21
1050.1921836572
 31
0.0
  0
LINE
  5
E7
330
1F
100
AcDbEntity
  8
0
  6
Continuous
 62
     8
370
    25
100
AcDbLine
 10
445.705200822
 20
1044.6921948629
 30
0.0
 11
645.7052038023
 21
1044.6921948629
 31
0.0
  0
SPLINE
  5
EB
330
1F
100
AcDbEntity
  8
0
  6
Continuous
 62
     7
370
    25
100
AcDbSpline
210
0.0
220
0.0
230
1.0
 70
     8
 71
     3
 72
    14
 73
    10
 74
     0
 42
0.000000001
 43
0.00000001
 40
0.0
 40
0.0
 40
0.0
 40
0.0
 40
0.0140456364071011
 40
0.1169916236445958
 40
0.2331447916886047
 40
0.3882558501646606
 40
0.6049656080989192
 40
0.8088046071411812
 40
1.0
 40
1.0
 40
1.0
 40
1.0
 10
881.6304494009087
 20
899.7510437207417
 30
0.0
 10
881.6371687404787
 20
899.7678586290182
 30
0.0
 10
881.6931367595379
 20
899.9079166060086
 30
0.0
 10
881.7793683654288
 20
900.2090977133149
 30
0.0
 10
881.8499935391961
 20
900.6982142192026
 30
0.0
 10
881.8261624596119
 20
901.3485530871181
 30
0.0
 10
881.6070254231367
 20
902.0850296152526
 30
0.0
 10
881.1820163701504
 20
902.7919038034129
 30
0.0
 10
880.7677283733792
 20
903.1154457993101
 30
0.0
 10
880.5672142968247
 20
903.2720390992358
 30
0.0
  0
SPLINE
  5
EC
330
1F
100
AcDbEntity
  8
0
  6
Continuous
 62
     7
370
    25
100
AcDbSpline
210
0.0
220
0.0
230
1.0
 70
     8
 71
     3
 72
    22
 73
    18
 74
     0
 42
0.000000001
 43
0.00000001
 40
0.0
 40
0.0
 40
0.0
 40
0.0
 40
0.1237068577429854
 40
0.2676622387708383
 40
0.3928982285531828
 40
0.501726483257616
 40
0.594045187636033
 40
0.6685336747577919
 40
0.7233070797142803
 40
0.7565997221643053
 40
0.7655670528544758
 40
0.7719441888187424
 40
0.7796385189543035
 40
0.7930868897199611
 40
0.826689323667225
 40
0.9626673044686594
 40
0.9999999999999999
 40
0.9999999999999999
 40
0.9999999999999999
 40
0.9999999999999999
 10
865.7958049640724
 20
871.6090087132648
 30
0.0
 10
866.0112420046692
 20
871.5556199564655
 30
0.0
 10
866.4773791425158
 20
871.4401036913954
 30
0.0
 10
867.1868369010558
 20
871.5280312346047
 30
0.0
 10
867.8271013762446
 20
871.7470569192848
 30
0.0
 10
868.3280498197414
 20
872.0516959605412
 30
0.0
 10
868.6973546762672
 20
872.3780020047519
 30
0.0
 10
868.952462833382
 20
872.6829157586424
 30
0.0
 10
869.110497175948
 20
872.922104839204
 30
0.0
 10
869.1965476710042
 20
873.0786546576858
 30
0.0
 10
869.2303633208467
 20
873.1457947749701
 30
0.0
 10
869.2408678199388
 20
873.1671219089149
 30
0.0
 10
869.2484562283051
 20
873.1827530062377
 30
0.0
 10
869.2559694884311
 20
873.1984474857793
 30
0.0
 10
869.2661244683355
 20
873.2199213301597
 30
0.0
 10
869.2678734606056
 20
873.2236107681274
 30
0.0
 10
869.2887271752319
 20
873.2681875181
 30
0.0
 10
869.2932192549774
 20
873.2777897553638
 30
0.0
  0
SPLINE
  5
EE
330
1F
100
AcDbEntity
  8
0
  6
Continuous
 62
     7
370
    25
100
AcDbSpline
210
0.0
220
0.0
230
1.0
 70
     8
 71
     3
 72
    14
 73
    10
 74
     0
 42
0.000000001
 43
0.00000001
 40
0.0
 40
0.0
 40
0.0
 40
0.0
 40
0.1293805940606111
 40
0.3437808788282536
 40
0.530218115002976
 40
0.6922919804126255
 40
0.829906998503508
 40
0.9411413327030458
 40
1.0
 40
1.0
 40
1.0
 40
1.0
 10
849.8004291520188
 20
836.9119528966144
 30
0.0
 10
849.9521803120225
 20
836.8745366730335
 30
0.0
 10
850.3554026617736
 20
836.7751169546555
 30
0.0
 10
851.0026040262028
 20
836.860124754151
 30
0.0
 10
851.6463602132305
 20
837.07371403828
 30
0.0
 10
852.1515052644759
 20
837.3770657611366
 30
0.0
 10
852.5229899719213
 20
837.7046439272083
 30
0.0
 10
852.7658477755646
 20
837.9858571445731
 30
0.0
 10
852.875869416783
 20
838.1580736615598
 30
0.0
 10
852.9139411017964
 20
838.2176671462253
 30
0.0
  0
SPLINE
  5
EF
330
1F
100
AcDbEntity
  8
0
  6
Continuous
 62
     7
370
    25
100
AcDbSpline
210
0.0
220
0.0
230
1.0
 70
     8
 71
     3
 72
    21
 73
    17
 74
     0
 42
0.000000001
 43
0.00000001
 40
0.0
 40
0.0
 40
0.0
 40
0.0
 40
0.1340129322911768
 40
0.3897156957046323
 40
0.4542027958169419
 40
0.4928133738238407
 40
0.5047760317328989
 40
0.509559126858372
 40
0.5165105148051756
 40
0.5415722380276599
 40
0.5848799806373778
 40
0.6618863219859414
 40
0.7381846764857869
 40
0.8487841933803839
 40
0.9508683626996552
 40
1.0
 40
1.0
 40
1.0
 40
1.0
 10
865.1213858590195
 20
864.3303875165179
 30
0.0
 10
865.1644852407336
 20
864.4229374462346
 30
0.0
 10
865.2898202008905
 20
864.6920768466663
 30
0.0
 10
865.363187831054
 20
864.8496666078121
 30
0.0
 10
865.3917197229479
 20
864.9114618395574
 30
0.0
 10
865.3965809769002
 20
864.9219135615501
 30
0.0
 10
865.4103903835775
 20
864.9522642530744
 30
0.0
 10
865.4278733480761
 20
864.9920487289086
 30
0.0
 10
865.465517868749
 20
865.0810942933875
 30
0.0
 10
865.5400286856564
 20
865.2812587940714
 30
0.0
 10
865.6440269673838
 20
865.6732827238309
 30
0.0
 10
865.6947410050072
 20
866.226058269817
 30
0.0
 10
865.6045748570723
 20
866.9651889833845
 30
0.0
 10
865.2887547433905
 20
867.7173978338674
 30
0.0
 10
864.8404411396992
 20
868.3226556085974
 30
0.0
 10
864.477676110607
 20
868.5439434678751
 30
0.0
 10
864.3598098621437
 20
868.615842266579
 30
0.0
  0
LINE
  5
F1
330
1F
100
AcDbEntity
  8
0
  6
Continuous
 62
     7
370
    25
100
AcDbLine
 10
890.5165780649
 20
928.1743828492
 30
0.0
 11
890.5165780649
 21
1043.6922077375
 31
0.0
  0
LINE
  5
F2
330
1F
100
AcDbEntity
  8
0
  6
Continuous
 62
     7
370
    25
100
AcDbLine
 10
890.5165780649
 20
624.1879573377
 30
0.0
 11
890.5165780649
 21
727.2100065189
 31
0.0
  0
LINE
  5
F3
330
1F
100
AcDbEntity
  8
0
  6
Continuous
 62
     7
370
    25
100
AcDbLine
 10
890.5165780649
 20
611.6921965318
 30
0.0
 11
890.5165780649
 21
619.224238983
 31
0.0
  0
LINE
  5
F4
330
1F
100
AcDbEntity
  8
0
  6
Continuous
 62
     7
370
    25
100
AcDbLine
 10
690.5165750847
 20
619.224238983
 30
0.0
 11
690.5165750847
 21
611.6921965318
 31
0.0
  0
LINE
  5
F5
330
1F
100
AcDbEntity
  8
0
  6
Continuous
 62
     7
370
    25
100
AcDbLine
 10
690.5165750847
 20
1043.6922077375
 30
0.0
 11
690.5165750847
 21
624.1879573377
 31
0.0
  0
LINE
  5
F6
330
1F
100
AcDbEntity
  8
0
  6
Continuous
 62
     7
370
    25
100
AcDbLine
 10
690.4642124043
 20
608.6921965057
 30
0.0
 11
690.5863944755
 21
601.6921967553
 31
0.0
  0
LINE
  5
F7
330
1F
100
AcDbEntity
  8
0
  6
Continuous
 62
     7
370
    25
100
AcDbLine
 10
890.4467586742
 20
601.6921967553
 30
0.0
 11
890.5689407454
 21
608.6921965057
 31
0.0
  0
LINE
  5
F8
330
1F
100
AcDbEntity
  8
0
  6
Continuous
 62
     7
370
    25
100
AcDbLine
 10
890.5689407454
 20
608.6921965057
 30
0.0
 11
890.5165780649
 21
611.6921965318
 31
0.0
  0
LINE
  5
F9
330
1F
100
AcDbEntity
  8
0
  6
Continuous
 62
     7
370
    25
100
AcDbLine
 10
690.5165750847
 20
611.6921965318
 30
0.0
 11
690.4642124043
 21
608.6921965057
 31
0.0
  0
LINE
  5
FA
330
1F
100
AcDbEntity
  8
0
  6
Continuous
 62
     7
370
    25
100
AcDbLine
 10
690.5165750847
 20
1050.1921836572
 30
0.0
 11
690.5165750847
 21
1044.6921948629
 31
0.0
  0
LINE
  5
FB
330
1F
100
AcDbEntity
  8
0
  6
Continuous
 62
     7
370
    25
100
AcDbLine
 10
890.5165780649
 20
1044.6921948629
 30
0.0
 11
890.5165780649
 21
1050.1921836572
 31
0.0
  0
ARC
  5
FC
330
1F
100
AcDbEntity
  8
0
  6
Continuous
 62
     7
370
    25
100
AcDbCircle
 10
889.5165765748
 20
1044.6921965318
 30
0.0
 40
1.000000000000227
100
AcDbArc
 50
270.0000000001
 51
0.0
  0
ARC
  5
FD
330
1F
100
AcDbEntity
  8
0
  6
Continuous
 62
     7
370
    25
100
AcDbCircle
 10
691.5165765748
 20
1044.6921965318
 30
0.0
 40
1.000000000000227
100
AcDbArc
 50
180.0
 51
269.9999999999
  0
ARC
  5
FE
330
1F
100
AcDbEntity
  8
0
  6
Continuous
 62
     7
370
    25
100
AcDbCircle
 10
692.5165765748
 20
1050.1921965318
 30
0.0
 40
2.0
100
AcDbArc
 50
90.0000000001
 51
180.0
  0
ARC
  5
FF
330
1F
100
AcDbEntity
  8
0
  6
Continuous
 62
     7
370
    25
100
AcDbCircle
 10
888.5165765748
 20
1050.1921965318
 30
0.0
 40
2.0
100
AcDbArc
 50
0.0
 51
89.9999999999
  0
LWPOLYLINE
  5
100
330
1F
100
AcDbEntity
  8
0
  6
Continuous
 62
     7
370
    25
100
AcDbPolyline
 90
       41
 70
   128
 43
0.0
 10
869.3272311554
 20
873.3504776197
 10
869.5390735135
 20
873.8040093618
 10
869.8954869375
 20
874.567604466
 10
870.3876946435
 20
875.6224576669
 10
871.0035745368
 20
876.9426111417
 10
871.7279572353
 20
878.4955207544
 10
872.5430209503
 20
880.2429799276
 10
873.428686367
 20
882.1419541078
 10
874.3631381855
 20
884.1456834512
 10
875.323383914
 20
886.2048451143
 10
876.2857679591
 20
888.2686857419
 10
877.226590024
 20
890.2864519792
 10
878.1226937041
 20
892.2084335523
 10
878.9520103798
 20
893.987274571
 10
879.6941254602
 20
895.5791954236
 10
880.3307477698
 20
896.9450358587
 10
880.8462161884
 20
898.0510894494
 10
881.2278423772
 20
898.8702062803
 10
881.4662162528
 20
899.3821505742
 10
881.5554667578
 20
899.574315949
 10
881.493410872
 20
899.4420234399
 10
881.2815685139
 20
898.9884916978
 10
880.9251625404
 20
898.2248965936
 10
880.4329548345
 20
897.1700433927
 10
879.8170749412
 20
895.8499197202
 10
879.092684792
 20
894.2969803052
 10
878.2776285276
 20
892.549521132
 10
877.3919631109
 20
890.6505469518
 10
876.4575038419
 20
888.6468176084
 10
875.497265564
 20
886.5876559453
 10
874.5348815188
 20
884.5238153177
 10
873.5940520034
 20
882.5060490804
 10
872.6979483233
 20
880.5840973096
 10
871.8686316476
 20
878.8052264886
 10
871.1265240178
 20
877.2133056359
 10
870.4898942576
 20
875.8474652009
 10
869.974425839
 20
874.7414116101
 10
869.5928071008
 20
873.9223245816
 10
869.3544332252
 20
873.4103802877
 10
869.2651752696
 20
873.2181851106
 10
869.3272311554
 20
873.3504776197
  0
LWPOLYLINE
  5
101
330
1F
100
AcDbEntity
  8
0
  6
Continuous
 62
     7
370
    25
100
AcDbPolyline
 90
       42
 70
   128
 43
0.0
 10
869.2935694323
 20
873.2790116506
 10
869.2941729293
 20
873.2803527551
 10
869.3830062018
 20
873.4716538625
 10
869.6202550397
 20
873.981154366
 10
870.0000781879
 20
874.796396895
 10
870.5131102667
 20
875.8972648816
 10
871.146737443
 20
877.2566382127
 10
871.8853432999
 20
878.8410488801
 10
872.7107484207
 20
880.6115154462
 10
873.6026201711
 20
882.524407311
 10
874.5390091405
 20
884.5326368051
 10
875.496855782
 20
886.5867618756
 10
876.4525641069
 20
888.6362079816
 10
877.3826126323
 20
890.6304601865
 10
878.2640982733
 20
892.52049367
 10
879.0753100381
 20
894.2596975999
 10
879.7962803707
 20
895.8053056436
 10
880.4092545376
 20
897.1192006307
 10
880.8991376624
 20
898.1690768438
 10
881.2538672552
 20
898.929065867
 10
881.4647112355
 20
899.3804816442
 10
881.5264765487
 20
899.5121483045
 10
881.4376358256
 20
899.3208769994
 10
881.2003869877
 20
898.8113466935
 10
880.82057129
 20
897.9961041646
 10
880.3075317607
 20
896.8952659803
 10
879.673912035
 20
895.5358628469
 10
878.9353061781
 20
893.9514521795
 10
878.1099010573
 20
892.1809856134
 10
877.2180218563
 20
890.2680937486
 10
876.2816328869
 20
888.2598642545
 10
875.3237936959
 20
886.2057391839
 10
874.3680779204
 20
884.1563228803
 10
873.4380293951
 20
882.1620408731
 10
872.5565512047
 20
880.2720073896
 10
871.7453319893
 20
878.5328034597
 10
871.0243616567
 20
876.987195416
 10
870.4113874898
 20
875.6733004289
 10
869.921504365
 20
874.6234242158
 10
869.5667747722
 20
873.8634351926
 10
869.3559382424
 20
873.4120194154
 10
869.3559382424
 20
873.4120194154
  0
LWPOLYLINE
  5
102
330
1F
100
AcDbEntity
  8
0
  6
Continuous
 62
     7
370
    25
100
AcDbPolyline
 90
       21
 70
   128
 43
0.0
 10
853.3730049
 20
839.1253713803
 10
853.1633679137
 20
838.6750582891
 10
853.1035770044
 20
838.5460440355
 10
853.1950850353
 20
838.741517468
 10
853.4356493816
 20
839.2566506105
 10
853.8193468318
 20
840.0787774759
 10
854.3367300496
 20
841.1876324849
 10
854.9750585423
 20
842.5559167104
 10
855.7186115847
 20
844.1499535279
 10
856.5490831003
 20
845.9304783778
 10
857.4460212455
 20
847.853666945
 10
858.3873424993
 20
849.8721335368
 10
859.3498681054
 20
851.9362125831
 10
860.3098977671
 20
853.9950464206
 10
861.243790792
 20
855.9979562001
 10
862.1285546885
 20
857.8956339793
 10
862.9424039588
 20
859.6413348155
 10
863.6652965412
 20
861.1920688586
 10
864.2794329987
 20
862.5096742349
 10
864.7696886525
 20
863.5616962152
 10
865.1236210332
 20
864.3214170175
  0
LWPOLYLINE
  5
103
330
1F
100
AcDbEntity
  8
0
  6
Continuous
 62
     7
370
    25
100
AcDbPolyline
 90
       20
 70
   128
 43
0.0
 10
865.3926689491
 20
864.8997310834
 10
865.3934289084
 20
864.9015490251
 10
865.3019134269
 20
864.7060755925
 10
865.0613490806
 20
864.1909424501
 10
864.6776516304
 20
863.3688155847
 10
864.1602684126
 20
862.2599605756
 10
863.52193992
 20
860.8916763501
 10
862.7783868775
 20
859.2976395326
 10
861.9479153619
 20
857.5171146827
 10
861.0509772167
 20
855.5939410167
 10
860.109655963
 20
853.5754595237
 10
859.1471303568
 20
851.5113953786
 10
858.1871006951
 20
849.4525466399
 10
857.2532076702
 20
847.4496368604
 10
856.3684437738
 20
845.5519739824
 10
855.5545945034
 20
843.8062731462
 10
854.831701921
 20
842.2555242019
 10
854.2175654635
 20
840.9379188256
 10
853.7273098097
 20
839.8859117465
 10
853.3730049
 20
839.1253713803
  0
LWPOLYLINE
  5
104
330
1F
100
AcDbEntity
  8
0
  6
Continuous
 62
     7
370
    25
100
AcDbPolyline
 90
       41
 70
   128
 43
0.0
 10
853.4007285104
 20
839.1848270135
 10
853.75336449
 20
839.9417612987
 10
854.2413030133
 20
840.9888211923
 10
854.8525411949
 20
842.3001978831
 10
855.5720214114
 20
843.8436303573
 10
856.3820336328
 20
845.5810908513
 10
857.2626177535
 20
847.4697981315
 10
858.1921074853
 20
849.463275476
 10
859.147607194
 20
851.5123937564
 10
860.1055953965
 20
853.5667274432
 10
861.0424761043
 20
855.5756721931
 10
861.9351823196
 20
857.4897859531
 10
862.7617348299
 20
859.261906548
 10
863.5017786489
 20
860.8484182792
 10
864.1370896564
 20
862.2102503019
 10
864.6520290837
 20
863.3138899045
 10
865.0339234934
 20
864.1321126657
 10
865.2733553515
 20
864.64483182
 10
865.3644312487
 20
864.8393813806
 10
865.3049160109
 20
864.7109631734
 10
865.0962699518
 20
864.262766047
 10
864.7436414228
 20
863.505846663
 10
864.2556954489
 20
862.4587718682
 10
863.6444572673
 20
861.1473951774
 10
862.9249770508
 20
859.6039776044
 10
862.1149648295
 20
857.8665171104
 10
861.2343807087
 20
855.977794929
 10
860.3048909769
 20
853.9843324857
 10
859.3493912683
 20
851.9352142053
 10
858.3914030657
 20
849.8808805185
 10
857.4545223579
 20
847.8719208675
 10
856.5618161426
 20
845.9578220086
 10
855.7352636323
 20
844.1856865125
 10
854.9952198134
 20
842.5991747813
 10
854.3599088059
 20
841.2373427587
 10
853.8449693785
 20
840.1337180572
 10
853.4630824194
 20
839.3154803949
 10
853.2236505613
 20
838.8027761417
 10
853.1325672135
 20
838.6082265811
 10
853.1920824514
 20
838.7366298871
 10
853.4007285104
 20
839.1848270135
  0
LWPOLYLINE
  5
105
330
1F
100
AcDbEntity
  8
0
  6
Continuous
 62
     7
370
    25
100
AcDbPolyline
 90
       41
 70
   128
 43
0.0
 10
869.3304349051
 20
873.3435932832
 10
869.5422772632
 20
873.7971250253
 10
869.8986906872
 20
874.5607201295
 10
870.3908983932
 20
875.6155733304
 10
871.0067782865
 20
876.9357268052
 10
871.7311684356
 20
878.4886364179
 10
872.5462247
 20
880.2360955911
 10
873.4318901167
 20
882.1350697713
 10
874.3663419352
 20
884.138828917
 10
875.3265876637
 20
886.1979607778
 10
876.2889717088
 20
888.2618312078
 10
877.2298012242
 20
890.2795676427
 10
878.1259049044
 20
892.2015492158
 10
878.95522158
 20
893.9803902345
 10
879.6973292098
 20
895.5723408895
 10
880.3339515195
 20
896.9381515222
 10
880.8494273887
 20
898.0442349153
 10
881.2310461268
 20
898.8633219438
 10
881.4694200025
 20
899.3752662378
 10
881.558677958
 20
899.5674614148
 10
881.4966220722
 20
899.4351391034
 10
881.2847797141
 20
898.9816073613
 10
880.9283662901
 20
898.2180122571
 10
880.4361585841
 20
897.1631590562
 10
879.8202786908
 20
895.8430353837
 10
879.0958885417
 20
894.2901257711
 10
878.2808322773
 20
892.5426367955
 10
877.3951668606
 20
890.6436626153
 10
876.4607075915
 20
888.6399332719
 10
875.5004693136
 20
886.5808014112
 10
874.5380852685
 20
884.5169309812
 10
873.597255753
 20
882.4991647439
 10
872.7011520729
 20
880.5772129731
 10
871.8718353973
 20
878.7983719545
 10
871.1297277675
 20
877.2064212995
 10
870.4931054578
 20
875.8406106668
 10
869.9776295886
 20
874.7345272737
 10
869.5960108504
 20
873.9154402452
 10
869.3576369748
 20
873.4034959512
 10
869.2683790193
 20
873.2113007741
 10
869.3304349051
 20
873.3435932832
  0
LWPOLYLINE
  5
106
330
1F
100
AcDbEntity
  8
0
  6
Continuous
 62
     7
370
    25
100
AcDbPolyline
 90
       42
 70
   128
 43
0.0
 10
869.2967731819
 20
873.2721273141
 10
869.297376679
 20
873.2734982209
 10
869.3862099514
 20
873.464769526
 10
869.6234587894
 20
873.9742998319
 10
870.0032819376
 20
874.7895125585
 10
870.5163214669
 20
875.8903805452
 10
871.1499411926
 20
877.2497538762
 10
871.8885470495
 20
878.8341645436
 10
872.7139521704
 20
880.6046311097
 10
873.6058313713
 20
882.5175229745
 10
874.5422128902
 20
884.5257524686
 10
875.5000595317
 20
886.5798775392
 10
876.4557678566
 20
888.6293236451
 10
877.3858163819
 20
890.6236056524
 10
878.2673020229
 20
892.5136093335
 10
879.0785137878
 20
894.2528430658
 10
879.7994841204
 20
895.7984213071
 10
880.4124582872
 20
897.1123460965
 10
880.9023414121
 20
898.1622223096
 10
881.2570710049
 20
898.9222113328
 10
881.4679149852
 20
899.3735973077
 10
881.5296802983
 20
899.505263968
 10
881.4408470259
 20
899.3139926629
 10
881.2035981879
 20
898.8044623571
 10
880.8237750397
 20
897.9892198281
 10
880.3107355104
 20
896.8883816438
 10
879.6771157847
 20
895.5290083127
 10
878.9385099278
 20
893.944567843
 10
878.1131048069
 20
892.1741310792
 10
877.221225606
 20
890.2612392144
 10
876.2848366366
 20
888.252979918
 10
875.3269974456
 20
886.1988548475
 10
874.3712891207
 20
884.1494385438
 10
873.4412405953
 20
882.1551565366
 10
872.5597549543
 20
880.2651528554
 10
871.7485431895
 20
878.5259191232
 10
871.0275728569
 20
876.9803408818
 10
870.41459869
 20
875.6664160924
 10
869.9247155652
 20
874.6165398793
 10
869.5699859724
 20
873.8565508561
 10
869.3591419921
 20
873.4051648812
 10
869.3591419921
 20
873.4051648812
  0
LWPOLYLINE
  5
107
330
1F
100
AcDbEntity
  8
0
  6
Continuous
 62
     7
370
    25
100
AcDbPolyline
 90
       21
 70
   128
 43
0.0
 10
853.3698011503
 20
839.1322557168
 10
853.1601641641
 20
838.6819426255
 10
853.1003658042
 20
838.5529283719
 10
853.1918812857
 20
838.7483869033
 10
853.432445632
 20
839.2635200458
 10
853.8161430821
 20
840.0856469112
 10
854.3335263
 20
841.1945019202
 10
854.9718547926
 20
842.5627861457
 10
855.715407835
 20
844.1568229633
 10
856.5458793507
 20
845.9373627143
 10
857.4428174958
 20
847.8605363803
 10
858.3841387496
 20
849.8790178733
 10
859.3466643558
 20
851.9430820184
 10
860.3066940174
 20
854.0019158559
 10
861.2405870423
 20
856.0048405366
 10
862.1253509388
 20
857.9025034147
 10
862.9392002091
 20
859.6482042508
 10
863.6620927916
 20
861.1989531951
 10
864.276229249
 20
862.5165585714
 10
864.7664849029
 20
863.5685805516
 10
865.1204172835
 20
864.328301354
  0
LWPOLYLINE
  5
108
330
1F
100
AcDbEntity
  8
0
  6
Continuous
 62
     7
370
    25
100
AcDbPolyline
 90
       20
 70
   128
 43
0.0
 10
865.3894651995
 20
864.9066154199
 10
865.3902177081
 20
864.9084333615
 10
865.2987096772
 20
864.712959929
 10
865.0581453309
 20
864.1978267865
 10
864.6744404302
 20
863.3756999212
 10
864.1570646629
 20
862.2668449121
 10
863.5187361703
 20
860.8985606866
 10
862.7751831279
 20
859.3045238691
 10
861.9447116122
 20
857.523984118
 10
861.0477734671
 20
855.600810452
 10
860.1064522133
 20
853.582328959
 10
859.1439266071
 20
851.5182648139
 10
858.1838969455
 20
849.4594309764
 10
857.2500039206
 20
847.4565062957
 10
856.3652400241
 20
845.5588434177
 10
855.5513907538
 20
843.8131425815
 10
854.8284981713
 20
842.2624085384
 10
854.2143617139
 20
840.9448031621
 10
853.72410606
 20
839.8927811818
 10
853.3698011503
 20
839.1322557168
  0
LWPOLYLINE
  5
109
330
1F
100
AcDbEntity
  8
0
  6
Continuous
 62
     7
370
    25
100
AcDbPolyline
 90
       41
 70
   128
 43
0.0
 10
853.3975173101
 20
839.1916964488
 10
853.7501532898
 20
839.948630734
 10
854.2380992637
 20
840.9956906276
 10
854.8493374453
 20
842.3070822196
 10
855.5688176618
 20
843.8504997926
 10
856.3788298831
 20
845.5879602866
 10
857.2594140039
 20
847.476682468
 10
858.1889037356
 20
849.4701449113
 10
859.1444034443
 20
851.5192631917
 10
860.1023916469
 20
853.5735968785
 10
861.0392723546
 20
855.5825416284
 10
861.93197857
 20
857.4966553884
 10
862.7585310803
 20
859.2687759834
 10
863.4985748992
 20
860.8553026157
 10
864.1338859067
 20
862.2171346383
 10
864.6488253341
 20
863.3207444387
 10
865.0307122932
 20
864.1389970021
 10
865.2701441512
 20
864.6516863542
 10
865.361227499
 20
864.8462359147
 10
865.3017122612
 20
864.7178475099
 10
865.0930662022
 20
864.2696503835
 10
864.7404302225
 20
863.5127011972
 10
864.2524916992
 20
862.4656562047
 10
863.6412535176
 20
861.1542646127
 10
862.9217733011
 20
859.6108470397
 10
862.1117610798
 20
857.8733865457
 10
861.2311695085
 20
855.9846643644
 10
860.3016872273
 20
853.991201921
 10
859.3461875186
 20
851.9420836406
 10
858.388199316
 20
849.8877499538
 10
857.4513186083
 20
847.8788052039
 10
856.5586123929
 20
845.9646914439
 10
855.7320598826
 20
844.192570849
 10
854.9920160637
 20
842.6060442167
 10
854.3567050562
 20
841.244212194
 10
853.8417656288
 20
840.1405874925
 10
853.4598712192
 20
839.3223498302
 10
853.2204393611
 20
838.809645577
 10
853.1293634639
 20
838.6150960164
 10
853.1888787017
 20
838.7434993224
 10
853.3975173101
 20
839.1916964488
  0
SPLINE
  5
10A
330
1F
100
AcDbEntity
  8
0
  6
Continuous
 62
     7
370
    25
100
AcDbSpline
210
0.0
220
0.0
230
1.0
 70
     8
 71
     3
 72
    23
 73
    19
 74
     0
 42
0.000000001
 43
0.00000001
 40
0.0
 40
0.0
 40
0.0
 40
0.0
 40
0.0292697039837696
 40
0.0823508120827711
 40
0.1368476821252115
 40
0.1737375176192886
 40
0.2106374939044549
 40
0.2485504012923007
 40
0.2864710029965972
 40
0.348225110269489
 40
0.4100072443397386
 40
0.473294010322333
 40
0.5365938286720873
 40
0.6130435727830665
 40
0.6895636962561884
 40
0.7660478199878097
 40
0.8830171312302938
 40
1.0
 40
1.0
 40
1.0
 40
1.0
 10
890.507249938018
 20
928.1743828492358
 30
0.0
 10
890.49192427344
 20
928.1449431710653
 30
0.0
 10
890.4488052543883
 20
928.0621141337052
 30
0.0
 10
889.8593714942587
 20
926.9316550279725
 30
0.0
 10
888.7601220955
 20
924.8202515338221
 30
0.0
 10
887.4511731478209
 20
922.3048149680093
 30
0.0
 10
886.1178764579364
 20
919.7404243832245
 30
0.0
 10
884.6010608048585
 20
916.8216453862659
 30
0.0
 10
882.5728991393493
 20
912.9184271664773
 30
0.0
 10
879.9628508608648
 20
907.8963657827854
 30
0.0
 10
876.6917017799686
 20
901.6104240262727
 30
0.0
 10
873.194945320022
 20
894.9069503777795
 30
0.0
 10
869.2498537797229
 20
887.3734492772577
 30
0.0
 10
864.8797387787849
 20
879.0738630284642
 30
0.0
 10
860.0762448618606
 20
870.0283815626296
 30
0.0
 10
854.2407171558706
 20
859.1800686184301
 30
0.0
 10
847.3231740991563
 20
846.4897822585838
 30
0.0
 10
841.7847233398808
 20
836.8315701146469
 30
0.0
 10
839.0153374836514
 20
832.0021841960148
 30
0.0
  0
SPLINE
  5
10B
330
1F
100
AcDbEntity
  8
0
  6
Continuous
 62
     7
370
    25
100
AcDbSpline
210
0.0
220
0.0
230
1.0
 70
     8
 71
     3
 72
    18
 73
    14
 74
     0
 42
0.000000001
 43
0.00000001
 40
0.0
 40
0.0
 40
0.0
 40
0.0
 40
0.2499999999999953
 40
0.2499999999999953
 40
0.4999999999999907
 40
0.4999999999999907
 40
0.624999999999993
 40
0.624999999999993
 40
0.7499999999999953
 40
0.7499999999999953
 40
0.8749999999999977
 40
0.8749999999999977
 40
1.0
 40
1.0
 40
1.0
 40
1.0
 10
839.0153367181218
 20
832.0021834380702
 30
0.0
 10
838.7100361711415
 20
831.3347055299048
 30
0.0
 10
838.4714549532482
 20
830.63702854666
 30
0.0
 10
838.1454596125322
 20
829.1766479161384
 30
0.0
 10
838.0634903948205
 20
828.4388340746079
 30
0.0
 10
838.0633664703709
 20
827.3206093147753
 30
0.0
 10
838.0844725352669
 20
826.9432910049054
 30
0.0
 10
838.1673946460065
 20
826.1995940434798
 30
0.0
 10
838.2288291046058
 20
825.8336289912364
 30
0.0
 10
838.3899762138889
 20
825.1130136591519
 30
0.0
 10
838.4894870697153
 20
824.7583039240656
 30
0.0
 10
838.7256783502901
 20
824.0599342354977
 30
0.0
 10
838.8626864042095
 20
823.7159486677067
 30
0.0
 10
839.0153367181217
 20
823.3822096255138
 30
0.0
  0
SPLINE
  5
10C
330
1F
100
AcDbEntity
  8
0
  6
Continuous
 62
     7
370
    25
100
AcDbSpline
210
0.0
220
0.0
230
1.0
 70
     8
 71
     3
 72
    25
 73
    21
 74
     0
 42
0.000000001
 43
0.00000001
 40
0.0
 40
0.0
 40
0.0
 40
0.0
 40
0.0957426649134043
 40
0.1915296530423779
 40
0.2872461919402909
 40
0.361349957227823
 40
0.4355826329327507
 40
0.5097341946749373
 40
0.5837270703446835
 40
0.6321536893425043
 40
0.6805709471735817
 40
0.7300375179187362
 40
0.7794845385680578
 40
0.8408618325101389
 40
0.8722834535283368
 40
0.9036993713279461
 40
0.9344853400927651
 40
0.9652672290790626
 40
0.9972675140911056
 40
1.0
 40
1.0
 40
1.0
 40
1.0
 10
839.0153374836514
 20
823.3822051720813
 30
0.0
 10
841.2888150241375
 20
819.4298116473561
 30
0.0
 10
845.836822591326
 20
811.5231948724602
 30
0.0
 10
852.3240576108188
 20
799.7425262052178
 30
0.0
 10
858.1275264948728
 20
788.9961909160796
 30
0.0
 10
863.2924449035021
 20
779.3065761798769
 30
0.0
 10
867.8519813453393
 20
770.6739310281685
 30
0.0
 10
872.2309011231049
 20
762.3241277210183
 30
0.0
 10
875.9129514667069
 20
755.268206189022
 30
0.0
 10
878.94319074271
 20
749.4478298977269
 30
0.0
 10
881.3950806829499
 20
744.7322878940068
 30
0.0
 10
883.6871399871089
 20
740.3218478197441
 30
0.0
 10
885.9361027471753
 20
735.993407982471
 30
0.0
 10
887.6298901707273
 20
732.7359138472124
 30
0.0
 10
888.8158807188415
 20
730.4567995438331
 30
0.0
 10
889.5413271175606
 20
729.0638142345292
 30
0.0
 10
890.0826209271454
 20
728.0247132736799
 30
0.0
 10
890.4082919499821
 20
727.3997474363225
 30
0.0
 10
890.5467995923298
 20
727.1341604623274
 30
0.0
 10
890.5101344470871
 20
727.2044747729639
 30
0.0
 10
890.507249938018
 20
727.2100065188602
 30
0.0
  0
LINE
  5
10D
330
1F
100
AcDbEntity
  8
0
  6
Continuous
 62
     7
370
    25
100
AcDbLine
 10
790.5165765748
 20
1043.6922077375
 30
0.0
 11
890.5165780649
 21
1043.6922077375
 31
0.0
  0
LINE
  5
10E
330
1F
100
AcDbEntity
  8
0
  6
Continuous
 62
     7
370
    25
100
AcDbLine
 10
690.5165750847
 20
1043.6922077375
 30
0.0
 11
790.5165765748
 21
1043.6922077375
 31
0.0
  0
SPLINE
  5
10F
330
1F
100
AcDbEntity
  8
0
  6
Continuous
 62
     7
370
    25
100
AcDbSpline
210
0.0
220
0.0
230
1.0
 70
     8
 71
     3
 72
    12
 73
     8
 74
     0
 42
0.000000001
 43
0.00000001
 40
0.0
 40
0.0
 40
0.0
 40
0.0
 40
0.2147919786433662
 40
0.4295823385825639
 40
0.6444149277129106
 40
0.8592749705421519
 40
1.0
 40
1.0
 40
1.0
 40
1.0
 10
890.4853228793213
 20
621.6921963082746
 30
0.0
 10
890.4860285700163
 20
621.4112809526928
 30
0.0
 10
890.4874399460882
 20
620.8494523585491
 30
0.0
 10
890.4973740562589
 20
620.0989324275956
 30
0.0
 10
890.5081411853885
 20
619.5389518531832
 30
0.0
 10
890.5158286764247
 20
619.221553192085
 30
0.0
 10
890.5157944128332
 20
619.2234774470045
 30
0.0
 10
890.5157808528015
 20
619.2242389829948
 30
0.0
  0
SPLINE
  5
110
330
1F
100
AcDbEntity
  8
0
  6
Continuous
 62
     7
370
    25
100
AcDbSpline
210
0.0
220
0.0
230
1.0
 70
     8
 71
     3
 72
    13
 73
     9
 74
     0
 42
0.000000001
 43
0.00000001
 40
0.0
 40
0.0
 40
0.0
 40
0.0
 40
0.0066575791018378
 40
0.2212630804723296
 40
0.4358689980265291
 40
0.6505333271266099
 40
0.8652227978552555
 40
1.0
 40
1.0
 40
1.0
 40
1.0
 10
890.516473756797
 20
624.1879573376968
 30
0.0
 10
890.5165070199521
 20
624.1893664218421
 30
0.0
 10
890.5176125131161
 20
624.2361970030242
 30
0.0
 10
890.5134107763074
 20
624.0670843321951
 30
0.0
 10
890.5044367275154
 20
623.6710018298434
 30
0.0
 10
890.4932914290956
 20
623.0196324898133
 30
0.0
 10
890.4863247541019
 20
622.3244600770938
 30
0.0
 10
890.4856017261726
 20
621.868171155196
 30
0.0
 10
890.4853228793213
 20
621.6921963082746
 30
0.0
  0
SPLINE
  5
111
330
1F
100
AcDbEntity
  8
0
  6
Continuous
 62
     7
370
    25
100
AcDbSpline
210
0.0
220
0.0
230
1.0
 70
     8
 71
     3
 72
    17
 73
    13
 74
     0
 42
0.000000001
 43
0.00000001
 40
0.0
 40
0.0
 40
0.0
 40
0.0
 40
0.0370306876697463
 40
0.1443736939632563
 40
0.2517291569958886
 40
0.3591138218963575
 40
0.4664990133675634
 40
0.5738550410705372
 40
0.6811978983936552
 40
0.7885640308139255
 40
0.8959536145926454
 40
1.0
 40
1.0
 40
1.0
 40
1.0
 10
690.517372296817
 20
619.2242389829948
 30
0.0
 10
690.5171540263402
 20
619.2154785675117
 30
0.0
 10
690.5163030425482
 20
619.181323826578
 30
0.0
 10
690.5221031900397
 20
619.4135811396691
 30
0.0
 10
690.5322996972939
 20
619.8965283531381
 30
0.0
 10
690.5428822156612
 20
620.600946440435
 30
0.0
 10
690.5486872035502
 20
621.4234615673633
 30
0.0
 10
690.5472929007403
 20
622.2771219900612
 30
0.0
 10
690.5392442415466
 20
623.0659630974876
 30
0.0
 10
690.5282576266371
 20
623.6943002714835
 30
0.0
 10
690.5185732866679
 20
624.1144029071718
 30
0.0
 10
690.5173040008422
 20
624.1636990154313
 30
0.0
 10
690.5166793928215
 20
624.1879573376968
 30
0.0
  0
SPLINE
  5
112
330
1F
100
AcDbEntity
  8
0
  6
Continuous
 62
     7
370
    25
100
AcDbSpline
210
0.0
220
0.0
230
1.0
 70
    11
 71
     3
 72
    66
 73
    62
 74
     0
 42
0.000000001
 43
0.00000001
 40
0.0
 40
0.0
 40
0.0
 40
0.0
 40
0.0312500000000001
 40
0.0312500000000001
 40
0.0625000000000002
 40
0.0625000000000002
 40
0.0937500000000003
 40
0.0937500000000003
 40
0.1250000000000004
 40
0.1250000000000004
 40
0.1562500000000006
 40
0.1562500000000006
 40
0.1875000000000007
 40
0.1875000000000007
 40
0.2187500000000008
 40
0.2187500000000008
 40
0.2500000000000009
 40
0.2500000000000009
 40
0.281250000000001
 40
0.281250000000001
 40
0.3125000000000011
 40
0.3125000000000011
 40
0.3437500000000012
 40
0.3437500000000012
 40
0.3750000000000013
 40
0.3750000000000013
 40
0.4062500000000014
 40
0.4062500000000014
 40
0.4375000000000016
 40
0.4375000000000016
 40
0.4687500000000017
 40
0.4687500000000017
 40
0.5000000000000018
 40
0.5000000000000018
 40
0.5312500000000019
 40
0.5312500000000019
 40
0.562500000000002
 40
0.562500000000002
 40
0.6250000000000019
 40
0.6250000000000019
 40
0.6562500000000017
 40
0.6562500000000017
 40
0.6875000000000014
 40
0.6875000000000014
 40
0.7187500000000012
 40
0.7187500000000012
 40
0.750000000000001
 40
0.750000000000001
 40
0.7812500000000008
 40
0.7812500000000008
 40
0.8125000000000007
 40
0.8125000000000007
 40
0.8437500000000006
 40
0.8437500000000006
 40
0.8750000000000004
 40
0.8750000000000004
 40
0.9062500000000003
 40
0.9062500000000003
 40
0.9375000000000002
 40
0.9375000000000002
 40
1.0
 40
1.0
 40
1.0
 40
1.0
 10
793.0165765748095
 20
621.6921965317919
 30
0.0
 10
793.0165765748095
 20
621.8573655855135
 30
0.0
 10
793.0003689842371
 20
622.0197732649051
 30
0.0
 10
792.9368655110395
 20
622.3392921308882
 30
0.0
 10
792.8887988590469
 20
622.4980581693145
 30
0.0
 10
792.7633130376897
 20
622.8008113481404
 30
0.0
 10
792.6865238651366
 20
622.9444023290043
 30
0.0
 10
792.5051042356338
 20
623.216154649165
 30
0.0
 10
792.3995118274672
 20
623.3448160396977
 30
0.0
 10
792.1688553002616
 20
623.5754308286946
 30
0.0
 10
792.0429993356281
 20
623.6789158380772
 30
0.0
 10
791.7697247046742
 20
623.8616756884857
 30
0.0
 10
791.6242165345585
 20
623.9393376664158
 30
0.0
 10
791.3233970565968
 20
624.0640207810819
 30
0.0
 10
791.1658709358105
 20
624.1120070298465
 30
0.0
 10
790.8431638460081
 20
624.1762268794354
 30
0.0
 10
790.6809526044517
 20
624.1921094459814
 30
0.0
 10
790.3548602854429
 20
624.1922829101808
 30
0.0
 10
790.1892529743003
 20
624.1760600768387
 30
0.0
 10
789.8686144240121
 20
624.1122923772072
 30
0.0
 10
789.712772009793
 20
624.065109711854
 30
0.0
 10
789.4100903326813
 20
623.9399747536891
 30
0.0
 10
789.2636701785053
 20
623.8617040918369
 30
0.0
 10
788.9927243079433
 20
623.6807668121088
 30
0.0
 10
788.8664418410553
 20
623.5774766115869
 30
0.0
 10
788.6329753460578
 20
623.3442473875039
 30
0.0
 10
788.529303732691
 20
623.2177350061509
 30
0.0
 10
788.3481873064268
 20
622.9470307704598
 30
0.0
 10
788.269915037951
 20
622.8009788980808
 30
0.0
 10
788.1443384548548
 20
622.4980331772891
 30
0.0
 10
788.0970386329221
 20
622.3422003848905
 30
0.0
 10
788.0330404951482
 20
622.0219197525323
 30
0.0
 10
788.0166345462812
 20
621.8562348303192
 30
0.0
 10
788.0165189172634
 20
621.529930027759
 30
0.0
 10
788.032279157597
 20
621.3677773634242
 30
0.0
 10
788.0960846513648
 20
621.0455124493282
 30
0.0
 10
788.1440516708886
 20
620.8874372821124
 30
0.0
 10
788.3306935696348
 20
620.4360265726039
 30
0.0
 10
788.5168156389582
 20
620.1568724685185
 30
0.0
 10
788.8622353798795
 20
619.8107818630617
 30
0.0
 10
788.9906826831689
 20
619.7051408601699
 30
0.0
 10
789.2625337080498
 20
619.5232984477408
 30
0.0
 10
789.4060543982816
 20
619.4464166400637
 30
0.0
 10
789.7083257679774
 20
619.3208008541569
 30
0.0
 10
789.8673115350068
 20
619.2724846876633
 30
0.0
 10
790.1868907531891
 20
619.2086793163193
 30
0.0
 10
790.3491719884737
 20
619.1923654933892
 30
0.0
 10
790.6788960426491
 20
619.1920301560385
 30
0.0
 10
790.8420320647712
 20
619.2081278708497
 30
0.0
 10
791.1615285653
 20
619.2713381472134
 30
0.0
 10
791.3199924632986
 20
619.319129675332
 30
0.0
 10
791.6232690999417
 20
619.4444965851972
 30
0.0
 10
791.766946664276
 20
619.5212015006215
 30
0.0
 10
792.0386285909608
 20
619.7022210429657
 30
0.0
 10
792.1674407667002
 20
619.8077121563383
 30
0.0
 10
792.3984232652142
 20
620.0383262299822
 30
0.0
 10
792.5019592025031
 20
620.1640619393157
 30
0.0
 10
792.6847095792572
 20
620.4367528707322
 30
0.0
 10
792.762751096272
 20
620.5825954913115
 30
0.0
 10
792.9501840713147
 20
621.033704046972
 30
0.0
 10
793.0165765748095
 20
621.3618584243487
 30
0.0
 10
793.0165765748095
 20
621.692196531792
 30
0.0
  0
LINE
  5
113
330
1F
100
AcDbEntity
  8
0
  6
Continuous
 62
     7
370
    25
100
AcDbLine
 10
790.5165765748
 20
611.6921965318
 30
0.0
 11
890.5165780649
 21
611.6921965318
 31
0.0
  0
LINE
  5
114
330
1F
100
AcDbEntity
  8
0
  6
Continuous
 62
     7
370
    25
100
AcDbLine
 10
690.5165750847
 20
611.6921965318
 30
0.0
 11
790.5165765748
 21
611.6921965318
 31
0.0
  0
LINE
  5
115
330
1F
100
AcDbEntity
  8
0
  6
Continuous
 62
     7
370
    25
100
AcDbLine
 10
890.5689407454
 20
608.6921965057
 30
0.0
 11
690.4642124043
 21
608.6921965057
 31
0.0
  0
LINE
  5
116
330
1F
100
AcDbEntity
  8
0
  6
Continuous
 62
     7
370
    25
100
AcDbLine
 10
890.4467586742
 20
601.6921967553
 30
0.0
 11
690.5863944755
 21
601.6921967553
 31
0.0
  0
LINE
  5
117
330
1F
100
AcDbEntity
  8
0
  6
Continuous
 62
     7
370
    25
100
AcDbLine
 10
719.805895196
 20
611.6921965318
 30
0.0
 11
890.5165780649
 21
611.6921965318
 31
0.0
  0
LINE
  5
118
330
1F
100
AcDbEntity
  8
0
  6
Continuous
 62
     7
370
    25
100
AcDbLine
 10
690.5165750847
 20
611.6921965318
 30
0.0
 11
719.805895196
 21
611.6921965318
 31
0.0
  0
LINE
  5
119
330
1F
100
AcDbEntity
  8
0
  6
Continuous
 62
     7
370
    25
100
AcDbLine
 10
888.5072160826
 20
1052.1921877103
 30
0.0
 11
888.5165740118
 21
1052.1921877103
 31
0.0
  0
LINE
  5
11A
330
1F
100
AcDbEntity
  8
0
  6
Continuous
 62
     7
370
    25
100
AcDbLine
 10
692.5165791378
 20
1052.1921877103
 30
0.0
 11
888.5072160826
 21
1052.1921877103
 31
0.0
  0
SPLINE
  5
11C
330
1F
100
AcDbEntity
  8
0
  6
Continuous
 62
     7
370
    25
100
AcDbSpline
210
0.0
220
0.0
230
1.0
 70
     8
 71
     3
 72
    23
 73
    19
 74
     0
 42
0.000000001
 43
0.00000001
 40
0.0
 40
0.0
 40
0.0
 40
0.0
 40
0.0424451856534329
 40
0.1274081391159463
 40
0.2123666652674343
 40
0.2972751800026653
 40
0.3823310077539295
 40
0.4673711655771681
 40
0.5523141784287395
 40
0.6083053040341221
 40
0.6642844877563177
 40
0.7231397443763756
 40
0.7820931122772113
 40
0.8408034273683456
 40
0.8792458928584834
 40
0.9177756000033735
 40
0.9561672461812636
 40
1.0
 40
1.0
 40
1.0
 40
1.0
 10
845.4540696308682
 20
827.5011692481235
 30
0.0
 10
846.2673470090583
 20
825.7570660076816
 30
0.0
 10
848.7085698649643
 20
820.5217738333187
 30
0.0
 10
852.7420449935122
 20
811.8718690050073
 30
0.0
 10
857.5227063081709
 20
801.619556041762
 30
0.0
 10
862.2278519242724
 20
791.5292211181646
 30
0.0
 10
866.8372841408597
 20
781.644137569131
 30
0.0
 10
871.3180904275342
 20
772.0348979049993
 30
0.0
 10
875.137927880844
 20
763.843119228452
 30
0.0
 10
878.3151156705196
 20
757.0295300674976
 30
0.0
 10
880.9392194667985
 20
751.4020465468932
 30
0.0
 10
883.4346452342459
 20
746.0505335020443
 30
0.0
 10
885.729094160789
 20
741.1300075462354
 30
0.0
 10
887.4774650369816
 20
737.3805765806727
 30
0.0
 10
888.7274554428824
 20
734.6998949976778
 30
0.0
 10
889.5727663510121
 20
732.8871288621998
 30
0.0
 10
890.2258150219347
 20
731.4866366510787
 30
0.0
 10
890.3931911336184
 20
731.1276849252766
 30
0.0
 10
890.4824171528885
 20
730.936332448025
 30
0.0
  0
LINE
  5
11D
330
1F
100
AcDbEntity
  8
0
  6
Continuous
 62
     7
370
    25
100
AcDbLine
 10
888.9406536088
 20
730.2174035745
 30
0.0
 11
890.4824171529
 21
730.936332448
 31
0.0
  0
LINE
  5
11F
330
1F
100
AcDbEntity
  8
0
  6
Continuous
 62
     7
370
    25
100
AcDbLine
 10
889.0595127211
 20
925.394988461
 30
0.0
 11
890.5222330556
 21
924.7129027085
 31
0.0
  0
SPLINE
  5
120
330
1F
100
AcDbEntity
  8
0
  6
Continuous
 62
     7
370
    25
100
AcDbSpline
210
0.0
220
0.0
230
1.0
 70
     8
 71
     3
 72
    22
 73
    18
 74
     0
 42
0.000000001
 43
0.00000001
 40
0.0
 40
0.0
 40
0.0
 40
0.0
 40
0.0425232013726129
 40
0.0810714105288751
 40
0.1197599643305282
 40
0.1583596957030984
 40
0.2155163529818969
 40
0.2728997950134933
 40
0.3301896133317099
 40
0.3758547895642149
 40
0.4215261132425353
 40
0.5130454929239497
 40
0.6046038563137928
 40
0.6957993744195811
 40
0.7869839451496905
 40
0.8934868458272502
 40
1.0
 40
1.0
 40
1.0
 40
1.0
 10
890.5222330555985
 20
924.7129027085499
 30
0.0
 10
890.4363594875284
 20
924.529432804669
 30
0.0
 10
890.2726396577449
 20
924.1796434328181
 30
0.0
 10
889.6327079712473
 20
922.80916546341
 30
0.0
 10
888.7892382090515
 20
921.0021451683238
 30
0.0
 10
887.5547813252001
 20
918.3567513566609
 30
0.0
 10
885.8471122903227
 20
914.6968021250483
 30
0.0
 10
883.6266409654804
 20
909.9371129288546
 30
0.0
 10
881.3380906071332
 20
905.0311660075215
 30
0.0
 10
879.0797927319724
 20
900.1898926992867
 30
0.0
 10
876.1776228512933
 20
893.9679715906876
 30
0.0
 10
872.3569186136197
 20
885.7766036975362
 30
0.0
 10
867.5622390580894
 20
875.4966827608762
 30
0.0
 10
862.6215758474011
 20
864.9033623040376
 30
0.0
 10
857.2879648940628
 20
853.4673115271919
 30
0.0
 10
851.5700467514552
 20
841.2069892741506
 30
0.0
 10
847.4927940903747
 20
832.4643598694171
 30
0.0
 10
845.4540696308682
 20
828.0928347544864
 30
0.0
  0
LINE
  5
123
330
1F
100
AcDbEntity
  8
0
  6
Continuous
 62
     7
370
    25
100
AcDbLine
 10
845.4540696309
 20
828.0928347545
 30
0.0
 11
845.4673987196
 21
828.0642543273
 31
0.0
  0
LINE
  5
124
330
1F
100
AcDbEntity
  8
0
  6
Continuous
 62
     7
370
    25
100
AcDbLine
 10
890.5222330556
 20
924.7129027085
 30
0.0
 11
890.5230451689
 21
924.7129027085
 31
0.0
  0
SPLINE
  5
125
330
1F
100
AcDbEntity
  8
0
  6
Continuous
 62
     7
370
    25
100
AcDbSpline
210
0.0
220
0.0
230
1.0
 70
     8
 71
     3
 72
     9
 73
     5
 74
     0
 42
0.000000001
 43
0.00000001
 40
0.0
 40
0.0
 40
0.0
 40
0.0
 40
0.5864488787908356
 40
1.0
 40
1.0
 40
1.0
 40
1.0
 10
845.4673987195561
 20
828.0642543273166
 30
0.0
 10
846.2817746620321
 20
829.8108452543489
 30
0.0
 10
847.670430983032
 20
832.7890944934528
 30
0.0
 10
849.0427298829899
 20
835.7323268017483
 30
0.0
 10
849.6102456317017
 20
836.949503822823
 30
0.0
  0
LINE
  5
126
330
1F
100
AcDbEntity
  8
0
  6
Continuous
 62
     7
370
    25
100
AcDbLine
 10
864.3710602388
 20
868.608302279
 30
0.0
 11
865.8310536609
 21
871.7397813039
 31
0.0
  0
SPLINE
  5
127
330
1F
100
AcDbEntity
  8
0
  6
Continuous
 62
     7
370
    25
100
AcDbSpline
210
0.0
220
0.0
230
1.0
 70
     8
 71
     3
 72
    15
 73
    11
 74
     0
 42
0.000000001
 43
0.00000001
 40
0.0
 40
0.0
 40
0.0
 40
0.0
 40
0.0226281036128043
 40
0.19388695801759
 40
0.3654318110803239
 40
0.5362691480769798
 40
0.6480806683959144
 40
0.7601459802552621
 40
0.8718096405298417
 40
1.0
 40
1.0
 40
1.0
 40
1.0
 10
880.5315781698296
 20
903.2723371224597
 30
0.0
 10
880.6513482053996
 20
903.5292682559411
 30
0.0
 10
881.6775874455807
 20
905.7307605569808
 30
0.0
 10
883.45119780148
 20
909.5355719961623
 30
0.0
 10
885.7619816462878
 20
914.4932294611193
 30
0.0
 10
887.5103045830141
 20
918.2445032311508
 30
0.0
 10
888.7630329230485
 20
920.9329107518541
 30
0.0
 10
889.6097551535789
 20
922.750452932993
 30
0.0
 10
890.2656897849284
 20
924.1589484127379
 30
0.0
 10
890.4334079374954
 20
924.5199596714584
 30
0.0
 10
890.5230451688835
 20
924.7129027085498
 30
0.0
  0
SPLINE
  5
128
330
1F
100
AcDbEntity
  8
0
  6
Continuous
 62
     7
370
    25
100
AcDbSpline
210
0.0
220
0.0
230
1.0
 70
     8
 71
     3
 72
    10
 73
     6
 74
     0
 42
0.000000001
 43
0.00000001
 40
0.0
 40
0.0
 40
0.0
 40
0.0
 40
0.363101224760715
 40
0.6808421575347783
 40
1.0
 40
1.0
 40
1.0
 40
1.0
 10
845.3898307249615
 20
827.753192587395
 30
0.0
 10
845.393007278352
 20
827.7222636615655
 30
0.0
 10
845.3989635553252
 20
827.6642695950189
 30
0.0
 10
845.4207916286315
 20
827.5800758332683
 30
0.0
 10
845.4429605237308
 20
827.5275104239543
 30
0.0
 10
845.4540696308682
 20
827.5011692481235
 30
0.0
  0
LINE
  5
130
330
1F
100
AcDbEntity
  8
0
  6
Continuous
 62
     7
370
    25
100
AcDbLine
 10
845.3884560928
 20
827.7941409784
 30
0.0
 11
845.3888397977
 21
827.8203968244
 31
0.0
  0
SPLINE
  5
133
330
1F
100
AcDbEntity
  8
0
  6
Continuous
 62
     7
370
    25
100
AcDbSpline
210
0.0
220
0.0
230
1.0
 70
     8
 71
     3
 72
    11
 73
     7
 74
     0
 42
0.000000001
 43
0.00000001
 40
0.0
 40
0.0
 40
0.0
 40
0.0
 40
0.0739291154550812
 40
0.3688243013728837
 40
0.8921060672123062
 40
1.0
 40
1.0
 40
1.0
 40
1.0
 10
845.3888099954197
 20
827.8194282489017
 30
0.0
 10
845.38885951838
 20
827.8209088410614
 30
0.0
 10
845.389106583033
 20
827.8282953540148
 30
0.0
 10
845.3899550986814
 20
827.8442935192032
 30
0.0
 10
845.3909633198352
 20
827.8567689620367
 30
0.0
 10
845.3916536033183
 20
827.8638967726124
 30
0.0
 10
845.391771601207
 20
827.8651152091221
 30
0.0
  0
SPLINE
  5
134
330
1F
100
AcDbEntity
  8
0
  6
Continuous
 62
     7
370
    25
100
AcDbSpline
210
0.0
220
0.0
230
1.0
 70
     8
 71
     3
 72
     9
 73
     5
 74
     0
 42
0.000000001
 43
0.00000001
 40
0.0
 40
0.0
 40
0.0
 40
0.0
 40
0.7470457687115959
 40
1.0
 40
1.0
 40
1.0
 40
1.0
 10
845.3898307249615
 20
827.753192587395
 30
0.0
 10
845.3893318988376
 20
827.7616063340074
 30
0.0
 10
845.3886641671608
 20
827.7728690262876
 30
0.0
 10
845.38849512698
 20
827.7905957114839
 30
0.0
 10
845.388452367551
 20
827.7950797515109
 30
0.0
  0
SPLINE
  5
135
330
1F
100
AcDbEntity
  8
0
  6
Continuous
 62
     7
370
    25
100
AcDbSpline
210
0.0
220
0.0
230
1.0
 70
     8
 71
     3
 72
    10
 73
     6
 74
     0
 42
0.000000001
 43
0.00000001
 40
0.0
 40
0.0
 40
0.0
 40
0.0
 40
0.4016131541675642
 40
0.7003591118566893
 40
1.0
 40
1.0
 40
1.0
 40
1.0
 10
845.4540696308682
 20
828.0928347544865
 30
0.0
 10
845.441544512794
 20
828.0628142925017
 30
0.0
 10
845.4197023981145
 20
828.0104626604028
 30
0.0
 10
845.4006400461624
 20
827.9342194404416
 30
0.0
 10
845.394730695478
 20
827.8881729081926
 30
0.0
 10
845.391771601207
 20
827.865115209122
 30
0.0
  0
SPLINE
  5
136
330
1F
100
AcDbEntity
  8
0
  6
Continuous
 62
     7
370
    25
100
AcDbSpline
210
0.0
220
0.0
230
1.0
 70
     8
 71
     3
 72
    10
 73
     6
 74
     0
 42
0.000000001
 43
0.00000001
 40
0.0
 40
0.0
 40
0.0
 40
0.0
 40
0.4109662558519593
 40
0.7050379702222307
 40
1.0
 40
1.0
 40
1.0
 40
1.0
 10
845.4057079122135
 20
827.8418395953372
 30
0.0
 10
845.4101795342791
 20
827.8727056200186
 30
0.0
 10
845.4178508778502
 20
827.9256581899202
 30
0.0
 10
845.4397258372906
 20
827.9998216812658
 30
0.0
 10
845.4581651352295
 20
828.0427551475426
 30
0.0
 10
845.4673987195561
 20
828.0642543273166
 30
0.0
  0
SPLINE
  5
137
330
1F
100
AcDbEntity
  8
0
  6
Continuous
 62
     7
370
    25
100
AcDbSpline
210
0.0
220
0.0
230
1.0
 70
     8
 71
     3
 72
    10
 73
     6
 74
     0
 42
0.000000001
 43
0.00000001
 40
0.0
 40
0.0
 40
0.0
 40
0.0
 40
0.7357079907245441
 40
0.9901984241437213
 40
1.0
 40
1.0
 40
1.0
 40
1.0
 10
845.4057079122135
 20
827.8418395953372
 30
0.0
 10
845.4048765142301
 20
827.8333277397261
 30
0.0
 10
845.403757525469
 20
827.8218715286764
 30
0.0
 10
845.4027264841188
 20
827.804186409265
 30
0.0
 10
845.4025264810634
 20
827.7992273720386
 30
0.0
 10
845.402519063718
 20
827.7990434603885
 30
0.0
  0
LINE
  5
138
330
1F
100
AcDbEntity
  8
0
  6
Continuous
 62
     7
370
    25
100
AcDbLine
 10
845.4025078878
 20
827.7988050418
 30
0.0
 11
845.4018447862
 21
827.7673635917
 31
0.0
  0
SPLINE
  5
139
330
1F
100
AcDbEntity
  8
0
  6
Continuous
 62
     7
370
    25
100
AcDbSpline
210
0.0
220
0.0
230
1.0
 70
     8
 71
     3
 72
    10
 73
     6
 74
     0
 42
0.000000001
 43
0.00000001
 40
0.0
 40
0.0
 40
0.0
 40
0.0
 40
0.3097001684468092
 40
0.8819800700120743
 40
1.0
 40
1.0
 40
1.0
 40
1.0
 10
845.4018485114643
 20
827.7704183297352
 30
0.0
 10
845.4018723774943
 20
827.7651917858177
 30
0.0
 10
845.4019403444024
 20
827.7503073652078
 30
0.0
 10
845.402455215457
 20
827.7382602538866
 30
0.0
 10
845.4028342415794
 20
827.7311224211712
 30
0.0
 10
845.4028990433285
 20
827.7299020724491
 30
0.0
  0
SPLINE
  5
13A
330
1F
100
AcDbEntity
  8
0
  6
Continuous
 62
     7
370
    25
100
AcDbSpline
210
0.0
220
0.0
230
1.0
 70
     8
 71
     3
 72
    10
 73
     6
 74
     0
 42
0.000000001
 43
0.00000001
 40
0.0
 40
0.0
 40
0.0
 40
0.0
 40
0.3558685664181152
 40
0.6772400734449332
 40
1.0
 40
1.0
 40
1.0
 40
1.0
 10
845.4673912689755
 20
827.4726037221149
 30
0.0
 10
845.4549040890654
 20
827.5026071001182
 30
0.0
 10
845.4311402070109
 20
827.5597053994345
 30
0.0
 10
845.4105937581331
 20
827.6458103848912
 30
0.0
 10
845.40546763137
 20
827.7018312590991
 30
0.0
 10
845.4028990433285
 20
827.729902072449
 30
0.0
  0
LINE
  5
13B
330
1F
100
AcDbEntity
  8
0
  6
Continuous
 62
     7
370
    25
100
AcDbLine
 10
889.0596766338
 20
925.3952864843
 30
0.0
 11
890.5230451689
 21
924.7129027085
 31
0.0
  0
LINE
  5
13C
330
1F
100
AcDbEntity
  8
0
  6
Continuous
 62
     7
370
    25
100
AcDbLine
 10
690.5307758913
 20
619.8273783835
 30
0.0
 11
690.5307758913
 21
623.5566752317
 31
0.0
  0
LINE
  5
13D
330
1F
100
AcDbEntity
  8
0
  6
Continuous
 62
     7
370
    25
100
AcDbLine
 10
792.2016195568
 20
621.2914100202
 30
0.0
 11
791.7061897075
 21
622.9510929721
 31
0.0
  0
LINE
  5
13E
330
1F
100
AcDbEntity
  8
0
  6
Continuous
 62
     7
370
    25
100
AcDbLine
 10
791.7061897075
 20
622.9510929721
 30
0.0
 11
790.0211467256
 21
623.3518801915
 31
0.0
  0
LINE
  5
13F
330
1F
100
AcDbEntity
  8
0
  6
Continuous
 62
     7
370
    25
100
AcDbLine
 10
790.0211467256
 20
623.3518801915
 30
0.0
 11
788.8315335928
 21
622.0929835277
 31
0.0
  0
LINE
  5
140
330
1F
100
AcDbEntity
  8
0
  6
Continuous
 62
     7
370
    25
100
AcDbLine
 10
788.8315335928
 20
622.0929835277
 30
0.0
 11
789.3269634421
 21
620.4332996445
 31
0.0
  0
LINE
  5
141
330
1F
100
AcDbEntity
  8
0
  6
Continuous
 62
     7
370
    25
100
AcDbLine
 10
789.3269634421
 20
620.4332996445
 30
0.0
 11
791.0120064241
 21
620.0325133564
 31
0.0
  0
LINE
  5
142
330
1F
100
AcDbEntity
  8
0
  6
Continuous
 62
     7
370
    25
100
AcDbLine
 10
791.0120064241
 20
620.0325133564
 30
0.0
 11
792.2016195568
 21
621.2914100202
 31
0.0
  0
CIRCLE
  5
143
330
1F
100
AcDbEntity
  8
0
  6
Continuous
 62
     7
370
    25
100
AcDbCircle
 10
790.5165765748
 20
621.6921965318
 30
0.0
 40
2.249999999999914
  0
LINE
  5
144
330
1F
100
AcDbEntity
  8
0
  6
Continuous
 62
     7
370
    25
100
AcDbLine
 10
890.5023772583
 20
623.5600913229
 30
0.0
 11
890.5023772583
 21
619.8168712022
 31
0.0
  0
LINE
  5
145
330
1F
100
AcDbEntity
  8
0
  6
Continuous
 62
     8
370
    25
100
AcDbLine
 10
869.3559382424
 20
873.4120194154
 30
0.0
 11
869.2935694323
 21
873.2790116506
 31
0.0
  0
ARC
  5
146
330
1F
100
AcDbEntity
  8
0
  6
Continuous
 62
     8
370
    25
100
AcDbCircle
 10
815.2907050424
 20
887.8568279024
 30
0.0
 40
55.11111577230024
100
AcDbArc
 50
334.7192689409
 51
335.3823924744
  0
LINE
  5
147
330
1F
100
AcDbEntity
  8
0
  6
Continuous
 62
     8
370
    25
100
AcDbLine
 10
869.3591419921
 20
873.4051648812
 30
0.0
 11
869.2967731819
 21
873.2721273141
 31
0.0
  0
ARC
  5
148
330
1F
100
AcDbEntity
  8
0
  6
Continuous
 62
     8
370
    25
100
AcDbCircle
 10
815.2875012928
 20
887.8637122389
 30
0.0
 40
55.11111577230024
100
AcDbArc
 50
334.7192689409
 51
335.3823924744
  0
LINE
  5
149
330
1F
100
AcDbEntity
  8
0
  6
Continuous
 62
     8
370
    25
100
AcDbLine
 10
890.5165780649
 20
1050.1921836572
 30
0.0
 11
690.5165750847
 21
1050.1921836572
 31
0.0
  0
LINE
  5
14A
330
1F
100
AcDbEntity
  8
0
  6
Continuous
 62
     8
370
    25
100
AcDbLine
 10
690.5165750847
 20
1044.6921948629
 30
0.0
 11
890.5165780649
 21
1044.6921948629
 31
0.0
  0
LINE
  5
14B
330
1F
100
AcDbEntity
  8
0
  6
Continuous
 62
     7
100
AcDbLine
 10
639.6962250126
 20
480.0109165221
 30
0.0
 11
645.6956519935
 21
479.927995469
 31
0.0
  0
LINE
  5
14C
330
1F
100
AcDbEntity
  8
0
  6
Continuous
 62
     7
370
    25
100
AcDbLine
 10
645.6739486167
 20
478.8100130764
 30
0.0
 11
645.7052038023
 21
478.8100130764
 31
0.0
  0
LINE
  5
14D
330
1F
100
AcDbEntity
  8
0
  6
Continuous
 62
     7
370
    25
100
AcDbLine
 10
645.7052038023
 20
483.8100129647
 30
0.0
 11
645.6739486167
 21
483.8100129647
 31
0.0
  0
LINE
  5
14E
330
1F
100
AcDbEntity
  8
0
  6
Continuous
 62
     7
370
    25
100
AcDbLine
 10
547.9665766907
 20
581.2844441181
 30
0.0
 11
547.9552022153
 21
581.2958137041
 31
0.0
  0
LINE
  5
14F
330
1F
100
AcDbEntity
  8
0
  6
Continuous
 62
     7
370
    25
100
AcDbLine
 10
543.455202409
 20
581.2958137041
 30
0.0
 11
543.4438279336
 21
581.2844441181
 31
0.0
  0
LINE
  5
150
330
1F
100
AcDbEntity
  8
0
  6
Continuous
 62
     7
370
    25
100
AcDbLine
 10
645.6796334096
 20
479.048638642
 30
0.0
 11
645.6910029956
 21
479.0600131174
 31
0.0
  0
LINE
  5
151
330
1F
100
AcDbEntity
  8
0
  6
Continuous
 62
     7
370
    25
100
AcDbLine
 10
645.6910029956
 20
483.5600129237
 30
0.0
 11
645.6796334096
 21
483.5713873991
 31
0.0
  0
LINE
  5
152
330
1F
100
AcDbEntity
  8
0
  6
Continuous
 62
     7
370
    25
100
AcDbLine
 10
445.7307712146
 20
483.5713873991
 30
0.0
 11
445.7194016286
 21
483.5600129237
 31
0.0
  0
LINE
  5
153
330
1F
100
AcDbEntity
  8
0
  6
Continuous
 62
     7
370
    25
100
AcDbLine
 10
445.7194016286
 20
479.0600131174
 30
0.0
 11
445.7307712146
 21
479.048638642
 31
0.0
  0
LWPOLYLINE
  5
154
330
1F
100
AcDbEntity
  8
0
  6
Continuous
 62
     7
370
    25
100
AcDbPolyline
 90
        3
 70
   128
 43
0.0
 10
551.3360097976
 20
381.4162195569
 10
547.187807315
 20
381.2686310058
 10
542.7348101949
 20
381.3017488366
  0
ARC
  5
155
330
1F
100
AcDbEntity
  8
0
  6
Continuous
 62
     7
370
    25
100
AcDbCircle
 10
545.7052023121
 20
481.3100130206
 30
0.0
 40
100.0523651947847
100
AcDbArc
 50
327.2764674512
 51
212.9330372279
  0
CIRCLE
  5
156
330
1F
100
AcDbEntity
  8
0
  6
Continuous
 62
     7
370
    25
100
AcDbCircle
 10
545.7052023121
 20
481.3100130206
 30
0.0
 40
97.99999999999997
  0
CIRCLE
  5
157
330
1F
100
AcDbEntity
  8
0
  6
Continuous
 62
     7
370
    25
100
AcDbCircle
 10
487.9607176211
 20
482.1081281566
 30
0.0
 40
4.249999999999981
  0
CIRCLE
  5
158
330
1F
100
AcDbEntity
  8
0
  6
Continuous
 62
     7
370
    25
100
AcDbCircle
 10
603.4496870031
 20
480.5118978846
 30
0.0
 40
4.500000000000053
  0
CIRCLE
  5
159
330
1F
100
AcDbEntity
  8
0
  6
Continuous
 62
     7
370
    25
100
AcDbCircle
 10
545.7052023121
 20
481.3100130206
 30
0.0
 40
99.99999999999991
  0
SPLINE
  5
15A
330
1F
100
AcDbEntity
  8
0
  6
Continuous
 62
     7
370
    25
100
AcDbSpline
210
0.0
220
0.0
230
1.0
 70
     8
 71
     3
 72
    23
 73
    19
 74
     0
 42
0.000000001
 43
0.00000001
 40
0.0
 40
0.0
 40
0.0
 40
0.0
 40
0.0424123114119892
 40
0.1273096148446946
 40
0.2122024038524678
 40
0.2970452678913136
 40
0.3820348340515235
 40
0.4670090285870711
 40
0.5518861563236555
 40
0.607901982633666
 40
0.6639057653437056
 40
0.7227974869207783
 40
0.7817875564249921
 40
0.8405343284990113
 40
0.8789835692499052
 40
0.9175200826897855
 40
0.9559184779962508
 40
1.0
 40
1.0
 40
1.0
 40
1.0
 10
629.3578178593189
 20
426.359190875821
 30
0.0
 10
628.8133194484267
 20
425.5458990307931
 30
0.0
 10
627.1788911264033
 20
423.1046297837329
 30
0.0
 10
624.164220714003
 20
419.0711145371259
 30
0.0
 10
620.130917326225
 20
414.2903493745064
 30
0.0
 10
615.6132187690015
 20
409.5851265946984
 30
0.0
 10
610.561361249093
 20
404.9755333377486
 30
0.0
 10
604.89212966289
 20
400.4944705698
 30
0.0
 10
599.2453601446095
 20
396.6730466028778
 30
0.0
 10
593.7984214414536
 20
393.493113629102
 30
0.0
 10
588.663043817246
 20
390.8650879785333
 30
0.0
 10
582.9701838337788
 20
388.3656567957956
 30
0.0
 10
576.6440046883599
 20
386.0672425031377
 30
0.0
 10
570.5311285600053
 20
384.3158453876101
 30
0.0
 10
564.8460470703776
 20
383.0636531774343
 30
0.0
 10
559.780403130705
 20
382.2168089031783
 30
0.0
 10
554.2660737991246
 20
381.5609072973378
 30
0.0
 10
550.3898661230352
 20
381.3931842655753
 30
0.0
 10
548.318220811826
 20
381.3035444264935
 30
0.0
  0
LINE
  5
15B
330
1F
100
AcDbEntity
  8
0
  6
Continuous
 62
     7
370
    25
100
AcDbLine
 10
548.3182273311
 20
381.3441575413
 30
0.0
 11
548.3182208118
 21
381.3035444265
 31
0.0
  0
LINE
  5
15C
330
1F
100
AcDbEntity
  8
0
  6
Continuous
 62
     7
370
    25
100
AcDbLine
 10
629.3578402111
 20
426.5173518007
 30
0.0
 11
629.3578178593
 21
426.3591908758
 31
0.0
  0
LINE
  5
15D
330
1F
100
AcDbEntity
  8
0
  6
Continuous
 62
     7
370
    25
100
AcDbLine
 10
543.2012067613
 20
381.3413710242
 30
0.0
 11
543.2012009406
 21
381.3043565398
 31
0.0
  0
LINE
  5
15E
330
1F
100
AcDbEntity
  8
0
  6
Continuous
 62
     7
370
    25
100
AcDbLine
 10
543.2012009406
 20
381.3043565398
 30
0.0
 11
548.3182208118
 21
381.3035444265
 31
0.0
  0
SPLINE
  5
15F
330
1F
100
AcDbEntity
  8
0
  6
Continuous
 62
     7
370
    25
100
AcDbSpline
210
0.0
220
0.0
230
1.0
 70
     8
 71
     3
 72
    10
 73
     6
 74
     0
 42
0.000000001
 43
0.00000001
 40
0.0
 40
0.0
 40
0.0
 40
0.0
 40
0.4016131541675642
 40
0.7003591118566893
 40
1.0
 40
1.0
 40
1.0
 40
1.0
 10
462.170358092454
 20
426.3725199645089
 30
0.0
 10
462.1218483961655
 20
426.3850450825828
 30
0.0
 10
462.0372540360044
 20
426.4068871972625
 30
0.0
 10
461.9147711664283
 20
426.4259495492146
 30
0.0
 10
461.8411975811415
 20
426.4318588998989
 30
0.0
 10
461.8043557712108
 20
426.43481799417
 30
0.0
  0
SPLINE
  5
160
330
1F
100
AcDbEntity
  8
0
  6
Continuous
 62
     7
370
    25
100
AcDbSpline
210
0.0
220
0.0
230
1.0
 70
     8
 71
     3
 72
    10
 73
     6
 74
     0
 42
0.000000001
 43
0.00000001
 40
0.0
 40
0.0
 40
0.0
 40
0.0
 40
0.4109662558519593
 40
0.7050379702222307
 40
1.0
 40
1.0
 40
1.0
 40
1.0
 10
629.7153488704234
 20
426.4208816831635
 30
0.0
 10
629.665987246699
 20
426.4164100610978
 30
0.0
 10
629.5813043353849
 20
426.4087387175267
 30
0.0
 10
629.461989879803
 20
426.3868637580864
 30
0.0
 10
629.3925768383937
 20
426.3684244601475
 30
0.0
 10
629.3578178593189
 20
426.359190875821
 30
0.0
  0
SPLINE
  5
161
330
1F
100
AcDbEntity
  8
0
  6
Continuous
 62
     7
370
    25
100
AcDbSpline
210
0.0
220
0.0
230
1.0
 70
     8
 71
     3
 72
    11
 73
     7
 74
     0
 42
0.000000001
 43
0.00000001
 40
0.0
 40
0.0
 40
0.0
 40
0.0
 40
0.0739291154550812
 40
0.3688243013728837
 40
0.8921060672123062
 40
1.0
 40
1.0
 40
1.0
 40
1.0
 10
461.763206214574
 20
426.4377795999573
 30
0.0
 10
461.7636558184859
 20
426.437730076997
 30
0.0
 10
461.7658988434115
 20
426.4374830123439
 30
0.0
 10
461.7762426553456
 20
426.4366344966955
 30
0.0
 10
461.7913750904241
 20
426.4356262755418
 30
0.0
 10
461.8024607715506
 20
426.4349359920586
 30
0.0
 10
461.8043557712107
 20
426.43481799417
 30
0.0
  0
LINE
  5
162
330
1F
100
AcDbEntity
  8
0
  6
Continuous
 62
     7
370
    25
100
AcDbLine
 10
461.7630795547
 20
427.132423306
 30
0.0
 11
461.7630348512
 21
426.4378019517
 31
0.0
  0
SPLINE
  5
163
330
1F
100
AcDbEntity
  8
0
  6
Continuous
 62
     7
370
    25
100
AcDbSpline
210
0.0
220
0.0
230
1.0
 70
     8
 71
     3
 72
    10
 73
     6
 74
     0
 42
0.000000001
 43
0.00000001
 40
0.0
 40
0.0
 40
0.0
 40
0.0
 40
0.7357079907245441
 40
0.9901984241437213
 40
1.0
 40
1.0
 40
1.0
 40
1.0
 10
629.7153488704234
 20
426.4208816831635
 30
0.0
 10
629.7275624831932
 20
426.4217130811469
 30
0.0
 10
629.7440009346851
 20
426.4228320699079
 30
0.0
 10
629.7538844715589
 20
426.4238631112581
 30
0.0
 10
629.7556146958201
 20
426.4240631143136
 30
0.0
 10
629.7556788631946
 20
426.424070531659
 30
0.0
  0
SPLINE
  5
164
330
1F
100
AcDbEntity
  8
0
  6
Continuous
 62
     7
370
    25
100
AcDbSpline
210
0.0
220
0.0
230
1.0
 70
     8
 71
     3
 72
    10
 73
     6
 74
     0
 42
0.000000001
 43
0.00000001
 40
0.0
 40
0.0
 40
0.0
 40
0.0
 40
0.0899127185533458
 40
0.4495636347195787
 40
1.0
 40
1.0
 40
1.0
 40
1.0
 10
629.7562004038364
 20
426.4241413121746
 30
0.0
 10
629.7562028229725
 20
426.4530098394484
 30
0.0
 10
629.7562149186539
 20
426.5973524892873
 30
0.0
 10
629.7562525662546
 20
426.9184234448178
 30
0.0
 10
629.7562850594961
 20
427.2106103677884
 30
0.0
 10
629.7563047119647
 20
427.3873300200032
 30
0.0
  0
LINE
  5
165
330
1F
100
AcDbEntity
  8
0
  6
Continuous
 62
     7
370
    25
100
AcDbLine
 10
461.7642865488
 20
426.4381335025
 30
0.0
 11
461.762967796
 21
426.4377497976
 31
0.0
  0
LINE
  5
166
330
1F
100
AcDbEntity
  8
0
  6
Continuous
 62
     7
370
    25
100
AcDbLine
 10
487.8274642834
 20
479.8025758147
 30
0.0
 11
485.8974249074
 21
481.0707536609
 31
0.0
  0
LINE
  5
167
330
1F
100
AcDbEntity
  8
0
  6
Continuous
 62
     7
370
    25
100
AcDbLine
 10
490.0240109273
 20
483.1455026662
 30
0.0
 11
489.8907572934
 21
480.8399503028
 31
0.0
  0
CIRCLE
  5
168
330
1F
100
AcDbEntity
  8
0
  6
Continuous
 62
     7
370
    25
100
AcDbCircle
 10
487.9607176211
 20
482.1081281566
 30
0.0
 40
3.825000000000027
  0
LINE
  5
169
330
1F
100
AcDbEntity
  8
0
  6
Continuous
 62
     7
370
    25
100
AcDbLine
 10
488.0939715513
 20
484.4136804251
 30
0.0
 11
490.0240109273
 21
483.1455026662
 31
0.0
  0
LINE
  5
16A
330
1F
100
AcDbEntity
  8
0
  6
Continuous
 62
     7
370
    25
100
AcDbLine
 10
486.0306785413
 20
483.3763060534
 30
0.0
 11
488.0939715513
 21
484.4136804251
 31
0.0
  0
LINE
  5
16B
330
1F
100
AcDbEntity
  8
0
  6
Continuous
 62
     7
370
    25
100
AcDbLine
 10
485.8974249074
 20
481.0707536609
 30
0.0
 11
486.0306785413
 21
483.3763060534
 31
0.0
  0
LINE
  5
16C
330
1F
100
AcDbEntity
  8
0
  6
Continuous
 62
     7
370
    25
100
AcDbLine
 10
489.8907572934
 20
480.8399503028
 30
0.0
 11
487.8274642834
 21
479.8025758147
 31
0.0
  0
LINE
  5
16D
330
1F
100
AcDbEntity
  8
0
  6
Continuous
 62
     7
370
    25
100
AcDbLine
 10
601.1495546409
 20
480.3052193394
 30
0.0
 11
602.1206297883
 21
482.4005322672
 31
0.0
  0
LINE
  5
16E
330
1F
100
AcDbEntity
  8
0
  6
Continuous
 62
     7
370
    25
100
AcDbLine
 10
602.4786078342
 20
478.4165849352
 30
0.0
 11
601.1495546409
 21
480.3052193394
 31
0.0
  0
LINE
  5
16F
330
1F
100
AcDbEntity
  8
0
  6
Continuous
 62
     7
370
    25
100
AcDbLine
 10
604.7787436255
 20
478.6232633425
 30
0.0
 11
602.4786078342
 21
478.4165849352
 31
0.0
  0
LINE
  5
170
330
1F
100
AcDbEntity
  8
0
  6
Continuous
 62
     7
370
    25
100
AcDbLine
 10
605.7498187729
 20
480.7185764449
 30
0.0
 11
604.7787436255
 21
478.6232633425
 31
0.0
  0
LINE
  5
171
330
1F
100
AcDbEntity
  8
0
  6
Continuous
 62
     7
370
    25
100
AcDbLine
 10
604.4207655796
 20
482.6072109073
 30
0.0
 11
605.7498187729
 21
480.7185764449
 31
0.0
  0
LINE
  5
172
330
1F
100
AcDbEntity
  8
0
  6
Continuous
 62
     7
370
    25
100
AcDbLine
 10
602.1206297883
 20
482.4005322672
 30
0.0
 11
604.4207655796
 21
482.6072109073
 31
0.0
  0
CIRCLE
  5
173
330
1F
100
AcDbEntity
  8
0
  6
Continuous
 62
     7
370
    25
100
AcDbCircle
 10
603.4496870031
 20
480.5118978846
 30
0.0
 40
3.825000000000048
  0
CIRCLE
  5
174
330
1F
100
AcDbEntity
  8
0
  6
Continuous
 62
     7
370
    25
100
AcDbCircle
 10
603.4496870031
 20
480.5118978846
 30
0.0
 40
4.250000000000027
  0
LINE
  5
175
330
1F
100
AcDbEntity
  8
0
  6
Continuous
 62
     7
370
    25
100
AcDbLine
 10
543.455202409
 20
581.2958137041
 30
0.0
 11
544.0201593301
 21
581.2958137041
 31
0.0
  0
LINE
  5
176
330
1F
100
AcDbEntity
  8
0
  6
Continuous
 62
     7
370
    25
100
AcDbLine
 10
547.3902452941
 20
581.2958137041
 30
0.0
 11
547.9552022153
 21
581.2958137041
 31
0.0
  0
LINE
  5
177
330
1F
100
AcDbEntity
  8
0
  6
Continuous
 62
     7
370
    25
100
AcDbLine
 10
645.6910029956
 20
483.5600129237
 30
0.0
 11
645.6910029956
 21
482.9950560026
 31
0.0
  0
LINE
  5
178
330
1F
100
AcDbEntity
  8
0
  6
Continuous
 62
     7
370
    25
100
AcDbLine
 10
645.6910029956
 20
479.6249700386
 30
0.0
 11
645.6910029956
 21
479.0600131174
 31
0.0
  0
LINE
  5
179
330
1F
100
AcDbEntity
  8
0
  6
Continuous
 62
     7
370
    25
100
AcDbLine
 10
445.7194016286
 20
479.0600131174
 30
0.0
 11
445.7194016286
 21
479.6249700386
 31
0.0
  0
LINE
  5
17A
330
1F
100
AcDbEntity
  8
0
  6
Continuous
 62
     7
370
    25
100
AcDbLine
 10
445.7194016286
 20
482.9950560026
 30
0.0
 11
445.7194016286
 21
483.5600129237
 31
0.0
  0
LINE
  5
17B
330
1F
100
AcDbEntity
  8
0
  6
Continuous
 62
     8
370
    25
100
AcDbLine
 10
461.8044004747
 20
426.8981025463
 30
0.0
 11
461.8043557712
 21
426.4348179942
 31
0.0
  0
LINE
  5
17C
330
1F
100
AcDbEntity
  8
0
  6
Continuous
 62
     8
370
    25
100
AcDbLine
 10
629.7154159256
 20
427.0671860223
 30
0.0
 11
629.7153488704
 21
426.4208816832
 31
0.0
  0
ENDSEC
  0
SECTION
  2
OBJECTS
  0
DICTIONARY
  5
C
330
0
100
AcDbDictionary
281
     1
  3
ACAD_GROUP
350
D
  3
ACAD_LAYOUT
350
1A
  3
ACAD_MLINESTYLE
350
17
  3
ACAD_PLOTSETTINGS
350
19
  3
ACAD_PLOTSTYLENAME
350
E
  3
ACAD_SCALELIST
350
47
  3
APPDATA
350
19E
  3
DWGPROPS
350
19F
  0
DICTIONARY
  5
D
102
{ACAD_REACTORS
330
C
102
}
330
C
100
AcDbDictionary
281
     1
  0
DICTIONARY
  5
1A
102
{ACAD_REACTORS
330
C
102
}
330
C
100
AcDbDictionary
281
     1
  3
Layout1
350
1E
  3
Layout2
350
26
  3
Model
350
22
  0
DICTIONARY
  5
17
102
{ACAD_REACTORS
330
C
102
}
330
C
100
AcDbDictionary
281
     1
  3
Standard
350
18
  0
DICTIONARY
  5
19
102
{ACAD_REACTORS
330
C
102
}
330
C
100
AcDbDictionary
281
     1
  0
ACDBDICTIONARYWDFLT
  5
E
102
{ACAD_REACTORS
330
C
102
}
330
C
100
AcDbDictionary
281
     1
  3
Normal
350
F
100
AcDbDictionaryWithDefault
340
F
  0
DICTIONARY
  5
47
102
{ACAD_REACTORS
330
C
102
}
330
C
100
AcDbDictionary
281
     1
  3
A0
350
48
  3
A1
350
49
  3
A2
350
4A
  3
A3
350
4B
  3
A4
350
4C
  3
A5
350
4D
  3
A6
350
4E
  3
A7
350
4F
  3
A8
350
50
  3
A9
350
51
  3
B0
350
52
  3
B1
350
53
  3
B2
350
54
  3
B3
350
55
  3
B4
350
56
  3
B5
350
57
  3
B6
350
58
  3
B7
350
59
  3
B8
350
5A
  3
B9
350
5B
  3
C0
350
5C
  3
C1
350
5D
  3
C2
350
5E
  3
C3
350
5F
  3
C4
350
60
  3
C5
350
61
  3
C6
350
62
  3
C7
350
63
  3
C8
350
64
  3
C9
350
65
  3
D0
350
66
  3
D1
350
67
  3
D2
350
68
  0
DICTIONARY
  5
19E
102
{ACAD_REACTORS
330
C
102
}
330
C
100
AcDbDictionary
281
     1
  0
XRECORD
  5
19F
102
{ACAD_REACTORS
330
C
102
}
330
C
100
AcDbXrecord
280
     1
  1
DWGPROPS COOKIE
  2

  3

  4

  6

  7

  8
mbuyukdag
  9

300
=
301
=
302
=
303
=
304
=
305
=
306
=
307
=
308
=
309
=
 40
0.0
 41
2459072.575932998
 42
2459072.578536447
  1

 90
        0
  0
LAYOUT
  5
1E
102
{ACAD_REACTORS
330
1A
102
}
330
1A
100
AcDbPlotSettings
  1

  2
none_device
  4

  6

 40
0.0
 41
0.0
 42
0.0
 43
0.0
 44
0.0
 45
0.0
 46
0.0
 47
0.0
 48
0.0
 49
0.0
140
0.0
141
0.0
142
1.0
143
1.0
 70
   688
 72
     1
 73
     0
 74
     5
  7

 75
    16
147
1.0
148
0.0
149
0.0
100
AcDbLayout
  1
Layout1
 70
     1
 71
     1
 10
0.0
 20
0.0
 11
420.0
 21
297.0
 12
0.0
 22
0.0
 32
0.0
 14
1.000000000000000E+20
 24
1.000000000000000E+20
 34
1.000000000000000E+20
 15
-1.000000000000000E+20
 25
-1.000000000000000E+20
 35
-1.000000000000000E+20
146
0.0
 13
0.0
 23
0.0
 33
0.0
 16
1.0
 26
0.0
 36
0.0
 17
0.0
 27
1.0
 37
0.0
 76
     0
330
1B
  0
LAYOUT
  5
26
102
{ACAD_REACTORS
330
1A
102
}
330
1A
100
AcDbPlotSettings
  1

  2
none_device
  4

  6

 40
0.0
 41
0.0
 42
0.0
 43
0.0
 44
0.0
 45
0.0
 46
0.0
 47
0.0
 48
0.0
 49
0.0
140
0.0
141
0.0
142
1.0
143
1.0
 70
   688
 72
     1
 73
     0
 74
     5
  7

 75
    16
147
1.0
148
0.0
149
0.0
100
AcDbLayout
  1
Layout2
 70
     1
 71
     2
 10
0.0
 20
0.0
 11
0.0
 21
0.0
 12
0.0
 22
0.0
 32
0.0
 14
0.0
 24
0.0
 34
0.0
 15
0.0
 25
0.0
 35
0.0
146
0.0
 13
0.0
 23
0.0
 33
0.0
 16
1.0
 26
0.0
 36
0.0
 17
0.0
 27
1.0
 37
0.0
 76
     0
330
23
  0
LAYOUT
  5
22
102
{ACAD_REACTORS
330
1A
102
}
330
1A
100
AcDbPlotSettings
  1

  2
none_device
  4
Letter_(8.50_x_11.00_Inches)
  6

 40
6.35
 41
6.35
 42
6.35000508
 43
6.35000508
 44
215.9
 45
279.4
 46
0.0
 47
0.0
 48
0.0
 49
0.0
140
0.0
141
0.0
142
1.0
143
1.0
 70
  1712
 72
     1
 73
     0
 74
     0
  7

 75
     0
147
1.0
148
0.0
149
0.0
100
AcDbLayout
  1
Model
 70
     1
 71
     0
 10
0.0
 20
0.0
 11
1500.0
 21
1500.0
 12
0.0
 22
0.0
 32
0.0
 14
445.6528371173154
 24
381.2686310058
 34
0.0
 15
890.5689407454
 25
1052.1921965318
 35
0.0
146
0.0
 13
0.0
 23
0.0
 33
0.0
 16
1.0
 26
0.0
 36
0.0
 17
0.0
 27
1.0
 37
0.0
 76
     0
330
1F
331
29
  0
MLINESTYLE
  5
18
102
{ACAD_REACTORS
330
17
102
}
330
17
100
AcDbMlineStyle
  2
Standard
 70
     0
  3

 62
   256
 51
90.0
 52
90.0
 71
     2
 49
0.5
 62
   256
  6
BYLAYER
 49
-0.5
 62
   256
  6
BYLAYER
  0
ACDBPLACEHOLDER
  5
F
102
{ACAD_REACTORS
330
E
102
}
330
E
  0
SCALE
  5
48
102
{ACAD_REACTORS
330
47
102
}
330
47
100
AcDbScale
 70
     0
300
1:1
140
1.0
141
1.0
290
     1
  0
SCALE
  5
49
102
{ACAD_REACTORS
330
47
102
}
330
47
100
AcDbScale
 70
     0
300
1:2
140
1.0
141
2.0
290
     0
  0
SCALE
  5
4A
102
{ACAD_REACTORS
330
47
102
}
330
47
100
AcDbScale
 70
     0
300
1:4
140
1.0
141
4.0
290
     0
  0
SCALE
  5
4B
102
{ACAD_REACTORS
330
47
102
}
330
47
100
AcDbScale
 70
     0
300
1:5
140
1.0
141
5.0
290
     0
  0
SCALE
  5
4C
102
{ACAD_REACTORS
330
47
102
}
330
47
100
AcDbScale
 70
     0
300
1:8
140
1.0
141
8.0
290
     0
  0
SCALE
  5
4D
102
{ACAD_REACTORS
330
47
102
}
330
47
100
AcDbScale
 70
     0
300
1:10
140
1.0
141
10.0
290
     0
  0
SCALE
  5
4E
102
{ACAD_REACTORS
330
47
102
}
330
47
100
AcDbScale
 70
     0
300
1:16
140
1.0
141
16.0
290
     0
  0
SCALE
  5
4F
102
{ACAD_REACTORS
330
47
102
}
330
47
100
AcDbScale
 70
     0
300
1:20
140
1.0
141
20.0
290
     0
  0
SCALE
  5
50
102
{ACAD_REACTORS
330
47
102
}
330
47
100
AcDbScale
 70
     0
300
1:30
140
1.0
141
30.0
290
     0
  0
SCALE
  5
51
102
{ACAD_REACTORS
330
47
102
}
330
47
100
AcDbScale
 70
     0
300
1:40
140
1.0
141
40.0
290
     0
  0
SCALE
  5
52
102
{ACAD_REACTORS
330
47
102
}
330
47
100
AcDbScale
 70
     0
300
1:50
140
1.0
141
50.0
290
     0
  0
SCALE
  5
53
102
{ACAD_REACTORS
330
47
102
}
330
47
100
AcDbScale
 70
     0
300
1:100
140
1.0
141
100.0
290
     0
  0
SCALE
  5
54
102
{ACAD_REACTORS
330
47
102
}
330
47
100
AcDbScale
 70
     0
300
2:1
140
2.0
141
1.0
290
     0
  0
SCALE
  5
55
102
{ACAD_REACTORS
330
47
102
}
330
47
100
AcDbScale
 70
     0
300
4:1
140
4.0
141
1.0
290
     0
  0
SCALE
  5
56
102
{ACAD_REACTORS
330
47
102
}
330
47
100
AcDbScale
 70
     0
300
8:1
140
8.0
141
1.0
290
     0
  0
SCALE
  5
57
102
{ACAD_REACTORS
330
47
102
}
330
47
100
AcDbScale
 70
     0
300
10:1
140
10.0
141
1.0
290
     0
  0
SCALE
  5
58
102
{ACAD_REACTORS
330
47
102
}
330
47
100
AcDbScale
 70
     0
300
100:1
140
100.0
141
1.0
290
     0
  0
SCALE
  5
59
102
{ACAD_REACTORS
330
47
102
}
330
47
100
AcDbScale
 70
     0
300
1/128" = 1'-0"
140
0.0078125
141
12.0
290
     0
  0
SCALE
  5
5A
102
{ACAD_REACTORS
330
47
102
}
330
47
100
AcDbScale
 70
     0
300
1/64" = 1'-0"
140
0.015625
141
12.0
290
     0
  0
SCALE
  5
5B
102
{ACAD_REACTORS
330
47
102
}
330
47
100
AcDbScale
 70
     0
300
1/32" = 1'-0"
140
0.03125
141
12.0
290
     0
  0
SCALE
  5
5C
102
{ACAD_REACTORS
330
47
102
}
330
47
100
AcDbScale
 70
     0
300
1/16" = 1'-0"
140
0.0625
141
12.0
290
     0
  0
SCALE
  5
5D
102
{ACAD_REACTORS
330
47
102
}
330
47
100
AcDbScale
 70
     0
300
3/32" = 1'-0"
140
0.09375
141
12.0
290
     0
  0
SCALE
  5
5E
102
{ACAD_REACTORS
330
47
102
}
330
47
100
AcDbScale
 70
     0
300
1/8" = 1'-0"
140
0.125
141
12.0
290
     0
  0
SCALE
  5
5F
102
{ACAD_REACTORS
330
47
102
}
330
47
100
AcDbScale
 70
     0
300
3/16" = 1'-0"
140
0.1875
141
12.0
290
     0
  0
SCALE
  5
60
102
{ACAD_REACTORS
330
47
102
}
330
47
100
AcDbScale
 70
     0
300
1/4" = 1'-0"
140
0.25
141
12.0
290
     0
  0
SCALE
  5
61
102
{ACAD_REACTORS
330
47
102
}
330
47
100
AcDbScale
 70
     0
300
3/8" = 1'-0"
140
0.375
141
12.0
290
     0
  0
SCALE
  5
62
102
{ACAD_REACTORS
330
47
102
}
330
47
100
AcDbScale
 70
     0
300
1/2" = 1'-0"
140
0.5
141
12.0
290
     0
  0
SCALE
  5
63
102
{ACAD_REACTORS
330
47
102
}
330
47
100
AcDbScale
 70
     0
300
3/4" = 1'-0"
140
0.75
141
12.0
290
     0
  0
SCALE
  5
64
102
{ACAD_REACTORS
330
47
102
}
330
47
100
AcDbScale
 70
     0
300
1" = 1'-0"
140
1.0
141
12.0
290
     0
  0
SCALE
  5
65
102
{ACAD_REACTORS
330
47
102
}
330
47
100
AcDbScale
 70
     0
300
1-1/2" = 1'-0"
140
1.5
141
12.0
290
     0
  0
SCALE
  5
66
102
{ACAD_REACTORS
330
47
102
}
330
47
100
AcDbScale
 70
     0
300
3" = 1'-0"
140
3.0
141
12.0
290
     0
  0
SCALE
  5
67
102
{ACAD_REACTORS
330
47
102
}
330
47
100
AcDbScale
 70
     0
300
6" = 1'-0"
140
6.0
141
12.0
290
     0
  0
SCALE
  5
68
102
{ACAD_REACTORS
330
47
102
}
330
47
100
AcDbScale
 70
     0
300
1'-0" = 1'-0"
140
12.0
141
12.0
290
     0
  0
ENDSEC
  0
EOF
