  0
SECTION
  2
HEADER
  9
$ACADVER
  1
AC1015
  9
$ACADMAINTVER
 70
     6
  9
$DWGCODEPAGE
  3
ANSI_1254
  9
$INSBASE
 10
0.0
 20
0.0
 30
0.0
  9
$EXTMIN
 10
419.4992519720154
 20
293.1336364975
 30
0.0
  9
$EXTMAX
 10
873.2705061539
 20
1416.7994764698
 30
0.0
  9
$LIMMIN
 10
0.0
 20
0.0
  9
$LIMMAX
 10
1500.0
 20
1500.0
  9
$ORTHOMODE
 70
     0
  9
$REGENMODE
 70
     1
  9
$FILLMODE
 70
     1
  9
$QTEXTMODE
 70
     0
  9
$MIRRTEXT
 70
     1
  9
$LTSCALE
 40
1.0
  9
$ATTMODE
 70
     1
  9
$TEXTSIZE
 40
4.9388888889
  9
$TRACEWID
 40
1.0
  9
$TEXTSTYLE
  7
Standard
  9
$CLAYER
  8
0
  9
$CELTYPE
  6
ByLayer
  9
$CECOLOR
 62
   256
  9
$CELTSCALE
 40
1.0
  9
$DISPSILH
 70
     0
  9
$DIMSCALE
 40
1.0
  9
$DIMASZ
 40
3.65
  9
$DIMEXO
 40
0.5
  9
$DIMDLI
 40
3.75
  9
$DIMRND
 40
0.0
  9
$DIMDLE
 40
0.0
  9
$DIMEXE
 40
1.0
  9
$DIMTP
 40
0.0
  9
$DIMTM
 40
0.0
  9
$DIMTXT
 40
2.6458333333
  9
$DIMCEN
 40
2.5
  9
$DIMTSZ
 40
0.0
  9
$DIMTOL
 70
     0
  9
$DIMLIM
 70
     0
  9
$DIMTIH
 70
     1
  9
$DIMTOH
 70
     1
  9
$DIMSE1
 70
     0
  9
$DIMSE2
 70
     0
  9
$DIMTAD
 70
     1
  9
$DIMZIN
 70
     0
  9
$DIMBLK
  1

  9
$DIMASO
 70
     1
  9
$DIMSHO
 70
     1
  9
$DIMPOST
  1

  9
$DIMAPOST
  1

  9
$DIMALT
 70
     0
  9
$DIMALTD
 70
     3
  9
$DIMALTF
 40
0.0393700787
  9
$DIMLFAC
 40
1.0
  9
$DIMTOFL
 70
     1
  9
$DIMTVP
 40
0.0
  9
$DIMTIX
 70
     0
  9
$DIMSOXD
 70
     0
  9
$DIMSAH
 70
     0
  9
$DIMBLK1
  1

  9
$DIMBLK2
  1

  9
$DIMSTYLE
  2
ISO-25
  9
$DIMCLRD
 70
     0
  9
$DIMCLRE
 70
     0
  9
$DIMCLRT
 70
     0
  9
$DIMTFAC
 40
1.0
  9
$DIMGAP
 40
1.524
  9
$DIMJUST
 70
     0
  9
$DIMSD1
 70
     0
  9
$DIMSD2
 70
     0
  9
$DIMTOLJ
 70
     0
  9
$DIMTZIN
 70
     0
  9
$DIMALTZ
 70
     0
  9
$DIMALTTZ
 70
     0
  9
$DIMUPT
 70
     0
  9
$DIMDEC
 70
     2
  9
$DIMTDEC
 70
     2
  9
$DIMALTU
 70
     2
  9
$DIMALTTD
 70
     3
  9
$DIMTXSTY
  7
Standard
  9
$DIMAUNIT
 70
     0
  9
$DIMADEC
 70
     2
  9
$DIMALTRND
 40
0.0
  9
$DIMAZIN
 70
     0
  9
$DIMDSEP
 70
    44
  9
$DIMATFIT
 70
     3
  9
$DIMFRAC
 70
     0
  9
$DIMLDRBLK
  1

  9
$DIMLUNIT
 70
     2
  9
$DIMLWD
 70
    -2
  9
$DIMLWE
 70
    -2
  9
$DIMTMOVE
 70
     0
  9
$LUNITS
 70
     2
  9
$LUPREC
 70
     2
  9
$SKETCHINC
 40
1.0
  9
$FILLETRAD
 40
10.0
  9
$AUNITS
 70
     0
  9
$AUPREC
 70
     2
  9
$MENU
  1
.
  9
$ELEVATION
 40
0.0
  9
$PELEVATION
 40
0.0
  9
$THICKNESS
 40
0.0
  9
$LIMCHECK
 70
     0
  9
$CHAMFERA
 40
0.0
  9
$CHAMFERB
 40
0.0
  9
$CHAMFERC
 40
0.0
  9
$CHAMFERD
 40
0.0
  9
$SKPOLY
 70
     0
  9
$TDCREATE
 40
2459072.706820579
  9
$TDUCREATE
 40
2459072.581820579
  9
$TDUPDATE
 40
2459072.711804282
  9
$TDUUPDATE
 40
2459072.586804282
  9
$TDINDWG
 40
0.004074375
  9
$TDUSRTIMER
 40
0.0040743634
  9
$USRTIMER
 70
     1
  9
$ANGBASE
 50
0.0
  9
$ANGDIR
 70
     0
  9
$PDMODE
 70
     0
  9
$PDSIZE
 40
-1.0
  9
$PLINEWID
 40
0.0
  9
$SPLFRAME
 70
     0
  9
$SPLINETYPE
 70
     6
  9
$SPLINESEGS
 70
     8
  9
$HANDSEED
  5
1DB
  9
$SURFTAB1
 70
     6
  9
$SURFTAB2
 70
     6
  9
$SURFTYPE
 70
     6
  9
$SURFU
 70
     6
  9
$SURFV
 70
     6
  9
$UCSBASE
  2

  9
$UCSNAME
  2

  9
$UCSORG
 10
0.0
 20
0.0
 30
0.0
  9
$UCSXDIR
 10
1.0
 20
0.0
 30
0.0
  9
$UCSYDIR
 10
0.0
 20
1.0
 30
0.0
  9
$UCSORTHOREF
  2

  9
$UCSORTHOVIEW
 70
     0
  9
$UCSORGTOP
 10
0.0
 20
0.0
 30
0.0
  9
$UCSORGBOTTOM
 10
0.0
 20
0.0
 30
0.0
  9
$UCSORGLEFT
 10
0.0
 20
0.0
 30
0.0
  9
$UCSORGRIGHT
 10
0.0
 20
0.0
 30
0.0
  9
$UCSORGFRONT
 10
0.0
 20
0.0
 30
0.0
  9
$UCSORGBACK
 10
0.0
 20
0.0
 30
0.0
  9
$PUCSBASE
  2

  9
$PUCSNAME
  2

  9
$PUCSORG
 10
0.0
 20
0.0
 30
0.0
  9
$PUCSXDIR
 10
1.0
 20
0.0
 30
0.0
  9
$PUCSYDIR
 10
0.0
 20
1.0
 30
0.0
  9
$PUCSORTHOREF
  2

  9
$PUCSORTHOVIEW
 70
     0
  9
$PUCSORGTOP
 10
0.0
 20
0.0
 30
0.0
  9
$PUCSORGBOTTOM
 10
0.0
 20
0.0
 30
0.0
  9
$PUCSORGLEFT
 10
0.0
 20
0.0
 30
0.0
  9
$PUCSORGRIGHT
 10
0.0
 20
0.0
 30
0.0
  9
$PUCSORGFRONT
 10
0.0
 20
0.0
 30
0.0
  9
$PUCSORGBACK
 10
0.0
 20
0.0
 30
0.0
  9
$USERI1
 70
     0
  9
$USERI2
 70
     0
  9
$USERI3
 70
     0
  9
$USERI4
 70
     0
  9
$USERI5
 70
     0
  9
$USERR1
 40
0.0
  9
$USERR2
 40
0.0
  9
$USERR3
 40
0.0
  9
$USERR4
 40
0.0
  9
$USERR5
 40
0.0
  9
$WORLDVIEW
 70
     1
  9
$SHADEDGE
 70
     3
  9
$SHADEDIF
 70
    70
  9
$TILEMODE
 70
     1
  9
$MAXACTVP
 70
    64
  9
$PINSBASE
 10
0.0
 20
0.0
 30
0.0
  9
$PLIMCHECK
 70
     0
  9
$PEXTMIN
 10
1.000000000000000E+20
 20
1.000000000000000E+20
 30
1.000000000000000E+20
  9
$PEXTMAX
 10
-1.000000000000000E+20
 20
-1.000000000000000E+20
 30
-1.000000000000000E+20
  9
$PLIMMIN
 10
0.0
 20
0.0
  9
$PLIMMAX
 10
0.0
 20
0.0
  9
$UNITMODE
 70
     0
  9
$VISRETAIN
 70
     1
  9
$PLINEGEN
 70
     0
  9
$PSLTSCALE
 70
     1
  9
$TREEDEPTH
 70
  3020
  9
$CMLSTYLE
  2
Standard
  9
$CMLJUST
 70
     0
  9
$CMLSCALE
 40
20.0
  9
$PROXYGRAPHICS
 70
     1
  9
$MEASUREMENT
 70
     1
  9
$CELWEIGHT
370
    -1
  9
$ENDCAPS
280
     0
  9
$JOINSTYLE
280
     0
  9
$LWDISPLAY
290
     1
  9
$INSUNITS
 70
     4
  9
$HYPERLINKBASE
  1

  9
$STYLESHEET
  1

  9
$XEDIT
290
     1
  9
$CEPSNTYPE
380
     0
  9
$PSTYLEMODE
290
     1
  9
$FINGERPRINTGUID
  2
{c4ef4d2b-59c0-4bdf-adbc-4a53018556cc}
  9
$VERSIONGUID
  2
{FAEB1C32-E019-11D5-929B-00C0DF256EC4}
  9
$EXTNAMES
290
     1
  9
$PSVPSCALE
 40
0.0
  9
$OLESTARTUP
290
     0
  0
ENDSEC
  0
SECTION
  2
CLASSES
  0
CLASS
  1
ACDBDICTIONARYWDFLT
  2
AcDbDictionaryWithDefault
  3
ObjectDBX Classes
 90
        0
280
     0
281
     0
  0
CLASS
  1
VISUALSTYLE
  2
AcDbVisualStyle
  3
ObjectDBX Classes
 90
     4095
280
     0
281
     0
  0
CLASS
  1
MATERIAL
  2
AcDbMaterial
  3
ObjectDBX Classes
 90
     1153
280
     0
281
     0
  0
CLASS
  1
SCALE
  2
AcDbScale
  3
ObjectDBX Classes
 90
     1153
280
     0
281
     0
  0
CLASS
  1
TABLESTYLE
  2
AcDbTableStyle
  3
ObjectDBX Classes
 90
     4095
280
     0
281
     0
  0
CLASS
  1
MLEADERSTYLE
  2
AcDbMLeaderStyle
  3
ACDB_MLEADERSTYLE_CLASS
 90
     4095
280
     0
281
     0
  0
CLASS
  1
SUN
  2
AcDbSun
  3
SCENEOE
 90
     1153
280
     0
281
     0
  0
CLASS
  1
ACDBPLACEHOLDER
  2
AcDbPlaceHolder
  3
ObjectDBX Classes
 90
        0
280
     0
281
     0
  0
CLASS
  1
LAYOUT
  2
AcDbLayout
  3
ObjectDBX Classes
 90
        0
280
     0
281
     0
  0
ENDSEC
  0
SECTION
  2
TABLES
  0
TABLE
  2
VPORT
  5
8
330
0
100
AcDbSymbolTable
 70
     1
  0
VPORT
  5
29
330
8
100
AcDbSymbolTableRecord
100
AcDbViewportTableRecord
  2
*Active
 70
     0
 10
0.0
 20
0.0
 11
1.0
 21
1.0
 12
646.38487957505
 22
854.96655648365
 13
0.0
 23
0.0
 14
10.0
 24
10.0
 15
10.0
 25
10.0
 16
0.0
 26
0.0
 36
1.0
 17
0.0
 27
0.0
 37
0.0
 40
1146.139156771746
 41
2.328467153284671
 42
50.0
 43
0.0
 44
0.0
 50
0.0
 51
0.0
 71
    16
 72
  2000
 73
     1
 74
     3
 75
     0
 76
     0
 77
     0
 78
     0
281
     0
 65
     1
110
0.0
120
0.0
130
0.0
111
1.0
121
0.0
131
0.0
112
0.0
122
1.0
132
0.0
 79
     0
146
0.0
  0
ENDTAB
  0
TABLE
  2
LTYPE
  5
5
330
0
100
AcDbSymbolTable
 70
     6
  0
LTYPE
  5
14
330
5
100
AcDbSymbolTableRecord
100
AcDbLinetypeTableRecord
  2
ByBlock
 70
     0
  3

 72
    65
 73
     0
 40
0.0
  0
LTYPE
  5
15
330
5
100
AcDbSymbolTableRecord
100
AcDbLinetypeTableRecord
  2
ByLayer
 70
     0
  3

 72
    65
 73
     0
 40
0.0
  0
LTYPE
  5
16
330
5
100
AcDbSymbolTableRecord
100
AcDbLinetypeTableRecord
  2
Continuous
 70
     0
  3
Solid line
 72
    65
 73
     0
 40
0.0
  0
LTYPE
  5
6E
330
5
100
AcDbSymbolTableRecord
100
AcDbLinetypeTableRecord
  2
HIDDEN
 70
     0
  3
Hidden __ __ __ __ __ __ __ __ __ __ __ __ __ __
 72
    65
 73
     2
 40
1.905
 49
1.27
 74
     0
 49
-0.635
 74
     0
  0
LTYPE
  5
6F
330
5
100
AcDbSymbolTableRecord
100
AcDbLinetypeTableRecord
  2
PHANTOM
 70
     0
  3
Phantom ______  __  __  ______  __  __  ______
 72
    65
 73
     6
 40
12.7
 49
6.35
 74
     0
 49
-1.27
 74
     0
 49
1.27
 74
     0
 49
-1.27
 74
     0
 49
1.27
 74
     0
 49
-1.27
 74
     0
  0
LTYPE
  5
70
330
5
100
AcDbSymbolTableRecord
100
AcDbLinetypeTableRecord
  2
CENTER
 70
     0
  3
Center ____ _ ____ _ ____ _ ____ _ ____ _ ____
 72
    65
 73
     4
 40
10.16
 49
6.35
 74
     0
 49
-1.27
 74
     0
 49
1.27
 74
     0
 49
-1.27
 74
     0
  0
LTYPE
  5
71
330
5
100
AcDbSymbolTableRecord
100
AcDbLinetypeTableRecord
  2
CENTERX2
 70
     0
  3
Center (2x) ________  __  ________  __  _____
 72
    65
 73
     4
 40
20.32
 49
12.7
 74
     0
 49
-2.54
 74
     0
 49
2.54
 74
     0
 49
-2.54
 74
     0
  0
LTYPE
  5
72
330
5
100
AcDbSymbolTableRecord
100
AcDbLinetypeTableRecord
  2
DOT2
 70
     0
  3
Dot (.5x) ........................................
 72
    65
 73
     2
 40
0.635
 49
0.0
 74
     0
 49
-0.635
 74
     0
  0
ENDTAB
  0
TABLE
  2
LAYER
  5
2
330
0
100
AcDbSymbolTable
 70
     6
  0
LAYER
  5
10
330
2
100
AcDbSymbolTableRecord
100
AcDbLayerTableRecord
  2
0
 70
     0
 62
     7
  6
Continuous
370
    -3
390
F
  0
LAYER
  5
73
330
2
100
AcDbSymbolTableRecord
100
AcDbLayerTableRecord
  2
FORMAT
 70
     0
 62
     7
  6
Continuous
370
    -3
390
F
  0
LAYER
  5
74
330
2
100
AcDbSymbolTableRecord
100
AcDbLayerTableRecord
  2
SLD-0
 70
     0
 62
   179
  6
Continuous
370
    -3
390
F
  0
LAYER
  5
75
330
2
100
AcDbSymbolTableRecord
100
AcDbLayerTableRecord
  2
AAA_EKSEN
 70
     0
 62
     1
  6
CENTER
370
    -3
390
F
  0
LAYER
  5
76
330
2
100
AcDbSymbolTableRecord
100
AcDbLayerTableRecord
  2
03
 70
     0
 62
     3
  6
HIDDEN
370
    -3
390
F
  0
LAYER
  5
1D9
330
2
100
AcDbSymbolTableRecord
100
AcDbLayerTableRecord
  2
Defpoints
 70
     0
 62
     7
  6
Continuous
290
     0
370
    -3
390
F
  0
ENDTAB
  0
TABLE
  2
STYLE
  5
3
330
0
100
AcDbSymbolTable
 70
     1
  0
STYLE
  5
11
330
3
100
AcDbSymbolTableRecord
100
AcDbTextStyleTableRecord
  2
Standard
 70
     0
 40
0.0
 41
1.0
 50
0.0
 71
     0
 42
4.9388888889
  3
txt
  4

  0
ENDTAB
  0
TABLE
  2
VIEW
  5
6
330
0
100
AcDbSymbolTable
 70
     0
  0
ENDTAB
  0
TABLE
  2
UCS
  5
7
330
0
100
AcDbSymbolTable
 70
     0
  0
ENDTAB
  0
TABLE
  2
APPID
  5
9
330
0
100
AcDbSymbolTable
 70
     1
  0
APPID
  5
12
330
9
100
AcDbSymbolTableRecord
100
AcDbRegAppTableRecord
  2
ACAD
 70
     0
  0
ENDTAB
  0
TABLE
  2
DIMSTYLE
  5
A
330
0
100
AcDbSymbolTable
 70
     1
100
AcDbDimStyleTable
  0
DIMSTYLE
105
27
330
A
100
AcDbSymbolTableRecord
100
AcDbDimStyleTableRecord
  2
ISO-25
 70
     0
 41
2.5
 42
0.625
 43
3.75
 44
1.25
 73
     0
 74
     0
 77
     1
 78
     8
140
2.5
141
2.5
143
0.0393700787
147
0.625
171
     3
172
     1
178
     0
271
     2
272
     2
274
     3
278
    44
283
     0
284
     8
340
11
  0
ENDTAB
  0
TABLE
  2
BLOCK_RECORD
  5
1
330
0
100
AcDbSymbolTable
 70
     1
  0
BLOCK_RECORD
  5
1F
330
1
100
AcDbSymbolTableRecord
100
AcDbBlockTableRecord
  2
*Model_Space
340
22
  0
BLOCK_RECORD
  5
1B
330
1
100
AcDbSymbolTableRecord
100
AcDbBlockTableRecord
  2
*Paper_Space
340
1E
  0
BLOCK_RECORD
  5
23
330
1
100
AcDbSymbolTableRecord
100
AcDbBlockTableRecord
  2
*Paper_Space0
340
26
  0
ENDTAB
  0
ENDSEC
  0
SECTION
  2
BLOCKS
  0
BLOCK
  5
20
330
1F
100
AcDbEntity
  8
0
100
AcDbBlockBegin
  2
*Model_Space
 70
     0
 10
0.0
 20
0.0
 30
0.0
  3
*Model_Space
  1

  0
ENDBLK
  5
21
330
1F
100
AcDbEntity
  8
0
100
AcDbBlockEnd
  0
BLOCK
  5
1C
330
1B
100
AcDbEntity
 67
     1
  8
0
100
AcDbBlockBegin
  2
*Paper_Space
 70
     0
 10
0.0
 20
0.0
 30
0.0
  3
*Paper_Space
  1

  0
ENDBLK
  5
1D
330
1B
100
AcDbEntity
 67
     1
  8
0
100
AcDbBlockEnd
  0
BLOCK
  5
24
330
23
100
AcDbEntity
  8
0
100
AcDbBlockBegin
  2
*Paper_Space0
 70
     0
 10
0.0
 20
0.0
 30
0.0
  3
*Paper_Space0
  1

  0
ENDBLK
  5
25
330
23
100
AcDbEntity
  8
0
100
AcDbBlockEnd
  0
ENDSEC
  0
SECTION
  2
ENTITIES
  0
SPLINE
  5
78
330
1F
100
AcDbEntity
  8
0
  6
Continuous
 62
     7
370
    25
100
AcDbSpline
210
0.0
220
0.0
230
1.0
 70
     8
 71
     3
 72
    25
 73
    21
 74
     0
 42
0.000000001
 43
0.00000001
 40
0.0
 40
0.0
 40
0.0
 40
0.0
 40
0.0414670378401833
 40
0.0982165983793643
 40
0.1551214907990466
 40
0.2121965073351768
 40
0.2694363311261442
 40
0.3268254118371202
 40
0.3843414463769416
 40
0.4419596146154282
 40
0.4996571250560142
 40
0.5574122421203281
 40
0.6152003069726351
 40
0.6729958286802101
 40
0.7307712823511866
 40
0.7884943176712602
 40
0.8461260562689641
 40
0.9036273206547705
 40
0.9609641454109707
 40
0.9999999999999999
 40
0.9999999999999999
 40
0.9999999999999999
 40
0.9999999999999999
 10
523.6732806813234
 20
1211.201241339503
 30
0.0
 10
523.9041622844939
 20
1210.71656367848
 30
0.0
 10
524.4510160476968
 20
1209.568582205591
 30
0.0
 10
525.6392130297882
 20
1207.916359520378
 30
0.0
 10
527.160385824983
 20
1206.260009755489
 30
0.0
 10
528.9187836168085
 20
1204.810276807945
 30
0.0
 10
530.8713001403904
 20
1203.588158205142
 30
0.0
 10
532.9868192491944
 20
1202.617603973787
 30
0.0
 10
535.2267018757086
 20
1201.916332080586
 30
0.0
 10
537.5510110386198
 20
1201.49811049561
 30
0.0
 10
539.917669284727
 20
1201.371092232363
 30
0.0
 10
542.2837516551447
 20
1201.538613544362
 30
0.0
 10
544.6060775137703
 20
1201.998449813804
 30
0.0
 10
546.8418883722996
 20
1202.74321953349
 30
0.0
 10
548.9501405131095
 20
1203.759891017907
 30
0.0
 10
550.8904625574105
 20
1205.030894005431
 30
0.0
 10
552.6303475891613
 20
1206.531383634461
 30
0.0
 10
554.1228815752938
 20
1208.239194840875
 30
0.0
 10
555.2592955722621
 20
1209.904805701845
 30
0.0
 10
555.7639892817982
 20
1211.044149758356
 30
0.0
 10
555.968415996831
 20
1211.50564226037
 30
0.0
  0
SPLINE
  5
79
330
1F
100
AcDbEntity
  8
0
  6
Continuous
 62
     7
370
    25
100
AcDbSpline
210
0.0
220
0.0
230
1.0
 70
     8
 71
     3
 72
    25
 73
    21
 74
     0
 42
0.000000001
 43
0.00000001
 40
0.0
 40
0.0
 40
0.0
 40
0.0
 40
0.0414682244259716
 40
0.0982177537192306
 40
0.1551226889628286
 40
0.2121967479071762
 40
0.2694365709971819
 40
0.3268262171474317
 40
0.3843422647000363
 40
0.4419604138301609
 40
0.4996578578465138
 40
0.5574130010896671
 40
0.6152013286342944
 40
0.6729968097712208
 40
0.7307722644687822
 40
0.788494500959675
 40
0.8461261870868731
 40
0.903628510906455
 40
0.9609641468569365
 40
1.0
 40
1.0
 40
1.0
 40
1.0
 10
483.4732833121234
 20
1211.208155478296
 30
0.0
 10
483.704161533329
 20
1210.723456196345
 30
0.0
 10
484.2509980710253
 20
1209.575442859348
 30
0.0
 10
485.4392172498198
 20
1207.923217687456
 30
0.0
 10
486.9603676779244
 20
1206.266862023964
 30
0.0
 10
488.7188028702385
 20
1204.817191750462
 30
0.0
 10
490.6713119190519
 20
1203.595083512504
 30
0.0
 10
492.7868055343696
 20
1202.624443378175
 30
0.0
 10
495.0267043652743
 20
1201.923191849399
 30
0.0
 10
497.3510114403412
 20
1201.504962353098
 30
0.0
 10
499.7176689314803
 20
1201.377952769654
 30
0.0
 10
502.0837603435913
 20
1201.545447058418
 30
0.0
 10
504.4060701065203
 20
1202.005384750683
 30
0.0
 10
506.6418925050046
 20
1202.750124568128
 30
0.0
 10
508.7501232161969
 20
1203.766816252814
 30
0.0
 10
510.6904783994224
 20
1205.03774169384
 30
0.0
 10
512.4303666225672
 20
1206.538240619469
 30
0.0
 10
513.9228469113117
 20
1208.246102743036
 30
0.0
 10
515.0593089875838
 20
1209.911667915838
 30
0.0
 10
515.5639924015109
 20
1211.051002462062
 30
0.0
 10
515.7684174634778
 20
1211.51249679452
 30
0.0
  0
SPLINE
  5
7A
330
1F
100
AcDbEntity
  8
0
  6
Continuous
 62
     7
370
    25
100
AcDbSpline
210
0.0
220
0.0
230
1.0
 70
     8
 71
     3
 72
    25
 73
    21
 74
     0
 42
0.000000001
 43
0.00000001
 40
0.0
 40
0.0
 40
0.0
 40
0.0
 40
0.0431815793121786
 40
0.1006385236380405
 40
0.1582565008488035
 40
0.2160463830553604
 40
0.2740018054904501
 40
0.332103507213362
 40
0.3903280673084465
 40
0.448651155339386
 40
0.5070495248479967
 40
0.5655017757271165
 40
0.6239811191267876
 40
0.6824626869835694
 40
0.7409169647345097
 40
0.7993103598689578
 40
0.8576035165504693
 40
0.9157566469237446
 40
0.9737344471131569
 40
1.0
 40
1.0
 40
1.0
 40
1.0
 10
523.8536638941878
 20
1245.485177363215
 30
0.0
 10
524.1063567789158
 20
1244.992999140805
 30
0.0
 10
524.6952800943191
 20
1243.845933876887
 30
0.0
 10
525.9428631359287
 20
1242.212768714516
 30
0.0
 10
527.5154329307268
 20
1240.597302954211
 30
0.0
 10
529.3185638861817
 20
1239.19449494691
 30
0.0
 10
531.3088060419672
 20
1238.024316451178
 30
0.0
 10
533.4542314152108
 20
1237.109988235278
 30
0.0
 10
535.7156334953117
 20
1236.468341507385
 30
0.0
 10
538.052560405134
 20
1236.111796883535
 30
0.0
 10
540.4227428840458
 20
1236.047735017077
 30
0.0
 10
542.783078997259
 20
1236.278190937358
 30
0.0
 10
545.0904890347135
 20
1236.799739248787
 30
0.0
 10
547.3023410705541
 20
1237.603996402324
 30
0.0
 10
549.3781671959512
 20
1238.676618881844
 30
0.0
 10
551.2775953624086
 20
1239.999197478673
 30
0.0
 10
552.9707649054516
 20
1241.545164411044
 30
0.0
 10
554.4044616992787
 20
1243.293976623864
 30
0.0
 10
555.4093165149333
 20
1244.83935256136
 30
0.0
 10
555.8198201016809
 20
1245.83290464192
 30
0.0
 10
555.9478076908999
 20
1246.142676199732
 30
0.0
  0
SPLINE
  5
7B
330
1F
100
AcDbEntity
  8
0
  6
Continuous
 62
     7
370
    25
100
AcDbSpline
210
0.0
220
0.0
230
1.0
 70
     8
 71
     3
 72
    25
 73
    21
 74
     0
 42
0.000000001
 43
0.00000001
 40
0.0
 40
0.0
 40
0.0
 40
0.0
 40
0.0431815145403527
 40
0.1006373300325533
 40
0.1582562460476876
 40
0.2160460836022147
 40
0.2740014807161526
 40
0.3321031166289998
 40
0.3903276537398201
 40
0.4486506967067421
 40
0.5070489751076976
 40
0.5655012195362042
 40
0.6239808347415623
 40
0.6824618587323474
 40
0.7409167769948951
 40
0.7993092662040593
 40
0.85760237784468
 40
0.9157555080139247
 40
0.9737344500234683
 40
1.0
 40
1.0
 40
1.0
 40
1.0
 10
483.6536655936652
 20
1245.492031897364
 30
0.0
 10
483.9063545711703
 20
1244.999850959205
 30
0.0
 10
484.4952626790831
 20
1243.852791250056
 30
0.0
 10
485.7429041872707
 20
1242.219684134884
 30
0.0
 10
487.315410076607
 20
1240.604151487282
 30
0.0
 10
489.1185677743856
 20
1239.201352913513
 30
0.0
 10
491.1088060108807
 20
1238.031170535268
 30
0.0
 10
493.2542324357771
 20
1237.116842459599
 30
0.0
 10
495.5156342733093
 20
1236.475196687065
 30
0.0
 10
497.8525615921199
 20
1236.118649517747
 30
0.0
 10
500.2227412820651
 20
1236.054596917753
 30
0.0
 10
502.5830915794311
 20
1236.285018540143
 30
0.0
 10
504.8904640341217
 20
1236.806696045915
 30
0.0
 10
507.1023753365569
 20
1237.610811165353
 30
0.0
 10
509.1781297274617
 20
1238.683561361449
 30
0.0
 10
511.077618922658
 20
1240.006037384732
 30
0.0
 10
512.7707609530864
 20
1241.552027775048
 30
0.0
 10
514.2044818887005
 20
1243.300832453359
 30
0.0
 10
515.2093063199699
 20
1244.846256527296
 30
0.0
 10
515.6198206589669
 20
1245.839819581525
 30
0.0
 10
515.7478098560387
 20
1246.149590338526
 30
0.0
  0
LINE
  5
7C
330
1F
100
AcDbEntity
  8
0
  6
Continuous
 62
     7
370
    25
100
AcDbLine
 10
619.5516186569
 20
538.7994675962
 30
0.0
 11
619.5516186569
 21
1408.299496497
 31
0.0
  0
LINE
  5
7D
330
1F
100
AcDbEntity
  8
0
  6
Continuous
 62
     7
370
    25
100
AcDbLine
 10
619.5516186569
 20
526.2994674099
 30
0.0
 11
619.5516186569
 21
533.8300276612
 31
0.0
  0
LINE
  5
7E
330
1F
100
AcDbEntity
  8
0
  6
Continuous
 62
     7
370
    25
100
AcDbLine
 10
419.5516156767
 20
533.803706157
 30
0.0
 11
419.5516156767
 21
526.2994674099
 31
0.0
  0
LINE
  5
7F
330
1F
100
AcDbEntity
  8
0
  6
Continuous
 62
     7
370
    25
100
AcDbLine
 10
419.5516156767
 20
1408.299496497
 30
0.0
 11
419.5516156767
 21
538.7674245117
 31
0.0
  0
LINE
  5
80
330
1F
100
AcDbEntity
  8
0
  6
Continuous
 62
     7
370
    25
100
AcDbLine
 10
619.6039813373
 20
523.2994673838
 30
0.0
 11
619.5516186569
 21
526.2994674099
 31
0.0
  0
LINE
  5
81
330
1F
100
AcDbEntity
  8
0
  6
Continuous
 62
     7
370
    25
100
AcDbLine
 10
419.5516156767
 20
526.2994674099
 30
0.0
 11
419.4992529962
 21
523.2994673838
 31
0.0
  0
LINE
  5
82
330
1F
100
AcDbEntity
  8
0
  6
Continuous
 62
     7
370
    25
100
AcDbLine
 10
419.4992529962
 20
523.2994673838
 30
0.0
 11
419.6214350675
 21
516.2994676334
 31
0.0
  0
LINE
  5
83
330
1F
100
AcDbEntity
  8
0
  6
Continuous
 62
     7
370
    25
100
AcDbLine
 10
619.4817992661
 20
516.2994676334
 30
0.0
 11
619.6039813373
 21
523.2994673838
 31
0.0
  0
LINE
  5
84
330
1F
100
AcDbEntity
  8
0
  6
Continuous
 62
     7
370
    25
100
AcDbLine
 10
419.5516156767
 20
1414.7994426144
 30
0.0
 11
419.5516156767
 21
1409.2994836224
 31
0.0
  0
LINE
  5
85
330
1F
100
AcDbEntity
  8
0
  6
Continuous
 62
     7
370
    25
100
AcDbLine
 10
619.5516186569
 20
1409.2994836224
 30
0.0
 11
619.5516186569
 21
1414.7994426144
 31
0.0
  0
ARC
  5
86
330
1F
100
AcDbEntity
  8
0
  6
Continuous
 62
     7
370
    25
100
AcDbCircle
 10
618.5516171668
 20
1409.2994674099
 30
0.0
 40
1.0
100
AcDbArc
 50
270.0
 51
0.0
  0
ARC
  5
87
330
1F
100
AcDbEntity
  8
0
  6
Continuous
 62
     7
370
    25
100
AcDbCircle
 10
420.5516171668
 20
1409.2994674099
 30
0.0
 40
1.0
100
AcDbArc
 50
180.0
 51
270.0
  0
ARC
  5
88
330
1F
100
AcDbEntity
  8
0
  6
Continuous
 62
     7
370
    25
100
AcDbCircle
 10
421.5516171668
 20
1414.7994674099
 30
0.0
 40
2.0
100
AcDbArc
 50
90.0
 51
180.0
  0
ARC
  5
89
330
1F
100
AcDbEntity
  8
0
  6
Continuous
 62
     7
370
    25
100
AcDbCircle
 10
617.5516171668
 20
1414.7994674099
 30
0.0
 40
2.0
100
AcDbArc
 50
0.0
 51
90.0
  0
LWPOLYLINE
  5
8B
330
1F
100
AcDbEntity
  8
0
  6
Continuous
 62
     7
370
    25
100
AcDbPolyline
 90
       29
 70
   128
 43
0.0
 10
523.6381218571
 20
1211.2052348507
 10
522.9025265005
 20
1213.1089476002
 10
522.4020113971
 20
1215.3259423626
 10
522.254719938
 20
1217.5849583996
 10
522.4636505161
 20
1219.8399213207
 10
523.0245504797
 20
1222.0449951542
 10
523.9260011155
 20
1224.1552379978
 10
525.1496514108
 20
1226.1277345074
 10
526.6705915135
 20
1227.9223111523
 10
528.4578596045
 20
1229.5023706806
 10
530.4750717048
 20
1230.8358457935
 10
532.6811634738
 20
1231.895556773
 10
535.0312246744
 20
1232.6599267376
 10
537.4774160598
 20
1233.1133988751
 10
539.9699388806
 20
1233.2467344654
 10
542.458054683
 20
1233.0572512997
 10
544.8911088322
 20
1232.5487640751
 10
547.2195754562
 20
1231.7316439999
 10
549.396050236
 20
1230.6224611652
 10
551.3762282942
 20
1229.2439249409
 10
553.1198019896
 20
1227.6239899052
 10
554.5912693057
 20
1225.7956770313
 10
555.7606826339
 20
1223.7962392223
 10
556.6042336438
 20
1221.6663268459
 10
557.1047487472
 20
1219.4492724789
 10
557.252039275
 20
1217.1903160465
 10
557.0431100939
 20
1214.9352935207
 10
556.4822080348
 20
1212.7302792919
 10
556.0033554945
 20
1211.4999798191
  0
LWPOLYLINE
  5
8C
330
1F
100
AcDbEntity
  8
0
  6
Continuous
 62
     7
370
    25
100
AcDbPolyline
 90
       41
 70
   128
 43
0.0
 10
535.4837226484
 20
1203.7326601399
 10
537.7109023545
 20
1203.2823470486
 10
539.9883660291
 20
1203.1533029926
 10
542.2600350146
 20
1203.3488062275
 10
544.4699722145
 20
1203.8639095677
 10
546.5637623135
 20
1204.686036433
 10
548.4898491565
 20
1205.7949212444
 10
550.2008060728
 20
1207.1632054699
 10
551.6545037542
 20
1208.7572124851
 10
552.815147749
 20
1210.5377820385
 10
553.65415763
 20
1212.4609259022
 10
554.1508766625
 20
1214.4794371975
 10
554.2930747185
 20
1216.5434864414
 10
554.0772462998
 20
1218.6022904766
 10
553.5087073956
 20
1220.6052449597
 10
552.6014576469
 20
1222.5028780354
 10
551.3778376196
 20
1224.2485788715
 10
549.8679737363
 20
1225.7993725193
 10
548.1090481196
 20
1227.1169331921
 10
546.1443691317
 20
1228.1689551724
 10
544.0223133926
 20
1228.9295104397
 10
541.7951336865
 20
1229.379823531
 10
539.5176700119
 20
1229.5088079823
 10
537.2460028891
 20
1229.313364352
 10
535.0360647578
 20
1228.7982014073
 10
532.9422746588
 20
1227.9760745419
 10
531.0161878158
 20
1226.8672493351
 10
529.3052299682
 20
1225.4989651096
 10
527.8515322868
 20
1223.9048984898
 10
526.690888292
 20
1222.124388541
 10
525.8518774797
 20
1220.2011850727
 10
525.3551584471
 20
1218.182733382
 10
525.2129631851
 20
1216.1186841381
 10
525.4287916038
 20
1214.0598204983
 10
525.997330508
 20
1212.0569256199
 10
526.9045797911
 20
1210.1592329395
 10
528.128200284
 20
1208.4135321034
 10
529.638063236
 20
1206.8627980602
 10
531.3969888527
 20
1205.5451777828
 10
533.3616678406
 20
1204.4931558025
 10
535.4837226484
 20
1203.7326601399
  0
LWPOLYLINE
  5
8D
330
1F
100
AcDbEntity
  8
0
  6
Continuous
 62
     7
370
    25
100
AcDbPolyline
 90
       41
 70
   128
 43
0.0
 10
535.5038671557
 20
1203.7920859707
 10
533.3918249969
 20
1204.5490053547
 10
531.4364154626
 20
1205.5960801495
 10
529.6857888613
 20
1206.9075015438
 10
528.1830505271
 20
1208.4509042156
 10
526.9652033028
 20
1210.1883796108
 10
526.0622343783
 20
1212.0770719898
 10
525.4963781487
 20
1214.0705493343
 10
525.2815676656
 20
1216.1196378124
 10
525.4230923753
 20
1218.1739714993
 10
525.9174677346
 20
1220.1829460514
 10
526.7525199604
 20
1222.0970300091
 10
527.9076873128
 20
1223.8691953076
 10
529.3545267348
 20
1225.4556921375
 10
531.0574109469
 20
1226.8175390614
 10
532.9744099442
 20
1227.921178664
 10
535.0583205734
 20
1228.7393716229
 10
537.2578306858
 20
1229.2520907772
 10
539.5187801484
 20
1229.4466403378
 10
541.7854982231
 20
1229.3182519329
 10
544.0021688853
 20
1228.8700250042
 10
546.1142129068
 20
1228.1131056202
 10
548.0696215097
 20
1227.0660308254
 10
549.8202490423
 20
1225.7546690357
 10
551.3229864452
 20
1224.2112663639
 10
552.5408322726
 20
1222.4737909687
 10
553.4438016627
 20
1220.5850389851
 10
554.0096583579
 20
1218.5916212452
 10
554.2244697724
 20
1216.5424731625
 10
554.0829459939
 20
1214.4881394756
 10
553.588570169
 20
1212.4792245281
 10
552.7535165463
 20
1210.5650809658
 10
551.5983487282
 20
1208.792975272
 10
550.1515093062
 20
1207.2064188374
 10
548.4486250941
 20
1205.8446315182
 10
546.5316260968
 20
1204.7409919155
 10
544.4477154676
 20
1203.922739352
 10
542.2482053552
 20
1203.4100201977
 10
539.9872558926
 20
1203.2154706371
 10
537.7205378179
 20
1203.3439186466
 10
535.5038671557
 20
1203.7920859707
  0
LWPOLYLINE
  5
8E
330
1F
100
AcDbEntity
  8
0
  6
Continuous
 62
     7
370
    25
100
AcDbPolyline
 90
       34
 70
   128
 43
0.0
 10
536.8909007672
 20
1208.8562158001
 10
535.1787424449
 20
1209.499886359
 10
533.6319208879
 20
1210.4256657017
 10
532.3063443218
 20
1211.599996413
 10
531.2499227736
 20
1212.980439986
 10
530.5008358125
 20
1214.517107333
 10
530.0861597795
 20
1216.154446925
 10
530.0208805863
 20
1217.8333309544
 10
530.3073591355
 20
1219.4930818928
 10
530.9352400515
 20
1221.0736182583
 10
531.8818297971
 20
1222.5178984058
 10
533.1129171688
 20
1223.7737682713
 10
534.5840072993
 20
1224.7956899059
 10
536.2419309829
 20
1225.5468276394
 10
538.0267659936
 20
1226.0000613583
 10
539.8740052048
 20
1226.138880576
 10
541.7168839637
 20
1225.9583977116
 10
543.4887940798
 20
1225.4651096714
 10
545.1256959502
 20
1224.6767786396
 10
546.5684282396
 20
1223.6220148457
 10
547.7648443345
 20
1222.3387864483
 10
548.6717047904
 20
1220.8736446751
 10
549.2562326405
 20
1219.2793992413
 10
549.4973017637
 20
1217.6136878384
 10
549.3862005685
 20
1215.9368303669
 10
548.9269411925
 20
1214.3093255413
 10
548.1361235295
 20
1212.790003146
 10
547.0423335944
 20
1211.4338186634
 10
545.6850985799
 20
1210.289707507
 10
544.1134749715
 20
1209.3991545094
 10
542.3842659954
 20
1208.7942269695
 10
540.5599671219
 20
1208.4968593968
 10
538.7065178518
 20
1208.5177806271
 10
536.8909007672
 20
1208.8562158001
  0
LWPOLYLINE
  5
8F
330
1F
100
AcDbEntity
  8
0
  6
Continuous
 62
     7
370
    25
100
AcDbPolyline
 90
       29
 70
   128
 43
0.0
 10
483.4381240223
 20
1211.2120893849
 10
482.7025282
 20
1213.1158021343
 10
482.2020130966
 20
1215.3328565014
 10
482.0547188435
 20
1217.5918129337
 10
482.2636517499
 20
1219.8468354595
 10
482.8245500837
 20
1222.0518496883
 10
483.7260032807
 20
1224.1621521366
 10
484.9496531103
 20
1226.1345890415
 10
486.4705922816
 20
1227.9291656864
 10
488.257859907
 20
1229.5092848194
 10
490.2750729386
 20
1230.8427599323
 10
492.4811637763
 20
1231.9024709118
 10
494.8312259082
 20
1232.6668408764
 10
497.2774172936
 20
1233.1203130138
 10
499.7699401144
 20
1233.2536486042
 10
502.2580540542
 20
1233.0641058338
 10
504.691110066
 20
1232.5556186092
 10
507.0195757587
 20
1231.738498534
 10
509.1960514698
 20
1230.629375304
 10
511.1762304593
 20
1229.250779475
 10
512.9198013608
 20
1227.630904044
 10
514.3912710052
 20
1225.8025911701
 10
515.5606834021
 20
1223.8030937565
 10
516.4042334806
 20
1221.6731813801
 10
516.9047488168
 20
1219.4561866177
 10
517.052040276
 20
1217.1971705807
 10
516.843109465
 20
1214.9422076595
 10
516.2822095014
 20
1212.7371338261
 10
515.8033578925
 20
1211.5068343533
  0
LWPOLYLINE
  5
90
330
1F
100
AcDbEntity
  8
0
  6
Continuous
 62
     7
370
    25
100
AcDbPolyline
 90
       41
 70
   128
 43
0.0
 10
495.2837238822
 20
1203.739514674
 10
497.5109035883
 20
1203.2892015827
 10
499.7883672629
 20
1203.1602171314
 10
502.0600362484
 20
1203.3556607617
 10
504.269972517
 20
1203.8708237064
 10
506.363762616
 20
1204.6928909672
 10
508.289849459
 20
1205.8017757786
 10
510.0008073066
 20
1207.1700600041
 10
511.454504988
 20
1208.7641266239
 10
512.6151489828
 20
1210.5446365727
 10
513.4541602608
 20
1212.4677804363
 10
513.9508788277
 20
1214.4862917317
 10
514.0930745553
 20
1216.5503409756
 10
513.877245671
 20
1218.6092046154
 10
513.3087067668
 20
1220.6120994938
 10
512.4014574837
 20
1222.5097921742
 10
511.1778369908
 20
1224.2554930103
 10
509.6679749701
 20
1225.8062270535
 10
507.9090484221
 20
1227.1238473309
 10
505.9443694342
 20
1228.1758097065
 10
503.8223146264
 20
1228.9363649738
 10
501.5951349203
 20
1229.3866780651
 10
499.3176712457
 20
1229.5157221211
 10
497.0460022602
 20
1229.3202188862
 10
494.8360650603
 20
1228.805115546
 10
492.7422749613
 20
1227.9829886807
 10
490.8161881183
 20
1226.8741038693
 10
489.105231202
 20
1225.5058196438
 10
487.651531658
 20
1223.9118126286
 10
486.4908876632
 20
1222.1312430752
 10
485.6518777821
 20
1220.2080992115
 10
485.1551587496
 20
1218.1895879162
 10
485.0129644189
 20
1216.1255386723
 10
485.2287928377
 20
1214.0666750324
 10
485.7973317419
 20
1212.063780154
 10
486.7045814906
 20
1210.1660874737
 10
487.9282015179
 20
1208.4203866375
 10
489.4380635385
 20
1206.8696525944
 10
491.1969891552
 20
1205.5520919216
 10
493.1616681431
 20
1204.5000699413
 10
495.2837238822
 20
1203.739514674
  0
LWPOLYLINE
  5
91
330
1F
100
AcDbEntity
  8
0
  6
Continuous
 62
     7
370
    25
100
AcDbPolyline
 90
       41
 70
   128
 43
0.0
 10
495.3038683895
 20
1203.7989405048
 10
493.191824368
 20
1204.5559194935
 10
491.2364157651
 20
1205.6029346836
 10
489.4857900951
 20
1206.914356078
 10
487.9830526922
 20
1208.4577587498
 10
486.7652031396
 20
1210.195234145
 10
485.8622337494
 20
1212.083926524
 10
485.2963807795
 20
1214.0774038685
 10
485.0815693651
 20
1216.1265519512
 10
485.2230931435
 20
1218.1808856381
 10
485.7174689684
 20
1220.1898005856
 10
486.5525188659
 20
1222.1039441479
 10
487.7076866839
 20
1223.8760498417
 10
489.1545279686
 20
1225.4625466717
 10
490.8574121807
 20
1226.8243935955
 10
492.774411178
 20
1227.9280331982
 10
494.8583218072
 20
1228.7462857617
 10
497.0578319196
 20
1229.2589453114
 10
499.3187813822
 20
1229.4534948719
 10
501.5854994569
 20
1229.3251064671
 10
503.8021701191
 20
1228.876939143
 10
505.9142132093
 20
1228.1199601544
 10
507.8696218122
 20
1227.0729449642
 10
509.6202493448
 20
1225.7615235699
 10
511.1229867477
 20
1224.2181208981
 10
512.3408344377
 20
1222.4806455029
 10
513.2438028965
 20
1220.5919531239
 10
513.8096591261
 20
1218.5984757794
 10
514.0244696092
 20
1216.5493276966
 10
513.8829448995
 20
1214.4949940098
 10
513.3885700058
 20
1212.4860790623
 10
512.5535177801
 20
1210.5719355
 10
511.398349962
 20
1208.7998298061
 10
509.95151054
 20
1207.2133329762
 10
508.2486263279
 20
1205.8514860523
 10
506.3316273306
 20
1204.7478464497
 10
504.2477167014
 20
1203.9295938862
 10
502.048206589
 20
1203.4169343365
 10
499.7872571264
 20
1203.2223847759
 10
497.5205390517
 20
1203.3507731808
 10
495.3038683895
 20
1203.7989405048
  0
LWPOLYLINE
  5
92
330
1F
100
AcDbEntity
  8
0
  6
Continuous
 62
     7
370
    25
100
AcDbPolyline
 90
       34
 70
   128
 43
0.0
 10
496.6909020011
 20
1208.8630703343
 10
494.9787436787
 20
1209.5068004978
 10
493.4319211904
 20
1210.4325202358
 10
492.1063455556
 20
1211.6068509472
 10
491.0499221448
 20
1212.9872945202
 10
490.3008370463
 20
1214.5239618672
 10
489.886160082
 20
1216.1613610638
 10
489.8208818201
 20
1217.8402450932
 10
490.1073603694
 20
1219.4999364269
 10
490.7352412854
 20
1221.0805323971
 10
491.6818300996
 20
1222.5248125446
 10
492.9129174713
 20
1223.7806228054
 10
494.3840085332
 20
1224.8025444401
 10
496.0419322167
 20
1225.5536821735
 10
497.8267672275
 20
1226.0069158924
 10
499.6740064387
 20
1226.1457947147
 10
501.5168833349
 20
1225.9653118504
 10
503.2887953136
 20
1225.4719642056
 10
504.925697184
 20
1224.6836927784
 10
506.3684285421
 20
1223.6288693798
 10
507.5648455683
 20
1222.3457005871
 10
508.4717060242
 20
1220.8804992092
 10
509.0562338744
 20
1219.2862537754
 10
509.2973029975
 20
1217.6206019772
 10
509.186200871
 20
1215.9436849011
 10
508.726941495
 20
1214.3161800755
 10
507.9361247633
 20
1212.7968576801
 10
506.8423338969
 20
1211.4406731976
 10
505.4850988824
 20
1210.2966216457
 10
503.9134762053
 20
1209.4060090435
 10
502.1842653666
 20
1208.8011411083
 10
500.3599683557
 20
1208.5037139309
 10
498.5065172229
 20
1208.5246351612
 10
496.6909020011
 20
1208.8630703343
  0
LWPOLYLINE
  5
93
330
1F
100
AcDbEntity
  8
0
  6
Continuous
 62
     7
370
    25
100
AcDbPolyline
 90
       29
 70
   128
 43
0.0
 10
523.8158815343
 20
1245.4981115711
 10
522.958803064
 20
1247.5885656727
 10
522.4284863368
 20
1249.7998979939
 10
522.2508018639
 20
1252.0570662869
 10
522.4293669023
 20
1254.3141749752
 10
522.9605464999
 20
1256.5253284824
 10
523.8335273031
 20
1258.6453464878
 10
525.0305375818
 20
1260.6311944378
 10
526.5272102122
 20
1262.4424603832
 10
528.293076976
 20
1264.0421894444
 10
530.2921906848
 20
1265.3978970898
 10
532.4838534732
 20
1266.4818671597
 10
534.8234503333
 20
1267.2721651447
 10
537.2633552913
 20
1267.7526977909
 10
539.7538962577
 20
1267.9135707272
 10
542.2443738941
 20
1267.7515653027
 10
544.684090725
 20
1267.2700193775
 10
547.0233793173
 20
1266.4787081135
 10
549.2146192853
 20
1265.39366516
 10
551.2132021401
 20
1264.0371230496
 10
552.9784458492
 20
1262.436619128
 10
554.4744106744
 20
1260.6246975315
 10
555.6706460927
 20
1258.6383131397
 10
556.5427998815
 20
1256.5178779018
 10
557.0731173072
 20
1254.3065455807
 10
557.2508024786
 20
1252.049317683
 10
557.0722344134
 20
1249.7922089947
 10
556.5410564456
 20
1247.5811150921
 10
555.9866997216
 20
1246.133735503
  0
LWPOLYLINE
  5
94
330
1F
100
AcDbEntity
  8
0
  6
Continuous
 62
     7
370
    25
100
AcDbPolyline
 90
       41
 70
   128
 43
0.0
 10
541.8174314115
 20
1237.9508522404
 10
544.0437505756
 20
1238.4043839825
 10
546.1643515889
 20
1239.1679790867
 10
548.1270226453
 20
1240.2228620899
 10
549.8834336911
 20
1241.5429857624
 10
551.3903359685
 20
1243.0959251774
 10
552.6106293116
 20
1244.8433545483
 10
553.5142580781
 20
1246.7423585308
 10
554.0789785598
 20
1248.7460878742
 10
554.2908805225
 20
1250.8052495373
 10
554.14474856
 20
1252.8691199673
 10
553.6441813026
 20
1254.8868564022
 10
552.8015057359
 20
1256.808808173
 10
551.6374680016
 20
1258.5876491917
 10
550.1807342086
 20
1260.179629649
 10
548.4671695892
 20
1261.5454104794
 10
546.5389723692
 20
1262.6514938725
 10
544.4436176483
 20
1263.470580901
 10
542.232700697
 20
1263.9825251949
 10
539.9606629078
 20
1264.1747501743
 10
537.6834488277
 20
1264.0424278629
 10
535.4571296636
 20
1263.5888961208
 10
533.336527719
 20
1262.8253010166
 10
531.3738575939
 20
1261.7704180134
 10
529.6174456168
 20
1260.4502943409
 10
528.110542408
 20
1258.8973549259
 10
526.8902518589
 20
1257.149925555
 10
525.9866216954
 20
1255.2509215725
 10
525.4219026108
 20
1253.2471922291
 10
525.2099997167
 20
1251.1880901707
 10
525.3561307479
 20
1249.1242197407
 10
525.856697074
 20
1247.1064237011
 10
526.6993740376
 20
1245.1844719303
 10
527.8634113062
 20
1243.4056309116
 10
529.3201460306
 20
1241.813710059
 10
531.0337097187
 20
1240.447869624
 10
532.9619088013
 20
1239.3417862309
 10
535.0572635222
 20
1238.5226992024
 10
537.2681795422
 20
1238.0107549084
 10
539.5402173315
 20
1237.8185895336
 10
541.8174314115
 20
1237.9508522404
  0
LWPOLYLINE
  5
95
330
1F
100
AcDbEntity
  8
0
  6
Continuous
 62
     7
370
    25
100
AcDbPolyline
 90
       41
 70
   128
 43
0.0
 10
541.8076786015
 20
1238.0124238384
 10
539.5412101213
 20
1237.8807571781
 10
537.2798918549
 20
1238.0720284832
 10
535.0794075791
 20
1238.5815885914
 10
532.9939388473
 20
1239.396801318
 10
531.0748387862
 20
1240.4976395023
 10
529.3693599094
 20
1241.8570426357
 10
527.9194983457
 20
1243.4414533032
 10
526.7609530863
 20
1245.2118900669
 10
525.9222524043
 20
1247.1247819317
 10
525.4240479123
 20
1249.1330412281
 10
525.2786065255
 20
1251.1871364964
 10
525.4895096448
 20
1253.2365826023
 10
526.0515642155
 20
1255.2308944119
 10
526.9509307843
 20
1257.120898093
 10
528.1654634316
 20
1258.8601020229
 10
529.6652569238
 20
1260.4057100666
 10
531.4133810614
 20
1261.719634856
 10
533.3667910461
 20
1262.7695110691
 10
535.4773877923
 20
1263.52947029
 10
537.6932016377
 20
1263.9808562649
 10
539.9596701179
 20
1264.1125229252
 10
542.2209883843
 20
1263.9212516201
 10
544.4214726601
 20
1263.4117511166
 10
546.5069404606
 20
1262.5964787853
 10
548.4260423843
 20
1261.495640601
 10
550.1315193985
 20
1260.1362970722
 10
551.5813837562
 20
1258.5518268002
 10
552.7399266873
 20
1256.7813900364
 10
553.5786273692
 20
1254.8684981716
 10
554.0768327926
 20
1252.8602388752
 10
554.2222755764
 20
1250.806143607
 10
554.0113719914
 20
1248.756697501
 10
553.4493150924
 20
1246.7624452961
 10
552.5499480579
 20
1244.8724416149
 10
551.335417739
 20
1243.1331780804
 10
549.8356233154
 20
1241.5876296414
 10
548.0874991779
 20
1240.2737048519
 10
546.1340891931
 20
1239.2238286388
 10
544.0234924469
 20
1238.4638098133
 10
541.8076786015
 20
1238.0124238384
  0
LWPOLYLINE
  5
96
330
1F
100
AcDbEntity
  8
0
  6
Continuous
 62
     7
370
    25
100
AcDbPolyline
 90
       34
 70
   128
 43
0.0
 10
541.1366364721
 20
1243.2218101872
 10
539.2851262156
 20
1243.142297591
 10
537.4504468207
 20
1243.3817890537
 10
535.6989084546
 20
1243.9316419018
 10
534.0938131128
 20
1244.7719481838
 10
532.6931766037
 20
1245.8723691357
 10
531.5476191033
 20
1247.1931484593
 10
530.6985444192
 20
1248.6864832295
 10
530.1766414929
 20
1250.2984908474
 10
530.0007724006
 20
1251.9708183659
 10
530.1772943501
 20
1253.6430862797
 10
530.6998259191
 20
1255.2548554791
 10
531.5494826798
 20
1256.7478326214
 10
532.6955552016
 20
1258.0681351078
 10
534.0966219817
 20
1259.1679004086
 10
535.702045149
 20
1260.0075510395
 10
537.4537977193
 20
1260.5565694225
 10
539.2885702465
 20
1260.7952264202
 10
541.1400488381
 20
1260.7149389637
 10
542.9413142417
 20
1260.3184488667
 10
544.6272651468
 20
1259.6202400578
 10
546.1369669799
 20
1258.6454060925
 10
547.4158554141
 20
1257.4293521298
 10
548.4177070473
 20
1256.0158875836
 10
549.1063139204
 20
1254.4561532391
 10
549.4567873691
 20
1252.8064754856
 10
549.4564595435
 20
1251.1265781773
 10
549.1053434823
 20
1249.4770792378
 10
548.4161275242
 20
1247.9176429165
 10
547.413724548
 20
1246.5046552075
 10
546.1343611393
 20
1245.2890780819
 10
544.6242793266
 20
1244.3149593723
 10
542.9380564753
 20
1243.6174658192
 10
541.1366364721
 20
1243.2218101872
  0
LWPOLYLINE
  5
97
330
1F
100
AcDbEntity
  8
0
  6
Continuous
 62
     7
370
    25
100
AcDbPolyline
 90
       29
 70
   128
 43
0.0
 10
483.6158836995
 20
1245.5049661053
 10
482.7588024352
 20
1247.5954202068
 10
482.2284887348
 20
1249.806752528
 10
482.0508035634
 20
1252.0639804257
 10
482.2293679033
 20
1254.321089114
 10
482.7605458711
 20
1256.5321830166
 10
483.6335266743
 20
1258.652201022
 10
484.830536953
 20
1260.6381085766
 10
486.3272095833
 20
1262.4493149174
 10
488.0930791412
 20
1264.0490439785
 10
490.0921909873
 20
1265.4047516239
 10
492.2838537757
 20
1266.4887812985
 10
494.6234515671
 20
1267.2790792835
 10
497.0633546625
 20
1267.7595523251
 10
499.5538956289
 20
1267.9204252613
 10
502.044375128
 20
1267.7584198368
 10
504.4840900962
 20
1267.2768739117
 10
506.8233796198
 20
1266.4855626476
 10
509.0146186564
 20
1265.4005792988
 10
511.013203374
 20
1264.0439775837
 10
512.7784456861
 20
1262.4434736622
 10
514.2744114425
 20
1260.6315520657
 10
515.4706468608
 20
1258.6451676739
 10
516.3428004168
 20
1256.524732436
 10
516.8731171441
 20
1254.3134001148
 10
517.0508016169
 20
1252.0562318218
 10
516.8722365786
 20
1249.7990635288
 10
516.341056981
 20
1247.5879696262
 10
515.78669886
 20
1246.1405900372
  0
LWPOLYLINE
  5
98
330
1F
100
AcDbEntity
  8
0
  6
Continuous
 62
     7
370
    25
100
AcDbPolyline
 90
       41
 70
   128
 43
0.0
 10
501.6174326454
 20
1237.9577663792
 10
503.8437499468
 20
1238.4112981213
 10
505.9643528227
 20
1239.1748932255
 10
507.9270238791
 20
1240.2297166241
 10
509.6834349249
 20
1241.5498402966
 10
511.1903381337
 20
1243.1027797115
 10
512.4106291484
 20
1244.8502686871
 10
513.3142588463
 20
1246.749213065
 10
513.8789779309
 20
1248.7529424084
 10
514.0908812907
 20
1250.8121040714
 10
513.9447502595
 20
1252.8759745014
 10
513.4441834677
 20
1254.8937109364
 10
512.6015069697
 20
1256.8156627071
 10
511.4374701668
 20
1258.5945633305
 10
509.9807345111
 20
1260.1864841831
 10
508.267170823
 20
1261.5523246182
 10
506.3389726717
 20
1262.6583484066
 10
504.2436170195
 20
1263.4774354351
 10
502.0327019308
 20
1263.9893797291
 10
499.7606641416
 20
1264.1816047085
 10
497.4834481988
 20
1264.0492823971
 10
495.2571308974
 20
1263.595750655
 10
493.1365280215
 20
1262.8321555508
 10
491.1738588278
 20
1261.7773321522
 10
489.4174459193
 20
1260.4571488751
 10
487.9105436418
 20
1258.9042690647
 10
486.6902540241
 20
1257.1567800892
 10
485.7866215322
 20
1255.2578357113
 10
485.2219047759
 20
1253.2541063679
 10
485.0099990879
 20
1251.1949447048
 10
485.1561310504
 20
1249.1310742748
 10
485.6566983078
 20
1247.1133378399
 10
486.4993738745
 20
1245.1913264645
 10
487.6634116087
 20
1243.4124854458
 10
489.1201472644
 20
1241.8205645931
 10
490.8337100212
 20
1240.4547241581
 10
492.7619091038
 20
1239.3487003697
 10
494.8572638247
 20
1238.5295537365
 10
497.068180776
 20
1238.0176094425
 10
499.3402185653
 20
1237.8254440678
 10
501.6174326454
 20
1237.9577663792
  0
LWPOLYLINE
  5
99
330
1F
100
AcDbEntity
  8
0
  6
Continuous
 62
     7
370
    25
100
AcDbPolyline
 90
       41
 70
   128
 43
0.0
 10
501.6076798354
 20
1238.0192783726
 10
499.3412094925
 20
1237.8876117123
 10
497.0798930887
 20
1238.0788830174
 10
494.8794088129
 20
1238.5884431255
 10
492.7939391498
 20
1239.4036558521
 10
490.8748390887
 20
1240.5044940365
 10
489.1693602119
 20
1241.8638971699
 10
487.7194995795
 20
1243.4483078373
 10
486.5609529231
 20
1245.2188042057
 10
485.7222522412
 20
1247.1316960705
 10
485.2240468178
 20
1249.1398957623
 10
485.0786077593
 20
1251.1940506352
 10
485.2895113442
 20
1253.2434371365
 10
485.851564518
 20
1255.237748946
 10
486.7509315525
 20
1257.1277526272
 10
487.9654655967
 20
1258.8669565571
 10
489.4652581577
 20
1260.4125646008
 10
491.2133822952
 20
1261.7264893902
 10
493.1667922799
 20
1262.7763656033
 10
495.2773890261
 20
1263.5363248242
 10
497.4932010088
 20
1263.987710799
 10
499.7596713517
 20
1264.119437064
 10
502.0209896181
 20
1263.9281061543
 10
504.2214738939
 20
1263.4186056507
 10
506.3069416944
 20
1262.6033929241
 10
508.2260426868
 20
1261.5024951351
 10
509.9315206323
 20
1260.1431516064
 10
511.3813831274
 20
1258.558740939
 10
512.5399279211
 20
1256.7882445706
 10
513.3786281374
 20
1254.8753527058
 10
513.8768330951
 20
1252.867153014
 10
514.0222744819
 20
1250.8129981411
 10
513.8113713626
 20
1248.7635520352
 10
513.2493167918
 20
1246.7692998303
 10
512.3499502231
 20
1244.8792961491
 10
511.1354171101
 20
1243.1400922192
 10
509.6356245492
 20
1241.5944841755
 10
507.8875004117
 20
1240.2805593861
 10
505.9340894956
 20
1239.230683173
 10
503.8234936808
 20
1238.4707239521
 10
501.6076798354
 20
1238.0192783726
  0
LWPOLYLINE
  5
9A
330
1F
100
AcDbEntity
  8
0
  6
Continuous
 62
     7
370
    25
100
AcDbPolyline
 90
       34
 70
   128
 43
0.0
 10
500.9366358433
 20
1243.228724326
 10
499.0851274494
 20
1243.1492117298
 10
497.2504480545
 20
1243.3886435879
 10
495.4989096884
 20
1243.9384964359
 10
493.8938143466
 20
1244.778802718
 10
492.4931759749
 20
1245.8792236698
 10
491.3476194058
 20
1247.2000029934
 10
490.498545653
 20
1248.6933973683
 10
489.9766417954
 20
1250.3053453816
 10
489.8007727031
 20
1251.9777325047
 10
489.9772955839
 20
1253.6500004185
 10
490.4998271529
 20
1255.2617696179
 10
491.3494839136
 20
1256.7547467602
 10
492.4955564354
 20
1258.074989642
 10
493.8966232155
 20
1259.1748145474
 10
495.5020445202
 20
1260.0144055737
 10
497.2537989531
 20
1260.5634835613
 10
499.0885714803
 20
1260.802140559
 10
500.9400500719
 20
1260.7217934979
 10
502.7413154755
 20
1260.3253034008
 10
504.4272663806
 20
1259.6270945919
 10
505.9369682137
 20
1258.6523202313
 10
507.2158566479
 20
1257.4362066639
 10
508.2177082811
 20
1256.0227421177
 10
508.9063151542
 20
1254.4630077732
 10
509.2567876715
 20
1252.8133896244
 10
509.256459846
 20
1251.1334327114
 10
508.9053437848
 20
1249.4839337719
 10
508.216128758
 20
1247.9244974506
 10
507.2137248505
 20
1246.5115097416
 10
505.9343623732
 20
1245.2959922207
 10
504.4242805604
 20
1244.3218735111
 10
502.7380558465
 20
1243.624379958
 10
500.9366358433
 20
1243.228724326
  0
LINE
  5
9E
330
1F
100
AcDbEntity
  8
0
  6
Continuous
 62
     7
370
    25
100
AcDbLine
 10
419.5516156767
 20
1408.299496497
 30
0.0
 11
619.5516186569
 21
1408.299496497
 31
0.0
  0
LINE
  5
9F
330
1F
100
AcDbEntity
  8
0
  6
Continuous
 62
     7
370
    25
100
AcDbLine
 10
419.5516156767
 20
526.2994674099
 30
0.0
 11
619.5516186569
 21
526.2994674099
 31
0.0
  0
SPLINE
  5
A0
330
1F
100
AcDbEntity
  8
0
  6
Continuous
 62
     7
370
    25
100
AcDbSpline
210
0.0
220
0.0
230
1.0
 70
     8
 71
     3
 72
    12
 73
     8
 74
     0
 42
0.000000001
 43
0.00000001
 40
0.0
 40
0.0
 40
0.0
 40
0.0
 40
0.2147919640700486
 40
0.4295823094360385
 40
0.6444150424852121
 40
0.8592749800901367
 40
1.0
 40
1.0
 40
1.0
 40
1.0
 10
419.5828708622867
 20
536.2994671863892
 30
0.0
 10
419.582165171846
 20
536.5803825659646
 30
0.0
 10
419.5807537962831
 20
537.1422112080954
 30
0.0
 10
419.5708196798515
 20
537.892730963715
 30
0.0
 10
419.5600525637918
 20
538.4527128947909
 30
0.0
 10
419.5523650638779
 20
538.7701101177431
 30
0.0
 10
419.552399328402
 20
538.7681859953897
 30
0.0
 10
419.5524128888064
 20
538.7674245116689
 30
0.0
  0
SPLINE
  5
A1
330
1F
100
AcDbEntity
  8
0
  6
Continuous
 62
     7
370
    25
100
AcDbSpline
210
0.0
220
0.0
230
1.0
 70
     8
 71
     3
 72
    13
 73
     9
 74
     0
 42
0.000000001
 43
0.00000001
 40
0.0
 40
0.0
 40
0.0
 40
0.0
 40
0.0066575605834441
 40
0.2212630493407566
 40
0.4358689754742588
 40
0.6505333131559775
 40
0.865222792467266
 40
1.0
 40
1.0
 40
1.0
 40
1.0
 10
419.5517199848109
 20
533.8037061569669
 30
0.0
 10
419.5516867216593
 20
533.8022972309797
 30
0.0
 10
419.5505812256982
 20
533.7554717824783
 30
0.0
 10
419.5547829671304
 20
533.9245767851505
 30
0.0
 10
419.5637570136807
 20
534.3206623059948
 30
0.0
 10
419.5749023126237
 20
534.9720308311812
 30
0.0
 10
419.5818689874896
 20
535.6672034427501
 30
0.0
 10
419.5825920154307
 20
536.1234923464759
 30
0.0
 10
419.5828708622867
 20
536.2994671863892
 30
0.0
  0
SPLINE
  5
A2
330
1F
100
AcDbEntity
  8
0
  6
Continuous
 62
     7
370
    25
100
AcDbSpline
210
0.0
220
0.0
230
1.0
 70
     8
 71
     3
 72
    17
 73
    13
 74
     0
 42
0.000000001
 43
0.00000001
 40
0.0
 40
0.0
 40
0.0
 40
0.0
 40
0.1073474029667915
 40
0.2146940044294663
 40
0.3220616744341565
 40
0.4294430768989859
 40
0.5368015492054559
 40
0.6441362732141236
 40
0.7514834750146963
 40
0.8588598803279438
 40
0.9662367013364516
 40
1.0
 40
1.0
 40
1.0
 40
1.0
 10
619.5516186569148
 20
538.7994675961711
 30
0.0
 10
619.5509062743749
 20
538.771835128012
 30
0.0
 10
619.5494815146142
 20
538.71657039801
 30
0.0
 10
619.5396030821056
 20
538.2857736260711
 30
0.0
 10
619.5286332795396
 20
537.6512653372293
 30
0.0
 10
619.520747064909
 20
536.8589724887759
 30
0.0
 10
619.5195913941791
 20
536.0047172855578
 30
0.0
 10
619.5255706501772
 20
535.1848548017277
 30
0.0
 10
619.5362512204974
 20
534.4853370624016
 30
0.0
 10
619.546338995116
 20
534.0102012824021
 30
0.0
 10
619.5519710629893
 20
533.7850751364995
 30
0.0
 10
619.5510734283267
 20
533.8213500405617
 30
0.0
 10
619.5508586976939
 20
533.830027661232
 30
0.0
  0
SPLINE
  5
A4
330
1F
100
AcDbEntity
  8
0
  6
Continuous
 62
     7
370
    25
100
AcDbSpline
210
0.0
220
0.0
230
1.0
 70
    11
 71
     3
 72
    66
 73
    62
 74
     0
 42
0.000000001
 43
0.00000001
 40
0.0
 40
0.0
 40
0.0
 40
0.0
 40
0.0312499999999999
 40
0.0312499999999999
 40
0.0624999999999999
 40
0.0624999999999999
 40
0.0937499999999998
 40
0.0937499999999998
 40
0.1249999999999998
 40
0.1249999999999998
 40
0.1562499999999997
 40
0.1562499999999997
 40
0.1874999999999996
 40
0.1874999999999996
 40
0.2187499999999995
 40
0.2187499999999995
 40
0.2499999999999994
 40
0.2499999999999994
 40
0.2812499999999993
 40
0.2812499999999993
 40
0.3124999999999992
 40
0.3124999999999992
 40
0.3437499999999991
 40
0.3437499999999991
 40
0.3749999999999989
 40
0.3749999999999989
 40
0.4062499999999988
 40
0.4062499999999988
 40
0.4374999999999987
 40
0.4374999999999987
 40
0.4687499999999986
 40
0.4687499999999986
 40
0.4999999999999984
 40
0.4999999999999984
 40
0.5312499999999982
 40
0.5312499999999982
 40
0.5624999999999981
 40
0.5624999999999981
 40
0.6249999999999982
 40
0.6249999999999982
 40
0.6562499999999983
 40
0.6562499999999983
 40
0.6874999999999986
 40
0.6874999999999986
 40
0.7187499999999987
 40
0.7187499999999987
 40
0.7499999999999988
 40
0.7499999999999988
 40
0.781249999999999
 40
0.781249999999999
 40
0.8124999999999991
 40
0.8124999999999991
 40
0.8437499999999993
 40
0.8437499999999993
 40
0.8749999999999994
 40
0.8749999999999994
 40
0.9062499999999997
 40
0.9062499999999997
 40
0.9374999999999998
 40
0.9374999999999998
 40
1.0
 40
1.0
 40
1.0
 40
1.0
 10
517.0516171667986
 20
536.2994674099066
 30
0.0
 10
517.0516171667986
 20
536.134298356185
 30
0.0
 10
517.0678247573711
 20
535.9718906767935
 30
0.0
 10
517.1313282305687
 20
535.6523718108103
 30
0.0
 10
517.1793948825613
 20
535.4936057723842
 30
0.0
 10
517.3048807039185
 20
535.1908525935581
 30
0.0
 10
517.3816698764715
 20
535.0472616126942
 30
0.0
 10
517.5630895059743
 20
534.7755092925336
 30
0.0
 10
517.6686819141408
 20
534.6468479020009
 30
0.0
 10
517.8993384413465
 20
534.4162331130041
 30
0.0
 10
518.02519440598
 20
534.3127481036215
 30
0.0
 10
518.298469036934
 20
534.129988253213
 30
0.0
 10
518.4439772070496
 20
534.0523262752828
 30
0.0
 10
518.7447966850112
 20
533.9276431606166
 30
0.0
 10
518.9023228057978
 20
533.8796569118521
 30
0.0
 10
519.2250298956002
 20
533.8154370622632
 30
0.0
 10
519.3872411371565
 20
533.7995544957173
 30
0.0
 10
519.7133334561652
 20
533.7993810315178
 30
0.0
 10
519.8789407673078
 20
533.81560386486
 30
0.0
 10
520.1995793175961
 20
533.8793715644914
 30
0.0
 10
520.3554217318152
 20
533.9265542298446
 30
0.0
 10
520.6581034089268
 20
534.0516891880096
 30
0.0
 10
520.8045235631029
 20
534.1299598498616
 30
0.0
 10
521.0754694336648
 20
534.3108971295898
 30
0.0
 10
521.2017519005527
 20
534.4141873301116
 30
0.0
 10
521.4352183955504
 20
534.6474165541948
 30
0.0
 10
521.5388900089172
 20
534.7739289355478
 30
0.0
 10
521.7200064351814
 20
535.0446331712386
 30
0.0
 10
521.7982787036572
 20
535.1906850436179
 30
0.0
 10
521.9238552867532
 20
535.4936307644093
 30
0.0
 10
521.9711551086859
 20
535.6494635568081
 30
0.0
 10
522.0351532464601
 20
535.9697441891662
 30
0.0
 10
522.051559195327
 20
536.1354291113794
 30
0.0
 10
522.0516748243447
 20
536.4617339139396
 30
0.0
 10
522.0359145840112
 20
536.6238865782744
 30
0.0
 10
521.9721090902433
 20
536.9461514923704
 30
0.0
 10
521.9241420707194
 20
537.1042266595863
 30
0.0
 10
521.7375001719734
 20
537.5556373690946
 30
0.0
 10
521.5513781026501
 20
537.8347914731801
 30
0.0
 10
521.2059583617287
 20
538.180882078637
 30
0.0
 10
521.0775110584392
 20
538.2865230815286
 30
0.0
 10
520.8056600335583
 20
538.4683654939577
 30
0.0
 10
520.6621393433267
 20
538.5452473016348
 30
0.0
 10
520.3598679736309
 20
538.6708630875418
 30
0.0
 10
520.2008822066015
 20
538.7191792540352
 30
0.0
 10
519.881302988419
 20
538.7829846253793
 30
0.0
 10
519.7190217531345
 20
538.7992984483094
 30
0.0
 10
519.389297698959
 20
538.7996337856601
 30
0.0
 10
519.2261616768369
 20
538.7835360708489
 30
0.0
 10
518.9066651763081
 20
538.7203257944851
 30
0.0
 10
518.7482012783096
 20
538.6725342663665
 30
0.0
 10
518.4449246416665
 20
538.5471673565014
 30
0.0
 10
518.301247077332
 20
538.470462441077
 30
0.0
 10
518.0295651506474
 20
538.2894428987328
 30
0.0
 10
517.900752974908
 20
538.1839517853601
 30
0.0
 10
517.669770476394
 20
537.9533377117164
 30
0.0
 10
517.566234539105
 20
537.8276020023828
 30
0.0
 10
517.383484162351
 20
537.5549110709663
 30
0.0
 10
517.3054426453361
 20
537.409068450387
 30
0.0
 10
517.1180096702935
 20
536.9579598947266
 30
0.0
 10
517.0516171667986
 20
536.6298055173497
 30
0.0
 10
517.0516171667986
 20
536.2994674099066
 30
0.0
  0
LINE
  5
A5
330
1F
100
AcDbEntity
  8
0
  6
Continuous
 62
     7
370
    25
100
AcDbLine
 10
590.2993204806
 20
523.2994673838
 30
0.0
 11
419.4992529962
 21
523.2994673838
 31
0.0
  0
LINE
  5
A6
330
1F
100
AcDbEntity
  8
0
  6
Continuous
 62
     7
370
    25
100
AcDbLine
 10
619.6039813373
 20
523.2994673838
 30
0.0
 11
590.2993204806
 21
523.2994673838
 31
0.0
  0
LINE
  5
A7
330
1F
100
AcDbEntity
  8
0
  6
Continuous
 62
     7
370
    25
100
AcDbLine
 10
590.212923548
 20
516.2994676334
 30
0.0
 11
419.6214350675
 21
516.2994676334
 31
0.0
  0
LINE
  5
A8
330
1F
100
AcDbEntity
  8
0
  6
Continuous
 62
     7
370
    25
100
AcDbLine
 10
619.4817992661
 20
516.2994676334
 30
0.0
 11
590.212923548
 21
516.2994676334
 31
0.0
  0
LINE
  5
A9
330
1F
100
AcDbEntity
  8
0
  6
Continuous
 62
     7
370
    25
100
AcDbLine
 10
518.1972399157
 20
1416.7994764698
 30
0.0
 11
617.5516146038
 21
1416.7994764698
 31
0.0
  0
LINE
  5
AA
330
1F
100
AcDbEntity
  8
0
  6
Continuous
 62
     7
370
    25
100
AcDbLine
 10
421.5516197298
 20
1416.7994764698
 30
0.0
 11
518.1972399157
 21
1416.7994764698
 31
0.0
  0
LINE
  5
AB
330
1F
100
AcDbEntity
  8
0
  6
Continuous
 62
     7
370
    25
100
AcDbLine
 10
436.0167729471
 20
1192.7001384152
 30
0.0
 11
603.204232714
 21
1192.6715281857
 31
0.0
  0
SPLINE
  5
AC
330
1F
100
AcDbEntity
  8
0
  6
Continuous
 62
     7
370
    25
100
AcDbSpline
210
0.0
220
0.0
230
1.0
 70
     8
 71
     3
 72
    22
 73
    18
 74
     0
 42
0.000000001
 43
0.00000001
 40
0.0
 40
0.0
 40
0.0
 40
0.0
 40
0.042523213023556
 40
0.0810714327416521
 40
0.1197599971435923
 40
0.158359739092113
 40
0.215516412031279
 40
0.2728998697853797
 40
0.3301897038004487
 40
0.3758548925447673
 40
0.4215262287365856
 40
0.513045633493419
 40
0.6046040219693619
 40
0.6957995650618342
 40
0.7869840724180868
 40
0.8934871823583463
 40
1.0
 40
1.0
 40
1.0
 40
1.0
 10
517.0476157952362
 20
1289.320161665735
 30
0.0
 10
515.0495690385734
 20
1289.136691761855
 30
0.0
 10
511.2402493345866
 20
1288.786902390004
 30
0.0
 10
505.7773145991746
 20
1287.416424420595
 30
0.0
 10
500.6852185735812
 20
1285.609404125513
 30
0.0
 10
495.046224524238
 20
1282.964010313827
 30
0.0
 10
489.0375594334136
 20
1279.304061082345
 30
0.0
 10
482.8512728096261
 20
1274.544371885629
 30
0.0
 10
477.5613237268745
 20
1269.638424966107
 30
0.0
 10
473.0205187502478
 20
1264.797151652412
 30
0.0
 10
467.8000640933459
 20
1258.575230569613
 30
0.0
 10
461.8886136385117
 20
1250.383862478985
 30
0.0
 10
455.659290041687
 20
1240.103942358898
 30
0.0
 10
450.1472748018487
 20
1229.510622300902
 30
0.0
 10
445.0084712667945
 20
1218.074579898804
 30
0.0
 10
440.2183555832841
 20
1205.81424823622
 30
0.0
 10
437.4173430423635
 20
1197.071641163449
 30
0.0
 10
436.0167729471141
 20
1192.700138415156
 30
0.0
  0
LINE
  5
AD
330
1F
100
AcDbEntity
  8
0
  6
Continuous
 62
     7
370
    25
100
AcDbLine
 10
517.0476157952
 20
1289.3201616657
 30
0.0
 11
522.1646356665
 21
1289.3201616657
 31
0.0
  0
SPLINE
  5
AE
330
1F
100
AcDbEntity
  8
0
  6
Continuous
 62
     7
370
    25
100
AcDbSpline
210
0.0
220
0.0
230
1.0
 70
     8
 71
     3
 72
    23
 73
    19
 74
     0
 42
0.000000001
 43
0.00000001
 40
0.0
 40
0.0
 40
0.0
 40
0.0
 40
0.0424124033775563
 40
0.1273095251097937
 40
0.212202314512013
 40
0.2970453557999899
 40
0.3820347492256291
 40
0.4670091123818519
 40
0.5518862405128098
 40
0.6079020670830924
 40
0.6639057030324641
 40
0.7227974248831714
 40
0.7817876186696046
 40
0.840534391016585
 40
0.8789835440033538
 40
0.9175200576222902
 40
0.9559185031222796
 40
1.0
 40
1.0
 40
1.0
 40
1.0
 10
603.2042327139789
 20
1192.671528185663
 30
0.0
 10
602.6597348165632
 20
1194.415803194036
 30
0.0
 10
601.0253127319156
 20
1199.651602283278
 30
0.0
 10
598.0106303941432
 20
1208.302446834696
 30
0.0
 10
593.9773254248723
 20
1218.556040700516
 30
0.0
 10
589.4596483607821
 20
1228.647905716177
 30
0.0
 10
584.4077600018015
 20
1238.534750963547
 30
0.0
 10
578.7385545781228
 20
1248.146284886183
 30
0.0
 10
573.0917721705578
 20
1256.343146027375
 30
0.0
 10
567.6448451302266
 20
1263.164362371607
 30
0.0
 10
562.5094499626065
 20
1268.80182568445
 30
0.0
 10
556.8165915048835
 20
1274.16371996963
 30
0.0
 10
550.4904268858949
 20
1279.094864421936
 30
0.0
 10
544.3775522835447
 20
1282.85274516044
 30
0.0
 10
538.6924551628781
 20
1285.539958944671
 30
0.0
 10
533.626814094738
 20
1287.357757907515
 30
0.0
 10
528.1124953892715
 20
1288.766237802898
 30
0.0
 10
524.2362821438142
 20
1289.127229338371
 30
0.0
 10
522.164635666486
 20
1289.320161665735
 30
0.0
  0
SPLINE
  5
B6
330
1F
100
AcDbEntity
  8
0
  6
Continuous
 62
     7
370
    25
100
AcDbSpline
210
0.0
220
0.0
230
1.0
 70
     8
 71
     3
 72
    23
 73
    19
 74
     0
 42
0.000000001
 43
0.00000001
 40
0.0
 40
0.0
 40
0.0
 40
0.0
 40
0.0424450920131248
 40
0.1274083151769806
 40
0.2123667477634594
 40
0.2972753473606978
 40
0.3823309982540845
 40
0.4673712366088567
 40
0.5523142458385284
 40
0.6083054463309517
 40
0.6642845541359833
 40
0.7231398082465018
 40
0.7820931116286752
 40
0.8408033709725063
 40
0.8792459446940263
 40
0.9177755975116694
 40
0.9561672670107986
 40
1.0
 40
1.0
 40
1.0
 40
1.0
 10
436.0560375068599
 20
1192.10844310647
 30
0.0
 10
436.6010981645341
 20
1190.364345562575
 30
0.0
 10
438.2372180730989
 20
1185.129051703316
 30
0.0
 10
441.2546633025552
 20
1176.479120339769
 30
0.0
 10
445.2913650704442
 20
1166.226813487617
 30
0.0
 10
449.8125613077707
 20
1156.136468864307
 30
0.0
 10
454.8681637021161
 20
1146.251408214958
 30
0.0
 10
460.5415337897884
 20
1136.642155196489
 30
0.0
 10
466.1907976442241
 20
1128.450381106459
 30
0.0
 10
471.6379488028665
 20
1121.636773937671
 30
0.0
 10
476.7701883661704
 20
1116.009306988801
 30
0.0
 10
482.4587694755166
 20
1110.657792752449
 30
0.0
 10
488.7793101138193
 20
1105.737273972797
 30
0.0
 10
494.8867942895816
 20
1101.987885275914
 30
0.0
 10
500.5671858381012
 20
1099.307129481284
 30
0.0
 10
505.6293711973495
 20
1097.494418000366
 30
0.0
 10
511.1285183605337
 20
1096.093882413555
 30
0.0
 10
514.9897031700579
 20
1095.734953810856
 30
0.0
 10
517.0480493258947
 20
1095.543613756952
 30
0.0
  0
LINE
  5
B9
330
1F
100
AcDbEntity
  8
0
  6
Continuous
 62
     7
370
    25
100
AcDbLine
 10
522.1650691971
 20
1095.543613757
 30
0.0
 11
517.0480493259
 21
1095.543613757
 31
0.0
  0
LINE
  5
BA
330
1F
100
AcDbEntity
  8
0
  6
Continuous
 62
     7
370
    25
100
AcDbLine
 10
436.0560375069
 20
1192.1084431065
 30
0.0
 11
603.1483161066
 21
1192.0798924816
 31
0.0
  0
SPLINE
  5
BB
330
1F
100
AcDbEntity
  8
0
  6
Continuous
 62
     7
370
    25
100
AcDbSpline
210
0.0
220
0.0
230
1.0
 70
     8
 71
     3
 72
    22
 73
    18
 74
     0
 42
0.000000001
 43
0.00000001
 40
0.0
 40
0.0
 40
0.0
 40
0.0
 40
0.0425584938107294
 40
0.0811169763994187
 40
0.1198159641024991
 40
0.1584258699877225
 40
0.2156051676096051
 40
0.2730112346756174
 40
0.330323608187332
 40
0.3760100279702765
 40
0.4217024157853685
 40
0.5132640516445225
 40
0.6048650116598727
 40
0.6961027127146259
 40
0.7873297599150699
 40
0.8936597958845484
 40
1.0
 40
1.0
 40
1.0
 40
1.0
 10
522.1650691971445
 20
1095.543613756952
 30
0.0
 10
524.163125738983
 20
1095.727227739275
 30
0.0
 10
527.9714443808463
 20
1096.077198091538
 30
0.0
 10
533.4323114545131
 20
1097.447916213699
 30
0.0
 10
538.5213505348038
 20
1099.254738245492
 30
0.0
 10
544.1572671805917
 20
1101.899541278309
 30
0.0
 10
550.1627194914272
 20
1105.558778417006
 30
0.0
 10
556.3458580168706
 20
1110.317314797979
 30
0.0
 10
561.6332016464381
 20
1115.221962027337
 30
0.0
 10
566.1718633578769
 20
1120.061938214607
 30
0.0
 10
571.3900687490975
 20
1126.282183401942
 30
0.0
 10
577.2990377241109
 20
1134.471165548368
 30
0.0
 10
583.526000604627
 20
1144.747850324169
 30
0.0
 10
589.0363042172618
 20
1155.337583637683
 30
0.0
 10
594.1699270039112
 20
1166.760838639718
 30
0.0
 10
598.9530806171483
 20
1178.998572043348
 30
0.0
 10
601.7498597037724
 20
1187.719313350765
 30
0.0
 10
603.1483161065989
 20
1192.079892481623
 30
0.0
  0
SPLINE
  5
C1
330
1F
100
AcDbEntity
  8
0
  6
Continuous
 62
     7
370
    25
100
AcDbSpline
210
0.0
220
0.0
230
1.0
 70
     8
 71
     3
 72
    10
 73
     6
 74
     0
 42
0.000000001
 43
0.00000001
 40
0.0
 40
0.0
 40
0.0
 40
0.0
 40
0.3630744603150352
 40
0.6808528807355819
 40
1.0
 40
1.0
 40
1.0
 40
1.0
 10
435.6507780764514
 20
1192.360451544581
 30
0.0
 10
435.7002044937547
 20
1192.329537802337
 30
0.0
 10
435.7928910423381
 20
1192.271567020138
 30
0.0
 10
435.9283427592288
 20
1192.18732762058
 30
0.0
 10
436.0134116557069
 20
1192.134775587791
 30
0.0
 10
436.0560375068598
 20
1192.10844310647
 30
0.0
  0
SPLINE
  5
C2
330
1F
100
AcDbEntity
  8
0
  6
Continuous
 62
     7
370
    25
100
AcDbSpline
210
0.0
220
0.0
230
1.0
 70
     8
 71
     3
 72
     9
 73
     5
 74
     0
 42
0.000000001
 43
0.00000001
 40
0.0
 40
0.0
 40
0.0
 40
0.0
 40
0.7468786774599095
 40
1.0
 40
1.0
 40
1.0
 40
1.0
 10
435.6507780764513
 20
1192.360451544581
 30
0.0
 10
435.6383040347447
 20
1192.368864322514
 30
0.0
 10
435.6216024711803
 20
1192.380128237508
 30
0.0
 10
435.6130044147145
 20
1192.397864247541
 30
0.0
 10
435.6108280632907
 20
1192.402353609858
 30
0.0
  0
LINE
  5
C3
330
1F
100
AcDbEntity
  8
0
  6
Continuous
 62
     7
370
    25
100
AcDbLine
 10
435.6107014034
 20
1192.4013999355
 30
0.0
 11
435.6093826507
 21
1192.4276855839
 31
0.0
  0
SPLINE
  5
C4
330
1F
100
AcDbEntity
  8
0
  6
Continuous
 62
     7
370
    25
100
AcDbSpline
210
0.0
220
0.0
230
1.0
 70
     8
 71
     3
 72
    11
 73
     7
 74
     0
 42
0.000000001
 43
0.00000001
 40
0.0
 40
0.0
 40
0.0
 40
0.0
 40
0.0738989849616588
 40
0.369081542855063
 40
0.8921500403805523
 40
1.0
 40
1.0
 40
1.0
 40
1.0
 10
435.609621069234
 20
1192.426672304926
 30
0.0
 10
435.610070850247
 20
1192.428152796136
 30
0.0
 10
435.6123172392924
 20
1192.435546970496
 30
0.0
 10
435.6226413213569
 20
1192.451567422945
 30
0.0
 10
435.6377904275095
 20
1192.464042539928
 30
0.0
 10
435.648875696638
 20
1192.471170590017
 30
0.0
 10
435.6507706258708
 20
1192.472389067469
 30
0.0
  0
SPLINE
  5
C5
330
1F
100
AcDbEntity
  8
0
  6
Continuous
 62
     7
370
    25
100
AcDbSpline
210
0.0
220
0.0
230
1.0
 70
     8
 71
     3
 72
    10
 73
     6
 74
     0
 42
0.000000001
 43
0.00000001
 40
0.0
 40
0.0
 40
0.0
 40
0.0
 40
0.4016164549550406
 40
0.7003517479476654
 40
1.0
 40
1.0
 40
1.0
 40
1.0
 10
436.0167729471141
 20
1192.700138415156
 30
0.0
 10
435.968264130885
 20
1192.670111527461
 30
0.0
 10
435.8836728901185
 20
1192.617749670713
 30
0.0
 10
435.7611817865141
 20
1192.541510106338
 30
0.0
 10
435.6876117615641
 20
1192.495452837086
 30
0.0
 10
435.6507706258708
 20
1192.472389067469
 30
0.0
  0
SPLINE
  5
C6
330
1F
100
AcDbEntity
  8
0
  6
Continuous
 62
     7
370
    25
100
AcDbSpline
210
0.0
220
0.0
230
1.0
 70
     8
 71
     3
 72
    10
 73
     6
 74
     0
 42
0.000000001
 43
0.00000001
 40
0.0
 40
0.0
 40
0.0
 40
0.0
 40
0.4109260611255731
 40
0.7050451008362835
 40
0.9999999999999999
 40
0.9999999999999999
 40
0.9999999999999999
 40
0.9999999999999999
 10
603.5617637250834
 20
1192.449143256006
 30
0.0
 10
603.5123975170865
 20
1192.479986781353
 30
0.0
 10
603.4276976005135
 20
1192.53290646325
 30
0.0
 10
603.3084178266121
 20
1192.607117528775
 30
0.0
 10
603.2389939209314
 20
1192.650037666361
 30
0.0
 10
603.2042327139789
 20
1192.671528185663
 30
0.0
  0
SPLINE
  5
C7
330
1F
100
AcDbEntity
  8
0
  6
Continuous
 62
     7
370
    25
100
AcDbSpline
210
0.0
220
0.0
230
1.0
 70
     8
 71
     3
 72
    10
 73
     6
 74
     0
 42
0.000000001
 43
0.00000001
 40
0.0
 40
0.0
 40
0.0
 40
0.0
 40
0.7354349502137968
 40
0.9894976853287786
 40
1.0
 40
1.0
 40
1.0
 40
1.0
 10
603.5617637250834
 20
1192.449143256006
 30
0.0
 10
603.5739113939158
 20
1192.440597092921
 30
0.0
 10
603.590255586136
 20
1192.429098579573
 30
0.0
 10
603.600417316487
 20
1192.411496076106
 30
0.0
 10
603.6020297113712
 20
1192.406486383818
 30
0.0
 10
603.6020937178546
 20
1192.406287516413
 30
0.0
  0
LINE
  5
C8
330
1F
100
AcDbEntity
  8
0
  6
Continuous
 62
     7
370
    25
100
AcDbLine
 10
603.6026972149
 20
1192.4061087025
 30
0.0
 11
603.6004024361
 21
1192.37463745
 31
0.0
  0
SPLINE
  5
C9
330
1F
100
AcDbEntity
  8
0
  6
Continuous
 62
     7
370
    25
100
AcDbSpline
210
0.0
220
0.0
230
1.0
 70
     8
 71
     3
 72
    10
 73
     6
 74
     0
 42
0.000000001
 43
0.00000001
 40
0.0
 40
0.0
 40
0.0
 40
0.0
 40
0.309615160907763
 40
0.882494785883823
 40
1.0
 40
1.0
 40
1.0
 40
1.0
 10
603.6012816045695
 20
1192.377677286921
 30
0.0
 10
603.5984522113771
 20
1192.372460228043
 30
0.0
 10
603.590387603907
 20
1192.357590067152
 30
0.0
 10
603.5748884780289
 20
1192.345449652267
 30
0.0
 10
603.5638063867353
 20
1192.338404786728
 30
0.0
 10
603.561920187276
 20
1192.337205733118
 30
0.0
  0
SPLINE
  5
CA
330
1F
100
AcDbEntity
  8
0
  6
Continuous
 62
     7
370
    25
100
AcDbSpline
210
0.0
220
0.0
230
1.0
 70
     8
 71
     3
 72
    10
 73
     6
 74
     0
 42
0.000000001
 43
0.00000001
 40
0.0
 40
0.0
 40
0.0
 40
0.0
 40
0.3558156916020446
 40
0.6772134888556298
 40
1.0
 40
1.0
 40
1.0
 40
1.0
 10
603.1483161065989
 20
1192.079892481623
 30
0.0
 10
603.1968457534132
 20
1192.109875696379
 30
0.0
 10
603.2892107957865
 20
1192.166941862801
 30
0.0
 10
603.427608582362
 20
1192.253087613433
 30
0.0
 10
603.5170853551588
 20
1192.30912609118
 30
0.0
 10
603.561920187276
 20
1192.337205733118
 30
0.0
  0
LINE
  5
DA
330
1F
100
AcDbEntity
  8
0
  6
Continuous
 62
     7
370
    25
100
AcDbLine
 10
619.5374178503
 20
538.1614417834
 30
0.0
 11
619.5374178503
 21
534.4370744256
 31
0.0
  0
LINE
  5
DB
330
1F
100
AcDbEntity
  8
0
  6
Continuous
 62
     7
370
    25
100
AcDbLine
 10
521.2366601488
 20
535.8986808983
 30
0.0
 11
520.7412302995
 21
537.5583638502
 31
0.0
  0
LINE
  5
DC
330
1F
100
AcDbEntity
  8
0
  6
Continuous
 62
     7
370
    25
100
AcDbLine
 10
520.7412302995
 20
537.5583638502
 30
0.0
 11
519.0561873175
 21
537.9591510696
 31
0.0
  0
LINE
  5
DD
330
1F
100
AcDbEntity
  8
0
  6
Continuous
 62
     7
370
    25
100
AcDbLine
 10
519.0561873175
 20
537.9591510696
 30
0.0
 11
517.8665741848
 21
536.7002544058
 31
0.0
  0
LINE
  5
DE
330
1F
100
AcDbEntity
  8
0
  6
Continuous
 62
     7
370
    25
100
AcDbLine
 10
517.8665741848
 20
536.7002544058
 30
0.0
 11
518.3620040341
 21
535.0405705226
 31
0.0
  0
LINE
  5
DF
330
1F
100
AcDbEntity
  8
0
  6
Continuous
 62
     7
370
    25
100
AcDbLine
 10
518.3620040341
 20
535.0405705226
 30
0.0
 11
520.0470470161
 21
534.6397842345
 31
0.0
  0
LINE
  5
E0
330
1F
100
AcDbEntity
  8
0
  6
Continuous
 62
     7
370
    25
100
AcDbLine
 10
520.0470470161
 20
534.6397842345
 30
0.0
 11
521.2366601488
 21
535.8986808983
 31
0.0
  0
CIRCLE
  5
E1
330
1F
100
AcDbEntity
  8
0
  6
Continuous
 62
     7
370
    25
100
AcDbCircle
 10
519.5516171668
 20
536.2994674099
 30
0.0
 40
2.250000000000023
  0
LINE
  5
E2
330
1F
100
AcDbEntity
  8
0
  6
Continuous
 62
     7
370
    25
100
AcDbLine
 10
419.5658164833
 20
534.4462581975
 30
0.0
 11
419.5658164833
 21
538.1696523232
 31
0.0
  0
LINE
  5
E3
330
1F
100
AcDbEntity
  8
0
  6
Continuous
 62
     8
370
    25
100
AcDbLine
 10
518.1695996586
 20
1414.7994426144
 30
0.0
 11
419.5516156767
 21
1414.7994426144
 31
0.0
  0
LINE
  5
E4
330
1F
100
AcDbEntity
  8
0
  6
Continuous
 62
     8
370
    25
100
AcDbLine
 10
619.5516186569
 20
1414.7994426144
 30
0.0
 11
518.1695996586
 21
1414.7994426144
 31
0.0
  0
LINE
  5
E5
330
1F
100
AcDbEntity
  8
0
  6
Continuous
 62
     8
370
    25
100
AcDbLine
 10
419.5516156767
 20
1409.2994836224
 30
0.0
 11
619.5516186569
 21
1409.2994836224
 31
0.0
  0
SPLINE
  5
EB
330
1F
100
AcDbEntity
  8
0
  6
Continuous
 62
     7
370
    25
100
AcDbSpline
210
0.0
220
0.0
230
1.0
 70
     8
 71
     3
 72
    14
 73
    10
 74
     0
 42
0.000000001
 43
0.00000001
 40
0.0
 40
0.0
 40
0.0
 40
0.0
 40
0.1293807380024462
 40
0.3437808969121979
 40
0.5302183405068823
 40
0.6922945097419007
 40
0.829909680935792
 40
0.9411378235219416
 40
0.9999999999999999
 40
0.9999999999999999
 40
0.9999999999999999
 40
0.9999999999999999
 10
832.5019945605474
 20
1201.519241656122
 30
0.0
 10
832.6537456742944
 20
1201.481826163975
 30
0.0
 10
833.0569674737429
 20
1201.382408494487
 30
0.0
 10
833.704169688107
 20
1201.467395086192
 30
0.0
 10
834.3479297578896
 20
1201.68098596246
 30
0.0
 10
834.8530696038757
 20
1201.984353693251
 30
0.0
 10
835.2245417339062
 20
1202.311933771691
 30
0.0
 10
835.4674259608246
 20
1202.593121281112
 30
0.0
 10
835.5774359777588
 20
1202.765341682708
 30
0.0
 10
835.615506510325
 20
1202.824941004572
 30
0.0
  0
SPLINE
  5
EC
330
1F
100
AcDbEntity
  8
0
  6
Continuous
 62
     7
370
    25
100
AcDbSpline
210
0.0
220
0.0
230
1.0
 70
     8
 71
     3
 72
    21
 73
    17
 74
     0
 42
0.000000001
 43
0.00000001
 40
0.0
 40
0.0
 40
0.0
 40
0.0
 40
0.1340120483840845
 40
0.3897147030875643
 40
0.4542017757837012
 40
0.4928126136268248
 40
0.5047742745965287
 40
0.5095594917081561
 40
0.5165079678865998
 40
0.5415696804542937
 40
0.5848774046520728
 40
0.661883713262009
 40
0.738182035324222
 40
0.8487815051983228
 40
0.9508683835875761
 40
1.0
 40
1.0
 40
1.0
 40
1.0
 10
847.8229512675481
 20
1228.937676276026
 30
0.0
 10
847.866051042346
 20
1229.03021060641
 30
0.0
 10
847.9913876530538
 20
1229.29930573275
 30
0.0
 10
848.0647450173698
 20
1229.457010189425
 30
0.0
 10
848.0932908691876
 20
1229.518662554482
 30
0.0
 10
848.0981373794887
 20
1229.529264029498
 30
0.0
 10
848.1119629433587
 20
1229.559505591574
 30
0.0
 10
848.1294307035766
 20
1229.599339412483
 30
0.0
 10
848.1671007426739
 20
1229.688332792893
 30
0.0
 10
848.2415841406494
 20
1229.888536971307
 30
0.0
 10
848.3455984832267
 20
1230.280529997411
 30
0.0
 10
848.3963041698803
 20
1230.833320756278
 30
0.0
 10
848.3061423254967
 20
1231.572447436909
 30
0.0
 10
847.9903099944454
 20
1232.324658845341
 30
0.0
 10
847.5420150163595
 20
1232.929941704357
 30
0.0
 10
847.1792419764835
 20
1233.151232561923
 30
0.0
 10
847.0613752706723
 20
1233.223131026087
 30
0.0
  0
SPLINE
  5
EE
330
1F
100
AcDbEntity
  8
0
  6
Continuous
 62
     7
370
    25
100
AcDbSpline
210
0.0
220
0.0
230
1.0
 70
     8
 71
     3
 72
    13
 73
     9
 74
     0
 42
0.000000001
 43
0.00000001
 40
0.0
 40
0.0
 40
0.0
 40
0.0
 40
0.0120258737614948
 40
0.1635368499628949
 40
0.3819388286143653
 40
0.5978031188804243
 40
0.8156849911673744
 40
1.0
 40
1.0
 40
1.0
 40
1.0
 10
713.2559810980039
 20
753.0890313041784
 30
0.0
 10
713.2636710310286
 20
753.076111890189
 30
0.0
 10
713.368244507203
 20
752.900424010116
 30
0.0
 10
713.6772309414786
 20
752.5288597448607
 30
0.0
 10
714.2582622128356
 20
752.0660952126784
 30
0.0
 10
715.0227406162253
 20
751.7568282257756
 30
0.0
 10
715.8055985701978
 20
751.6423353692405
 30
0.0
 10
716.3000844867013
 20
751.7559240998307
 30
0.0
 10
716.526692847796
 20
751.8079784763434
 30
0.0
  0
SPLINE
  5
EF
330
1F
100
AcDbEntity
  8
0
  6
Continuous
 62
     7
370
    25
100
AcDbSpline
210
0.0
220
0.0
230
1.0
 70
     8
 71
     3
 72
    15
 73
    11
 74
     0
 42
0.000000001
 43
0.00000001
 40
0.0
 40
0.0
 40
0.0
 40
0.0
 40
0.0160635416734788
 40
0.2392655777048393
 40
0.4290884447855817
 40
0.5947038450662004
 40
0.7379330601332432
 40
0.8580823284293665
 40
0.9529953685747161
 40
1.0
 40
1.0
 40
1.0
 40
1.0
 10
701.924326012917
 20
783.5701313865759
 30
0.0
 10
701.9056323452717
 20
783.560917485353
 30
0.0
 10
701.6271911845662
 20
783.4236769288291
 30
0.0
 10
701.2495788145234
 20
782.981926075898
 30
0.0
 10
700.8541816427088
 20
782.3464601232553
 30
0.0
 10
700.6615141674174
 20
781.7213629008728
 30
0.0
 10
700.602966023117
 20
781.1656056933609
 30
0.0
 10
700.6359337939647
 20
780.7007251311821
 30
0.0
 10
700.7026745081401
 20
780.3661635999459
 30
0.0
 10
700.7615829326979
 20
780.1921536084054
 30
0.0
 10
700.7810940249639
 20
780.1345196617224
 30
0.0
  0
SPLINE
  5
F2
330
1F
100
AcDbEntity
  8
0
  6
Continuous
 62
     7
370
    25
100
AcDbSpline
210
0.0
220
0.0
230
1.0
 70
     8
 71
     3
 72
    13
 73
     9
 74
     0
 42
0.000000001
 43
0.00000001
 40
0.0
 40
0.0
 40
0.0
 40
0.0
 40
0.0120229378103019
 40
0.1635367431180226
 40
0.3819343290477428
 40
0.5978021806864376
 40
0.8156846505392675
 40
1.0
 40
1.0
 40
1.0
 40
1.0
 10
697.2429846628385
 20
787.83353241807
 30
0.0
 10
697.2506760010357
 20
787.8206180717305
 30
0.0
 10
697.3552940585196
 20
787.6449563347063
 30
0.0
 10
697.6642008914156
 20
787.2733457363197
 30
0.0
 10
698.2452849355556
 20
786.8106226327205
 30
0.0
 10
699.0097337899997
 20
786.5013053958232
 30
0.0
 10
699.7926076049291
 20
786.3868190100698
 30
0.0
 10
700.2870924003835
 20
786.5004197400038
 30
0.0
 10
700.5137001379209
 20
786.552479590235
 30
0.0
  0
SPLINE
  5
F3
330
1F
100
AcDbEntity
  8
0
  6
Continuous
 62
     7
370
    25
100
AcDbSpline
210
0.0
220
0.0
230
1.0
 70
     8
 71
     3
 72
    15
 73
    11
 74
     0
 42
0.000000001
 43
0.00000001
 40
0.0
 40
0.0
 40
0.0
 40
0.0
 40
0.0160635484624054
 40
0.2392642954827753
 40
0.42908821466983
 40
0.5947036822439755
 40
0.7379329548514099
 40
0.8580822714158697
 40
0.9529953496912439
 40
1.0
 40
1.0
 40
1.0
 40
1.0
 10
685.9113295777516
 20
818.3146325004675
 30
0.0
 10
685.8926359028522
 20
818.3054186060374
 30
0.0
 10
685.6141962439386
 20
818.1681789441633
 30
0.0
 10
685.2365919969611
 20
817.7264217194148
 30
0.0
 10
684.8411836366184
 20
817.0909637511558
 30
0.0
 10
684.6485181533167
 20
816.4658637373208
 30
0.0
 10
684.5899695001566
 20
815.9101068653209
 30
0.0
 10
684.6229373758553
 20
815.4452262337928
 30
0.0
 10
684.6896780712989
 20
815.110664714946
 30
0.0
 10
684.7485864971156
 20
814.9366547225727
 30
0.0
 10
684.7680975897985
 20
814.879020775614
 30
0.0
  0
SPLINE
  5
F6
330
1F
100
AcDbEntity
  8
0
  6
Continuous
 62
     7
370
    25
100
AcDbSpline
210
0.0
220
0.0
230
1.0
 70
     8
 71
     3
 72
    14
 73
    10
 74
     0
 42
0.000000001
 43
0.00000001
 40
0.0
 40
0.0
 40
0.0
 40
0.0
 40
0.0140457232266376
 40
0.1169779355651653
 40
0.2331467061968401
 40
0.3882512106885178
 40
0.6049695252812979
 40
0.8088034253153878
 40
1.0
 40
1.0
 40
1.0
 40
1.0
 10
864.3320148094373
 20
1264.35833248025
 30
0.0
 10
864.3387340924694
 20
1264.375147401456
 30
0.0
 10
864.3946947464619
 20
1264.515188233648
 30
0.0
 10
864.4809521539587
 20
1264.81636208632
 30
0.0
 10
864.5515508784187
 20
1265.305475245419
 30
0.0
 10
864.5277249339522
 20
1265.955829176697
 30
0.0
 10
864.3086052498946
 20
1266.692306382161
 30
0.0
 10
863.8835712665038
 20
1267.399165645414
 30
0.0
 10
863.4692925284253
 20
1267.722703998756
 30
0.0
 10
863.2687797053534
 20
1267.879298056421
 30
0.0
  0
SPLINE
  5
F7
330
1F
100
AcDbEntity
  8
0
  6
Continuous
 62
     7
370
    25
100
AcDbSpline
210
0.0
220
0.0
230
1.0
 70
     8
 71
     3
 72
    22
 73
    18
 74
     0
 42
0.000000001
 43
0.00000001
 40
0.0
 40
0.0
 40
0.0
 40
0.0
 40
0.1237076761792812
 40
0.2676633371280719
 40
0.3928972719459243
 40
0.5017282256420317
 40
0.594043076128732
 40
0.6685357045688315
 40
0.7233043628518395
 40
0.7565969472904679
 40
0.765568354495276
 40
0.7719454793475811
 40
0.7796397960760106
 40
0.793087111960006
 40
0.8266899602359812
 40
0.9626673695197231
 40
1.0
 40
1.0
 40
1.0
 40
1.0
 10
848.497370372601
 20
1236.216297472773
 30
0.0
 10
848.7128076830821
 20
1236.162892452531
 30
0.0
 10
849.178944233749
 20
1236.047341288862
 30
0.0
 10
849.8883908012282
 20
1236.135346219444
 30
0.0
 10
850.5286862018006
 20
1236.354296193545
 30
0.0
 10
851.0295916590298
 20
1236.65899592525
 30
0.0
 10
851.3989436132941
 20
1236.985259300279
 30
0.0
 10
851.6540100501505
 20
1237.290194619698
 30
0.0
 10
851.8120627491909
 20
1237.529383082891
 30
0.0
 10
851.8981283213973
 20
1237.685898153983
 30
0.0
 10
851.9319249423269
 20
1237.753082511816
 30
0.0
 10
851.9424337706151
 20
1237.77440910741
 30
0.0
 10
851.9500210150463
 20
1237.790046960763
 30
0.0
 10
851.9575358196538
 20
1237.805673629323
 30
0.0
 10
851.9676883671002
 20
1237.827313855098
 30
0.0
 10
851.9694390379755
 20
1237.830858392409
 30
0.0
 10
851.9902926065496
 20
1237.87544445148
 30
0.0
 10
851.994784663506
 20
1237.885048712549
 30
0.0
  0
LINE
  5
F8
330
1F
100
AcDbEntity
  8
0
  6
Continuous
 62
     7
370
    25
100
AcDbLine
 10
873.2181434735
 20
1292.7816418064
 30
0.0
 11
873.2181434735
 21
1408.299496497
 31
0.0
  0
LINE
  5
F9
330
1F
100
AcDbEntity
  8
0
  6
Continuous
 62
     7
370
    25
100
AcDbLine
 10
873.2181434735
 20
538.7952282158
 30
0.0
 11
873.2181434735
 21
1091.8172505749
 31
0.0
  0
LINE
  5
FA
330
1F
100
AcDbEntity
  8
0
  6
Continuous
 62
     7
370
    25
100
AcDbLine
 10
873.2181434735
 20
526.2994674099
 30
0.0
 11
873.2181434735
 21
533.8315098611
 31
0.0
  0
LINE
  5
FB
330
1F
100
AcDbEntity
  8
0
  6
Continuous
 62
     7
370
    25
100
AcDbLine
 10
673.2181404932
 20
533.8315098611
 30
0.0
 11
673.2181404932
 21
526.2994674099
 31
0.0
  0
LINE
  5
FC
330
1F
100
AcDbEntity
  8
0
  6
Continuous
 62
     7
370
    25
100
AcDbLine
 10
673.2181404932
 20
636.8110385788
 30
0.0
 11
673.2181404932
 21
538.7952282158
 31
0.0
  0
LINE
  5
FD
330
1F
100
AcDbEntity
  8
0
  6
Continuous
 62
     7
370
    25
100
AcDbLine
 10
673.2181404932
 20
1408.299496497
 30
0.0
 11
673.2181404932
 21
847.7874306095
 31
0.0
  0
LINE
  5
FE
330
1F
100
AcDbEntity
  8
0
  6
Continuous
 62
     7
370
    25
100
AcDbLine
 10
873.2705061539
 20
523.2994673838
 30
0.0
 11
873.2181434735
 21
526.2994674099
 31
0.0
  0
LINE
  5
FF
330
1F
100
AcDbEntity
  8
0
  6
Continuous
 62
     7
370
    25
100
AcDbLine
 10
673.2181404932
 20
526.2994674099
 30
0.0
 11
673.1657778128
 21
523.2994673838
 31
0.0
  0
LINE
  5
100
330
1F
100
AcDbEntity
  8
0
  6
Continuous
 62
     7
370
    25
100
AcDbLine
 10
673.1657778128
 20
523.2994673838
 30
0.0
 11
673.287959884
 21
516.2994676334
 31
0.0
  0
LINE
  5
101
330
1F
100
AcDbEntity
  8
0
  6
Continuous
 62
     7
370
    25
100
AcDbLine
 10
873.1483240827
 20
516.2994676334
 30
0.0
 11
873.2705061539
 21
523.2994673838
 31
0.0
  0
LINE
  5
102
330
1F
100
AcDbEntity
  8
0
  6
Continuous
 62
     7
370
    25
100
AcDbLine
 10
673.2181404932
 20
1414.7994426144
 30
0.0
 11
673.2181404932
 21
1409.2994836224
 31
0.0
  0
LINE
  5
103
330
1F
100
AcDbEntity
  8
0
  6
Continuous
 62
     7
370
    25
100
AcDbLine
 10
873.2181434735
 20
1409.2994836224
 30
0.0
 11
873.2181434735
 21
1414.7994426144
 31
0.0
  0
ARC
  5
104
330
1F
100
AcDbEntity
  8
0
  6
Continuous
 62
     7
370
    25
100
AcDbCircle
 10
872.2181419833
 20
1409.2994674099
 30
0.0
 40
1.0
100
AcDbArc
 50
270.0000000001
 51
0.0
  0
ARC
  5
105
330
1F
100
AcDbEntity
  8
0
  6
Continuous
 62
     7
370
    25
100
AcDbCircle
 10
674.2181419833
 20
1409.2994674099
 30
0.0
 40
1.0
100
AcDbArc
 50
180.0
 51
269.9999999999
  0
ARC
  5
106
330
1F
100
AcDbEntity
  8
0
  6
Continuous
 62
     7
370
    25
100
AcDbCircle
 10
675.2181419833
 20
1414.7994674099
 30
0.0
 40
2.0
100
AcDbArc
 50
90.0
 51
180.0
  0
ARC
  5
107
330
1F
100
AcDbEntity
  8
0
  6
Continuous
 62
     7
370
    25
100
AcDbCircle
 10
871.2181419833
 20
1414.7994674099
 30
0.0
 40
2.0
100
AcDbArc
 50
0.0
 51
89.9999999999
  0
LWPOLYLINE
  5
108
330
1F
100
AcDbEntity
  8
0
  6
Continuous
 62
     7
370
    25
100
AcDbPolyline
 90
       21
 70
   128
 43
0.0
 10
836.0745703085
 20
1203.7326601399
 10
835.8649333223
 20
1203.2823470486
 10
835.805142413
 20
1203.1533029926
 10
835.8966504439
 20
1203.3488062275
 10
836.1372147902
 20
1203.8639095677
 10
836.5209122403
 20
1204.686036433
 10
837.0382954581
 20
1205.7949212444
 10
837.6766239508
 20
1207.1632054699
 10
838.4201769932
 20
1208.7572124851
 10
839.2506485089
 20
1210.5377820385
 10
840.147586654
 20
1212.4609259022
 10
841.0889079078
 20
1214.4794371975
 10
842.0514335139
 20
1216.5434864414
 10
843.0114631756
 20
1218.6022904766
 10
843.9453562005
 20
1220.6052449597
 10
844.830120097
 20
1222.5028780354
 10
845.6439693673
 20
1224.2485788715
 10
846.3668619497
 20
1225.7993725193
 10
846.9809984072
 20
1227.1169331921
 10
847.4712540611
 20
1228.1689551724
 10
847.8251864417
 20
1228.9286759747
  0
LWPOLYLINE
  5
109
330
1F
100
AcDbEntity
  8
0
  6
Continuous
 62
     7
370
    25
100
AcDbPolyline
 90
       21
 70
   128
 43
0.0
 10
847.8905578359
 20
1229.0690449131
 10
848.035195957
 20
1229.379823531
 10
848.0949943169
 20
1229.5088079823
 10
848.0034788354
 20
1229.313364352
 10
847.7629144891
 20
1228.7982014073
 10
847.3792170389
 20
1227.9760745419
 10
846.8618338211
 20
1226.8672493351
 10
846.2235053285
 20
1225.4989651096
 10
845.4799522861
 20
1223.9048984898
 10
844.6494807704
 20
1222.124388541
 10
843.7525426253
 20
1220.2011850727
 10
842.8112213715
 20
1218.182733382
 10
841.8486957653
 20
1216.1186841381
 10
840.8886661037
 20
1214.0598204983
 10
839.9547730787
 20
1212.0569256199
 10
839.0700091823
 20
1210.1592329395
 10
838.2561599119
 20
1208.4135321034
 10
837.5332673295
 20
1206.8627980602
 10
836.9191308721
 20
1205.5451777828
 10
836.4288752182
 20
1204.4931558025
 10
836.0745703085
 20
1203.7326601399
  0
LWPOLYLINE
  5
10A
330
1F
100
AcDbEntity
  8
0
  6
Continuous
 62
     7
370
    25
100
AcDbPolyline
 90
       41
 70
   128
 43
0.0
 10
836.1022939189
 20
1203.7920859707
 10
836.4549298986
 20
1204.5490053547
 10
836.9428684219
 20
1205.5960801495
 10
837.5541066035
 20
1206.9075015438
 10
838.27358682
 20
1208.4509042156
 10
839.0835990413
 20
1210.1883796108
 10
839.964183162
 20
1212.0770719898
 10
840.8936728938
 20
1214.0705493343
 10
841.8491726025
 20
1216.1196378124
 10
842.8071608051
 20
1218.1739714993
 10
843.7440415128
 20
1220.1829460514
 10
844.6367477282
 20
1222.0970300091
 10
845.4633002384
 20
1223.8691953076
 10
846.2033440574
 20
1225.4556921375
 10
846.8386550649
 20
1226.8175390614
 10
847.3535944923
 20
1227.921178664
 10
847.7354889019
 20
1228.7393716229
 10
847.97492076
 20
1229.2520907772
 10
848.0659966572
 20
1229.4466403378
 10
848.0064814194
 20
1229.3182519329
 10
847.7978353604
 20
1228.8700250042
 10
847.4452068313
 20
1228.1131056202
 10
846.9572608574
 20
1227.0660308254
 10
846.3460226758
 20
1225.7546690357
 10
845.6265424593
 20
1224.2112663639
 10
844.816530238
 20
1222.4737909687
 10
843.9359461172
 20
1220.5850389851
 10
843.0064563854
 20
1218.5916212452
 10
842.0509566768
 20
1216.5424731625
 10
841.0929684742
 20
1214.4881394756
 10
840.1560877665
 20
1212.4792245281
 10
839.2633815511
 20
1210.5650809658
 10
838.4368290408
 20
1208.792975272
 10
837.6967852219
 20
1207.2064188374
 10
837.0614742144
 20
1205.8446315182
 10
836.546534787
 20
1204.7409919155
 10
836.1646478279
 20
1203.922739352
 10
835.9252159699
 20
1203.4100201977
 10
835.8341326221
 20
1203.2154706371
 10
835.8936478599
 20
1203.3439186466
 10
836.1022939189
 20
1203.7920859707
  0
LWPOLYLINE
  5
10B
330
1F
100
AcDbEntity
  8
0
  6
Continuous
 62
     7
370
    25
100
AcDbPolyline
 90
       21
 70
   128
 43
0.0
 10
836.0713665589
 20
1203.739514674
 10
835.8617295726
 20
1203.2892015827
 10
835.8019312127
 20
1203.1602171314
 10
835.8934466942
 20
1203.3556607617
 10
836.1340110405
 20
1203.8708237064
 10
836.5177084907
 20
1204.6928909672
 10
837.0350917085
 20
1205.8017757786
 10
837.6734202011
 20
1207.1700600041
 10
838.4169732435
 20
1208.7641266239
 10
839.2474447592
 20
1210.5446365727
 10
840.1443829044
 20
1212.4677804363
 10
841.0857041581
 20
1214.4862917317
 10
842.0482297643
 20
1216.5503409756
 10
843.0082594259
 20
1218.6092046154
 10
843.9421524509
 20
1220.6120994938
 10
844.8269163473
 20
1222.5097921742
 10
845.6407656177
 20
1224.2554930103
 10
846.3636582001
 20
1225.8062270535
 10
846.9777946575
 20
1227.1238473309
 10
847.4680503114
 20
1228.1758097065
 10
847.8219826921
 20
1228.9355901135
  0
LWPOLYLINE
  5
10C
330
1F
100
AcDbEntity
  8
0
  6
Continuous
 62
     7
370
    25
100
AcDbPolyline
 90
       21
 70
   128
 43
0.0
 10
847.8873540862
 20
1229.0759590519
 10
848.0319922074
 20
1229.3866780651
 10
848.0917831166
 20
1229.5157221211
 10
848.0002750858
 20
1229.3202188862
 10
847.7597107394
 20
1228.805115546
 10
847.3760058387
 20
1227.9829886807
 10
846.8586300715
 20
1226.8741038693
 10
846.2203015788
 20
1225.5058196438
 10
845.4767485364
 20
1223.9118126286
 10
844.6462770208
 20
1222.1312430752
 10
843.7493388756
 20
1220.2080992115
 10
842.8080176218
 20
1218.1895879162
 10
841.8454920157
 20
1216.1255386723
 10
840.885462354
 20
1214.0666750324
 10
839.9515693291
 20
1212.063780154
 10
839.0668054326
 20
1210.1660874737
 10
838.2529561623
 20
1208.4203866375
 10
837.5300635799
 20
1206.8696525944
 10
836.9159271224
 20
1205.5520919216
 10
836.4256714686
 20
1204.5000699413
 10
836.0713665589
 20
1203.739514674
  0
LWPOLYLINE
  5
10D
330
1F
100
AcDbEntity
  8
0
  6
Continuous
 62
     7
370
    25
100
AcDbPolyline
 90
       41
 70
   128
 43
0.0
 10
836.0990827187
 20
1203.7989405048
 10
836.4517186983
 20
1204.5559194935
 10
836.9396646722
 20
1205.6029346836
 10
837.5509028538
 20
1206.914356078
 10
838.2703830703
 20
1208.4577587498
 10
839.0803952916
 20
1210.195234145
 10
839.9609794124
 20
1212.083926524
 10
840.8904691442
 20
1214.0774038685
 10
841.8459688528
 20
1216.1265519512
 10
842.8039570554
 20
1218.1808856381
 10
843.7408377631
 20
1220.1898005856
 10
844.6335439785
 20
1222.1039441479
 10
845.4600964888
 20
1223.8760498417
 10
846.2001403077
 20
1225.4625466717
 10
846.8354513152
 20
1226.8243935955
 10
847.3503907426
 20
1227.9280331982
 10
847.7322777017
 20
1228.7462857617
 10
847.9717095597
 20
1229.2589453114
 10
848.0627929075
 20
1229.4534948719
 10
848.0032776697
 20
1229.3251064671
 10
847.7946316107
 20
1228.876939143
 10
847.441995631
 20
1228.1199601544
 10
846.9540571078
 20
1227.0729449642
 10
846.3428189262
 20
1225.7615235699
 10
845.6233387097
 20
1224.2181208981
 10
844.8133264883
 20
1222.4806455029
 10
843.932734917
 20
1220.5919531239
 10
843.0032526358
 20
1218.5984757794
 10
842.0477529271
 20
1216.5493276966
 10
841.0897647246
 20
1214.4949940098
 10
840.1528840168
 20
1212.4860790623
 10
839.2601778014
 20
1210.5719355
 10
838.4336252912
 20
1208.7998298061
 10
837.6935814722
 20
1207.2133329762
 10
837.0582704647
 20
1205.8514860523
 10
836.5433310374
 20
1204.7478464497
 10
836.1614366277
 20
1203.9295938862
 10
835.9220047696
 20
1203.4169343365
 10
835.8309288724
 20
1203.2223847759
 10
835.8904441102
 20
1203.3507731808
 10
836.0990827187
 20
1203.7989405048
  0
LWPOLYLINE
  5
10E
330
1F
100
AcDbEntity
  8
0
  6
Continuous
 62
     7
370
    25
100
AcDbPolyline
 90
        9
 70
   128
 43
0.0
 10
699.5196585758
 20
788.8119724644
 10
699.9376286967
 20
787.9057434452
 10
700.2916355832
 20
787.1384230507
 10
700.5020995839
 20
786.6826263321
 10
700.5647291644
 20
786.5475920094
 10
700.4782651766
 20
786.7360618961
 10
700.2444510563
 20
787.2442212952
 10
699.8680551751
 20
788.0617288006
 10
699.5220204099
 20
788.8130751503
  0
LWPOLYLINE
  5
10F
330
1F
100
AcDbEntity
  8
0
  6
Continuous
 62
     7
370
    25
100
AcDbPolyline
 90
        9
 70
   128
 43
0.0
 10
686.5883489354
 20
816.8755677593
 10
686.5430494054
 20
816.9737664116
 10
686.1890425189
 20
817.7410868061
 10
685.9785785182
 20
818.1968835247
 10
685.9159489377
 20
818.3319178475
 10
686.0024203761
 20
818.1434479607
 10
686.2362344964
 20
817.6352885616
 10
686.6126303776
 20
816.8177810562
 10
686.9627331598
 20
816.0575834168
  0
LWPOLYLINE
  5
110
330
1F
100
AcDbEntity
  8
0
  6
Continuous
 62
     7
370
    25
100
AcDbPolyline
 90
       12
 70
   128
 43
0.0
 10
713.2804190024
 20
758.938497032
 10
714.1098474367
 20
757.1393457306
 10
714.8403507872
 20
755.5549350632
 10
715.4570465191
 20
754.2175409449
 10
715.9473915799
 20
753.154372896
 10
716.3013984664
 20
752.3870674027
 10
716.5118587418
 20
751.9312706841
 10
716.5744920476
 20
751.7962214602
 10
716.4880206092
 20
751.9847062481
 10
716.2542064889
 20
752.4928656471
 10
715.8778106077
 20
753.3103731526
 10
715.529741834
 20
754.066130246
  0
LWPOLYLINE
  5
111
330
1F
100
AcDbEntity
  8
0
  6
Continuous
 62
     7
370
    25
100
AcDbPolyline
 90
       19
 70
   128
 43
0.0
 10
702.5154252752
 20
782.3034730805
 10
702.1987979515
 20
782.9897013558
 10
701.9883414014
 20
783.4455278767
 10
701.9257043703
 20
783.5805621994
 10
702.0121758087
 20
783.3920923126
 10
702.245989929
 20
782.8839329136
 10
702.6223858102
 20
782.0664254082
 10
703.1337042554
 20
780.9562292946
 10
703.7695368036
 20
779.5759347332
 10
704.5169343456
 20
777.953645314
 10
705.3606902464
 20
776.1223969114
 10
706.2836160167
 20
774.1194573296
 10
707.2669361933
 20
771.9855812443
 10
708.2906236156
 20
769.7642353428
 10
709.3338464602
 20
767.5006446493
 10
710.3753631218
 20
765.240853752
 10
711.3939766987
 20
763.0309072388
 10
712.3689410492
 20
760.9157619131
 10
713.2804190024
 20
758.938497032
  0
LWPOLYLINE
  5
112
330
1F
100
AcDbEntity
  8
0
  6
Continuous
 62
     7
370
    25
100
AcDbPolyline
 90
       15
 70
   128
 43
0.0
 10
710.3287001355
 20
759.3710777414
 10
709.4923873647
 20
761.185309018
 10
708.594197522
 20
763.133904065
 10
707.6562513812
 20
765.1688811434
 10
706.7016457422
 20
767.2401276482
 10
705.7538871868
 20
769.2966518057
 10
704.8363109334
 20
771.2878045691
 10
703.9715071424
 20
773.1645611179
 10
703.1807770236
 20
774.8806980503
 10
702.4835814937
 20
776.3940003765
 10
701.8970941408
 20
777.6671555889
 10
701.4357616409
 20
778.6688414467
 10
701.110931228
 20
779.3743816269
 10
700.9306122764
 20
779.7664013756
 10
700.8928974374
 20
779.848804797
  0
LWPOLYLINE
  5
113
330
1F
100
AcDbEntity
  8
0
  6
Continuous
 62
     7
370
    25
100
AcDbPolyline
 90
        8
 70
   128
 43
0.0
 10
713.0663526459
 20
753.4351852787
 10
713.0600233777
 20
753.4487155331
 10
712.9416746302
 20
753.7047174824
 10
712.6765233679
 20
754.2792764557
 10
712.2710962995
 20
755.158251251
 10
711.7353772028
 20
756.3199904812
 10
711.0825536056
 20
757.7358839167
 10
710.3287001355
 20
759.3710777414
  0
LWPOLYLINE
  5
114
330
1F
100
AcDbEntity
  8
0
  6
Continuous
 62
     7
370
    25
100
AcDbPolyline
 90
        8
 70
   128
 43
0.0
 10
712.7046567603
 20
760.1884809387
 10
713.4644557937
 20
758.5403827084
 10
714.1254713042
 20
757.1066972864
 10
714.6722135349
 20
755.9210565937
 10
715.0918637617
 20
755.0112214935
 10
715.3745872184
 20
754.3985304487
 10
715.5137603386
 20
754.0973481787
 10
715.528560917
 20
754.065578903
  0
LWPOLYLINE
  5
115
330
1F
100
AcDbEntity
  8
0
  6
Continuous
 62
     7
370
    25
100
AcDbPolyline
 90
       16
 70
   128
 43
0.0
 10
702.9716392263
 20
781.3112047566
 10
702.9718329414
 20
781.3107279194
 10
703.0530368193
 20
781.1337617291
 10
703.2794897659
 20
780.6416359795
 10
703.645886968
 20
779.8459139717
 10
704.1436453565
 20
778.7652221573
 10
704.7610898717
 20
777.4248925102
 10
705.4837589367
 20
775.8563515795
 10
706.2947024806
 20
774.0963605297
 10
707.1749215229
 20
772.1861657751
 10
708.1037779554
 20
770.1705602062
 10
709.059508632
 20
768.0967656029
 10
710.0197022064
 20
766.0134044541
 10
710.9618579252
 20
763.9692929638
 10
711.8638885422
 20
762.0123681677
 10
712.7046567603
 20
760.1884809387
  0
LWPOLYLINE
  5
116
330
1F
100
AcDbEntity
  8
0
  6
Continuous
 62
     7
370
    25
100
AcDbPolyline
 90
       41
 70
   128
 43
0.0
 10
852.0320003136
 20
1237.9508522404
 10
852.2438426717
 20
1238.4043839825
 10
852.6002560957
 20
1239.1679790867
 10
853.0924638017
 20
1240.2228620899
 10
853.708343695
 20
1241.5429857624
 10
854.4327338441
 20
1243.0959251774
 10
855.2477901085
 20
1244.8433545483
 10
856.1334555252
 20
1246.7423585308
 10
857.0679073437
 20
1248.7460878742
 10
858.0281530722
 20
1250.8052495373
 10
858.9905371173
 20
1252.8691199673
 10
859.9313666328
 20
1254.8868564022
 10
860.8274703129
 20
1256.808808173
 10
861.6567869886
 20
1258.5876491917
 10
862.3988946183
 20
1260.179629649
 10
863.035516928
 20
1261.5454104794
 10
863.5509927972
 20
1262.6514938725
 10
863.9326115354
 20
1263.470580901
 10
864.170985411
 20
1263.9825251949
 10
864.2602433665
 20
1264.1747501743
 10
864.1981874808
 20
1264.0424278629
 10
863.9863451226
 20
1263.5888961208
 10
863.6299316986
 20
1262.8253010166
 10
863.1377239927
 20
1261.7704180134
 10
862.5218440994
 20
1260.4502943409
 10
861.7974539502
 20
1258.8973549259
 10
860.9823976858
 20
1257.149925555
 10
860.0967322691
 20
1255.2509215725
 10
859.1622730001
 20
1253.2471922291
 10
858.2020347222
 20
1251.1880901707
 10
857.239650677
 20
1249.1242197407
 10
856.2988211616
 20
1247.1064237011
 10
855.4027174814
 20
1245.1844719303
 10
854.5734008058
 20
1243.4056309116
 10
853.831293176
 20
1241.813710059
 10
853.1946708663
 20
1240.447869624
 10
852.6791949971
 20
1239.3417862309
 10
852.297576259
 20
1238.5226992024
 10
852.0592023833
 20
1238.0107549084
 10
851.9699444278
 20
1237.8185895336
 10
852.0320003136
 20
1237.9508522404
  0
LWPOLYLINE
  5
117
330
1F
100
AcDbEntity
  8
0
  6
Continuous
 62
     7
370
    25
100
AcDbPolyline
 90
       42
 70
   128
 43
0.0
 10
851.9983385905
 20
1237.8793862713
 10
851.9989420875
 20
1237.8807571781
 10
852.0877753599
 20
1238.0720284832
 10
852.3250241979
 20
1238.5815885914
 10
852.7048473461
 20
1239.396801318
 10
853.2178868755
 20
1240.4976395023
 10
853.8515066012
 20
1241.8570426357
 10
854.5901124581
 20
1243.4414533032
 10
855.4155175789
 20
1245.2118900669
 10
856.3073967798
 20
1247.1247819317
 10
857.2437782987
 20
1249.1330412281
 10
858.2016249402
 20
1251.1871364964
 10
859.1573332651
 20
1253.2365826023
 10
860.0873817905
 20
1255.2308944119
 10
860.9688674315
 20
1257.120898093
 10
861.7800791963
 20
1258.8601020229
 10
862.5010495289
 20
1260.4057100666
 10
863.1140236958
 20
1261.719634856
 10
863.6039068206
 20
1262.7695110691
 10
863.9586364134
 20
1263.52947029
 10
864.1694803937
 20
1263.9808562649
 10
864.2312457069
 20
1264.1125229252
 10
864.1424124344
 20
1263.9212516201
 10
863.9051635965
 20
1263.4117511166
 10
863.5253404482
 20
1262.5964787853
 10
863.0123009189
 20
1261.495640601
 10
862.3786811932
 20
1260.1362970722
 10
861.6400753363
 20
1258.5518268002
 10
860.8146702154
 20
1256.7813900364
 10
859.9227910145
 20
1254.8684981716
 10
858.9864020451
 20
1252.8602388752
 10
858.0285628541
 20
1250.806143607
 10
857.0728545292
 20
1248.756697501
 10
856.1428060039
 20
1246.7624452961
 10
855.2613203629
 20
1244.8724416149
 10
854.4501085981
 20
1243.1331780804
 10
853.7291382654
 20
1241.5876296414
 10
853.1161640986
 20
1240.2737048519
 10
852.6262809737
 20
1239.2238286388
 10
852.2715513809
 20
1238.4638098133
 10
852.0607074006
 20
1238.0124238384
 10
852.0607074006
 20
1238.0124238384
  0
LWPOLYLINE
  5
118
330
1F
100
AcDbEntity
  8
0
  6
Continuous
 62
     7
370
    25
100
AcDbPolyline
 90
        9
 70
   128
 43
0.0
 10
715.532655011
 20
754.0674713505
 10
715.9506288572
 20
753.1612274302
 10
716.3046320184
 20
752.393936838
 10
716.5150960191
 20
751.9381252182
 10
716.5777293249
 20
751.8030908955
 10
716.4912578865
 20
751.9915607823
 10
716.2574437662
 20
752.4997201813
 10
715.881047885
 20
753.3172276867
 10
715.5329791113
 20
754.0729847801
  0
LWPOLYLINE
  5
119
330
1F
100
AcDbEntity
  8
0
  6
Continuous
 62
     7
370
    25
100
AcDbPolyline
 90
        9
 70
   128
 43
0.0
 10
702.9760574206
 20
781.3185957325
 10
702.5560458406
 20
782.2292652977
 10
702.2020389541
 20
782.9965856922
 10
701.9915749534
 20
783.4523824108
 10
701.9289453729
 20
783.5874167336
 10
702.0154093607
 20
783.3989468468
 10
702.249223481
 20
782.8907874477
 10
702.6256268128
 20
782.0732799423
 10
702.975729595
 20
781.3130823029
  0
LWPOLYLINE
  5
11A
330
1F
100
AcDbEntity
  8
0
  6
Continuous
 62
     7
370
    25
100
AcDbPolyline
 90
        8
 70
   128
 43
0.0
 10
696.6916640504
 20
794.9329820526
 10
697.4514593585
 20
793.2848838223
 10
698.1124748691
 20
791.8512133015
 10
698.6592133744
 20
790.6655577076
 10
699.0788673266
 20
789.7557226074
 10
699.3615945085
 20
789.1430166615
 10
699.5007639034
 20
788.8418343914
 10
699.5155682071
 20
788.8100949181
  0
LWPOLYLINE
  5
11B
330
1F
100
AcDbEntity
  8
0
  6
Continuous
 62
     7
370
    25
100
AcDbPolyline
 90
       16
 70
   128
 43
0.0
 10
686.9586427911
 20
816.0557058704
 10
686.9588439568
 20
816.0552290333
 10
687.0400403841
 20
815.878262843
 10
687.2664933308
 20
815.3861370934
 10
687.6328905328
 20
814.5904150856
 10
688.1306489213
 20
813.5097232712
 10
688.7480934365
 20
812.1693936241
 10
689.4707625015
 20
810.6008377922
 10
690.2817060455
 20
808.8408616436
 10
691.1619250878
 20
806.9306519878
 10
692.0907815202
 20
804.9150613201
 10
693.0465121968
 20
802.8412667168
 10
694.0067057713
 20
800.7579055679
 10
694.9488614901
 20
798.7137940777
 10
695.8508958324
 20
796.7568543804
 10
696.6916640504
 20
794.9329820526
  0
LWPOLYLINE
  5
11C
330
1F
100
AcDbEntity
  8
0
  6
Continuous
 62
     7
370
    25
100
AcDbPolyline
 90
       12
 70
   128
 43
0.0
 10
697.2674225672
 20
793.6829832447
 10
698.0968510016
 20
791.8838468445
 10
698.8273506268
 20
790.2994361771
 10
699.4440500839
 20
788.9620569599
 10
699.9343951448
 20
787.8988591087
 10
700.2884020313
 20
787.1315685166
 10
700.498866032
 20
786.675771798
 10
700.5614956125
 20
786.5407374752
 10
700.475024174
 20
786.729207362
 10
700.2412100537
 20
787.237366761
 10
699.8648141726
 20
788.0548742664
 10
699.5167453988
 20
788.8106313599
  0
LWPOLYLINE
  5
11D
330
1F
100
AcDbEntity
  8
0
  6
Continuous
 62
     7
370
    25
100
AcDbPolyline
 90
       20
 70
   128
 43
0.0
 10
686.9598274334
 20
816.0562423123
 10
686.5398084028
 20
816.9669118775
 10
686.1858089669
 20
817.7342024696
 10
685.9753449662
 20
818.1900289906
 10
685.9127079352
 20
818.3250633133
 10
685.9991793736
 20
818.1365934265
 10
686.2329934939
 20
817.6284340275
 10
686.609389375
 20
816.8109265221
 10
687.1207078202
 20
815.7007304085
 10
687.7565403684
 20
814.3204358471
 10
688.5039379104
 20
812.6981464279
 10
689.3476938112
 20
810.8669129265
 10
690.2706195815
 20
808.8639584435
 10
691.2539397581
 20
806.7300823582
 10
692.2776271804
 20
804.5087364567
 10
693.320850025
 20
802.2451308621
 10
694.3623666866
 20
799.985369767
 10
695.3809802635
 20
797.7754083527
 10
696.3559483393
 20
795.6602481258
 10
697.2674225672
 20
793.6829832447
  0
LWPOLYLINE
  5
11E
330
1F
100
AcDbEntity
  8
0
  6
Continuous
 62
     7
370
    25
100
AcDbPolyline
 90
       15
 70
   128
 43
0.0
 10
694.3157037004
 20
794.1155937565
 10
693.4793909295
 20
795.9298101318
 10
692.5812010868
 20
797.8784051788
 10
691.6432549461
 20
799.9133971584
 10
690.6886493071
 20
801.9846287621
 10
689.7408907517
 20
804.0411380184
 10
688.8233144983
 20
806.0322907818
 10
687.9585107072
 20
807.9090622318
 10
687.1677805885
 20
809.6251991642
 10
686.4705850585
 20
811.1385014904
 10
685.8841051563
 20
812.4116567028
 10
685.4227652057
 20
813.4133127583
 10
685.0979422434
 20
814.1188529385
 10
684.9176158412
 20
814.5109024895
 10
684.8799010022
 20
814.5933059109
  0
LWPOLYLINE
  5
11F
330
1F
100
AcDbEntity
  8
0
  6
Continuous
 62
     7
370
    25
100
AcDbPolyline
 90
        8
 70
   128
 43
0.0
 10
697.0533599361
 20
788.1796863926
 10
697.0470269426
 20
788.193216647
 10
696.9286819204
 20
788.4492185963
 10
696.6635306581
 20
789.0237775696
 10
696.2580998643
 20
789.9027374638
 10
695.7223807677
 20
791.0644915951
 10
695.0695608957
 20
792.4803999317
 10
694.3157037004
 20
794.1155937565
  0
LWPOLYLINE
  5
120
330
1F
100
AcDbEntity
  8
0
  6
Continuous
 62
     7
370
    25
100
AcDbPolyline
 90
       41
 70
   128
 43
0.0
 10
852.0287965639
 20
1237.9577663792
 10
852.240638922
 20
1238.4112981213
 10
852.5970523461
 20
1239.1748932255
 10
853.089260052
 20
1240.2297166241
 10
853.7051399453
 20
1241.5498402966
 10
854.4295226439
 20
1243.1027797115
 10
855.2445863589
 20
1244.8502686871
 10
856.1302517756
 20
1246.749213065
 10
857.064703594
 20
1248.7529424084
 10
858.0249493225
 20
1250.8121040714
 10
858.9873333677
 20
1252.8759745014
 10
859.9281554325
 20
1254.8937109364
 10
860.8242591127
 20
1256.8156627071
 10
861.6535757883
 20
1258.5945633305
 10
862.3956908687
 20
1260.1864841831
 10
863.0323131784
 20
1261.5523246182
 10
863.547781597
 20
1262.6583484066
 10
863.9294077857
 20
1263.4774354351
 10
864.1677816613
 20
1263.9893797291
 10
864.2570321663
 20
1264.1816047085
 10
864.1949762805
 20
1264.0492823971
 10
863.9831339224
 20
1263.595750655
 10
863.626727949
 20
1262.8321555508
 10
863.134520243
 20
1261.7773321522
 10
862.5186403497
 20
1260.4571488751
 10
861.7942502006
 20
1258.9042690647
 10
860.9791939362
 20
1257.1567800892
 10
860.0935285195
 20
1255.2578357113
 10
859.1590692504
 20
1253.2541063679
 10
858.1988309725
 20
1251.1949447048
 10
857.2364469274
 20
1249.1310742748
 10
856.2956174119
 20
1247.1133378399
 10
855.3995137318
 20
1245.1913264645
 10
854.5701970561
 20
1243.4124854458
 10
853.8280894263
 20
1241.8205645931
 10
853.1914596661
 20
1240.4547241581
 10
852.6759912475
 20
1239.3487003697
 10
852.2943725093
 20
1238.5295537365
 10
852.0559986337
 20
1238.0176094425
 10
851.9667406781
 20
1237.8254440678
 10
852.0287965639
 20
1237.9577663792
  0
LWPOLYLINE
  5
121
330
1F
100
AcDbEntity
  8
0
  6
Continuous
 62
     7
370
    25
100
AcDbPolyline
 90
       42
 70
   128
 43
0.0
 10
851.9951348408
 20
1237.8863004101
 10
851.9957383378
 20
1237.8876117123
 10
852.0845716103
 20
1238.0788830174
 10
852.3218204482
 20
1238.5884431255
 10
852.7016435965
 20
1239.4036558521
 10
853.2146756752
 20
1240.5044940365
 10
853.8483028515
 20
1241.8638971699
 10
854.5869087084
 20
1243.4483078373
 10
855.4123138293
 20
1245.2188042057
 10
856.3041855796
 20
1247.1316960705
 10
857.240574549
 20
1249.1398957623
 10
858.1984211906
 20
1251.1940506352
 10
859.1541295155
 20
1253.2434371365
 10
860.0841780408
 20
1255.237748946
 10
860.9656636818
 20
1257.1277526272
 10
861.7768754466
 20
1258.8669565571
 10
862.4978457792
 20
1260.4125646008
 10
863.1108199461
 20
1261.7264893902
 10
863.6007030709
 20
1262.7763656033
 10
863.9554326637
 20
1263.5363248242
 10
864.1662766441
 20
1263.987710799
 10
864.2280419572
 20
1264.119437064
 10
864.1392012342
 20
1263.9281061543
 10
863.9019523962
 20
1263.4186056507
 10
863.5221366986
 20
1262.6033929241
 10
863.0090971692
 20
1261.5024951351
 10
862.3754774435
 20
1260.1431516064
 10
861.6368715866
 20
1258.558740939
 10
860.8114664658
 20
1256.7882445706
 10
859.9195872648
 20
1254.8753527058
 10
858.9831982954
 20
1252.867153014
 10
858.0253591045
 20
1250.8129981411
 10
857.069643329
 20
1248.7635520352
 10
856.1395948036
 20
1246.7692998303
 10
855.2581166132
 20
1244.8792961491
 10
854.4468973978
 20
1243.1400922192
 10
853.7259270652
 20
1241.5944841755
 10
853.1129528983
 20
1240.2805593861
 10
852.6230697735
 20
1239.230683173
 10
852.2683401807
 20
1238.4707239521
 10
852.057503651
 20
1238.0192783726
 10
852.057503651
 20
1238.0192783726
  0
SPLINE
  5
122
330
1F
100
AcDbEntity
  8
0
  6
Continuous
 62
     7
370
    25
100
AcDbSpline
210
0.0
220
0.0
230
1.0
 70
     8
 71
     3
 72
    23
 73
    19
 74
     0
 42
0.000000001
 43
0.00000001
 40
0.0
 40
0.0
 40
0.0
 40
0.0
 40
0.0292787145059824
 40
0.0823592898182573
 40
0.1368556449955901
 40
0.1737452107247916
 40
0.2106448383934182
 40
0.2485573875949475
 40
0.2864776310402346
 40
0.3482310297954318
 40
0.4100125801722494
 40
0.4732987482462383
 40
0.5365981182166442
 40
0.6130471400603501
 40
0.6895663815320923
 40
0.7660498637687165
 40
0.8830180699309095
 40
1.0
 40
1.0
 40
1.0
 40
1.0
 10
873.208845148869
 20
1292.781701411066
 30
0.0
 10
873.1935160894534
 20
1292.752253059117
 30
0.0
 10
873.1503963532092
 20
1292.66941658922
 30
0.0
 10
872.5609419268563
 20
1291.538960827889
 30
0.0
 10
871.4616846517234
 20
1289.427549201808
 30
0.0
 10
870.1527404496317
 20
1286.912067803216
 30
0.0
 10
868.8194416738664
 20
1284.347685328577
 30
0.0
 10
867.3026259929964
 20
1281.428904583531
 30
0.0
 10
865.2744677372713
 20
1277.525686035382
 30
0.0
 10
862.6644115850257
 20
1272.503657734304
 30
0.0
 10
859.3932685819589
 20
1266.217709687207
 30
0.0
 10
855.8965048563525
 20
1259.514238729441
 30
0.0
 10
851.9514252161941
 20
1251.980708797819
 30
0.0
 10
847.5813104921253
 20
1243.681125383792
 30
0.0
 10
842.7777999131715
 20
1234.635666123373
 30
0.0
 10
836.9422893144382
 20
1223.787340880155
 30
0.0
 10
830.0247312676182
 20
1211.097053108737
 30
0.0
 10
824.4862873154594
 20
1201.438825393544
 30
0.0
 10
821.71690289218
 20
1196.609428252039
 30
0.0
  0
SPLINE
  5
123
330
1F
100
AcDbEntity
  8
0
  6
Continuous
 62
     7
370
    25
100
AcDbSpline
210
0.0
220
0.0
230
1.0
 70
     8
 71
     3
 72
    11
 73
     7
 74
     0
 42
0.000000001
 43
0.00000001
 40
0.0
 40
0.0
 40
0.0
 40
0.0
 40
0.2492926262782392
 40
0.5870031781004686
 40
0.9233900768032393
 40
1.0
 40
1.0
 40
1.0
 40
1.0
 10
821.7169028921801
 20
1196.609428252039
 30
0.0
 10
821.4515545191898
 20
1195.92707290055
 30
0.0
 10
820.8267452716223
 20
1194.320347639969
 30
0.0
 10
820.6514463593138
 20
1191.505428682114
 30
0.0
 10
821.1483103396894
 20
1189.296692139941
 30
0.0
 10
821.6279338732423
 20
1188.194009182009
 30
0.0
 10
821.71690289218
 20
1187.989464129267
 30
0.0
  0
SPLINE
  5
124
330
1F
100
AcDbEntity
  8
0
  6
Continuous
 62
     7
370
    25
100
AcDbSpline
210
0.0
220
0.0
230
1.0
 70
     8
 71
     3
 72
    25
 73
    21
 74
     0
 42
0.000000001
 43
0.00000001
 40
0.0
 40
0.0
 40
0.0
 40
0.0
 40
0.0957425036980682
 40
0.1915296626591279
 40
0.287246043681367
 40
0.3613499733272366
 40
0.4355824966897396
 40
0.5097341382795305
 40
0.5837270180881273
 40
0.6321537771495311
 40
0.6805708428405584
 40
0.730037416352665
 40
0.7794845483549617
 40
0.8408618228528427
 40
0.872283501020071
 40
0.9036993456809892
 40
0.9344853607501339
 40
0.9652672373216631
 40
0.9972675214645608
 40
1.0
 40
1.0
 40
1.0
 40
1.0
 10
821.71690289218
 20
1187.989464129267
 30
0.0
 10
823.9903831827961
 20
1184.037082941048
 30
0.0
 10
828.5384041380146
 20
1176.130477134424
 30
0.0
 10
835.0256048879846
 20
1164.349788600689
 30
0.0
 10
840.8291091402208
 20
1153.603477341415
 30
0.0
 10
845.9939951232587
 20
1143.913837778858
 30
0.0
 10
850.5535582603189
 20
1135.281219871349
 30
0.0
 10
854.9324603851907
 20
1126.931396415739
 30
0.0
 10
858.6145255292518
 20
1119.875488735812
 30
0.0
 10
861.6447443895444
 20
1114.055070734247
 30
0.0
 10
864.0966531209993
 20
1109.339579347046
 30
0.0
 10
866.3887076185059
 20
1104.929139954769
 30
0.0
 10
868.6376640888243
 20
1100.600653319008
 30
0.0
 10
870.3314583698993
 20
1097.343203725786
 30
0.0
 10
871.5174436898471
 20
1095.064024451473
 30
0.0
 10
872.2428944067937
 20
1093.671116327296
 30
0.0
 10
872.7841855276524
 20
1092.631959092879
 30
0.0
 10
873.1098575623093
 20
1092.0069735055
 30
0.0
 10
873.248365076163
 20
1091.741546712409
 30
0.0
 10
873.211699854527
 20
1091.811729212348
 30
0.0
 10
873.2088153465467
 20
1091.817250574885
 30
0.0
  0
LINE
  5
125
330
1F
100
AcDbEntity
  8
0
  6
Continuous
 62
     7
370
    25
100
AcDbLine
 10
773.2181419833
 20
1408.299496497
 30
0.0
 11
873.2181434735
 21
1408.299496497
 31
0.0
  0
LINE
  5
126
330
1F
100
AcDbEntity
  8
0
  6
Continuous
 62
     7
370
    25
100
AcDbLine
 10
673.2181404932
 20
1408.299496497
 30
0.0
 11
773.2181419833
 21
1408.299496497
 31
0.0
  0
SPLINE
  5
127
330
1F
100
AcDbEntity
  8
0
  6
Continuous
 62
     7
370
    25
100
AcDbSpline
210
0.0
220
0.0
230
1.0
 70
     8
 71
     3
 72
    12
 73
     8
 74
     0
 42
0.000000001
 43
0.00000001
 40
0.0
 40
0.0
 40
0.0
 40
0.0
 40
0.2147919786433662
 40
0.4295823385825639
 40
0.6444149277129106
 40
0.8592749705421519
 40
1.0
 40
1.0
 40
1.0
 40
1.0
 10
873.1868882878499
 20
536.2994671863892
 30
0.0
 10
873.187593978545
 20
536.0185518308074
 30
0.0
 10
873.189005354617
 20
535.4567232366637
 30
0.0
 10
873.1989394647877
 20
534.7062033057101
 30
0.0
 10
873.2097065939173
 20
534.1462227312978
 30
0.0
 10
873.2173940849534
 20
533.8288240701996
 30
0.0
 10
873.217359821362
 20
533.830748325119
 30
0.0
 10
873.2173462613301
 20
533.8315098611095
 30
0.0
  0
SPLINE
  5
128
330
1F
100
AcDbEntity
  8
0
  6
Continuous
 62
     7
370
    25
100
AcDbSpline
210
0.0
220
0.0
230
1.0
 70
     8
 71
     3
 72
    13
 73
     9
 74
     0
 42
0.000000001
 43
0.00000001
 40
0.0
 40
0.0
 40
0.0
 40
0.0
 40
0.0066575791018378
 40
0.2212630804723296
 40
0.4358689980265291
 40
0.6505333271266099
 40
0.8652227978552555
 40
1.0
 40
1.0
 40
1.0
 40
1.0
 10
873.2180391653256
 20
538.7952282158114
 30
0.0
 10
873.2180724284809
 20
538.7966372999566
 30
0.0
 10
873.2191779216449
 20
538.8434678811388
 30
0.0
 10
873.2149761848362
 20
538.6743552103097
 30
0.0
 10
873.2060021360443
 20
538.2782727079581
 30
0.0
 10
873.1948568376245
 20
537.6269033679279
 30
0.0
 10
873.1878901626309
 20
536.9317309552084
 30
0.0
 10
873.1871671347014
 20
536.4754420333105
 30
0.0
 10
873.1868882878499
 20
536.2994671863892
 30
0.0
  0
SPLINE
  5
129
330
1F
100
AcDbEntity
  8
0
  6
Continuous
 62
     7
370
    25
100
AcDbSpline
210
0.0
220
0.0
230
1.0
 70
    11
 71
     3
 72
    66
 73
    62
 74
     0
 42
0.000000001
 43
0.00000001
 40
0.0
 40
0.0
 40
0.0
 40
0.0
 40
0.0312500000000001
 40
0.0312500000000001
 40
0.0625000000000002
 40
0.0625000000000002
 40
0.0937500000000003
 40
0.0937500000000003
 40
0.1250000000000004
 40
0.1250000000000004
 40
0.1562500000000006
 40
0.1562500000000006
 40
0.1875000000000007
 40
0.1875000000000007
 40
0.2187500000000008
 40
0.2187500000000008
 40
0.2500000000000009
 40
0.2500000000000009
 40
0.281250000000001
 40
0.281250000000001
 40
0.3125000000000011
 40
0.3125000000000011
 40
0.3437500000000012
 40
0.3437500000000012
 40
0.3750000000000013
 40
0.3750000000000013
 40
0.4062500000000014
 40
0.4062500000000014
 40
0.4375000000000016
 40
0.4375000000000016
 40
0.4687500000000017
 40
0.4687500000000017
 40
0.5000000000000018
 40
0.5000000000000018
 40
0.5312500000000019
 40
0.5312500000000019
 40
0.562500000000002
 40
0.562500000000002
 40
0.6250000000000019
 40
0.6250000000000019
 40
0.6562500000000017
 40
0.6562500000000017
 40
0.6875000000000014
 40
0.6875000000000014
 40
0.7187500000000012
 40
0.7187500000000012
 40
0.750000000000001
 40
0.750000000000001
 40
0.7812500000000008
 40
0.7812500000000008
 40
0.8125000000000007
 40
0.8125000000000007
 40
0.8437500000000006
 40
0.8437500000000006
 40
0.8750000000000004
 40
0.8750000000000004
 40
0.9062500000000003
 40
0.9062500000000003
 40
0.9375000000000002
 40
0.9375000000000002
 40
1.0
 40
1.0
 40
1.0
 40
1.0
 10
775.7181419833383
 20
536.2994674099066
 30
0.0
 10
775.7181419833383
 20
536.4646364636282
 30
0.0
 10
775.7019343927659
 20
536.6270441430197
 30
0.0
 10
775.6384309195683
 20
536.9465630090028
 30
0.0
 10
775.5903642675758
 20
537.105329047429
 30
0.0
 10
775.4648784462186
 20
537.408082226255
 30
0.0
 10
775.3880892736654
 20
537.551673207119
 30
0.0
 10
775.2066696441626
 20
537.8234255272796
 30
0.0
 10
775.1010772359961
 20
537.9520869178123
 30
0.0
 10
774.8704207087904
 20
538.1827017068091
 30
0.0
 10
774.744564744157
 20
538.2861867161917
 30
0.0
 10
774.471290113203
 20
538.4689465666002
 30
0.0
 10
774.3257819430873
 20
538.5466085445303
 30
0.0
 10
774.0249624651257
 20
538.6712916591965
 30
0.0
 10
773.8674363443394
 20
538.719277907961
 30
0.0
 10
773.5447292545368
 20
538.7834977575501
 30
0.0
 10
773.3825180129805
 20
538.7993803240959
 30
0.0
 10
773.0564256939717
 20
538.7995537882954
 30
0.0
 10
772.8908183828291
 20
538.7833309549533
 30
0.0
 10
772.5701798325409
 20
538.7195632553218
 30
0.0
 10
772.4143374183218
 20
538.6723805899686
 30
0.0
 10
772.1116557412101
 20
538.5472456318037
 30
0.0
 10
771.9652355870342
 20
538.4689749699517
 30
0.0
 10
771.6942897164721
 20
538.2880376902235
 30
0.0
 10
771.5680072495842
 20
538.1847474897015
 30
0.0
 10
771.3345407545867
 20
537.9515182656183
 30
0.0
 10
771.2308691412198
 20
537.8250058842654
 30
0.0
 10
771.0497527149556
 20
537.5543016485744
 30
0.0
 10
770.9714804464799
 20
537.4082497761952
 30
0.0
 10
770.8459038633837
 20
537.1053040554037
 30
0.0
 10
770.798604041451
 20
536.9494712630051
 30
0.0
 10
770.7346059036769
 20
536.6291906306468
 30
0.0
 10
770.7181999548101
 20
536.4635057084338
 30
0.0
 10
770.7180843257922
 20
536.1372009058736
 30
0.0
 10
770.7338445661259
 20
535.9750482415387
 30
0.0
 10
770.7976500598936
 20
535.6527833274426
 30
0.0
 10
770.8456170794175
 20
535.4947081602269
 30
0.0
 10
771.0322589781637
 20
535.0432974507185
 30
0.0
 10
771.218381047487
 20
534.764143346633
 30
0.0
 10
771.5638007884083
 20
534.4180527411762
 30
0.0
 10
771.6922480916977
 20
534.3124117382845
 30
0.0
 10
771.9640991165786
 20
534.1305693258555
 30
0.0
 10
772.1076198068104
 20
534.0536875181783
 30
0.0
 10
772.4098911765061
 20
533.9280717322714
 30
0.0
 10
772.5688769435355
 20
533.8797555657779
 30
0.0
 10
772.888456161718
 20
533.815950194434
 30
0.0
 10
773.0507373970024
 20
533.7996363715039
 30
0.0
 10
773.3804614511779
 20
533.799301034153
 30
0.0
 10
773.5435974733
 20
533.8153987489642
 30
0.0
 10
773.8630939738289
 20
533.878609025328
 30
0.0
 10
774.0215578718274
 20
533.9264005534466
 30
0.0
 10
774.3248345084705
 20
534.0517674633119
 30
0.0
 10
774.4685120728049
 20
534.1284723787361
 30
0.0
 10
774.7401939994895
 20
534.3094919210804
 30
0.0
 10
774.8690061752291
 20
534.4149830344529
 30
0.0
 10
775.099988673743
 20
534.6455971080968
 30
0.0
 10
775.203524611032
 20
534.7713328174303
 30
0.0
 10
775.386274987786
 20
535.0440237488468
 30
0.0
 10
775.4643165048009
 20
535.1898663694261
 30
0.0
 10
775.6517494798435
 20
535.6409749250865
 30
0.0
 10
775.7181419833383
 20
535.9691293024634
 30
0.0
 10
775.7181419833385
 20
536.2994674099066
 30
0.0
  0
SPLINE
  5
12A
330
1F
100
AcDbEntity
  8
0
  6
Continuous
 62
     7
370
    25
100
AcDbSpline
210
0.0
220
0.0
230
1.0
 70
     8
 71
     3
 72
    17
 73
    13
 74
     0
 42
0.000000001
 43
0.00000001
 40
0.0
 40
0.0
 40
0.0
 40
0.0
 40
0.0370306876697462
 40
0.1443736939632558
 40
0.2517291569958878
 40
0.3591138218963563
 40
0.4664990133675619
 40
0.5738550410705353
 40
0.681197898393653
 40
0.7885640308139228
 40
0.8959536145926426
 40
1.0
 40
1.0
 40
1.0
 40
1.0
 10
673.2189377053456
 20
533.8315098611095
 30
0.0
 10
673.218719434869
 20
533.8227494456262
 30
0.0
 10
673.217868451077
 20
533.7885947046925
 30
0.0
 10
673.2236685985686
 20
534.0208520177836
 30
0.0
 10
673.2338651058227
 20
534.5037992312527
 30
0.0
 10
673.24444762419
 20
535.2082173185495
 30
0.0
 10
673.2502526120791
 20
536.030732445478
 30
0.0
 10
673.2488583092692
 20
536.884392868176
 30
0.0
 10
673.2408096500753
 20
537.6732339756023
 30
0.0
 10
673.229823035166
 20
538.3015711495981
 30
0.0
 10
673.2201386951967
 20
538.7216737852864
 30
0.0
 10
673.2188694093709
 20
538.7709698935458
 30
0.0
 10
673.2182448013501
 20
538.7952282158114
 30
0.0
  0
SPLINE
  5
12B
330
1F
100
AcDbEntity
  8
0
  6
Continuous
 62
     7
370
    25
100
AcDbSpline
210
0.0
220
0.0
230
1.0
 70
     8
 71
     3
 72
    21
 73
    17
 74
     0
 42
0.000000001
 43
0.00000001
 40
0.0
 40
0.0
 40
0.0
 40
0.0
 40
0.1358744643551733
 40
0.2717013802540019
 40
0.36531525313168
 40
0.4590257338898176
 40
0.5525194556130346
 40
0.6509819856440174
 40
0.7010902873438629
 40
0.7511903233799424
 40
0.8005636519587744
 40
0.8499279161428589
 40
0.9010210554591264
 40
0.9521064555049774
 40
0.9968298269671427
 40
0.9999999999999999
 40
0.9999999999999999
 40
0.9999999999999999
 40
0.9999999999999999
 10
697.0631350978093
 20
688.4638723981955
 30
0.0
 10
695.5759583801247
 20
685.082286824946
 30
0.0
 10
692.602125373355
 20
678.3202990440982
 30
0.0
 10
688.7069909895313
 20
669.6946758583272
 30
0.0
 10
685.382574900574
 20
662.4358752659355
 30
0.0
 10
682.6225460022929
 20
656.48636679487
 30
0.0
 10
680.0002070249653
 20
650.9006727749018
 30
0.0
 10
677.9978354323202
 20
646.687930518146
 30
0.0
 10
676.5554836681894
 20
643.6779564023145
 30
0.0
 10
675.5881196571974
 20
641.6710979221184
 30
0.0
 10
674.7628401553451
 20
639.9671525858178
 30
0.0
 10
674.0883946998379
 20
638.5805771584074
 30
0.0
 10
673.5817176428488
 20
637.5421070103755
 30
0.0
 10
673.3024440205616
 20
636.9712864003333
 30
0.0
 10
673.1952072531977
 20
636.7524500422495
 30
0.0
 10
673.2220835418385
 20
636.8074012447534
 30
0.0
 10
673.2238625391202
 20
636.8110385788061
 30
0.0
  0
SPLINE
  5
12C
330
1F
100
AcDbEntity
  8
0
  6
Continuous
 62
     7
370
    25
100
AcDbSpline
210
0.0
220
0.0
230
1.0
 70
     8
 71
     3
 72
    14
 73
    10
 74
     0
 42
0.000000001
 43
0.00000001
 40
0.0
 40
0.0
 40
0.0
 40
0.0
 40
0.25
 40
0.25
 40
0.5
 40
0.5
 40
0.75
 40
0.75
 40
1.0
 40
1.0
 40
1.0
 40
1.0
 10
723.8466954558078
 20
738.1001200416051
 30
0.0
 10
721.4364711093809
 20
733.8637930619923
 30
0.0
 10
719.080644534347
 20
729.6355268309935
 30
0.0
 10
714.4545691163893
 20
721.216774603145
 30
0.0
 10
712.1844204681317
 20
717.0259196489793
 30
0.0
 10
707.7185260309432
 20
708.7022187177738
 30
0.0
 10
705.5273160945047
 20
704.5777242120492
 30
0.0
 10
701.2263459427218
 20
696.4269767977657
 30
0.0
 10
699.1208746206617
 20
692.408698287067
 30
0.0
 10
697.0631385304072
 20
688.4638665958815
 30
0.0
  0
SPLINE
  5
12D
330
1F
100
AcDbEntity
  8
0
  6
Continuous
 62
     7
370
    25
100
AcDbSpline
210
0.0
220
0.0
230
1.0
 70
     8
 71
     3
 72
    18
 73
    14
 74
     0
 42
0.000000001
 43
0.00000001
 40
0.0
 40
0.0
 40
0.0
 40
0.0
 40
0.2499999999999973
 40
0.2499999999999973
 40
0.3749999999999962
 40
0.3749999999999962
 40
0.4999999999999952
 40
0.4999999999999952
 40
0.7500000000000023
 40
0.7500000000000023
 40
0.8750000000000011
 40
0.8750000000000011
 40
1.0
 40
1.0
 40
1.0
 40
1.0
 10
723.8466954558077
 20
746.4988147782084
 30
0.0
 10
724.2033302659698
 20
745.871976172749
 30
0.0
 10
724.4935806649692
 20
745.2057103233105
 30
0.0
 10
724.7973780574941
 20
744.1366610417327
 30
0.0
 10
724.87462048023
 20
743.7756188859017
 30
0.0
 10
724.9787380732794
 20
743.0437404955577
 30
0.0
 10
725.0056898344573
 20
742.6716252637425
 30
0.0
 10
725.0053364915906
 20
741.547736056816
 30
0.0
 10
724.8985847109873
 20
740.8182080866889
 30
0.0
 10
724.595109314578
 20
739.7506298032124
 30
0.0
 10
724.471319081093
 20
739.4046169090318
 30
0.0
 10
724.1864410574115
 20
738.7366520105196
 30
0.0
 10
724.0250008333718
 20
738.4135182041888
 30
0.0
 10
723.8466954558079
 20
738.1001200416054
 30
0.0
  0
SPLINE
  5
12E
330
1F
100
AcDbEntity
  8
0
  6
Continuous
 62
     7
370
    25
100
AcDbSpline
210
0.0
220
0.0
230
1.0
 70
     8
 71
     3
 72
    14
 73
    10
 74
     0
 42
0.000000001
 43
0.00000001
 40
0.0
 40
0.0
 40
0.0
 40
0.0
 40
0.2499999999999999
 40
0.2499999999999999
 40
0.4999999999999998
 40
0.4999999999999998
 40
0.7499999999999999
 40
0.7499999999999999
 40
1.0
 40
1.0
 40
1.0
 40
1.0
 10
697.0631129384506
 20
796.135117285599
 30
0.0
 10
699.1207318332504
 20
792.1905101127968
 30
0.0
 10
701.2264086120464
 20
788.1718405982849
 30
0.0
 10
705.5269481737936
 20
780.0219065108049
 30
0.0
 10
707.7169503706997
 20
775.8996961035065
 30
0.0
 10
712.1789187498588
 20
767.5832263191347
 30
0.0
 10
714.4519244247336
 20
763.3869995486226
 30
0.0
 10
719.0802485861909
 20
754.9641021720465
 30
0.0
 10
721.436589833745
 20
750.7349330821318
 30
0.0
 10
723.8466954558077
 20
746.4988147782084
 30
0.0
  0
SPLINE
  5
12F
330
1F
100
AcDbEntity
  8
0
  6
Continuous
 62
     7
370
    25
100
AcDbSpline
210
0.0
220
0.0
230
1.0
 70
     8
 71
     3
 72
    20
 73
    16
 74
     0
 42
0.000000001
 43
0.00000001
 40
0.0
 40
0.0
 40
0.0
 40
0.0
 40
0.0414256394514012
 40
0.087740107335904
 40
0.134059139793558
 40
0.2160257086981426
 40
0.2997182140517908
 40
0.3673655727191875
 40
0.4350362989017974
 40
0.504505682596145
 40
0.5739893529408433
 40
0.6794576146213818
 40
0.7849626182125417
 40
0.8924731348790429
 40
1.0
 40
1.0
 40
1.0
 40
1.0
 10
673.2240860565381
 20
847.7874306095221
 30
0.0
 10
673.2353469217907
 20
847.7644026971581
 30
0.0
 10
673.2591975983048
 20
847.715629243584
 30
0.0
 10
673.5082227447635
 20
847.2068414158913
 30
0.0
 10
674.0232789975544
 20
846.1524608843815
 30
0.0
 10
674.988014158782
 20
844.169463754792
 30
0.0
 10
676.4382561826884
 20
841.167804634763
 30
0.0
 10
678.0621832932409
 20
837.775751378216
 30
0.0
 10
679.7563295483282
 20
834.2082257647279
 30
0.0
 10
681.608230293657
 20
830.2762346129502
 30
0.0
 10
683.9325196409928
 20
825.2969657418507
 30
0.0
 10
686.7483025825226
 20
819.195348862672
 30
0.0
 10
690.0847553516426
 20
811.8597981598193
 30
0.0
 10
693.5312621366571
 20
804.1770852291586
 30
0.0
 10
695.8857695415888
 20
798.815909826663
 30
0.0
 10
697.0631127460675
 20
796.1351183307745
 30
0.0
  0
LINE
  5
130
330
1F
100
AcDbEntity
  8
0
  6
Continuous
 62
     7
370
    25
100
AcDbLine
 10
773.2181419833
 20
526.2994674099
 30
0.0
 11
873.2181434735
 21
526.2994674099
 31
0.0
  0
LINE
  5
131
330
1F
100
AcDbEntity
  8
0
  6
Continuous
 62
     7
370
    25
100
AcDbLine
 10
673.2181404932
 20
526.2994674099
 30
0.0
 11
773.2181419833
 21
526.2994674099
 31
0.0
  0
LINE
  5
132
330
1F
100
AcDbEntity
  8
0
  6
Continuous
 62
     7
370
    25
100
AcDbLine
 10
702.5074606045
 20
526.2994674099
 30
0.0
 11
873.2181434735
 21
526.2994674099
 31
0.0
  0
LINE
  5
133
330
1F
100
AcDbEntity
  8
0
  6
Continuous
 62
     7
370
    25
100
AcDbLine
 10
673.2181404932
 20
526.2994674099
 30
0.0
 11
702.5074606045
 21
526.2994674099
 31
0.0
  0
LINE
  5
134
330
1F
100
AcDbEntity
  8
0
  6
Continuous
 62
     7
370
    25
100
AcDbLine
 10
873.2705061539
 20
523.2994673838
 30
0.0
 11
673.1657778128
 21
523.2994673838
 31
0.0
  0
LINE
  5
135
330
1F
100
AcDbEntity
  8
0
  6
Continuous
 62
     7
370
    25
100
AcDbLine
 10
873.1483240827
 20
516.2994676334
 30
0.0
 11
673.287959884
 21
516.2994676334
 31
0.0
  0
LINE
  5
136
330
1F
100
AcDbEntity
  8
0
  6
Continuous
 62
     7
370
    25
100
AcDbLine
 10
871.2087814911
 20
1416.7994764698
 30
0.0
 11
871.2181394203
 21
1416.7994764698
 31
0.0
  0
LINE
  5
137
330
1F
100
AcDbEntity
  8
0
  6
Continuous
 62
     7
370
    25
100
AcDbLine
 10
675.2181445463
 20
1416.7994764698
 30
0.0
 11
871.2087814911
 21
1416.7994764698
 31
0.0
  0
SPLINE
  5
13B
330
1F
100
AcDbEntity
  8
0
  6
Continuous
 62
     7
370
    25
100
AcDbSpline
210
0.0
220
0.0
230
1.0
 70
     8
 71
     3
 72
    23
 73
    19
 74
     0
 42
0.000000001
 43
0.00000001
 40
0.0
 40
0.0
 40
0.0
 40
0.0
 40
0.0424122922948766
 40
0.1273095777641746
 40
0.2122023788569395
 40
0.2970451097847528
 40
0.382034818277656
 40
0.4670090648785789
 40
0.5518862084673527
 40
0.6079019435199544
 40
0.6639056933662895
 40
0.7227975838830011
 40
0.7817875198583042
 40
0.8405343266228132
 40
0.8789835731871007
 40
0.91752003491874
 40
0.9559185029436996
 40
1.0
 40
1.0
 40
1.0
 40
1.0
 10
720.654754082747
 20
742.921030248461
 30
0.0
 10
719.849273149452
 20
744.6689193928955
 30
0.0
 10
717.4314496372976
 20
749.9155829641409
 30
0.0
 10
713.4366679731331
 20
758.5843961216018
 30
0.0
 10
708.7018418500311
 20
768.8592806502365
 30
0.0
 10
704.0417845837203
 20
778.9720535676661
 30
0.0
 10
699.4764768136619
 20
788.8794555726021
 30
0.0
 10
695.0384599687125
 20
798.5109249688669
 30
0.0
 10
691.2537538364658
 20
806.724810223337
 30
0.0
 10
688.1043425505957
 20
813.5601543167955
 30
0.0
 10
685.5015670233716
 20
819.2093460861947
 30
0.0
 10
683.0261608532045
 20
824.5824069498456
 30
0.0
 10
680.7498166717537
 20
829.5237082818776
 30
0.0
 10
679.0152568295254
 20
833.2893978605318
 30
0.0
 10
677.7750979982078
 20
835.9822341944279
 30
0.0
 10
676.9363974944591
 20
837.8037633494783
 30
0.0
 10
676.2867888216391
 20
839.2151870715427
 30
0.0
 10
676.1206857874561
 20
839.5769198345511
 30
0.0
 10
676.0319118602948
 20
839.7702482593634
 30
0.0
  0
LINE
  5
13C
330
1F
100
AcDbEntity
  8
0
  6
Continuous
 62
     7
370
    25
100
AcDbLine
 10
676.911430548
 20
840.1755896462
 30
0.0
 11
676.0319118603
 21
839.7702482594
 31
0.0
  0
SPLINE
  5
13E
330
1F
100
AcDbEntity
  8
0
  6
Continuous
 62
     7
370
    25
100
AcDbSpline
210
0.0
220
0.0
230
1.0
 70
     8
 71
     3
 72
    22
 73
    18
 74
     0
 42
0.000000001
 43
0.00000001
 40
0.0
 40
0.0
 40
0.0
 40
0.0
 40
0.0425584853343756
 40
0.0811169878843424
 40
0.1198159516631439
 40
0.1584259575987102
 40
0.2156052749101224
 40
0.2730112829206618
 40
0.3303237031164297
 40
0.376010172345967
 40
0.4217025461578906
 40
0.5132642848633963
 40
0.6048650401119254
 40
0.6961028254593727
 40
0.7873297976328888
 40
0.893659822616774
 40
1.0
 40
1.0
 40
1.0
 40
1.0
 10
675.205679724999
 20
645.9954512370207
 30
0.0
 10
675.292116089932
 20
646.1786749606622
 30
0.0
 10
675.4568648471292
 20
646.5279015944105
 30
0.0
 10
676.1021764390845
 20
647.8957678606828
 30
0.0
 10
676.9527515016453
 20
649.698776847725
 30
0.0
 10
678.197890879029
 20
652.3380898740205
 30
0.0
 10
679.920528830471
 20
655.9896484768751
 30
0.0
 10
682.1607059509805
 20
660.7381942750812
 30
0.0
 10
684.4696694087803
 20
665.6325736636766
 30
0.0
 10
686.7482060423326
 20
670.4624130334562
 30
0.0
 10
689.6764998646745
 20
676.6696174853698
 30
0.0
 10
693.5316411200332
 20
684.8414462428195
 30
0.0
 10
698.3695860476308
 20
695.0965617416949
 30
0.0
 10
703.3549236368423
 20
705.6641069571598
 30
0.0
 10
708.732658341979
 20
717.0634074273673
 30
0.0
 10
714.4938101710522
 20
729.2754835340247
 30
0.0
 10
718.5992799629889
 20
737.9779424615456
 30
0.0
 10
720.6521128519254
 20
742.3293796432592
 30
0.0
  0
LINE
  5
140
330
1F
100
AcDbEntity
  8
0
  6
Continuous
 62
     7
370
    25
100
AcDbLine
 10
677.2115026816
 20
645.0491902483
 30
0.0
 11
675.205679725
 21
645.995451237
 31
0.0
  0
SPLINE
  5
144
330
1F
100
AcDbEntity
  8
0
  6
Continuous
 62
     7
370
    25
100
AcDbSpline
210
0.0
220
0.0
230
1.0
 70
     8
 71
     3
 72
    10
 73
     6
 74
     0
 42
0.000000001
 43
0.00000001
 40
0.0
 40
0.0
 40
0.0
 40
0.0
 40
0.3097357245225516
 40
0.8821049681858879
 40
1.0
 40
1.0
 40
1.0
 40
1.0
 10
720.7189892633634
 20
742.6268962276556
 30
0.0
 10
720.7189426014927
 20
742.621670426113
 30
0.0
 10
720.7188097118556
 20
742.6067877208311
 30
0.0
 10
720.7182335405328
 20
742.5947240409123
 30
0.0
 10
720.7178258282828
 20
742.5876099385112
 30
0.0
 10
720.7177561922746
 20
742.5863948715307
 30
0.0
  0
LINE
  5
146
330
1F
100
AcDbEntity
  8
0
  6
Continuous
 62
     7
370
    25
100
AcDbLine
 10
720.7184565469
 20
742.6552978409
 30
0.0
 11
720.7189780875
 21
742.6238414896
 31
0.0
  0
SPLINE
  5
14B
330
1F
100
AcDbEntity
  8
0
  6
Continuous
 62
     7
370
    25
100
AcDbSpline
210
0.0
220
0.0
230
1.0
 70
     8
 71
     3
 72
    10
 73
     6
 74
     0
 42
0.000000001
 43
0.00000001
 40
0.0
 40
0.0
 40
0.0
 40
0.0
 40
0.4109555855811639
 40
0.7050334260923108
 40
1.0
 40
1.0
 40
1.0
 40
1.0
 10
720.7154465122895
 20
742.6983472955801
 30
0.0
 10
720.7111126519775
 20
742.7292279957476
 30
0.0
 10
720.7036775020701
 20
742.7822067764314
 30
0.0
 10
720.6821379096428
 20
742.8564729190934
 30
0.0
 10
720.6638912017497
 20
742.8994895046064
 30
0.0
 10
720.654754082747
 20
742.921030248461
 30
0.0
  0
SPLINE
  5
14C
330
1F
100
AcDbEntity
  8
0
  6
Continuous
 62
     7
370
    25
100
AcDbSpline
210
0.0
220
0.0
230
1.0
 70
     8
 71
     3
 72
    10
 73
     6
 74
     0
 42
0.000000001
 43
0.00000001
 40
0.0
 40
0.0
 40
0.0
 40
0.0
 40
0.7359620001966221
 40
0.9901978886844878
 40
1.0
 40
1.0
 40
1.0
 40
1.0
 10
720.7154465122895
 20
742.6983472955801
 30
0.0
 10
720.7162543097571
 20
742.6898228643067
 30
0.0
 10
720.7173411584621
 20
742.6783536935521
 30
0.0
 10
720.718237693356
 20
742.6606741913256
 30
0.0
 10
720.718437937156
 20
742.655720171826
 30
0.0
 10
720.7184453709798
 20
742.6555362594702
 30
0.0
  0
SPLINE
  5
14D
330
1F
100
AcDbEntity
  8
0
  6
Continuous
 62
     7
370
    25
100
AcDbSpline
210
0.0
220
0.0
230
1.0
 70
     8
 71
     3
 72
    10
 73
     6
 74
     0
 42
0.000000001
 43
0.00000001
 40
0.0
 40
0.0
 40
0.0
 40
0.0
 40
0.3558644789083114
 40
0.6772229820611434
 40
1.0
 40
1.0
 40
1.0
 40
1.0
 10
720.6521128519254
 20
742.3293796432592
 30
0.0
 10
720.6647331768168
 20
742.3593317010337
 30
0.0
 10
720.6887501118133
 20
742.4163315509404
 30
0.0
 10
720.7096866308117
 20
742.502319753772
 30
0.0
 10
720.7150623922877
 20
742.5583287179775
 30
0.0
 10
720.7177561922746
 20
742.5863948715307
 30
0.0
  0
SPLINE
  5
158
330
1F
100
AcDbEntity
  8
0
  6
Continuous
 62
     7
370
    25
100
AcDbSpline
210
0.0
220
0.0
230
1.0
 70
     8
 71
     3
 72
    23
 73
    19
 74
     0
 42
0.000000001
 43
0.00000001
 40
0.0
 40
0.0
 40
0.0
 40
0.0
 40
0.0424450920131248
 40
0.1274083151769806
 40
0.2123667477634594
 40
0.2972753473606978
 40
0.3823309982540845
 40
0.4673712366088567
 40
0.5523142458385284
 40
0.6083054463309517
 40
0.6642845541359833
 40
0.7231398082465018
 40
0.7820931116286752
 40
0.8408033709725063
 40
0.8792459446940263
 40
0.9177755975116694
 40
0.9561672670107986
 40
1.0
 40
1.0
 40
1.0
 40
1.0
 10
828.1556350393968
 20
1192.10844310647
 30
0.0
 10
828.9689134092807
 20
1190.364345562575
 30
0.0
 10
831.4101480011328
 20
1185.129051703316
 30
0.0
 10
835.4435937474593
 20
1176.479120339769
 30
0.0
 10
840.2242816554889
 20
1166.226813487617
 30
0.0
 10
844.9294058153332
 20
1156.136468864307
 30
0.0
 10
849.5388601718857
 20
1146.251408214958
 30
0.0
 10
854.0196507818473
 20
1136.642155196489
 30
0.0
 10
857.8394977040823
 20
1128.450381106459
 30
0.0
 10
861.016676067141
 20
1121.636773937671
 30
0.0
 10
863.6407877877805
 20
1116.009306988801
 30
0.0
 10
866.1362087551477
 20
1110.657792752449
 30
0.0
 10
868.4306593887918
 20
1105.737273972797
 30
0.0
 10
870.17903425628
 20
1101.987885275914
 30
0.0
 10
871.4290179750334
 20
1099.307129481284
 30
0.0
 10
872.2743331090315
 20
1097.494418000366
 30
0.0
 10
872.9273798593979
 20
1096.093882413555
 30
0.0
 10
873.0947563729962
 20
1095.734953810856
 30
0.0
 10
873.1839825614171
 20
1095.543613756952
 30
0.0
  0
LINE
  5
159
330
1F
100
AcDbEntity
  8
0
  6
Continuous
 62
     7
370
    25
100
AcDbLine
 10
871.6422190173
 20
1094.8246625317
 30
0.0
 11
873.1839825614
 21
1095.543613757
 31
0.0
  0
LINE
  5
15B
330
1F
100
AcDbEntity
  8
0
  6
Continuous
 62
     7
370
    25
100
AcDbLine
 10
828.1556350394
 20
1192.7001384152
 30
0.0
 11
828.1689641281
 21
1192.6715281857
 31
0.0
  0
SPLINE
  5
15C
330
1F
100
AcDbEntity
  8
0
  6
Continuous
 62
     7
370
    25
100
AcDbSpline
210
0.0
220
0.0
230
1.0
 70
     8
 71
     3
 72
    22
 73
    18
 74
     0
 42
0.000000001
 43
0.00000001
 40
0.0
 40
0.0
 40
0.0
 40
0.0
 40
0.042523213023556
 40
0.0810714327416521
 40
0.1197599971435923
 40
0.158359739092113
 40
0.215516412031279
 40
0.2728998697853797
 40
0.3301897038004487
 40
0.3758548925447673
 40
0.4215262287365856
 40
0.513045633493419
 40
0.6046040219693619
 40
0.6957995650618342
 40
0.7869840724180868
 40
0.8934871823583463
 40
1.0
 40
1.0
 40
1.0
 40
1.0
 10
873.2237984641271
 20
1289.320161665735
 30
0.0
 10
873.1379248960571
 20
1289.136691761855
 30
0.0
 10
872.9742050662733
 20
1288.786902390004
 30
0.0
 10
872.3342733797775
 20
1287.416424420595
 30
0.0
 10
871.4908036175751
 20
1285.609404125513
 30
0.0
 10
870.256346733752
 20
1282.964010313827
 30
0.0
 10
868.5486776987178
 20
1279.304061082345
 30
0.0
 10
866.3282063745038
 20
1274.544371885629
 30
0.0
 10
864.0396560139792
 20
1269.638424966107
 30
0.0
 10
861.7813581453811
 20
1264.797151652412
 30
0.0
 10
858.8791882336948
 20
1258.575230569613
 30
0.0
 10
855.0584842333517
 20
1250.383862478985
 30
0.0
 10
850.2638036964522
 20
1240.103942358898
 30
0.0
 10
845.323145706403
 20
1229.510622300902
 30
0.0
 10
839.9895188447472
 20
1218.074579898804
 30
0.0
 10
834.2716322124888
 20
1205.81424823622
 30
0.0
 10
830.1943627010933
 20
1197.071641163449
 30
0.0
 10
828.1556350393968
 20
1192.700138415156
 30
0.0
  0
LINE
  5
15D
330
1F
100
AcDbEntity
  8
0
  6
Continuous
 62
     7
370
    25
100
AcDbLine
 10
873.2237984641
 20
1289.3201616657
 30
0.0
 11
873.2246105774
 21
1289.3201616657
 31
0.0
  0
SPLINE
  5
15E
330
1F
100
AcDbEntity
  8
0
  6
Continuous
 62
     7
370
    25
100
AcDbSpline
210
0.0
220
0.0
230
1.0
 70
     8
 71
     3
 72
     9
 73
     5
 74
     0
 42
0.000000001
 43
0.00000001
 40
0.0
 40
0.0
 40
0.0
 40
0.0
 40
0.5864494035505804
 40
1.0
 40
1.0
 40
1.0
 40
1.0
 10
828.1689641280847
 20
1192.671528185663
 30
0.0
 10
828.9833395607995
 20
1194.4181244429
 30
0.0
 10
830.3719937699849
 20
1197.396380105985
 30
0.0
 10
831.744295033992
 20
1200.339615733203
 30
0.0
 10
832.3118110402303
 20
1201.556792582331
 30
0.0
  0
LINE
  5
15F
330
1F
100
AcDbEntity
  8
0
  6
Continuous
 62
     7
370
    25
100
AcDbLine
 10
847.0726256474
 20
1233.2155612362
 30
0.0
 11
848.5345115169
 21
1236.3511231793
 31
0.0
  0
SPLINE
  5
160
330
1F
100
AcDbEntity
  8
0
  6
Continuous
 62
     7
370
    25
100
AcDbSpline
210
0.0
220
0.0
230
1.0
 70
     8
 71
     3
 72
    15
 73
    11
 74
     0
 42
0.000000001
 43
0.00000001
 40
0.0
 40
0.0
 40
0.0
 40
0.0
 40
0.0271726297469777
 40
0.1976351440312648
 40
0.3683826860447939
 40
0.5384256429435426
 40
0.649716993990143
 40
0.7612612110175773
 40
0.8724057888774238
 40
0.9999999999999999
 40
0.9999999999999999
 40
0.9999999999999999
 40
0.9999999999999999
 10
863.1592040165144
 20
1267.720988119898
 30
0.0
 10
863.3037818556979
 20
1268.031134343311
 30
0.0
 10
864.3553422801697
 20
1270.286926075867
 30
0.0
 10
866.1532409298655
 20
1274.14385172353
 30
0.0
 10
868.463415852352
 20
1279.10024129991
 30
0.0
 10
870.2118894400825
 20
1282.851847930714
 30
0.0
 10
871.4645950329285
 20
1285.540155902111
 30
0.0
 10
872.3113222020309
 20
1287.357705785572
 30
0.0
 10
872.9672542684347
 20
1288.766253082916
 30
0.0
 10
873.1349730748885
 20
1289.127234660419
 30
0.0
 10
873.2246105774121
 20
1289.320161665735
 30
0.0
  0
LINE
  5
161
330
1F
100
AcDbEntity
  8
0
  6
Continuous
 62
     7
370
    25
100
AcDbLine
 10
871.7610781296
 20
1290.0022176159
 30
0.0
 11
873.2237984641
 21
1289.3201616657
 31
0.0
  0
SPLINE
  5
164
330
1F
100
AcDbEntity
  8
0
  6
Continuous
 62
     7
370
    25
100
AcDbSpline
210
0.0
220
0.0
230
1.0
 70
     8
 71
     3
 72
    10
 73
     6
 74
     0
 42
0.000000001
 43
0.00000001
 40
0.0
 40
0.0
 40
0.0
 40
0.0
 40
0.3630744603150352
 40
0.6808528807355819
 40
1.0
 40
1.0
 40
1.0
 40
1.0
 10
828.0913961334901
 20
1192.360451544581
 30
0.0
 10
828.0945732807784
 20
1192.329537802337
 30
0.0
 10
828.1005312043453
 20
1192.271567020138
 30
0.0
 10
828.1223544905033
 20
1192.18732762058
 30
0.0
 10
828.1445256417925
 20
1192.134775587791
 30
0.0
 10
828.1556350393969
 20
1192.10844310647
 30
0.0
  0
SPLINE
  5
16C
330
1F
100
AcDbEntity
  8
0
  6
Continuous
 62
     7
370
    25
100
AcDbSpline
210
0.0
220
0.0
230
1.0
 70
     8
 71
     3
 72
    11
 73
     7
 74
     0
 42
0.000000001
 43
0.00000001
 40
0.0
 40
0.0
 40
0.0
 40
0.0
 40
0.0738989849616588
 40
0.369081542855063
 40
0.8921500403805523
 40
1.0
 40
1.0
 40
1.0
 40
1.0
 10
828.0903754039483
 20
1192.426672304926
 30
0.0
 10
828.0904249405343
 20
1192.428152796136
 30
0.0
 10
828.0906723463622
 20
1192.435546970496
 30
0.0
 10
828.0915192271541
 20
1192.451567422945
 30
0.0
 10
828.0925287707087
 20
1192.464042539928
 30
0.0
 10
828.0932190180289
 20
1192.471170590017
 30
0.0
 10
828.0933370097356
 20
1192.472389067469
 30
0.0
  0
LINE
  5
16E
330
1F
100
AcDbEntity
  8
0
  6
Continuous
 62
     7
370
    25
100
AcDbLine
 10
828.0900215014
 20
1192.4013999355
 30
0.0
 11
828.0904052063
 21
1192.4276855839
 31
0.0
  0
SPLINE
  5
170
330
1F
100
AcDbEntity
  8
0
  6
Continuous
 62
     7
370
    25
100
AcDbSpline
210
0.0
220
0.0
230
1.0
 70
     8
 71
     3
 72
     9
 73
     5
 74
     0
 42
0.000000001
 43
0.00000001
 40
0.0
 40
0.0
 40
0.0
 40
0.0
 40
0.7468786774599095
 40
1.0
 40
1.0
 40
1.0
 40
1.0
 10
828.0913961334902
 20
1192.360451544581
 30
0.0
 10
828.0908972760793
 20
1192.368864322514
 30
0.0
 10
828.0902293531276
 20
1192.380128237508
 30
0.0
 10
828.0900605130927
 20
1192.397864247541
 30
0.0
 10
828.0900177760797
 20
1192.402353609858
 30
0.0
  0
SPLINE
  5
171
330
1F
100
AcDbEntity
  8
0
  6
Continuous
 62
     7
370
    25
100
AcDbSpline
210
0.0
220
0.0
230
1.0
 70
     8
 71
     3
 72
    10
 73
     6
 74
     0
 42
0.000000001
 43
0.00000001
 40
0.0
 40
0.0
 40
0.0
 40
0.0
 40
0.4016164549550406
 40
0.7003517479476654
 40
1.0
 40
1.0
 40
1.0
 40
1.0
 10
828.1556350393968
 20
1192.700138415156
 30
0.0
 10
828.1431100338033
 20
1192.670111527461
 30
0.0
 10
828.1212685244419
 20
1192.617749670713
 30
0.0
 10
828.1022049169164
 20
1192.541510106338
 30
0.0
 10
828.0962959838997
 20
1192.495452837086
 30
0.0
 10
828.0933370097356
 20
1192.472389067469
 30
0.0
  0
SPLINE
  5
172
330
1F
100
AcDbEntity
  8
0
  6
Continuous
 62
     7
370
    25
100
AcDbSpline
210
0.0
220
0.0
230
1.0
 70
     8
 71
     3
 72
    10
 73
     6
 74
     0
 42
0.000000001
 43
0.00000001
 40
0.0
 40
0.0
 40
0.0
 40
0.0
 40
0.4109260611255731
 40
0.7050451008362835
 40
0.9999999999999999
 40
0.9999999999999999
 40
0.9999999999999999
 40
0.9999999999999999
 10
828.1072733207421
 20
1192.449143256006
 30
0.0
 10
828.1117458747143
 20
1192.479986781353
 30
0.0
 10
828.119419645167
 20
1192.53290646325
 30
0.0
 10
828.1412885258299
 20
1192.607117528775
 30
0.0
 10
828.1597302047995
 20
1192.650037666361
 30
0.0
 10
828.1689641280847
 20
1192.671528185663
 30
0.0
  0
SPLINE
  5
173
330
1F
100
AcDbEntity
  8
0
  6
Continuous
 62
     7
370
    25
100
AcDbSpline
210
0.0
220
0.0
230
1.0
 70
     8
 71
     3
 72
    10
 73
     6
 74
     0
 42
0.000000001
 43
0.00000001
 40
0.0
 40
0.0
 40
0.0
 40
0.0
 40
0.7354349502137968
 40
0.9894976853287786
 40
1.0
 40
1.0
 40
1.0
 40
1.0
 10
828.1072733207423
 20
1192.449143256006
 30
0.0
 10
828.1064495188226
 20
1192.440597092921
 30
0.0
 10
828.1053411269893
 20
1192.429098579573
 30
0.0
 10
828.1042783077637
 20
1192.411496076106
 30
0.0
 10
828.1040918730578
 20
1192.406486383818
 30
0.0
 10
828.1040844722467
 20
1192.406287516413
 30
0.0
  0
LINE
  5
174
330
1F
100
AcDbEntity
  8
0
  6
Continuous
 62
     7
370
    25
100
AcDbLine
 10
828.1040732964
 20
1192.4061087025
 30
0.0
 11
828.1034101947
 21
1192.37463745
 31
0.0
  0
SPLINE
  5
175
330
1F
100
AcDbEntity
  8
0
  6
Continuous
 62
     7
370
    25
100
AcDbSpline
210
0.0
220
0.0
230
1.0
 70
     8
 71
     3
 72
    10
 73
     6
 74
     0
 42
0.000000001
 43
0.00000001
 40
0.0
 40
0.0
 40
0.0
 40
0.0
 40
0.309615160907763
 40
0.882494785883823
 40
1.0
 40
1.0
 40
1.0
 40
1.0
 10
828.1034139199929
 20
1192.377677286921
 30
0.0
 10
828.1034379079533
 20
1192.372460228043
 30
0.0
 10
828.1035062807352
 20
1192.357590067152
 30
0.0
 10
828.104018695401
 20
1192.345449652267
 30
0.0
 10
828.1043996179017
 20
1192.338404786728
 30
0.0
 10
828.1044644518571
 20
1192.337205733118
 30
0.0
  0
SPLINE
  5
176
330
1F
100
AcDbEntity
  8
0
  6
Continuous
 62
     7
370
    25
100
AcDbSpline
210
0.0
220
0.0
230
1.0
 70
     8
 71
     3
 72
    10
 73
     6
 74
     0
 42
0.000000001
 43
0.00000001
 40
0.0
 40
0.0
 40
0.0
 40
0.0
 40
0.3558156916020446
 40
0.6772134888556298
 40
1.0
 40
1.0
 40
1.0
 40
1.0
 10
828.1689566775042
 20
1192.079892481623
 30
0.0
 10
828.1564690537375
 20
1192.109875696379
 30
0.0
 10
828.1327017285236
 20
1192.166941862801
 30
0.0
 10
828.1121596919643
 20
1192.253087613433
 30
0.0
 10
828.1070332157293
 20
1192.30912609118
 30
0.0
 10
828.1044644518571
 20
1192.337205733118
 30
0.0
  0
LINE
  5
177
330
1F
100
AcDbEntity
  8
0
  6
Continuous
 62
     7
370
    25
100
AcDbLine
 10
871.7612420424
 20
1290.0025752438
 30
0.0
 11
873.2246105774
 21
1289.3201616657
 31
0.0
  0
LINE
  5
178
330
1F
100
AcDbEntity
  8
0
  6
Continuous
 62
     7
370
    25
100
AcDbLine
 10
873.2039426668
 20
538.167362201
 30
0.0
 11
873.2039426668
 21
534.4241420803
 31
0.0
  0
LINE
  5
179
330
1F
100
AcDbEntity
  8
0
  6
Continuous
 62
     7
370
    25
100
AcDbLine
 10
673.2323412998
 20
534.4346492616
 30
0.0
 11
673.2323412998
 21
538.1639461098
 31
0.0
  0
LINE
  5
17A
330
1F
100
AcDbEntity
  8
0
  6
Continuous
 62
     7
370
    25
100
AcDbLine
 10
774.9031849653
 20
535.8986808983
 30
0.0
 11
774.4077551161
 21
537.5583638502
 31
0.0
  0
LINE
  5
17B
330
1F
100
AcDbEntity
  8
0
  6
Continuous
 62
     7
370
    25
100
AcDbLine
 10
774.4077551161
 20
537.5583638502
 30
0.0
 11
772.7227121341
 21
537.9591510696
 31
0.0
  0
LINE
  5
17C
330
1F
100
AcDbEntity
  8
0
  6
Continuous
 62
     7
370
    25
100
AcDbLine
 10
772.7227121341
 20
537.9591510696
 30
0.0
 11
771.5330990013
 21
536.7002544058
 31
0.0
  0
LINE
  5
17D
330
1F
100
AcDbEntity
  8
0
  6
Continuous
 62
     7
370
    25
100
AcDbLine
 10
771.5330990013
 20
536.7002544058
 30
0.0
 11
772.0285288506
 21
535.0405705226
 31
0.0
  0
LINE
  5
17E
330
1F
100
AcDbEntity
  8
0
  6
Continuous
 62
     7
370
    25
100
AcDbLine
 10
772.0285288506
 20
535.0405705226
 30
0.0
 11
773.7135718326
 21
534.6397842345
 31
0.0
  0
CIRCLE
  5
17F
330
1F
100
AcDbEntity
  8
0
  6
Continuous
 62
     7
370
    25
100
AcDbCircle
 10
773.2181419833
 20
536.2994674099
 30
0.0
 40
2.250000000000023
  0
LINE
  5
180
330
1F
100
AcDbEntity
  8
0
  6
Continuous
 62
     7
370
    25
100
AcDbLine
 10
773.7135718326
 20
534.6397842345
 30
0.0
 11
774.9031849653
 21
535.8986808983
 31
0.0
  0
LINE
  5
181
330
1F
100
AcDbEntity
  8
0
  6
Continuous
 62
     8
370
    25
100
AcDbLine
 10
852.0607074006
 20
1238.0124238384
 30
0.0
 11
851.9983385905
 21
1237.8793862713
 31
0.0
  0
LINE
  5
182
330
1F
100
AcDbEntity
  8
0
  6
Continuous
 62
     8
370
    25
100
AcDbLine
 10
852.057503651
 20
1238.0192783726
 30
0.0
 11
851.9951348408
 21
1237.8863004101
 31
0.0
  0
LINE
  5
183
330
1F
100
AcDbEntity
  8
0
  6
Continuous
 62
     8
370
    25
100
AcDbLine
 10
873.2181434735
 20
1414.7994426144
 30
0.0
 11
673.2181404932
 21
1414.7994426144
 31
0.0
  0
LINE
  5
184
330
1F
100
AcDbEntity
  8
0
  6
Continuous
 62
     8
370
    25
100
AcDbLine
 10
673.2181404932
 20
1409.2994836224
 30
0.0
 11
873.2181434735
 21
1409.2994836224
 31
0.0
  0
LINE
  5
185
330
1F
100
AcDbEntity
  8
0
  6
Continuous
 62
     7
100
AcDbLine
 10
613.5426398673
 20
391.8759220138
 30
0.0
 11
619.5420668482
 21
391.7930009607
 31
0.0
  0
LINE
  5
186
330
1F
100
AcDbEntity
  8
0
  6
Continuous
 62
     7
370
    25
100
AcDbLine
 10
619.5203634713
 20
390.6750185681
 30
0.0
 11
619.5516186569
 21
390.6750185681
 31
0.0
  0
LINE
  5
187
330
1F
100
AcDbEntity
  8
0
  6
Continuous
 62
     7
370
    25
100
AcDbLine
 10
619.5516186569
 20
395.6750184564
 30
0.0
 11
619.5203634713
 21
395.6750184564
 31
0.0
  0
LINE
  5
188
330
1F
100
AcDbEntity
  8
0
  6
Continuous
 62
     7
370
    25
100
AcDbLine
 10
619.5260482643
 20
390.9136441337
 30
0.0
 11
619.5374178503
 21
390.9250186091
 31
0.0
  0
LINE
  5
189
330
1F
100
AcDbEntity
  8
0
  6
Continuous
 62
     7
370
    25
100
AcDbLine
 10
619.5374178503
 20
395.4250184154
 30
0.0
 11
619.5260482643
 21
395.4363928908
 31
0.0
  0
LINE
  5
18A
330
1F
100
AcDbEntity
  8
0
  6
Continuous
 62
     7
370
    25
100
AcDbLine
 10
521.8129915454
 20
493.1494496097
 30
0.0
 11
521.8016170699
 21
493.1608191957
 31
0.0
  0
LINE
  5
18B
330
1F
100
AcDbEntity
  8
0
  6
Continuous
 62
     7
370
    25
100
AcDbLine
 10
517.3016172637
 20
493.1608191957
 30
0.0
 11
517.2902427882
 21
493.1494496097
 31
0.0
  0
LINE
  5
18C
330
1F
100
AcDbEntity
  8
0
  6
Continuous
 62
     7
370
    25
100
AcDbLine
 10
419.5771860693
 20
395.4363928908
 30
0.0
 11
419.5658164833
 21
395.4250184154
 31
0.0
  0
LINE
  5
18D
330
1F
100
AcDbEntity
  8
0
  6
Continuous
 62
     7
370
    25
100
AcDbLine
 10
419.5658164833
 20
390.9250186091
 30
0.0
 11
419.5771860693
 21
390.9136441337
 31
0.0
  0
LWPOLYLINE
  5
18E
330
1F
100
AcDbEntity
  8
0
  6
Continuous
 62
     7
370
    25
100
AcDbPolyline
 90
        3
 70
   128
 43
0.0
 10
525.1824246522
 20
293.2812250485
 10
521.0342221696
 20
293.1336364975
 10
516.5812250495
 20
293.1667543282
  0
ARC
  5
18F
330
1F
100
AcDbEntity
  8
0
  6
Continuous
 62
     7
370
    25
100
AcDbCircle
 10
519.5516171668
 20
393.1750185122
 30
0.0
 40
100.0523651947846
100
AcDbArc
 50
327.2764674512
 51
212.9330372279
  0
CIRCLE
  5
190
330
1F
100
AcDbEntity
  8
0
  6
Continuous
 62
     7
370
    25
100
AcDbCircle
 10
519.5516171668
 20
393.1750185122
 30
0.0
 40
97.99999999999997
  0
CIRCLE
  5
191
330
1F
100
AcDbEntity
  8
0
  6
Continuous
 62
     7
370
    25
100
AcDbCircle
 10
461.8071324758
 20
393.9731336482
 30
0.0
 40
4.249999999999981
  0
CIRCLE
  5
192
330
1F
100
AcDbEntity
  8
0
  6
Continuous
 62
     7
370
    25
100
AcDbCircle
 10
577.2961018578
 20
392.3769033762
 30
0.0
 40
4.499999999999996
  0
CIRCLE
  5
193
330
1F
100
AcDbEntity
  8
0
  6
Continuous
 62
     7
370
    25
100
AcDbCircle
 10
519.5516171668
 20
393.1750185122
 30
0.0
 40
99.99999999999991
  0
SPLINE
  5
194
330
1F
100
AcDbEntity
  8
0
  6
Continuous
 62
     7
370
    25
100
AcDbSpline
210
0.0
220
0.0
230
1.0
 70
     8
 71
     3
 72
    23
 73
    19
 74
     0
 42
0.000000001
 43
0.00000001
 40
0.0
 40
0.0
 40
0.0
 40
0.0
 40
0.0424124033775563
 40
0.1273095251097937
 40
0.212202314512013
 40
0.2970453557999899
 40
0.3820347492256291
 40
0.4670091123818519
 40
0.5518862405128098
 40
0.6079020670830924
 40
0.6639057030324641
 40
0.7227974248831714
 40
0.7817876186696046
 40
0.840534391016585
 40
0.8789835440033538
 40
0.9175200576222902
 40
0.9559185031222796
 40
1.0
 40
1.0
 40
1.0
 40
1.0
 10
603.2042327139789
 20
338.2241963674951
 30
0.0
 10
602.6597348165632
 20
337.4109052051125
 30
0.0
 10
601.0253127319156
 20
334.9696450214534
 30
0.0
 10
598.0106303941432
 20
330.9361127753843
 30
0.0
 10
593.9773254248723
 20
326.155348192604
 30
0.0
 10
589.4596483607821
 20
321.4501460219909
 30
0.0
 10
584.4077600018015
 20
316.8405250952332
 30
0.0
 10
578.7385545781228
 20
312.3594837088907
 30
0.0
 10
573.0917721705578
 20
308.5380503659472
 30
0.0
 10
567.6448451302266
 20
305.3581239437484
 30
0.0
 10
562.5094499626065
 20
302.7300890645816
 30
0.0
 10
556.8165915048835
 20
300.2306596420912
 30
0.0
 10
550.4904268858949
 20
297.9322506258457
 30
0.0
 10
544.3775522835447
 20
296.1808528867923
 30
0.0
 10
538.6924551628781
 20
294.9286572579134
 30
0.0
 10
533.626814094738
 20
294.0818140012581
 30
0.0
 10
528.1124953892715
 20
293.4259133486496
 30
0.0
 10
524.2362821438142
 20
293.2581899011196
 30
0.0
 10
522.164635666486
 20
293.1685499181676
 30
0.0
  0
LINE
  5
195
330
1F
100
AcDbEntity
  8
0
  6
Continuous
 62
     7
370
    25
100
AcDbLine
 10
522.1646421857
 20
293.209163033
 30
0.0
 11
522.1646356665
 21
293.1685499182
 31
0.0
  0
LINE
  5
196
330
1F
100
AcDbEntity
  8
0
  6
Continuous
 62
     7
370
    25
100
AcDbLine
 10
603.2042550657
 20
338.3823572924
 30
0.0
 11
603.204232714
 21
338.2241963675
 31
0.0
  0
LINE
  5
197
330
1F
100
AcDbEntity
  8
0
  6
Continuous
 62
     7
370
    25
100
AcDbLine
 10
517.047621616
 20
293.2063765159
 30
0.0
 11
517.0476157952
 21
293.1693620315
 31
0.0
  0
LINE
  5
198
330
1F
100
AcDbEntity
  8
0
  6
Continuous
 62
     7
370
    25
100
AcDbLine
 10
517.0476157952
 20
293.1693620315
 30
0.0
 11
522.1646356665
 21
293.1685499182
 31
0.0
  0
SPLINE
  5
199
330
1F
100
AcDbEntity
  8
0
  6
Continuous
 62
     7
370
    25
100
AcDbSpline
210
0.0
220
0.0
230
1.0
 70
     8
 71
     3
 72
    10
 73
     6
 74
     0
 42
0.000000001
 43
0.00000001
 40
0.0
 40
0.0
 40
0.0
 40
0.0
 40
0.4016164549550406
 40
0.7003517479476654
 40
1.0
 40
1.0
 40
1.0
 40
1.0
 10
436.0167729471141
 20
338.237525456183
 30
0.0
 10
435.968264130885
 20
338.2500504617767
 30
0.0
 10
435.8836728901185
 20
338.2718919711381
 30
0.0
 10
435.7611817865141
 20
338.2909555786635
 30
0.0
 10
435.6876117615641
 20
338.2968645116802
 30
0.0
 10
435.6507706258708
 20
338.2998234858442
 30
0.0
  0
SPLINE
  5
19A
330
1F
100
AcDbEntity
  8
0
  6
Continuous
 62
     7
370
    25
100
AcDbSpline
210
0.0
220
0.0
230
1.0
 70
     8
 71
     3
 72
    10
 73
     6
 74
     0
 42
0.000000001
 43
0.00000001
 40
0.0
 40
0.0
 40
0.0
 40
0.0
 40
0.4109260611255731
 40
0.7050451008362835
 40
0.9999999999999999
 40
0.9999999999999999
 40
0.9999999999999999
 40
0.9999999999999999
 10
603.5617637250834
 20
338.2858871748376
 30
0.0
 10
603.5123975170865
 20
338.2814146208657
 30
0.0
 10
603.4276976005135
 20
338.2737408504129
 30
0.0
 10
603.3084178266121
 20
338.2518719697501
 30
0.0
 10
603.2389939209314
 20
338.2334302907803
 30
0.0
 10
603.2042327139789
 20
338.2241963674951
 30
0.0
  0
SPLINE
  5
19B
330
1F
100
AcDbEntity
  8
0
  6
Continuous
 62
     7
370
    25
100
AcDbSpline
210
0.0
220
0.0
230
1.0
 70
     8
 71
     3
 72
    11
 73
     7
 74
     0
 42
0.000000001
 43
0.00000001
 40
0.0
 40
0.0
 40
0.0
 40
0.0
 40
0.0738989849616588
 40
0.369081542855063
 40
0.8921500403805523
 40
1.0
 40
1.0
 40
1.0
 40
1.0
 10
435.609621069234
 20
338.3027850916314
 30
0.0
 10
435.610070850247
 20
338.3027355550456
 30
0.0
 10
435.6123172392924
 20
338.3024881492177
 30
0.0
 10
435.6226413213569
 20
338.3016412684258
 30
0.0
 10
435.6377904275095
 20
338.3006317248712
 30
0.0
 10
435.648875696638
 20
338.299941477551
 30
0.0
 10
435.6507706258708
 20
338.2998234858442
 30
0.0
  0
LINE
  5
19C
330
1F
100
AcDbEntity
  8
0
  6
Continuous
 62
     7
370
    25
100
AcDbLine
 10
435.6094944094
 20
338.9974287977
 30
0.0
 11
435.6094497059
 21
338.3028074434
 31
0.0
  0
SPLINE
  5
19D
330
1F
100
AcDbEntity
  8
0
  6
Continuous
 62
     7
370
    25
100
AcDbSpline
210
0.0
220
0.0
230
1.0
 70
     8
 71
     3
 72
    10
 73
     6
 74
     0
 42
0.000000001
 43
0.00000001
 40
0.0
 40
0.0
 40
0.0
 40
0.0
 40
0.7354349502137968
 40
0.9894976853287786
 40
1.0
 40
1.0
 40
1.0
 40
1.0
 10
603.5617637250834
 20
338.2858871748376
 30
0.0
 10
603.5739113939158
 20
338.2867109767573
 30
0.0
 10
603.590255586136
 20
338.2878193685906
 30
0.0
 10
603.600417316487
 20
338.2888821878162
 30
0.0
 10
603.6020297113712
 20
338.2890686225221
 30
0.0
 10
603.6020937178546
 20
338.2890760233331
 30
0.0
  0
SPLINE
  5
19E
330
1F
100
AcDbEntity
  8
0
  6
Continuous
 62
     7
370
    25
100
AcDbSpline
210
0.0
220
0.0
230
1.0
 70
     8
 71
     3
 72
    10
 73
     6
 74
     0
 42
0.000000001
 43
0.00000001
 40
0.0
 40
0.0
 40
0.0
 40
0.0
 40
0.0899124813262309
 40
0.4495637545342927
 40
1.0
 40
1.0
 40
1.0
 40
1.0
 10
603.6026152584964
 20
338.2891468038488
 30
0.0
 10
603.6026176776339
 20
338.3180153432543
 30
0.0
 10
603.6026297733579
 20
338.4623584730584
 30
0.0
 10
603.6026674208589
 20
338.7834283866986
 30
0.0
 10
603.602699914141
 20
339.0756157049321
 30
0.0
 10
603.6027195666247
 20
339.2523355116773
 30
0.0
  0
LINE
  5
19F
330
1F
100
AcDbEntity
  8
0
  6
Continuous
 62
     7
370
    25
100
AcDbLine
 10
435.6107014034
 20
338.3031389942
 30
0.0
 11
435.6093826507
 21
338.3027552893
 31
0.0
  0
CIRCLE
  5
1A0
330
1F
100
AcDbEntity
  8
0
  6
Continuous
 62
     7
370
    25
100
AcDbCircle
 10
577.2961018578
 20
392.3769033762
 30
0.0
 40
3.825000000000045
  0
CIRCLE
  5
1A1
330
1F
100
AcDbEntity
  8
0
  6
Continuous
 62
     7
370
    25
100
AcDbCircle
 10
577.2961018578
 20
392.3769033762
 30
0.0
 40
4.25000000000007
  0
LINE
  5
1A2
330
1F
100
AcDbEntity
  8
0
  6
Continuous
 62
     7
370
    25
100
AcDbLine
 10
575.967044643
 20
394.2655377589
 30
0.0
 11
578.2671804343
 21
394.472216399
 31
0.0
  0
LINE
  5
1A3
330
1F
100
AcDbEntity
  8
0
  6
Continuous
 62
     7
370
    25
100
AcDbLine
 10
578.2671804343
 20
394.472216399
 30
0.0
 11
579.5962336276
 21
392.5835819366
 31
0.0
  0
LINE
  5
1A4
330
1F
100
AcDbEntity
  8
0
  6
Continuous
 62
     7
370
    25
100
AcDbLine
 10
576.3250226889
 20
390.2815904269
 30
0.0
 11
574.9959694956
 21
392.170224831
 31
0.0
  0
LINE
  5
1A5
330
1F
100
AcDbEntity
  8
0
  6
Continuous
 62
     7
370
    25
100
AcDbLine
 10
578.6251584802
 20
390.4882688341
 30
0.0
 11
576.3250226889
 21
390.2815904269
 31
0.0
  0
LINE
  5
1A6
330
1F
100
AcDbEntity
  8
0
  6
Continuous
 62
     7
370
    25
100
AcDbLine
 10
574.9959694956
 20
392.170224831
 30
0.0
 11
575.967044643
 21
394.2655377589
 31
0.0
  0
LINE
  5
1A7
330
1F
100
AcDbEntity
  8
0
  6
Continuous
 62
     7
370
    25
100
AcDbLine
 10
579.5962336276
 20
392.5835819366
 30
0.0
 11
578.6251584802
 21
390.4882688341
 31
0.0
  0
CIRCLE
  5
1A8
330
1F
100
AcDbEntity
  8
0
  6
Continuous
 62
     7
370
    25
100
AcDbCircle
 10
461.8071324758
 20
393.9731336482
 30
0.0
 40
3.825000000000027
  0
LINE
  5
1A9
330
1F
100
AcDbEntity
  8
0
  6
Continuous
 62
     7
370
    25
100
AcDbLine
 10
459.877093396
 20
395.2413115451
 30
0.0
 11
461.940386406
 21
396.2786859167
 31
0.0
  0
LINE
  5
1AA
330
1F
100
AcDbEntity
  8
0
  6
Continuous
 62
     7
370
    25
100
AcDbLine
 10
461.673879138
 20
391.6675813064
 30
0.0
 11
459.743839762
 21
392.9357591526
 31
0.0
  0
LINE
  5
1AB
330
1F
100
AcDbEntity
  8
0
  6
Continuous
 62
     7
370
    25
100
AcDbLine
 10
463.870425782
 20
395.0105081578
 30
0.0
 11
463.737172148
 21
392.7049557944
 31
0.0
  0
LINE
  5
1AC
330
1F
100
AcDbEntity
  8
0
  6
Continuous
 62
     7
370
    25
100
AcDbLine
 10
461.940386406
 20
396.2786859167
 30
0.0
 11
463.870425782
 21
395.0105081578
 31
0.0
  0
LINE
  5
1AD
330
1F
100
AcDbEntity
  8
0
  6
Continuous
 62
     7
370
    25
100
AcDbLine
 10
463.737172148
 20
392.7049557944
 30
0.0
 11
461.673879138
 21
391.6675813064
 31
0.0
  0
LINE
  5
1AE
330
1F
100
AcDbEntity
  8
0
  6
Continuous
 62
     7
370
    25
100
AcDbLine
 10
459.743839762
 20
392.9357591526
 30
0.0
 11
459.877093396
 21
395.2413115451
 31
0.0
  0
LINE
  5
1AF
330
1F
100
AcDbEntity
  8
0
  6
Continuous
 62
     7
370
    25
100
AcDbLine
 10
619.5374178503
 20
395.4250184154
 30
0.0
 11
619.5374178503
 21
394.8600614942
 31
0.0
  0
LINE
  5
1B0
330
1F
100
AcDbEntity
  8
0
  6
Continuous
 62
     7
370
    25
100
AcDbLine
 10
619.5374178503
 20
391.4899755303
 30
0.0
 11
619.5374178503
 21
390.9250186091
 31
0.0
  0
LINE
  5
1B1
330
1F
100
AcDbEntity
  8
0
  6
Continuous
 62
     7
370
    25
100
AcDbLine
 10
517.3016172637
 20
493.1608191957
 30
0.0
 11
517.8665741848
 21
493.1608191957
 31
0.0
  0
LINE
  5
1B2
330
1F
100
AcDbEntity
  8
0
  6
Continuous
 62
     7
370
    25
100
AcDbLine
 10
521.2366601488
 20
493.1608191957
 30
0.0
 11
521.8016170699
 21
493.1608191957
 31
0.0
  0
LINE
  5
1B3
330
1F
100
AcDbEntity
  8
0
  6
Continuous
 62
     7
370
    25
100
AcDbLine
 10
419.5658164833
 20
390.9250186091
 30
0.0
 11
419.5658164833
 21
391.4899755303
 31
0.0
  0
LINE
  5
1B4
330
1F
100
AcDbEntity
  8
0
  6
Continuous
 62
     7
370
    25
100
AcDbLine
 10
419.5658164833
 20
394.8600614942
 30
0.0
 11
419.5658164833
 21
395.4250184154
 31
0.0
  0
LINE
  5
1B5
330
1F
100
AcDbEntity
  8
0
  6
Continuous
 62
     8
370
    25
100
AcDbLine
 10
435.6508153294
 20
338.7631080379
 30
0.0
 11
435.6507706259
 21
338.2998234858
 31
0.0
  0
LINE
  5
1B6
330
1F
100
AcDbEntity
  8
0
  6
Continuous
 62
     8
370
    25
100
AcDbLine
 10
603.5618307803
 20
338.932191514
 30
0.0
 11
603.5617637251
 21
338.2858871748
 31
0.0
  0
ENDSEC
  0
SECTION
  2
OBJECTS
  0
DICTIONARY
  5
C
330
0
100
AcDbDictionary
281
     1
  3
ACAD_GROUP
350
D
  3
ACAD_LAYOUT
350
1A
  3
ACAD_MLINESTYLE
350
17
  3
ACAD_PLOTSETTINGS
350
19
  3
ACAD_PLOTSTYLENAME
350
E
  3
ACAD_SCALELIST
350
47
  3
APPDATA
350
1D8
  3
DWGPROPS
350
1DA
  0
DICTIONARY
  5
D
102
{ACAD_REACTORS
330
C
102
}
330
C
100
AcDbDictionary
281
     1
  0
DICTIONARY
  5
1A
102
{ACAD_REACTORS
330
C
102
}
330
C
100
AcDbDictionary
281
     1
  3
Layout1
350
1E
  3
Layout2
350
26
  3
Model
350
22
  0
DICTIONARY
  5
17
102
{ACAD_REACTORS
330
C
102
}
330
C
100
AcDbDictionary
281
     1
  3
Standard
350
18
  0
DICTIONARY
  5
19
102
{ACAD_REACTORS
330
C
102
}
330
C
100
AcDbDictionary
281
     1
  0
ACDBDICTIONARYWDFLT
  5
E
102
{ACAD_REACTORS
330
C
102
}
330
C
100
AcDbDictionary
281
     1
  3
Normal
350
F
100
AcDbDictionaryWithDefault
340
F
  0
DICTIONARY
  5
47
102
{ACAD_REACTORS
330
C
102
}
330
C
100
AcDbDictionary
281
     1
  3
A0
350
48
  3
A1
350
49
  3
A2
350
4A
  3
A3
350
4B
  3
A4
350
4C
  3
A5
350
4D
  3
A6
350
4E
  3
A7
350
4F
  3
A8
350
50
  3
A9
350
51
  3
B0
350
52
  3
B1
350
53
  3
B2
350
54
  3
B3
350
55
  3
B4
350
56
  3
B5
350
57
  3
B6
350
58
  3
B7
350
59
  3
B8
350
5A
  3
B9
350
5B
  3
C0
350
5C
  3
C1
350
5D
  3
C2
350
5E
  3
C3
350
5F
  3
C4
350
60
  3
C5
350
61
  3
C6
350
62
  3
C7
350
63
  3
C8
350
64
  3
C9
350
65
  3
D0
350
66
  3
D1
350
67
  3
D2
350
68
  0
DICTIONARY
  5
1D8
102
{ACAD_REACTORS
330
C
102
}
330
C
100
AcDbDictionary
281
     1
  0
XRECORD
  5
1DA
102
{ACAD_REACTORS
330
C
102
}
330
C
100
AcDbXrecord
280
     1
  1
DWGPROPS COOKIE
  2

  3

  4

  6

  7

  8
mbuyukdag
  9

300
=
301
=
302
=
303
=
304
=
305
=
306
=
307
=
308
=
309
=
 40
0.0
 41
2459072.581820579
 42
2459072.586804282
  1

 90
        0
  0
LAYOUT
  5
1E
102
{ACAD_REACTORS
330
1A
102
}
330
1A
100
AcDbPlotSettings
  1

  2
none_device
  4

  6

 40
0.0
 41
0.0
 42
0.0
 43
0.0
 44
0.0
 45
0.0
 46
0.0
 47
0.0
 48
0.0
 49
0.0
140
0.0
141
0.0
142
1.0
143
1.0
 70
   688
 72
     1
 73
     0
 74
     5
  7

 75
    16
147
1.0
148
0.0
149
0.0
100
AcDbLayout
  1
Layout1
 70
     1
 71
     1
 10
0.0
 20
0.0
 11
420.0
 21
297.0
 12
0.0
 22
0.0
 32
0.0
 14
1.000000000000000E+20
 24
1.000000000000000E+20
 34
1.000000000000000E+20
 15
-1.000000000000000E+20
 25
-1.000000000000000E+20
 35
-1.000000000000000E+20
146
0.0
 13
0.0
 23
0.0
 33
0.0
 16
1.0
 26
0.0
 36
0.0
 17
0.0
 27
1.0
 37
0.0
 76
     0
330
1B
  0
LAYOUT
  5
26
102
{ACAD_REACTORS
330
1A
102
}
330
1A
100
AcDbPlotSettings
  1

  2
none_device
  4

  6

 40
0.0
 41
0.0
 42
0.0
 43
0.0
 44
0.0
 45
0.0
 46
0.0
 47
0.0
 48
0.0
 49
0.0
140
0.0
141
0.0
142
1.0
143
1.0
 70
   688
 72
     1
 73
     0
 74
     5
  7

 75
    16
147
1.0
148
0.0
149
0.0
100
AcDbLayout
  1
Layout2
 70
     1
 71
     2
 10
0.0
 20
0.0
 11
0.0
 21
0.0
 12
0.0
 22
0.0
 32
0.0
 14
0.0
 24
0.0
 34
0.0
 15
0.0
 25
0.0
 35
0.0
146
0.0
 13
0.0
 23
0.0
 33
0.0
 16
1.0
 26
0.0
 36
0.0
 17
0.0
 27
1.0
 37
0.0
 76
     0
330
23
  0
LAYOUT
  5
22
102
{ACAD_REACTORS
330
1A
102
}
330
1A
100
AcDbPlotSettings
  1

  2
none_device
  4
Letter_(8.50_x_11.00_Inches)
  6

 40
6.35
 41
6.35
 42
6.35000508
 43
6.35000508
 44
215.9
 45
279.4
 46
0.0
 47
0.0
 48
0.0
 49
0.0
140
0.0
141
0.0
142
1.0
143
1.0
 70
  1712
 72
     1
 73
     0
 74
     0
  7

 75
     0
147
1.0
148
0.0
149
0.0
100
AcDbLayout
  1
Model
 70
     1
 71
     0
 10
0.0
 20
0.0
 11
1500.0
 21
1500.0
 12
0.0
 22
0.0
 32
0.0
 14
419.4992519720154
 24
293.1336364975
 34
0.0
 15
873.2705061539
 25
1416.7994764698
 35
0.0
146
0.0
 13
0.0
 23
0.0
 33
0.0
 16
1.0
 26
0.0
 36
0.0
 17
0.0
 27
1.0
 37
0.0
 76
     0
330
1F
331
29
  0
MLINESTYLE
  5
18
102
{ACAD_REACTORS
330
17
102
}
330
17
100
AcDbMlineStyle
  2
Standard
 70
     0
  3

 62
   256
 51
90.0
 52
90.0
 71
     2
 49
0.5
 62
   256
  6
BYLAYER
 49
-0.5
 62
   256
  6
BYLAYER
  0
ACDBPLACEHOLDER
  5
F
102
{ACAD_REACTORS
330
E
102
}
330
E
  0
SCALE
  5
48
102
{ACAD_REACTORS
330
47
102
}
330
47
100
AcDbScale
 70
     0
300
1:1
140
1.0
141
1.0
290
     1
  0
SCALE
  5
49
102
{ACAD_REACTORS
330
47
102
}
330
47
100
AcDbScale
 70
     0
300
1:2
140
1.0
141
2.0
290
     0
  0
SCALE
  5
4A
102
{ACAD_REACTORS
330
47
102
}
330
47
100
AcDbScale
 70
     0
300
1:4
140
1.0
141
4.0
290
     0
  0
SCALE
  5
4B
102
{ACAD_REACTORS
330
47
102
}
330
47
100
AcDbScale
 70
     0
300
1:5
140
1.0
141
5.0
290
     0
  0
SCALE
  5
4C
102
{ACAD_REACTORS
330
47
102
}
330
47
100
AcDbScale
 70
     0
300
1:8
140
1.0
141
8.0
290
     0
  0
SCALE
  5
4D
102
{ACAD_REACTORS
330
47
102
}
330
47
100
AcDbScale
 70
     0
300
1:10
140
1.0
141
10.0
290
     0
  0
SCALE
  5
4E
102
{ACAD_REACTORS
330
47
102
}
330
47
100
AcDbScale
 70
     0
300
1:16
140
1.0
141
16.0
290
     0
  0
SCALE
  5
4F
102
{ACAD_REACTORS
330
47
102
}
330
47
100
AcDbScale
 70
     0
300
1:20
140
1.0
141
20.0
290
     0
  0
SCALE
  5
50
102
{ACAD_REACTORS
330
47
102
}
330
47
100
AcDbScale
 70
     0
300
1:30
140
1.0
141
30.0
290
     0
  0
SCALE
  5
51
102
{ACAD_REACTORS
330
47
102
}
330
47
100
AcDbScale
 70
     0
300
1:40
140
1.0
141
40.0
290
     0
  0
SCALE
  5
52
102
{ACAD_REACTORS
330
47
102
}
330
47
100
AcDbScale
 70
     0
300
1:50
140
1.0
141
50.0
290
     0
  0
SCALE
  5
53
102
{ACAD_REACTORS
330
47
102
}
330
47
100
AcDbScale
 70
     0
300
1:100
140
1.0
141
100.0
290
     0
  0
SCALE
  5
54
102
{ACAD_REACTORS
330
47
102
}
330
47
100
AcDbScale
 70
     0
300
2:1
140
2.0
141
1.0
290
     0
  0
SCALE
  5
55
102
{ACAD_REACTORS
330
47
102
}
330
47
100
AcDbScale
 70
     0
300
4:1
140
4.0
141
1.0
290
     0
  0
SCALE
  5
56
102
{ACAD_REACTORS
330
47
102
}
330
47
100
AcDbScale
 70
     0
300
8:1
140
8.0
141
1.0
290
     0
  0
SCALE
  5
57
102
{ACAD_REACTORS
330
47
102
}
330
47
100
AcDbScale
 70
     0
300
10:1
140
10.0
141
1.0
290
     0
  0
SCALE
  5
58
102
{ACAD_REACTORS
330
47
102
}
330
47
100
AcDbScale
 70
     0
300
100:1
140
100.0
141
1.0
290
     0
  0
SCALE
  5
59
102
{ACAD_REACTORS
330
47
102
}
330
47
100
AcDbScale
 70
     0
300
1/128" = 1'-0"
140
0.0078125
141
12.0
290
     0
  0
SCALE
  5
5A
102
{ACAD_REACTORS
330
47
102
}
330
47
100
AcDbScale
 70
     0
300
1/64" = 1'-0"
140
0.015625
141
12.0
290
     0
  0
SCALE
  5
5B
102
{ACAD_REACTORS
330
47
102
}
330
47
100
AcDbScale
 70
     0
300
1/32" = 1'-0"
140
0.03125
141
12.0
290
     0
  0
SCALE
  5
5C
102
{ACAD_REACTORS
330
47
102
}
330
47
100
AcDbScale
 70
     0
300
1/16" = 1'-0"
140
0.0625
141
12.0
290
     0
  0
SCALE
  5
5D
102
{ACAD_REACTORS
330
47
102
}
330
47
100
AcDbScale
 70
     0
300
3/32" = 1'-0"
140
0.09375
141
12.0
290
     0
  0
SCALE
  5
5E
102
{ACAD_REACTORS
330
47
102
}
330
47
100
AcDbScale
 70
     0
300
1/8" = 1'-0"
140
0.125
141
12.0
290
     0
  0
SCALE
  5
5F
102
{ACAD_REACTORS
330
47
102
}
330
47
100
AcDbScale
 70
     0
300
3/16" = 1'-0"
140
0.1875
141
12.0
290
     0
  0
SCALE
  5
60
102
{ACAD_REACTORS
330
47
102
}
330
47
100
AcDbScale
 70
     0
300
1/4" = 1'-0"
140
0.25
141
12.0
290
     0
  0
SCALE
  5
61
102
{ACAD_REACTORS
330
47
102
}
330
47
100
AcDbScale
 70
     0
300
3/8" = 1'-0"
140
0.375
141
12.0
290
     0
  0
SCALE
  5
62
102
{ACAD_REACTORS
330
47
102
}
330
47
100
AcDbScale
 70
     0
300
1/2" = 1'-0"
140
0.5
141
12.0
290
     0
  0
SCALE
  5
63
102
{ACAD_REACTORS
330
47
102
}
330
47
100
AcDbScale
 70
     0
300
3/4" = 1'-0"
140
0.75
141
12.0
290
     0
  0
SCALE
  5
64
102
{ACAD_REACTORS
330
47
102
}
330
47
100
AcDbScale
 70
     0
300
1" = 1'-0"
140
1.0
141
12.0
290
     0
  0
SCALE
  5
65
102
{ACAD_REACTORS
330
47
102
}
330
47
100
AcDbScale
 70
     0
300
1-1/2" = 1'-0"
140
1.5
141
12.0
290
     0
  0
SCALE
  5
66
102
{ACAD_REACTORS
330
47
102
}
330
47
100
AcDbScale
 70
     0
300
3" = 1'-0"
140
3.0
141
12.0
290
     0
  0
SCALE
  5
67
102
{ACAD_REACTORS
330
47
102
}
330
47
100
AcDbScale
 70
     0
300
6" = 1'-0"
140
6.0
141
12.0
290
     0
  0
SCALE
  5
68
102
{ACAD_REACTORS
330
47
102
}
330
47
100
AcDbScale
 70
     0
300
1'-0" = 1'-0"
140
12.0
141
12.0
290
     0
  0
ENDSEC
  0
EOF
