  0
SECTION
  2
HEADER
  9
$ACADVER
  1
AC1015
  9
$ACADMAINTVER
 70
     6
  9
$DWGCODEPAGE
  3
ANSI_1254
  9
$INSBASE
 10
0.0
 20
0.0
 30
0.0
  9
$EXTMIN
 10
434.1105132237
 20
560.1369364161999
 30
0.0
  9
$EXTMAX
 10
786.60184926
 20
1191.5747976879
 30
0.0
  9
$LIMMIN
 10
0.0
 20
0.0
  9
$LIMMAX
 10
1500.0
 20
1500.0
  9
$ORTHOMODE
 70
     0
  9
$REGENMODE
 70
     1
  9
$FILLMODE
 70
     1
  9
$QTEXTMODE
 70
     0
  9
$MIRRTEXT
 70
     1
  9
$LTSCALE
 40
1.0
  9
$ATTMODE
 70
     1
  9
$TEXTSIZE
 40
4.9388888889
  9
$TRACEWID
 40
1.0
  9
$TEXTSTYLE
  7
Standard
  9
$CLAYER
  8
0
  9
$CELTYPE
  6
ByLayer
  9
$CECOLOR
 62
   256
  9
$CELTSCALE
 40
1.0
  9
$DISPSILH
 70
     0
  9
$DIMSCALE
 40
1.0
  9
$DIMASZ
 40
3.65
  9
$DIMEXO
 40
0.5
  9
$DIMDLI
 40
3.75
  9
$DIMRND
 40
0.0
  9
$DIMDLE
 40
0.0
  9
$DIMEXE
 40
1.0
  9
$DIMTP
 40
0.0
  9
$DIMTM
 40
0.0
  9
$DIMTXT
 40
2.6458333333
  9
$DIMCEN
 40
2.5
  9
$DIMTSZ
 40
0.0
  9
$DIMTOL
 70
     0
  9
$DIMLIM
 70
     0
  9
$DIMTIH
 70
     1
  9
$DIMTOH
 70
     1
  9
$DIMSE1
 70
     0
  9
$DIMSE2
 70
     0
  9
$DIMTAD
 70
     1
  9
$DIMZIN
 70
     0
  9
$DIMBLK
  1

  9
$DIMASO
 70
     1
  9
$DIMSHO
 70
     1
  9
$DIMPOST
  1

  9
$DIMAPOST
  1

  9
$DIMALT
 70
     0
  9
$DIMALTD
 70
     3
  9
$DIMALTF
 40
0.0393700787
  9
$DIMLFAC
 40
1.0
  9
$DIMTOFL
 70
     1
  9
$DIMTVP
 40
0.0
  9
$DIMTIX
 70
     0
  9
$DIMSOXD
 70
     0
  9
$DIMSAH
 70
     0
  9
$DIMBLK1
  1

  9
$DIMBLK2
  1

  9
$DIMSTYLE
  2
ISO-25
  9
$DIMCLRD
 70
     0
  9
$DIMCLRE
 70
     0
  9
$DIMCLRT
 70
     0
  9
$DIMTFAC
 40
1.0
  9
$DIMGAP
 40
1.524
  9
$DIMJUST
 70
     0
  9
$DIMSD1
 70
     0
  9
$DIMSD2
 70
     0
  9
$DIMTOLJ
 70
     0
  9
$DIMTZIN
 70
     0
  9
$DIMALTZ
 70
     0
  9
$DIMALTTZ
 70
     0
  9
$DIMUPT
 70
     0
  9
$DIMDEC
 70
     2
  9
$DIMTDEC
 70
     2
  9
$DIMALTU
 70
     2
  9
$DIMALTTD
 70
     3
  9
$DIMTXSTY
  7
Standard
  9
$DIMAUNIT
 70
     0
  9
$DIMADEC
 70
     2
  9
$DIMALTRND
 40
0.0
  9
$DIMAZIN
 70
     0
  9
$DIMDSEP
 70
    44
  9
$DIMATFIT
 70
     3
  9
$DIMFRAC
 70
     0
  9
$DIMLDRBLK
  1

  9
$DIMLUNIT
 70
     2
  9
$DIMLWD
 70
    -2
  9
$DIMLWE
 70
    -2
  9
$DIMTMOVE
 70
     0
  9
$LUNITS
 70
     2
  9
$LUPREC
 70
     2
  9
$SKETCHINC
 40
1.0
  9
$FILLETRAD
 40
10.0
  9
$AUNITS
 70
     0
  9
$AUPREC
 70
     2
  9
$MENU
  1
.
  9
$ELEVATION
 40
0.0
  9
$PELEVATION
 40
0.0
  9
$THICKNESS
 40
0.0
  9
$LIMCHECK
 70
     0
  9
$CHAMFERA
 40
0.0
  9
$CHAMFERB
 40
0.0
  9
$CHAMFERC
 40
0.0
  9
$CHAMFERD
 40
0.0
  9
$SKPOLY
 70
     0
  9
$TDCREATE
 40
2459072.732120776
  9
$TDUCREATE
 40
2459072.607120776
  9
$TDUPDATE
 40
2459072.733665776
  9
$TDUUPDATE
 40
2459072.608665776
  9
$TDINDWG
 40
0.0013066667
  9
$TDUSRTIMER
 40
0.0013066551
  9
$USRTIMER
 70
     1
  9
$ANGBASE
 50
0.0
  9
$ANGDIR
 70
     0
  9
$PDMODE
 70
     0
  9
$PDSIZE
 40
-1.0
  9
$PLINEWID
 40
0.0
  9
$SPLFRAME
 70
     0
  9
$SPLINETYPE
 70
     6
  9
$SPLINESEGS
 70
     8
  9
$HANDSEED
  5
163
  9
$SURFTAB1
 70
     6
  9
$SURFTAB2
 70
     6
  9
$SURFTYPE
 70
     6
  9
$SURFU
 70
     6
  9
$SURFV
 70
     6
  9
$UCSBASE
  2

  9
$UCSNAME
  2

  9
$UCSORG
 10
0.0
 20
0.0
 30
0.0
  9
$UCSXDIR
 10
1.0
 20
0.0
 30
0.0
  9
$UCSYDIR
 10
0.0
 20
1.0
 30
0.0
  9
$UCSORTHOREF
  2

  9
$UCSORTHOVIEW
 70
     0
  9
$UCSORGTOP
 10
0.0
 20
0.0
 30
0.0
  9
$UCSORGBOTTOM
 10
0.0
 20
0.0
 30
0.0
  9
$UCSORGLEFT
 10
0.0
 20
0.0
 30
0.0
  9
$UCSORGRIGHT
 10
0.0
 20
0.0
 30
0.0
  9
$UCSORGFRONT
 10
0.0
 20
0.0
 30
0.0
  9
$UCSORGBACK
 10
0.0
 20
0.0
 30
0.0
  9
$PUCSBASE
  2

  9
$PUCSNAME
  2

  9
$PUCSORG
 10
0.0
 20
0.0
 30
0.0
  9
$PUCSXDIR
 10
1.0
 20
0.0
 30
0.0
  9
$PUCSYDIR
 10
0.0
 20
1.0
 30
0.0
  9
$PUCSORTHOREF
  2

  9
$PUCSORTHOVIEW
 70
     0
  9
$PUCSORGTOP
 10
0.0
 20
0.0
 30
0.0
  9
$PUCSORGBOTTOM
 10
0.0
 20
0.0
 30
0.0
  9
$PUCSORGLEFT
 10
0.0
 20
0.0
 30
0.0
  9
$PUCSORGRIGHT
 10
0.0
 20
0.0
 30
0.0
  9
$PUCSORGFRONT
 10
0.0
 20
0.0
 30
0.0
  9
$PUCSORGBACK
 10
0.0
 20
0.0
 30
0.0
  9
$USERI1
 70
     0
  9
$USERI2
 70
     0
  9
$USERI3
 70
     0
  9
$USERI4
 70
     0
  9
$USERI5
 70
     0
  9
$USERR1
 40
0.0
  9
$USERR2
 40
0.0
  9
$USERR3
 40
0.0
  9
$USERR4
 40
0.0
  9
$USERR5
 40
0.0
  9
$WORLDVIEW
 70
     1
  9
$SHADEDGE
 70
     3
  9
$SHADEDIF
 70
    70
  9
$TILEMODE
 70
     1
  9
$MAXACTVP
 70
    64
  9
$PINSBASE
 10
0.0
 20
0.0
 30
0.0
  9
$PLIMCHECK
 70
     0
  9
$PEXTMIN
 10
1.000000000000000E+20
 20
1.000000000000000E+20
 30
1.000000000000000E+20
  9
$PEXTMAX
 10
-1.000000000000000E+20
 20
-1.000000000000000E+20
 30
-1.000000000000000E+20
  9
$PLIMMIN
 10
0.0
 20
0.0
  9
$PLIMMAX
 10
0.0
 20
0.0
  9
$UNITMODE
 70
     0
  9
$VISRETAIN
 70
     1
  9
$PLINEGEN
 70
     0
  9
$PSLTSCALE
 70
     1
  9
$TREEDEPTH
 70
  3020
  9
$CMLSTYLE
  2
Standard
  9
$CMLJUST
 70
     0
  9
$CMLSCALE
 40
20.0
  9
$PROXYGRAPHICS
 70
     1
  9
$MEASUREMENT
 70
     1
  9
$CELWEIGHT
370
    -1
  9
$ENDCAPS
280
     0
  9
$JOINSTYLE
280
     0
  9
$LWDISPLAY
290
     1
  9
$INSUNITS
 70
     4
  9
$HYPERLINKBASE
  1

  9
$STYLESHEET
  1

  9
$XEDIT
290
     1
  9
$CEPSNTYPE
380
     0
  9
$PSTYLEMODE
290
     1
  9
$FINGERPRINTGUID
  2
{9cf43f03-cb46-4c07-b6a9-b34e95afcd59}
  9
$VERSIONGUID
  2
{FAEB1C32-E019-11D5-929B-00C0DF256EC4}
  9
$EXTNAMES
290
     1
  9
$PSVPSCALE
 40
0.0
  9
$OLESTARTUP
290
     0
  0
ENDSEC
  0
SECTION
  2
CLASSES
  0
CLASS
  1
ACDBDICTIONARYWDFLT
  2
AcDbDictionaryWithDefault
  3
ObjectDBX Classes
 90
        0
280
     0
281
     0
  0
CLASS
  1
VISUALSTYLE
  2
AcDbVisualStyle
  3
ObjectDBX Classes
 90
     4095
280
     0
281
     0
  0
CLASS
  1
MATERIAL
  2
AcDbMaterial
  3
ObjectDBX Classes
 90
     1153
280
     0
281
     0
  0
CLASS
  1
SCALE
  2
AcDbScale
  3
ObjectDBX Classes
 90
     1153
280
     0
281
     0
  0
CLASS
  1
TABLESTYLE
  2
AcDbTableStyle
  3
ObjectDBX Classes
 90
     4095
280
     0
281
     0
  0
CLASS
  1
MLEADERSTYLE
  2
AcDbMLeaderStyle
  3
ACDB_MLEADERSTYLE_CLASS
 90
     4095
280
     0
281
     0
  0
CLASS
  1
SUN
  2
AcDbSun
  3
SCENEOE
 90
     1153
280
     0
281
     0
  0
CLASS
  1
ACDBPLACEHOLDER
  2
AcDbPlaceHolder
  3
ObjectDBX Classes
 90
        0
280
     0
281
     0
  0
CLASS
  1
LAYOUT
  2
AcDbLayout
  3
ObjectDBX Classes
 90
        0
280
     0
281
     0
  0
ENDSEC
  0
SECTION
  2
TABLES
  0
TABLE
  2
VPORT
  5
8
330
0
100
AcDbSymbolTable
 70
     1
  0
VPORT
  5
29
330
8
100
AcDbSymbolTableRecord
100
AcDbViewportTableRecord
  2
*Active
 70
     0
 10
0.0
 20
0.0
 11
1.0
 21
1.0
 12
610.35618124185
 22
875.8558670520499
 13
0.0
 23
0.0
 14
10.0
 24
10.0
 15
10.0
 25
10.0
 16
0.0
 26
0.0
 36
1.0
 17
0.0
 27
0.0
 37
0.0
 40
644.066618497134
 41
2.328467153284671
 42
50.0
 43
0.0
 44
0.0
 50
0.0
 51
0.0
 71
    16
 72
  2000
 73
     1
 74
     3
 75
     0
 76
     0
 77
     0
 78
     0
281
     0
 65
     1
110
0.0
120
0.0
130
0.0
111
1.0
121
0.0
131
0.0
112
0.0
122
1.0
132
0.0
 79
     0
146
0.0
  0
ENDTAB
  0
TABLE
  2
LTYPE
  5
5
330
0
100
AcDbSymbolTable
 70
     6
  0
LTYPE
  5
14
330
5
100
AcDbSymbolTableRecord
100
AcDbLinetypeTableRecord
  2
ByBlock
 70
     0
  3

 72
    65
 73
     0
 40
0.0
  0
LTYPE
  5
15
330
5
100
AcDbSymbolTableRecord
100
AcDbLinetypeTableRecord
  2
ByLayer
 70
     0
  3

 72
    65
 73
     0
 40
0.0
  0
LTYPE
  5
16
330
5
100
AcDbSymbolTableRecord
100
AcDbLinetypeTableRecord
  2
Continuous
 70
     0
  3
Solid line
 72
    65
 73
     0
 40
0.0
  0
LTYPE
  5
6E
330
5
100
AcDbSymbolTableRecord
100
AcDbLinetypeTableRecord
  2
HIDDEN
 70
     0
  3
Hidden __ __ __ __ __ __ __ __ __ __ __ __ __ __
 72
    65
 73
     2
 40
1.905
 49
1.27
 74
     0
 49
-0.635
 74
     0
  0
LTYPE
  5
6F
330
5
100
AcDbSymbolTableRecord
100
AcDbLinetypeTableRecord
  2
PHANTOM
 70
     0
  3
Phantom ______  __  __  ______  __  __  ______
 72
    65
 73
     6
 40
12.7
 49
6.35
 74
     0
 49
-1.27
 74
     0
 49
1.27
 74
     0
 49
-1.27
 74
     0
 49
1.27
 74
     0
 49
-1.27
 74
     0
  0
LTYPE
  5
70
330
5
100
AcDbSymbolTableRecord
100
AcDbLinetypeTableRecord
  2
CENTER
 70
     0
  3
Center ____ _ ____ _ ____ _ ____ _ ____ _ ____
 72
    65
 73
     4
 40
10.16
 49
6.35
 74
     0
 49
-1.27
 74
     0
 49
1.27
 74
     0
 49
-1.27
 74
     0
  0
LTYPE
  5
71
330
5
100
AcDbSymbolTableRecord
100
AcDbLinetypeTableRecord
  2
CENTERX2
 70
     0
  3
Center (2x) ________  __  ________  __  _____
 72
    65
 73
     4
 40
20.32
 49
12.7
 74
     0
 49
-2.54
 74
     0
 49
2.54
 74
     0
 49
-2.54
 74
     0
  0
LTYPE
  5
72
330
5
100
AcDbSymbolTableRecord
100
AcDbLinetypeTableRecord
  2
DOT2
 70
     0
  3
Dot (.5x) ........................................
 72
    65
 73
     2
 40
0.635
 49
0.0
 74
     0
 49
-0.635
 74
     0
  0
ENDTAB
  0
TABLE
  2
LAYER
  5
2
330
0
100
AcDbSymbolTable
 70
     5
  0
LAYER
  5
10
330
2
100
AcDbSymbolTableRecord
100
AcDbLayerTableRecord
  2
0
 70
     0
 62
     7
  6
Continuous
370
    -3
390
F
  0
LAYER
  5
73
330
2
100
AcDbSymbolTableRecord
100
AcDbLayerTableRecord
  2
FORMAT
 70
     0
 62
     7
  6
Continuous
370
    -3
390
F
  0
LAYER
  5
74
330
2
100
AcDbSymbolTableRecord
100
AcDbLayerTableRecord
  2
SLD-0
 70
     0
 62
   179
  6
Continuous
370
    -3
390
F
  0
LAYER
  5
75
330
2
100
AcDbSymbolTableRecord
100
AcDbLayerTableRecord
  2
AAA_EKSEN
 70
     0
 62
     1
  6
CENTER
370
    -3
390
F
  0
LAYER
  5
76
330
2
100
AcDbSymbolTableRecord
100
AcDbLayerTableRecord
  2
03
 70
     0
 62
     3
  6
HIDDEN
370
    -3
390
F
  0
ENDTAB
  0
TABLE
  2
STYLE
  5
3
330
0
100
AcDbSymbolTable
 70
     1
  0
STYLE
  5
11
330
3
100
AcDbSymbolTableRecord
100
AcDbTextStyleTableRecord
  2
Standard
 70
     0
 40
0.0
 41
1.0
 50
0.0
 71
     0
 42
4.9388888889
  3
txt
  4

  0
ENDTAB
  0
TABLE
  2
VIEW
  5
6
330
0
100
AcDbSymbolTable
 70
     0
  0
ENDTAB
  0
TABLE
  2
UCS
  5
7
330
0
100
AcDbSymbolTable
 70
     0
  0
ENDTAB
  0
TABLE
  2
APPID
  5
9
330
0
100
AcDbSymbolTable
 70
     1
  0
APPID
  5
12
330
9
100
AcDbSymbolTableRecord
100
AcDbRegAppTableRecord
  2
ACAD
 70
     0
  0
ENDTAB
  0
TABLE
  2
DIMSTYLE
  5
A
330
0
100
AcDbSymbolTable
 70
     1
100
AcDbDimStyleTable
  0
DIMSTYLE
105
27
330
A
100
AcDbSymbolTableRecord
100
AcDbDimStyleTableRecord
  2
ISO-25
 70
     0
 41
2.5
 42
0.625
 43
3.75
 44
1.25
 73
     0
 74
     0
 77
     1
 78
     8
140
2.5
141
2.5
143
0.0393700787
147
0.625
171
     3
172
     1
178
     0
271
     2
272
     2
274
     3
278
    44
283
     0
284
     8
340
11
  0
ENDTAB
  0
TABLE
  2
BLOCK_RECORD
  5
1
330
0
100
AcDbSymbolTable
 70
     1
  0
BLOCK_RECORD
  5
1F
330
1
100
AcDbSymbolTableRecord
100
AcDbBlockTableRecord
  2
*Model_Space
340
22
  0
BLOCK_RECORD
  5
1B
330
1
100
AcDbSymbolTableRecord
100
AcDbBlockTableRecord
  2
*Paper_Space
340
1E
  0
BLOCK_RECORD
  5
23
330
1
100
AcDbSymbolTableRecord
100
AcDbBlockTableRecord
  2
*Paper_Space0
340
26
  0
ENDTAB
  0
ENDSEC
  0
SECTION
  2
BLOCKS
  0
BLOCK
  5
20
330
1F
100
AcDbEntity
  8
0
100
AcDbBlockBegin
  2
*Model_Space
 70
     0
 10
0.0
 20
0.0
 30
0.0
  3
*Model_Space
  1

  0
ENDBLK
  5
21
330
1F
100
AcDbEntity
  8
0
100
AcDbBlockEnd
  0
BLOCK
  5
1C
330
1B
100
AcDbEntity
 67
     1
  8
0
100
AcDbBlockBegin
  2
*Paper_Space
 70
     0
 10
0.0
 20
0.0
 30
0.0
  3
*Paper_Space
  1

  0
ENDBLK
  5
1D
330
1B
100
AcDbEntity
 67
     1
  8
0
100
AcDbBlockEnd
  0
BLOCK
  5
24
330
23
100
AcDbEntity
  8
0
100
AcDbBlockBegin
  2
*Paper_Space0
 70
     0
 10
0.0
 20
0.0
 30
0.0
  3
*Paper_Space0
  1

  0
ENDBLK
  5
25
330
23
100
AcDbEntity
  8
0
100
AcDbBlockEnd
  0
ENDSEC
  0
SECTION
  2
ENTITIES
  0
LINE
  5
77
330
1F
100
AcDbEntity
  8
0
  6
Continuous
 62
     7
370
    25
100
AcDbLine
 10
599.1105197802
 20
751.0747976879
 30
0.0
 11
599.1105197802
 21
1183.0748088935
 31
0.0
  0
LINE
  5
78
330
1F
100
AcDbEntity
  8
0
  6
Continuous
 62
     7
370
    25
100
AcDbLine
 10
434.1105132237
 20
1183.0748088935
 30
0.0
 11
434.1105132237
 21
751.0747976879
 31
0.0
  0
SPLINE
  5
79
330
1F
100
AcDbEntity
  8
0
  6
Continuous
 62
     7
370
    25
100
AcDbSpline
210
0.0
220
0.0
230
1.0
 70
     8
 71
     3
 72
    25
 73
    21
 74
     0
 42
0.000000001
 43
0.00000001
 40
0.0
 40
0.0
 40
0.0
 40
0.0
 40
0.0422581343797514
 40
0.1002016572612892
 40
0.1583612389104191
 40
0.2167456658122261
 40
0.2753406431757148
 40
0.3341163879674082
 40
0.3930389363787287
 40
0.4520757081007834
 40
0.511199374995308
 40
0.5703872617315808
 40
0.6296149194717037
 40
0.688856961607986
 40
0.7480835157357338
 40
0.8072550577643397
 40
0.8663219693571174
 40
0.9252286622992246
 40
0.9839226628070941
 40
1.0
 40
1.0
 40
1.0
 40
1.0
 10
480.5283455982749
 20
985.4974217990366
 30
0.0
 10
480.7647880569659
 20
985.0291210775446
 30
0.0
 10
481.3254357655197
 20
983.9186956155855
 30
0.0
 10
482.5289981639714
 20
982.3252111963451
 30
0.0
 10
484.0630374338621
 20
980.7298215683543
 30
0.0
 10
485.8296920672465
 20
979.3368416961893
 30
0.0
 10
487.7862181942016
 20
978.1659113978903
 30
0.0
 10
489.9017905343146
 20
977.2401089054359
 30
0.0
 10
492.1380390516431
 20
976.5763317315825
 30
0.0
 10
494.4553570521922
 20
976.1874185351598
 30
0.0
 10
496.8122212735656
 20
976.0811203263032
 30
0.0
 10
499.1663394575503
 20
976.2603156441545
 30
0.0
 10
501.4752421650597
 20
976.7227941239856
 30
0.0
 10
503.6969655815124
 20
977.4613201433763
 30
0.0
 10
505.7908271336364
 20
978.4635886132191
 30
0.0
 10
507.7177030640455
 20
979.7123554321714
 30
0.0
 10
509.4423131980148
 20
981.1849198002014
 30
0.0
 10
510.9288009951123
 20
982.855114194929
 30
0.0
 10
511.8649637237146
 20
984.246436214262
 30
0.0
 10
512.302382616668
 20
985.0653024768887
 30
0.0
 10
512.39643645137
 20
985.2413751462427
 30
0.0
  0
SPLINE
  5
7A
330
1F
100
AcDbEntity
  8
0
  6
Continuous
 62
     7
370
    25
100
AcDbSpline
210
0.0
220
0.0
230
1.0
 70
     8
 71
     3
 72
     9
 73
     5
 74
     0
 42
0.000000001
 43
0.00000001
 40
0.0
 40
0.0
 40
0.0
 40
0.0
 40
0.9989087553482644
 40
1.0
 40
1.0
 40
1.0
 40
1.0
 10
512.39643645137
 20
985.2413751462427
 30
0.0
 10
512.5965410738921
 20
985.6138294467722
 30
0.0
 10
512.7968642980612
 20
985.9866906300737
 30
0.0
 10
512.9288396787438
 20
986.3826997763749
 30
0.0
 10
512.9289836961722
 20
986.3831319192377
 30
0.0
  0
SPLINE
  5
7B
330
1F
100
AcDbEntity
  8
0
  6
Continuous
 62
     7
370
    25
100
AcDbSpline
210
0.0
220
0.0
230
1.0
 70
     8
 71
     3
 72
    26
 73
    22
 74
     0
 42
0.000000001
 43
0.00000001
 40
0.0
 40
0.0
 40
0.0
 40
0.0
 40
0.0283009787198111
 40
0.08212774020679
 40
0.1361164670367396
 40
0.1903062509554186
 40
0.244705391434892
 40
0.2993017237341809
 40
0.3540674267281037
 40
0.4089708174475965
 40
0.4639817685232036
 40
0.5190743746145857
 40
0.5742274827098399
 40
0.6294185572434609
 40
0.6846238479089899
 40
0.7398155045823396
 40
0.794957476458013
 40
0.8500033726935039
 40
0.9049023192540897
 40
0.9596038742694184
 40
1.0
 40
1.0
 40
1.0
 40
1.0
 10
520.0459438249414
 20
1020.856089172694
 30
0.0
 10
520.1650721086785
 20
1020.501263070285
 30
0.0
 10
520.5107752320546
 20
1019.471579035479
 30
0.0
 10
521.4010633416809
 20
1017.876884097652
 30
0.0
 10
522.673628674336
 20
1016.106063010972
 30
0.0
 10
524.2106647967174
 20
1014.508932373172
 30
0.0
 10
525.967509742211
 20
1013.10783240008
 30
0.0
 10
527.9189768056726
 20
1011.929457698565
 30
0.0
 10
530.0296864651802
 20
1010.995167626608
 30
0.0
 10
532.2626316498773
 20
1010.322560888066
 30
0.0
 10
534.5779052930984
 20
1009.924367514141
 30
0.0
 10
536.9341412614283
 20
1009.808708428372
 30
0.0
 10
539.2890298339034
 20
1009.978413074153
 30
0.0
 10
541.6001080722968
 20
1010.431645868799
 30
0.0
 10
543.8253354518017
 20
1011.161236871728
 30
0.0
 10
545.9241809675917
 20
1012.154965877433
 30
0.0
 10
547.8567316666038
 20
1013.396106011563
 30
0.0
 10
549.5901778530365
 20
1014.860999494713
 30
0.0
 10
551.0790712756846
 20
1016.52763919677
 30
0.0
 10
552.2342900578037
 20
1018.189955670315
 30
0.0
 10
552.7548609758379
 20
1019.341765893227
 30
0.0
 10
552.9759920075481
 20
1019.831038294169
 30
0.0
  0
SPLINE
  5
7C
330
1F
100
AcDbEntity
  8
0
  6
Continuous
 62
     7
370
    25
100
AcDbSpline
210
0.0
220
0.0
230
1.0
 70
     8
 71
     3
 72
    26
 73
    22
 74
     0
 42
0.000000001
 43
0.00000001
 40
0.0
 40
0.0
 40
0.0
 40
0.0
 40
0.0283009819993741
 40
0.082127747989218
 40
0.1361164805860098
 40
0.1903062426112441
 40
0.2447053828042277
 40
0.2993017148159882
 40
0.3540674371442621
 40
0.408970806868086
 40
0.4639818005096073
 40
0.5190744063108476
 40
0.5742274706404841
 40
0.6294185448834445
 40
0.6846238352582381
 40
0.7398155110001975
 40
0.7949574825854689
 40
0.8500034025491923
 40
0.9049023210630632
 40
0.9596038700485434
 40
1.0
 40
1.0
 40
1.0
 40
1.0
 10
479.8459431961124
 20
1020.856089172694
 30
0.0
 10
479.9650716504889
 20
1020.50126307492
 30
0.0
 10
480.3107752617487
 20
1019.47157907531
 30
0.0
 10
481.2010635252144
 20
1017.876883989429
 30
0.0
 10
482.4736295963081
 20
1016.106063596589
 30
0.0
 10
484.0106640689982
 20
1014.508931918563
 30
0.0
 10
485.7675092195502
 20
1013.107832507451
 30
0.0
 10
487.7189763189038
 20
1011.929457397641
 30
0.0
 10
489.8296863453045
 20
1010.995168069335
 30
0.0
 10
492.0626318180793
 20
1010.322560426749
 30
0.0
 10
494.3779059566138
 20
1009.924367738779
 30
0.0
 10
496.7341418711616
 20
1009.808708336384
 30
0.0
 10
499.0890298065547
 20
1009.978413242485
 30
0.0
 10
501.4001074703111
 20
1010.431645815721
 30
0.0
 10
503.6253349811803
 20
1011.161237120024
 30
0.0
 10
505.7241812030202
 20
1012.154965526795
 30
0.0
 10
507.6567318860784
 20
1013.396106546885
 30
0.0
 10
509.3901796462257
 20
1014.86099847938
 30
0.0
 10
510.8790709930313
 20
1016.527639714701
 30
0.0
 10
512.0342893470278
 20
1018.189955831802
 30
0.0
 10
512.5548606302373
 20
1019.34176589896
 30
0.0
 10
512.7759918443804
 20
1019.831038294169
 30
0.0
  0
SPLINE
  5
7D
330
1F
100
AcDbEntity
  8
0
  6
Continuous
 62
     7
370
    25
100
AcDbSpline
210
0.0
220
0.0
230
1.0
 70
     8
 71
     3
 72
    25
 73
    21
 74
     0
 42
0.000000001
 43
0.00000001
 40
0.0
 40
0.0
 40
0.0
 40
0.0
 40
0.0422581549694526
 40
0.1002016645831419
 40
0.1583612305008396
 40
0.2167456749230713
 40
0.2753406325076934
 40
0.3341163982038705
 40
0.3930389464170667
 40
0.4520757179406129
 40
0.5111993846363369
 40
0.570387271173593
 40
0.6296149287145656
 40
0.6888569706516492
 40
0.7480834831260554
 40
0.807255082237013
 40
0.866321967962984
 40
0.9252286310808797
 40
0.983922668093206
 40
0.9999999999999999
 40
0.9999999999999999
 40
0.9999999999999999
 40
0.9999999999999999
 10
520.7283452957814
 20
985.4974217990366
 30
0.0
 10
520.9647885120785
 20
985.0291211414752
 30
0.0
 10
521.5254377848519
 20
983.9186962910065
 30
0.0
 10
522.7289985958091
 20
982.3252112012473
 30
0.0
 10
524.2630371924441
 20
980.7298209933411
 30
0.0
 10
526.0296925871894
 20
979.3368423226257
 30
0.0
 10
527.9862181483626
 20
978.1659108402508
 30
0.0
 10
530.1017910065378
 20
977.2401091707588
 30
0.0
 10
532.3380396504685
 20
976.5763316820888
 30
0.0
 10
534.6553576903075
 20
976.1874185465047
 30
0.0
 10
537.0122218953118
 20
976.0811203305469
 30
0.0
 10
539.3663401054346
 20
976.2603156157735
 30
0.0
 10
541.6752427247043
 20
976.7227942333476
 30
0.0
 10
543.8969659497445
 20
977.4613195619899
 30
0.0
 10
545.9908265142705
 20
978.463589963816
 30
0.0
 10
547.9177042047164
 20
979.7123541773456
 30
0.0
 10
549.6423136682582
 20
981.1849196768982
 30
0.0
 10
551.1287984666349
 20
982.8551156225998
 30
0.0
 10
552.0649651560484
 20
984.2464354671002
 30
0.0
 10
552.5023834454631
 20
985.0653024528152
 30
0.0
 10
552.596437080199
 20
985.2413751462427
 30
0.0
  0
SPLINE
  5
7E
330
1F
100
AcDbEntity
  8
0
  6
Continuous
 62
     7
370
    25
100
AcDbSpline
210
0.0
220
0.0
230
1.0
 70
     8
 71
     3
 72
     9
 73
     5
 74
     0
 42
0.000000001
 43
0.00000001
 40
0.0
 40
0.0
 40
0.0
 40
0.0
 40
0.9989087546802378
 40
1.0
 40
1.0
 40
1.0
 40
1.0
 10
552.596437080199
 20
985.2413751462427
 30
0.0
 10
552.7965406957098
 20
985.6138295678612
 30
0.0
 10
552.9968629119015
 20
985.9866908726336
 30
0.0
 10
553.1288382120966
 20
986.3826997763749
 30
0.0
 10
553.1289822295254
 20
986.3831319192377
 30
0.0
  0
ARC
  5
7F
330
1F
100
AcDbEntity
  8
0
  6
Continuous
 62
     7
370
    25
100
AcDbCircle
 10
597.110516502
 20
1189.5747976879
 30
0.0
 40
2.0
100
AcDbArc
 50
0.0
 51
90.0
  0
ARC
  5
80
330
1F
100
AcDbEntity
  8
0
  6
Continuous
 62
     7
370
    25
100
AcDbCircle
 10
436.110516502
 20
1189.5747976879
 30
0.0
 40
2.0
100
AcDbArc
 50
90.0
 51
180.0
  0
LINE
  5
81
330
1F
100
AcDbEntity
  8
0
  6
Continuous
 62
     7
370
    25
100
AcDbLine
 10
434.1105132237
 20
1189.5747848133
 30
0.0
 11
434.1105132237
 21
1184.5747895816
 31
0.0
  0
LINE
  5
82
330
1F
100
AcDbEntity
  8
0
  6
Continuous
 62
     7
370
    25
100
AcDbLine
 10
599.1105197802
 20
1184.5747895816
 30
0.0
 11
599.1105197802
 21
1189.5747848133
 31
0.0
  0
LINE
  5
83
330
1F
100
AcDbEntity
  8
0
  6
Continuous
 62
     7
370
    25
100
AcDbLine
 10
598.1105177537
 20
1183.0748088935
 30
0.0
 11
598.1105177537
 21
1184.5747895816
 31
0.0
  0
LINE
  5
84
330
1F
100
AcDbEntity
  8
0
  6
Continuous
 62
     7
370
    25
100
AcDbLine
 10
435.1105152503
 20
1184.5747895816
 30
0.0
 11
435.1105152503
 21
1183.0748088935
 31
0.0
  0
LINE
  5
85
330
1F
100
AcDbEntity
  8
0
  6
Continuous
 62
     7
370
    25
100
AcDbLine
 10
599.0105180874
 20
741.0747979114
 30
0.0
 11
599.0105180874
 21
751.0747976879
 31
0.0
  0
LINE
  5
86
330
1F
100
AcDbEntity
  8
0
  6
Continuous
 62
     7
370
    25
100
AcDbLine
 10
434.2105149165
 20
751.0747976879
 30
0.0
 11
434.2105149165
 21
741.0747979114
 31
0.0
  0
LINE
  5
8B
330
1F
100
AcDbEntity
  8
0
  6
Continuous
 62
     7
370
    25
100
AcDbLine
 10
434.1105132237
 20
1183.0748088935
 30
0.0
 11
599.1105197802
 21
1183.0748088935
 31
0.0
  0
LINE
  5
8C
330
1F
100
AcDbEntity
  8
0
  6
Continuous
 62
     7
370
    25
100
AcDbLine
 10
434.1105132237
 20
751.0747976879
 30
0.0
 11
599.1105197802
 21
751.0747976879
 31
0.0
  0
SPLINE
  5
8D
330
1F
100
AcDbEntity
  8
0
  6
Continuous
 62
     7
370
    25
100
AcDbSpline
210
0.0
220
0.0
230
1.0
 70
    11
 71
     3
 72
    66
 73
    62
 74
     0
 42
0.000000001
 43
0.00000001
 40
0.0
 40
0.0
 40
0.0
 40
0.0
 40
0.0312499999999998
 40
0.0312499999999998
 40
0.0624999999999996
 40
0.0624999999999996
 40
0.0937499999999993
 40
0.0937499999999993
 40
0.1249999999999991
 40
0.1249999999999991
 40
0.1562499999999991
 40
0.1562499999999991
 40
0.1874999999999991
 40
0.1874999999999991
 40
0.2187499999999992
 40
0.2187499999999992
 40
0.2499999999999993
 40
0.2499999999999993
 40
0.2812499999999994
 40
0.2812499999999994
 40
0.3124999999999995
 40
0.3124999999999995
 40
0.3437499999999996
 40
0.3437499999999996
 40
0.3749999999999996
 40
0.3749999999999996
 40
0.4062499999999997
 40
0.4062499999999997
 40
0.4374999999999997
 40
0.4374999999999997
 40
0.4687499999999998
 40
0.4687499999999998
 40
0.4999999999999998
 40
0.4999999999999998
 40
0.5312499999999998
 40
0.5312499999999998
 40
0.5624999999999998
 40
0.5624999999999998
 40
0.6249999999999999
 40
0.6249999999999999
 40
0.6562499999999999
 40
0.6562499999999999
 40
0.6874999999999999
 40
0.6874999999999999
 40
0.7187499999999999
 40
0.7187499999999999
 40
0.7499999999999999
 40
0.7499999999999999
 40
0.7812499999999999
 40
0.7812499999999999
 40
0.8124999999999999
 40
0.8124999999999999
 40
0.8437499999999999
 40
0.8437499999999999
 40
0.8749999999999999
 40
0.8749999999999999
 40
0.9062499999999999
 40
0.9062499999999999
 40
0.9374999999999999
 40
0.9374999999999999
 40
1.0
 40
1.0
 40
1.0
 40
1.0
 10
514.1105165019577
 20
761.0747976878612
 30
0.0
 10
514.1105165019577
 20
760.9096254067589
 30
0.0
 10
514.1267247144945
 20
760.7472151577641
 30
0.0
 10
514.1902300554138
 20
760.4276922295543
 30
0.0
 10
514.2382982126545
 20
760.2689243976388
 30
0.0
 10
514.3637850556001
 20
759.9661727828793
 30
0.0
 10
514.4405744048643
 20
759.8225830215746
 30
0.0
 10
514.6219939325911
 20
759.5508330339661
 30
0.0
 10
514.7275843231683
 20
759.4221750263932
 30
0.0
 10
514.958235933085
 20
759.1915653142962
 30
0.0
 10
515.084089803394
 20
759.0880814465688
 30
0.0
 10
515.3573632405605
 20
758.9053215315155
 30
0.0
 10
515.5028668249327
 20
758.8276613792409
 30
0.0
 10
515.8036848143007
 20
758.7029772848108
 30
0.0
 10
515.961214442266
 20
758.6549892030732
 30
0.0
 10
516.2839228623527
 20
758.5907681263742
 30
0.0
 10
516.4461360643651
 20
758.5748848499906
 30
0.0
 10
516.7722349308303
 20
758.5747112343608
 30
0.0
 10
516.9378462554871
 20
758.5909348771594
 30
0.0
 10
517.2584868990397
 20
758.6547039718165
 30
0.0
 10
517.4143306971383
 20
758.7018876106741
 30
0.0
 10
517.71701601971
 20
758.8270258328893
 30
0.0
 10
517.8634316406101
 20
758.9052953547146
 30
0.0
 10
518.1343730014365
 20
759.0862308453363
 30
0.0
 10
518.2606546895945
 20
759.1895205212777
 30
0.0
 10
518.4941224238854
 20
759.4227520577355
 30
0.0
 10
518.5977854332962
 20
759.5492542963781
 30
0.0
 10
518.7789008700789
 20
759.8199551970091
 30
0.0
 10
518.8571752894686
 20
759.9660102232889
 30
0.0
 10
518.9827505108434
 20
760.2689495904019
 30
0.0
 10
519.0300515339832
 20
760.4247821207724
 30
0.0
 10
519.0940521430792
 20
760.7450694240817
 30
0.0
 10
519.110458462429
 20
760.9107570015332
 30
0.0
 10
519.1105742268304
 20
761.2370645199658
 30
0.0
 10
519.0948138065364
 20
761.3992207252289
 30
0.0
 10
519.0310047487372
 20
761.7214970398898
 30
0.0
 10
518.9830383118428
 20
761.8795661091671
 30
0.0
 10
518.7963943406454
 20
762.3309767656932
 30
0.0
 10
518.6102760230789
 20
762.6101232393685
 30
0.0
 10
518.2648579980614
 20
762.9562120194547
 30
0.0
 10
518.1364098890525
 20
763.0618532453603
 30
0.0
 10
517.8645694132684
 20
763.2436895046656
 30
0.0
 10
517.7210506766086
 20
763.3205719147655
 30
0.0
 10
517.4187729912246
 20
763.4461916827202
 30
0.0
 10
517.2597907931464
 20
763.4945070648264
 30
0.0
 10
516.9402113698501
 20
763.5583137172553
 30
0.0
 10
516.777925766465
 20
763.5746290232248
 30
0.0
 10
516.4481832057029
 20
763.5749637759513
 30
0.0
 10
516.2850582236009
 20
763.5588661773714
 30
0.0
 10
515.9655560649005
 20
763.4956540210953
 30
0.0
 10
515.807081719176
 20
763.4478577626357
 30
0.0
 10
515.5038160959883
 20
763.3224933478873
 30
0.0
 10
515.3601402530279
 20
763.245789322245
 30
0.0
 10
515.0884556425129
 20
763.0647665772156
 30
0.0
 10
514.9596470347717
 20
762.9592768748037
 30
0.0
 10
514.7286738843537
 20
762.7286719776051
 30
0.0
 10
514.6251378970269
 20
762.6029380157488
 30
0.0
 10
514.442381996992
 20
762.3302393770729
 30
0.0
 10
514.3643472478701
 20
762.1844092153831
 30
0.0
 10
514.1769133227243
 20
761.7333049437777
 30
0.0
 10
514.1105165019577
 20
761.4051422500659
 30
0.0
 10
514.1105165019577
 20
761.0747976878612
 30
0.0
  0
LWPOLYLINE
  5
8E
330
1F
100
AcDbEntity
  8
0
  6
Continuous
 62
     7
370
    25
100
AcDbPolyline
 90
       23
 70
   128
 43
0.0
 10
480.5983102754
 20
998.1625296453
 10
481.7968479231
 20
1000.0965364555
 10
483.2949100867
 20
1001.8602676967
 10
485.0620052651
 20
1003.4177966693
 10
487.0621601924
 20
1004.7374137023
 10
489.2546555832
 20
1005.7922967056
 10
491.5948587343
 20
1006.5609284023
 10
494.0351324961
 20
1007.0276625732
 10
496.525796397
 20
1007.1830220798
 10
499.0161492363
 20
1007.0238180736
 10
501.4554954007
 20
1006.5532990077
 10
503.7941758394
 20
1005.7810910324
 10
505.9845813423
 20
1004.7228403667
 10
507.9821229786
 20
1003.4001238922
 10
509.7461350135
 20
1001.8398829082
 10
511.2407084428
 20
1000.073841987
 10
512.4354178891
 20
998.1379725316
 10
513.3059418634
 20
996.0717030147
 10
513.8345596254
 20
993.9170696119
 10
514.0105097428
 20
991.7179413417
 10
513.8302105818
 20
989.5190961936
 10
513.2973322518
 20
987.3652823547
 10
512.9353034183
 20
986.3988079408
  0
ARC
  5
8F
330
1F
100
AcDbEntity
  8
0
  6
Continuous
 62
     7
370
    25
100
AcDbCircle
 10
492.874106571
 20
991.7325375552
 30
0.0
 40
13.85784878577111
100
AcDbArc
 50
152.3547092382
 51
206.5586335394
  0
LWPOLYLINE
  5
90
330
1F
100
AcDbEntity
  8
0
  6
Continuous
 62
     7
370
    25
100
AcDbPolyline
 90
       41
 70
   128
 43
0.0
 10
483.2879624203
 20
995.9017850736
 10
482.5039378241
 20
994.0096505264
 10
482.0647968784
 20
992.0325197557
 10
481.9813615516
 20
990.0190748552
 10
482.2556807533
 20
988.018877087
 10
482.8810005322
 20
986.0812194923
 10
483.8419242635
 20
984.2537708858
 10
485.1147889033
 20
982.5815476755
 10
486.6682573095
 20
981.1057366708
 10
488.4640744761
 20
979.8626669029
 10
490.4580212071
 20
978.8829304555
 10
492.6010000393
 20
978.1906821111
 10
494.840244098
 20
977.8029389957
 10
497.1206172243
 20
977.7292676547
 10
499.3859662548
 20
977.97148603
 10
501.5805124178
 20
978.5236038545
 10
503.6502185151
 20
979.3720461706
 10
505.5441216439
 20
980.4959215501
 10
507.215587689
 20
981.8675585369
 10
508.6234587118
 20
983.4531612972
 10
509.7330690235
 20
985.2137185911
 10
510.5170964137
 20
987.1058531383
 10
510.9562354967
 20
989.0829988101
 10
511.0396726862
 20
991.0964437107
 10
510.7653539501
 20
993.0966265777
 10
510.1400341712
 20
995.0342990735
 10
509.1791099742
 20
996.8617327789
 10
507.9062434718
 20
998.5339559892
 10
506.3527759969
 20
1000.0097669939
 10
504.5569588304
 20
1001.2528367618
 10
502.5630120993
 20
1002.2325881103
 10
500.4200323358
 20
1002.9248364547
 10
498.1807882771
 20
1003.312564669
 10
495.9004170135
 20
1003.3862360099
 10
493.635067983
 20
1003.1440325359
 10
491.4405199572
 20
1002.5919147113
 10
489.37081386
 20
1001.7434723953
 10
487.4769116625
 20
1000.6195821146
 10
485.8054465488
 20
999.247960029
 10
484.3975736633
 20
997.6623423675
 10
483.2879624203
 20
995.9017850736
  0
LWPOLYLINE
  5
91
330
1F
100
AcDbEntity
  8
0
  6
Continuous
 62
     7
370
    25
100
AcDbPolyline
 90
       41
 70
   128
 43
0.0
 10
483.3503535822
 20
995.8765723089
 10
484.454727067
 20
997.6288147548
 10
485.8559558973
 20
999.2069520334
 10
487.5195345715
 20
1000.572107015
 10
489.4045016602
 20
1001.6906924823
 10
491.4644419089
 20
1002.5351114849
 10
493.6486336276
 20
1003.0846365074
 10
495.9032948002
 20
1003.3257074932
 10
498.1729074255
 20
1003.2523937801
 10
500.4015865609
 20
1002.8664835075
 10
502.5344549552
 20
1002.1774836162
 10
504.5189934656
 20
1001.20238143
 10
506.3063365281
 20
999.9651678184
 10
507.8524744943
 20
998.496315656
 10
509.1193353631
 20
996.8319900611
 10
510.0757254161
 20
995.013169227
 10
510.6980947651
 20
993.0846460441
 10
510.9711194284
 20
991.0938956121
 10
510.8880757227
 20
989.0899576524
 10
510.4510088324
 20
987.1221401075
 10
509.6706806555
 20
985.2389313558
 10
508.566305308
 20
983.4866889099
 10
507.1650774091
 20
981.9085665325
 10
505.5014978036
 20
980.5433966497
 10
503.6165307149
 20
979.4248260835
 10
501.5565904662
 20
978.5803921798
 10
499.3723987475
 20
978.0308671573
 10
497.1177375749
 20
977.7897961715
 10
494.8481249496
 20
977.8631247858
 10
492.6194458142
 20
978.2490350584
 10
490.4865792826
 20
978.9380200485
 10
488.5020389095
 20
979.9131222347
 10
486.7146967784
 20
981.1503358463
 10
485.1685597435
 20
982.6191880086
 10
483.9016965464
 20
984.2835136035
 10
482.9453064933
 20
986.1023344377
 10
482.3229371443
 20
988.0308576206
 10
482.0499143436
 20
990.0216080526
 10
482.132958515
 20
992.0255609134
 10
482.570024474
 20
993.9933635572
 10
483.3503535822
 20
995.8765723089
  0
LWPOLYLINE
  5
92
330
1F
100
AcDbEntity
  8
0
  6
Continuous
 62
     7
370
    25
100
AcDbPolyline
 90
       34
 70
   128
 43
0.0
 10
487.6451439097
 20
995.2205784896
 10
488.5733428284
 20
996.6372169832
 10
489.7884095892
 20
997.8731639961
 10
491.2464323327
 20
998.8837309459
 10
492.8947112396
 20
999.6324099878
 10
494.6736770555
 20
1000.0921257118
 10
496.5190294072
 20
1000.2462782243
 10
498.3640744224
 20
1000.08927959
 10
500.1421275422
 20
999.6268220523
 10
501.7889237836
 20
998.8756098131
 10
503.2449451148
 20
997.8627927879
 10
504.4575671539
 20
996.6249682287
 10
505.3829618603
 20
995.2068992237
 10
505.9876826465
 20
993.659815965
 10
506.2498741656
 20
992.0396574119
 10
506.1600602105
 20
990.4049553255
 10
505.7214864403
 20
988.8147928098
 10
504.9500048965
 20
987.3266585449
 10
503.8734975144
 20
985.9943308214
 10
502.5308730885
 20
984.8659701923
 10
500.970656319
 20
983.9823462347
 10
499.2492406502
 20
983.3754070381
 10
497.4288384303
 20
983.0670722106
 10
495.5752457365
 20
983.0685027221
 10
493.7554563269
 20
983.3796389678
 10
492.0352420643
 20
983.9892305711
 10
490.4767761812
 20
984.8752685169
 10
489.1363869294
 20
986.0057004074
 10
488.0625161216
 20
987.3396821598
 10
487.2939775571
 20
988.8289936164
 10
486.8585488632
 20
990.4198266843
 10
486.7719693914
 20
992.0546628812
 10
487.0373646602
 20
993.6744340042
 10
487.6451439097
 20
995.2205784896
  0
LWPOLYLINE
  5
93
330
1F
100
AcDbEntity
  8
0
  6
Continuous
 62
     7
370
    25
100
AcDbPolyline
 90
       25
 70
   128
 43
0.0
 10
519.4643182088
 20
1028.0820496658
 10
520.0624808542
 20
1030.2224524597
 10
520.9995492235
 20
1032.2659082988
 10
522.2564477347
 20
1034.1708429435
 10
523.8075896971
 20
1035.8984239677
 10
525.6213976875
 20
1037.4135144332
 10
527.6609484911
 20
1038.6852689365
 10
529.8847223505
 20
1039.6877892593
 10
532.2474486068
 20
1040.4006608108
 10
534.7010309681
 20
1040.8093996623
 10
537.1955207422
 20
1040.905690966
 10
539.6801366344
 20
1040.6875081638
 10
542.1043003783
 20
1040.1593812088
 10
544.4186630532
 20
1039.3319793323
 10
546.5761090502
 20
1038.2222302536
 10
548.5327190593
 20
1036.8526347259
 10
550.2486660019
 20
1035.2511473278
 10
551.6890122428
 20
1033.4503121952
 10
552.8244397476
 20
1031.4868457893
 10
553.6318368152
 20
1029.4006832221
 10
554.0947600141
 20
1027.2342928031
 10
554.2037955359
 20
1025.0318117717
 10
553.9567156568
 20
1022.8380032161
 10
553.3585532442
 20
1020.6976004222
 10
553.0164896384
 20
1019.8503501991
  0
ARC
  5
94
330
1F
100
AcDbEntity
  8
0
  6
Continuous
 62
     7
370
    25
100
AcDbCircle
 10
532.9605160291
 20
1025.4593189869
 30
0.0
 40
13.74867527502706
100
AcDbArc
 50
169.0027180331
 51
199.6602904898
  0
LWPOLYLINE
  5
95
330
1F
100
AcDbEntity
  8
0
  6
Continuous
 62
     7
370
    25
100
AcDbPolyline
 90
       41
 70
   128
 43
0.0
 10
522.3794577517
 20
1026.4651842693
 10
522.1698691942
 20
1024.4588919261
 10
522.3183196843
 20
1022.4483676532
 10
522.8211542465
 20
1020.4830833057
 10
523.6659904815
 20
1018.6114676574
 10
524.8320263684
 20
1016.8795950988
 10
526.2905501634
 20
1015.3300829509
 10
528.0056477398
 20
1014.0011079887
 10
529.9350882754
 20
1012.9253931621
 10
532.031363143
 20
1012.1294029335
 10
534.242853789
 20
1011.6327770332
 10
536.5151057824
 20
1011.4477344135
 10
538.7921689883
 20
1011.5788050273
 10
541.0179759249
 20
1012.0227702239
 10
543.1377201214
 20
1012.7687223533
 10
545.0992046729
 20
1013.7982733825
 10
546.8541311905
 20
1015.0860615352
 10
548.3592881694
 20
1016.6004069427
 10
549.5776145592
 20
1018.3039970973
 10
550.4791087344
 20
1020.1549001316
 10
551.0415754154
 20
1022.1075482944
 10
551.2511639729
 20
1024.1138108352
 10
551.1027148798
 20
1026.1243351081
 10
550.5998789206
 20
1028.0896194557
 10
549.7550426856
 20
1029.9612351039
 10
548.5890081957
 20
1031.6931374649
 10
547.130482538
 20
1033.2426198104
 10
545.4153849617
 20
1034.5715947727
 10
543.4859453574
 20
1035.6473394016
 10
541.3896704897
 20
1036.4432998279
 10
539.1781798437
 20
1036.9399257282
 10
536.9059278503
 20
1037.1249683479
 10
534.6288627818
 20
1036.993897734
 10
532.4030558452
 20
1036.5499325374
 10
530.2833135113
 20
1035.803980408
 10
528.3218289599
 20
1034.7744293788
 10
526.5669024423
 20
1033.4866412261
 10
525.0617454633
 20
1031.9722958187
 10
523.8434195392
 20
1030.268705664
 10
522.9419244327
 20
1028.4178026298
 10
522.3794577517
 20
1026.4651842693
  0
LWPOLYLINE
  5
96
330
1F
100
AcDbEntity
  8
0
  6
Continuous
 62
     7
370
    25
100
AcDbPolyline
 90
       41
 70
   128
 43
0.0
 10
522.4470764272
 20
1026.4549024681
 10
523.0068893045
 20
1028.398311911
 10
523.9041310608
 20
1030.2404828647
 10
525.1167083964
 20
1031.9360263923
 10
526.6147640407
 20
1033.4432192424
 10
528.3614101693
 20
1034.7249575237
 10
530.313639237
 20
1035.7496507743
 10
532.4233810291
 20
1036.4920564273
 10
534.6386845097
 20
1036.9339354614
 10
536.905005841
 20
1037.0644100288
 10
539.1665364489
 20
1036.8802316764
 10
541.3675925568
 20
1036.3859303573
 10
543.453974916
 20
1035.5937250236
 10
545.3743117735
 20
1034.5230765918
 10
547.0813180193
 20
1033.2003601173
 10
548.5329612032
 20
1031.6581793407
 10
549.6934934393
 20
1029.9344726184
 10
550.5343436137
 20
1028.0716784576
 10
551.034806563
 20
1026.1156626323
 10
551.1825553015
 20
1024.1146154979
 10
550.9739576712
 20
1022.1178300956
 10
550.4141433969
 20
1020.1743908504
 10
549.5169035032
 20
1018.3322198966
 10
548.3043252364
 20
1016.636676369
 10
546.8062686607
 20
1015.1294835189
 10
545.0596234634
 20
1013.8477452377
 10
543.1073943958
 20
1012.823051987
 10
540.9976526037
 20
1012.080646334
 10
538.7823472604
 20
1011.6387673
 10
536.5160277918
 20
1011.5082927326
 10
534.2544971839
 20
1011.6924710849
 10
532.0534401447
 20
1012.186772404
 10
529.9670568541
 20
1012.9789777378
 10
528.0467199966
 20
1014.0496261695
 10
526.3397146821
 20
1015.3723426441
 10
524.8880733609
 20
1016.9145234207
 10
523.7275387965
 20
1018.6382599452
 10
522.8866886221
 20
1020.5010243038
 10
522.3862270698
 20
1022.457040129
 10
522.2384769343
 20
1024.4580872634
 10
522.4470764272
 20
1026.4549024681
  0
LWPOLYLINE
  5
97
330
1F
100
AcDbEntity
  8
0
  6
Continuous
 62
     7
370
    25
100
AcDbPolyline
 90
       34
 70
   128
 43
0.0
 10
527.101920253
 20
1026.8269844631
 10
527.588676928
 20
1028.4061499217
 10
528.405120863
 20
1029.8754640201
 10
529.5217431024
 20
1031.1818190196
 10
530.8981866449
 20
1032.2779484371
 10
532.4847030327
 20
1033.1242747882
 10
534.2239498034
 20
1033.6902208904
 10
536.0530692026
 20
1033.9552827457
 10
537.905950366
 20
1033.909923611
 10
539.7156256124
 20
1033.5557826141
 10
541.416686295
 20
1032.9056151489
 10
542.9476558104
 20
1031.9829650501
 10
544.2531986967
 20
1030.8211811164
 10
545.2861285642
 20
1029.4622250179
 10
546.0091142788
 20
1027.955240784
 10
546.3960247919
 20
1026.3546474555
 10
546.4328753635
 20
1024.7183509448
 10
546.1183342025
 20
1023.1054790595
 10
545.4637690321
 20
1021.5742953399
 10
544.4928410336
 20
1020.1801426986
 10
543.2406368539
 20
1018.9734466651
 10
541.7524187699
 20
1017.9978080371
 10
540.081972523
 20
1017.2884531597
 10
538.2896738931
 20
1016.8710716346
 10
536.4403000906
 20
1016.7607136348
 10
534.6006921366
 20
1016.9613726715
 10
532.8373390123
 20
1017.4658067802
 10
531.2139720529
 20
1018.2557769397
 10
529.7892655119
 20
1019.3027325252
 10
528.6147103518
 20
1020.5688543895
 10
527.7327590495
 20
1022.0083363632
 10
527.1752870515
 20
1023.5692031959
 10
526.9624435216
 20
1025.1949794868
 10
527.101920253
 20
1026.8269844631
  0
LWPOLYLINE
  5
98
330
1F
100
AcDbEntity
  8
0
  6
Continuous
 62
     7
370
    25
100
AcDbPolyline
 90
       25
 70
   128
 43
0.0
 10
479.2643173471
 20
1028.0820496658
 10
479.8624797597
 20
1030.2224524597
 10
480.7995504573
 20
1032.2659082988
 10
482.0564485028
 20
1034.1708429435
 10
483.6075886026
 20
1035.8984239677
 10
485.4213970587
 20
1037.4135144332
 10
487.4609487936
 20
1038.6852689365
 10
489.6847217217
 20
1039.6877892593
 10
492.0474498406
 20
1040.4006608108
 10
494.5010322019
 20
1040.8093996623
 10
496.9955201134
 20
1040.905690966
 10
499.4801378682
 20
1040.6875081638
 10
501.9043006808
 20
1040.1593812088
 10
504.2186624244
 20
1039.3319793323
 10
506.3761084214
 20
1038.2222302536
 10
508.3327193618
 20
1036.8526347259
 10
510.0486644417
 20
1035.2511473278
 10
511.489011614
 20
1033.4503121952
 10
512.6244400501
 20
1031.4868457893
 10
513.431835255
 20
1029.4006832221
 10
513.8947614808
 20
1027.2342928031
 10
514.0037944414
 20
1025.0318117717
 10
513.7567147952
 20
1022.8380032161
 10
513.1585521497
 20
1020.6976004222
 10
512.8164904065
 20
1019.8503501991
  0
ARC
  5
99
330
1F
100
AcDbEntity
  8
0
  6
Continuous
 62
     7
370
    25
100
AcDbCircle
 10
492.7604438332
 20
1025.4593177427
 30
0.0
 40
13.74860548820264
100
AcDbArc
 50
169.0026562338
 51
199.660388888
  0
LWPOLYLINE
  5
9A
330
1F
100
AcDbEntity
  8
0
  6
Continuous
 62
     7
370
    25
100
AcDbPolyline
 90
       41
 70
   128
 43
0.0
 10
482.1794575885
 20
1026.4651842693
 10
481.969869031
 20
1024.4588919261
 10
482.1183181241
 20
1022.4483676532
 10
482.6211540833
 20
1020.4830833057
 10
483.4659903184
 20
1018.6114676574
 10
484.6320248082
 20
1016.8795950988
 10
486.0905504659
 20
1015.3300829509
 10
487.8056480423
 20
1014.0011079887
 10
489.7350876465
 20
1012.9253931621
 10
491.8313625142
 20
1012.1294029335
 10
494.0428531602
 20
1011.6327770332
 10
496.3151051536
 20
1011.4477344135
 10
498.5921702221
 20
1011.5788050273
 10
500.8179771587
 20
1012.0227702239
 10
502.9377194926
 20
1012.7687223533
 10
504.899204044
 20
1013.7982733825
 10
506.6541305616
 20
1015.0860615352
 10
508.1592875406
 20
1016.6004069427
 10
509.3776134647
 20
1018.3039970973
 10
510.2791085713
 20
1020.1549001316
 10
510.8415752523
 20
1022.1075482944
 10
511.0511638097
 20
1024.1138108352
 10
510.9027133197
 20
1026.1243351081
 10
510.3998787574
 20
1028.0896194557
 10
509.5550425224
 20
1029.9612351039
 10
508.3890066355
 20
1031.6931374649
 10
506.9304828405
 20
1033.2426198104
 10
505.2153852642
 20
1034.5715947727
 10
503.2859447285
 20
1035.6473394016
 10
501.1896698609
 20
1036.4432998279
 10
498.9781792149
 20
1036.9399257282
 10
496.7059272215
 20
1037.1249683479
 10
494.4288640156
 20
1036.993897734
 10
492.203057079
 20
1036.5499325374
 10
490.0833128825
 20
1035.803980408
 10
488.121828331
 20
1034.7744293788
 10
486.3669018134
 20
1033.4866412261
 10
484.8617448345
 20
1031.9722958187
 10
483.6434184447
 20
1030.268705664
 10
482.7419242695
 20
1028.4178026298
 10
482.1794575885
 20
1026.4651842693
  0
LWPOLYLINE
  5
9B
330
1F
100
AcDbEntity
  8
0
  6
Continuous
 62
     7
370
    25
100
AcDbPolyline
 90
       41
 70
   128
 43
0.0
 10
482.2470753327
 20
1026.4549024681
 10
482.806889607
 20
1028.398311911
 10
483.7041295007
 20
1030.2404828647
 10
484.9167077675
 20
1031.9360263923
 10
486.4147643432
 20
1033.4432192424
 10
488.1614095405
 20
1034.7249575237
 10
490.1136386082
 20
1035.7496507743
 10
492.2233804002
 20
1036.4920564273
 10
494.4386857435
 20
1036.9339354614
 10
496.7050052121
 20
1037.0644100288
 10
498.9665358201
 20
1036.8802316764
 10
501.1675928593
 20
1036.3859303573
 10
503.2539761499
 20
1035.5937250236
 10
505.1743130073
 20
1034.5230765918
 10
506.8813183218
 20
1033.2003601173
 10
508.332959643
 20
1031.6581793407
 10
509.4934942074
 20
1029.9344726184
 10
510.3343443818
 20
1028.0716784576
 10
510.8348059341
 20
1026.1156626323
 10
510.9825560696
 20
1024.1146154979
 10
510.7739565767
 20
1022.1178300956
 10
510.2141436994
 20
1020.1743908504
 10
509.3169019431
 20
1018.3322198966
 10
508.1043246075
 20
1016.636676369
 10
506.6062689632
 20
1015.1294835189
 10
504.8596228346
 20
1013.8477452377
 10
502.9073937669
 20
1012.823051987
 10
500.7976519749
 20
1012.080646334
 10
498.5823484942
 20
1011.6387673
 10
496.316027163
 20
1011.5082927326
 10
494.054496555
 20
1011.6924710849
 10
491.8534404471
 20
1012.186772404
 10
489.7670580879
 20
1012.9789777378
 10
487.8467212304
 20
1014.0496261695
 10
486.1397149846
 20
1015.3723426441
 10
484.6880718008
 20
1016.9145234207
 10
483.5275395647
 20
1018.6382599452
 10
482.6866893902
 20
1020.5010243038
 10
482.186226441
 20
1022.457040129
 10
482.0384777024
 20
1024.4580872634
 10
482.2470753327
 20
1026.4549024681
  0
LWPOLYLINE
  5
9C
330
1F
100
AcDbEntity
  8
0
  6
Continuous
 62
     7
370
    25
100
AcDbPolyline
 90
       34
 70
   128
 43
0.0
 10
486.9019205555
 20
1026.8269844631
 10
487.3886762991
 20
1028.4061499217
 10
488.2051202342
 20
1029.8754640201
 10
489.3217424735
 20
1031.1818190196
 10
490.6981869474
 20
1032.2779484371
 10
492.2847024038
 20
1033.1242747882
 10
494.0239510372
 20
1033.6902208904
 10
495.8530685738
 20
1033.9552827457
 10
497.7059497371
 20
1033.909923611
 10
499.5156249836
 20
1033.5557826141
 10
501.2166875288
 20
1032.9056151489
 10
502.7476561129
 20
1031.9829650501
 10
504.0531989992
 20
1030.8211811164
 10
505.0861288667
 20
1029.4622250179
 10
505.8091145813
 20
1027.955240784
 10
506.1960241631
 20
1026.3546474555
 10
506.2328747347
 20
1024.7183509448
 10
505.9183335736
 20
1023.1054790595
 10
505.2637693345
 20
1021.5742953399
 10
504.2928404048
 20
1020.1801426986
 10
503.0406371564
 20
1018.9734466651
 10
501.5524190724
 20
1017.9978080371
 10
499.8819737568
 20
1017.2884531597
 10
498.0896732643
 20
1016.8710716346
 10
496.2402994618
 20
1016.7607136348
 10
494.4006915078
 20
1016.9613726715
 10
492.6373383835
 20
1017.4658067802
 10
491.0139723554
 20
1018.2557769397
 10
489.5892648831
 20
1019.3027325252
 10
488.4147106543
 20
1020.5688543895
 10
487.532759352
 20
1022.0083363632
 10
486.9752864227
 20
1023.5692031959
 10
486.7624438241
 20
1025.1949794868
 10
486.9019205555
 20
1026.8269844631
  0
LWPOLYLINE
  5
9D
330
1F
100
AcDbEntity
  8
0
  6
Continuous
 62
     7
370
    25
100
AcDbPolyline
 90
       23
 70
   128
 43
0.0
 10
520.7983099729
 20
998.1625296453
 10
521.9968462236
 20
1000.0965364555
 10
523.4949102499
 20
1001.8602676967
 10
525.2620058939
 20
1003.4177966693
 10
527.2621598899
 20
1004.7374137023
 10
529.4546552807
 20
1005.7922967056
 10
531.7948593631
 20
1006.5609284023
 10
534.2351312622
 20
1007.0276625732
 10
536.7257970259
 20
1007.1830220798
 10
539.2161498651
 20
1007.0238180736
 10
541.6554960296
 20
1006.5532990077
 10
543.9941755369
 20
1005.7810910324
 10
546.1845810398
 20
1004.7228403667
 10
548.1821208134
 20
1003.4001238922
 10
549.9461351767
 20
1001.8398829082
 10
551.4407067433
 20
1000.073841987
 10
552.6354185179
 20
998.1379725316
 10
553.5059406295
 20
996.0717030147
 10
554.0345593229
 20
993.9170696119
 10
554.210508509
 20
991.7179413417
 10
554.0302119091
 20
989.5190961936
 10
553.4973314837
 20
987.3652823547
 10
553.1353040472
 20
986.3988079408
  0
ARC
  5
9E
330
1F
100
AcDbEntity
  8
0
  6
Continuous
 62
     7
370
    25
100
AcDbCircle
 10
533.0740989408
 20
991.7325371675
 30
0.0
 40
13.85784247453753
100
AcDbArc
 50
152.3546937609
 51
206.5586447908
  0
LWPOLYLINE
  5
9F
330
1F
100
AcDbEntity
  8
0
  6
Continuous
 62
     7
370
    25
100
AcDbPolyline
 90
       41
 70
   128
 43
0.0
 10
523.4879639804
 20
995.9017850736
 10
522.7039365902
 20
994.0096505264
 10
522.2647975072
 20
992.0325197557
 10
522.1813603178
 20
990.0190748552
 10
522.4556790538
 20
988.018877087
 10
523.0809988327
 20
986.0812194923
 10
524.0419230297
 20
984.2537708858
 10
525.3147895321
 20
982.5815476755
 10
526.868257007
 20
981.1057366708
 10
528.6640741736
 20
979.8626669029
 10
530.6580209047
 20
978.8829304555
 10
532.8010006681
 20
978.1906821111
 10
535.0402447268
 20
977.8029389957
 10
537.3206159905
 20
977.7292676547
 10
539.5859650209
 20
977.97148603
 10
541.7805130467
 20
978.5236038545
 10
543.8502191439
 20
979.3720461706
 10
545.7441213414
 20
980.4959215501
 10
547.4155864552
 20
981.8675585369
 10
548.8234593406
 20
983.4531612972
 10
549.9330705836
 20
985.2137185911
 10
550.7170951799
 20
987.1058531383
 10
551.1562361255
 20
989.0829988101
 10
551.2396714523
 20
991.0964437107
 10
550.9653522506
 20
993.0966265777
 10
550.3400324717
 20
995.0342990735
 10
549.3791087404
 20
996.8617327789
 10
548.1062441006
 20
998.5339559892
 10
546.5527756944
 20
1000.0097669939
 10
544.7569585279
 20
1001.2528367618
 10
542.7630117968
 20
1002.2325881103
 10
540.6200329646
 20
1002.9248364547
 10
538.3807889059
 20
1003.312564669
 10
536.1004157796
 20
1003.3862360099
 10
533.8350667492
 20
1003.1440325359
 10
531.6405205861
 20
1002.5919147113
 10
529.5708144888
 20
1001.7434723953
 10
527.67691136
 20
1000.6195821146
 10
526.0054453149
 20
999.247960029
 10
524.5975742921
 20
997.6623423675
 10
523.4879639804
 20
995.9017850736
  0
LWPOLYLINE
  5
A0
330
1F
100
AcDbEntity
  8
0
  6
Continuous
 62
     7
370
    25
100
AcDbPolyline
 90
       41
 70
   128
 43
0.0
 10
523.5503523484
 20
995.8765723089
 10
524.6547276959
 20
997.6288147548
 10
526.0559555948
 20
999.2069520334
 10
527.7195352003
 20
1000.572107015
 10
529.604502289
 20
1001.6906924823
 10
531.6644425377
 20
1002.5351114849
 10
533.8486342564
 20
1003.0846365074
 10
536.103295429
 20
1003.3257074932
 10
538.3729080543
 20
1003.2523937801
 10
540.6015871897
 20
1002.8664835075
 10
542.7344537213
 20
1002.1774836162
 10
544.7189940944
 20
1001.20238143
 10
546.5063362256
 20
999.9651678184
 10
548.0524732605
 20
998.496315656
 10
549.3193364575
 20
996.8319900611
 10
550.2757265106
 20
995.013169227
 10
550.8980958596
 20
993.0846460441
 10
551.1711186603
 20
991.0938956121
 10
551.0880744889
 20
989.0899576524
 10
550.65100853
 20
987.1221401075
 10
549.8706794217
 20
985.2389313558
 10
548.7663059369
 20
983.4866889099
 10
547.3650771066
 20
981.9085665325
 10
545.7014984325
 20
980.5433966497
 10
543.8165313438
 20
979.4248260835
 10
541.756591095
 20
978.5803921798
 10
539.5723993763
 20
978.0308671573
 10
537.3177382037
 20
977.7897961715
 10
535.0481255785
 20
977.8631247858
 10
532.819446443
 20
978.2490350584
 10
530.6865780488
 20
978.9380200485
 10
528.7020395383
 20
979.9131222347
 10
526.9146964759
 20
981.1503358463
 10
525.3685585096
 20
982.6191880086
 10
524.1016976409
 20
984.2835136035
 10
523.1453075878
 20
986.1023344377
 10
522.5229382388
 20
988.0308576206
 10
522.2499135755
 20
990.0216080526
 10
522.3329572812
 20
992.0255609134
 10
522.7700241715
 20
993.9933635572
 10
523.5503523484
 20
995.8765723089
  0
LWPOLYLINE
  5
A1
330
1F
100
AcDbEntity
  8
0
  6
Continuous
 62
     7
370
    25
100
AcDbPolyline
 90
       34
 70
   128
 43
0.0
 10
527.8451445386
 20
995.2205784896
 10
528.7733415946
 20
996.6372169832
 10
529.9884102181
 20
997.8731639961
 10
531.4464320302
 20
998.8837309459
 10
533.0947118685
 20
999.6324099878
 10
534.8736758217
 20
1000.0921257118
 10
536.719030036
 20
1000.2462782243
 10
538.5640750512
 20
1000.08927959
 10
540.342128171
 20
999.6268220523
 10
541.9889244124
 20
998.8756098131
 10
543.4449448124
 20
997.8627927879
 10
544.6575677827
 20
996.6249682287
 10
545.5829615578
 20
995.2068992237
 10
546.187682344
 20
993.659815965
 10
546.4498738632
 20
992.0396574119
 10
546.3600608393
 20
990.4049553255
 10
545.9214861378
 20
988.8147928098
 10
545.150004594
 20
987.3266585449
 10
544.0734981433
 20
985.9943308214
 10
542.7308718547
 20
984.8659701923
 10
541.1706569478
 20
983.9823462347
 10
539.4492394164
 20
983.3754070381
 10
537.6288371965
 20
983.0670722106
 10
535.7752463654
 20
983.0685027221
 10
533.9554569557
 20
983.3796389678
 10
532.2352426931
 20
983.9892305711
 10
530.67677681
 20
984.8752685169
 10
529.3363856956
 20
986.0057004074
 10
528.2625158191
 20
987.3396821598
 10
527.4939772546
 20
988.8289936164
 10
527.0585494921
 20
990.4198266843
 10
526.9719690889
 20
992.0546628812
 10
527.2373643577
 20
993.6744340042
 10
527.8451445386
 20
995.2205784896
  0
LINE
  5
A2
330
1F
100
AcDbEntity
  8
0
  6
Continuous
 62
     7
370
    25
100
AcDbLine
 10
436.1105172768
 20
1191.5747888664
 30
0.0
 11
597.1105157271
 21
1191.5747888664
 31
0.0
  0
LINE
  5
A3
330
1F
100
AcDbEntity
  8
0
  6
Continuous
 62
     7
370
    25
100
AcDbLine
 10
599.1105197802
 20
1184.5747895816
 30
0.0
 11
434.1105132237
 21
1184.5747895816
 31
0.0
  0
LINE
  5
A4
330
1F
100
AcDbEntity
  8
0
  6
Continuous
 62
     7
370
    25
100
AcDbLine
 10
599.0105180874
 20
741.0747979114
 30
0.0
 11
434.2105149165
 21
741.0747979114
 31
0.0
  0
SPLINE
  5
A7
330
1F
100
AcDbEntity
  8
0
  6
Continuous
 62
     7
370
    25
100
AcDbSpline
210
0.0
220
0.0
230
1.0
 70
     8
 71
     3
 72
    20
 73
    16
 74
     0
 42
0.000000001
 43
0.00000001
 40
0.0
 40
0.0
 40
0.0
 40
0.0
 40
0.0597260441348919
 40
0.1150178611096083
 40
0.1716188027445781
 40
0.2307814425790992
 40
0.2926464118980136
 40
0.3769660246468136
 40
0.4645039522080275
 40
0.5542318085293574
 40
0.6510323713308442
 40
0.7463995654913632
 40
0.8379922070412655
 40
0.9233617073476482
 40
0.9999999999999999
 40
0.9999999999999999
 40
0.9999999999999999
 40
0.9999999999999999
 10
516.6105165019577
 20
1061.959005174967
 30
0.0
 10
518.6406921899533
 20
1061.923358921757
 30
0.0
 10
522.5503176923992
 20
1061.854712892034
 30
0.0
 10
528.2868456870092
 20
1060.765990364592
 30
0.0
 10
533.6513357934625
 20
1058.742203702377
 30
0.0
 10
538.8009283668249
 20
1055.946844172065
 30
0.0
 10
544.3228703503465
 20
1052.181535193341
 30
0.0
 10
550.2174168315792
 20
1047.479005272759
 30
0.0
 10
556.1993532283028
 20
1041.670602226272
 30
0.0
 10
561.8841739242879
 20
1035.160540436163
 30
0.0
 10
567.1921740839344
 20
1028.124480328225
 30
0.0
 10
572.0390939026191
 20
1020.770061843692
 30
0.0
 10
576.236639954844
 20
1013.495880575637
 30
0.0
 10
579.7846262684094
 20
1006.565129969443
 30
0.0
 10
581.6896883122522
 20
1002.009373369632
 30
0.0
 10
582.5908838644569
 20
999.8542584756342
 30
0.0
  0
SPLINE
  5
AA
330
1F
100
AcDbEntity
  8
0
  6
Continuous
 62
     7
370
    25
100
AcDbSpline
210
0.0
220
0.0
230
1.0
 70
     8
 71
     3
 72
    21
 73
    17
 74
     0
 42
0.000000001
 43
0.00000001
 40
0.0
 40
0.0
 40
0.0
 40
0.0
 40
0.0692720966591235
 40
0.1459491479469373
 40
0.2281430412092817
 40
0.3140001053492156
 40
0.4017309771803176
 40
0.4896455732739537
 40
0.5762052521817219
 40
0.6424148130925103
 40
0.7066735834668546
 40
0.7686966778353792
 40
0.8280080153291011
 40
0.8847429027027844
 40
0.9401534934248502
 40
1.0
 40
1.0
 40
1.0
 40
1.0
 10
450.6301491394584
 20
999.8542584756342
 30
0.0
 10
451.4407703329905
 20
1001.803496759044
 30
0.0
 10
453.1486654048825
 20
1005.910340355957
 30
0.0
 10
456.2859476555564
 20
1012.166192716416
 30
0.0
 10
459.9699482564223
 20
1018.741917895247
 30
0.0
 10
464.2040455492011
 20
1025.438213667662
 30
0.0
 10
468.9344676548043
 20
1032.07440723659
 30
0.0
 10
474.1256537481411
 20
1038.463817478029
 30
0.0
 10
479.3487084491918
 20
1044.020630432137
 30
0.0
 10
484.4942342604865
 20
1048.683382970233
 30
0.0
 10
489.3870799212573
 20
1052.512785268442
 30
0.0
 10
494.3754357718274
 20
1055.919616592923
 30
0.0
 10
499.5346091281205
 20
1058.726516708522
 30
0.0
 10
504.9096790947402
 20
1060.759753411925
 30
0.0
 10
510.6582350089619
 20
1061.854323126066
 30
0.0
 10
514.57615943774
 20
1061.923227185313
 30
0.0
 10
516.6105165019577
 20
1061.959005174967
 30
0.0
  0
LINE
  5
AC
330
1F
100
AcDbEntity
  8
0
  6
Continuous
 62
     7
370
    25
100
AcDbLine
 10
582.5908838645
 20
999.8542584756
 30
0.0
 11
582.6301484242
 21
999.8542584756
 31
0.0
  0
SPLINE
  5
AD
330
1F
100
AcDbEntity
  8
0
  6
Continuous
 62
     7
370
    25
100
AcDbSpline
210
0.0
220
0.0
230
1.0
 70
     8
 71
     3
 72
    10
 73
     6
 74
     0
 42
0.000000001
 43
0.00000001
 40
0.0
 40
0.0
 40
0.0
 40
0.0
 40
0.1628029091964599
 40
0.5809054035462541
 40
1.0
 40
1.0
 40
1.0
 40
1.0
 10
582.6301484242027
 20
999.8542584756342
 30
0.0
 10
583.2671497047351
 20
998.2153598799165
 30
0.0
 10
585.5400666185265
 20
992.3675218110776
 30
0.0
 10
588.9801101044517
 20
982.158648096189
 30
0.0
 10
591.3087859922523
 20
973.4877527054306
 30
0.0
 10
592.4745037093704
 20
969.1471673825708
 30
0.0
  0
SPLINE
  5
AE
330
1F
100
AcDbEntity
  8
0
  6
Continuous
 62
     7
370
    25
100
AcDbSpline
210
0.0
220
0.0
230
1.0
 70
     8
 71
     3
 72
    10
 73
     6
 74
     0
 42
0.000000001
 43
0.00000001
 40
0.0
 40
0.0
 40
0.0
 40
0.0
 40
0.2503189525190379
 40
0.5006297677987452
 40
1.0
 40
1.0
 40
1.0
 40
1.0
 10
592.4745037093704
 20
969.1471673825708
 30
0.0
 10
592.5085553109961
 20
969.0068237579867
 30
0.0
 10
592.5766574073156
 20
968.7261410710365
 30
0.0
 10
592.6901300965077
 20
968.1614225103128
 30
0.0
 10
592.7490873715931
 20
967.7346498212856
 30
0.0
 10
592.7883594170158
 20
967.4503721574274
 30
0.0
  0
LINE
  5
AF
330
1F
100
AcDbEntity
  8
0
  6
Continuous
 62
     7
370
    25
100
AcDbLine
 10
440.4317348137
 20
967.4503721574
 30
0.0
 11
592.788359417
 21
967.4503721574
 31
0.0
  0
SPLINE
  5
B0
330
1F
100
AcDbEntity
  8
0
  6
Continuous
 62
     7
370
    25
100
AcDbSpline
210
0.0
220
0.0
230
1.0
 70
     8
 71
     3
 72
    10
 73
     6
 74
     0
 42
0.000000001
 43
0.00000001
 40
0.0
 40
0.0
 40
0.0
 40
0.0
 40
0.2503093271827744
 40
0.5006201448514803
 40
1.0
 40
1.0
 40
1.0
 40
1.0
 10
440.4317348137443
 20
967.4503721574274
 30
0.0
 10
440.4503768324529
 20
967.5929542593567
 30
0.0
 10
440.4876609808754
 20
967.8781193122312
 30
0.0
 10
440.5826591918955
 20
968.4455320916134
 30
0.0
 10
440.6810138362165
 20
968.8666527742116
 30
0.0
 10
440.7465292945449
 20
969.1471673825708
 30
0.0
  0
SPLINE
  5
B1
330
1F
100
AcDbEntity
  8
0
  6
Continuous
 62
     7
370
    25
100
AcDbSpline
210
0.0
220
0.0
230
1.0
 70
     8
 71
     3
 72
    11
 73
     7
 74
     0
 42
0.000000001
 43
0.00000001
 40
0.0
 40
0.0
 40
0.0
 40
0.0
 40
0.1659202179583056
 40
0.4978021626549682
 40
0.830163509264399
 40
1.0
 40
1.0
 40
1.0
 40
1.0
 10
440.7465292945449
 20
969.1471673825708
 30
0.0
 10
441.1933723228241
 20
970.8685373708698
 30
0.0
 10
442.5340131957801
 20
976.0330779762825
 30
0.0
 10
445.0747669827401
 20
984.5814407312967
 30
0.0
 10
447.9605480416776
 20
993.088711341189
 30
0.0
 10
449.9261126203066
 20
998.1444696520451
 30
0.0
 10
450.590839876229
 20
999.8542584756342
 30
0.0
  0
LINE
  5
B2
330
1F
100
AcDbEntity
  8
0
  6
Continuous
 62
     7
370
    25
100
AcDbLine
 10
450.5908398762
 20
999.8542584756
 30
0.0
 11
450.6301491395
 21
999.8542584756
 31
0.0
  0
SPLINE
  5
B5
330
1F
100
AcDbEntity
  8
0
  6
Continuous
 62
     7
370
    25
100
AcDbSpline
210
0.0
220
0.0
230
1.0
 70
     8
 71
     3
 72
    20
 73
    16
 74
     0
 42
0.000000001
 43
0.00000001
 40
0.0
 40
0.0
 40
0.0
 40
0.0
 40
0.0597260372505138
 40
0.1150178814833038
 40
0.1716187982139532
 40
0.2307814380264137
 40
0.2926463865233666
 40
0.3769660223012258
 40
0.4645038545193342
 40
0.5542318129300475
 40
0.6510324831057132
 40
0.7463995655859262
 40
0.8379922071016753
 40
0.9233617073762254
 40
1.0
 40
1.0
 40
1.0
 40
1.0
 10
516.6105165019577
 20
872.4131129959551
 30
0.0
 10
514.5803403311654
 20
872.4487509094681
 30
0.0
 10
510.6707127557916
 20
872.5173808990246
 30
0.0
 10
504.9341909072081
 20
873.6061358359999
 30
0.0
 10
499.5696950863778
 20
875.6299031586182
 30
0.0
 10
494.420106343733
 20
878.4252671180664
 30
0.0
 10
488.8981595571046
 20
882.1905761842823
 30
0.0
 10
483.0036227780293
 20
886.8931059285399
 30
0.0
 10
477.0216710841157
 20
892.7014930562449
 30
0.0
 10
471.3368597022717
 20
899.2115714433882
 30
0.0
 10
466.0288662812778
 20
906.2476434725273
 30
0.0
 10
461.1819349727363
 20
913.6020492760632
 30
0.0
 10
456.9843936345918
 20
920.8762307727831
 30
0.0
 10
453.4364066103014
 20
927.8069806165946
 30
0.0
 10
451.5313446514552
 20
932.3627373075792
 30
0.0
 10
450.6301491394584
 20
934.5178522447077
 30
0.0
  0
SPLINE
  5
B7
330
1F
100
AcDbEntity
  8
0
  6
Continuous
 62
     7
370
    25
100
AcDbSpline
210
0.0
220
0.0
230
1.0
 70
     8
 71
     3
 72
    21
 73
    17
 74
     0
 42
0.000000001
 43
0.00000001
 40
0.0
 40
0.0
 40
0.0
 40
0.0
 40
0.0692720991257601
 40
0.1459491531438856
 40
0.2281429335646592
 40
0.3140000157567255
 40
0.4017308761870526
 40
0.4896454754111462
 40
0.5762052565470482
 40
0.6424148198154226
 40
0.7066735924778893
 40
0.7686966890549284
 40
0.8280079617472872
 40
0.8847429259537511
 40
0.94015349129384
 40
1.0
 40
1.0
 40
1.0
 40
1.0
 10
582.5908838644569
 20
934.5178522447077
 30
0.0
 10
581.7802625403096
 20
932.5686140835637
 30
0.0
 10
580.0723671932253
 20
928.4617707442528
 30
0.0
 10
576.9350888233363
 20
922.2059194157413
 30
0.0
 10
573.251080340604
 20
915.630205861765
 30
0.0
 10
569.0169889019201
 20
908.9339131759776
 30
0.0
 10
564.2865652359418
 20
902.2977168281938
 30
0.0
 10
559.0953748983758
 20
895.9083089138903
 30
0.0
 10
553.8723285093917
 20
890.3514804391625
 30
0.0
 10
548.7267986043556
 20
885.6887276803823
 30
0.0
 10
543.8339522840724
 20
881.8593273768569
 30
0.0
 10
538.8456021723182
 20
878.4524881464242
 30
0.0
 10
533.6864146045069
 20
875.6456201282738
 30
0.0
 10
528.3113611953286
 20
873.6123375306282
 30
0.0
 10
522.5627952759991
 20
872.5178024156143
 30
0.0
 10
518.6448729547085
 20
872.4488935103603
 30
0.0
 10
516.6105165019577
 20
872.4131129959551
 30
0.0
  0
LINE
  5
B8
330
1F
100
AcDbEntity
  8
0
  6
Continuous
 62
     7
370
    25
100
AcDbLine
 10
450.6301491395
 20
934.5178522447
 30
0.0
 11
450.5025132433
 21
934.5178522447
 31
0.0
  0
SPLINE
  5
B9
330
1F
100
AcDbEntity
  8
0
  6
Continuous
 62
     7
370
    25
100
AcDbSpline
210
0.0
220
0.0
230
1.0
 70
     8
 71
     3
 72
    10
 73
     6
 74
     0
 42
0.000000001
 43
0.00000001
 40
0.0
 40
0.0
 40
0.0
 40
0.0
 40
0.1565747663427455
 40
0.5777874660177641
 40
1.0
 40
1.0
 40
1.0
 40
1.0
 10
450.5025132432525
 20
934.5178522447077
 30
0.0
 10
449.8956463818726
 20
936.0827864243948
 30
0.0
 10
447.6562046491015
 20
941.8576591914833
 30
0.0
 10
444.2407034565031
 20
951.9908807403694
 30
0.0
 10
441.9121741297549
 20
960.6618168056862
 30
0.0
 10
440.7465292945449
 20
965.0024242976633
 30
0.0
  0
SPLINE
  5
BA
330
1F
100
AcDbEntity
  8
0
  6
Continuous
 62
     7
370
    25
100
AcDbSpline
210
0.0
220
0.0
230
1.0
 70
     8
 71
     3
 72
    10
 73
     6
 74
     0
 42
0.000000001
 43
0.00000001
 40
0.0
 40
0.0
 40
0.0
 40
0.0
 40
0.2503189634548325
 40
0.5006364397123936
 40
0.9999999999999999
 40
0.9999999999999999
 40
0.9999999999999999
 40
0.9999999999999999
 10
440.7465292945449
 20
965.0024242976633
 30
0.0
 10
440.7124774694946
 20
965.1427675306556
 30
0.0
 10
440.644374021703
 20
965.4234531628316
 30
0.0
 10
440.5309060999254
 20
965.9881795746368
 30
0.0
 10
440.4719465940964
 20
966.4149482958825
 30
0.0
 10
440.4326735868995
 20
966.6992195228067
 30
0.0
  0
LINE
  5
BB
330
1F
100
AcDbEntity
  8
0
  6
Continuous
 62
     7
370
    25
100
AcDbLine
 10
440.4326735869
 20
966.6992195228
 30
0.0
 11
592.7892981902
 21
966.6992195228
 31
0.0
  0
SPLINE
  5
BC
330
1F
100
AcDbEntity
  8
0
  6
Continuous
 62
     7
370
    25
100
AcDbSpline
210
0.0
220
0.0
230
1.0
 70
     8
 71
     3
 72
    10
 73
     6
 74
     0
 42
0.000000001
 43
0.00000001
 40
0.0
 40
0.0
 40
0.0
 40
0.0
 40
0.2503093271827744
 40
0.5006201448514803
 40
1.0
 40
1.0
 40
1.0
 40
1.0
 10
592.789298190171
 20
966.6992195228067
 30
0.0
 10
592.7706561714624
 20
966.5566374208776
 30
0.0
 10
592.73337202304
 20
966.2714723680032
 30
0.0
 10
592.6383738120198
 20
965.704059588621
 30
0.0
 10
592.5400191676988
 20
965.2829389060228
 30
0.0
 10
592.4745037093704
 20
965.0024242976633
 30
0.0
  0
SPLINE
  5
BD
330
1F
100
AcDbEntity
  8
0
  6
Continuous
 62
     7
370
    25
100
AcDbSpline
210
0.0
220
0.0
230
1.0
 70
     8
 71
     3
 72
    11
 73
     7
 74
     0
 42
0.000000001
 43
0.00000001
 40
0.0
 40
0.0
 40
0.0
 40
0.0
 40
0.1671545295559536
 40
0.5015054062395065
 40
0.8363392511965047
 40
1.0
 40
1.0
 40
1.0
 40
1.0
 10
592.4745037093704
 20
965.0024242976633
 30
0.0
 10
592.0276571975417
 20
963.2810554353824
 30
0.0
 10
590.6870058730656
 20
958.1165182083056
 30
0.0
 10
588.1463915356337
 20
949.5681103778093
 30
0.0
 10
585.2856723231689
 20
941.1363133752596
 30
0.0
 10
583.3530434530461
 20
936.1536954297204
 30
0.0
 10
582.7185421124046
 20
934.5178522447077
 30
0.0
  0
LINE
  5
BE
330
1F
100
AcDbEntity
  8
0
  6
Continuous
 62
     7
370
    25
100
AcDbLine
 10
582.7185421124
 20
934.5178522447
 30
0.0
 11
582.5908838645
 21
934.5178522447
 31
0.0
  0
SPLINE
  5
D9
330
1F
100
AcDbEntity
  8
0
  6
Continuous
 62
     7
370
    25
100
AcDbSpline
210
0.0
220
0.0
230
1.0
 70
     8
 71
     3
 72
    11
 73
     7
 74
     0
 42
0.000000001
 43
0.00000001
 40
0.0
 40
0.0
 40
0.0
 40
0.0
 40
0.2532516020476283
 40
0.4997291736818338
 40
0.7463602386989809
 40
0.9999999999999999
 40
0.9999999999999999
 40
0.9999999999999999
 40
0.9999999999999999
 10
440.4317348137443
 20
967.4503721574274
 30
0.0
 10
440.413028404679
 20
967.3911494998285
 30
0.0
 10
440.3761159497562
 20
967.274288285503
 30
0.0
 10
440.3613762887377
 20
967.0748906363667
 30
0.0
 10
440.3766130293073
 20
966.8754241840953
 30
0.0
 10
440.4138130128744
 20
966.7585004361715
 30
0.0
 10
440.4326735868995
 20
966.6992195228067
 30
0.0
  0
SPLINE
  5
DA
330
1F
100
AcDbEntity
  8
0
  6
Continuous
 62
     7
370
    25
100
AcDbSpline
210
0.0
220
0.0
230
1.0
 70
     8
 71
     3
 72
    11
 73
     7
 74
     0
 42
0.000000001
 43
0.00000001
 40
0.0
 40
0.0
 40
0.0
 40
0.0
 40
0.2533290802606537
 40
0.4998384789347741
 40
0.7464316765080896
 40
1.0
 40
1.0
 40
1.0
 40
1.0
 10
592.789298190171
 20
966.6992195228067
 30
0.0
 10
592.8080128325877
 20
966.7584613401934
 30
0.0
 10
592.8449383146117
 20
966.8753501705693
 30
0.0
 10
592.8596890056218
 20
967.0747725582141
 30
0.0
 10
592.8444481682113
 20
967.2742195786457
 30
0.0
 10
592.8072286852425
 20
967.3911112506144
 30
0.0
 10
592.7883594170158
 20
967.4503721574274
 30
0.0
  0
LINE
  5
DD
330
1F
100
AcDbEntity
  8
0
  6
Continuous
 62
     7
370
    25
100
AcDbLine
 10
515.8284385445
 20
762.6202276254
 30
0.0
 11
514.8810958829
 21
761.1702133248
 31
0.0
  0
LINE
  5
DE
330
1F
100
AcDbEntity
  8
0
  6
Continuous
 62
     7
370
    25
100
AcDbLine
 10
514.8810958829
 20
761.1702133248
 30
0.0
 11
515.6631737821
 21
759.6247831637
 31
0.0
  0
LINE
  5
DF
330
1F
100
AcDbEntity
  8
0
  6
Continuous
 62
     7
370
    25
100
AcDbLine
 10
515.6631737821
 20
759.6247831637
 30
0.0
 11
517.3925944594
 21
759.5293673033
 31
0.0
  0
LINE
  5
E0
330
1F
100
AcDbEntity
  8
0
  6
Continuous
 62
     7
370
    25
100
AcDbLine
 10
517.3925944594
 20
759.5293673033
 30
0.0
 11
518.339937121
 21
760.9793816039
 31
0.0
  0
CIRCLE
  5
E1
330
1F
100
AcDbEntity
  8
0
  6
Continuous
 62
     7
370
    25
100
AcDbCircle
 10
516.610516502
 20
761.0747976879
 30
0.0
 40
2.250000000000028
  0
LINE
  5
E2
330
1F
100
AcDbEntity
  8
0
  6
Continuous
 62
     7
370
    25
100
AcDbLine
 10
517.5578592218
 20
762.524811765
 30
0.0
 11
515.8284385445
 21
762.6202276254
 31
0.0
  0
LINE
  5
E3
330
1F
100
AcDbEntity
  8
0
  6
Continuous
 62
     7
370
    25
100
AcDbLine
 10
518.339937121
 20
760.9793816039
 30
0.0
 11
517.5578592218
 21
762.524811765
 31
0.0
  0
LINE
  5
E4
330
1F
100
AcDbEntity
  8
0
  6
Continuous
 62
     8
370
    25
100
AcDbLine
 10
599.1105197802
 20
1189.5747848133
 30
0.0
 11
434.1105132237
 21
1189.5747848133
 31
0.0
  0
LINE
  5
E5
330
1F
100
AcDbEntity
  8
0
  6
Continuous
 62
     7
370
    25
100
AcDbLine
 10
786.60184926
 20
1067.552334843
 30
0.0
 11
786.60184926
 21
1183.0748088935
 31
0.0
  0
LINE
  5
E6
330
1F
100
AcDbEntity
  8
0
  6
Continuous
 62
     7
370
    25
100
AcDbLine
 10
786.60184926
 20
763.570651626
 30
0.0
 11
786.60184926
 21
866.5972493866
 31
0.0
  0
LINE
  5
E7
330
1F
100
AcDbEntity
  8
0
  6
Continuous
 62
     7
370
    25
100
AcDbLine
 10
786.60184926
 20
751.0747976879
 30
0.0
 11
786.60184926
 21
758.6068294289
 31
0.0
  0
LINE
  5
E8
330
1F
100
AcDbEntity
  8
0
  6
Continuous
 62
     7
370
    25
100
AcDbLine
 10
621.6018427035
 20
1183.0748088935
 30
0.0
 11
621.6018427035
 21
751.0747976879
 31
0.0
  0
ARC
  5
E9
330
1F
100
AcDbEntity
  8
0
  6
Continuous
 62
     7
370
    25
100
AcDbCircle
 10
750.7727653047
 20
1004.8059581963
 30
0.0
 40
3.000000000000039
100
AcDbArc
 50
332.0
 51
27.8572771725
  0
ARC
  5
EA
330
1F
100
AcDbEntity
  8
0
  6
Continuous
 62
     7
370
    25
100
AcDbCircle
 10
737.1186918286
 20
979.1263808499
 30
0.0
 40
3.000000000000044
100
AcDbArc
 50
251.5940682269
 51
332.0
  0
ARC
  5
EB
330
1F
100
AcDbEntity
  8
0
  6
Continuous
 62
     7
370
    25
100
AcDbCircle
 10
768.7065790032
 20
1038.5345562435
 30
0.0
 40
3.000000000000002
100
AcDbArc
 50
332.0
 51
15.758107458
  0
ARC
  5
EC
330
1F
100
AcDbEntity
  8
0
  6
Continuous
 62
     7
370
    25
100
AcDbCircle
 10
755.052505527
 20
1012.8549788971
 30
0.0
 40
3.000000000000111
100
AcDbArc
 50
278.6876680051
 51
332.0
  0
LINE
  5
ED
330
1F
100
AcDbEntity
  8
0
  6
Continuous
 62
     7
370
    25
100
AcDbLine
 10
621.6018427035
 20
1189.5747848133
 30
0.0
 11
621.6018427035
 21
1184.5747895816
 31
0.0
  0
LINE
  5
EE
330
1F
100
AcDbEntity
  8
0
  6
Continuous
 62
     7
370
    25
100
AcDbLine
 10
786.60184926
 20
1184.5747895816
 30
0.0
 11
786.60184926
 21
1189.5747848133
 31
0.0
  0
ARC
  5
EF
330
1F
100
AcDbEntity
  8
0
  6
Continuous
 62
     7
370
    25
100
AcDbCircle
 10
784.6018459817
 20
1189.5747976879
 30
0.0
 40
2.0
100
AcDbArc
 50
0.0
 51
90.0
  0
ARC
  5
F0
330
1F
100
AcDbEntity
  8
0
  6
Continuous
 62
     7
370
    25
100
AcDbCircle
 10
623.6018459817
 20
1189.5747976879
 30
0.0
 40
2.0
100
AcDbArc
 50
90.0
 51
180.0
  0
LINE
  5
F1
330
1F
100
AcDbEntity
  8
0
  6
Continuous
 62
     7
370
    25
100
AcDbLine
 10
785.6018472334
 20
1183.0748088935
 30
0.0
 11
785.6018472334
 21
1184.5747895816
 31
0.0
  0
LINE
  5
F2
330
1F
100
AcDbEntity
  8
0
  6
Continuous
 62
     7
370
    25
100
AcDbLine
 10
622.60184473
 20
1184.5747895816
 30
0.0
 11
622.60184473
 21
1183.0748088935
 31
0.0
  0
LINE
  5
F3
330
1F
100
AcDbEntity
  8
0
  6
Continuous
 62
     7
370
    25
100
AcDbLine
 10
786.5018475672
 20
741.0747979114
 30
0.0
 11
786.5018475672
 21
751.0747976879
 31
0.0
  0
LINE
  5
F4
330
1F
100
AcDbEntity
  8
0
  6
Continuous
 62
     7
370
    25
100
AcDbLine
 10
621.7018443962
 20
751.0747976879
 30
0.0
 11
621.7018443962
 21
741.0747979114
 31
0.0
  0
SPLINE
  5
F5
330
1F
100
AcDbEntity
  8
0
  6
Continuous
 62
     7
370
    25
100
AcDbSpline
210
0.0
220
0.0
230
1.0
 70
     8
 71
     3
 72
    25
 73
    21
 74
     0
 42
0.000000001
 43
0.00000001
 40
0.0
 40
0.0
 40
0.0
 40
0.0
 40
0.0041718816254081
 40
0.050877940755516
 40
0.0989750390149978
 40
0.1285921869350323
 40
0.1582162674868495
 40
0.1886680928846832
 40
0.2191259507581036
 40
0.2665000062945974
 40
0.3138938946239347
 40
0.3624710176824544
 40
0.4110584619460833
 40
0.4735272233489008
 40
0.5360651851179496
 40
0.5985691065066663
 40
0.6944563078496645
 40
0.7903583799626729
 40
0.8949680718116889
 40
1.0
 40
1.0
 40
1.0
 40
1.0
 10
786.5898761769625
 20
1067.552334843012
 30
0.0
 10
786.5935761702681
 20
1067.559272004826
 30
0.0
 10
786.6386992243469
 20
1067.643873759968
 30
0.0
 10
786.3388600169011
 20
1067.081411250147
 30
0.0
 10
785.5940094355491
 20
1065.683085063581
 30
0.0
 10
784.6390650051537
 20
1063.888105960362
 30
0.0
 10
783.6849983940036
 20
1062.093801056592
 30
0.0
 10
782.5774296630483
 20
1060.009757377307
 30
0.0
 10
781.1054753509042
 20
1057.238853623484
 30
0.0
 10
779.2166360820008
 20
1053.682530890427
 30
0.0
 10
776.8520246140284
 20
1049.235429080806
 30
0.0
 10
774.3044273680159
 20
1044.452603693037
 30
0.0
 10
771.3427045344956
 20
1038.909674417804
 30
0.0
 10
767.9716621619017
 20
1032.631789727912
 30
0.0
 10
764.176782486759
 20
1025.621864478303
 30
0.0
 10
759.5461904650881
 20
1017.164912740928
 30
0.0
 10
754.0136437321297
 20
1007.219361717006
 30
0.0
 10
747.2345958520314
 20
995.4787249810403
 30
0.0
 10
739.9356680767005
 20
983.2955655536974
 30
0.0
 10
734.3441877639428
 20
975.1355559431967
 30
0.0
 10
731.5428167452905
 20
971.0473336556879
 30
0.0
  0
SPLINE
  5
F6
330
1F
100
AcDbEntity
  8
0
  6
Continuous
 62
     7
370
    25
100
AcDbSpline
210
0.0
220
0.0
230
1.0
 70
     8
 71
     3
 72
    22
 73
    18
 74
     0
 42
0.000000001
 43
0.00000001
 40
0.0
 40
0.0
 40
0.0
 40
0.0
 40
0.1249999999999997
 40
0.1249999999999997
 40
0.2499999999999993
 40
0.2499999999999993
 40
0.374999999999999
 40
0.374999999999999
 40
0.437499999999999
 40
0.437499999999999
 40
0.499999999999999
 40
0.499999999999999
 40
0.624999999999999
 40
0.624999999999999
 40
0.749999999999999
 40
0.749999999999999
 40
1.0
 40
1.0
 40
1.0
 40
1.0
 10
731.5428163888546
 20
971.0473305329632
 30
0.0
 10
731.3356324257117
 20
970.759252279004
 30
0.0
 10
731.1449942283925
 20
970.460769857868
 30
0.0
 10
730.8040035147218
 20
969.8387295056465
 30
0.0
 10
730.6531182307514
 20
969.5137836263232
 30
0.0
 10
730.4033306490581
 20
968.839195239794
 30
0.0
 10
730.3065466206117
 20
968.4953815277868
 30
0.0
 10
730.2079375557905
 20
967.9689027651756
 30
0.0
 10
730.1828156078506
 20
967.7916197211158
 30
0.0
 10
730.1491351746297
 20
967.433230439634
 30
0.0
 10
730.1406503073962
 20
967.2510052734087
 30
0.0
 10
730.1411059871224
 20
966.7080771966176
 30
0.0
 10
730.1759252699522
 20
966.3515156814834
 30
0.0
 10
730.3082127453192
 20
965.6481899358779
 30
0.0
 10
730.4073177953983
 20
965.2981350588109
 30
0.0
 10
730.7814797588537
 20
964.292146085251
 30
0.0
 10
731.1289118002986
 20
963.6777771038126
 30
0.0
 10
731.5428163888548
 20
963.102264842759
 30
0.0
  0
SPLINE
  5
F7
330
1F
100
AcDbEntity
  8
0
  6
Continuous
 62
     7
370
    25
100
AcDbSpline
210
0.0
220
0.0
230
1.0
 70
     8
 71
     3
 72
    23
 73
    19
 74
     0
 42
0.000000001
 43
0.00000001
 40
0.0
 40
0.0
 40
0.0
 40
0.0
 40
0.0894805502795072
 40
0.1790555623377614
 40
0.2685763056457097
 40
0.3607519534677378
 40
0.4529970054617276
 40
0.5450781710488396
 40
0.6067711473123656
 40
0.6684429739730502
 40
0.7321826715303207
 40
0.7958573528853363
 40
0.8471650789551094
 40
0.8994681577460486
 40
0.9251945894136999
 40
0.9509174240743937
 40
0.9775454500253707
 40
1.0
 40
1.0
 40
1.0
 40
1.0
 10
731.5428167452905
 20
963.1022580245462
 30
0.0
 10
733.9499026320906
 20
959.6314047201708
 30
0.0
 10
738.7666154899127
 20
952.6860340416764
 30
0.0
 10
745.2867108798514
 20
941.9955534732799
 30
0.0
 10
751.563147386881
 20
931.2103316612671
 30
0.0
 10
757.652263553927
 20
920.427918268542
 30
0.0
 10
763.5215513201567
 20
909.7513272987045
 30
0.0
 10
768.4878474140335
 20
900.5614783992962
 30
0.0
 10
772.6179164943825
 20
892.8581027630432
 30
0.0
 10
776.0081409955537
 20
886.5009418189535
 30
0.0
 10
779.1798221889266
 20
880.5366412065425
 30
0.0
 10
781.8416627982579
 20
875.5248582890068
 30
0.0
 10
783.937317706817
 20
871.5803051582487
 30
0.0
 10
785.196736133597
 20
869.2130842366339
 30
0.0
 10
785.929267704433
 20
867.8372609935485
 30
0.0
 10
786.3264555804174
 20
867.0914911045552
 30
0.0
 10
786.5651724532087
 20
866.6434753065906
 30
0.0
 10
786.5821220074652
 20
866.6117590865567
 30
0.0
 10
786.5898761769625
 20
866.5972493866411
 30
0.0
  0
LINE
  5
F8
330
1F
100
AcDbEntity
  8
0
  6
Continuous
 62
     7
370
    25
100
AcDbLine
 10
704.1018459817
 20
1183.0748088935
 30
0.0
 11
786.60184926
 21
1183.0748088935
 31
0.0
  0
LINE
  5
F9
330
1F
100
AcDbEntity
  8
0
  6
Continuous
 62
     7
370
    25
100
AcDbLine
 10
621.6018427035
 20
1183.0748088935
 30
0.0
 11
704.1018459817
 21
1183.0748088935
 31
0.0
  0
LINE
  5
FA
330
1F
100
AcDbEntity
  8
0
  6
Continuous
 62
     7
370
    25
100
AcDbLine
 10
704.1018459817
 20
751.0747976879
 30
0.0
 11
786.60184926
 21
751.0747976879
 31
0.0
  0
LINE
  5
FB
330
1F
100
AcDbEntity
  8
0
  6
Continuous
 62
     7
370
    25
100
AcDbLine
 10
621.6018427035
 20
751.0747976879
 30
0.0
 11
704.1018459817
 21
751.0747976879
 31
0.0
  0
SPLINE
  5
FC
330
1F
100
AcDbEntity
  8
0
  6
Continuous
 62
     7
370
    25
100
AcDbSpline
210
0.0
220
0.0
230
1.0
 70
     8
 71
     3
 72
    12
 73
     8
 74
     0
 42
0.000000001
 43
0.00000001
 40
0.0
 40
0.0
 40
0.0
 40
0.0
 40
0.214770541571702
 40
0.429538813626533
 40
0.6443689590845596
 40
0.8592395419786337
 40
1.0
 40
1.0
 40
1.0
 40
1.0
 10
786.5639556070659
 20
761.0747974643436
 30
0.0
 10
786.5648124510118
 20
760.7939050832025
 30
0.0
 10
786.5665261298494
 20
760.2321232891578
 30
0.0
 10
786.5785743329631
 20
759.4816507456803
 30
0.0
 10
786.5916110974345
 20
758.9216465405161
 30
0.0
 10
786.6009447291286
 20
758.604181865182
 30
0.0
 10
786.6008988454734
 20
758.6060786660473
 30
0.0
 10
786.6008806845042
 20
758.6068294288543
 30
0.0
  0
SPLINE
  5
FD
330
1F
100
AcDbEntity
  8
0
  6
Continuous
 62
     7
370
    25
100
AcDbSpline
210
0.0
220
0.0
230
1.0
 70
     8
 71
     3
 72
    13
 73
     9
 74
     0
 42
0.000000001
 43
0.00000001
 40
0.0
 40
0.0
 40
0.0
 40
0.0
 40
0.0065076647532165
 40
0.2210845019388779
 40
0.4356618829091764
 40
0.6503249984991212
 40
0.8650253774004505
 40
1.0
 40
1.0
 40
1.0
 40
1.0
 10
786.6017226001117
 20
763.5706516260234
 30
0.0
 10
786.60176349269
 20
763.5720297736527
 30
0.0
 10
786.6031527337851
 20
763.618849499893
 30
0.0
 10
786.5980018640391
 20
763.4498911009342
 30
0.0
 10
786.5871434969545
 20
763.0540972138207
 30
0.0
 10
786.5736253743705
 20
762.4029400484968
 30
0.0
 10
786.5651884018199
 20
761.7076057000428
 30
0.0
 10
786.5642989396475
 20
761.2510341692621
 30
0.0
 10
786.5639556070659
 20
761.0747974643436
 30
0.0
  0
SPLINE
  5
FE
330
1F
100
AcDbEntity
  8
0
  6
Continuous
 62
     7
370
    25
100
AcDbSpline
210
0.0
220
0.0
230
1.0
 70
    11
 71
     3
 72
    66
 73
    62
 74
     0
 42
0.000000001
 43
0.00000001
 40
0.0
 40
0.0
 40
0.0
 40
0.0
 40
0.03125
 40
0.03125
 40
0.0625
 40
0.0625
 40
0.09375
 40
0.09375
 40
0.1249999999999999
 40
0.1249999999999999
 40
0.1562499999999999
 40
0.1562499999999999
 40
0.1874999999999999
 40
0.1874999999999999
 40
0.2187499999999999
 40
0.2187499999999999
 40
0.2499999999999999
 40
0.2499999999999999
 40
0.2812499999999999
 40
0.2812499999999999
 40
0.3124999999999999
 40
0.3124999999999999
 40
0.3437499999999998
 40
0.3437499999999998
 40
0.3749999999999998
 40
0.3749999999999998
 40
0.4062499999999998
 40
0.4062499999999998
 40
0.4374999999999998
 40
0.4374999999999998
 40
0.4687499999999998
 40
0.4687499999999998
 40
0.4999999999999998
 40
0.4999999999999998
 40
0.5312499999999998
 40
0.5312499999999998
 40
0.5624999999999998
 40
0.5624999999999998
 40
0.6249999999999993
 40
0.6249999999999993
 40
0.6562499999999992
 40
0.6562499999999992
 40
0.6874999999999992
 40
0.6874999999999992
 40
0.7187499999999992
 40
0.7187499999999992
 40
0.7499999999999992
 40
0.7499999999999992
 40
0.7812499999999992
 40
0.7812499999999992
 40
0.8124999999999992
 40
0.8124999999999992
 40
0.8437499999999992
 40
0.8437499999999992
 40
0.8749999999999992
 40
0.8749999999999992
 40
0.9062499999999991
 40
0.9062499999999991
 40
0.9374999999999991
 40
0.9374999999999991
 40
1.0
 40
1.0
 40
1.0
 40
1.0
 10
660.7057262160893
 20
761.0747976878612
 30
0.0
 10
660.7057262160893
 20
760.9096254067589
 30
0.0
 10
660.7195149859217
 20
760.7472151577641
 30
0.0
 10
660.7735680644068
 20
760.4276922295543
 30
0.0
 10
660.8144890490497
 20
760.2689243976387
 30
0.0
 10
660.9214067378498
 20
759.9661727828793
 30
0.0
 10
660.9868671433999
 20
759.8225830215746
 30
0.0
 10
661.1416941952473
 20
759.5508330339661
 30
0.0
 10
661.2318836867827
 20
759.4221750263932
 30
0.0
 10
661.4291623563555
 20
759.1915653142962
 30
0.0
 10
661.5369262286898
 20
759.0880814465688
 30
0.0
 10
661.7712858669337
 20
758.9053215315155
 30
0.0
 10
661.8962426628354
 20
758.8276613792409
 30
0.0
 10
662.155013382921
 20
758.7029772848108
 30
0.0
 10
662.290732578517
 20
758.6549892030732
 30
0.0
 10
662.5692519190309
 20
758.5907681263742
 30
0.0
 10
662.7094896675247
 20
758.5748848499906
 30
0.0
 10
662.9918969394895
 20
758.5747112343608
 30
0.0
 10
663.1355686561451
 20
758.5909348771594
 30
0.0
 10
663.4141992544963
 20
758.6547039718165
 30
0.0
 10
663.5498580518131
 20
758.7018876106741
 30
0.0
 10
663.8137435416628
 20
758.8270258328893
 30
0.0
 10
663.9416039183449
 20
758.9052953547146
 30
0.0
 10
664.1785261677727
 20
759.0862308453363
 30
0.0
 10
664.2891184588362
 20
759.1895205212776
 30
0.0
 10
664.493808067398
 20
759.4227520577355
 30
0.0
 10
664.5848156106006
 20
759.5492542963781
 30
0.0
 10
664.743947670141
 20
759.8199551970091
 30
0.0
 10
664.8127958229544
 20
759.9660102232889
 30
0.0
 10
664.9233054755912
 20
760.2689495904019
 30
0.0
 10
664.9649653416442
 20
760.4247821207724
 30
0.0
 10
665.0213428226951
 20
760.7450694240817
 30
0.0
 10
665.0358020915146
 20
760.9107570015332
 30
0.0
 10
665.0359041012387
 20
761.2370645199658
 30
0.0
 10
665.0220139324792
 20
761.3992207252289
 30
0.0
 10
664.965804854974
 20
761.7214970398898
 30
0.0
 10
664.9235590755803
 20
761.8795661091671
 30
0.0
 10
664.7593062667056
 20
762.3309767656932
 30
0.0
 10
664.5956477938133
 20
762.6101232393685
 30
0.0
 10
664.2928018503645
 20
762.9562120194547
 30
0.0
 10
664.1803086217011
 20
763.0618532453603
 30
0.0
 10
663.9425975329733
 20
763.2436895046656
 30
0.0
 10
663.8172649521861
 20
763.3205719147655
 30
0.0
 10
663.5537270800007
 20
763.4461916827202
 30
0.0
 10
663.4153341004517
 20
763.4945070648264
 30
0.0
 10
663.1376221289075
 20
763.5583137172553
 30
0.0
 10
662.9968292131427
 20
763.5746290232248
 30
0.0
 10
662.7112587068053
 20
763.5749637759513
 30
0.0
 10
662.5702344873383
 20
763.5588661773714
 30
0.0
 10
662.294477065694
 20
763.4956540210953
 30
0.0
 10
662.1579374922616
 20
763.4478577626357
 30
0.0
 10
661.8970572650286
 20
763.3224933478873
 30
0.0
 10
661.7736704164903
 20
763.245789322245
 30
0.0
 10
661.5406674748385
 20
763.0647665772156
 30
0.0
 10
661.430370166464
 20
762.9592768748037
 30
0.0
 10
661.2328147285621
 20
762.7286719776051
 30
0.0
 10
661.144378708348
 20
762.6029380157488
 30
0.0
 10
660.9884084248444
 20
762.3302393770729
 30
0.0
 10
660.9218860544859
 20
762.1844092153831
 30
0.0
 10
660.7621870794675
 20
761.7333049437777
 30
0.0
 10
660.7057262160893
 20
761.4051422500659
 30
0.0
 10
660.7057262160891
 20
761.0747976878611
 30
0.0
  0
LWPOLYLINE
  5
FF
330
1F
100
AcDbEntity
  8
0
  6
Continuous
 62
     7
370
    25
100
AcDbPolyline
 90
       14
 70
   128
 43
0.0
 10
749.4360472878
 20
995.9017850736
 10
748.4299767634
 20
994.0096505264
 10
747.3787184676
 20
992.0325197557
 10
746.3081482669
 20
990.0190748552
 10
745.2446300408
 20
988.018877087
 10
744.21435258
 20
986.0812194923
 10
743.2426851114
 20
984.2537708858
 10
742.3535514494
 20
982.5815476755
 10
741.5688451251
 20
981.1057366708
 10
740.9078892192
 20
979.8626669029
 10
740.386959525
 20
978.8829304555
 10
740.0188784918
 20
978.1906821111
 10
739.8127172014
 20
977.8029389957
 10
739.7675331553
 20
977.7179725746
  0
LWPOLYLINE
  5
100
330
1F
100
AcDbEntity
  8
0
  6
Continuous
 62
     7
370
    25
100
AcDbPolyline
 90
        9
 70
   128
 43
0.0
 10
753.4216087183
 20
1003.3975310901
 10
753.4155960997
 20
1003.3862360099
 10
753.2868128141
 20
1003.1440325359
 10
752.9932413122
 20
1002.5919147113
 10
752.5421161076
 20
1001.7434723953
 10
751.9445422908
 20
1000.6195821146
 10
751.2152310332
 20
999.247960029
 10
750.3721456846
 20
997.6623423675
 10
749.4360472878
 20
995.9017850736
  0
LWPOLYLINE
  5
101
330
1F
100
AcDbEntity
  8
0
  6
Continuous
 62
     7
370
    25
100
AcDbPolyline
 90
       13
 70
   128
 43
0.0
 10
765.6868811568
 20
1026.4651842693
 10
764.6201256534
 20
1024.4588919261
 10
763.5511088988
 20
1022.4483676532
 10
762.5061537942
 20
1020.4830833057
 10
761.510994645
 20
1018.6114676574
 10
760.5901364108
 20
1016.8795950988
 10
759.7662474831
 20
1015.3300829509
 10
759.0596195182
 20
1014.0011079887
 10
758.4876496216
 20
1012.9253931621
 10
758.0644231161
 20
1012.1294029335
 10
757.8003596386
 20
1011.6327770332
 10
757.7019635459
 20
1011.4477344135
 10
757.701348873
 20
1011.4465721229
  0
LWPOLYLINE
  5
102
330
1F
100
AcDbEntity
  8
0
  6
Continuous
 62
     7
370
    25
100
AcDbPolyline
 90
       10
 70
   128
 43
0.0
 10
771.3554207107
 20
1037.1261306385
 10
771.2851095816
 20
1036.993897734
 10
771.049045386
 20
1036.5499325374
 10
770.6524211785
 20
1035.803980408
 10
770.1049972197
 20
1034.7744293788
 10
769.4202665111
 20
1033.4866412261
 10
768.6150748154
 20
1031.9722958187
 10
767.7092555782
 20
1030.268705664
 10
766.7251158377
 20
1028.4178026298
 10
765.6868811568
 20
1026.4651842693
  0
LINE
  5
103
330
1F
100
AcDbEntity
  8
0
  6
Continuous
 62
     7
370
    25
100
AcDbLine
 10
786.60184926
 20
1184.5747895816
 30
0.0
 11
621.6018427035
 21
1184.5747895816
 31
0.0
  0
LINE
  5
104
330
1F
100
AcDbEntity
  8
0
  6
Continuous
 62
     7
370
    25
100
AcDbLine
 10
623.6018467566
 20
1191.5747888664
 30
0.0
 11
784.6018452069
 21
1191.5747888664
 31
0.0
  0
LINE
  5
105
330
1F
100
AcDbEntity
  8
0
  6
Continuous
 62
     7
370
    25
100
AcDbLine
 10
786.5018475672
 20
741.0747979114
 30
0.0
 11
621.7018443962
 21
741.0747979114
 31
0.0
  0
LINE
  5
106
330
1F
100
AcDbEntity
  8
0
  6
Continuous
 62
     7
370
    25
100
AcDbLine
 10
730.3074732294
 20
966.0775132755
 30
0.0
 11
731.4767338207
 21
966.6992195228
 31
0.0
  0
LINE
  5
107
330
1F
100
AcDbEntity
  8
0
  6
Continuous
 62
     7
370
    25
100
AcDbLine
 10
730.3141880652
 20
968.0685170272
 30
0.0
 11
731.4767338207
 21
967.4503721574
 31
0.0
  0
SPLINE
  5
108
330
1F
100
AcDbEntity
  8
0
  6
Continuous
 62
     7
370
    25
100
AcDbSpline
210
0.0
220
0.0
230
1.0
 70
     8
 71
     3
 72
    11
 73
     7
 74
     0
 42
0.000000001
 43
0.00000001
 40
0.0
 40
0.0
 40
0.0
 40
0.0
 40
0.2532516020476283
 40
0.4997291736818338
 40
0.7463602386989809
 40
0.9999999999999999
 40
0.9999999999999999
 40
0.9999999999999999
 40
0.9999999999999999
 10
731.476733820686
 20
967.4503721574274
 30
0.0
 10
731.4502500929343
 20
967.3911494998285
 30
0.0
 10
731.3979910300956
 20
967.274288285503
 30
0.0
 10
731.3757582278411
 20
967.0748906363667
 30
0.0
 10
731.3979443967856
 20
966.8754241840953
 30
0.0
 10
731.4502265252596
 20
966.7585004361715
 30
0.0
 10
731.476733820686
 20
966.6992195228067
 30
0.0
  0
SPLINE
  5
109
330
1F
100
AcDbEntity
  8
0
  6
Continuous
 62
     7
370
    25
100
AcDbSpline
210
0.0
220
0.0
230
1.0
 70
     8
 71
     3
 72
    10
 73
     6
 74
     0
 42
0.000000001
 43
0.00000001
 40
0.0
 40
0.0
 40
0.0
 40
0.0
 40
0.2503093271827744
 40
0.5006201448514803
 40
1.0
 40
1.0
 40
1.0
 40
1.0
 10
731.476733820686
 20
967.4503721574274
 30
0.0
 10
731.552546187292
 20
967.5929542593567
 30
0.0
 10
731.7041713719346
 20
967.8781193122312
 30
0.0
 10
732.0058649428828
 20
968.4455320916134
 30
0.0
 10
732.2297816364539
 20
968.8666527742116
 30
0.0
 10
732.3789358010384
 20
969.1471673825708
 30
0.0
  0
SPLINE
  5
10A
330
1F
100
AcDbEntity
  8
0
  6
Continuous
 62
     7
370
    25
100
AcDbSpline
210
0.0
220
0.0
230
1.0
 70
     8
 71
     3
 72
    10
 73
     6
 74
     0
 42
0.000000001
 43
0.00000001
 40
0.0
 40
0.0
 40
0.0
 40
0.0
 40
0.2503189634548325
 40
0.5006364397123936
 40
0.9999999999999999
 40
0.9999999999999999
 40
0.9999999999999999
 40
0.9999999999999999
 10
732.3789358010384
 20
965.0024242976633
 30
0.0
 10
732.3043146555609
 20
965.1427675306556
 30
0.0
 10
732.1550728079458
 20
965.4234531628316
 30
0.0
 10
731.854807191341
 20
965.9881795746368
 30
0.0
 10
731.6278862013927
 20
966.4149482958825
 30
0.0
 10
731.476733820686
 20
966.6992195228067
 30
0.0
  0
SPLINE
  5
10B
330
1F
100
AcDbEntity
  8
0
  6
Continuous
 62
     7
370
    25
100
AcDbSpline
210
0.0
220
0.0
230
1.0
 70
     8
 71
     3
 72
     9
 73
     5
 74
     0
 42
0.000000001
 43
0.00000001
 40
0.0
 40
0.0
 40
0.0
 40
0.0
 40
0.1887165618451969
 40
1.0
 40
1.0
 40
1.0
 40
1.0
 10
740.8722642680499
 20
949.028796730372
 30
0.0
 10
740.3442260800598
 20
950.0218940982495
 30
0.0
 10
737.5461770756318
 20
955.2842693671039
 30
0.0
 10
734.693370515518
 20
960.6496112709971
 30
0.0
 10
732.3789358010384
 20
965.0024242976633
 30
0.0
  0
SPLINE
  5
10C
330
1F
100
AcDbEntity
  8
0
  6
Continuous
 62
     7
370
    25
100
AcDbSpline
210
0.0
220
0.0
230
1.0
 70
     8
 71
     3
 72
    10
 73
     6
 74
     0
 42
0.000000001
 43
0.00000001
 40
0.0
 40
0.0
 40
0.0
 40
0.0
 40
0.3214621346474358
 40
0.9644668251303103
 40
1.0
 40
1.0
 40
1.0
 40
1.0
 10
732.3789358010384
 20
969.1471673825708
 30
0.0
 10
733.2937066684929
 20
970.8676047826489
 30
0.0
 10
736.0382481219461
 20
976.0293473900899
 30
0.0
 10
738.8765580091006
 20
981.3673810250726
 30
0.0
 10
740.7729551300323
 20
984.9340198170878
 30
0.0
 10
740.8722642680499
 20
985.1207949498621
 30
0.0
  0
LWPOLYLINE
  5
10D
330
1F
100
AcDbEntity
  8
0
  6
Continuous
 62
     7
370
    25
100
AcDbPolyline
 90
       17
 70
   128
 43
0.0
 10
664.7991541644
 20
760.9313011447
 10
664.6986905357
 20
761.8015084693
 10
664.3174704036
 20
762.5610811913
 10
663.7135412415
 20
763.0943807119
 10
662.9788394889
 20
763.3202171231
 10
662.2252169868
 20
763.2042087892
 10
661.5674052259
 20
762.7640163803
 10
661.1055549105
 20
762.0666560063
 10
660.9099771699
 20
761.2182947153
 10
661.0104407986
 20
760.3480864594
 10
661.3916609308
 20
759.5885137374
 10
661.9955900928
 20
759.0552142167
 10
662.7302918455
 20
758.8293782713
 10
663.4839143475
 20
758.9453870708
 10
664.1417261084
 20
759.3855785483
 10
664.6035764238
 20
760.0829389224
 10
664.7991541644
 20
760.9313011447
  0
LINE
  5
10E
330
1F
100
AcDbEntity
  8
0
  6
Continuous
 62
     7
370
    25
100
AcDbLine
 10
663.6749882122
 20
762.524811765
 30
0.0
 11
662.1772650501
 21
762.6202276254
 31
0.0
  0
LINE
  5
10F
330
1F
100
AcDbEntity
  8
0
  6
Continuous
 62
     7
370
    25
100
AcDbLine
 10
662.1772650501
 20
762.6202276254
 30
0.0
 11
661.3568443676
 21
761.1702133248
 31
0.0
  0
LINE
  5
110
330
1F
100
AcDbEntity
  8
0
  6
Continuous
 62
     7
370
    25
100
AcDbLine
 10
661.3568443676
 20
761.1702133248
 30
0.0
 11
662.0341431221
 21
759.6247831637
 31
0.0
  0
LINE
  5
111
330
1F
100
AcDbEntity
  8
0
  6
Continuous
 62
     7
370
    25
100
AcDbLine
 10
662.0341431221
 20
759.6247831637
 30
0.0
 11
663.5318662843
 21
759.5293673033
 31
0.0
  0
LINE
  5
112
330
1F
100
AcDbEntity
  8
0
  6
Continuous
 62
     7
370
    25
100
AcDbLine
 10
663.5318662843
 20
759.5293673033
 30
0.0
 11
664.3522869667
 21
760.9793816039
 31
0.0
  0
LINE
  5
113
330
1F
100
AcDbEntity
  8
0
  6
Continuous
 62
     7
370
    25
100
AcDbLine
 10
664.3522869667
 20
760.9793816039
 30
0.0
 11
663.6749882122
 21
762.524811765
 31
0.0
  0
LINE
  5
114
330
1F
100
AcDbEntity
  8
0
  6
Continuous
 62
     7
370
    25
100
AcDbLine
 10
663.5858531913
 20
759.6247831637
 30
0.0
 11
662.0341431221
 21
759.6247831637
 31
0.0
  0
LINE
  5
115
330
1F
100
AcDbEntity
  8
0
  6
Continuous
 62
     7
370
    25
100
AcDbLine
 10
663.8706628105
 20
762.0783347914
 30
0.0
 11
663.3568446955
 21
761.1702133248
 31
0.0
  0
LINE
  5
116
330
1F
100
AcDbEntity
  8
0
  6
Continuous
 62
     7
370
    25
100
AcDbLine
 10
663.3568446955
 20
761.1702133248
 30
0.0
 11
661.3568443676
 21
761.1702133248
 31
0.0
  0
LINE
  5
117
330
1F
100
AcDbEntity
  8
0
  6
Continuous
 62
     7
370
    25
100
AcDbLine
 10
663.3568446955
 20
761.1702133248
 30
0.0
 11
663.8384688517
 21
760.0712610686
 31
0.0
  0
LINE
  5
118
330
1F
100
AcDbEntity
  8
0
  6
Continuous
 62
     7
370
    25
100
AcDbLine
 10
786.5964103361
 20
763.3247973675
 30
0.0
 11
786.5964103361
 21
758.8247975612
 31
0.0
  0
LINE
  5
119
330
1F
100
AcDbEntity
  8
0
  6
Continuous
 62
     8
370
    25
100
AcDbLine
 10
786.60184926
 20
1189.5747848133
 30
0.0
 11
621.6018427035
 21
1189.5747848133
 31
0.0
  0
LINE
  5
11A
330
1F
100
AcDbEntity
  8
0
  6
Continuous
 62
     8
370
    25
100
AcDbLine
 10
730.9225950261
 20
969.9215211252
 30
0.0
 11
732.378935801
 21
969.1471673826
 31
0.0
  0
LINE
  5
11B
330
1F
100
AcDbEntity
  8
0
  6
Continuous
 62
     8
370
    25
100
AcDbLine
 10
730.9566944709
 20
964.2462052682
 30
0.0
 11
732.378935801
 21
965.0024242977
 31
0.0
  0
LINE
  5
11C
330
1F
100
AcDbEntity
  8
0
  6
Continuous
 62
     7
370
    25
100
AcDbLine
 10
443.9454435244
 20
681.7033852239
 30
0.0
 11
443.946233286
 21
681.7029307385
 31
0.0
  0
LINE
  5
11D
330
1F
100
AcDbEntity
  8
0
  6
Continuous
 62
     7
370
    25
100
AcDbLine
 10
586.7755918637
 20
686.0335136552
 30
0.0
 11
586.7748021021
 21
686.0330554445
 31
0.0
  0
LINE
  5
11E
330
1F
100
AcDbEntity
  8
0
  6
Continuous
 62
     7
370
    25
100
AcDbLine
 10
446.3285936847
 20
685.8422758778
 30
0.0
 11
446.2931289211
 21
685.8327726622
 31
0.0
  0
LINE
  5
11F
330
1F
100
AcDbEntity
  8
0
  6
Continuous
 62
     7
370
    25
100
AcDbLine
 10
444.0431280866
 20
681.9356607993
 30
0.0
 11
444.0526350275
 21
681.9001960357
 31
0.0
  0
LINE
  5
120
330
1F
100
AcDbEntity
  8
0
  6
Continuous
 62
     7
370
    25
100
AcDbLine
 10
589.1683979765
 20
681.9001960357
 30
0.0
 11
589.1779049173
 21
681.9356607993
 31
0.0
  0
LINE
  5
121
330
1F
100
AcDbEntity
  8
0
  6
Continuous
 62
     7
370
    25
100
AcDbLine
 10
586.9279040828
 20
685.8327726622
 30
0.0
 11
586.8924393192
 21
685.8422758778
 31
0.0
  0
LINE
  5
122
330
1F
100
AcDbEntity
  8
0
  6
Continuous
 62
     7
370
    25
100
AcDbLine
 10
514.334555982
 20
560.1683373351
 30
0.0
 11
514.3605165988
 21
560.1423720618
 31
0.0
  0
LINE
  5
123
330
1F
100
AcDbEntity
  8
0
  6
Continuous
 62
     7
370
    25
100
AcDbLine
 10
518.8605164051
 20
560.1423720618
 30
0.0
 11
518.8864770219
 21
560.1683373351
 31
0.0
  0
ARC
  5
124
330
1F
100
AcDbEntity
  8
0
  6
Continuous
 62
     7
370
    25
100
AcDbCircle
 10
516.610516502
 20
642.6369364162
 30
0.0
 40
82.50000000000006
100
AcDbArc
 50
180.0
 51
270.0
  0
ARC
  5
125
330
1F
100
AcDbEntity
  8
0
  6
Continuous
 62
     7
370
    25
100
AcDbCircle
 10
516.610516502
 20
642.6369364162
 30
0.0
 40
82.50000000000006
100
AcDbArc
 50
90.0
 51
180.0
  0
CIRCLE
  5
126
330
1F
100
AcDbEntity
  8
0
  6
Continuous
 62
     7
370
    25
100
AcDbCircle
 10
516.610516502
 20
642.6369364162
 30
0.0
 40
80.5
  0
CIRCLE
  5
127
330
1F
100
AcDbEntity
  8
0
  6
Continuous
 62
     7
370
    25
100
AcDbCircle
 10
471.610516502
 20
642.6369364162
 30
0.0
 40
4.5
  0
CIRCLE
  5
128
330
1F
100
AcDbEntity
  8
0
  6
Continuous
 62
     7
370
    25
100
AcDbCircle
 10
561.610516502
 20
642.6369364162
 30
0.0
 40
4.5
  0
CIRCLE
  5
129
330
1F
100
AcDbEntity
  8
0
  6
Continuous
 62
     7
370
    25
100
AcDbCircle
 10
516.610516502
 20
642.6369364162
 30
0.0
 40
82.5
  0
CIRCLE
  5
12A
330
1F
100
AcDbEntity
  8
0
  6
Continuous
 62
     7
370
    25
100
AcDbCircle
 10
471.610516502
 20
642.6369364162
 30
0.0
 40
3.825000000000016
  0
CIRCLE
  5
12B
330
1F
100
AcDbEntity
  8
0
  6
Continuous
 62
     7
370
    25
100
AcDbCircle
 10
471.610516502
 20
642.6369364162
 30
0.0
 40
4.250000000000053
  0
LINE
  5
12C
330
1F
100
AcDbEntity
  8
0
  6
Continuous
 62
     7
370
    25
100
AcDbLine
 10
469.4533481136
 20
641.8123477742
 30
0.0
 11
469.8178156152
 21
644.0928060583
 31
0.0
  0
LINE
  5
12D
330
1F
100
AcDbEntity
  8
0
  6
Continuous
 62
     7
370
    25
100
AcDbLine
 10
471.2460472122
 20
640.3564780739
 30
0.0
 11
469.4533481136
 21
641.8123477742
 31
0.0
  0
LINE
  5
12E
330
1F
100
AcDbEntity
  8
0
  6
Continuous
 62
     7
370
    25
100
AcDbLine
 10
473.4032175377
 20
641.1810667741
 30
0.0
 11
471.2460472122
 21
640.3564780739
 31
0.0
  0
LINE
  5
12F
330
1F
100
AcDbEntity
  8
0
  6
Continuous
 62
     7
370
    25
100
AcDbLine
 10
473.7676850393
 20
643.4615250582
 30
0.0
 11
473.4032175377
 21
641.1810667741
 31
0.0
  0
LINE
  5
130
330
1F
100
AcDbEntity
  8
0
  6
Continuous
 62
     7
370
    25
100
AcDbLine
 10
471.9749859407
 20
644.9173947585
 30
0.0
 11
473.7676850393
 21
643.4615250582
 31
0.0
  0
LINE
  5
131
330
1F
100
AcDbEntity
  8
0
  6
Continuous
 62
     7
370
    25
100
AcDbLine
 10
469.8178156152
 20
644.0928060583
 30
0.0
 11
471.9749859407
 21
644.9173947585
 31
0.0
  0
LINE
  5
132
330
1F
100
AcDbEntity
  8
0
  6
Continuous
 62
     7
370
    25
100
AcDbLine
 10
559.3103824988
 20
642.4302578634
 30
0.0
 11
560.2814613715
 21
644.5255708204
 31
0.0
  0
LINE
  5
133
330
1F
100
AcDbEntity
  8
0
  6
Continuous
 62
     7
370
    25
100
AcDbLine
 10
562.9395714834
 20
640.748302012
 30
0.0
 11
560.6394394174
 21
640.5416233719
 31
0.0
  0
LINE
  5
134
330
1F
100
AcDbEntity
  8
0
  6
Continuous
 62
     7
370
    25
100
AcDbLine
 10
562.5815934375
 20
644.7322494605
 30
0.0
 11
563.9106503561
 21
642.843614969
 31
0.0
  0
LINE
  5
135
330
1F
100
AcDbEntity
  8
0
  6
Continuous
 62
     7
370
    25
100
AcDbLine
 10
560.2814613715
 20
644.5255708204
 30
0.0
 11
562.5815934375
 21
644.7322494605
 31
0.0
  0
CIRCLE
  5
136
330
1F
100
AcDbEntity
  8
0
  6
Continuous
 62
     7
370
    25
100
AcDbCircle
 10
561.610516502
 20
642.6369364162
 30
0.0
 40
3.824999999999993
  0
LINE
  5
137
330
1F
100
AcDbEntity
  8
0
  6
Continuous
 62
     7
370
    25
100
AcDbLine
 10
563.9106503561
 20
642.843614969
 30
0.0
 11
562.9395714834
 21
640.748302012
 31
0.0
  0
LINE
  5
138
330
1F
100
AcDbEntity
  8
0
  6
Continuous
 62
     7
370
    25
100
AcDbLine
 10
560.6394394174
 20
640.5416233719
 30
0.0
 11
559.3103824988
 21
642.4302578634
 31
0.0
  0
CIRCLE
  5
139
330
1F
100
AcDbEntity
  8
0
  6
Continuous
 62
     7
370
    25
100
AcDbCircle
 10
561.610516502
 20
642.6369364162
 30
0.0
 40
4.249999999999971
  0
LWPOLYLINE
  5
13A
330
1F
100
AcDbEntity
  8
0
  6
Continuous
 62
     7
370
    25
100
AcDbPolyline
 90
        5
 70
   128
 43
0.0
 10
444.0431280866
 20
681.9356607993
 10
444.1034256354
 20
682.0400918622
 10
444.3235232368
 20
682.4213119944
 10
444.6722029582
 20
683.0252411564
 10
444.6944578424
 20
683.0637941857
  0
LWPOLYLINE
  5
13B
330
1F
100
AcDbEntity
  8
0
  6
Continuous
 62
     7
370
    25
100
AcDbPolyline
 90
        5
 70
   128
 43
0.0
 10
445.6417991653
 20
684.7046392758
 10
445.9112717643
 20
685.171377172
 10
446.1779205933
 20
685.6332274874
 10
446.2908415928
 20
685.828805228
 10
446.2931289211
 20
685.8327726622
  0
LWPOLYLINE
  5
13C
330
1F
100
AcDbEntity
  8
0
  6
Continuous
 62
     7
370
    25
100
AcDbPolyline
 90
        5
 70
   128
 43
0.0
 10
586.9279040828
 20
685.8327726622
 10
586.988194181
 20
685.7283415993
 10
587.2082917824
 20
685.3471214672
 10
587.5569715038
 20
684.7431923051
 10
587.5792338386
 20
684.7046392758
  0
LWPOLYLINE
  5
13D
330
1F
100
AcDbEntity
  8
0
  6
Continuous
 62
     7
370
    25
100
AcDbPolyline
 90
        5
 70
   128
 43
0.0
 10
588.5265751615
 20
683.0637941857
 10
588.79604031
 20
682.5970562895
 10
589.0626965895
 20
682.1352059741
 10
589.1756101385
 20
681.9396282335
 10
589.1779049173
 20
681.9356607993
  0
LINE
  5
13E
330
1F
100
AcDbEntity
  8
0
  6
Continuous
 62
     7
370
    25
100
AcDbLine
 10
518.8605164051
 20
560.1423720618
 30
0.0
 11
517.5578592218
 21
560.1423720618
 31
0.0
  0
LINE
  5
13F
330
1F
100
AcDbEntity
  8
0
  6
Continuous
 62
     7
370
    25
100
AcDbLine
 10
515.6631737821
 20
560.1423720618
 30
0.0
 11
514.3605165988
 21
560.1423720618
 31
0.0
  0
ENDSEC
  0
SECTION
  2
OBJECTS
  0
DICTIONARY
  5
C
330
0
100
AcDbDictionary
281
     1
  3
ACAD_GROUP
350
D
  3
ACAD_LAYOUT
350
1A
  3
ACAD_MLINESTYLE
350
17
  3
ACAD_PLOTSETTINGS
350
19
  3
ACAD_PLOTSTYLENAME
350
E
  3
ACAD_SCALELIST
350
47
  3
APPDATA
350
161
  3
DWGPROPS
350
162
  0
DICTIONARY
  5
D
102
{ACAD_REACTORS
330
C
102
}
330
C
100
AcDbDictionary
281
     1
  0
DICTIONARY
  5
1A
102
{ACAD_REACTORS
330
C
102
}
330
C
100
AcDbDictionary
281
     1
  3
Layout1
350
1E
  3
Layout2
350
26
  3
Model
350
22
  0
DICTIONARY
  5
17
102
{ACAD_REACTORS
330
C
102
}
330
C
100
AcDbDictionary
281
     1
  3
Standard
350
18
  0
DICTIONARY
  5
19
102
{ACAD_REACTORS
330
C
102
}
330
C
100
AcDbDictionary
281
     1
  0
ACDBDICTIONARYWDFLT
  5
E
102
{ACAD_REACTORS
330
C
102
}
330
C
100
AcDbDictionary
281
     1
  3
Normal
350
F
100
AcDbDictionaryWithDefault
340
F
  0
DICTIONARY
  5
47
102
{ACAD_REACTORS
330
C
102
}
330
C
100
AcDbDictionary
281
     1
  3
A0
350
48
  3
A1
350
49
  3
A2
350
4A
  3
A3
350
4B
  3
A4
350
4C
  3
A5
350
4D
  3
A6
350
4E
  3
A7
350
4F
  3
A8
350
50
  3
A9
350
51
  3
B0
350
52
  3
B1
350
53
  3
B2
350
54
  3
B3
350
55
  3
B4
350
56
  3
B5
350
57
  3
B6
350
58
  3
B7
350
59
  3
B8
350
5A
  3
B9
350
5B
  3
C0
350
5C
  3
C1
350
5D
  3
C2
350
5E
  3
C3
350
5F
  3
C4
350
60
  3
C5
350
61
  3
C6
350
62
  3
C7
350
63
  3
C8
350
64
  3
C9
350
65
  3
D0
350
66
  3
D1
350
67
  3
D2
350
68
  0
DICTIONARY
  5
161
102
{ACAD_REACTORS
330
C
102
}
330
C
100
AcDbDictionary
281
     1
  0
XRECORD
  5
162
102
{ACAD_REACTORS
330
C
102
}
330
C
100
AcDbXrecord
280
     1
  1
DWGPROPS COOKIE
  2

  3

  4

  6

  7

  8
mbuyukdag
  9

300
=
301
=
302
=
303
=
304
=
305
=
306
=
307
=
308
=
309
=
 40
0.0
 41
2459072.607120776
 42
2459072.608665776
  1

 90
        0
  0
LAYOUT
  5
1E
102
{ACAD_REACTORS
330
1A
102
}
330
1A
100
AcDbPlotSettings
  1

  2
none_device
  4

  6

 40
0.0
 41
0.0
 42
0.0
 43
0.0
 44
0.0
 45
0.0
 46
0.0
 47
0.0
 48
0.0
 49
0.0
140
0.0
141
0.0
142
1.0
143
1.0
 70
   688
 72
     1
 73
     0
 74
     5
  7

 75
    16
147
1.0
148
0.0
149
0.0
100
AcDbLayout
  1
Layout1
 70
     1
 71
     1
 10
0.0
 20
0.0
 11
420.0
 21
297.0
 12
0.0
 22
0.0
 32
0.0
 14
1.000000000000000E+20
 24
1.000000000000000E+20
 34
1.000000000000000E+20
 15
-1.000000000000000E+20
 25
-1.000000000000000E+20
 35
-1.000000000000000E+20
146
0.0
 13
0.0
 23
0.0
 33
0.0
 16
1.0
 26
0.0
 36
0.0
 17
0.0
 27
1.0
 37
0.0
 76
     0
330
1B
  0
LAYOUT
  5
26
102
{ACAD_REACTORS
330
1A
102
}
330
1A
100
AcDbPlotSettings
  1

  2
none_device
  4

  6

 40
0.0
 41
0.0
 42
0.0
 43
0.0
 44
0.0
 45
0.0
 46
0.0
 47
0.0
 48
0.0
 49
0.0
140
0.0
141
0.0
142
1.0
143
1.0
 70
   688
 72
     1
 73
     0
 74
     5
  7

 75
    16
147
1.0
148
0.0
149
0.0
100
AcDbLayout
  1
Layout2
 70
     1
 71
     2
 10
0.0
 20
0.0
 11
0.0
 21
0.0
 12
0.0
 22
0.0
 32
0.0
 14
0.0
 24
0.0
 34
0.0
 15
0.0
 25
0.0
 35
0.0
146
0.0
 13
0.0
 23
0.0
 33
0.0
 16
1.0
 26
0.0
 36
0.0
 17
0.0
 27
1.0
 37
0.0
 76
     0
330
23
  0
LAYOUT
  5
22
102
{ACAD_REACTORS
330
1A
102
}
330
1A
100
AcDbPlotSettings
  1

  2
none_device
  4
Letter_(8.50_x_11.00_Inches)
  6

 40
6.35
 41
6.35
 42
6.35000508
 43
6.35000508
 44
215.9
 45
279.4
 46
0.0
 47
0.0
 48
0.0
 49
0.0
140
0.0
141
0.0
142
1.0
143
1.0
 70
  1712
 72
     1
 73
     0
 74
     0
  7

 75
     0
147
1.0
148
0.0
149
0.0
100
AcDbLayout
  1
Model
 70
     1
 71
     0
 10
0.0
 20
0.0
 11
1500.0
 21
1500.0
 12
0.0
 22
0.0
 32
0.0
 14
434.1105132237
 24
560.1369364161999
 34
0.0
 15
786.60184926
 25
1191.5747976879
 35
0.0
146
0.0
 13
0.0
 23
0.0
 33
0.0
 16
1.0
 26
0.0
 36
0.0
 17
0.0
 27
1.0
 37
0.0
 76
     0
330
1F
331
29
  0
MLINESTYLE
  5
18
102
{ACAD_REACTORS
330
17
102
}
330
17
100
AcDbMlineStyle
  2
Standard
 70
     0
  3

 62
   256
 51
90.0
 52
90.0
 71
     2
 49
0.5
 62
   256
  6
BYLAYER
 49
-0.5
 62
   256
  6
BYLAYER
  0
ACDBPLACEHOLDER
  5
F
102
{ACAD_REACTORS
330
E
102
}
330
E
  0
SCALE
  5
48
102
{ACAD_REACTORS
330
47
102
}
330
47
100
AcDbScale
 70
     0
300
1:1
140
1.0
141
1.0
290
     1
  0
SCALE
  5
49
102
{ACAD_REACTORS
330
47
102
}
330
47
100
AcDbScale
 70
     0
300
1:2
140
1.0
141
2.0
290
     0
  0
SCALE
  5
4A
102
{ACAD_REACTORS
330
47
102
}
330
47
100
AcDbScale
 70
     0
300
1:4
140
1.0
141
4.0
290
     0
  0
SCALE
  5
4B
102
{ACAD_REACTORS
330
47
102
}
330
47
100
AcDbScale
 70
     0
300
1:5
140
1.0
141
5.0
290
     0
  0
SCALE
  5
4C
102
{ACAD_REACTORS
330
47
102
}
330
47
100
AcDbScale
 70
     0
300
1:8
140
1.0
141
8.0
290
     0
  0
SCALE
  5
4D
102
{ACAD_REACTORS
330
47
102
}
330
47
100
AcDbScale
 70
     0
300
1:10
140
1.0
141
10.0
290
     0
  0
SCALE
  5
4E
102
{ACAD_REACTORS
330
47
102
}
330
47
100
AcDbScale
 70
     0
300
1:16
140
1.0
141
16.0
290
     0
  0
SCALE
  5
4F
102
{ACAD_REACTORS
330
47
102
}
330
47
100
AcDbScale
 70
     0
300
1:20
140
1.0
141
20.0
290
     0
  0
SCALE
  5
50
102
{ACAD_REACTORS
330
47
102
}
330
47
100
AcDbScale
 70
     0
300
1:30
140
1.0
141
30.0
290
     0
  0
SCALE
  5
51
102
{ACAD_REACTORS
330
47
102
}
330
47
100
AcDbScale
 70
     0
300
1:40
140
1.0
141
40.0
290
     0
  0
SCALE
  5
52
102
{ACAD_REACTORS
330
47
102
}
330
47
100
AcDbScale
 70
     0
300
1:50
140
1.0
141
50.0
290
     0
  0
SCALE
  5
53
102
{ACAD_REACTORS
330
47
102
}
330
47
100
AcDbScale
 70
     0
300
1:100
140
1.0
141
100.0
290
     0
  0
SCALE
  5
54
102
{ACAD_REACTORS
330
47
102
}
330
47
100
AcDbScale
 70
     0
300
2:1
140
2.0
141
1.0
290
     0
  0
SCALE
  5
55
102
{ACAD_REACTORS
330
47
102
}
330
47
100
AcDbScale
 70
     0
300
4:1
140
4.0
141
1.0
290
     0
  0
SCALE
  5
56
102
{ACAD_REACTORS
330
47
102
}
330
47
100
AcDbScale
 70
     0
300
8:1
140
8.0
141
1.0
290
     0
  0
SCALE
  5
57
102
{ACAD_REACTORS
330
47
102
}
330
47
100
AcDbScale
 70
     0
300
10:1
140
10.0
141
1.0
290
     0
  0
SCALE
  5
58
102
{ACAD_REACTORS
330
47
102
}
330
47
100
AcDbScale
 70
     0
300
100:1
140
100.0
141
1.0
290
     0
  0
SCALE
  5
59
102
{ACAD_REACTORS
330
47
102
}
330
47
100
AcDbScale
 70
     0
300
1/128" = 1'-0"
140
0.0078125
141
12.0
290
     0
  0
SCALE
  5
5A
102
{ACAD_REACTORS
330
47
102
}
330
47
100
AcDbScale
 70
     0
300
1/64" = 1'-0"
140
0.015625
141
12.0
290
     0
  0
SCALE
  5
5B
102
{ACAD_REACTORS
330
47
102
}
330
47
100
AcDbScale
 70
     0
300
1/32" = 1'-0"
140
0.03125
141
12.0
290
     0
  0
SCALE
  5
5C
102
{ACAD_REACTORS
330
47
102
}
330
47
100
AcDbScale
 70
     0
300
1/16" = 1'-0"
140
0.0625
141
12.0
290
     0
  0
SCALE
  5
5D
102
{ACAD_REACTORS
330
47
102
}
330
47
100
AcDbScale
 70
     0
300
3/32" = 1'-0"
140
0.09375
141
12.0
290
     0
  0
SCALE
  5
5E
102
{ACAD_REACTORS
330
47
102
}
330
47
100
AcDbScale
 70
     0
300
1/8" = 1'-0"
140
0.125
141
12.0
290
     0
  0
SCALE
  5
5F
102
{ACAD_REACTORS
330
47
102
}
330
47
100
AcDbScale
 70
     0
300
3/16" = 1'-0"
140
0.1875
141
12.0
290
     0
  0
SCALE
  5
60
102
{ACAD_REACTORS
330
47
102
}
330
47
100
AcDbScale
 70
     0
300
1/4" = 1'-0"
140
0.25
141
12.0
290
     0
  0
SCALE
  5
61
102
{ACAD_REACTORS
330
47
102
}
330
47
100
AcDbScale
 70
     0
300
3/8" = 1'-0"
140
0.375
141
12.0
290
     0
  0
SCALE
  5
62
102
{ACAD_REACTORS
330
47
102
}
330
47
100
AcDbScale
 70
     0
300
1/2" = 1'-0"
140
0.5
141
12.0
290
     0
  0
SCALE
  5
63
102
{ACAD_REACTORS
330
47
102
}
330
47
100
AcDbScale
 70
     0
300
3/4" = 1'-0"
140
0.75
141
12.0
290
     0
  0
SCALE
  5
64
102
{ACAD_REACTORS
330
47
102
}
330
47
100
AcDbScale
 70
     0
300
1" = 1'-0"
140
1.0
141
12.0
290
     0
  0
SCALE
  5
65
102
{ACAD_REACTORS
330
47
102
}
330
47
100
AcDbScale
 70
     0
300
1-1/2" = 1'-0"
140
1.5
141
12.0
290
     0
  0
SCALE
  5
66
102
{ACAD_REACTORS
330
47
102
}
330
47
100
AcDbScale
 70
     0
300
3" = 1'-0"
140
3.0
141
12.0
290
     0
  0
SCALE
  5
67
102
{ACAD_REACTORS
330
47
102
}
330
47
100
AcDbScale
 70
     0
300
6" = 1'-0"
140
6.0
141
12.0
290
     0
  0
SCALE
  5
68
102
{ACAD_REACTORS
330
47
102
}
330
47
100
AcDbScale
 70
     0
300
1'-0" = 1'-0"
140
12.0
141
12.0
290
     0
  0
ENDSEC
  0
EOF
