  0
SECTION
  2
HEADER
  9
$ACADVER
  1
AC1015
  9
$ACADMAINTVER
 70
     6
  9
$DWGCODEPAGE
  3
ANSI_1254
  9
$INSBASE
 10
0.0
 20
0.0
 30
0.0
  9
$EXTMIN
 10
0.0
 20
0.0
 30
0.0
  9
$EXTMAX
 10
1500.0
 20
1500.0
 30
0.0
  9
$LIMMIN
 10
0.0
 20
0.0
  9
$LIMMAX
 10
1500.0
 20
1500.0
  9
$ORTHOMODE
 70
     0
  9
$REGENMODE
 70
     1
  9
$FILLMODE
 70
     1
  9
$QTEXTMODE
 70
     0
  9
$MIRRTEXT
 70
     1
  9
$LTSCALE
 40
1.0
  9
$ATTMODE
 70
     1
  9
$TEXTSIZE
 40
4.9388888889
  9
$TRACEWID
 40
1.0
  9
$TEXTSTYLE
  7
Standard
  9
$CLAYER
  8
0
  9
$CELTYPE
  6
ByLayer
  9
$CECOLOR
 62
   256
  9
$CELTSCALE
 40
1.0
  9
$DISPSILH
 70
     0
  9
$DIMSCALE
 40
1.0
  9
$DIMASZ
 40
3.65
  9
$DIMEXO
 40
0.5
  9
$DIMDLI
 40
3.75
  9
$DIMRND
 40
0.0
  9
$DIMDLE
 40
0.0
  9
$DIMEXE
 40
1.0
  9
$DIMTP
 40
0.0
  9
$DIMTM
 40
0.0
  9
$DIMTXT
 40
2.6458333333
  9
$DIMCEN
 40
2.5
  9
$DIMTSZ
 40
0.0
  9
$DIMTOL
 70
     0
  9
$DIMLIM
 70
     0
  9
$DIMTIH
 70
     1
  9
$DIMTOH
 70
     1
  9
$DIMSE1
 70
     0
  9
$DIMSE2
 70
     0
  9
$DIMTAD
 70
     1
  9
$DIMZIN
 70
     0
  9
$DIMBLK
  1

  9
$DIMASO
 70
     1
  9
$DIMSHO
 70
     1
  9
$DIMPOST
  1

  9
$DIMAPOST
  1

  9
$DIMALT
 70
     0
  9
$DIMALTD
 70
     3
  9
$DIMALTF
 40
0.0393700787
  9
$DIMLFAC
 40
10.0
  9
$DIMTOFL
 70
     1
  9
$DIMTVP
 40
0.0
  9
$DIMTIX
 70
     0
  9
$DIMSOXD
 70
     0
  9
$DIMSAH
 70
     0
  9
$DIMBLK1
  1

  9
$DIMBLK2
  1

  9
$DIMSTYLE
  2
ISO-25
  9
$DIMCLRD
 70
     0
  9
$DIMCLRE
 70
     0
  9
$DIMCLRT
 70
     0
  9
$DIMTFAC
 40
1.0
  9
$DIMGAP
 40
1.524
  9
$DIMJUST
 70
     0
  9
$DIMSD1
 70
     0
  9
$DIMSD2
 70
     0
  9
$DIMTOLJ
 70
     0
  9
$DIMTZIN
 70
     0
  9
$DIMALTZ
 70
     0
  9
$DIMALTTZ
 70
     0
  9
$DIMUPT
 70
     0
  9
$DIMDEC
 70
     2
  9
$DIMTDEC
 70
     2
  9
$DIMALTU
 70
     2
  9
$DIMALTTD
 70
     3
  9
$DIMTXSTY
  7
Standard
  9
$DIMAUNIT
 70
     0
  9
$DIMADEC
 70
     2
  9
$DIMALTRND
 40
0.0
  9
$DIMAZIN
 70
     0
  9
$DIMDSEP
 70
    44
  9
$DIMATFIT
 70
     3
  9
$DIMFRAC
 70
     0
  9
$DIMLDRBLK
  1

  9
$DIMLUNIT
 70
     2
  9
$DIMLWD
 70
    -2
  9
$DIMLWE
 70
    -2
  9
$DIMTMOVE
 70
     0
  9
$LUNITS
 70
     2
  9
$LUPREC
 70
     2
  9
$SKETCHINC
 40
1.0
  9
$FILLETRAD
 40
10.0
  9
$AUNITS
 70
     0
  9
$AUPREC
 70
     2
  9
$MENU
  1
.
  9
$ELEVATION
 40
0.0
  9
$PELEVATION
 40
0.0
  9
$THICKNESS
 40
0.0
  9
$LIMCHECK
 70
     0
  9
$CHAMFERA
 40
0.0
  9
$CHAMFERB
 40
0.0
  9
$CHAMFERC
 40
0.0
  9
$CHAMFERD
 40
0.0
  9
$SKPOLY
 70
     0
  9
$TDCREATE
 40
2459072.565348426
  9
$TDUCREATE
 40
2459072.440348426
  9
$TDUPDATE
 40
2459072.565349468
  9
$TDUUPDATE
 40
2459072.440349468
  9
$TDINDWG
 40
0.0000000116
  9
$TDUSRTIMER
 40
0.0000000116
  9
$USRTIMER
 70
     1
  9
$ANGBASE
 50
0.0
  9
$ANGDIR
 70
     0
  9
$PDMODE
 70
     0
  9
$PDSIZE
 40
-1.0
  9
$PLINEWID
 40
0.0
  9
$SPLFRAME
 70
     0
  9
$SPLINETYPE
 70
     6
  9
$SPLINESEGS
 70
     8
  9
$HANDSEED
  5
19E
  9
$SURFTAB1
 70
     6
  9
$SURFTAB2
 70
     6
  9
$SURFTYPE
 70
     6
  9
$SURFU
 70
     6
  9
$SURFV
 70
     6
  9
$UCSBASE
  2

  9
$UCSNAME
  2

  9
$UCSORG
 10
0.0
 20
0.0
 30
0.0
  9
$UCSXDIR
 10
1.0
 20
0.0
 30
0.0
  9
$UCSYDIR
 10
0.0
 20
1.0
 30
0.0
  9
$UCSORTHOREF
  2

  9
$UCSORTHOVIEW
 70
     0
  9
$UCSORGTOP
 10
0.0
 20
0.0
 30
0.0
  9
$UCSORGBOTTOM
 10
0.0
 20
0.0
 30
0.0
  9
$UCSORGLEFT
 10
0.0
 20
0.0
 30
0.0
  9
$UCSORGRIGHT
 10
0.0
 20
0.0
 30
0.0
  9
$UCSORGFRONT
 10
0.0
 20
0.0
 30
0.0
  9
$UCSORGBACK
 10
0.0
 20
0.0
 30
0.0
  9
$PUCSBASE
  2

  9
$PUCSNAME
  2

  9
$PUCSORG
 10
0.0
 20
0.0
 30
0.0
  9
$PUCSXDIR
 10
1.0
 20
0.0
 30
0.0
  9
$PUCSYDIR
 10
0.0
 20
1.0
 30
0.0
  9
$PUCSORTHOREF
  2

  9
$PUCSORTHOVIEW
 70
     0
  9
$PUCSORGTOP
 10
0.0
 20
0.0
 30
0.0
  9
$PUCSORGBOTTOM
 10
0.0
 20
0.0
 30
0.0
  9
$PUCSORGLEFT
 10
0.0
 20
0.0
 30
0.0
  9
$PUCSORGRIGHT
 10
0.0
 20
0.0
 30
0.0
  9
$PUCSORGFRONT
 10
0.0
 20
0.0
 30
0.0
  9
$PUCSORGBACK
 10
0.0
 20
0.0
 30
0.0
  9
$USERI1
 70
     0
  9
$USERI2
 70
     0
  9
$USERI3
 70
     0
  9
$USERI4
 70
     0
  9
$USERI5
 70
     0
  9
$USERR1
 40
0.0
  9
$USERR2
 40
0.0
  9
$USERR3
 40
0.0
  9
$USERR4
 40
0.0
  9
$USERR5
 40
0.0
  9
$WORLDVIEW
 70
     1
  9
$SHADEDGE
 70
     3
  9
$SHADEDIF
 70
    70
  9
$TILEMODE
 70
     1
  9
$MAXACTVP
 70
    64
  9
$PINSBASE
 10
0.0
 20
0.0
 30
0.0
  9
$PLIMCHECK
 70
     0
  9
$PEXTMIN
 10
1.0000000000E+20
 20
1.0000000000E+20
 30
1.0000000000E+20
  9
$PEXTMAX
 10
-1.0000000000E+20
 20
-1.0000000000E+20
 30
-1.0000000000E+20
  9
$PLIMMIN
 10
0.0
 20
0.0
  9
$PLIMMAX
 10
420.0
 20
297.0
  9
$UNITMODE
 70
     0
  9
$VISRETAIN
 70
     1
  9
$PLINEGEN
 70
     0
  9
$PSLTSCALE
 70
     1
  9
$TREEDEPTH
 70
  3020
  9
$CMLSTYLE
  2
Standard
  9
$CMLJUST
 70
     0
  9
$CMLSCALE
 40
20.0
  9
$PROXYGRAPHICS
 70
     1
  9
$MEASUREMENT
 70
     1
  9
$CELWEIGHT
370
    -1
  9
$ENDCAPS
280
     0
  9
$JOINSTYLE
280
     0
  9
$LWDISPLAY
290
     1
  9
$INSUNITS
 70
     4
  9
$HYPERLINKBASE
  1

  9
$STYLESHEET
  1

  9
$XEDIT
290
     1
  9
$CEPSNTYPE
380
     0
  9
$PSTYLEMODE
290
     1
  9
$FINGERPRINTGUID
  2
{49d805cb-e833-49ae-ba66-e70e49e74ed9}
  9
$VERSIONGUID
  2
{FAEB1C32-E019-11D5-929B-00C0DF256EC4}
  9
$EXTNAMES
290
     1
  9
$PSVPSCALE
 40
0.0
  9
$OLESTARTUP
290
     0
  0
ENDSEC
  0
SECTION
  2
CLASSES
  0
CLASS
  1
ACDBDICTIONARYWDFLT
  2
AcDbDictionaryWithDefault
  3
ObjectDBX Classes
 90
        0
280
     0
281
     0
  0
CLASS
  1
VISUALSTYLE
  2
AcDbVisualStyle
  3
ObjectDBX Classes
 90
     4095
280
     0
281
     0
  0
CLASS
  1
MATERIAL
  2
AcDbMaterial
  3
ObjectDBX Classes
 90
     1153
280
     0
281
     0
  0
CLASS
  1
SCALE
  2
AcDbScale
  3
ObjectDBX Classes
 90
     1153
280
     0
281
     0
  0
CLASS
  1
TABLESTYLE
  2
AcDbTableStyle
  3
ObjectDBX Classes
 90
     4095
280
     0
281
     0
  0
CLASS
  1
MLEADERSTYLE
  2
AcDbMLeaderStyle
  3
ACDB_MLEADERSTYLE_CLASS
 90
     4095
280
     0
281
     0
  0
CLASS
  1
SUN
  2
AcDbSun
  3
SCENEOE
 90
     1153
280
     0
281
     0
  0
CLASS
  1
ACDBPLACEHOLDER
  2
AcDbPlaceHolder
  3
ObjectDBX Classes
 90
        0
280
     0
281
     0
  0
CLASS
  1
LAYOUT
  2
AcDbLayout
  3
ObjectDBX Classes
 90
        0
280
     0
281
     0
  0
ENDSEC
  0
SECTION
  2
TABLES
  0
TABLE
  2
VPORT
  5
8
330
0
100
AcDbSymbolTable
 70
     1
  0
VPORT
  5
29
330
8
100
AcDbSymbolTableRecord
100
AcDbViewportTableRecord
  2
*Active
 70
     0
 10
0.0
 20
0.0
 11
1.0
 21
1.0
 12
750.0
 22
750.0
 13
0.0
 23
0.0
 14
10.0
 24
10.0
 15
10.0
 25
10.0
 16
0.0
 26
0.0
 36
1.0
 17
0.0
 27
0.0
 37
0.0
 40
1500.0
 41
1.0
 42
50.0
 43
0.0
 44
0.0
 50
0.0
 51
0.0
 71
     0
 72
  2000
 73
     1
 74
     3
 75
     0
 76
     0
 77
     0
 78
     0
281
     0
 65
     1
110
0.0
120
0.0
130
0.0
111
1.0
121
0.0
131
0.0
112
0.0
122
1.0
132
0.0
 79
     0
146
0.0
  0
ENDTAB
  0
TABLE
  2
LTYPE
  5
5
330
0
100
AcDbSymbolTable
 70
     6
  0
LTYPE
  5
14
330
5
100
AcDbSymbolTableRecord
100
AcDbLinetypeTableRecord
  2
ByBlock
 70
     0
  3

 72
    65
 73
     0
 40
0.0
  0
LTYPE
  5
15
330
5
100
AcDbSymbolTableRecord
100
AcDbLinetypeTableRecord
  2
ByLayer
 70
     0
  3

 72
    65
 73
     0
 40
0.0
  0
LTYPE
  5
16
330
5
100
AcDbSymbolTableRecord
100
AcDbLinetypeTableRecord
  2
Continuous
 70
     0
  3
Solid line
 72
    65
 73
     0
 40
0.0
  0
LTYPE
  5
6E
330
5
100
AcDbSymbolTableRecord
100
AcDbLinetypeTableRecord
  2
HIDDEN
 70
     0
  3
Hidden __ __ __ __ __ __ __ __ __ __ __ __ __ __
 72
    65
 73
     2
 40
1.905
 49
1.27
 74
     0
 49
-0.635
 74
     0
  0
LTYPE
  5
6F
330
5
100
AcDbSymbolTableRecord
100
AcDbLinetypeTableRecord
  2
PHANTOM
 70
     0
  3
Phantom ______  __  __  ______  __  __  ______
 72
    65
 73
     6
 40
12.7
 49
6.35
 74
     0
 49
-1.27
 74
     0
 49
1.27
 74
     0
 49
-1.27
 74
     0
 49
1.27
 74
     0
 49
-1.27
 74
     0
  0
LTYPE
  5
70
330
5
100
AcDbSymbolTableRecord
100
AcDbLinetypeTableRecord
  2
CENTER
 70
     0
  3
Center ____ _ ____ _ ____ _ ____ _ ____ _ ____
 72
    65
 73
     4
 40
10.16
 49
6.35
 74
     0
 49
-1.27
 74
     0
 49
1.27
 74
     0
 49
-1.27
 74
     0
  0
LTYPE
  5
71
330
5
100
AcDbSymbolTableRecord
100
AcDbLinetypeTableRecord
  2
CENTERX2
 70
     0
  3
Center (2x) ________  __  ________  __  _____
 72
    65
 73
     4
 40
20.32
 49
12.7
 74
     0
 49
-2.54
 74
     0
 49
2.54
 74
     0
 49
-2.54
 74
     0
  0
LTYPE
  5
72
330
5
100
AcDbSymbolTableRecord
100
AcDbLinetypeTableRecord
  2
DOT2
 70
     0
  3
Dot (.5x) ........................................
 72
    65
 73
     2
 40
0.635
 49
0.0
 74
     0
 49
-0.635
 74
     0
  0
ENDTAB
  0
TABLE
  2
LAYER
  5
2
330
0
100
AcDbSymbolTable
 70
     5
  0
LAYER
  5
10
330
2
100
AcDbSymbolTableRecord
100
AcDbLayerTableRecord
  2
0
 70
     0
 62
     7
  6
Continuous
370
    -3
390
F
  0
LAYER
  5
73
330
2
100
AcDbSymbolTableRecord
100
AcDbLayerTableRecord
  2
FORMAT
 70
     0
 62
     7
  6
Continuous
370
    -3
390
F
  0
LAYER
  5
74
330
2
100
AcDbSymbolTableRecord
100
AcDbLayerTableRecord
  2
SLD-0
 70
     0
 62
   179
  6
Continuous
370
    -3
390
F
  0
LAYER
  5
75
330
2
100
AcDbSymbolTableRecord
100
AcDbLayerTableRecord
  2
AAA_EKSEN
 70
     0
 62
     1
  6
CENTER
370
    -3
390
F
  0
LAYER
  5
76
330
2
100
AcDbSymbolTableRecord
100
AcDbLayerTableRecord
  2
03
 70
     0
 62
     3
  6
HIDDEN
370
    -3
390
F
  0
ENDTAB
  0
TABLE
  2
STYLE
  5
3
330
0
100
AcDbSymbolTable
 70
     1
  0
STYLE
  5
11
330
3
100
AcDbSymbolTableRecord
100
AcDbTextStyleTableRecord
  2
Standard
 70
     0
 40
0.0
 41
1.0
 50
0.0
 71
     0
 42
4.9388888889
  3
txt
  4

  0
ENDTAB
  0
TABLE
  2
VIEW
  5
6
330
0
100
AcDbSymbolTable
 70
     0
  0
ENDTAB
  0
TABLE
  2
UCS
  5
7
330
0
100
AcDbSymbolTable
 70
     0
  0
ENDTAB
  0
TABLE
  2
APPID
  5
9
330
0
100
AcDbSymbolTable
 70
     1
  0
APPID
  5
12
330
9
100
AcDbSymbolTableRecord
100
AcDbRegAppTableRecord
  2
ACAD
 70
     0
  0
ENDTAB
  0
TABLE
  2
DIMSTYLE
  5
A
330
0
100
AcDbSymbolTable
 70
     1
100
AcDbDimStyleTable
  0
DIMSTYLE
105
27
330
A
100
AcDbSymbolTableRecord
100
AcDbDimStyleTableRecord
  2
ISO-25
 70
     0
 41
2.5
 42
0.625
 43
3.75
 44
1.25
 73
     0
 74
     0
 77
     1
 78
     8
140
2.5
141
2.5
143
0.0393700787
147
0.625
171
     3
172
     1
178
     0
271
     2
272
     2
274
     3
278
    44
283
     0
284
     8
340
11
  0
ENDTAB
  0
TABLE
  2
BLOCK_RECORD
  5
1
330
0
100
AcDbSymbolTable
 70
     1
  0
BLOCK_RECORD
  5
1F
330
1
100
AcDbSymbolTableRecord
100
AcDbBlockTableRecord
  2
*Model_Space
340
22
  0
BLOCK_RECORD
  5
1B
330
1
100
AcDbSymbolTableRecord
100
AcDbBlockTableRecord
  2
*Paper_Space
340
1E
  0
BLOCK_RECORD
  5
23
330
1
100
AcDbSymbolTableRecord
100
AcDbBlockTableRecord
  2
*Paper_Space0
340
26
  0
ENDTAB
  0
ENDSEC
  0
SECTION
  2
BLOCKS
  0
BLOCK
  5
20
330
1F
100
AcDbEntity
  8
0
100
AcDbBlockBegin
  2
*Model_Space
 70
     0
 10
0.0
 20
0.0
 30
0.0
  3
*Model_Space
  1

  0
ENDBLK
  5
21
330
1F
100
AcDbEntity
  8
0
100
AcDbBlockEnd
  0
BLOCK
  5
1C
330
1B
100
AcDbEntity
 67
     1
  8
0
100
AcDbBlockBegin
  2
*Paper_Space
 70
     0
 10
0.0
 20
0.0
 30
0.0
  3
*Paper_Space
  1

  0
ENDBLK
  5
1D
330
1B
100
AcDbEntity
 67
     1
  8
0
100
AcDbBlockEnd
  0
BLOCK
  5
24
330
23
100
AcDbEntity
  8
0
100
AcDbBlockBegin
  2
*Paper_Space0
 70
     0
 10
0.0
 20
0.0
 30
0.0
  3
*Paper_Space0
  1

  0
ENDBLK
  5
25
330
23
100
AcDbEntity
  8
0
100
AcDbBlockEnd
  0
ENDSEC
  0
SECTION
  2
ENTITIES
  0
ARC
  5
77
330
1F
100
AcDbEntity
  8
0
  6
Continuous
 62
     7
370
    25
100
AcDbCircle
 10
467.234560357
 20
1249.0372851329
 30
0.0
 40
2.026579787012437
100
AcDbArc
 50
200.0
 51
255.6250378776
  0
ARC
  5
78
330
1F
100
AcDbEntity
  8
0
  6
Continuous
 62
     7
370
    25
100
AcDbCircle
 10
469.1258362144
 20
1249.0372851329
 30
0.0
 40
2.026579787012384
100
AcDbArc
 50
284.3749621224
 51
340.0
  0
LINE
  5
79
330
1F
100
AcDbEntity
  8
0
  6
Continuous
 62
     7
370
    25
100
AcDbLine
 10
465.3301999904
 20
1248.7241544409
 30
0.0
 11
465.3301999904
 21
1248.3441524787
 31
0.0
  0
LINE
  5
7A
330
1F
100
AcDbEntity
  8
0
  6
Continuous
 62
     7
370
    25
100
AcDbLine
 10
471.0301977582
 20
1248.3441524787
 30
0.0
 11
471.0301977582
 21
1248.7241544409
 31
0.0
  0
ARC
  5
7B
330
1F
100
AcDbEntity
  8
0
  6
Continuous
 62
     7
370
    25
100
AcDbCircle
 10
528.234560357
 20
1249.0372851329
 30
0.0
 40
2.026579787012408
100
AcDbArc
 50
200.0
 51
255.6250378776
  0
ARC
  5
7C
330
1F
100
AcDbEntity
  8
0
  6
Continuous
 62
     7
370
    25
100
AcDbCircle
 10
530.1258362144
 20
1249.0372851329
 30
0.0
 40
2.026579787012408
100
AcDbArc
 50
284.3749621224
 51
340.0
  0
LINE
  5
7D
330
1F
100
AcDbEntity
  8
0
  6
Continuous
 62
     7
370
    25
100
AcDbLine
 10
526.3301988132
 20
1248.7241544409
 30
0.0
 11
526.3301988132
 21
1248.3441524787
 31
0.0
  0
LINE
  5
7E
330
1F
100
AcDbEntity
  8
0
  6
Continuous
 62
     7
370
    25
100
AcDbLine
 10
532.030196581
 20
1248.3441524787
 30
0.0
 11
532.030196581
 21
1248.7241544409
 31
0.0
  0
LINE
  5
7F
330
1F
100
AcDbEntity
  8
0
  6
Continuous
 62
     7
370
    25
100
AcDbLine
 10
526.3301988132
 20
1246.3739060445
 30
0.0
 11
526.3301988132
 21
1245.9939115329
 31
0.0
  0
LINE
  5
80
330
1F
100
AcDbEntity
  8
0
  6
Continuous
 62
     7
370
    25
100
AcDbLine
 10
532.030196581
 20
1245.9939115329
 30
0.0
 11
532.030196581
 21
1246.3739060445
 31
0.0
  0
ARC
  5
81
330
1F
100
AcDbEntity
  8
0
  6
Continuous
 62
     7
370
    25
100
AcDbCircle
 10
528.2345603562
 20
1246.6870402046
 30
0.0
 40
2.026579787012573
100
AcDbArc
 50
200.0
 51
255.6250378776
  0
ARC
  5
82
330
1F
100
AcDbEntity
  8
0
  6
Continuous
 62
     7
370
    25
100
AcDbCircle
 10
530.1258362136
 20
1246.6870402046
 30
0.0
 40
2.026579787012573
100
AcDbArc
 50
284.3749621224
 51
340.0
  0
ARC
  5
83
330
1F
100
AcDbEntity
  8
0
  6
Continuous
 62
     7
370
    25
100
AcDbCircle
 10
467.2345603562
 20
1246.6870402046
 30
0.0
 40
2.026579787012587
100
AcDbArc
 50
200.0
 51
255.6250378776
  0
ARC
  5
84
330
1F
100
AcDbEntity
  8
0
  6
Continuous
 62
     7
370
    25
100
AcDbCircle
 10
469.1258362136
 20
1246.6870402046
 30
0.0
 40
2.026579787012573
100
AcDbArc
 50
284.3749621224
 51
340.0
  0
LINE
  5
85
330
1F
100
AcDbEntity
  8
0
  6
Continuous
 62
     7
370
    25
100
AcDbLine
 10
465.3301999904
 20
1246.3739060445
 30
0.0
 11
465.3301999904
 21
1245.9939115329
 31
0.0
  0
LINE
  5
86
330
1F
100
AcDbEntity
  8
0
  6
Continuous
 62
     7
370
    25
100
AcDbLine
 10
471.0301977582
 20
1245.9939115329
 30
0.0
 11
471.0301977582
 21
1246.3739060445
 31
0.0
  0
SPLINE
  5
87
330
1F
100
AcDbEntity
  8
0
  6
Continuous
 62
     7
370
    25
100
AcDbSpline
210
0.0
220
0.0
230
1.0
 70
     8
 71
     3
 72
     9
 73
     5
 74
     0
 42
0.000000001
 43
0.00000001
 40
0.0
 40
0.0
 40
0.0
 40
0.0
 40
0.9906204162443134
 40
1.0
 40
1.0
 40
1.0
 40
1.0
 10
500.4291528137313
 20
1246.073908416798
 30
0.0
 10
500.8953461949652
 20
1246.092612723359
 30
0.0
 10
501.365953678507
 20
1246.111494129653
 30
0.0
 10
501.7284554001225
 20
1246.371467601579
 30
0.0
 10
501.7318555153819
 20
1246.373906044533
 30
0.0
  0
SPLINE
  5
88
330
1F
100
AcDbEntity
  8
0
  6
Continuous
 62
     7
370
    25
100
AcDbSpline
210
0.0
220
0.0
230
1.0
 70
     8
 71
     3
 72
     9
 73
     5
 74
     0
 42
0.000000001
 43
0.00000001
 40
0.0
 40
0.0
 40
0.0
 40
0.0
 40
0.1726559943448117
 40
1.0
 40
1.0
 40
1.0
 40
1.0
 10
495.7163789775135
 20
1246.373906044533
 30
0.0
 10
495.7765454045329
 20
1246.332222601276
 30
0.0
 10
496.1250211539426
 20
1246.090797776062
 30
0.0
 10
496.5645785544303
 20
1246.081555203666
 30
0.0
 10
496.9282437348651
 20
1246.073908416798
 30
0.0
  0
SPLINE
  5
89
330
1F
100
AcDbEntity
  8
0
  6
Continuous
 62
     7
370
    25
100
AcDbSpline
210
0.0
220
0.0
230
1.0
 70
     8
 71
     3
 72
    13
 73
     9
 74
     0
 42
0.000000001
 43
0.00000001
 40
0.0
 40
0.0
 40
0.0
 40
0.0
 40
0.0114064129777445
 40
0.1901517969929798
 40
0.3875989399234106
 40
0.6058121946737143
 40
0.8412964385277331
 40
1.0
 40
1.0
 40
1.0
 40
1.0
 10
518.557052779934
 20
1243.114433495571
 30
0.0
 10
518.5704092733522
 20
1243.119743920303
 30
0.0
 10
518.7930700896792
 20
1243.208271909564
 30
0.0
 10
519.243622809724
 20
1243.518468233264
 30
0.0
 10
519.8722939367805
 20
1244.085594426801
 30
0.0
 10
520.3989793753649
 20
1244.847044605036
 30
0.0
 10
520.7440931588235
 20
1245.632991353297
 30
0.0
 10
520.7932547193489
 20
1246.16225160915
 30
0.0
 10
520.8130476064892
 20
1246.375336556008
 30
0.0
  0
SPLINE
  5
8A
330
1F
100
AcDbEntity
  8
0
  6
Continuous
 62
     7
370
    25
100
AcDbSpline
210
0.0
220
0.0
230
1.0
 70
     8
 71
     3
 72
    13
 73
     9
 74
     0
 42
0.000000001
 43
0.00000001
 40
0.0
 40
0.0
 40
0.0
 40
0.0
 40
0.0366515875370296
 40
0.2265811917262165
 40
0.4043864222061786
 40
0.5686261598711728
 40
0.8578878250096527
 40
1.0
 40
1.0
 40
1.0
 40
1.0
 10
502.0177554804744
 20
1245.852827338745
 30
0.0
 10
502.0258294013145
 20
1245.785914311266
 30
0.0
 10
502.0757426173241
 20
1245.372256008117
 30
0.0
 10
502.4293574560156
 20
1244.692806876845
 30
0.0
 10
503.0214549492722
 20
1243.914400330661
 30
0.0
 10
503.9379824408961
 20
1243.200383094782
 30
0.0
 10
504.9827490676701
 20
1242.767820983224
 30
0.0
 10
505.7546348435355
 20
1242.758061347234
 30
0.0
 10
506.0089255683037
 20
1242.754846124222
 30
0.0
  0
SPLINE
  5
8B
330
1F
100
AcDbEntity
  8
0
  6
Continuous
 62
     7
370
    25
100
AcDbSpline
210
0.0
220
0.0
230
1.0
 70
     8
 71
     3
 72
    11
 73
     7
 74
     0
 42
0.000000001
 43
0.00000001
 40
0.0
 40
0.0
 40
0.0
 40
0.0
 40
0.2100946435484517
 40
0.4768535305830846
 40
0.7555295718911982
 40
1.0
 40
1.0
 40
1.0
 40
1.0
 10
493.5864053666504
 20
1243.354863731434
 30
0.0
 10
493.7605370838695
 20
1243.472788619335
 30
0.0
 10
494.1557652664636
 20
1243.740443701774
 30
0.0
 10
494.6710402128871
 20
1244.320209600347
 30
0.0
 10
495.1011274764699
 20
1245.001410686634
 30
0.0
 10
495.2504891466736
 20
1245.501216965067
 30
0.0
 10
495.3202870208682
 20
1245.734780339768
 30
0.0
  0
SPLINE
  5
8C
330
1F
100
AcDbEntity
  8
0
  6
Continuous
 62
     7
370
    25
100
AcDbSpline
210
0.0
220
0.0
230
1.0
 70
     8
 71
     3
 72
    13
 73
     9
 74
     0
 42
0.000000001
 43
0.00000001
 40
0.0
 40
0.0
 40
0.0
 40
0.0
 40
0.1058152242812374
 40
0.2632590627487378
 40
0.4114911772998379
 40
0.5490247633389355
 40
0.7932181808655329
 40
1.0
 40
1.0
 40
1.0
 40
1.0
 10
476.5447543002578
 20
1246.374151913693
 30
0.0
 10
476.565226145909
 20
1246.154142706469
 30
0.0
 10
476.6161583150321
 20
1245.606778959113
 30
0.0
 10
476.9766032323841
 20
1244.807900791711
 30
0.0
 10
477.526438406674
 20
1244.05567784353
 30
0.0
 10
478.3715441125108
 20
1243.332432079169
 30
0.0
 10
479.5186492346682
 20
1242.799422452327
 30
0.0
 10
480.4388364452383
 20
1242.748789217345
 30
0.0
 10
480.8607620187016
 20
1242.725572793057
 30
0.0
  0
SPLINE
  5
8D
330
1F
100
AcDbEntity
  8
0
  6
Continuous
 62
     7
370
    25
100
AcDbSpline
210
0.0
220
0.0
230
1.0
 70
     8
 71
     3
 72
     9
 73
     5
 74
     0
 42
0.000000001
 43
0.00000001
 40
0.0
 40
0.0
 40
0.0
 40
0.0
 40
0.0639696918941092
 40
0.9999999999999999
 40
0.9999999999999999
 40
0.9999999999999999
 40
0.9999999999999999
 10
493.1570521555753
 20
1243.114433495571
 30
0.0
 10
493.1704147333279
 20
1243.119730000283
 30
0.0
 10
493.3793039331486
 20
1243.202527096133
 30
0.0
 10
493.5821902798755
 20
1243.351498957842
 30
0.0
 10
493.7720980495127
 20
1243.490941135456
 30
0.0
  0
LINE
  5
8E
330
1F
100
AcDbEntity
  8
0
  6
Continuous
 62
     7
370
    25
100
AcDbLine
 10
473.7591479905
 20
1246.3739060445
 30
0.0
 11
473.7747960724
 21
1246.3741519137
 31
0.0
  0
SPLINE
  5
8F
330
1F
100
AcDbEntity
  8
0
  6
Continuous
 62
     7
370
    25
100
AcDbSpline
210
0.0
220
0.0
230
1.0
 70
     8
 71
     3
 72
    13
 73
     9
 74
     0
 42
0.000000001
 43
0.00000001
 40
0.0
 40
0.0
 40
0.0
 40
0.0
 40
0.0535643278199823
 40
0.2752846476158897
 40
0.502218167025466
 40
0.7066728773739822
 40
0.8558656676745722
 40
1.0
 40
1.0
 40
1.0
 40
1.0
 10
483.8912614621134
 20
1242.723911313584
 30
0.0
 10
483.9421887063097
 20
1242.663218678679
 30
0.0
 10
484.2039205163259
 20
1242.351299323155
 30
0.0
 10
484.9000926431896
 20
1242.017072107338
 30
0.0
 10
485.8504770539533
 20
1241.820226494146
 30
0.0
 10
486.7136908656664
 20
1241.941707192911
 30
0.0
 10
487.401570092862
 20
1242.21908367071
 30
0.0
 10
487.7457654995791
 20
1242.48395356473
 30
0.0
 10
487.914895359418
 20
1242.614104656746
 30
0.0
  0
LINE
  5
90
330
1F
100
AcDbEntity
  8
0
  6
Continuous
 62
     7
370
    25
100
AcDbLine
 10
531.3062720932
 20
1246.3739060445
 30
0.0
 11
531.3062720932
 21
1246.3741519137
 31
0.0
  0
LINE
  5
91
330
1F
100
AcDbEntity
  8
0
  6
Continuous
 62
     7
370
    25
100
AcDbLine
 10
527.0511225797
 20
1246.3741519137
 30
0.0
 11
527.0511225797
 21
1246.3739060445
 31
0.0
  0
LINE
  5
92
330
1F
100
AcDbEntity
  8
0
  6
Continuous
 62
     7
370
    25
100
AcDbLine
 10
470.3062732704
 20
1246.3739060445
 30
0.0
 11
470.3062732704
 21
1246.3741519137
 31
0.0
  0
LINE
  5
93
330
1F
100
AcDbEntity
  8
0
  6
Continuous
 62
     7
370
    25
100
AcDbLine
 10
466.0511218943
 20
1246.3741519137
 30
0.0
 11
466.0511218943
 21
1246.3739060445
 31
0.0
  0
LINE
  5
94
330
1F
100
AcDbEntity
  8
0
  6
Continuous
 62
     7
370
    25
100
AcDbLine
 10
558.6801969446
 20
1328.7241540498
 30
0.0
 11
558.6801969446
 21
1248.7241544409
 31
0.0
  0
LINE
  5
95
330
1F
100
AcDbEntity
  8
0
  6
Continuous
 62
     7
370
    25
100
AcDbLine
 10
438.6801996268
 20
1328.7241540498
 30
0.0
 11
558.6801969446
 21
1328.7241540498
 31
0.0
  0
LINE
  5
96
330
1F
100
AcDbEntity
  8
0
  6
Continuous
 62
     7
370
    25
100
AcDbLine
 10
558.6801969446
 20
1248.7241544409
 30
0.0
 11
438.6801996268
 21
1248.7241544409
 31
0.0
  0
LINE
  5
97
330
1F
100
AcDbEntity
  8
0
  6
Continuous
 62
     7
370
    25
100
AcDbLine
 10
438.6801996268
 20
1248.7241544409
 30
0.0
 11
438.6801996268
 21
1328.7241540498
 31
0.0
  0
LINE
  5
98
330
1F
100
AcDbEntity
  8
0
  6
Continuous
 62
     7
370
    25
100
AcDbLine
 10
558.6801969446
 20
338.7241654678
 30
0.0
 11
558.6801969446
 21
1248.7241544409
 31
0.0
  0
LINE
  5
99
330
1F
100
AcDbEntity
  8
0
  6
Continuous
 62
     7
370
    25
100
AcDbLine
 10
438.6801996268
 20
338.7241654678
 30
0.0
 11
438.6801996268
 21
1248.7241544409
 31
0.0
  0
LINE
  5
9A
330
1F
100
AcDbEntity
  8
0
  6
Continuous
 62
     7
370
    25
100
AcDbLine
 10
439.6801979281
 20
1249.7241564675
 30
0.0
 11
439.6801979281
 21
1327.7241541187
 31
0.0
  0
LINE
  5
9B
330
1F
100
AcDbEntity
  8
0
  6
Continuous
 62
     7
370
    25
100
AcDbLine
 10
439.6801979281
 20
1327.7241541187
 30
0.0
 11
557.6801986433
 21
1327.7241541187
 31
0.0
  0
LINE
  5
9C
330
1F
100
AcDbEntity
  8
0
  6
Continuous
 62
     7
370
    25
100
AcDbLine
 10
557.6801986433
 20
1249.7241564675
 30
0.0
 11
439.6801979281
 21
1249.7241564675
 31
0.0
  0
LINE
  5
9D
330
1F
100
AcDbEntity
  8
0
  6
Continuous
 62
     7
370
    25
100
AcDbLine
 10
557.6801986433
 20
1327.7241541187
 30
0.0
 11
557.6801986433
 21
1249.7241564675
 31
0.0
  0
LINE
  5
9E
330
1F
100
AcDbEntity
  8
0
  6
Continuous
 62
     7
370
    25
100
AcDbLine
 10
588.680201862
 20
328.7241750045
 30
0.0
 11
588.680201862
 21
338.7241654678
 31
0.0
  0
LINE
  5
9F
330
1F
100
AcDbEntity
  8
0
  6
Continuous
 62
     7
370
    25
100
AcDbLine
 10
408.6801947094
 20
338.7241654678
 30
0.0
 11
408.6801947094
 21
328.7241750045
 31
0.0
  0
LINE
  5
A0
330
1F
100
AcDbEntity
  8
0
  6
Continuous
 62
     7
370
    25
100
AcDbLine
 10
408.6801947094
 20
328.7241750045
 30
0.0
 11
588.680201862
 21
328.7241750045
 31
0.0
  0
LINE
  5
A1
330
1F
100
AcDbEntity
  8
0
  6
Continuous
 62
     7
370
    25
100
AcDbLine
 10
408.6801947094
 20
338.7241654678
 30
0.0
 11
588.680201862
 21
338.7241654678
 31
0.0
  0
LINE
  5
A2
330
1F
100
AcDbEntity
  8
0
  6
Continuous
 62
     7
370
    25
100
AcDbLine
 10
398.6801967956
 20
328.7241750045
 30
0.0
 11
398.6801967956
 21
338.7241654678
 31
0.0
  0
LINE
  5
A3
330
1F
100
AcDbEntity
  8
0
  6
Continuous
 62
     7
370
    25
100
AcDbLine
 10
408.6801947094
 20
328.7241750045
 30
0.0
 11
398.6801967956
 21
328.7241750045
 31
0.0
  0
LINE
  5
A4
330
1F
100
AcDbEntity
  8
0
  6
Continuous
 62
     7
370
    25
100
AcDbLine
 10
398.6801967956
 20
338.7241654678
 30
0.0
 11
408.6801947094
 21
338.7241654678
 31
0.0
  0
LINE
  5
A5
330
1F
100
AcDbEntity
  8
0
  6
Continuous
 62
     7
370
    25
100
AcDbLine
 10
598.6801997758
 20
338.7241654678
 30
0.0
 11
598.6801997758
 21
328.7241750045
 31
0.0
  0
LINE
  5
A6
330
1F
100
AcDbEntity
  8
0
  6
Continuous
 62
     7
370
    25
100
AcDbLine
 10
598.6801997758
 20
328.7241750045
 30
0.0
 11
588.680201862
 21
328.7241750045
 31
0.0
  0
LINE
  5
A7
330
1F
100
AcDbEntity
  8
0
  6
Continuous
 62
     7
370
    25
100
AcDbLine
 10
588.680201862
 20
338.7241654678
 30
0.0
 11
598.6801997758
 21
338.7241654678
 31
0.0
  0
LINE
  5
A8
330
1F
100
AcDbEntity
  8
0
  6
Continuous
 62
     7
370
    25
100
AcDbLine
 10
465.3301999904
 20
1248.3441524787
 30
0.0
 11
471.0301977582
 21
1248.3441524787
 31
0.0
  0
LINE
  5
A9
330
1F
100
AcDbEntity
  8
0
  6
Continuous
 62
     7
370
    25
100
AcDbLine
 10
466.731426958
 20
1247.0741563125
 30
0.0
 11
469.628968928
 21
1247.0741563125
 31
0.0
  0
LINE
  5
AA
330
1F
100
AcDbEntity
  8
0
  6
Continuous
 62
     7
370
    25
100
AcDbLine
 10
526.3301988132
 20
1248.3441524787
 30
0.0
 11
532.030196581
 21
1248.3441524787
 31
0.0
  0
LINE
  5
AB
330
1F
100
AcDbEntity
  8
0
  6
Continuous
 62
     7
370
    25
100
AcDbLine
 10
527.7314276434
 20
1247.0741563125
 30
0.0
 11
530.6289696135
 21
1247.0741563125
 31
0.0
  0
LINE
  5
AC
330
1F
100
AcDbEntity
  8
0
  6
Continuous
 62
     7
370
    25
100
AcDbLine
 10
526.3301988132
 20
1246.3739060445
 30
0.0
 11
532.030196581
 21
1246.3739060445
 31
0.0
  0
LINE
  5
AD
330
1F
100
AcDbEntity
  8
0
  6
Continuous
 62
     7
370
    25
100
AcDbLine
 10
526.3301988132
 20
1245.9939115329
 30
0.0
 11
532.030196581
 21
1245.9939115329
 31
0.0
  0
LINE
  5
AE
330
1F
100
AcDbEntity
  8
0
  6
Continuous
 62
     7
370
    25
100
AcDbLine
 10
527.7314276434
 20
1244.7239079161
 30
0.0
 11
530.6289696135
 21
1244.7239079161
 31
0.0
  0
LINE
  5
AF
330
1F
100
AcDbEntity
  8
0
  6
Continuous
 62
     7
370
    25
100
AcDbLine
 10
465.3301999904
 20
1245.9939115329
 30
0.0
 11
471.0301977582
 21
1245.9939115329
 31
0.0
  0
LINE
  5
B0
330
1F
100
AcDbEntity
  8
0
  6
Continuous
 62
     7
370
    25
100
AcDbLine
 10
466.731426958
 20
1244.7239079161
 30
0.0
 11
469.628968928
 21
1244.7239079161
 31
0.0
  0
LINE
  5
B1
330
1F
100
AcDbEntity
  8
0
  6
Continuous
 62
     7
370
    25
100
AcDbLine
 10
465.3301999904
 20
1246.3739060445
 30
0.0
 11
471.0301977582
 21
1246.3739060445
 31
0.0
  0
LINE
  5
B2
330
1F
100
AcDbEntity
  8
0
  6
Continuous
 62
     7
370
    25
100
AcDbLine
 10
477.1852266975
 20
1246.3739060445
 30
0.0
 11
520.1718413271
 21
1246.3739060445
 31
0.0
  0
LWPOLYLINE
  5
B3
330
1F
100
AcDbEntity
  8
0
  6
Continuous
 62
     7
370
    25
100
AcDbPolyline
 90
        3
 70
   128
 43
0.0
 10
473.7679080106
 20
1246.3739134951
 10
473.7785344012
 20
1246.3740550561
 10
473.7821386196
 20
1246.3741519137
  0
LWPOLYLINE
  5
B4
330
1F
100
AcDbEntity
  8
0
  6
Continuous
 62
     7
370
    25
100
AcDbPolyline
 90
        3
 70
   128
 43
0.0
 10
473.7734586932
 20
1246.3741519137
 10
473.769863788
 20
1246.3740550561
 10
473.7592280842
 20
1246.3739134951
  0
LWPOLYLINE
  5
B5
330
1F
100
AcDbEntity
  8
0
  6
Continuous
 62
     7
370
    25
100
AcDbPolyline
 90
        3
 70
   128
 43
0.0
 10
464.5747967996
 20
1246.3741519137
 10
464.5706729032
 20
1246.374040155
 10
464.560648147
 20
1246.3739134951
  0
LINE
  5
B6
330
1F
100
AcDbEntity
  8
0
  6
Continuous
 62
     7
370
    25
100
AcDbLine
 10
532.7982471324
 20
1246.3739060445
 30
0.0
 11
532.7826009132
 21
1246.3741519137
 31
0.0
  0
SPLINE
  5
B7
330
1F
100
AcDbEntity
  8
0
  6
Continuous
 62
     7
370
    25
100
AcDbSpline
210
0.0
220
0.0
230
1.0
 70
    24
 71
     3
 72
    19
 73
    15
 74
     0
 42
0.000000001
 43
0.00000001
 40
0.0
 40
0.0
 40
0.0
 40
0.0
 40
0.1197250693412502
 40
0.184811984143923
 40
0.2500023714138245
 40
0.3150900551409815
 40
0.3802789118989554
 40
0.4999999302843978
 40
0.6197209527462638
 40
0.6848116535196126
 40
0.749997576454253
 40
0.8150908688203553
 40
0.8802749187159481
 40
1.0
 40
1.0
 40
1.0
 40
1.0
 10
500.4291528137313
 20
1246.073908416798
 30
0.0
 10
500.4056475631059
 20
1246.073908416798
 30
0.0
 10
500.3693640008596
 20
1246.073908416798
 30
0.0
 10
500.1514228494991
 20
1246.073908416798
 30
0.0
 10
499.9253162011781
 20
1246.073908416798
 30
0.0
 10
499.6467177448023
 20
1246.073908416798
 30
0.0
 10
499.2388131761967
 20
1246.073908416798
 30
0.0
 10
498.6786991712526
 20
1246.073908416798
 30
0.0
 10
498.11876376391
 20
1246.073908416798
 30
0.0
 10
497.7108347940168
 20
1246.073908416798
 30
0.0
 10
497.4323324924007
 20
1246.073908416798
 30
0.0
 10
497.2060750836975
 20
1246.073908416798
 30
0.0
 10
496.9880554409875
 20
1246.073908416798
 30
0.0
 10
496.9517504884872
 20
1246.073908416798
 30
0.0
 10
496.9282437348651
 20
1246.073908416798
 30
0.0
  0
SPLINE
  5
B8
330
1F
100
AcDbEntity
  8
0
  6
Continuous
 62
     7
370
    25
100
AcDbSpline
210
0.0
220
0.0
230
1.0
 70
    24
 71
     3
 72
    16
 73
    12
 74
     0
 42
0.000000001
 43
0.00000001
 40
0.0
 40
0.0
 40
0.0
 40
0.0
 40
0.3249088189200724
 40
0.5953683630206782
 40
0.7272602199869321
 40
0.834791140709459
 40
0.8630603293262384
 40
0.8830297632926062
 40
0.91757810741537
 40
0.9477752691205364
 40
1.0
 40
1.0
 40
1.0
 40
1.0
 10
516.7733483947726
 20
1242.723911313584
 30
0.0
 10
516.5494727201722
 20
1242.723911313584
 30
0.0
 10
516.1392391834215
 20
1242.723911313584
 30
0.0
 10
515.071703420041
 20
1242.723911313584
 30
0.0
 10
513.9559360964613
 20
1242.723911313584
 30
0.0
 10
513.2540027925853
 20
1242.723911313584
 30
0.0
 10
512.7671668151256
 20
1242.723911313584
 30
0.0
 10
512.4848749168347
 20
1242.723911313584
 30
0.0
 10
512.1997457441513
 20
1242.723911313584
 30
0.0
 10
511.8181104581311
 20
1242.723911313584
 30
0.0
 10
511.54913120296
 20
1242.723911313584
 30
0.0
 10
511.3786987028928
 20
1242.723911313584
 30
0.0
  0
SPLINE
  5
B9
330
1F
100
AcDbEntity
  8
0
  6
Continuous
 62
     7
370
    25
100
AcDbSpline
210
0.0
220
0.0
230
1.0
 70
     8
 71
     3
 72
    13
 73
     9
 74
     0
 42
0.000000001
 43
0.00000001
 40
0.0
 40
0.0
 40
0.0
 40
0.0
 40
0.2318174652728259
 40
0.4946629828461026
 40
0.6315918786204757
 40
0.7731185250442383
 40
0.9123014179398461
 40
1.0
 40
1.0
 40
1.0
 40
1.0
 10
511.3786987028928
 20
1242.723911313584
 30
0.0
 10
511.378737878467
 20
1242.767868491805
 30
0.0
 10
511.3788214731452
 20
1242.861666380894
 30
0.0
 10
511.3782720133682
 20
1243.528872281198
 30
0.0
 10
511.3794836184108
 20
1244.317863470376
 30
0.0
 10
511.3787042650406
 20
1245.040372918257
 30
0.0
 10
511.3784530263829
 20
1245.742247672317
 30
0.0
 10
511.3785791648976
 20
1246.197812416363
 30
0.0
 10
511.3786279223772
 20
1246.373906044533
 30
0.0
  0
SPLINE
  5
BA
330
1F
100
AcDbEntity
  8
0
  6
Continuous
 62
     7
370
    25
100
AcDbSpline
210
0.0
220
0.0
230
1.0
 70
     8
 71
     3
 72
     9
 73
     5
 74
     0
 42
0.000000001
 43
0.00000001
 40
0.0
 40
0.0
 40
0.0
 40
0.0
 40
0.4713573390486647
 40
1.0
 40
1.0
 40
1.0
 40
1.0
 10
520.578801352522
 20
1245.378754345944
 30
0.0
 10
520.5739467819991
 20
1245.314081624517
 30
0.0
 10
520.5636476519745
 20
1245.176876332335
 30
0.0
 10
520.4766708885129
 20
1245.070645931664
 30
0.0
 10
520.4306912608357
 20
1245.014488009979
 30
0.0
  0
SPLINE
  5
BB
330
1F
100
AcDbEntity
  8
0
  6
Continuous
 62
     7
370
    25
100
AcDbSpline
210
0.0
220
0.0
230
1.0
 70
     8
 71
     3
 72
     9
 73
     5
 74
     0
 42
0.000000001
 43
0.00000001
 40
0.0
 40
0.0
 40
0.0
 40
0.0
 40
0.450047916714081
 40
1.0
 40
1.0
 40
1.0
 40
1.0
 10
519.4624957628461
 20
1243.747948913147
 30
0.0
 10
519.1366278410243
 20
1243.486811916411
 30
0.0
 10
518.412554004174
 20
1242.906569264379
 30
0.0
 10
517.4635023825778
 20
1242.790615730087
 30
0.0
 10
516.9415694661351
 20
1242.726846842339
 30
0.0
  0
LINE
  5
BC
330
1F
100
AcDbEntity
  8
0
  6
Continuous
 62
     7
370
    25
100
AcDbLine
 10
516.9415787794
 20
1242.726586072
 30
0.0
 11
516.7733483948
 21
1242.7239113136
 31
0.0
  0
SPLINE
  5
BD
330
1F
100
AcDbEntity
  8
0
  6
Continuous
 62
     7
370
    25
100
AcDbSpline
210
0.0
220
0.0
230
1.0
 70
    24
 71
     3
 72
    15
 73
    11
 74
     0
 42
0.000000001
 43
0.00000001
 40
0.0
 40
0.0
 40
0.0
 40
0.0
 40
0.2887825446786372
 40
0.5737623308784384
 40
0.7127350219122542
 40
0.8260389700894688
 40
0.8558258505562746
 40
0.8768673862936286
 40
0.9450309389119103
 40
1.0
 40
1.0
 40
1.0
 40
1.0
 10
506.1107503250154
 20
1242.723911313584
 30
0.0
 10
506.3023154549944
 20
1242.723911313584
 30
0.0
 10
506.6829231389322
 20
1242.723911313584
 30
0.0
 10
507.686918783622
 20
1242.723911313584
 30
0.0
 10
508.8012380326305
 20
1242.723911313584
 30
0.0
 10
509.5034856096033
 20
1242.723911313584
 30
0.0
 10
509.9901660569608
 20
1242.723911313584
 30
0.0
 10
510.3756157703323
 20
1242.723911313584
 30
0.0
 10
510.8284932800859
 20
1242.723911313584
 30
0.0
 10
511.2088840420695
 20
1242.723911313584
 30
0.0
 10
511.3786987028928
 20
1242.723911313584
 30
0.0
  0
LINE
  5
BE
330
1F
100
AcDbEntity
  8
0
  6
Continuous
 62
     7
370
    25
100
AcDbLine
 10
505.9840485454
 20
1242.7239113136
 30
0.0
 11
505.8158172294
 21
1242.726586072
 31
0.0
  0
LINE
  5
BF
330
1F
100
AcDbEntity
  8
0
  6
Continuous
 62
     7
370
    25
100
AcDbLine
 10
505.5132053792
 20
1242.7825846358
 30
0.0
 11
505.8158172294
 21
1242.726586072
 31
0.0
  0
LINE
  5
C0
330
1F
100
AcDbEntity
  8
0
  6
Continuous
 62
     7
370
    25
100
AcDbLine
 10
502.0397062879
 20
1245.6966929718
 30
0.0
 11
502.0023576915
 21
1245.8087869568
 31
0.0
  0
SPLINE
  5
C1
330
1F
100
AcDbEntity
  8
0
  6
Continuous
 62
     7
370
    25
100
AcDbSpline
210
0.0
220
0.0
230
1.0
 70
     8
 71
     3
 72
     9
 73
     5
 74
     0
 42
0.000000001
 43
0.00000001
 40
0.0
 40
0.0
 40
0.0
 40
0.0
 40
0.748857798377169
 40
1.0
 40
1.0
 40
1.0
 40
1.0
 10
502.0023576915177
 20
1245.808786956837
 30
0.0
 10
501.98107760262
 20
1245.921969531951
 30
0.0
 10
501.9526608739117
 20
1246.073109808996
 30
0.0
 10
501.9582992025309
 20
1246.313527113397
 30
0.0
 10
501.9597152247937
 20
1246.373906044533
 30
0.0
  0
LINE
  5
C2
330
1F
100
AcDbEntity
  8
0
  6
Continuous
 62
     7
370
    25
100
AcDbLine
 10
495.265029557
 20
1245.4900883718
 30
0.0
 11
495.2238478698
 21
1245.4046376629
 31
0.0
  0
SPLINE
  5
C3
330
1F
100
AcDbEntity
  8
0
  6
Continuous
 62
     7
370
    25
100
AcDbSpline
210
0.0
220
0.0
230
1.0
 70
     8
 71
     3
 72
    11
 73
     7
 74
     0
 42
0.000000001
 43
0.00000001
 40
0.0
 40
0.0
 40
0.0
 40
0.0
 40
0.0598301217292919
 40
0.3765440263781479
 40
0.6894448985939192
 40
1.0
 40
1.0
 40
1.0
 40
1.0
 10
494.7696683928283
 20
1244.52958187299
 30
0.0
 10
494.7363651643196
 20
1244.461683663573
 30
0.0
 10
494.5267695393802
 20
1244.034362701847
 30
0.0
 10
493.8275618190764
 20
1243.456426504252
 30
0.0
 10
492.762984810041
 20
1242.869667518523
 30
0.0
 10
491.9476855899217
 20
1242.774334169589
 30
0.0
 10
491.541569773099
 20
1242.726846842339
 30
0.0
  0
LINE
  5
C4
330
1F
100
AcDbEntity
  8
0
  6
Continuous
 62
     7
370
    25
100
AcDbLine
 10
491.5415790863
 20
1242.726586072
 30
0.0
 11
491.3733477704
 21
1242.7239113136
 31
0.0
  0
SPLINE
  5
C5
330
1F
100
AcDbEntity
  8
0
  6
Continuous
 62
     7
370
    25
100
AcDbSpline
210
0.0
220
0.0
230
1.0
 70
    24
 71
     3
 72
    16
 73
    12
 74
     0
 42
0.000000001
 43
0.00000001
 40
0.0
 40
0.0
 40
0.0
 40
0.0
 40
0.3249088151262345
 40
0.5953683560687861
 40
0.7272602114949885
 40
0.8347910582529957
 40
0.8630603315737014
 40
0.8830296743482334
 40
0.9175781087969586
 40
0.9477751815268701
 40
1.0
 40
1.0
 40
1.0
 40
1.0
 10
491.3733477704139
 20
1242.723911313584
 30
0.0
 10
491.149472073706
 20
1242.723911313584
 30
0.0
 10
490.7392384964452
 20
1242.723911313584
 30
0.0
 10
489.6717029556083
 20
1242.723911313584
 30
0.0
 10
488.5559353797127
 20
1242.723911313584
 30
0.0
 10
487.8540028618273
 20
1242.723911313584
 30
0.0
 10
487.3671667281138
 20
1242.723911313584
 30
0.0
 10
487.0848746420552
 20
1242.723911313584
 30
0.0
 10
486.799745675401
 20
1242.723911313584
 30
0.0
 10
486.4181102385136
 20
1242.723911313584
 30
0.0
 10
486.1491309123182
 20
1242.723911313584
 30
0.0
 10
485.9786980785342
 20
1242.723911313584
 30
0.0
  0
SPLINE
  5
C6
330
1F
100
AcDbEntity
  8
0
  6
Continuous
 62
     7
370
    25
100
AcDbSpline
210
0.0
220
0.0
230
1.0
 70
     8
 71
     3
 72
    13
 73
     9
 74
     0
 42
0.000000001
 43
0.00000001
 40
0.0
 40
0.0
 40
0.0
 40
0.0
 40
0.2318174652332422
 40
0.4946629827614031
 40
0.6315918786054107
 40
0.7731185250046605
 40
0.9123014179243577
 40
1.0
 40
1.0
 40
1.0
 40
1.0
 10
485.9786980785342
 20
1242.723911313584
 30
0.0
 10
485.9787377926123
 20
1242.767868491777
 30
0.0
 10
485.9788225363753
 20
1242.861666380806
 30
0.0
 10
485.9782705660843
 20
1243.528872281623
 30
0.0
 10
485.979484164792
 20
1244.317863470061
 30
0.0
 10
485.9787049696748
 20
1245.040372918458
 30
0.0
 10
485.9784518128216
 20
1245.742247672302
 30
0.0
 10
485.9785790479697
 20
1246.197812416359
 30
0.0
 10
485.9786282293411
 20
1246.373906044533
 30
0.0
  0
SPLINE
  5
C7
330
1F
100
AcDbEntity
  8
0
  6
Continuous
 62
     7
370
    25
100
AcDbSpline
210
0.0
220
0.0
230
1.0
 70
     8
 71
     3
 72
    10
 73
     6
 74
     0
 42
0.000000001
 43
0.00000001
 40
0.0
 40
0.0
 40
0.0
 40
0.0
 40
0.0736201557583858
 40
0.5501798454381123
 40
1.0
 40
1.0
 40
1.0
 40
1.0
 10
495.3733763657423
 20
1246.373906044533
 30
0.0
 10
495.3742255302247
 20
1246.352283234145
 30
0.0
 10
495.3805715258137
 20
1246.190691149009
 30
0.0
 10
495.3652237176741
 20
1245.94727323098
 30
0.0
 10
495.3309560506585
 20
1245.805569131556
 30
0.0
 10
495.3143167775037
 20
1245.736762194206
 30
0.0
  0
LINE
  5
C8
330
1F
100
AcDbEntity
  8
0
  6
Continuous
 62
     7
370
    25
100
AcDbLine
 10
480.415826384
 20
1242.7268468423
 30
0.0
 11
479.9692944623
 21
1242.8283088489
 31
0.0
  0
SPLINE
  5
C9
330
1F
100
AcDbEntity
  8
0
  6
Continuous
 62
     7
370
    25
100
AcDbSpline
210
0.0
220
0.0
230
1.0
 70
     8
 71
     3
 72
     9
 73
     5
 74
     0
 42
0.000000001
 43
0.00000001
 40
0.0
 40
0.0
 40
0.0
 40
0.0
 40
0.5528289881885005
 40
1.0
 40
1.0
 40
1.0
 40
1.0
 10
476.9357905723067
 20
1244.998201040795
 30
0.0
 10
476.8863210257244
 20
1245.058583580299
 30
0.0
 10
476.796836668646
 20
1245.167808206348
 30
0.0
 10
476.7854630165197
 20
1245.308475800671
 30
0.0
 10
476.7803770489903
 20
1245.371378271153
 30
0.0
  0
SPLINE
  5
CA
330
1F
100
AcDbEntity
  8
0
  6
Continuous
 62
     7
370
    25
100
AcDbSpline
210
0.0
220
0.0
230
1.0
 70
    24
 71
     3
 72
    15
 73
    11
 74
     0
 42
0.000000001
 43
0.00000001
 40
0.0
 40
0.0
 40
0.0
 40
0.0
 40
0.2406899065055969
 40
0.5449400836818116
 40
0.6933101586965247
 40
0.8142757611142395
 40
0.8460768412864503
 40
0.8685412133335911
 40
0.9413140102047615
 40
1.0
 40
1.0
 40
1.0
 40
1.0
 10
480.8605515397998
 20
1242.723911313584
 30
0.0
 10
481.0132561862501
 20
1242.723911313584
 30
0.0
 10
481.3589910117081
 20
1242.723911313584
 30
0.0
 10
482.2886980394886
 20
1242.723911313584
 30
0.0
 10
483.4009659271771
 20
1242.723911313584
 30
0.0
 10
484.1035013301704
 20
1242.723911313584
 30
0.0
 10
484.5901651548457
 20
1242.723911313584
 30
0.0
 10
484.9756170966183
 20
1242.723911313584
 30
0.0
 10
485.4284930390768
 20
1242.723911313584
 30
0.0
 10
485.8088836459121
 20
1242.723911313584
 30
0.0
 10
485.9786980785342
 20
1242.723911313584
 30
0.0
  0
LINE
  5
CB
330
1F
100
AcDbEntity
  8
0
  6
Continuous
 62
     7
370
    25
100
AcDbLine
 10
480.4158170707
 20
1242.726586072
 30
0.0
 11
480.584049318
 21
1242.7239113136
 31
0.0
  0
SPLINE
  5
CC
330
1F
100
AcDbEntity
  8
0
  6
Continuous
 62
     7
370
    25
100
AcDbSpline
210
0.0
220
0.0
230
1.0
 70
     8
 71
     3
 72
     9
 73
     5
 74
     0
 42
0.000000001
 43
0.00000001
 40
0.0
 40
0.0
 40
0.0
 40
0.0
 40
0.9799207232183692
 40
1.0
 40
1.0
 40
1.0
 40
1.0
 10
516.9415787793608
 20
1242.726586072018
 30
0.0
 10
517.1138074051161
 20
1242.734786507036
 30
0.0
 10
517.2895651186476
 20
1242.743154974835
 30
0.0
 10
517.391389579294
 20
1242.825281451246
 30
0.0
 10
517.3934341408225
 20
1242.826930491497
 30
0.0
  0
SPLINE
  5
CD
330
1F
100
AcDbEntity
  8
0
  6
Continuous
 62
     7
370
    25
100
AcDbSpline
210
0.0
220
0.0
230
1.0
 70
     8
 71
     3
 72
     9
 73
     5
 74
     0
 42
0.000000001
 43
0.00000001
 40
0.0
 40
0.0
 40
0.0
 40
0.0
 40
0.0332368320465158
 40
1.0
 40
1.0
 40
1.0
 40
1.0
 10
479.9595826305361
 20
1242.829433886578
 30
0.0
 10
479.9630463427991
 20
1242.82693483394
 30
0.0
 10
480.0672594115444
 20
1242.751745579004
 30
0.0
 10
480.2444834235041
 20
1242.73895323705
 30
0.0
 10
480.4158170707436
 20
1242.726586072018
 30
0.0
  0
LWPOLYLINE
  5
CE
330
1F
100
AcDbEntity
  8
0
  6
Continuous
 62
     7
370
    25
100
AcDbPolyline
 90
        8
 70
   128
 43
0.0
 10
505.6877026334
 20
1242.7728169246
 10
505.8144626208
 20
1242.7266829296
 10
505.8154698461
 20
1242.7266084238
 10
505.8157259598
 20
1242.7265935226
 10
505.8157920837
 20
1242.726586072
 10
505.8158097789
 20
1242.726586072
 10
505.8158172294
 20
1242.726586072
 10
505.8158172294
 20
1242.726586072
  0
SPLINE
  5
CF
330
1F
100
AcDbEntity
  8
0
  6
Continuous
 62
     7
370
    25
100
AcDbSpline
210
0.0
220
0.0
230
1.0
 70
     8
 71
     3
 72
     9
 73
     5
 74
     0
 42
0.000000001
 43
0.00000001
 40
0.0
 40
0.0
 40
0.0
 40
0.0
 40
0.9533029004952945
 40
1.0
 40
1.0
 40
1.0
 40
1.0
 10
491.5415790863248
 20
1242.726586072018
 30
0.0
 10
491.6860257640913
 20
1242.731465737898
 30
0.0
 10
491.8375480952323
 20
1242.736584431944
 30
0.0
 10
491.9237392233943
 20
1242.793985757692
 30
0.0
 10
491.9277640990825
 20
1242.796666233113
 30
0.0
  0
SPLINE
  5
D0
330
1F
100
AcDbEntity
  8
0
  6
Continuous
 62
     7
370
    25
100
AcDbSpline
210
0.0
220
0.0
230
1.0
 70
     8
 71
     3
 72
     9
 73
     5
 74
     0
 42
0.000000001
 43
0.00000001
 40
0.0
 40
0.0
 40
0.0
 40
0.0
 40
0.5000017048034917
 40
0.9999999999999999
 40
0.9999999999999999
 40
0.9999999999999999
 40
0.9999999999999999
 10
500.6114524556236
 20
1245.07390639024
 30
0.0
 10
500.8667442497665
 20
1245.107526724393
 30
0.0
 10
501.3773260971688
 20
1245.174767163437
 30
0.0
 10
501.7940143003157
 20
1245.597447506095
 30
0.0
 10
502.0023576915177
 20
1245.808786956837
 30
0.0
  0
SPLINE
  5
D1
330
1F
100
AcDbEntity
  8
0
  6
Continuous
 62
     7
370
    25
100
AcDbSpline
210
0.0
220
0.0
230
1.0
 70
    24
 71
     3
 72
    13
 73
     9
 74
     0
 42
0.000000001
 43
0.00000001
 40
0.0
 40
0.0
 40
0.0
 40
0.0
 40
0.2394443301889792
 40
0.3697792384076902
 40
0.5000001995530589
 40
0.6303346808234798
 40
0.7605556494278818
 40
1.0
 40
1.0
 40
1.0
 40
1.0
 10
496.3429595343681
 20
1245.07390639024
 30
0.0
 10
496.6400132095093
 20
1245.07390639024
 30
0.0
 10
497.098759848752
 20
1245.07390639024
 30
0.0
 10
497.8618940845474
 20
1245.07390639024
 30
0.0
 10
498.4773846277129
 20
1245.07390639024
 30
0.0
 10
499.0926966254025
 20
1245.07390639024
 30
0.0
 10
499.8557973726026
 20
1245.07390639024
 30
0.0
 10
500.3144004409745
 20
1245.07390639024
 30
0.0
 10
500.6114526884543
 20
1245.07390639024
 30
0.0
  0
ARC
  5
D2
330
1F
100
AcDbEntity
  8
0
  6
Continuous
 62
     7
370
    25
100
AcDbCircle
 10
496.3732804181
 20
1246.7564732948
 30
0.0
 40
1.682840082814466
100
AcDbArc
 50
228.8098712866
 51
268.9676067863
  0
LINE
  5
D3
330
1F
100
AcDbEntity
  8
0
  6
Continuous
 62
     7
370
    25
100
AcDbLine
 10
502.2978828754
 20
1245.0739063902
 30
0.0
 11
500.6114526885
 21
1245.0739063902
 31
0.0
  0
LINE
  5
D4
330
1F
100
AcDbEntity
  8
0
  6
Continuous
 62
     7
370
    25
100
AcDbLine
 10
496.3429595344
 20
1245.0739063902
 30
0.0
 11
495.0914182234
 21
1245.0739063902
 31
0.0
  0
SPLINE
  5
D5
330
1F
100
AcDbEntity
  8
0
  6
Continuous
 62
     7
370
    25
100
AcDbSpline
210
0.0
220
0.0
230
1.0
 70
     8
 71
     3
 72
    11
 73
     7
 74
     0
 42
0.000000001
 43
0.00000001
 40
0.0
 40
0.0
 40
0.0
 40
0.0
 40
0.2499939591115223
 40
0.500008903660905
 40
0.7499948388672298
 40
1.0
 40
1.0
 40
1.0
 40
1.0
 10
463.2224530912848
 20
1246.63248589473
 30
0.0
 10
463.2275543356536
 20
1246.627796282434
 30
0.0
 10
463.2377572526088
 20
1246.618416664179
 30
0.0
 10
463.3067518718751
 20
1246.614419309042
 30
0.0
 10
463.4042317358642
 20
1246.618417434427
 30
0.0
 10
463.4811658588869
 20
1246.627796287749
 30
0.0
 10
463.5196343995543
 20
1246.63248589473
 30
0.0
  0
LINE
  5
D6
330
1F
100
AcDbEntity
  8
0
  6
Continuous
 62
     7
370
    25
100
AcDbLine
 10
463.2224530913
 20
1246.6324858947
 30
0.0
 11
462.9801974632
 21
1248.3562224193
 31
0.0
  0
SPLINE
  5
D7
330
1F
100
AcDbEntity
  8
0
  6
Continuous
 62
     7
370
    25
100
AcDbSpline
210
0.0
220
0.0
230
1.0
 70
    24
 71
     3
 72
    11
 73
     7
 74
     0
 42
0.000000001
 43
0.00000001
 40
0.0
 40
0.0
 40
0.0
 40
0.0
 40
0.249995298854196
 40
0.4999917980387463
 40
0.7500001039105102
 40
0.9999999999999999
 40
0.9999999999999999
 40
0.9999999999999999
 40
0.9999999999999999
 10
463.2801988162013
 20
1248.356222419312
 30
0.0
 10
463.2409467749229
 20
1248.356222419312
 30
0.0
 10
463.162442503901
 20
1248.356222419312
 30
0.0
 10
463.0633687892963
 20
1248.356222419312
 30
0.0
 10
462.9939665552731
 20
1248.356222419312
 30
0.0
 10
462.9847871090777
 20
1248.356222419312
 30
0.0
 10
462.9801974631758
 20
1248.356222419312
 30
0.0
  0
LINE
  5
D8
330
1F
100
AcDbEntity
  8
0
  6
Continuous
 62
     7
370
    25
100
AcDbLine
 10
463.2801988162
 20
1248.3562224193
 30
0.0
 11
463.5196343996
 21
1246.6324858947
 31
0.0
  0
LINE
  5
D9
330
1F
100
AcDbEntity
  8
0
  6
Continuous
 62
     7
370
    25
100
AcDbLine
 10
462.9801974632
 20
1248.3562224193
 30
0.0
 11
462.9801974632
 21
1248.7241544409
 31
0.0
  0
LINE
  5
DA
330
1F
100
AcDbEntity
  8
0
  6
Continuous
 62
     7
370
    25
100
AcDbLine
 10
534.0801977552
 20
1248.3562224193
 30
0.0
 11
534.0830140747
 21
1248.3562224193
 31
0.0
  0
LINE
  5
DB
330
1F
100
AcDbEntity
  8
0
  6
Continuous
 62
     7
370
    25
100
AcDbLine
 10
533.8407621719
 20
1246.6324858947
 30
0.0
 11
534.0830140747
 21
1248.3562224193
 31
0.0
  0
LINE
  5
DC
330
1F
100
AcDbEntity
  8
0
  6
Continuous
 62
     7
370
    25
100
AcDbLine
 10
463.5196343996
 20
1246.6324858947
 30
0.0
 11
533.8407621719
 21
1246.6324858947
 31
0.0
  0
LINE
  5
DD
330
1F
100
AcDbEntity
  8
0
  6
Continuous
 62
     7
370
    25
100
AcDbLine
 10
463.2801988162
 20
1248.3562224193
 30
0.0
 11
465.3301999904
 21
1248.3562224193
 31
0.0
  0
LINE
  5
DE
330
1F
100
AcDbEntity
  8
0
  6
Continuous
 62
     7
370
    25
100
AcDbLine
 10
471.0301977582
 20
1248.3562224193
 30
0.0
 11
526.3301988132
 21
1248.3562224193
 31
0.0
  0
LINE
  5
DF
330
1F
100
AcDbEntity
  8
0
  6
Continuous
 62
     7
370
    25
100
AcDbLine
 10
532.030196581
 20
1248.3562224193
 30
0.0
 11
534.0801977552
 21
1248.3562224193
 31
0.0
  0
SPLINE
  5
E0
330
1F
100
AcDbEntity
  8
0
  6
Continuous
 62
     7
370
    25
100
AcDbSpline
210
0.0
220
0.0
230
1.0
 70
    24
 71
     3
 72
    11
 73
     7
 74
     0
 42
0.000000001
 43
0.00000001
 40
0.0
 40
0.0
 40
0.0
 40
0.0
 40
0.2500092151582679
 40
0.5000174148926816
 40
0.7500144415807284
 40
0.9999999999999999
 40
0.9999999999999999
 40
0.9999999999999999
 40
0.9999999999999999
 10
534.0830140747042
 20
1248.356222419312
 30
0.0
 10
534.1218125860482
 20
1248.356222419312
 30
0.0
 10
534.1994094511542
 20
1248.356222419312
 30
0.0
 10
534.2971689173949
 20
1248.356222419312
 30
0.0
 10
534.3658891317332
 20
1248.356222419312
 30
0.0
 10
534.3754192548449
 20
1248.356222419312
 30
0.0
 10
534.3801842071028
 20
1248.356222419312
 30
0.0
  0
LINE
  5
E1
330
1F
100
AcDbEntity
  8
0
  6
Continuous
 62
     7
370
    25
100
AcDbLine
 10
534.3801991083
 20
1248.7241544409
 30
0.0
 11
534.3801991083
 21
1248.3562224193
 31
0.0
  0
LINE
  5
E2
330
1F
100
AcDbEntity
  8
0
  6
Continuous
 62
     7
370
    25
100
AcDbLine
 10
534.3801991083
 20
1248.3562224193
 30
0.0
 11
534.1379434802
 21
1246.6324858947
 31
0.0
  0
SPLINE
  5
E3
330
1F
100
AcDbEntity
  8
0
  6
Continuous
 62
     7
370
    25
100
AcDbSpline
210
0.0
220
0.0
230
1.0
 70
     8
 71
     3
 72
    11
 73
     7
 74
     0
 42
0.000000001
 43
0.00000001
 40
0.0
 40
0.0
 40
0.0
 40
0.0
 40
0.2500034953630773
 40
0.4999944278690287
 40
0.7500077065835323
 40
1.0
 40
1.0
 40
1.0
 40
1.0
 10
533.8407584465953
 20
1246.63248589473
 30
0.0
 10
533.8792268368644
 20
1246.627796283058
 30
0.0
 10
533.9561616843383
 20
1246.61841729537
 30
0.0
 10
534.053644431362
 20
1246.614419339031
 30
0.0
 10
534.1226392326492
 20
1246.618416647804
 30
0.0
 10
534.1328422070599
 20
1246.627796276976
 30
0.0
 10
534.1379434801551
 20
1246.63248589473
 30
0.0
  0
LINE
  5
E4
330
1F
100
AcDbEntity
  8
0
  6
Continuous
 62
     7
370
    25
100
AcDbLine
 10
533.8407621719
 20
1246.3741519137
 30
0.0
 11
533.8407621719
 21
1246.6324858947
 31
0.0
  0
LINE
  5
E5
330
1F
100
AcDbEntity
  8
0
  6
Continuous
 62
     7
370
    25
100
AcDbLine
 10
463.5196343996
 20
1246.3741519137
 30
0.0
 11
533.8407621719
 21
1246.3741519137
 31
0.0
  0
LINE
  5
E6
330
1F
100
AcDbEntity
  8
0
  6
Continuous
 62
     7
370
    25
100
AcDbLine
 10
463.5196343996
 20
1246.6324858947
 30
0.0
 11
463.5196343996
 21
1246.3741519137
 31
0.0
  0
ARC
  5
E7
330
1F
100
AcDbEntity
  8
0
  6
Continuous
 62
     7
370
    25
100
AcDbCircle
 10
533.8407639432
 20
1246.6742537246
 30
0.0
 40
0.3000997008971353
100
AcDbArc
 50
270.0000000764
 51
352.0000001254
  0
ARC
  5
E8
330
1F
100
AcDbEntity
  8
0
  6
Continuous
 62
     7
370
    25
100
AcDbCircle
 10
463.5196326273
 20
1246.6742537246
 30
0.0
 40
0.3000997008971353
100
AcDbArc
 50
187.9999998772
 51
269.9999999618
  0
LINE
  5
E9
330
1F
100
AcDbEntity
  8
0
  6
Continuous
 62
     7
370
    25
100
AcDbLine
 10
534.0830140747
 20
1248.3562224193
 30
0.0
 11
534.0801977552
 21
1248.3562224193
 31
0.0
  0
LINE
  5
EA
330
1F
100
AcDbEntity
  8
0
  6
Continuous
 62
     8
370
    25
100
AcDbLine
 10
477.1852266975
 20
1246.3739060445
 30
0.0
 11
477.1852266975
 21
1246.3741519137
 31
0.0
  0
LINE
  5
EB
330
1F
100
AcDbEntity
  8
0
  6
Continuous
 62
     8
370
    25
100
AcDbLine
 10
520.1718413271
 20
1246.3739060445
 30
0.0
 11
520.1718413271
 21
1246.3741519137
 31
0.0
  0
LINE
  5
EC
330
1F
100
AcDbEntity
  8
0
  6
Continuous
 62
     8
370
    25
100
AcDbLine
 10
463.2801988162
 20
1248.7241544409
 30
0.0
 11
463.2801988162
 21
1248.3562224193
 31
0.0
  0
LINE
  5
ED
330
1F
100
AcDbEntity
  8
0
  6
Continuous
 62
     8
370
    25
100
AcDbLine
 10
534.0801977552
 20
1248.3562224193
 30
0.0
 11
534.0801977552
 21
1248.7241544409
 31
0.0
  0
ARC
  5
EE
330
1F
100
AcDbEntity
  8
0
  6
Continuous
 62
     7
370
    25
100
AcDbCircle
 10
903.6902038708
 20
1246.6870402046
 30
0.0
 40
2.026579787012601
100
AcDbArc
 50
200.0
 51
255.6250378776
  0
ARC
  5
EF
330
1F
100
AcDbEntity
  8
0
  6
Continuous
 62
     7
370
    25
100
AcDbCircle
 10
905.5814797282
 20
1246.6870402046
 30
0.0
 40
2.026579787012573
100
AcDbArc
 50
284.3749621224
 51
340.0
  0
LINE
  5
F0
330
1F
100
AcDbEntity
  8
0
  6
Continuous
 62
     7
370
    25
100
AcDbLine
 10
901.7858355927
 20
1246.3739060445
 30
0.0
 11
901.7858355927
 21
1245.9939115329
 31
0.0
  0
LINE
  5
F1
330
1F
100
AcDbEntity
  8
0
  6
Continuous
 62
     7
370
    25
100
AcDbLine
 10
907.4858426737
 20
1245.9939115329
 30
0.0
 11
907.4858426737
 21
1246.3739060445
 31
0.0
  0
LINE
  5
F2
330
1F
100
AcDbEntity
  8
0
  6
Continuous
 62
     7
370
    25
100
AcDbLine
 10
1021.8858271527
 20
1248.7241544409
 30
0.0
 11
1021.8858271527
 21
1248.3441524787
 31
0.0
  0
LINE
  5
F3
330
1F
100
AcDbEntity
  8
0
  6
Continuous
 62
     7
370
    25
100
AcDbLine
 10
1027.5858491349
 20
1248.3441524787
 30
0.0
 11
1027.5858491349
 21
1248.7241544409
 31
0.0
  0
ARC
  5
F4
330
1F
100
AcDbEntity
  8
0
  6
Continuous
 62
     7
370
    25
100
AcDbCircle
 10
1023.79020248
 20
1249.0372851329
 30
0.0
 40
2.026579787012437
100
AcDbArc
 50
200.0
 51
255.6250378776
  0
ARC
  5
F5
330
1F
100
AcDbEntity
  8
0
  6
Continuous
 62
     7
370
    25
100
AcDbCircle
 10
1025.6814783375
 20
1249.0372851329
 30
0.0
 40
2.026579787012353
100
AcDbArc
 50
284.3749621224
 51
340.0
  0
LINE
  5
F6
330
1F
100
AcDbEntity
  8
0
  6
Continuous
 62
     7
370
    25
100
AcDbLine
 10
955.9858441042
 20
1246.3739060445
 30
0.0
 11
955.9858441042
 21
1245.9939115329
 31
0.0
  0
LINE
  5
F7
330
1F
100
AcDbEntity
  8
0
  6
Continuous
 62
     7
370
    25
100
AcDbLine
 10
961.6858362841
 20
1245.9939115329
 30
0.0
 11
961.6858362841
 21
1246.3739060445
 31
0.0
  0
ARC
  5
F8
330
1F
100
AcDbEntity
  8
0
  6
Continuous
 62
     7
370
    25
100
AcDbCircle
 10
957.8902024799
 20
1246.6870402046
 30
0.0
 40
2.026579787012544
100
AcDbArc
 50
200.0
 51
255.6250378776
  0
ARC
  5
F9
330
1F
100
AcDbEntity
  8
0
  6
Continuous
 62
     7
370
    25
100
AcDbCircle
 10
959.7814783373
 20
1246.6870402046
 30
0.0
 40
2.026579787012622
100
AcDbArc
 50
284.3749621224
 51
340.0
  0
ARC
  5
FA
330
1F
100
AcDbEntity
  8
0
  6
Continuous
 62
     7
370
    25
100
AcDbCircle
 10
849.4902038697
 20
1246.6870402046
 30
0.0
 40
2.026579787012353
100
AcDbArc
 50
200.0
 51
255.6250378776
  0
ARC
  5
FB
330
1F
100
AcDbEntity
  8
0
  6
Continuous
 62
     7
370
    25
100
AcDbCircle
 10
851.3814797271
 20
1246.6870402046
 30
0.0
 40
2.026579787012353
100
AcDbArc
 50
284.3749621224
 51
340.0
  0
LINE
  5
FC
330
1F
100
AcDbEntity
  8
0
  6
Continuous
 62
     7
370
    25
100
AcDbLine
 10
847.5858419823
 20
1246.3739060445
 30
0.0
 11
847.5858419823
 21
1245.9939115329
 31
0.0
  0
LINE
  5
FD
330
1F
100
AcDbEntity
  8
0
  6
Continuous
 62
     7
370
    25
100
AcDbLine
 10
853.2858416128
 20
1245.9939115329
 30
0.0
 11
853.2858416128
 21
1246.3739060445
 31
0.0
  0
LINE
  5
FE
330
1F
100
AcDbEntity
  8
0
  6
Continuous
 62
     7
370
    25
100
AcDbLine
 10
835.8858376431
 20
1248.7241544409
 30
0.0
 11
835.8858376431
 21
1248.3441524787
 31
0.0
  0
LINE
  5
FF
330
1F
100
AcDbEntity
  8
0
  6
Continuous
 62
     7
370
    25
100
AcDbLine
 10
841.5858372735
 20
1248.3441524787
 30
0.0
 11
841.5858372735
 21
1248.7241544409
 31
0.0
  0
ARC
  5
100
330
1F
100
AcDbEntity
  8
0
  6
Continuous
 62
     7
370
    25
100
AcDbCircle
 10
837.79020248
 20
1249.0372851329
 30
0.0
 40
2.026579787012437
100
AcDbArc
 50
200.0
 51
255.6250378776
  0
ARC
  5
101
330
1F
100
AcDbEntity
  8
0
  6
Continuous
 62
     7
370
    25
100
AcDbCircle
 10
839.6814783375
 20
1249.0372851329
 30
0.0
 40
2.026579787012437
100
AcDbArc
 50
284.3749621224
 51
340.0
  0
ARC
  5
102
330
1F
100
AcDbEntity
  8
0
  6
Continuous
 62
     7
370
    25
100
AcDbCircle
 10
1012.0902038718
 20
1246.6870402046
 30
0.0
 40
2.026579787012573
100
AcDbArc
 50
200.0
 51
255.6250378776
  0
ARC
  5
103
330
1F
100
AcDbEntity
  8
0
  6
Continuous
 62
     7
370
    25
100
AcDbCircle
 10
1013.9814797292
 20
1246.6870402046
 30
0.0
 40
2.026579787012544
100
AcDbArc
 50
284.3749621224
 51
340.0
  0
LINE
  5
104
330
1F
100
AcDbEntity
  8
0
  6
Continuous
 62
     7
370
    25
100
AcDbLine
 10
1010.1858526158
 20
1246.3739060445
 30
0.0
 11
1010.1858526158
 21
1245.9939115329
 31
0.0
  0
LINE
  5
105
330
1F
100
AcDbEntity
  8
0
  6
Continuous
 62
     7
370
    25
100
AcDbLine
 10
1015.8858447956
 20
1245.9939115329
 30
0.0
 11
1015.8858447956
 21
1246.3739060445
 31
0.0
  0
SPLINE
  5
106
330
1F
100
AcDbEntity
  8
0
  6
Continuous
 62
     7
370
    25
100
AcDbSpline
210
0.0
220
0.0
230
1.0
 70
     8
 71
     3
 72
    13
 73
     9
 74
     0
 42
0.000000001
 43
0.00000001
 40
0.0
 40
0.0
 40
0.0
 40
0.0
 40
0.1283931725480676
 40
0.391869318059906
 40
0.5446094753746008
 40
0.7115724337585035
 40
0.8915616355631732
 40
1.0
 40
1.0
 40
1.0
 40
1.0
 10
999.4066506313736
 20
1242.750874964764
 30
0.0
 10
999.6567943983288
 20
1242.75395500541
 30
0.0
 10
1000.420259195002
 20
1242.76335560985
 30
0.0
 10
1001.425242954724
 20
1243.197243051013
 30
0.0
 10
1002.310145109107
 20
1243.906725802713
 30
0.0
 10
1002.899807383467
 20
1244.685794899913
 30
0.0
 10
1003.283631607448
 20
1245.503276624008
 30
0.0
 10
1003.335832641331
 20
1246.061689005244
 30
0.0
 10
1003.355458347743
 20
1246.271631924679
 30
0.0
  0
SPLINE
  5
107
330
1F
100
AcDbEntity
  8
0
  6
Continuous
 62
     7
370
    25
100
AcDbSpline
210
0.0
220
0.0
230
1.0
 70
     8
 71
     3
 72
    13
 73
     9
 74
     0
 42
0.000000001
 43
0.00000001
 40
0.0
 40
0.0
 40
0.0
 40
0.0
 40
0.1261533739571714
 40
0.3850280726958107
 40
0.5351007182983983
 40
0.6991493066328789
 40
0.8759951091357033
 40
1.0
 40
1.0
 40
1.0
 40
1.0
 10
974.0066378998215
 20
1242.750874964764
 30
0.0
 10
974.2567824414141
 20
1242.753955534896
 30
0.0
 10
975.020239396418
 20
1242.763357629695
 30
0.0
 10
976.025374743725
 20
1243.197214534552
 30
0.0
 10
976.9098789023913
 20
1243.906787174067
 30
0.0
 10
977.5009862674946
 20
1244.685542381958
 30
0.0
 10
977.8945275404068
 20
1245.536050518089
 30
0.0
 10
977.9476472062898
 20
1246.129356632985
 30
0.0
 10
977.9695421146805
 20
1246.373906044533
 30
0.0
  0
SPLINE
  5
108
330
1F
100
AcDbEntity
  8
0
  6
Continuous
 62
     7
370
    25
100
AcDbSpline
210
0.0
220
0.0
230
1.0
 70
     8
 71
     3
 72
    13
 73
     9
 74
     0
 42
0.000000001
 43
0.00000001
 40
0.0
 40
0.0
 40
0.0
 40
0.0
 40
0.1261536678612057
 40
0.3850266399736823
 40
0.5350996352058883
 40
0.6991486057302416
 40
0.875994820237067
 40
1.0
 40
1.0
 40
1.0
 40
1.0
 10
872.4066465782578
 20
1242.750874964764
 30
0.0
 10
872.656791216901
 20
1242.753955264865
 30
0.0
 10
873.420243848577
 20
1242.763356478626
 30
0.0
 10
874.4253718004082
 20
1243.197218290295
 30
0.0
 10
875.3098727514493
 20
1243.906786976822
 30
0.0
 10
875.9009800229379
 20
1244.685542441947
 30
0.0
 10
876.2945213214008
 20
1245.53605050787
 30
0.0
 10
876.3476409846503
 20
1246.129356630002
 30
0.0
 10
876.3695358919556
 20
1246.373906044533
 30
0.0
  0
SPLINE
  5
109
330
1F
100
AcDbEntity
  8
0
  6
Continuous
 62
     7
370
    25
100
AcDbSpline
210
0.0
220
0.0
230
1.0
 70
     8
 71
     3
 72
    13
 73
     9
 74
     0
 42
0.000000001
 43
0.00000001
 40
0.0
 40
0.0
 40
0.0
 40
0.0
 40
0.1261536247458945
 40
0.3850265083838231
 40
0.5350994523258525
 40
0.6991483667834856
 40
0.8759945208498997
 40
1.0
 40
1.0
 40
1.0
 40
1.0
 10
948.6066400694306
 20
1242.750874964764
 30
0.0
 10
948.856784702036
 20
1242.753955265698
 30
0.0
 10
949.6202373152845
 20
1242.763356481998
 30
0.0
 10
950.6253654759939
 20
1243.197218264875
 30
0.0
 10
951.5098658573901
 20
1243.906787029924
 30
0.0
 10
952.100975183601
 20
1244.685542211818
 30
0.0
 10
952.4945092009353
 20
1245.536051946524
 30
0.0
 10
952.5476433646778
 20
1246.12935676936
 30
0.0
 10
952.5695442842896
 20
1246.373906044533
 30
0.0
  0
SPLINE
  5
10A
330
1F
100
AcDbEntity
  8
0
  6
Continuous
 62
     7
370
    25
100
AcDbSpline
210
0.0
220
0.0
230
1.0
 70
     8
 71
     3
 72
    13
 73
     9
 74
     0
 42
0.000000001
 43
0.00000001
 40
0.0
 40
0.0
 40
0.0
 40
0.0
 40
0.1261536247458945
 40
0.3850265083838231
 40
0.5350994523258525
 40
0.6991483667834856
 40
0.8759945208498997
 40
1.0
 40
1.0
 40
1.0
 40
1.0
 10
923.2066422390396
 20
1242.750874964764
 30
0.0
 10
923.456786871645
 20
1242.753955265698
 30
0.0
 10
924.2202394848936
 20
1242.763356481998
 30
0.0
 10
925.225367645603
 20
1243.197218264875
 30
0.0
 10
926.1098680269993
 20
1243.906787029924
 30
0.0
 10
926.70097735321
 20
1244.685542211818
 30
0.0
 10
927.0945113705444
 20
1245.536051946524
 30
0.0
 10
927.1476455342869
 20
1246.12935676936
 30
0.0
 10
927.1695464538986
 20
1246.373906044533
 30
0.0
  0
SPLINE
  5
10B
330
1F
100
AcDbEntity
  8
0
  6
Continuous
 62
     7
370
    25
100
AcDbSpline
210
0.0
220
0.0
230
1.0
 70
     8
 71
     3
 72
    13
 73
     9
 74
     0
 42
0.000000001
 43
0.00000001
 40
0.0
 40
0.0
 40
0.0
 40
0.0
 40
0.1261536678612057
 40
0.3850266399736823
 40
0.5350996352058883
 40
0.6991486057302416
 40
0.875994820237067
 40
1.0
 40
1.0
 40
1.0
 40
1.0
 10
897.8066444086487
 20
1242.750874964764
 30
0.0
 10
898.0567890472919
 20
1242.753955264865
 30
0.0
 10
898.8202416789679
 20
1242.763356478626
 30
0.0
 10
899.8253696307992
 20
1243.197218290295
 30
0.0
 10
900.7098705818403
 20
1243.906786976822
 30
0.0
 10
901.3009778533288
 20
1244.685542441947
 30
0.0
 10
901.6945191517918
 20
1245.53605050787
 30
0.0
 10
901.7476388150412
 20
1246.129356630002
 30
0.0
 10
901.7695337223465
 20
1246.373906044533
 30
0.0
  0
SPLINE
  5
10C
330
1F
100
AcDbEntity
  8
0
  6
Continuous
 62
     7
370
    25
100
AcDbSpline
210
0.0
220
0.0
230
1.0
 70
     8
 71
     3
 72
     9
 73
     5
 74
     0
 42
0.000000001
 43
0.00000001
 40
0.0
 40
0.0
 40
0.0
 40
0.0
 40
0.1726627493074099
 40
1.0
 40
1.0
 40
1.0
 40
1.0
 10
979.5696139025147
 20
1246.373906044533
 30
0.0
 10
979.6297837612976
 20
1246.332222562661
 30
0.0
 10
979.9782657530669
 20
1246.090806958897
 30
0.0
 10
980.4178205673495
 20
1246.08155932708
 30
0.0
 10
980.7814806389267
 20
1246.073908416798
 30
0.0
  0
SPLINE
  5
10D
330
1F
100
AcDbEntity
  8
0
  6
Continuous
 62
     7
370
    25
100
AcDbSpline
210
0.0
220
0.0
230
1.0
 70
     8
 71
     3
 72
     9
 73
     5
 74
     0
 42
0.000000001
 43
0.00000001
 40
0.0
 40
0.0
 40
0.0
 40
0.0
 40
0.9903097443419324
 40
1.0
 40
1.0
 40
1.0
 40
1.0
 10
984.2823892521317
 20
1246.073908416798
 30
0.0
 10
984.7485957682044
 20
1246.092605267529
 30
0.0
 10
985.2193641502549
 20
1246.111485068357
 30
0.0
 10
985.5819229068464
 20
1246.371631032789
 30
0.0
 10
985.5854361938889
 20
1246.374151913693
 30
0.0
  0
SPLINE
  5
10E
330
1F
100
AcDbEntity
  8
0
  6
Continuous
 62
     7
370
    25
100
AcDbSpline
210
0.0
220
0.0
230
1.0
 70
     8
 71
     3
 72
     9
 73
     5
 74
     0
 42
0.000000001
 43
0.00000001
 40
0.0
 40
0.0
 40
0.0
 40
0.0
 40
0.9903006653118396
 40
1.0
 40
1.0
 40
1.0
 40
1.0
 10
882.682397930568
 20
1246.073908416798
 30
0.0
 10
883.1485137896696
 20
1246.092726202857
 30
0.0
 10
883.6191949428068
 20
1246.111728296583
 30
0.0
 10
883.9819266164208
 20
1246.371631030094
 30
0.0
 10
883.9854448723252
 20
1246.374151913693
 30
0.0
  0
SPLINE
  5
10F
330
1F
100
AcDbEntity
  8
0
  6
Continuous
 62
     7
370
    25
100
AcDbSpline
210
0.0
220
0.0
230
1.0
 70
     8
 71
     3
 72
     9
 73
     5
 74
     0
 42
0.000000001
 43
0.00000001
 40
0.0
 40
0.0
 40
0.0
 40
0.0
 40
0.1726525363127999
 40
1.0
 40
1.0
 40
1.0
 40
1.0
 10
877.969622580951
 20
1246.373906044533
 30
0.0
 10
878.0297874495857
 20
1246.332222621046
 30
0.0
 10
878.3782611524322
 20
1246.090793074876
 30
0.0
 10
878.817820776911
 20
1246.081553092654
 30
0.0
 10
879.181489317363
 20
1246.073908416798
 30
0.0
  0
SPLINE
  5
110
330
1F
100
AcDbEntity
  8
0
  6
Continuous
 62
     7
370
    25
100
AcDbSpline
210
0.0
220
0.0
230
1.0
 70
     8
 71
     3
 72
     9
 73
     5
 74
     0
 42
0.000000001
 43
0.00000001
 40
0.0
 40
0.0
 40
0.0
 40
0.0
 40
0.9906219872082404
 40
1.0
 40
1.0
 40
1.0
 40
1.0
 10
933.4823935913498
 20
1246.073908416798
 30
0.0
 10
933.9486036208895
 20
1246.09259109023
 30
0.0
 10
934.419227164037
 20
1246.111450628654
 30
0.0
 10
934.7816985451508
 20
1246.371467602031
 30
0.0
 10
934.7850978063996
 20
1246.373906044533
 30
0.0
  0
SPLINE
  5
111
330
1F
100
AcDbEntity
  8
0
  6
Continuous
 62
     7
370
    25
100
AcDbSpline
210
0.0
220
0.0
230
1.0
 70
     8
 71
     3
 72
     9
 73
     5
 74
     0
 42
0.000000001
 43
0.00000001
 40
0.0
 40
0.0
 40
0.0
 40
0.0
 40
0.1726525363127999
 40
1.0
 40
1.0
 40
1.0
 40
1.0
 10
928.7696182417328
 20
1246.373906044533
 30
0.0
 10
928.8297831103675
 20
1246.332222621046
 30
0.0
 10
929.178256813214
 20
1246.090793074876
 30
0.0
 10
929.6178164376929
 20
1246.081553092654
 30
0.0
 10
929.9814849781449
 20
1246.073908416798
 30
0.0
  0
SPLINE
  5
112
330
1F
100
AcDbEntity
  8
0
  6
Continuous
 62
     7
370
    25
100
AcDbSpline
210
0.0
220
0.0
230
1.0
 70
     8
 71
     3
 72
     9
 73
     5
 74
     0
 42
0.000000001
 43
0.00000001
 40
0.0
 40
0.0
 40
0.0
 40
0.0
 40
0.987283465462315
 40
1.0
 40
1.0
 40
1.0
 40
1.0
 10
908.0823957609589
 20
1246.073908416798
 30
0.0
 10
908.5484860372491
 20
1246.092857679085
 30
0.0
 10
909.0205797090214
 20
1246.11205101408
 30
0.0
 10
909.3841571181432
 20
1246.373214998654
 30
0.0
 10
909.3887805628235
 20
1246.376536099484
 30
0.0
  0
SPLINE
  5
113
330
1F
100
AcDbEntity
  8
0
  6
Continuous
 62
     7
370
    25
100
AcDbSpline
210
0.0
220
0.0
230
1.0
 70
     8
 71
     3
 72
     9
 73
     5
 74
     0
 42
0.000000001
 43
0.00000001
 40
0.0
 40
0.0
 40
0.0
 40
0.0
 40
0.1726627493074099
 40
1.0
 40
1.0
 40
1.0
 40
1.0
 10
954.1696160721237
 20
1246.373906044533
 30
0.0
 10
954.2297859309067
 20
1246.332222562661
 30
0.0
 10
954.578267922676
 20
1246.090806958897
 30
0.0
 10
955.0178227369586
 20
1246.08155932708
 30
0.0
 10
955.3814828085358
 20
1246.073908416798
 30
0.0
  0
SPLINE
  5
114
330
1F
100
AcDbEntity
  8
0
  6
Continuous
 62
     7
370
    25
100
AcDbSpline
210
0.0
220
0.0
230
1.0
 70
     8
 71
     3
 72
    12
 73
     8
 74
     0
 42
0.000000001
 43
0.00000001
 40
0.0
 40
0.0
 40
0.0
 40
0.0
 40
0.3058260325515597
 40
0.4426880059258375
 40
0.6752687400455627
 40
0.9302085872384341
 40
1.0
 40
1.0
 40
1.0
 40
1.0
 10
885.2271437334473
 20
1242.190486995747
 30
0.0
 10
885.5068974083437
 20
1242.36390667636
 30
0.0
 10
885.9118452653231
 20
1242.614934399403
 30
0.0
 10
886.3793398558952
 20
1243.171135931455
 30
0.0
 10
886.6964598942171
 20
1243.756661141255
 30
0.0
 10
886.885880382243
 20
1244.340808548651
 30
0.0
 10
886.8635218775947
 20
1244.687388853819
 30
0.0
 10
886.8587165760453
 20
1244.761876074841
 30
0.0
  0
ARC
  5
115
330
1F
100
AcDbEntity
  8
0
  6
Continuous
 62
     7
370
    25
100
AcDbCircle
 10
935.7305644598
 20
1248.0739090954
 30
0.0
 40
3.000000000000227
100
AcDbArc
 50
270.0
 51
302.6326860516
  0
ARC
  5
116
330
1F
100
AcDbEntity
  8
0
  6
Continuous
 62
     7
370
    25
100
AcDbCircle
 10
927.733313561
 20
1248.0739090954
 30
0.0
 40
3.000000000000227
100
AcDbArc
 50
253.5025924681
 51
270.0
  0
SPLINE
  5
117
330
1F
100
AcDbEntity
  8
0
  6
Continuous
 62
     7
370
    25
100
AcDbSpline
210
0.0
220
0.0
230
1.0
 70
     8
 71
     3
 72
     9
 73
     5
 74
     0
 42
0.000000001
 43
0.00000001
 40
0.0
 40
0.0
 40
0.0
 40
0.0
 40
0.1726627493074099
 40
1.0
 40
1.0
 40
1.0
 40
1.0
 10
859.7696125196869
 20
1246.373906044533
 30
0.0
 10
859.8297823784699
 20
1246.332222562661
 30
0.0
 10
860.1782643702392
 20
1246.090806958897
 30
0.0
 10
860.6178191845217
 20
1246.08155932708
 30
0.0
 10
860.981479256099
 20
1246.073908416798
 30
0.0
  0
SPLINE
  5
118
330
1F
100
AcDbEntity
  8
0
  6
Continuous
 62
     7
370
    25
100
AcDbSpline
210
0.0
220
0.0
230
1.0
 70
     8
 71
     3
 72
     9
 73
     5
 74
     0
 42
0.000000001
 43
0.00000001
 40
0.0
 40
0.0
 40
0.0
 40
0.0
 40
0.7291755370648312
 40
1.0
 40
1.0
 40
1.0
 40
1.0
 10
1003.356471626705
 20
1246.271855442097
 30
0.0
 10
1003.50437793804
 20
1246.284641386314
 30
0.0
 10
1003.707218411722
 20
1246.302176182215
 30
0.0
 10
1003.862486058393
 20
1246.425783901627
 30
0.0
 10
1003.904536335414
 20
1246.459259895851
 30
0.0
  0
SPLINE
  5
119
330
1F
100
AcDbEntity
  8
0
  6
Continuous
 62
     7
370
    25
100
AcDbSpline
210
0.0
220
0.0
230
1.0
 70
     8
 71
     3
 72
     9
 73
     5
 74
     0
 42
0.000000001
 43
0.00000001
 40
0.0
 40
0.0
 40
0.0
 40
0.0
 40
0.987283465462315
 40
1.0
 40
1.0
 40
1.0
 40
1.0
 10
908.0823957609589
 20
1246.073908416798
 30
0.0
 10
908.5484860372491
 20
1246.092857679085
 30
0.0
 10
909.0205797090214
 20
1246.11205101408
 30
0.0
 10
909.3841571181432
 20
1246.373214998654
 30
0.0
 10
909.3887805628235
 20
1246.376536099484
 30
0.0
  0
LINE
  5
11A
330
1F
100
AcDbEntity
  8
0
  6
Continuous
 62
     7
370
    25
100
AcDbLine
 10
771.7358395147
 20
1248.7241544409
 30
0.0
 11
771.7358395147
 21
1328.7241540498
 31
0.0
  0
LINE
  5
11B
330
1F
100
AcDbEntity
  8
0
  6
Continuous
 62
     7
370
    25
100
AcDbLine
 10
771.7358395147
 20
1328.7241540498
 30
0.0
 11
1043.735846846
 21
1328.7241540498
 31
0.0
  0
LINE
  5
11C
330
1F
100
AcDbEntity
  8
0
  6
Continuous
 62
     7
370
    25
100
AcDbLine
 10
1043.735846846
 20
1248.7241544409
 30
0.0
 11
1043.735846846
 21
1328.7241540498
 31
0.0
  0
LINE
  5
11D
330
1F
100
AcDbEntity
  8
0
  6
Continuous
 62
     7
370
    25
100
AcDbLine
 10
771.7358395147
 20
1248.7241544409
 30
0.0
 11
1043.735846846
 21
1248.7241544409
 31
0.0
  0
LINE
  5
11E
330
1F
100
AcDbEntity
  8
0
  6
Continuous
 62
     7
370
    25
100
AcDbLine
 10
771.7358395147
 20
338.7241654678
 30
0.0
 11
771.7358395147
 21
1325.7241540237
 31
0.0
  0
LINE
  5
11F
330
1F
100
AcDbEntity
  8
0
  6
Continuous
 62
     7
370
    25
100
AcDbLine
 10
691.7358413028
 20
338.7241654678
 30
0.0
 11
691.7358413028
 21
1325.7241540237
 31
0.0
  0
LINE
  5
120
330
1F
100
AcDbEntity
  8
0
  6
Continuous
 62
     7
370
    25
100
AcDbLine
 10
771.7358395147
 20
1325.7241540237
 30
0.0
 11
691.7358413028
 21
1325.7241540237
 31
0.0
  0
LINE
  5
121
330
1F
100
AcDbEntity
  8
0
  6
Continuous
 62
     7
370
    25
100
AcDbLine
 10
770.7358412134
 20
1328.7241540498
 30
0.0
 11
770.7358412134
 21
1325.7241540237
 31
0.0
  0
LINE
  5
122
330
1F
100
AcDbEntity
  8
0
  6
Continuous
 62
     7
370
    25
100
AcDbLine
 10
692.7358396041
 20
1328.7241540498
 30
0.0
 11
692.7358396041
 21
1325.7241540237
 31
0.0
  0
LINE
  5
123
330
1F
100
AcDbEntity
  8
0
  6
Continuous
 62
     7
370
    25
100
AcDbLine
 10
692.7358396041
 20
1328.7241540498
 30
0.0
 11
770.7358412134
 21
1328.7241540498
 31
0.0
  0
LINE
  5
124
330
1F
100
AcDbEntity
  8
0
  6
Continuous
 62
     7
370
    25
100
AcDbLine
 10
1043.735846846
 20
1249.7241564675
 30
0.0
 11
1046.7358380246
 21
1249.7241564675
 31
0.0
  0
LINE
  5
125
330
1F
100
AcDbEntity
  8
0
  6
Continuous
 62
     7
370
    25
100
AcDbLine
 10
1043.735846846
 20
1327.7241541187
 30
0.0
 11
1046.7358380246
 21
1327.7241541187
 31
0.0
  0
LINE
  5
126
330
1F
100
AcDbEntity
  8
0
  6
Continuous
 62
     7
370
    25
100
AcDbLine
 10
1046.7358380246
 20
1249.7241564675
 30
0.0
 11
1046.7358380246
 21
1327.7241541187
 31
0.0
  0
LINE
  5
127
330
1F
100
AcDbEntity
  8
0
  6
Continuous
 62
     7
370
    25
100
AcDbLine
 10
641.7358368325
 20
338.7241654678
 30
0.0
 11
641.7358368325
 21
328.7241750045
 31
0.0
  0
LINE
  5
128
330
1F
100
AcDbEntity
  8
0
  6
Continuous
 62
     7
370
    25
100
AcDbLine
 10
631.7358389186
 20
328.7241750045
 30
0.0
 11
631.7358389186
 21
338.7241654678
 31
0.0
  0
LINE
  5
129
330
1F
100
AcDbEntity
  8
0
  6
Continuous
 62
     7
370
    25
100
AcDbLine
 10
641.7358368325
 20
328.7241750045
 30
0.0
 11
631.7358389186
 21
328.7241750045
 31
0.0
  0
LINE
  5
12A
330
1F
100
AcDbEntity
  8
0
  6
Continuous
 62
     7
370
    25
100
AcDbLine
 10
631.7358389186
 20
338.7241654678
 30
0.0
 11
641.7358368325
 21
338.7241654678
 31
0.0
  0
LINE
  5
12B
330
1F
100
AcDbEntity
  8
0
  6
Continuous
 62
     7
370
    25
100
AcDbLine
 10
821.735843985
 20
328.7241750045
 30
0.0
 11
821.735843985
 21
338.7241654678
 31
0.0
  0
LINE
  5
12C
330
1F
100
AcDbEntity
  8
0
  6
Continuous
 62
     7
370
    25
100
AcDbLine
 10
641.7358368325
 20
328.7241750045
 30
0.0
 11
821.735843985
 21
328.7241750045
 31
0.0
  0
LINE
  5
12D
330
1F
100
AcDbEntity
  8
0
  6
Continuous
 62
     7
370
    25
100
AcDbLine
 10
641.7358368325
 20
338.7241654678
 30
0.0
 11
821.735843985
 21
338.7241654678
 31
0.0
  0
LINE
  5
12E
330
1F
100
AcDbEntity
  8
0
  6
Continuous
 62
     7
370
    25
100
AcDbLine
 10
831.7358418989
 20
338.7241654678
 30
0.0
 11
831.7358418989
 21
328.7241750045
 31
0.0
  0
LINE
  5
12F
330
1F
100
AcDbEntity
  8
0
  6
Continuous
 62
     7
370
    25
100
AcDbLine
 10
831.7358418989
 20
328.7241750045
 30
0.0
 11
821.735843985
 21
328.7241750045
 31
0.0
  0
LINE
  5
130
330
1F
100
AcDbEntity
  8
0
  6
Continuous
 62
     7
370
    25
100
AcDbLine
 10
821.735843985
 20
338.7241654678
 30
0.0
 11
831.7358418989
 21
338.7241654678
 31
0.0
  0
LINE
  5
131
330
1F
100
AcDbEntity
  8
0
  6
Continuous
 62
     7
370
    25
100
AcDbLine
 10
901.7858355927
 20
1245.9939115329
 30
0.0
 11
907.4858426737
 21
1245.9939115329
 31
0.0
  0
LINE
  5
132
330
1F
100
AcDbEntity
  8
0
  6
Continuous
 62
     7
370
    25
100
AcDbLine
 10
903.1870662856
 20
1244.7239079161
 30
0.0
 11
906.0846119809
 21
1244.7239079161
 31
0.0
  0
LINE
  5
133
330
1F
100
AcDbEntity
  8
0
  6
Continuous
 62
     7
370
    25
100
AcDbLine
 10
1025.272950499
 20
1248.3441524787
 30
0.0
 11
1027.5858491349
 21
1248.3441524787
 31
0.0
  0
LINE
  5
134
330
1F
100
AcDbEntity
  8
0
  6
Continuous
 62
     7
370
    25
100
AcDbLine
 10
1021.8858271527
 20
1248.3441524787
 30
0.0
 11
1025.272950499
 21
1248.3441524787
 31
0.0
  0
LINE
  5
135
330
1F
100
AcDbEntity
  8
0
  6
Continuous
 62
     7
370
    25
100
AcDbLine
 10
1025.0088721203
 20
1247.0741563125
 30
0.0
 11
1026.1846035408
 21
1247.0741563125
 31
0.0
  0
LINE
  5
136
330
1F
100
AcDbEntity
  8
0
  6
Continuous
 62
     7
370
    25
100
AcDbLine
 10
1023.2870727467
 20
1247.0741563125
 30
0.0
 11
1025.0088721203
 21
1247.0741563125
 31
0.0
  0
LINE
  5
137
330
1F
100
AcDbEntity
  8
0
  6
Continuous
 62
     7
370
    25
100
AcDbLine
 10
955.9858441042
 20
1245.9939115329
 30
0.0
 11
961.6858362841
 21
1245.9939115329
 31
0.0
  0
LINE
  5
138
330
1F
100
AcDbEntity
  8
0
  6
Continuous
 62
     7
370
    25
100
AcDbLine
 10
957.3870747971
 20
1244.7239079161
 30
0.0
 11
960.2846055912
 21
1244.7239079161
 31
0.0
  0
LINE
  5
139
330
1F
100
AcDbEntity
  8
0
  6
Continuous
 62
     7
370
    25
100
AcDbLine
 10
847.5858419823
 20
1245.9939115329
 30
0.0
 11
853.2858416128
 21
1245.9939115329
 31
0.0
  0
LINE
  5
13A
330
1F
100
AcDbEntity
  8
0
  6
Continuous
 62
     7
370
    25
100
AcDbLine
 10
848.9870726752
 20
1244.7239079161
 30
0.0
 11
851.8846109199
 21
1244.7239079161
 31
0.0
  0
LINE
  5
13B
330
1F
100
AcDbEntity
  8
0
  6
Continuous
 62
     7
370
    25
100
AcDbLine
 10
839.863680272
 20
1248.3441524787
 30
0.0
 11
841.5858372735
 21
1248.3441524787
 31
0.0
  0
LINE
  5
13C
330
1F
100
AcDbEntity
  8
0
  6
Continuous
 62
     7
370
    25
100
AcDbLine
 10
835.8858376431
 20
1248.3441524787
 30
0.0
 11
839.863680272
 21
1248.3441524787
 31
0.0
  0
LINE
  5
13D
330
1F
100
AcDbEntity
  8
0
  6
Continuous
 62
     7
370
    25
100
AcDbLine
 10
839.3091708111
 20
1247.0741563125
 30
0.0
 11
840.1846140313
 21
1247.0741563125
 31
0.0
  0
LINE
  5
13E
330
1F
100
AcDbEntity
  8
0
  6
Continuous
 62
     7
370
    25
100
AcDbLine
 10
837.287068336
 20
1247.0741563125
 30
0.0
 11
839.3091708111
 21
1247.0741563125
 31
0.0
  0
LINE
  5
13F
330
1F
100
AcDbEntity
  8
0
  6
Continuous
 62
     7
370
    25
100
AcDbLine
 10
1010.1858526158
 20
1245.9939115329
 30
0.0
 11
1015.8858447956
 21
1245.9939115329
 31
0.0
  0
LINE
  5
140
330
1F
100
AcDbEntity
  8
0
  6
Continuous
 62
     7
370
    25
100
AcDbLine
 10
1011.5870684075
 20
1244.7239079161
 30
0.0
 11
1014.4845992016
 21
1244.7239079161
 31
0.0
  0
LINE
  5
141
330
1F
100
AcDbEntity
  8
0
  6
Continuous
 62
     7
370
    25
100
AcDbLine
 10
953.2514959263
 20
1246.3739060445
 30
0.0
 11
953.2358348059
 21
1246.3741519137
 31
0.0
  0
LINE
  5
142
330
1F
100
AcDbEntity
  8
0
  6
Continuous
 62
     7
370
    25
100
AcDbLine
 10
949.8319327521
 20
1246.3741519137
 30
0.0
 11
949.8319327521
 21
1246.3739134951
 31
0.0
  0
LINE
  5
143
330
1F
100
AcDbEntity
  8
0
  6
Continuous
 62
     7
370
    25
100
AcDbLine
 10
895.6111371207
 20
1246.3741519137
 30
0.0
 11
895.6111371207
 21
1246.3739134951
 31
0.0
  0
LINE
  5
144
330
1F
100
AcDbEntity
  8
0
  6
Continuous
 62
     7
370
    25
100
AcDbLine
 10
1007.4526518273
 20
1246.3739060445
 30
0.0
 11
1007.437005608
 21
1246.3741519137
 31
0.0
  0
LINE
  5
145
330
1F
100
AcDbEntity
  8
0
  6
Continuous
 62
     7
370
    25
100
AcDbLine
 10
1004.0331929612
 20
1246.3741519137
 30
0.0
 11
1004.0331929612
 21
1246.3739134951
 31
0.0
  0
LINE
  5
146
330
1F
100
AcDbEntity
  8
0
  6
Continuous
 62
     7
370
    25
100
AcDbLine
 10
1016.6514962601
 20
1246.3739060445
 30
0.0
 11
1016.6358500409
 21
1246.3741519137
 31
0.0
  0
LINE
  5
147
330
1F
100
AcDbEntity
  8
0
  6
Continuous
 62
     7
370
    25
100
AcDbLine
 10
846.8456640529
 20
1246.375016181
 30
0.0
 11
846.8456715035
 21
1246.375016181
 31
0.0
  0
SPLINE
  5
148
330
1F
100
AcDbEntity
  8
0
  6
Continuous
 62
     7
370
    25
100
AcDbSpline
210
0.0
220
0.0
230
1.0
 70
    24
 71
     3
 72
    13
 73
     9
 74
     0
 42
0.000000001
 43
0.00000001
 40
0.0
 40
0.0
 40
0.0
 40
0.0
 40
0.3712786082290425
 40
0.680337141788381
 40
0.8310520509257326
 40
0.9539293883896585
 40
0.9862330514305317
 40
1.0
 40
1.0
 40
1.0
 40
1.0
 10
991.9344037460739
 20
1242.723911313584
 30
0.0
 10
993.0143478203935
 20
1242.723911313584
 30
0.0
 10
994.9932554345928
 20
1242.723911313584
 30
0.0
 10
997.2577866949819
 20
1242.723911313584
 30
0.0
 10
998.5900334084968
 20
1242.723911313584
 30
0.0
 10
999.1720207336315
 20
1242.723911313584
 30
0.0
 10
999.3935130662403
 20
1242.723911313584
 30
0.0
 10
999.4047753272638
 20
1242.723911313584
 30
0.0
 10
999.408140747493
 20
1242.723911313584
 30
0.0
  0
LINE
  5
149
330
1F
100
AcDbEntity
  8
0
  6
Continuous
 62
     7
370
    25
100
AcDbLine
 10
991.7881339478
 20
1242.726586072
 30
0.0
 11
991.9344037461
 21
1242.7239113136
 31
0.0
  0
SPLINE
  5
14A
330
1F
100
AcDbEntity
  8
0
  6
Continuous
 62
     7
370
    25
100
AcDbSpline
210
0.0
220
0.0
230
1.0
 70
    24
 71
     3
 72
    13
 73
     9
 74
     0
 42
0.000000001
 43
0.00000001
 40
0.0
 40
0.0
 40
0.0
 40
0.0
 40
0.3712788477550427
 40
0.6803360816636539
 40
0.8310523665046352
 40
0.9539297832414212
 40
0.9862328444071947
 40
1.0
 40
1.0
 40
1.0
 40
1.0
 10
966.534405915683
 20
1242.723911313584
 30
0.0
 10
967.6143497471112
 20
1242.723911313584
 30
0.0
 10
969.5932525559658
 20
1242.723911313584
 30
0.0
 10
971.8577859969728
 20
1242.723911313584
 30
0.0
 10
973.1900177917623
 20
1242.723911313584
 30
0.0
 10
973.7720575388407
 20
1242.723911313584
 30
0.0
 10
973.9934894714058
 20
1242.723911313584
 30
0.0
 10
974.004771507915
 20
1242.723911313584
 30
0.0
 10
974.0081429171021
 20
1242.723911313584
 30
0.0
  0
LINE
  5
14B
330
1F
100
AcDbEntity
  8
0
  6
Continuous
 62
     7
370
    25
100
AcDbLine
 10
966.3881361174
 20
1242.726586072
 30
0.0
 11
966.5344059157
 21
1242.7239113136
 31
0.0
  0
SPLINE
  5
14C
330
1F
100
AcDbEntity
  8
0
  6
Continuous
 62
     7
370
    25
100
AcDbSpline
210
0.0
220
0.0
230
1.0
 70
    24
 71
     3
 72
    13
 73
     9
 74
     0
 42
0.000000001
 43
0.00000001
 40
0.0
 40
0.0
 40
0.0
 40
0.0
 40
0.3712775749095812
 40
0.6803365999200104
 40
0.8310530271903839
 40
0.9539295413614719
 40
0.9862326330541747
 40
1.0
 40
1.0
 40
1.0
 40
1.0
 10
864.9344145941193
 20
1242.723911313584
 30
0.0
 10
866.0143526025402
 20
1242.723911313584
 30
0.0
 10
867.9932530329052
 20
1242.723911313584
 30
0.0
 10
870.257792896006
 20
1242.723911313584
 30
0.0
 10
871.5900220960746
 20
1242.723911313584
 30
0.0
 10
872.172066587283
 20
1242.723911313584
 30
0.0
 10
872.393473546744
 20
1242.723911313584
 30
0.0
 10
872.4047744994987
 20
1242.723911313584
 30
0.0
 10
872.4081515955384
 20
1242.723911313584
 30
0.0
  0
LINE
  5
14D
330
1F
100
AcDbEntity
  8
0
  6
Continuous
 62
     7
370
    25
100
AcDbLine
 10
864.7881447958
 20
1242.726586072
 30
0.0
 11
864.9344145941
 21
1242.7239113136
 31
0.0
  0
SPLINE
  5
14E
330
1F
100
AcDbEntity
  8
0
  6
Continuous
 62
     7
370
    25
100
AcDbSpline
210
0.0
220
0.0
230
1.0
 70
    24
 71
     3
 72
    13
 73
     9
 74
     0
 42
0.000000001
 43
0.00000001
 40
0.0
 40
0.0
 40
0.0
 40
0.0
 40
0.3712789947705752
 40
0.6803363510567851
 40
0.8310526955769941
 40
0.9539291422832945
 40
0.9862328389558049
 40
1.0
 40
1.0
 40
1.0
 40
1.0
 10
941.1344080852921
 20
1242.723911313584
 30
0.0
 10
942.2143532359194
 20
1242.723911313584
 30
0.0
 10
944.1932584620912
 20
1242.723911313584
 30
0.0
 10
946.4577786235158
 20
1242.723911313584
 30
0.0
 10
947.790032639594
 20
1242.723911313584
 30
0.0
 10
948.3720253452572
 20
1242.723911313584
 30
0.0
 10
948.5934928055559
 20
1242.723911313584
 30
0.0
 10
948.6047739805397
 20
1242.723911313584
 30
0.0
 10
948.6081450867111
 20
1242.723911313584
 30
0.0
  0
LINE
  5
14F
330
1F
100
AcDbEntity
  8
0
  6
Continuous
 62
     7
370
    25
100
AcDbLine
 10
940.988138287
 20
1242.726586072
 30
0.0
 11
941.1344080853
 21
1242.7239113136
 31
0.0
  0
SPLINE
  5
150
330
1F
100
AcDbEntity
  8
0
  6
Continuous
 62
     7
370
    25
100
AcDbSpline
210
0.0
220
0.0
230
1.0
 70
    24
 71
     3
 72
    13
 73
     9
 74
     0
 42
0.000000001
 43
0.00000001
 40
0.0
 40
0.0
 40
0.0
 40
0.0
 40
0.3712789947705752
 40
0.6803363510567851
 40
0.8310526955769941
 40
0.9539291422832945
 40
0.9862328389558049
 40
1.0
 40
1.0
 40
1.0
 40
1.0
 10
915.7344102549011
 20
1242.723911313584
 30
0.0
 10
916.8143554055284
 20
1242.723911313584
 30
0.0
 10
918.7932606317004
 20
1242.723911313584
 30
0.0
 10
921.0577807931248
 20
1242.723911313584
 30
0.0
 10
922.3900348092031
 20
1242.723911313584
 30
0.0
 10
922.9720275148662
 20
1242.723911313584
 30
0.0
 10
923.193494975165
 20
1242.723911313584
 30
0.0
 10
923.2047761501487
 20
1242.723911313584
 30
0.0
 10
923.2081472563202
 20
1242.723911313584
 30
0.0
  0
LINE
  5
151
330
1F
100
AcDbEntity
  8
0
  6
Continuous
 62
     7
370
    25
100
AcDbLine
 10
915.5881404566
 20
1242.726586072
 30
0.0
 11
915.7344102549
 21
1242.7239113136
 31
0.0
  0
SPLINE
  5
152
330
1F
100
AcDbEntity
  8
0
  6
Continuous
 62
     7
370
    25
100
AcDbSpline
210
0.0
220
0.0
230
1.0
 70
    24
 71
     3
 72
    13
 73
     9
 74
     0
 42
0.000000001
 43
0.00000001
 40
0.0
 40
0.0
 40
0.0
 40
0.0
 40
0.3712774173494012
 40
0.6803363112035232
 40
0.8310526745139137
 40
0.9539291365395262
 40
0.9862328372394188
 40
0.9999999999999999
 40
0.9999999999999999
 40
0.9999999999999999
 40
0.9999999999999999
 10
890.3344124245102
 20
1242.723911313584
 30
0.0
 10
891.4143519266821
 20
1242.723911313584
 30
0.0
 10
893.3932550942271
 20
1242.723911313584
 30
0.0
 10
895.6577799204955
 20
1242.723911313584
 30
0.0
 10
896.9900369197592
 20
1242.723911313584
 30
0.0
 10
897.572029687904
 20
1242.723911313584
 30
0.0
 10
897.7934971446342
 20
1242.723911313584
 30
0.0
 10
897.8047783197258
 20
1242.723911313584
 30
0.0
 10
897.8081494259293
 20
1242.723911313584
 30
0.0
  0
LINE
  5
153
330
1F
100
AcDbEntity
  8
0
  6
Continuous
 62
     7
370
    25
100
AcDbLine
 10
890.1881426262
 20
1242.726586072
 30
0.0
 11
890.3344124245
 21
1242.7239113136
 31
0.0
  0
SPLINE
  5
154
330
1F
100
AcDbEntity
  8
0
  6
Continuous
 62
     7
370
    25
100
AcDbSpline
210
0.0
220
0.0
230
1.0
 70
     8
 71
     3
 72
    15
 73
    11
 74
     0
 42
0.000000001
 43
0.00000001
 40
0.0
 40
0.0
 40
0.0
 40
0.0
 40
0.0805958172986115
 40
0.2118432759854222
 40
0.4658268705096617
 40
0.7221945509250212
 40
0.7463934408077136
 40
0.7889581795438472
 40
0.8571996276095574
 40
1.0
 40
1.0
 40
1.0
 40
1.0
 10
860.971331565326
 20
1246.373906044533
 30
0.0
 10
860.9831593862609
 20
1246.211003823866
 30
0.0
 10
861.0142483983043
 20
1245.782821056471
 30
0.0
 10
861.3204763527636
 20
1244.902413636382
 30
0.0
 10
862.023190517911
 20
1243.836994937759
 30
0.0
 10
862.9193502352286
 20
1243.230622447486
 30
0.0
 10
863.4859473709053
 20
1242.993737232205
 30
0.0
 10
863.725917724554
 20
1242.906519375574
 30
0.0
 10
864.1962795031235
 20
1242.774848034937
 30
0.0
 10
864.5492852536105
 20
1242.746063190396
 30
0.0
 10
864.7881447958405
 20
1242.726586072018
 30
0.0
  0
SPLINE
  5
155
330
1F
100
AcDbEntity
  8
0
  6
Continuous
 62
     7
370
    25
100
AcDbSpline
210
0.0
220
0.0
230
1.0
 70
     8
 71
     3
 72
    15
 73
    11
 74
     0
 42
0.000000001
 43
0.00000001
 40
0.0
 40
0.0
 40
0.0
 40
0.0
 40
0.0805958403615961
 40
0.2118433366056675
 40
0.4658270038088614
 40
0.7221986700307577
 40
0.7463932845572212
 40
0.7889602110161629
 40
0.8572016786095796
 40
1.0
 40
1.0
 40
1.0
 40
1.0
 10
987.9713207172806
 20
1246.373906044533
 30
0.0
 10
987.9831484730224
 20
1246.211003742244
 30
0.0
 10
988.0142373137076
 20
1245.782820760308
 30
0.0
 10
988.3204678626046
 20
1244.902416588468
 30
0.0
 10
989.0231658626072
 20
1243.836965789124
 30
0.0
 10
989.9193864964681
 20
1243.2306699368
 30
0.0
 10
990.4859435151823
 20
1242.993726997133
 30
0.0
 10
990.7259218829419
 20
1242.906526049975
 30
0.0
 10
991.1962773649443
 20
1242.77484536099
 30
0.0
 10
991.5492785954262
 20
1242.746062056245
 30
0.0
 10
991.7881339477951
 20
1242.726586072018
 30
0.0
  0
SPLINE
  5
156
330
1F
100
AcDbEntity
  8
0
  6
Continuous
 62
     7
370
    25
100
AcDbSpline
210
0.0
220
0.0
230
1.0
 70
     8
 71
     3
 72
    15
 73
    11
 74
     0
 42
0.000000001
 43
0.00000001
 40
0.0
 40
0.0
 40
0.0
 40
0.0
 40
0.0805968245863702
 40
0.2118450860746983
 40
0.4658288128955878
 40
0.7221966268494354
 40
0.7463955293370054
 40
0.7889602902445407
 40
0.8571995532267576
 40
1.0
 40
1.0
 40
1.0
 40
1.0
 10
962.5713377880509
 20
1246.373913495114
 30
0.0
 10
962.5831588510787
 20
1246.211008455596
 30
0.0
 10
962.6142299773605
 20
1245.782819971799
 30
0.0
 10
962.9204970009503
 20
1244.902418632447
 30
0.0
 10
963.6231912007692
 20
1243.836993511531
 30
0.0
 10
964.5193567159162
 20
1243.230622636485
 30
0.0
 10
965.0859535269869
 20
1242.993737169199
 30
0.0
 10
965.3259205396591
 20
1242.9065213912
 30
0.0
 10
965.7962723659024
 20
1242.77484465665
 30
0.0
 10
966.1492756981332
 20
1242.746061949244
 30
0.0
 10
966.3881361174042
 20
1242.726586072018
 30
0.0
  0
SPLINE
  5
157
330
1F
100
AcDbEntity
  8
0
  6
Continuous
 62
     7
370
    25
100
AcDbSpline
210
0.0
220
0.0
230
1.0
 70
     8
 71
     3
 72
    15
 73
    11
 74
     0
 42
0.000000001
 43
0.00000001
 40
0.0
 40
0.0
 40
0.0
 40
0.0
 40
0.0805958349727153
 40
0.2118433224411835
 40
0.4658269726622639
 40
0.7221966655154665
 40
0.7463955607048077
 40
0.7889581332638395
 40
0.857199596294426
 40
0.9999999999999999
 40
0.9999999999999999
 40
0.9999999999999999
 40
0.9999999999999999
 10
911.7713272261078
 20
1246.373906044533
 30
0.0
 10
911.7831550413636
 20
1246.211003817161
 30
0.0
 10
911.8142440384793
 20
1245.782821032142
 30
0.0
 10
912.1204722189481
 20
1244.902413878891
 30
0.0
 10
912.8231867451738
 20
1243.836989828528
 30
0.0
 10
913.7193560860937
 20
1243.23062228146
 30
0.0
 10
914.2859546398572
 20
1242.99373948074
 30
0.0
 10
914.5259153213783
 20
1242.906515498507
 30
0.0
 10
914.9962766005493
 20
1242.774849915606
 30
0.0
 10
915.3492814941799
 20
1242.746063949379
 30
0.0
 10
915.5881404566223
 20
1242.726586072018
 30
0.0
  0
SPLINE
  5
158
330
1F
100
AcDbEntity
  8
0
  6
Continuous
 62
     7
370
    25
100
AcDbSpline
210
0.0
220
0.0
230
1.0
 70
     8
 71
     3
 72
    15
 73
    11
 74
     0
 42
0.000000001
 43
0.00000001
 40
0.0
 40
0.0
 40
0.0
 40
0.0
 40
0.0805958172986115
 40
0.2118432759854222
 40
0.4658268705096617
 40
0.7221945509250212
 40
0.7463934408077136
 40
0.7889581795438472
 40
0.8571996276095574
 40
1.0
 40
1.0
 40
1.0
 40
1.0
 10
886.3713293957169
 20
1246.373906044533
 30
0.0
 10
886.3831572166519
 20
1246.211003823866
 30
0.0
 10
886.4142462286952
 20
1245.782821056471
 30
0.0
 10
886.7204741831546
 20
1244.902413636382
 30
0.0
 10
887.4231883483019
 20
1243.836994937759
 30
0.0
 10
888.3193480656195
 20
1243.230622447486
 30
0.0
 10
888.8859452012962
 20
1242.993737232205
 30
0.0
 10
889.125915554945
 20
1242.906519375574
 30
0.0
 10
889.5962773335144
 20
1242.774848034937
 30
0.0
 10
889.9492830840014
 20
1242.746063190396
 30
0.0
 10
890.1881426262314
 20
1242.726586072018
 30
0.0
  0
SPLINE
  5
159
330
1F
100
AcDbEntity
  8
0
  6
Continuous
 62
     7
370
    25
100
AcDbSpline
210
0.0
220
0.0
230
1.0
 70
     8
 71
     3
 72
    15
 73
    11
 74
     0
 42
0.000000001
 43
0.00000001
 40
0.0
 40
0.0
 40
0.0
 40
0.0
 40
0.0805956475271787
 40
0.2118432501262069
 40
0.4658284603045143
 40
0.7221964218258226
 40
0.7463953382424834
 40
0.7889579481374894
 40
0.8571994710296247
 40
1.0
 40
1.0
 40
1.0
 40
1.0
 10
937.1713399576599
 20
1246.373906044533
 30
0.0
 10
937.1831618990113
 20
1246.211003760569
 30
0.0
 10
937.2142355184377
 20
1245.782819977117
 30
0.0
 10
937.5204732418433
 20
1244.902410338099
 30
0.0
 10
938.2232004332643
 20
1243.837000067184
 30
0.0
 10
939.1193571146774
 20
1243.230620571838
 30
0.0
 10
939.6859524941143
 20
1242.99373950909
 30
0.0
 10
939.9259131389612
 20
1242.906515483292
 30
0.0
 10
940.3962744397072
 20
1242.77484992602
 30
0.0
 10
940.749279328109
 20
1242.746063953581
 30
0.0
 10
940.9881382870133
 20
1242.726586072018
 30
0.0
  0
SPLINE
  5
15A
330
1F
100
AcDbEntity
  8
0
  6
Continuous
 62
     7
370
    25
100
AcDbSpline
210
0.0
220
0.0
230
1.0
 70
    24
 71
     3
 72
    12
 73
     8
 74
     0
 42
0.000000001
 43
0.00000001
 40
0.0
 40
0.0
 40
0.0
 40
0.0
 40
0.2478696769056345
 40
0.3755998147303702
 40
0.503515911681093
 40
0.7478524624918015
 40
1.0
 40
1.0
 40
1.0
 40
1.0
 10
982.5319498466904
 20
1246.073908416798
 30
0.0
 10
982.3043583243726
 20
1246.073908416798
 30
0.0
 10
981.9594862339909
 20
1246.073908416798
 30
0.0
 10
981.5512059378669
 20
1246.073908416798
 30
0.0
 10
981.199665913246
 20
1246.073908416798
 30
0.0
 10
980.8605196010056
 20
1246.073908416798
 30
0.0
 10
980.8081018488352
 20
1246.073908416798
 30
0.0
 10
980.7814806389267
 20
1246.073908416798
 30
0.0
  0
SPLINE
  5
15B
330
1F
100
AcDbEntity
  8
0
  6
Continuous
 62
     7
370
    25
100
AcDbSpline
210
0.0
220
0.0
230
1.0
 70
    24
 71
     3
 72
    13
 73
     9
 74
     0
 42
0.000000001
 43
0.00000001
 40
0.0
 40
0.0
 40
0.0
 40
0.0
 40
0.2394444393991251
 40
0.36962734843944
 40
0.5000001827941337
 40
0.6301793724125094
 40
0.7605583595474954
 40
0.9999999999999999
 40
0.9999999999999999
 40
0.9999999999999999
 40
0.9999999999999999
 10
984.2823892521317
 20
1246.073908416798
 30
0.0
 10
984.2588803753473
 20
1246.073908416798
 30
0.0
 10
984.2225900200048
 20
1246.073908416798
 30
0.0
 10
984.0046597193424
 20
1246.073908416798
 30
0.0
 10
983.7785465151679
 20
1246.073908416798
 30
0.0
 10
983.499976535557
 20
1246.073908416798
 30
0.0
 10
983.0920536071861
 20
1246.073908416798
 30
0.0
 10
982.7520720670736
 20
1246.073908416798
 30
0.0
 10
982.5319498466904
 20
1246.073908416798
 30
0.0
  0
SPLINE
  5
15C
330
1F
100
AcDbEntity
  8
0
  6
Continuous
 62
     7
370
    25
100
AcDbSpline
210
0.0
220
0.0
230
1.0
 70
    24
 71
     3
 72
    13
 73
     9
 74
     0
 42
0.000000001
 43
0.00000001
 40
0.0
 40
0.0
 40
0.0
 40
0.0
 40
0.2394436161247442
 40
0.3696260775612053
 40
0.5000019019279797
 40
0.6301806439552899
 40
0.7605591828122529
 40
1.0
 40
1.0
 40
1.0
 40
1.0
 10
882.682397930568
 20
1246.073908416798
 30
0.0
 10
882.6588884514981
 20
1246.073908416798
 30
0.0
 10
882.622597166415
 20
1246.073908416798
 30
0.0
 10
882.4046699338628
 20
1246.073908416798
 30
0.0
 10
882.1785393523937
 20
1246.073908416798
 30
0.0
 10
881.8999712004025
 20
1246.073908416798
 30
0.0
 10
881.4920469366263
 20
1246.073908416798
 30
0.0
 10
881.1520656683484
 20
1246.073908416798
 30
0.0
 10
880.9319436239655
 20
1246.073908416798
 30
0.0
  0
SPLINE
  5
15D
330
1F
100
AcDbEntity
  8
0
  6
Continuous
 62
     7
370
    25
100
AcDbSpline
210
0.0
220
0.0
230
1.0
 70
    24
 71
     3
 72
    12
 73
     8
 74
     0
 42
0.000000001
 43
0.00000001
 40
0.0
 40
0.0
 40
0.0
 40
0.0
 40
0.2478704266987779
 40
0.3756009509006725
 40
0.503517434791071
 40
0.7478516997583478
 40
1.0
 40
1.0
 40
1.0
 40
1.0
 10
880.9319436239655
 20
1246.073908416798
 30
0.0
 10
880.7043520231065
 20
1246.073908416798
 30
0.0
 10
880.3594798137101
 20
1246.073908416798
 30
0.0
 10
879.9512000833286
 20
1246.073908416798
 30
0.0
 10
879.5996598644458
 20
1246.073908416798
 30
0.0
 10
879.2605315491969
 20
1246.073908416798
 30
0.0
 10
879.208111736133
 20
1246.073908416798
 30
0.0
 10
879.181489317363
 20
1246.073908416798
 30
0.0
  0
SPLINE
  5
15E
330
1F
100
AcDbEntity
  8
0
  6
Continuous
 62
     7
370
    25
100
AcDbSpline
210
0.0
220
0.0
230
1.0
 70
    24
 71
     3
 72
    12
 73
     8
 74
     0
 42
0.000000001
 43
0.00000001
 40
0.0
 40
0.0
 40
0.0
 40
0.0
 40
0.2478704266987779
 40
0.3756009509006725
 40
0.503517434791071
 40
0.7478516997583478
 40
1.0
 40
1.0
 40
1.0
 40
1.0
 10
931.7319392847473
 20
1246.073908416798
 30
0.0
 10
931.5043476838883
 20
1246.073908416798
 30
0.0
 10
931.159475474492
 20
1246.073908416798
 30
0.0
 10
930.7511957441104
 20
1246.073908416798
 30
0.0
 10
930.3996555252277
 20
1246.073908416798
 30
0.0
 10
930.0605272099788
 20
1246.073908416798
 30
0.0
 10
930.0081073969149
 20
1246.073908416798
 30
0.0
 10
929.9814849781449
 20
1246.073908416798
 30
0.0
  0
SPLINE
  5
15F
330
1F
100
AcDbEntity
  8
0
  6
Continuous
 62
     7
370
    25
100
AcDbSpline
210
0.0
220
0.0
230
1.0
 70
    24
 71
     3
 72
    13
 73
     9
 74
     0
 42
0.000000001
 43
0.00000001
 40
0.0
 40
0.0
 40
0.0
 40
0.0
 40
0.2394430831102885
 40
0.3696227530050766
 40
0.4999982871482059
 40
0.6301809536808138
 40
0.7605543727496779
 40
1.0
 40
1.0
 40
1.0
 40
1.0
 10
933.4823935913498
 20
1246.073908416798
 30
0.0
 10
933.458881248259
 20
1246.073908416798
 30
0.0
 10
933.4225857876847
 20
1246.073908416798
 30
0.0
 10
933.2046825038809
 20
1246.073908416798
 30
0.0
 10
932.9785486244222
 20
1246.073908416798
 30
0.0
 10
932.6999708777516
 20
1246.073908416798
 30
0.0
 10
932.292052015317
 20
1246.073908416798
 30
0.0
 10
931.9520678264473
 20
1246.073908416798
 30
0.0
 10
931.7319392847473
 20
1246.073908416798
 30
0.0
  0
SPLINE
  5
160
330
1F
100
AcDbEntity
  8
0
  6
Continuous
 62
     7
370
    25
100
AcDbSpline
210
0.0
220
0.0
230
1.0
 70
    24
 71
     3
 72
    10
 73
     6
 74
     0
 42
0.000000001
 43
0.00000001
 40
0.0
 40
0.0
 40
0.0
 40
0.0
 40
0.5002694124416188
 40
0.7722543289577194
 40
1.0
 40
1.0
 40
1.0
 40
1.0
 10
908.0823957609589
 20
1246.073908416798
 30
0.0
 10
908.0582148081057
 20
1246.073908416798
 30
0.0
 10
908.0208872300956
 20
1246.073908416798
 30
0.0
 10
907.8171500425254
 20
1246.073908416798
 30
0.0
 10
907.6725881716876
 20
1246.073908416798
 30
0.0
 10
907.6067059921677
 20
1246.073908416798
 30
0.0
  0
SPLINE
  5
161
330
1F
100
AcDbEntity
  8
0
  6
Continuous
 62
     7
370
    25
100
AcDbSpline
210
0.0
220
0.0
230
1.0
 70
    24
 71
     3
 72
    10
 73
     6
 74
     0
 42
0.000000001
 43
0.00000001
 40
0.0
 40
0.0
 40
0.0
 40
0.0
 40
0.0435143342977257
 40
0.5142302032079569
 40
0.9999999999999999
 40
0.9999999999999999
 40
0.9999999999999999
 40
0.9999999999999999
 10
955.9361636328156
 20
1246.073908416798
 30
0.0
 10
955.920163913206
 20
1246.073908416798
 30
0.0
 10
955.7310873893699
 20
1246.073908416798
 30
0.0
 10
955.4652532000105
 20
1246.073908416798
 30
0.0
 10
955.4096977309972
 20
1246.073908416798
 30
0.0
 10
955.3814828085358
 20
1246.073908416798
 30
0.0
  0
SPLINE
  5
162
330
1F
100
AcDbEntity
  8
0
  6
Continuous
 62
     7
370
    25
100
AcDbSpline
210
0.0
220
0.0
230
1.0
 70
    24
 71
     3
 72
    11
 73
     7
 74
     0
 42
0.000000001
 43
0.00000001
 40
0.0
 40
0.0
 40
0.0
 40
0.0
 40
0.2500081936733041
 40
0.5000028937457501
 40
0.7499944912727604
 40
1.0
 40
1.0
 40
1.0
 40
1.0
 10
980.397686331218
 20
1245.07390639024
 30
0.0
 10
980.7094254583234
 20
1245.07390639024
 30
0.0
 10
981.3328868871523
 20
1245.07390639024
 30
0.0
 10
982.5319447860318
 20
1245.07390639024
 30
0.0
 10
983.7309989950212
 20
1245.07390639024
 30
0.0
 10
984.3544495895698
 20
1245.07390639024
 30
0.0
 10
984.6661835598404
 20
1245.07390639024
 30
0.0
  0
SPLINE
  5
163
330
1F
100
AcDbEntity
  8
0
  6
Continuous
 62
     7
370
    25
100
AcDbSpline
210
0.0
220
0.0
230
1.0
 70
     8
 71
     3
 72
    11
 73
     7
 74
     0
 42
0.000000001
 43
0.00000001
 40
0.0
 40
0.0
 40
0.0
 40
0.0
 40
0.2500002295747071
 40
0.500000201677368
 40
0.7500016691109798
 40
1.0
 40
1.0
 40
1.0
 40
1.0
 10
883.0661922382767
 20
1245.07390639024
 30
0.0
 10
883.2445386072355
 20
1245.092244656041
 30
0.0
 10
883.6012311614766
 20
1245.128921168756
 30
0.0
 10
884.1004306672181
 20
1245.42265456787
 30
0.0
 10
884.542363651099
 20
1245.863188981459
 30
0.0
 10
884.7545349083977
 20
1246.270335670046
 30
0.0
 10
884.8606198715622
 20
1246.473907737305
 30
0.0
  0
SPLINE
  5
164
330
1F
100
AcDbEntity
  8
0
  6
Continuous
 62
     7
370
    25
100
AcDbSpline
210
0.0
220
0.0
230
1.0
 70
    24
 71
     3
 72
    11
 73
     7
 74
     0
 42
0.000000001
 43
0.00000001
 40
0.0
 40
0.0
 40
0.0
 40
0.0
 40
0.2500082568842416
 40
0.4999999725381158
 40
0.7499916881919899
 40
1.0
 40
1.0
 40
1.0
 40
1.0
 10
878.7976950096543
 20
1245.07390639024
 30
0.0
 10
879.1094341085371
 20
1245.07390639024
 30
0.0
 10
879.7328916807912
 20
1245.07390639024
 30
0.0
 10
880.9319436099817
 20
1245.07390639024
 30
0.0
 10
882.130995710886
 20
1245.07390639024
 30
0.0
 10
882.7544531644828
 20
1245.07390639024
 30
0.0
 10
883.0661922382767
 20
1245.07390639024
 30
0.0
  0
LINE
  5
165
330
1F
100
AcDbEntity
  8
0
  6
Continuous
 62
     7
370
    25
100
AcDbLine
 10
886.7070972609
 20
1245.0739063902
 30
0.0
 11
883.0661922383
 21
1245.0739063902
 31
0.0
  0
LINE
  5
166
330
1F
100
AcDbEntity
  8
0
  6
Continuous
 62
     7
370
    25
100
AcDbLine
 10
988.3071034836
 20
1245.0739063902
 30
0.0
 11
984.6661835598
 21
1245.0739063902
 31
0.0
  0
LINE
  5
167
330
1F
100
AcDbEntity
  8
0
  6
Continuous
 62
     7
370
    25
100
AcDbLine
 10
878.7976950097
 20
1245.0739063902
 30
0.0
 11
876.0244100975
 21
1245.0739063902
 31
0.0
  0
LINE
  5
168
330
1F
100
AcDbEntity
  8
0
  6
Continuous
 62
     7
370
    25
100
AcDbLine
 10
977.6240586924
 20
1245.0739063902
 30
0.0
 11
980.3976863312
 21
1245.0739063902
 31
0.0
  0
SPLINE
  5
169
330
1F
100
AcDbEntity
  8
0
  6
Continuous
 62
     7
370
    25
100
AcDbSpline
210
0.0
220
0.0
230
1.0
 70
    24
 71
     3
 72
    13
 73
     9
 74
     0
 42
0.000000001
 43
0.00000001
 40
0.0
 40
0.0
 40
0.0
 40
0.0
 40
0.2394576079763736
 40
0.3683608250624513
 40
0.4999997062266539
 40
0.6316394591353705
 40
0.7605429946657176
 40
0.9999999999999999
 40
0.9999999999999999
 40
0.9999999999999999
 40
0.9999999999999999
 10
931.7319392847473
 20
1245.07390639024
 30
0.0
 10
932.2349532137542
 20
1245.07390639024
 30
0.0
 10
933.0087462348773
 20
1245.07390639024
 30
0.0
 10
933.9396891588447
 20
1245.07390639024
 30
0.0
 10
934.5802904243195
 20
1245.07390639024
 30
0.0
 10
935.096365556134
 20
1245.07390639024
 30
0.0
 10
935.5949753519994
 20
1245.07390639024
 30
0.0
 10
935.6771457626647
 20
1245.07390639024
 30
0.0
 10
935.730561582988
 20
1245.07390639024
 30
0.0
  0
SPLINE
  5
16A
330
1F
100
AcDbEntity
  8
0
  6
Continuous
 62
     7
370
    25
100
AcDbSpline
210
0.0
220
0.0
230
1.0
 70
    24
 71
     3
 72
    12
 73
     8
 74
     0
 42
0.000000001
 43
0.00000001
 40
0.0
 40
0.0
 40
0.0
 40
0.0
 40
0.2521550206111994
 40
0.4964967577614783
 40
0.6238837949544059
 40
0.7521236154556864
 40
1.0
 40
1.0
 40
1.0
 40
1.0
 10
927.7333169865067
 20
1245.07390639024
 30
0.0
 10
927.7941754653182
 20
1245.07390639024
 30
0.0
 10
927.9140066601879
 20
1245.07390639024
 30
0.0
 10
928.687487163909
 20
1245.07390639024
 30
0.0
 10
929.4914042008517
 20
1245.07390639024
 30
0.0
 10
930.422832574787
 20
1245.07390639024
 30
0.0
 10
931.2119064451572
 20
1245.07390639024
 30
0.0
 10
931.7319392847473
 20
1245.07390639024
 30
0.0
  0
SPLINE
  5
16B
330
1F
100
AcDbEntity
  8
0
  6
Continuous
 62
     7
370
    25
100
AcDbSpline
210
0.0
220
0.0
230
1.0
 70
     8
 71
     3
 72
    11
 73
     7
 74
     0
 42
0.000000001
 43
0.00000001
 40
0.0
 40
0.0
 40
0.0
 40
0.0
 40
0.2499939591115223
 40
0.500008903660905
 40
0.7499948388672298
 40
1.0
 40
1.0
 40
1.0
 40
1.0
 10
1017.696395485347
 20
1246.63248589473
 30
0.0
 10
1017.734862675713
 20
1246.627796282434
 30
0.0
 10
1017.811800285526
 20
1246.618416664179
 30
0.0
 10
1017.909279522694
 20
1246.614419309042
 30
0.0
 10
1017.978273012776
 20
1246.618417434427
 30
0.0
 10
1017.988480369557
 20
1246.627796287749
 30
0.0
 10
1017.993584244197
 20
1246.63248589473
 30
0.0
  0
LINE
  5
16C
330
1F
100
AcDbEntity
  8
0
  6
Continuous
 62
     7
370
    25
100
AcDbLine
 10
1017.6963954853
 20
1246.6324858947
 30
0.0
 11
1017.9365425991
 21
1248.3562224193
 31
0.0
  0
SPLINE
  5
16D
330
1F
100
AcDbEntity
  8
0
  6
Continuous
 62
     7
370
    25
100
AcDbSpline
210
0.0
220
0.0
230
1.0
 70
    24
 71
     3
 72
    11
 73
     7
 74
     0
 42
0.000000001
 43
0.00000001
 40
0.0
 40
0.0
 40
0.0
 40
0.0
 40
0.249995298854196
 40
0.4999917980387463
 40
0.7500001039105102
 40
0.9999999999999999
 40
0.9999999999999999
 40
0.9999999999999999
 40
0.9999999999999999
 10
1018.235847322887
 20
1248.356222419312
 30
0.0
 10
1018.231351358984
 20
1248.356222419312
 30
0.0
 10
1018.222359409592
 20
1248.356222419312
 30
0.0
 10
1018.153183578211
 20
1248.356222419312
 30
0.0
 10
1018.054268985007
 20
1248.356222419312
 30
0.0
 10
1017.975784287748
 20
1248.356222419312
 30
0.0
 10
1017.936542599147
 20
1248.356222419312
 30
0.0
  0
LINE
  5
16E
330
1F
100
AcDbEntity
  8
0
  6
Continuous
 62
     7
370
    25
100
AcDbLine
 10
1018.2358473229
 20
1248.3562224193
 30
0.0
 11
1017.9935842442
 21
1246.6324858947
 31
0.0
  0
LINE
  5
16F
330
1F
100
AcDbEntity
  8
0
  6
Continuous
 62
     7
370
    25
100
AcDbLine
 10
1018.2358473229
 20
1248.7241544409
 30
0.0
 11
1018.2358473229
 21
1248.3562224193
 31
0.0
  0
LINE
  5
170
330
1F
100
AcDbEntity
  8
0
  6
Continuous
 62
     7
370
    25
100
AcDbLine
 10
847.3595231461
 20
1248.3562224193
 30
0.0
 11
1017.9365425991
 21
1248.3562224193
 31
0.0
  0
LINE
  5
171
330
1F
100
AcDbEntity
  8
0
  6
Continuous
 62
     7
370
    25
100
AcDbLine
 10
847.4592789697
 20
1246.6324858947
 30
0.0
 11
1017.6963954853
 21
1246.6324858947
 31
0.0
  0
LINE
  5
172
330
1F
100
AcDbEntity
  8
0
  6
Continuous
 62
     7
370
    25
100
AcDbLine
 10
847.3595231461
 20
1248.3562224193
 30
0.0
 11
847.4592789697
 21
1246.6324858947
 31
0.0
  0
SPLINE
  5
173
330
1F
100
AcDbEntity
  8
0
  6
Continuous
 62
     7
370
    25
100
AcDbSpline
210
0.0
220
0.0
230
1.0
 70
     8
 71
     3
 72
    11
 73
     7
 74
     0
 42
0.000000001
 43
0.00000001
 40
0.0
 40
0.0
 40
0.0
 40
0.0
 40
0.2500001576673037
 40
0.5000144383582377
 40
0.7500146149563709
 40
1.0
 40
1.0
 40
1.0
 40
1.0
 10
847.2491427945549
 20
1246.63248589473
 30
0.0
 10
847.2637420851077
 20
1246.631527960063
 30
0.0
 10
847.2929414909573
 20
1246.629612036613
 30
0.0
 10
847.3451246848321
 20
1246.628871325451
 30
0.0
 10
847.4010346705953
 20
1246.629612026826
 30
0.0
 10
847.4398645862531
 20
1246.631527957656
 30
0.0
 10
847.4592789697106
 20
1246.63248589473
 30
0.0
  0
LINE
  5
174
330
1F
100
AcDbEntity
  8
0
  6
Continuous
 62
     7
370
    25
100
AcDbLine
 10
847.2491427946
 20
1246.6324858947
 30
0.0
 11
847.1487983751
 21
1248.3562224193
 31
0.0
  0
SPLINE
  5
175
330
1F
100
AcDbEntity
  8
0
  6
Continuous
 62
     7
370
    25
100
AcDbSpline
210
0.0
220
0.0
230
1.0
 70
    24
 71
     3
 72
    11
 73
     7
 74
     0
 42
0.000000001
 43
0.00000001
 40
0.0
 40
0.0
 40
0.0
 40
0.0
 40
0.2499965055666333
 40
0.4999888612240336
 40
0.7499807322457358
 40
1.0
 40
1.0
 40
1.0
 40
1.0
 10
847.1487983750756
 20
1248.356222419312
 30
0.0
 10
847.1634068417384
 20
1248.356222419312
 30
0.0
 10
847.1926235325657
 20
1248.356222419312
 30
0.0
 10
847.2449354017622
 20
1248.356222419312
 30
0.0
 10
847.3010354702138
 20
1248.356222419312
 30
0.0
 10
847.3400265420007
 20
1248.356222419312
 30
0.0
 10
847.3595231460984
 20
1248.356222419312
 30
0.0
  0
LINE
  5
176
330
1F
100
AcDbEntity
  8
0
  6
Continuous
 62
     7
370
    25
100
AcDbLine
 10
847.1487983751
 20
1248.3562224193
 30
0.0
 11
847.1479713606
 21
1248.3562224193
 31
0.0
  0
LINE
  5
177
330
1F
100
AcDbEntity
  8
0
  6
Continuous
 62
     7
370
    25
100
AcDbLine
 10
845.3237116026
 20
1248.3562224193
 30
0.0
 11
845.3228845882
 21
1248.3562224193
 31
0.0
  0
LINE
  5
178
330
1F
100
AcDbEntity
  8
0
  6
Continuous
 62
     7
370
    25
100
AcDbLine
 10
847.1479713606
 20
1248.3562224193
 30
0.0
 11
845.3237116026
 21
1248.3562224193
 31
0.0
  0
LINE
  5
179
330
1F
100
AcDbEntity
  8
0
  6
Continuous
 62
     7
370
    25
100
AcDbLine
 10
845.5651402163
 20
1246.6324858947
 30
0.0
 11
847.2491427946
 21
1246.6324858947
 31
0.0
  0
LINE
  5
17A
330
1F
100
AcDbEntity
  8
0
  6
Continuous
 62
     7
370
    25
100
AcDbLine
 10
845.3228845882
 20
1248.3562224193
 30
0.0
 11
845.5651402163
 21
1246.6324858947
 31
0.0
  0
LINE
  5
17B
330
1F
100
AcDbEntity
  8
0
  6
Continuous
 62
     7
370
    25
100
AcDbLine
 10
1017.6963954853
 20
1246.3741519137
 30
0.0
 11
1017.6963954853
 21
1246.6324858947
 31
0.0
  0
LINE
  5
17C
330
1F
100
AcDbEntity
  8
0
  6
Continuous
 62
     7
370
    25
100
AcDbLine
 10
847.4592789697
 20
1246.3741519137
 30
0.0
 11
1017.6963954853
 21
1246.3741519137
 31
0.0
  0
LINE
  5
17D
330
1F
100
AcDbEntity
  8
0
  6
Continuous
 62
     7
370
    25
100
AcDbLine
 10
847.4592789697
 20
1246.6324858947
 30
0.0
 11
847.4592789697
 21
1246.3741519137
 31
0.0
  0
SPLINE
  5
17E
330
1F
100
AcDbEntity
  8
0
  6
Continuous
 62
     7
370
    25
100
AcDbSpline
210
0.0
220
0.0
230
1.0
 70
     8
 71
     3
 72
    11
 73
     7
 74
     0
 42
0.000000001
 43
0.00000001
 40
0.0
 40
0.0
 40
0.0
 40
0.0
 40
0.2499984638488808
 40
0.4999959274472687
 40
0.7500097073886526
 40
1.0
 40
1.0
 40
1.0
 40
1.0
 10
847.4592789697106
 20
1246.374151913693
 30
0.0
 10
847.4339472790562
 20
1246.377883949883
 30
0.0
 10
847.3832839991002
 20
1246.385348007331
 30
0.0
 10
847.3173855356329
 20
1246.443407065551
 30
0.0
 10
847.267555922459
 20
1246.527613748362
 30
0.0
 10
847.2552803116436
 20
1246.597529607356
 30
0.0
 10
847.2491427945549
 20
1246.63248589473
 30
0.0
  0
ARC
  5
17F
330
1F
100
AcDbEntity
  8
0
  6
Continuous
 62
     7
370
    25
100
AcDbCircle
 10
1017.6964060663
 20
1246.6742537246
 30
0.0
 40
0.3000997008971353
100
AcDbArc
 50
270.0
 51
352.0000001414
  0
LINE
  5
180
330
1F
100
AcDbEntity
  8
0
  6
Continuous
 62
     7
370
    25
100
AcDbLine
 10
846.5319424557
 20
1246.3741519137
 30
0.0
 11
845.7752763915
 21
1246.3741519137
 31
0.0
  0
LINE
  5
181
330
1F
100
AcDbEntity
  8
0
  6
Continuous
 62
     7
370
    25
100
AcDbLine
 10
847.4592789697
 20
1246.3741519137
 30
0.0
 11
846.7002138185
 21
1246.3741519137
 31
0.0
  0
LINE
  5
182
330
1F
100
AcDbEntity
  8
0
  6
Continuous
 62
     7
370
    25
100
AcDbLine
 10
846.5319424557
 20
1246.3741519137
 30
0.0
 11
846.5319424557
 21
1246.3987537308
 31
0.0
  0
LINE
  5
183
330
1F
100
AcDbEntity
  8
0
  6
Continuous
 62
     7
370
    25
100
AcDbLine
 10
846.5319424557
 20
1246.3987537308
 30
0.0
 11
846.7002138185
 21
1246.3741519137
 31
0.0
  0
SPLINE
  5
184
330
1F
100
AcDbEntity
  8
0
  6
Continuous
 62
     7
370
    25
100
AcDbSpline
210
0.0
220
0.0
230
1.0
 70
     8
 71
     3
 72
    11
 73
     7
 74
     0
 42
0.000000001
 43
0.00000001
 40
0.0
 40
0.0
 40
0.0
 40
0.0
 40
0.2499891885232623
 40
0.4999941455466968
 40
0.7499905050253287
 40
0.9999999999999999
 40
0.9999999999999999
 40
0.9999999999999999
 40
0.9999999999999999
 10
845.5651402162964
 20
1246.63248589473
 30
0.0
 10
845.5712783605234
 20
1246.597529875133
 30
0.0
 10
845.5835550361517
 20
1246.527615631029
 30
0.0
 10
845.6333742437961
 20
1246.443405478877
 30
0.0
 10
845.6992746019009
 20
1246.385347274149
 30
0.0
 10
845.7499420179124
 20
1246.377883765869
 30
0.0
 10
845.775276391452
 20
1246.374151913693
 30
0.0
  0
SPLINE
  5
185
330
1F
100
AcDbEntity
  8
0
  6
Continuous
 62
     7
370
    25
100
AcDbSpline
210
0.0
220
0.0
230
1.0
 70
    24
 71
     3
 72
    11
 73
     7
 74
     0
 42
0.000000001
 43
0.00000001
 40
0.0
 40
0.0
 40
0.0
 40
0.0
 40
0.2500016881200601
 40
0.4999978650104819
 40
0.7500027839889403
 40
1.0
 40
1.0
 40
1.0
 40
1.0
 10
845.2358394550736
 20
1248.356222419312
 30
0.0
 10
845.237002431745
 20
1248.356222419312
 30
0.0
 10
845.2393283594507
 20
1248.356222419312
 30
0.0
 10
845.2571545456896
 20
1248.356222419312
 30
0.0
 10
845.2841077844273
 20
1248.356222419312
 30
0.0
 10
845.3099591196882
 20
1248.356222419312
 30
0.0
 10
845.3228845881874
 20
1248.356222419312
 30
0.0
  0
LWPOLYLINE
  5
186
330
1F
100
AcDbEntity
  8
0
  6
Continuous
 62
     7
370
    25
100
AcDbPolyline
 90
        2
 70
   128
 43
0.0
 10
845.2358394551
 20
1248.3562224193
 10
845.2358394551
 20
1248.3562224193
  0
LINE
  5
187
330
1F
100
AcDbEntity
  8
0
  6
Continuous
 62
     7
370
    25
100
AcDbLine
 10
845.2358394551
 20
1248.3562224193
 30
0.0
 11
845.2358394551
 21
1248.7241544409
 31
0.0
  0
LINE
  5
188
330
1F
100
AcDbEntity
  8
0
  6
Continuous
 62
     7
370
    25
100
AcDbLine
 10
845.4780950832
 20
1246.6324858947
 30
0.0
 11
845.2358394551
 21
1248.3562224193
 31
0.0
  0
SPLINE
  5
189
330
1F
100
AcDbEntity
  8
0
  6
Continuous
 62
     7
370
    25
100
AcDbSpline
210
0.0
220
0.0
230
1.0
 70
     8
 71
     3
 72
    11
 73
     7
 74
     0
 42
0.000000001
 43
0.00000001
 40
0.0
 40
0.0
 40
0.0
 40
0.0
 40
0.2499944250629714
 40
0.4999983682672361
 40
0.7500066948926616
 40
1.0
 40
1.0
 40
1.0
 40
1.0
 10
845.4780950831826
 20
1246.63248589473
 30
0.0
 10
845.479326285759
 20
1246.631527959469
 30
0.0
 10
845.4817887377882
 20
1246.629612052475
 30
0.0
 10
845.4996654594943
 20
1246.628871321414
 30
0.0
 10
845.5265672160264
 20
1246.629612031432
 30
0.0
 10
845.5522828070638
 20
1246.631527959484
 30
0.0
 10
845.5651402162964
 20
1246.63248589473
 30
0.0
  0
LINE
  5
18A
330
1F
100
AcDbEntity
  8
0
  6
Continuous
 62
     7
370
    25
100
AcDbLine
 10
845.2358543562
 20
1248.3562224193
 30
0.0
 11
845.2358394551
 21
1248.3562224193
 31
0.0
  0
ARC
  5
18B
330
1F
100
AcDbEntity
  8
0
  6
Continuous
 62
     7
370
    25
100
AcDbCircle
 10
845.7752747508
 20
1246.6742537246
 30
0.0
 40
0.3000997008971353
100
AcDbArc
 50
187.9999998772
 51
269.9999999427
  0
SPLINE
  5
18C
330
1F
100
AcDbEntity
  8
0
  6
Continuous
 62
     7
370
    25
100
AcDbSpline
210
0.0
220
0.0
230
1.0
 70
    24
 71
     3
 72
    11
 73
     7
 74
     0
 42
0.000000001
 43
0.00000001
 40
0.0
 40
0.0
 40
0.0
 40
0.0
 40
0.2500013295313758
 40
0.5000016436709253
 40
0.7499907851165208
 40
0.9999999999999999
 40
0.9999999999999999
 40
0.9999999999999999
 40
0.9999999999999999
 10
845.2358543562348
 20
1248.356222419312
 30
0.0
 10
845.2406186962951
 20
1248.356222419312
 30
0.0
 10
845.2501473570653
 20
1248.356222419312
 30
0.0
 10
845.3188710602612
 20
1248.356222419312
 30
0.0
 10
845.4166318607372
 20
1248.356222419312
 30
0.0
 10
845.4942283911054
 20
1248.356222419312
 30
0.0
 10
845.5330282139237
 20
1248.356222419312
 30
0.0
  0
LINE
  5
18D
330
1F
100
AcDbEntity
  8
0
  6
Continuous
 62
     7
370
    25
100
AcDbLine
 10
1017.9358273434
 20
1248.3562224193
 30
0.0
 11
1017.938658564
 21
1248.3562224193
 31
0.0
  0
LINE
  5
18E
330
1F
100
AcDbEntity
  8
0
  6
Continuous
 62
     8
370
    25
100
AcDbLine
 10
899.0582674431
 20
1246.3739060445
 30
0.0
 11
899.042636125
 21
1246.3741519137
 31
0.0
  0
SPLINE
  5
18F
330
1F
100
AcDbEntity
  8
0
  6
Continuous
 62
     8
370
    25
100
AcDbSpline
210
0.0
220
0.0
230
1.0
 70
     8
 71
     3
 72
    11
 73
     7
 74
     0
 42
0.000000001
 43
0.00000001
 40
0.0
 40
0.0
 40
0.0
 40
0.0
 40
0.268102956611623
 40
0.5290537936593799
 40
0.7910289860200541
 40
1.0
 40
1.0
 40
1.0
 40
1.0
 10
991.7881339477951
 20
1242.726846842339
 30
0.0
 10
991.6879950990169
 20
1242.803909556839
 30
0.0
 10
991.4903887819949
 20
1242.955979201916
 30
0.0
 10
991.0424651613525
 20
1243.874179796775
 30
0.0
 10
990.5817993319258
 20
1245.056242731599
 30
0.0
 10
990.3101601247515
 20
1245.96909551876
 30
0.0
 10
990.1896267818863
 20
1246.374151913693
 30
0.0
  0
SPLINE
  5
190
330
1F
100
AcDbEntity
  8
0
  6
Continuous
 62
     8
370
    25
100
AcDbSpline
210
0.0
220
0.0
230
1.0
 70
     8
 71
     3
 72
    11
 73
     7
 74
     0
 42
0.000000001
 43
0.00000001
 40
0.0
 40
0.0
 40
0.0
 40
0.0
 40
0.2681027709889024
 40
0.5290534273657523
 40
0.7910276854151825
 40
1.0
 40
1.0
 40
1.0
 40
1.0
 10
966.3881361174042
 20
1242.726846842339
 30
0.0
 10
966.2879979335795
 20
1242.803909754799
 30
0.0
 10
966.0903929287258
 20
1242.955979790515
 30
0.0
 10
965.6424600818378
 20
1243.874176637769
 30
0.0
 10
965.1818280217135
 20
1245.056250375255
 30
0.0
 10
964.9101605786809
 20
1245.969096340066
 30
0.0
 10
964.7896140503342
 20
1246.374151913693
 30
0.0
  0
SPLINE
  5
191
330
1F
100
AcDbEntity
  8
0
  6
Continuous
 62
     8
370
    25
100
AcDbSpline
210
0.0
220
0.0
230
1.0
 70
     8
 71
     3
 72
    11
 73
     7
 74
     0
 42
0.000000001
 43
0.00000001
 40
0.0
 40
0.0
 40
0.0
 40
0.0
 40
0.2604259805346902
 40
0.5240936308254204
 40
0.7915093936019091
 40
1.0
 40
1.0
 40
1.0
 40
1.0
 10
864.7881447958405
 20
1242.726846842339
 30
0.0
 10
864.6913656776891
 20
1242.800140795109
 30
0.0
 10
864.4966027768605
 20
1242.947641032014
 30
0.0
 10
864.0499113987659
 20
1243.854554547936
 30
0.0
 10
863.5845470859828
 20
1245.047764962939
 30
0.0
 10
863.3099301258737
 20
1245.970089316178
 30
0.0
 10
863.1896227287705
 20
1246.374151913693
 30
0.0
  0
SPLINE
  5
192
330
1F
100
AcDbEntity
  8
0
  6
Continuous
 62
     8
370
    25
100
AcDbSpline
210
0.0
220
0.0
230
1.0
 70
     8
 71
     3
 72
    11
 73
     7
 74
     0
 42
0.000000001
 43
0.00000001
 40
0.0
 40
0.0
 40
0.0
 40
0.0
 40
0.2681027709889024
 40
0.5290534273657523
 40
0.7910276854151825
 40
1.0
 40
1.0
 40
1.0
 40
1.0
 10
940.9881382870133
 20
1242.726846842339
 30
0.0
 10
940.8880001031886
 20
1242.803909754799
 30
0.0
 10
940.6903950983349
 20
1242.955979790515
 30
0.0
 10
940.2424622514469
 20
1243.874176637769
 30
0.0
 10
939.7818301913226
 20
1245.056250375255
 30
0.0
 10
939.51016274829
 20
1245.969096340066
 30
0.0
 10
939.3896162199433
 20
1246.374151913693
 30
0.0
  0
SPLINE
  5
193
330
1F
100
AcDbEntity
  8
0
  6
Continuous
 62
     8
370
    25
100
AcDbSpline
210
0.0
220
0.0
230
1.0
 70
     8
 71
     3
 72
    11
 73
     7
 74
     0
 42
0.000000001
 43
0.00000001
 40
0.0
 40
0.0
 40
0.0
 40
0.0
 40
0.2681027628723427
 40
0.5290534113491565
 40
0.7910284143986578
 40
1.0
 40
1.0
 40
1.0
 40
1.0
 10
915.5881404566223
 20
1242.726846842339
 30
0.0
 10
915.4880017261445
 20
1242.803909594107
 30
0.0
 10
915.2903956425672
 20
1242.955979312728
 30
0.0
 10
914.8424703046519
 20
1243.874179366587
 30
0.0
 10
914.3818100939098
 20
1245.056245381874
 30
0.0
 10
914.1101577800598
 20
1245.969095793622
 30
0.0
 10
913.9896183895523
 20
1246.374151913693
 30
0.0
  0
SPLINE
  5
194
330
1F
100
AcDbEntity
  8
0
  6
Continuous
 62
     8
370
    25
100
AcDbSpline
210
0.0
220
0.0
230
1.0
 70
     8
 71
     3
 72
    11
 73
     7
 74
     0
 42
0.000000001
 43
0.00000001
 40
0.0
 40
0.0
 40
0.0
 40
0.0
 40
0.2681027628723427
 40
0.5290534113491565
 40
0.7910284143986578
 40
1.0
 40
1.0
 40
1.0
 40
1.0
 10
890.1881426262314
 20
1242.726846842339
 30
0.0
 10
890.0880038957536
 20
1242.803909594107
 30
0.0
 10
889.8903978121763
 20
1242.955979312728
 30
0.0
 10
889.442472474261
 20
1243.874179366587
 30
0.0
 10
888.9818122635189
 20
1245.056245381874
 30
0.0
 10
888.7101599496689
 20
1245.969095793622
 30
0.0
 10
888.5896205591614
 20
1246.374151913693
 30
0.0
  0
SPLINE
  5
195
330
1F
100
AcDbEntity
  8
0
  6
Continuous
 62
     8
370
    25
100
AcDbSpline
210
0.0
220
0.0
230
1.0
 70
    24
 71
     3
 72
    10
 73
     6
 74
     0
 42
0.000000001
 43
0.00000001
 40
0.0
 40
0.0
 40
0.0
 40
0.0
 40
0.4434455839088424
 40
0.8867902420595157
 40
1.0
 40
1.0
 40
1.0
 40
1.0
 10
982.5319498466904
 20
1246.073908416798
 30
0.0
 10
982.5319498466904
 20
1246.086914194719
 30
0.0
 10
982.5319498466904
 20
1246.112922790517
 30
0.0
 10
982.5319498466903
 20
1246.233009559812
 30
0.0
 10
982.5319498466905
 20
1246.355625358367
 30
0.0
 10
982.5319498466904
 20
1246.380566863587
 30
0.0
  0
SPLINE
  5
196
330
1F
100
AcDbEntity
  8
0
  6
Continuous
 62
     8
370
    25
100
AcDbSpline
210
0.0
220
0.0
230
1.0
 70
    24
 71
     3
 72
    10
 73
     6
 74
     0
 42
0.000000001
 43
0.00000001
 40
0.0
 40
0.0
 40
0.0
 40
0.0
 40
0.4434455839088424
 40
0.8867902420595157
 40
1.0
 40
1.0
 40
1.0
 40
1.0
 10
880.9319436239655
 20
1246.073908416798
 30
0.0
 10
880.9319436239655
 20
1246.086914194719
 30
0.0
 10
880.9319436239655
 20
1246.112922790517
 30
0.0
 10
880.9319436239654
 20
1246.233009559812
 30
0.0
 10
880.9319436239655
 20
1246.355625358367
 30
0.0
 10
880.9319436239655
 20
1246.380566863587
 30
0.0
  0
ARC
  5
197
330
1F
100
AcDbEntity
  8
0
  6
Continuous
 62
     8
370
    25
100
AcDbCircle
 10
984.4944264614
 20
1247.1307611016
 30
0.0
 40
2.064013518482033
100
AcDbArc
 50
274.7733941615
 51
338.6869258982
  0
ARC
  5
198
330
1F
100
AcDbEntity
  8
0
  6
Continuous
 62
     8
370
    25
100
AcDbCircle
 10
980.5694504322
 20
1247.1307485578
 30
0.0
 40
2.064001600910112
100
AcDbArc
 50
201.3128293991
 51
265.2263831473
  0
ARC
  5
199
330
1F
100
AcDbEntity
  8
0
  6
Continuous
 62
     8
370
    25
100
AcDbCircle
 10
878.9694591107
 20
1247.1307485578
 30
0.0
 40
2.064001600910112
100
AcDbArc
 50
201.3128293991
 51
265.2263831473
  0
LINE
  5
19A
330
1F
100
AcDbEntity
  8
0
  6
Continuous
 62
     8
370
    25
100
AcDbLine
 10
1017.9365425991
 20
1248.3562224193
 30
0.0
 11
1017.9364829945
 21
1248.7241544409
 31
0.0
  0
LINE
  5
19B
330
1F
100
AcDbEntity
  8
0
  6
Continuous
 62
     8
370
    25
100
AcDbLine
 10
847.3595827507
 20
1248.7241544409
 30
0.0
 11
847.3595231461
 21
1248.3562224193
 31
0.0
  0
LINE
  5
19C
330
1F
100
AcDbEntity
  8
0
  6
Continuous
 62
     8
370
    25
100
AcDbLine
 10
847.1479713606
 20
1248.7241544409
 30
0.0
 11
847.1479713606
 21
1248.3562224193
 31
0.0
  0
LINE
  5
19D
330
1F
100
AcDbEntity
  8
0
  6
Continuous
 62
     8
370
    25
100
AcDbLine
 10
845.3237116026
 20
1248.3562224193
 30
0.0
 11
845.3237116026
 21
1248.7241544409
 31
0.0
  0
ENDSEC
  0
SECTION
  2
OBJECTS
  0
DICTIONARY
  5
C
330
0
100
AcDbDictionary
281
     1
  3
ACAD_GROUP
350
D
  3
ACAD_LAYOUT
350
1A
  3
ACAD_MLINESTYLE
350
17
  3
ACAD_PLOTSETTINGS
350
19
  3
ACAD_PLOTSTYLENAME
350
E
  3
ACAD_SCALELIST
350
47
  0
DICTIONARY
  5
D
102
{ACAD_REACTORS
330
C
102
}
330
C
100
AcDbDictionary
281
     1
  0
DICTIONARY
  5
1A
102
{ACAD_REACTORS
330
C
102
}
330
C
100
AcDbDictionary
281
     1
  3
Layout1
350
1E
  3
Layout2
350
26
  3
Model
350
22
  0
DICTIONARY
  5
17
102
{ACAD_REACTORS
330
C
102
}
330
C
100
AcDbDictionary
281
     1
  3
Standard
350
18
  0
DICTIONARY
  5
19
102
{ACAD_REACTORS
330
C
102
}
330
C
100
AcDbDictionary
281
     1
  0
ACDBDICTIONARYWDFLT
  5
E
102
{ACAD_REACTORS
330
C
102
}
330
C
100
AcDbDictionary
281
     1
  3
Normal
350
F
100
AcDbDictionaryWithDefault
340
F
  0
DICTIONARY
  5
47
102
{ACAD_REACTORS
330
C
102
}
330
C
100
AcDbDictionary
281
     1
  3
A0
350
48
  3
A1
350
49
  3
A2
350
4A
  3
A3
350
4B
  3
A4
350
4C
  3
A5
350
4D
  3
A6
350
4E
  3
A7
350
4F
  3
A8
350
50
  3
A9
350
51
  3
B0
350
52
  3
B1
350
53
  3
B2
350
54
  3
B3
350
55
  3
B4
350
56
  3
B5
350
57
  3
B6
350
58
  3
B7
350
59
  3
B8
350
5A
  3
B9
350
5B
  3
C0
350
5C
  3
C1
350
5D
  3
C2
350
5E
  3
C3
350
5F
  3
C4
350
60
  3
C5
350
61
  3
C6
350
62
  3
C7
350
63
  3
C8
350
64
  3
C9
350
65
  3
D0
350
66
  3
D1
350
67
  3
D2
350
68
  0
LAYOUT
  5
1E
102
{ACAD_REACTORS
330
1A
102
}
330
1A
100
AcDbPlotSettings
  1

  2
none_device
  4

  6

 40
0.0
 41
0.0
 42
0.0
 43
0.0
 44
0.0
 45
0.0
 46
0.0
 47
0.0
 48
0.0
 49
0.0
140
0.0
141
0.0
142
1.0
143
1.0
 70
   688
 72
     1
 73
     0
 74
     5
  7

 75
    16
147
1.0
148
0.0
149
0.0
100
AcDbLayout
  1
Layout1
 70
     1
 71
     1
 10
0.0
 20
0.0
 11
420.0
 21
297.0
 12
0.0
 22
0.0
 32
0.0
 14
1.0000000000E+20
 24
1.0000000000E+20
 34
1.0000000000E+20
 15
-1.0000000000E+20
 25
-1.0000000000E+20
 35
-1.0000000000E+20
146
0.0
 13
0.0
 23
0.0
 33
0.0
 16
1.0
 26
0.0
 36
0.0
 17
0.0
 27
1.0
 37
0.0
 76
     0
330
1B
  0
LAYOUT
  5
26
102
{ACAD_REACTORS
330
1A
102
}
330
1A
100
AcDbPlotSettings
  1

  2
none_device
  4

  6

 40
0.0
 41
0.0
 42
0.0
 43
0.0
 44
0.0
 45
0.0
 46
0.0
 47
0.0
 48
0.0
 49
0.0
140
0.0
141
0.0
142
1.0
143
1.0
 70
   688
 72
     1
 73
     0
 74
     5
  7

 75
    16
147
1.0
148
0.0
149
0.0
100
AcDbLayout
  1
Layout2
 70
     1
 71
     2
 10
0.0
 20
0.0
 11
0.0
 21
0.0
 12
0.0
 22
0.0
 32
0.0
 14
0.0
 24
0.0
 34
0.0
 15
0.0
 25
0.0
 35
0.0
146
0.0
 13
0.0
 23
0.0
 33
0.0
 16
1.0
 26
0.0
 36
0.0
 17
0.0
 27
1.0
 37
0.0
 76
     0
330
23
  0
LAYOUT
  5
22
102
{ACAD_REACTORS
330
1A
102
}
330
1A
100
AcDbPlotSettings
  1

  2
none_device
  4
Letter_(8.50_x_11.00_Inches)
  6

 40
6.35
 41
6.35
 42
6.35000508
 43
6.35000508
 44
215.9
 45
279.4
 46
0.0
 47
0.0
 48
0.0
 49
0.0
140
0.0
141
0.0
142
1.0
143
1.0
 70
  1712
 72
     1
 73
     0
 74
     0
  7

 75
     0
147
1.0
148
0.0
149
0.0
100
AcDbLayout
  1
Model
 70
     1
 71
     0
 10
0.0
 20
0.0
 11
1500.0
 21
1500.0
 12
0.0
 22
0.0
 32
0.0
 14
0.0
 24
0.0
 34
0.0
 15
1500.0
 25
1500.0
 35
0.0
146
0.0
 13
0.0
 23
0.0
 33
0.0
 16
1.0
 26
0.0
 36
0.0
 17
0.0
 27
1.0
 37
0.0
 76
     0
330
1F
331
29
  0
MLINESTYLE
  5
18
102
{ACAD_REACTORS
330
17
102
}
330
17
100
AcDbMlineStyle
  2
Standard
 70
     0
  3

 62
   256
 51
90.0
 52
90.0
 71
     2
 49
0.5
 62
   256
  6
BYLAYER
 49
-0.5
 62
   256
  6
BYLAYER
  0
ACDBPLACEHOLDER
  5
F
102
{ACAD_REACTORS
330
E
102
}
330
E
  0
SCALE
  5
48
102
{ACAD_REACTORS
330
47
102
}
330
47
100
AcDbScale
 70
     0
300
1:1
140
1.0
141
1.0
290
     1
  0
SCALE
  5
49
102
{ACAD_REACTORS
330
47
102
}
330
47
100
AcDbScale
 70
     0
300
1:2
140
1.0
141
2.0
290
     0
  0
SCALE
  5
4A
102
{ACAD_REACTORS
330
47
102
}
330
47
100
AcDbScale
 70
     0
300
1:4
140
1.0
141
4.0
290
     0
  0
SCALE
  5
4B
102
{ACAD_REACTORS
330
47
102
}
330
47
100
AcDbScale
 70
     0
300
1:5
140
1.0
141
5.0
290
     0
  0
SCALE
  5
4C
102
{ACAD_REACTORS
330
47
102
}
330
47
100
AcDbScale
 70
     0
300
1:8
140
1.0
141
8.0
290
     0
  0
SCALE
  5
4D
102
{ACAD_REACTORS
330
47
102
}
330
47
100
AcDbScale
 70
     0
300
1:10
140
1.0
141
10.0
290
     0
  0
SCALE
  5
4E
102
{ACAD_REACTORS
330
47
102
}
330
47
100
AcDbScale
 70
     0
300
1:16
140
1.0
141
16.0
290
     0
  0
SCALE
  5
4F
102
{ACAD_REACTORS
330
47
102
}
330
47
100
AcDbScale
 70
     0
300
1:20
140
1.0
141
20.0
290
     0
  0
SCALE
  5
50
102
{ACAD_REACTORS
330
47
102
}
330
47
100
AcDbScale
 70
     0
300
1:30
140
1.0
141
30.0
290
     0
  0
SCALE
  5
51
102
{ACAD_REACTORS
330
47
102
}
330
47
100
AcDbScale
 70
     0
300
1:40
140
1.0
141
40.0
290
     0
  0
SCALE
  5
52
102
{ACAD_REACTORS
330
47
102
}
330
47
100
AcDbScale
 70
     0
300
1:50
140
1.0
141
50.0
290
     0
  0
SCALE
  5
53
102
{ACAD_REACTORS
330
47
102
}
330
47
100
AcDbScale
 70
     0
300
1:100
140
1.0
141
100.0
290
     0
  0
SCALE
  5
54
102
{ACAD_REACTORS
330
47
102
}
330
47
100
AcDbScale
 70
     0
300
2:1
140
2.0
141
1.0
290
     0
  0
SCALE
  5
55
102
{ACAD_REACTORS
330
47
102
}
330
47
100
AcDbScale
 70
     0
300
4:1
140
4.0
141
1.0
290
     0
  0
SCALE
  5
56
102
{ACAD_REACTORS
330
47
102
}
330
47
100
AcDbScale
 70
     0
300
8:1
140
8.0
141
1.0
290
     0
  0
SCALE
  5
57
102
{ACAD_REACTORS
330
47
102
}
330
47
100
AcDbScale
 70
     0
300
10:1
140
10.0
141
1.0
290
     0
  0
SCALE
  5
58
102
{ACAD_REACTORS
330
47
102
}
330
47
100
AcDbScale
 70
     0
300
100:1
140
100.0
141
1.0
290
     0
  0
SCALE
  5
59
102
{ACAD_REACTORS
330
47
102
}
330
47
100
AcDbScale
 70
     0
300
1/128" = 1'-0"
140
0.0078125
141
12.0
290
     0
  0
SCALE
  5
5A
102
{ACAD_REACTORS
330
47
102
}
330
47
100
AcDbScale
 70
     0
300
1/64" = 1'-0"
140
0.015625
141
12.0
290
     0
  0
SCALE
  5
5B
102
{ACAD_REACTORS
330
47
102
}
330
47
100
AcDbScale
 70
     0
300
1/32" = 1'-0"
140
0.03125
141
12.0
290
     0
  0
SCALE
  5
5C
102
{ACAD_REACTORS
330
47
102
}
330
47
100
AcDbScale
 70
     0
300
1/16" = 1'-0"
140
0.0625
141
12.0
290
     0
  0
SCALE
  5
5D
102
{ACAD_REACTORS
330
47
102
}
330
47
100
AcDbScale
 70
     0
300
3/32" = 1'-0"
140
0.09375
141
12.0
290
     0
  0
SCALE
  5
5E
102
{ACAD_REACTORS
330
47
102
}
330
47
100
AcDbScale
 70
     0
300
1/8" = 1'-0"
140
0.125
141
12.0
290
     0
  0
SCALE
  5
5F
102
{ACAD_REACTORS
330
47
102
}
330
47
100
AcDbScale
 70
     0
300
3/16" = 1'-0"
140
0.1875
141
12.0
290
     0
  0
SCALE
  5
60
102
{ACAD_REACTORS
330
47
102
}
330
47
100
AcDbScale
 70
     0
300
1/4" = 1'-0"
140
0.25
141
12.0
290
     0
  0
SCALE
  5
61
102
{ACAD_REACTORS
330
47
102
}
330
47
100
AcDbScale
 70
     0
300
3/8" = 1'-0"
140
0.375
141
12.0
290
     0
  0
SCALE
  5
62
102
{ACAD_REACTORS
330
47
102
}
330
47
100
AcDbScale
 70
     0
300
1/2" = 1'-0"
140
0.5
141
12.0
290
     0
  0
SCALE
  5
63
102
{ACAD_REACTORS
330
47
102
}
330
47
100
AcDbScale
 70
     0
300
3/4" = 1'-0"
140
0.75
141
12.0
290
     0
  0
SCALE
  5
64
102
{ACAD_REACTORS
330
47
102
}
330
47
100
AcDbScale
 70
     0
300
1" = 1'-0"
140
1.0
141
12.0
290
     0
  0
SCALE
  5
65
102
{ACAD_REACTORS
330
47
102
}
330
47
100
AcDbScale
 70
     0
300
1-1/2" = 1'-0"
140
1.5
141
12.0
290
     0
  0
SCALE
  5
66
102
{ACAD_REACTORS
330
47
102
}
330
47
100
AcDbScale
 70
     0
300
3" = 1'-0"
140
3.0
141
12.0
290
     0
  0
SCALE
  5
67
102
{ACAD_REACTORS
330
47
102
}
330
47
100
AcDbScale
 70
     0
300
6" = 1'-0"
140
6.0
141
12.0
290
     0
  0
SCALE
  5
68
102
{ACAD_REACTORS
330
47
102
}
330
47
100
AcDbScale
 70
     0
300
1'-0" = 1'-0"
140
12.0
141
12.0
290
     0
  0
ENDSEC
  0
EOF
