  0
SECTION
  2
HEADER
  9
$ACADVER
  1
AC1015
  9
$ACADMAINTVER
 70
     6
  9
$DWGCODEPAGE
  3
ANSI_1254
  9
$INSBASE
 10
0.0
 20
0.0
 30
0.0
  9
$EXTMIN
 10
0.0
 20
0.0
 30
0.0
  9
$EXTMAX
 10
1500.0
 20
1500.0
 30
0.0
  9
$LIMMIN
 10
0.0
 20
0.0
  9
$LIMMAX
 10
1500.0
 20
1500.0
  9
$ORTHOMODE
 70
     0
  9
$REGENMODE
 70
     1
  9
$FILLMODE
 70
     1
  9
$QTEXTMODE
 70
     0
  9
$MIRRTEXT
 70
     1
  9
$LTSCALE
 40
1.0
  9
$ATTMODE
 70
     1
  9
$TEXTSIZE
 40
4.9388888889
  9
$TRACEWID
 40
1.0
  9
$TEXTSTYLE
  7
Standard
  9
$CLAYER
  8
0
  9
$CELTYPE
  6
ByLayer
  9
$CECOLOR
 62
   256
  9
$CELTSCALE
 40
1.0
  9
$DISPSILH
 70
     0
  9
$DIMSCALE
 40
1.0
  9
$DIMASZ
 40
3.65
  9
$DIMEXO
 40
0.5
  9
$DIMDLI
 40
3.75
  9
$DIMRND
 40
0.0
  9
$DIMDLE
 40
0.0
  9
$DIMEXE
 40
1.0
  9
$DIMTP
 40
0.0
  9
$DIMTM
 40
0.0
  9
$DIMTXT
 40
2.6458333333
  9
$DIMCEN
 40
2.5
  9
$DIMTSZ
 40
0.0
  9
$DIMTOL
 70
     0
  9
$DIMLIM
 70
     0
  9
$DIMTIH
 70
     1
  9
$DIMTOH
 70
     1
  9
$DIMSE1
 70
     0
  9
$DIMSE2
 70
     0
  9
$DIMTAD
 70
     1
  9
$DIMZIN
 70
     0
  9
$DIMBLK
  1

  9
$DIMASO
 70
     1
  9
$DIMSHO
 70
     1
  9
$DIMPOST
  1

  9
$DIMAPOST
  1

  9
$DIMALT
 70
     0
  9
$DIMALTD
 70
     3
  9
$DIMALTF
 40
0.0393700787
  9
$DIMLFAC
 40
10.0
  9
$DIMTOFL
 70
     1
  9
$DIMTVP
 40
0.0
  9
$DIMTIX
 70
     0
  9
$DIMSOXD
 70
     0
  9
$DIMSAH
 70
     0
  9
$DIMBLK1
  1

  9
$DIMBLK2
  1

  9
$DIMSTYLE
  2
ISO-25
  9
$DIMCLRD
 70
     0
  9
$DIMCLRE
 70
     0
  9
$DIMCLRT
 70
     0
  9
$DIMTFAC
 40
1.0
  9
$DIMGAP
 40
1.524
  9
$DIMJUST
 70
     0
  9
$DIMSD1
 70
     0
  9
$DIMSD2
 70
     0
  9
$DIMTOLJ
 70
     0
  9
$DIMTZIN
 70
     0
  9
$DIMALTZ
 70
     0
  9
$DIMALTTZ
 70
     0
  9
$DIMUPT
 70
     0
  9
$DIMDEC
 70
     2
  9
$DIMTDEC
 70
     2
  9
$DIMALTU
 70
     2
  9
$DIMALTTD
 70
     3
  9
$DIMTXSTY
  7
Standard
  9
$DIMAUNIT
 70
     0
  9
$DIMADEC
 70
     2
  9
$DIMALTRND
 40
0.0
  9
$DIMAZIN
 70
     0
  9
$DIMDSEP
 70
    44
  9
$DIMATFIT
 70
     3
  9
$DIMFRAC
 70
     0
  9
$DIMLDRBLK
  1

  9
$DIMLUNIT
 70
     2
  9
$DIMLWD
 70
    -2
  9
$DIMLWE
 70
    -2
  9
$DIMTMOVE
 70
     0
  9
$LUNITS
 70
     2
  9
$LUPREC
 70
     2
  9
$SKETCHINC
 40
1.0
  9
$FILLETRAD
 40
10.0
  9
$AUNITS
 70
     0
  9
$AUPREC
 70
     2
  9
$MENU
  1
.
  9
$ELEVATION
 40
0.0
  9
$PELEVATION
 40
0.0
  9
$THICKNESS
 40
0.0
  9
$LIMCHECK
 70
     0
  9
$CHAMFERA
 40
0.0
  9
$CHAMFERB
 40
0.0
  9
$CHAMFERC
 40
0.0
  9
$CHAMFERD
 40
0.0
  9
$SKPOLY
 70
     0
  9
$TDCREATE
 40
2459072.570045532
  9
$TDUCREATE
 40
2459072.445045532
  9
$TDUPDATE
 40
2459072.570046933
  9
$TDUUPDATE
 40
2459072.445046933
  9
$TDINDWG
 40
0.0000000116
  9
$TDUSRTIMER
 40
0.0000000116
  9
$USRTIMER
 70
     1
  9
$ANGBASE
 50
0.0
  9
$ANGDIR
 70
     0
  9
$PDMODE
 70
     0
  9
$PDSIZE
 40
-1.0
  9
$PLINEWID
 40
0.0
  9
$SPLFRAME
 70
     0
  9
$SPLINETYPE
 70
     6
  9
$SPLINESEGS
 70
     8
  9
$HANDSEED
  5
238
  9
$SURFTAB1
 70
     6
  9
$SURFTAB2
 70
     6
  9
$SURFTYPE
 70
     6
  9
$SURFU
 70
     6
  9
$SURFV
 70
     6
  9
$UCSBASE
  2

  9
$UCSNAME
  2

  9
$UCSORG
 10
0.0
 20
0.0
 30
0.0
  9
$UCSXDIR
 10
1.0
 20
0.0
 30
0.0
  9
$UCSYDIR
 10
0.0
 20
1.0
 30
0.0
  9
$UCSORTHOREF
  2

  9
$UCSORTHOVIEW
 70
     0
  9
$UCSORGTOP
 10
0.0
 20
0.0
 30
0.0
  9
$UCSORGBOTTOM
 10
0.0
 20
0.0
 30
0.0
  9
$UCSORGLEFT
 10
0.0
 20
0.0
 30
0.0
  9
$UCSORGRIGHT
 10
0.0
 20
0.0
 30
0.0
  9
$UCSORGFRONT
 10
0.0
 20
0.0
 30
0.0
  9
$UCSORGBACK
 10
0.0
 20
0.0
 30
0.0
  9
$PUCSBASE
  2

  9
$PUCSNAME
  2

  9
$PUCSORG
 10
0.0
 20
0.0
 30
0.0
  9
$PUCSXDIR
 10
1.0
 20
0.0
 30
0.0
  9
$PUCSYDIR
 10
0.0
 20
1.0
 30
0.0
  9
$PUCSORTHOREF
  2

  9
$PUCSORTHOVIEW
 70
     0
  9
$PUCSORGTOP
 10
0.0
 20
0.0
 30
0.0
  9
$PUCSORGBOTTOM
 10
0.0
 20
0.0
 30
0.0
  9
$PUCSORGLEFT
 10
0.0
 20
0.0
 30
0.0
  9
$PUCSORGRIGHT
 10
0.0
 20
0.0
 30
0.0
  9
$PUCSORGFRONT
 10
0.0
 20
0.0
 30
0.0
  9
$PUCSORGBACK
 10
0.0
 20
0.0
 30
0.0
  9
$USERI1
 70
     0
  9
$USERI2
 70
     0
  9
$USERI3
 70
     0
  9
$USERI4
 70
     0
  9
$USERI5
 70
     0
  9
$USERR1
 40
0.0
  9
$USERR2
 40
0.0
  9
$USERR3
 40
0.0
  9
$USERR4
 40
0.0
  9
$USERR5
 40
0.0
  9
$WORLDVIEW
 70
     1
  9
$SHADEDGE
 70
     3
  9
$SHADEDIF
 70
    70
  9
$TILEMODE
 70
     1
  9
$MAXACTVP
 70
    64
  9
$PINSBASE
 10
0.0
 20
0.0
 30
0.0
  9
$PLIMCHECK
 70
     0
  9
$PEXTMIN
 10
1.0000000000E+20
 20
1.0000000000E+20
 30
1.0000000000E+20
  9
$PEXTMAX
 10
-1.0000000000E+20
 20
-1.0000000000E+20
 30
-1.0000000000E+20
  9
$PLIMMIN
 10
0.0
 20
0.0
  9
$PLIMMAX
 10
420.0
 20
297.0
  9
$UNITMODE
 70
     0
  9
$VISRETAIN
 70
     1
  9
$PLINEGEN
 70
     0
  9
$PSLTSCALE
 70
     1
  9
$TREEDEPTH
 70
  3020
  9
$CMLSTYLE
  2
Standard
  9
$CMLJUST
 70
     0
  9
$CMLSCALE
 40
20.0
  9
$PROXYGRAPHICS
 70
     1
  9
$MEASUREMENT
 70
     1
  9
$CELWEIGHT
370
    -1
  9
$ENDCAPS
280
     0
  9
$JOINSTYLE
280
     0
  9
$LWDISPLAY
290
     1
  9
$INSUNITS
 70
     4
  9
$HYPERLINKBASE
  1

  9
$STYLESHEET
  1

  9
$XEDIT
290
     1
  9
$CEPSNTYPE
380
     0
  9
$PSTYLEMODE
290
     1
  9
$FINGERPRINTGUID
  2
{8760cb14-2704-431e-88a7-a7af0879b716}
  9
$VERSIONGUID
  2
{FAEB1C32-E019-11D5-929B-00C0DF256EC4}
  9
$EXTNAMES
290
     1
  9
$PSVPSCALE
 40
0.0
  9
$OLESTARTUP
290
     0
  0
ENDSEC
  0
SECTION
  2
CLASSES
  0
CLASS
  1
ACDBDICTIONARYWDFLT
  2
AcDbDictionaryWithDefault
  3
ObjectDBX Classes
 90
        0
280
     0
281
     0
  0
CLASS
  1
VISUALSTYLE
  2
AcDbVisualStyle
  3
ObjectDBX Classes
 90
     4095
280
     0
281
     0
  0
CLASS
  1
MATERIAL
  2
AcDbMaterial
  3
ObjectDBX Classes
 90
     1153
280
     0
281
     0
  0
CLASS
  1
SCALE
  2
AcDbScale
  3
ObjectDBX Classes
 90
     1153
280
     0
281
     0
  0
CLASS
  1
TABLESTYLE
  2
AcDbTableStyle
  3
ObjectDBX Classes
 90
     4095
280
     0
281
     0
  0
CLASS
  1
MLEADERSTYLE
  2
AcDbMLeaderStyle
  3
ACDB_MLEADERSTYLE_CLASS
 90
     4095
280
     0
281
     0
  0
CLASS
  1
SUN
  2
AcDbSun
  3
SCENEOE
 90
     1153
280
     0
281
     0
  0
CLASS
  1
ACDBPLACEHOLDER
  2
AcDbPlaceHolder
  3
ObjectDBX Classes
 90
        0
280
     0
281
     0
  0
CLASS
  1
LAYOUT
  2
AcDbLayout
  3
ObjectDBX Classes
 90
        0
280
     0
281
     0
  0
ENDSEC
  0
SECTION
  2
TABLES
  0
TABLE
  2
VPORT
  5
8
330
0
100
AcDbSymbolTable
 70
     1
  0
VPORT
  5
29
330
8
100
AcDbSymbolTableRecord
100
AcDbViewportTableRecord
  2
*Active
 70
     0
 10
0.0
 20
0.0
 11
1.0
 21
1.0
 12
750.0
 22
750.0
 13
0.0
 23
0.0
 14
10.0
 24
10.0
 15
10.0
 25
10.0
 16
0.0
 26
0.0
 36
1.0
 17
0.0
 27
0.0
 37
0.0
 40
1500.0
 41
1.0
 42
50.0
 43
0.0
 44
0.0
 50
0.0
 51
0.0
 71
     0
 72
  2000
 73
     1
 74
     3
 75
     0
 76
     0
 77
     0
 78
     0
281
     0
 65
     1
110
0.0
120
0.0
130
0.0
111
1.0
121
0.0
131
0.0
112
0.0
122
1.0
132
0.0
 79
     0
146
0.0
  0
ENDTAB
  0
TABLE
  2
LTYPE
  5
5
330
0
100
AcDbSymbolTable
 70
     6
  0
LTYPE
  5
14
330
5
100
AcDbSymbolTableRecord
100
AcDbLinetypeTableRecord
  2
ByBlock
 70
     0
  3

 72
    65
 73
     0
 40
0.0
  0
LTYPE
  5
15
330
5
100
AcDbSymbolTableRecord
100
AcDbLinetypeTableRecord
  2
ByLayer
 70
     0
  3

 72
    65
 73
     0
 40
0.0
  0
LTYPE
  5
16
330
5
100
AcDbSymbolTableRecord
100
AcDbLinetypeTableRecord
  2
Continuous
 70
     0
  3
Solid line
 72
    65
 73
     0
 40
0.0
  0
LTYPE
  5
6E
330
5
100
AcDbSymbolTableRecord
100
AcDbLinetypeTableRecord
  2
HIDDEN
 70
     0
  3
Hidden __ __ __ __ __ __ __ __ __ __ __ __ __ __
 72
    65
 73
     2
 40
1.905
 49
1.27
 74
     0
 49
-0.635
 74
     0
  0
LTYPE
  5
6F
330
5
100
AcDbSymbolTableRecord
100
AcDbLinetypeTableRecord
  2
PHANTOM
 70
     0
  3
Phantom ______  __  __  ______  __  __  ______
 72
    65
 73
     6
 40
12.7
 49
6.35
 74
     0
 49
-1.27
 74
     0
 49
1.27
 74
     0
 49
-1.27
 74
     0
 49
1.27
 74
     0
 49
-1.27
 74
     0
  0
LTYPE
  5
70
330
5
100
AcDbSymbolTableRecord
100
AcDbLinetypeTableRecord
  2
CENTER
 70
     0
  3
Center ____ _ ____ _ ____ _ ____ _ ____ _ ____
 72
    65
 73
     4
 40
10.16
 49
6.35
 74
     0
 49
-1.27
 74
     0
 49
1.27
 74
     0
 49
-1.27
 74
     0
  0
LTYPE
  5
71
330
5
100
AcDbSymbolTableRecord
100
AcDbLinetypeTableRecord
  2
CENTERX2
 70
     0
  3
Center (2x) ________  __  ________  __  _____
 72
    65
 73
     4
 40
20.32
 49
12.7
 74
     0
 49
-2.54
 74
     0
 49
2.54
 74
     0
 49
-2.54
 74
     0
  0
LTYPE
  5
72
330
5
100
AcDbSymbolTableRecord
100
AcDbLinetypeTableRecord
  2
DOT2
 70
     0
  3
Dot (.5x) ........................................
 72
    65
 73
     2
 40
0.635
 49
0.0
 74
     0
 49
-0.635
 74
     0
  0
ENDTAB
  0
TABLE
  2
LAYER
  5
2
330
0
100
AcDbSymbolTable
 70
     5
  0
LAYER
  5
10
330
2
100
AcDbSymbolTableRecord
100
AcDbLayerTableRecord
  2
0
 70
     0
 62
     7
  6
Continuous
370
    -3
390
F
  0
LAYER
  5
73
330
2
100
AcDbSymbolTableRecord
100
AcDbLayerTableRecord
  2
FORMAT
 70
     0
 62
     7
  6
Continuous
370
    -3
390
F
  0
LAYER
  5
74
330
2
100
AcDbSymbolTableRecord
100
AcDbLayerTableRecord
  2
SLD-0
 70
     0
 62
   179
  6
Continuous
370
    -3
390
F
  0
LAYER
  5
75
330
2
100
AcDbSymbolTableRecord
100
AcDbLayerTableRecord
  2
AAA_EKSEN
 70
     0
 62
     1
  6
CENTER
370
    -3
390
F
  0
LAYER
  5
76
330
2
100
AcDbSymbolTableRecord
100
AcDbLayerTableRecord
  2
03
 70
     0
 62
     3
  6
HIDDEN
370
    -3
390
F
  0
ENDTAB
  0
TABLE
  2
STYLE
  5
3
330
0
100
AcDbSymbolTable
 70
     1
  0
STYLE
  5
11
330
3
100
AcDbSymbolTableRecord
100
AcDbTextStyleTableRecord
  2
Standard
 70
     0
 40
0.0
 41
1.0
 50
0.0
 71
     0
 42
4.9388888889
  3
txt
  4

  0
ENDTAB
  0
TABLE
  2
VIEW
  5
6
330
0
100
AcDbSymbolTable
 70
     0
  0
ENDTAB
  0
TABLE
  2
UCS
  5
7
330
0
100
AcDbSymbolTable
 70
     0
  0
ENDTAB
  0
TABLE
  2
APPID
  5
9
330
0
100
AcDbSymbolTable
 70
     1
  0
APPID
  5
12
330
9
100
AcDbSymbolTableRecord
100
AcDbRegAppTableRecord
  2
ACAD
 70
     0
  0
ENDTAB
  0
TABLE
  2
DIMSTYLE
  5
A
330
0
100
AcDbSymbolTable
 70
     1
100
AcDbDimStyleTable
  0
DIMSTYLE
105
27
330
A
100
AcDbSymbolTableRecord
100
AcDbDimStyleTableRecord
  2
ISO-25
 70
     0
 41
2.5
 42
0.625
 43
3.75
 44
1.25
 73
     0
 74
     0
 77
     1
 78
     8
140
2.5
141
2.5
143
0.0393700787
147
0.625
171
     3
172
     1
178
     0
271
     2
272
     2
274
     3
278
    44
283
     0
284
     8
340
11
  0
ENDTAB
  0
TABLE
  2
BLOCK_RECORD
  5
1
330
0
100
AcDbSymbolTable
 70
     1
  0
BLOCK_RECORD
  5
1F
330
1
100
AcDbSymbolTableRecord
100
AcDbBlockTableRecord
  2
*Model_Space
340
22
  0
BLOCK_RECORD
  5
1B
330
1
100
AcDbSymbolTableRecord
100
AcDbBlockTableRecord
  2
*Paper_Space
340
1E
  0
BLOCK_RECORD
  5
23
330
1
100
AcDbSymbolTableRecord
100
AcDbBlockTableRecord
  2
*Paper_Space0
340
26
  0
ENDTAB
  0
ENDSEC
  0
SECTION
  2
BLOCKS
  0
BLOCK
  5
20
330
1F
100
AcDbEntity
  8
0
100
AcDbBlockBegin
  2
*Model_Space
 70
     0
 10
0.0
 20
0.0
 30
0.0
  3
*Model_Space
  1

  0
ENDBLK
  5
21
330
1F
100
AcDbEntity
  8
0
100
AcDbBlockEnd
  0
BLOCK
  5
1C
330
1B
100
AcDbEntity
 67
     1
  8
0
100
AcDbBlockBegin
  2
*Paper_Space
 70
     0
 10
0.0
 20
0.0
 30
0.0
  3
*Paper_Space
  1

  0
ENDBLK
  5
1D
330
1B
100
AcDbEntity
 67
     1
  8
0
100
AcDbBlockEnd
  0
BLOCK
  5
24
330
23
100
AcDbEntity
  8
0
100
AcDbBlockBegin
  2
*Paper_Space0
 70
     0
 10
0.0
 20
0.0
 30
0.0
  3
*Paper_Space0
  1

  0
ENDBLK
  5
25
330
23
100
AcDbEntity
  8
0
100
AcDbBlockEnd
  0
ENDSEC
  0
SECTION
  2
ENTITIES
  0
ARC
  5
77
330
1F
100
AcDbEntity
  8
0
  6
Continuous
 62
     7
370
    25
100
AcDbCircle
 10
271.1417571852
 20
1248.0911520769
 30
0.0
 40
2.026579787012559
100
AcDbArc
 50
200.0
 51
255.6250378776
  0
ARC
  5
78
330
1F
100
AcDbEntity
  8
0
  6
Continuous
 62
     7
370
    25
100
AcDbCircle
 10
273.0330330426
 20
1248.0911520769
 30
0.0
 40
2.026579787012573
100
AcDbArc
 50
284.3749621224
 51
340.0
  0
LINE
  5
79
330
1F
100
AcDbEntity
  8
0
  6
Continuous
 62
     7
370
    25
100
AcDbLine
 10
269.2373968194
 20
1247.7780179168
 30
0.0
 11
269.2373968194
 21
1247.3980234052
 31
0.0
  0
LINE
  5
7A
330
1F
100
AcDbEntity
  8
0
  6
Continuous
 62
     7
370
    25
100
AcDbLine
 10
274.9373945872
 20
1247.3980234052
 30
0.0
 11
274.9373945872
 21
1247.7780179168
 31
0.0
  0
LINE
  5
7B
330
1F
100
AcDbEntity
  8
0
  6
Continuous
 62
     7
370
    25
100
AcDbLine
 10
269.2373968194
 20
1250.1282663132
 30
0.0
 11
269.2373968194
 21
1249.748264351
 31
0.0
  0
LINE
  5
7C
330
1F
100
AcDbEntity
  8
0
  6
Continuous
 62
     7
370
    25
100
AcDbLine
 10
274.9373945872
 20
1249.748264351
 30
0.0
 11
274.9373945872
 21
1250.1282663132
 31
0.0
  0
ARC
  5
7D
330
1F
100
AcDbEntity
  8
0
  6
Continuous
 62
     7
370
    25
100
AcDbCircle
 10
271.141757186
 20
1250.4413970052
 30
0.0
 40
2.026579787012338
100
AcDbArc
 50
200.0
 51
255.6250378776
  0
ARC
  5
7E
330
1F
100
AcDbEntity
  8
0
  6
Continuous
 62
     7
370
    25
100
AcDbCircle
 10
273.0330330434
 20
1250.4413970052
 30
0.0
 40
2.026579787012437
100
AcDbArc
 50
284.3749621224
 51
340.0
  0
ARC
  5
7F
330
1F
100
AcDbEntity
  8
0
  6
Continuous
 62
     7
370
    25
100
AcDbCircle
 10
332.1417571852
 20
1248.0911520769
 30
0.0
 40
2.026579787012559
100
AcDbArc
 50
200.0
 51
255.6250378776
  0
ARC
  5
80
330
1F
100
AcDbEntity
  8
0
  6
Continuous
 62
     7
370
    25
100
AcDbCircle
 10
334.0330330426
 20
1248.0911520769
 30
0.0
 40
2.026579787012573
100
AcDbArc
 50
284.3749621224
 51
340.0
  0
LINE
  5
81
330
1F
100
AcDbEntity
  8
0
  6
Continuous
 62
     7
370
    25
100
AcDbLine
 10
330.2373956422
 20
1247.7780179168
 30
0.0
 11
330.2373956422
 21
1247.3980234052
 31
0.0
  0
LINE
  5
82
330
1F
100
AcDbEntity
  8
0
  6
Continuous
 62
     7
370
    25
100
AcDbLine
 10
335.93739341
 20
1247.3980234052
 30
0.0
 11
335.93739341
 21
1247.7780179168
 31
0.0
  0
ARC
  5
83
330
1F
100
AcDbEntity
  8
0
  6
Continuous
 62
     7
370
    25
100
AcDbCircle
 10
332.141757186
 20
1250.4413970052
 30
0.0
 40
2.026579787012559
100
AcDbArc
 50
200.0
 51
255.6250378776
  0
ARC
  5
84
330
1F
100
AcDbEntity
  8
0
  6
Continuous
 62
     7
370
    25
100
AcDbCircle
 10
334.0330330434
 20
1250.4413970052
 30
0.0
 40
2.026579787012573
100
AcDbArc
 50
284.3749621224
 51
340.0
  0
LINE
  5
85
330
1F
100
AcDbEntity
  8
0
  6
Continuous
 62
     7
370
    25
100
AcDbLine
 10
330.2373956422
 20
1250.1282663132
 30
0.0
 11
330.2373956422
 21
1249.748264351
 31
0.0
  0
LINE
  5
86
330
1F
100
AcDbEntity
  8
0
  6
Continuous
 62
     7
370
    25
100
AcDbLine
 10
335.93739341
 20
1249.748264351
 30
0.0
 11
335.93739341
 21
1250.1282663132
 31
0.0
  0
SPLINE
  5
87
330
1F
100
AcDbEntity
  8
0
  6
Continuous
 62
     7
370
    25
100
AcDbSpline
210
0.0
220
0.0
230
1.0
 70
     8
 71
     3
 72
     9
 73
     5
 74
     0
 42
0.000000001
 43
0.00000001
 40
0.0
 40
0.0
 40
0.0
 40
0.0
 40
0.9906204162443134
 40
1.0
 40
1.0
 40
1.0
 40
1.0
 10
304.3363496426859
 20
1247.478020289054
 30
0.0
 10
304.8025430239198
 20
1247.496724595615
 30
0.0
 10
305.2731505074617
 20
1247.515606001909
 30
0.0
 10
305.6356522290771
 20
1247.775579473835
 30
0.0
 10
305.6390523443365
 20
1247.778017916789
 30
0.0
  0
SPLINE
  5
88
330
1F
100
AcDbEntity
  8
0
  6
Continuous
 62
     7
370
    25
100
AcDbSpline
210
0.0
220
0.0
230
1.0
 70
     8
 71
     3
 72
     9
 73
     5
 74
     0
 42
0.000000001
 43
0.00000001
 40
0.0
 40
0.0
 40
0.0
 40
0.0
 40
0.1726559943448117
 40
1.0
 40
1.0
 40
1.0
 40
1.0
 10
299.6235758064681
 20
1247.778017916789
 30
0.0
 10
299.6837422334876
 20
1247.736334473532
 30
0.0
 10
300.0322179828973
 20
1247.494909648318
 30
0.0
 10
300.4717753833849
 20
1247.485667075922
 30
0.0
 10
300.8354405638197
 20
1247.478020289054
 30
0.0
  0
SPLINE
  5
89
330
1F
100
AcDbEntity
  8
0
  6
Continuous
 62
     7
370
    25
100
AcDbSpline
210
0.0
220
0.0
230
1.0
 70
     8
 71
     3
 72
    13
 73
     9
 74
     0
 42
0.000000001
 43
0.00000001
 40
0.0
 40
0.0
 40
0.0
 40
0.0
 40
0.0114064129777445
 40
0.1901517969929798
 40
0.3875989399234106
 40
0.6058121946737143
 40
0.8412964385277331
 40
1.0
 40
1.0
 40
1.0
 40
1.0
 10
322.4642496088886
 20
1244.518545367827
 30
0.0
 10
322.4776061023069
 20
1244.523855792559
 30
0.0
 10
322.7002669186339
 20
1244.61238378182
 30
0.0
 10
323.1508196386787
 20
1244.92258010552
 30
0.0
 10
323.7794907657351
 20
1245.489706299057
 30
0.0
 10
324.3061762043196
 20
1246.251156477291
 30
0.0
 10
324.6512899877782
 20
1247.037103225553
 30
0.0
 10
324.7004515483036
 20
1247.566363481406
 30
0.0
 10
324.7202444354439
 20
1247.779448428264
 30
0.0
  0
SPLINE
  5
8A
330
1F
100
AcDbEntity
  8
0
  6
Continuous
 62
     7
370
    25
100
AcDbSpline
210
0.0
220
0.0
230
1.0
 70
     8
 71
     3
 72
    13
 73
     9
 74
     0
 42
0.000000001
 43
0.00000001
 40
0.0
 40
0.0
 40
0.0
 40
0.0
 40
0.0366515875370296
 40
0.2265811917262165
 40
0.4043864222061786
 40
0.5686261598711728
 40
0.8578878250096527
 40
1.0
 40
1.0
 40
1.0
 40
1.0
 10
305.9249523094291
 20
1247.256939211001
 30
0.0
 10
305.9330262302691
 20
1247.190026183522
 30
0.0
 10
305.9829394462789
 20
1246.776367880372
 30
0.0
 10
306.3365542849702
 20
1246.0969187491
 30
0.0
 10
306.9286517782269
 20
1245.318512202917
 30
0.0
 10
307.8451792698507
 20
1244.604494967038
 30
0.0
 10
308.8899458966247
 20
1244.17193285548
 30
0.0
 10
309.6618316724902
 20
1244.16217321949
 30
0.0
 10
309.9161223972583
 20
1244.158957996478
 30
0.0
  0
SPLINE
  5
8B
330
1F
100
AcDbEntity
  8
0
  6
Continuous
 62
     7
370
    25
100
AcDbSpline
210
0.0
220
0.0
230
1.0
 70
     8
 71
     3
 72
    11
 73
     7
 74
     0
 42
0.000000001
 43
0.00000001
 40
0.0
 40
0.0
 40
0.0
 40
0.0
 40
0.2100946435484517
 40
0.4768535305830846
 40
0.7555295718911982
 40
1.0
 40
1.0
 40
1.0
 40
1.0
 10
297.493602195605
 20
1244.75897560369
 30
0.0
 10
297.6677339128241
 20
1244.876900491591
 30
0.0
 10
298.0629620954182
 20
1245.14455557403
 30
0.0
 10
298.5782370418418
 20
1245.724321472603
 30
0.0
 10
299.0083243054246
 20
1246.405522558891
 30
0.0
 10
299.1576859756282
 20
1246.905328837323
 30
0.0
 10
299.2274838498229
 20
1247.138892212024
 30
0.0
  0
SPLINE
  5
8C
330
1F
100
AcDbEntity
  8
0
  6
Continuous
 62
     7
370
    25
100
AcDbSpline
210
0.0
220
0.0
230
1.0
 70
     8
 71
     3
 72
    13
 73
     9
 74
     0
 42
0.000000001
 43
0.00000001
 40
0.0
 40
0.0
 40
0.0
 40
0.0
 40
0.1058152242812374
 40
0.2632590627487378
 40
0.4114911772998379
 40
0.5490247633389355
 40
0.7932181808655329
 40
1.0
 40
1.0
 40
1.0
 40
1.0
 10
280.4519511292124
 20
1247.778263785949
 30
0.0
 10
280.4724229748637
 20
1247.558254578725
 30
0.0
 10
280.5233551439868
 20
1247.010890831369
 30
0.0
 10
280.8838000613388
 20
1246.212012663967
 30
0.0
 10
281.4336352356287
 20
1245.459789715787
 30
0.0
 10
282.2787409414655
 20
1244.736543951425
 30
0.0
 10
283.4258460636229
 20
1244.203534324583
 30
0.0
 10
284.346033274193
 20
1244.152901089602
 30
0.0
 10
284.7679588476562
 20
1244.129684665313
 30
0.0
  0
SPLINE
  5
8D
330
1F
100
AcDbEntity
  8
0
  6
Continuous
 62
     7
370
    25
100
AcDbSpline
210
0.0
220
0.0
230
1.0
 70
     8
 71
     3
 72
     9
 73
     5
 74
     0
 42
0.000000001
 43
0.00000001
 40
0.0
 40
0.0
 40
0.0
 40
0.0
 40
0.0639696918941092
 40
0.9999999999999999
 40
0.9999999999999999
 40
0.9999999999999999
 40
0.9999999999999999
 10
297.06424898453
 20
1244.518545367827
 30
0.0
 10
297.0776115622826
 20
1244.523841872539
 30
0.0
 10
297.2865007621033
 20
1244.606638968389
 30
0.0
 10
297.4893871088302
 20
1244.755610830098
 30
0.0
 10
297.6792948784673
 20
1244.895053007712
 30
0.0
  0
LINE
  5
8E
330
1F
100
AcDbEntity
  8
0
  6
Continuous
 62
     7
370
    25
100
AcDbLine
 10
277.6663448194
 20
1247.7780179168
 30
0.0
 11
277.6819929013
 21
1247.7782637859
 31
0.0
  0
SPLINE
  5
8F
330
1F
100
AcDbEntity
  8
0
  6
Continuous
 62
     7
370
    25
100
AcDbSpline
210
0.0
220
0.0
230
1.0
 70
     8
 71
     3
 72
    13
 73
     9
 74
     0
 42
0.000000001
 43
0.00000001
 40
0.0
 40
0.0
 40
0.0
 40
0.0
 40
0.0535643278199823
 40
0.2752846476158897
 40
0.502218167025466
 40
0.7066728773739822
 40
0.8558656676745722
 40
1.0
 40
1.0
 40
1.0
 40
1.0
 10
287.7984582910681
 20
1244.12802318584
 30
0.0
 10
287.8493855352644
 20
1244.067330550935
 30
0.0
 10
288.1111173452806
 20
1243.755411195411
 30
0.0
 10
288.8072894721442
 20
1243.421183979594
 30
0.0
 10
289.757673882908
 20
1243.224338366402
 30
0.0
 10
290.620887694621
 20
1243.345819065167
 30
0.0
 10
291.3087669218166
 20
1243.623195542966
 30
0.0
 10
291.6529623285338
 20
1243.888065436986
 30
0.0
 10
291.8220921883726
 20
1244.018216529002
 30
0.0
  0
LINE
  5
90
330
1F
100
AcDbEntity
  8
0
  6
Continuous
 62
     7
370
    25
100
AcDbLine
 10
335.2134689222
 20
1247.7780179168
 30
0.0
 11
335.2134689222
 21
1247.7782637859
 31
0.0
  0
LINE
  5
91
330
1F
100
AcDbEntity
  8
0
  6
Continuous
 62
     7
370
    25
100
AcDbLine
 10
330.9583194087
 20
1247.7782637859
 30
0.0
 11
330.9583194087
 21
1247.7780179168
 31
0.0
  0
LINE
  5
92
330
1F
100
AcDbEntity
  8
0
  6
Continuous
 62
     7
370
    25
100
AcDbLine
 10
274.2134700993
 20
1247.7780179168
 30
0.0
 11
274.2134700993
 21
1247.7782637859
 31
0.0
  0
LINE
  5
93
330
1F
100
AcDbEntity
  8
0
  6
Continuous
 62
     7
370
    25
100
AcDbLine
 10
269.9583187232
 20
1247.7782637859
 30
0.0
 11
269.9583187232
 21
1247.7780179168
 31
0.0
  0
LINE
  5
94
330
1F
100
AcDbEntity
  8
0
  6
Continuous
 62
     7
370
    25
100
AcDbLine
 10
362.5873937736
 20
1330.128265922
 30
0.0
 11
362.5873937736
 21
1250.1282663132
 31
0.0
  0
LINE
  5
95
330
1F
100
AcDbEntity
  8
0
  6
Continuous
 62
     7
370
    25
100
AcDbLine
 10
242.5873964558
 20
1330.128265922
 30
0.0
 11
362.5873937736
 21
1330.128265922
 31
0.0
  0
LINE
  5
96
330
1F
100
AcDbEntity
  8
0
  6
Continuous
 62
     7
370
    25
100
AcDbLine
 10
362.5873937736
 20
1250.1282663132
 30
0.0
 11
242.5873964558
 21
1250.1282663132
 31
0.0
  0
LINE
  5
97
330
1F
100
AcDbEntity
  8
0
  6
Continuous
 62
     7
370
    25
100
AcDbLine
 10
242.5873964558
 20
1250.1282663132
 30
0.0
 11
242.5873964558
 21
1330.128265922
 31
0.0
  0
LINE
  5
98
330
1F
100
AcDbEntity
  8
0
  6
Continuous
 62
     7
370
    25
100
AcDbLine
 10
269.2373968194
 20
1247.3980234052
 30
0.0
 11
274.9373945872
 21
1247.3980234052
 31
0.0
  0
LINE
  5
99
330
1F
100
AcDbEntity
  8
0
  6
Continuous
 62
     7
370
    25
100
AcDbLine
 10
270.6386237869
 20
1246.1280197884
 30
0.0
 11
273.536165757
 21
1246.1280197884
 31
0.0
  0
LINE
  5
9A
330
1F
100
AcDbEntity
  8
0
  6
Continuous
 62
     7
370
    25
100
AcDbLine
 10
269.2373968194
 20
1247.7780179168
 30
0.0
 11
274.9373945872
 21
1247.7780179168
 31
0.0
  0
LINE
  5
9B
330
1F
100
AcDbEntity
  8
0
  6
Continuous
 62
     7
370
    25
100
AcDbLine
 10
269.2373968194
 20
1249.748264351
 30
0.0
 11
274.9373945872
 21
1249.748264351
 31
0.0
  0
LINE
  5
9C
330
1F
100
AcDbEntity
  8
0
  6
Continuous
 62
     7
370
    25
100
AcDbLine
 10
270.6386237869
 20
1248.4782681848
 30
0.0
 11
273.536165757
 21
1248.4782681848
 31
0.0
  0
LINE
  5
9D
330
1F
100
AcDbEntity
  8
0
  6
Continuous
 62
     7
370
    25
100
AcDbLine
 10
330.2373956422
 20
1247.3980234052
 30
0.0
 11
335.93739341
 21
1247.3980234052
 31
0.0
  0
LINE
  5
9E
330
1F
100
AcDbEntity
  8
0
  6
Continuous
 62
     7
370
    25
100
AcDbLine
 10
331.6386244724
 20
1246.1280197884
 30
0.0
 11
334.5361664424
 21
1246.1280197884
 31
0.0
  0
LINE
  5
9F
330
1F
100
AcDbEntity
  8
0
  6
Continuous
 62
     7
370
    25
100
AcDbLine
 10
330.2373956422
 20
1247.7780179168
 30
0.0
 11
335.93739341
 21
1247.7780179168
 31
0.0
  0
LINE
  5
A0
330
1F
100
AcDbEntity
  8
0
  6
Continuous
 62
     7
370
    25
100
AcDbLine
 10
330.2373956422
 20
1249.748264351
 30
0.0
 11
335.93739341
 21
1249.748264351
 31
0.0
  0
LINE
  5
A1
330
1F
100
AcDbEntity
  8
0
  6
Continuous
 62
     7
370
    25
100
AcDbLine
 10
331.6386244724
 20
1248.4782681848
 30
0.0
 11
334.5361664424
 21
1248.4782681848
 31
0.0
  0
LINE
  5
A2
330
1F
100
AcDbEntity
  8
0
  6
Continuous
 62
     7
370
    25
100
AcDbLine
 10
281.0924235264
 20
1247.7780179168
 30
0.0
 11
324.079038156
 21
1247.7780179168
 31
0.0
  0
LWPOLYLINE
  5
A3
330
1F
100
AcDbEntity
  8
0
  6
Continuous
 62
     7
370
    25
100
AcDbPolyline
 90
        3
 70
   128
 43
0.0
 10
277.6751048396
 20
1247.7780253674
 10
277.6857312302
 20
1247.7781669284
 10
277.6893354485
 20
1247.7782637859
  0
LWPOLYLINE
  5
A4
330
1F
100
AcDbEntity
  8
0
  6
Continuous
 62
     7
370
    25
100
AcDbPolyline
 90
        3
 70
   128
 43
0.0
 10
277.6806555221
 20
1247.7782637859
 10
277.677060617
 20
1247.7781669284
 10
277.6664249132
 20
1247.7780253674
  0
LWPOLYLINE
  5
A5
330
1F
100
AcDbEntity
  8
0
  6
Continuous
 62
     7
370
    25
100
AcDbPolyline
 90
        3
 70
   128
 43
0.0
 10
268.4819936285
 20
1247.7782637859
 10
268.4778697322
 20
1247.7781520272
 10
268.467844976
 20
1247.7780253674
  0
LINE
  5
A6
330
1F
100
AcDbEntity
  8
0
  6
Continuous
 62
     7
370
    25
100
AcDbLine
 10
336.7054439614
 20
1247.7780179168
 30
0.0
 11
336.6897977421
 21
1247.7782637859
 31
0.0
  0
SPLINE
  5
A7
330
1F
100
AcDbEntity
  8
0
  6
Continuous
 62
     7
370
    25
100
AcDbSpline
210
0.0
220
0.0
230
1.0
 70
    24
 71
     3
 72
    19
 73
    15
 74
     0
 42
0.000000001
 43
0.00000001
 40
0.0
 40
0.0
 40
0.0
 40
0.0
 40
0.1197250693412502
 40
0.184811984143923
 40
0.2500023714138245
 40
0.3150900551409815
 40
0.3802789118989554
 40
0.4999999302843978
 40
0.6197209527462638
 40
0.6848116535196126
 40
0.749997576454253
 40
0.8150908688203553
 40
0.8802749187159481
 40
1.0
 40
1.0
 40
1.0
 40
1.0
 10
304.3363496426859
 20
1247.478020289054
 30
0.0
 10
304.3128443920606
 20
1247.478020289054
 30
0.0
 10
304.2765608298143
 20
1247.478020289054
 30
0.0
 10
304.0586196784538
 20
1247.478020289054
 30
0.0
 10
303.8325130301328
 20
1247.478020289054
 30
0.0
 10
303.553914573757
 20
1247.478020289054
 30
0.0
 10
303.1460100051514
 20
1247.478020289054
 30
0.0
 10
302.5858960002073
 20
1247.478020289054
 30
0.0
 10
302.0259605928646
 20
1247.478020289054
 30
0.0
 10
301.6180316229714
 20
1247.478020289054
 30
0.0
 10
301.3395293213554
 20
1247.478020289054
 30
0.0
 10
301.1132719126522
 20
1247.478020289054
 30
0.0
 10
300.8952522699421
 20
1247.478020289054
 30
0.0
 10
300.8589473174418
 20
1247.478020289054
 30
0.0
 10
300.8354405638197
 20
1247.478020289054
 30
0.0
  0
SPLINE
  5
A8
330
1F
100
AcDbEntity
  8
0
  6
Continuous
 62
     7
370
    25
100
AcDbSpline
210
0.0
220
0.0
230
1.0
 70
    24
 71
     3
 72
    16
 73
    12
 74
     0
 42
0.000000001
 43
0.00000001
 40
0.0
 40
0.0
 40
0.0
 40
0.0
 40
0.3249088189200724
 40
0.5953683630206782
 40
0.7272602199869321
 40
0.834791140709459
 40
0.8630603293262384
 40
0.8830297632926062
 40
0.91757810741537
 40
0.9477752691205364
 40
1.0
 40
1.0
 40
1.0
 40
1.0
 10
320.6805452237272
 20
1244.12802318584
 30
0.0
 10
320.4566695491268
 20
1244.12802318584
 30
0.0
 10
320.0464360123762
 20
1244.128023185839
 30
0.0
 10
318.9789002489957
 20
1244.12802318584
 30
0.0
 10
317.863132925416
 20
1244.128023185839
 30
0.0
 10
317.1611996215399
 20
1244.128023185839
 30
0.0
 10
316.6743636440802
 20
1244.12802318584
 30
0.0
 10
316.3920717457894
 20
1244.128023185839
 30
0.0
 10
316.106942573106
 20
1244.12802318584
 30
0.0
 10
315.7253072870857
 20
1244.12802318584
 30
0.0
 10
315.4563280319147
 20
1244.12802318584
 30
0.0
 10
315.2858955318475
 20
1244.12802318584
 30
0.0
  0
SPLINE
  5
A9
330
1F
100
AcDbEntity
  8
0
  6
Continuous
 62
     7
370
    25
100
AcDbSpline
210
0.0
220
0.0
230
1.0
 70
     8
 71
     3
 72
    13
 73
     9
 74
     0
 42
0.000000001
 43
0.00000001
 40
0.0
 40
0.0
 40
0.0
 40
0.0
 40
0.2318174652728259
 40
0.4946629828461026
 40
0.6315918786204757
 40
0.7731185250442383
 40
0.9123014179398461
 40
1.0
 40
1.0
 40
1.0
 40
1.0
 10
315.2858955318475
 20
1244.12802318584
 30
0.0
 10
315.2859347074217
 20
1244.171980364061
 30
0.0
 10
315.2860183020998
 20
1244.26577825315
 30
0.0
 10
315.2854688423228
 20
1244.932984153454
 30
0.0
 10
315.2866804473655
 20
1245.721975342633
 30
0.0
 10
315.2859010939953
 20
1246.444484790513
 30
0.0
 10
315.2856498553376
 20
1247.146359544573
 30
0.0
 10
315.2857759938523
 20
1247.601924288619
 30
0.0
 10
315.2858247513318
 20
1247.778017916789
 30
0.0
  0
SPLINE
  5
AA
330
1F
100
AcDbEntity
  8
0
  6
Continuous
 62
     7
370
    25
100
AcDbSpline
210
0.0
220
0.0
230
1.0
 70
     8
 71
     3
 72
     9
 73
     5
 74
     0
 42
0.000000001
 43
0.00000001
 40
0.0
 40
0.0
 40
0.0
 40
0.0
 40
0.4713573390486647
 40
1.0
 40
1.0
 40
1.0
 40
1.0
 10
324.4859981814766
 20
1246.7828662182
 30
0.0
 10
324.4811436109538
 20
1246.718193496773
 30
0.0
 10
324.4708444809291
 20
1246.580988204591
 30
0.0
 10
324.3838677174676
 20
1246.47475780392
 30
0.0
 10
324.3378880897903
 20
1246.418599882235
 30
0.0
  0
SPLINE
  5
AB
330
1F
100
AcDbEntity
  8
0
  6
Continuous
 62
     7
370
    25
100
AcDbSpline
210
0.0
220
0.0
230
1.0
 70
     8
 71
     3
 72
     9
 73
     5
 74
     0
 42
0.000000001
 43
0.00000001
 40
0.0
 40
0.0
 40
0.0
 40
0.0
 40
0.450047916714081
 40
1.0
 40
1.0
 40
1.0
 40
1.0
 10
323.3696925918007
 20
1245.152060785403
 30
0.0
 10
323.0438246699791
 20
1244.890923788667
 30
0.0
 10
322.3197508331286
 20
1244.310681136635
 30
0.0
 10
321.3706992115325
 20
1244.194727602343
 30
0.0
 10
320.8487662950897
 20
1244.130958714595
 30
0.0
  0
LINE
  5
AC
330
1F
100
AcDbEntity
  8
0
  6
Continuous
 62
     7
370
    25
100
AcDbLine
 10
320.8487756083
 20
1244.1306979443
 30
0.0
 11
320.6805452237
 21
1244.1280231858
 31
0.0
  0
SPLINE
  5
AD
330
1F
100
AcDbEntity
  8
0
  6
Continuous
 62
     7
370
    25
100
AcDbSpline
210
0.0
220
0.0
230
1.0
 70
    24
 71
     3
 72
    15
 73
    11
 74
     0
 42
0.000000001
 43
0.00000001
 40
0.0
 40
0.0
 40
0.0
 40
0.0
 40
0.2887825446786372
 40
0.5737623308784384
 40
0.7127350219122542
 40
0.8260389700894688
 40
0.8558258505562746
 40
0.8768673862936286
 40
0.9450309389119103
 40
1.0
 40
1.0
 40
1.0
 40
1.0
 10
310.01794715397
 20
1244.12802318584
 30
0.0
 10
310.209512283949
 20
1244.12802318584
 30
0.0
 10
310.5901199678868
 20
1244.12802318584
 30
0.0
 10
311.5941156125767
 20
1244.12802318584
 30
0.0
 10
312.7084348615851
 20
1244.12802318584
 30
0.0
 10
313.410682438558
 20
1244.12802318584
 30
0.0
 10
313.8973628859155
 20
1244.12802318584
 30
0.0
 10
314.282812599287
 20
1244.128023185839
 30
0.0
 10
314.7356901090405
 20
1244.12802318584
 30
0.0
 10
315.1160808710243
 20
1244.12802318584
 30
0.0
 10
315.2858955318475
 20
1244.12802318584
 30
0.0
  0
LINE
  5
AE
330
1F
100
AcDbEntity
  8
0
  6
Continuous
 62
     7
370
    25
100
AcDbLine
 10
309.8912453743
 20
1244.1280231858
 30
0.0
 11
309.7230140584
 21
1244.1306979443
 31
0.0
  0
LINE
  5
AF
330
1F
100
AcDbEntity
  8
0
  6
Continuous
 62
     7
370
    25
100
AcDbLine
 10
309.4204022082
 20
1244.186696508
 30
0.0
 11
309.7230140584
 21
1244.1306979443
 31
0.0
  0
LINE
  5
B0
330
1F
100
AcDbEntity
  8
0
  6
Continuous
 62
     7
370
    25
100
AcDbLine
 10
305.9469031169
 20
1247.100804844
 30
0.0
 11
305.9095545205
 21
1247.2128988291
 31
0.0
  0
SPLINE
  5
B1
330
1F
100
AcDbEntity
  8
0
  6
Continuous
 62
     7
370
    25
100
AcDbSpline
210
0.0
220
0.0
230
1.0
 70
     8
 71
     3
 72
     9
 73
     5
 74
     0
 42
0.000000001
 43
0.00000001
 40
0.0
 40
0.0
 40
0.0
 40
0.0
 40
0.748857798377169
 40
1.0
 40
1.0
 40
1.0
 40
1.0
 10
305.9095545204723
 20
1247.212898829093
 30
0.0
 10
305.8882744315748
 20
1247.326081404207
 30
0.0
 10
305.8598577028664
 20
1247.477221681252
 30
0.0
 10
305.8654960314856
 20
1247.717638985653
 30
0.0
 10
305.8669120537484
 20
1247.778017916789
 30
0.0
  0
LINE
  5
B2
330
1F
100
AcDbEntity
  8
0
  6
Continuous
 62
     7
370
    25
100
AcDbLine
 10
299.172226386
 20
1246.8942002441
 30
0.0
 11
299.1310446987
 21
1246.8087495352
 31
0.0
  0
SPLINE
  5
B3
330
1F
100
AcDbEntity
  8
0
  6
Continuous
 62
     7
370
    25
100
AcDbSpline
210
0.0
220
0.0
230
1.0
 70
     8
 71
     3
 72
    11
 73
     7
 74
     0
 42
0.000000001
 43
0.00000001
 40
0.0
 40
0.0
 40
0.0
 40
0.0
 40
0.0598301217292919
 40
0.3765440263781479
 40
0.6894448985939192
 40
1.0
 40
1.0
 40
1.0
 40
1.0
 10
298.6768652217829
 20
1245.933693745246
 30
0.0
 10
298.6435619932743
 20
1245.865795535829
 30
0.0
 10
298.4339663683349
 20
1245.438474574103
 30
0.0
 10
297.7347586480311
 20
1244.860538376508
 30
0.0
 10
296.6701816389956
 20
1244.273779390779
 30
0.0
 10
295.8548824188763
 20
1244.178446041845
 30
0.0
 10
295.4487666020536
 20
1244.130958714595
 30
0.0
  0
LINE
  5
B4
330
1F
100
AcDbEntity
  8
0
  6
Continuous
 62
     7
370
    25
100
AcDbLine
 10
295.4487759153
 20
1244.1306979443
 30
0.0
 11
295.2805445994
 21
1244.1280231858
 31
0.0
  0
SPLINE
  5
B5
330
1F
100
AcDbEntity
  8
0
  6
Continuous
 62
     7
370
    25
100
AcDbSpline
210
0.0
220
0.0
230
1.0
 70
    24
 71
     3
 72
    16
 73
    12
 74
     0
 42
0.000000001
 43
0.00000001
 40
0.0
 40
0.0
 40
0.0
 40
0.0
 40
0.3249088151262345
 40
0.5953683560687861
 40
0.7272602114949885
 40
0.8347910582529957
 40
0.8630603315737014
 40
0.8830296743482334
 40
0.9175781087969586
 40
0.9477751815268701
 40
1.0
 40
1.0
 40
1.0
 40
1.0
 10
295.2805445993686
 20
1244.12802318584
 30
0.0
 10
295.0566689026606
 20
1244.12802318584
 30
0.0
 10
294.6464353253999
 20
1244.128023185839
 30
0.0
 10
293.578899784563
 20
1244.12802318584
 30
0.0
 10
292.4631322086673
 20
1244.128023185839
 30
0.0
 10
291.761199690782
 20
1244.12802318584
 30
0.0
 10
291.2743635570685
 20
1244.12802318584
 30
0.0
 10
290.9920714710099
 20
1244.12802318584
 30
0.0
 10
290.7069425043557
 20
1244.12802318584
 30
0.0
 10
290.3253070674683
 20
1244.12802318584
 30
0.0
 10
290.0563277412729
 20
1244.12802318584
 30
0.0
 10
289.8858949074888
 20
1244.12802318584
 30
0.0
  0
SPLINE
  5
B6
330
1F
100
AcDbEntity
  8
0
  6
Continuous
 62
     7
370
    25
100
AcDbSpline
210
0.0
220
0.0
230
1.0
 70
     8
 71
     3
 72
    13
 73
     9
 74
     0
 42
0.000000001
 43
0.00000001
 40
0.0
 40
0.0
 40
0.0
 40
0.0
 40
0.2318174652332422
 40
0.4946629827614031
 40
0.6315918786054107
 40
0.7731185250046605
 40
0.9123014179243577
 40
1.0
 40
1.0
 40
1.0
 40
1.0
 10
289.8858949074888
 20
1244.12802318584
 30
0.0
 10
289.885934621567
 20
1244.171980364033
 30
0.0
 10
289.88601936533
 20
1244.265778253062
 30
0.0
 10
289.885467395039
 20
1244.932984153879
 30
0.0
 10
289.8866809937467
 20
1245.721975342317
 30
0.0
 10
289.8859017986294
 20
1246.444484790714
 30
0.0
 10
289.8856486417763
 20
1247.146359544559
 30
0.0
 10
289.8857758769244
 20
1247.601924288615
 30
0.0
 10
289.8858250582957
 20
1247.778017916789
 30
0.0
  0
SPLINE
  5
B7
330
1F
100
AcDbEntity
  8
0
  6
Continuous
 62
     7
370
    25
100
AcDbSpline
210
0.0
220
0.0
230
1.0
 70
     8
 71
     3
 72
    10
 73
     6
 74
     0
 42
0.000000001
 43
0.00000001
 40
0.0
 40
0.0
 40
0.0
 40
0.0
 40
0.0736201557583858
 40
0.5501798454381123
 40
1.0
 40
1.0
 40
1.0
 40
1.0
 10
299.2805731946969
 20
1247.778017916789
 30
0.0
 10
299.2814223591794
 20
1247.756395106401
 30
0.0
 10
299.2877683547683
 20
1247.594803021265
 30
0.0
 10
299.2724205466288
 20
1247.351385103236
 30
0.0
 10
299.2381528796132
 20
1247.209681003812
 30
0.0
 10
299.2215136064583
 20
1247.140874066462
 30
0.0
  0
LINE
  5
B8
330
1F
100
AcDbEntity
  8
0
  6
Continuous
 62
     7
370
    25
100
AcDbLine
 10
284.3230232129
 20
1244.1309587146
 30
0.0
 11
283.8764912913
 21
1244.2324207212
 31
0.0
  0
SPLINE
  5
B9
330
1F
100
AcDbEntity
  8
0
  6
Continuous
 62
     7
370
    25
100
AcDbSpline
210
0.0
220
0.0
230
1.0
 70
     8
 71
     3
 72
     9
 73
     5
 74
     0
 42
0.000000001
 43
0.00000001
 40
0.0
 40
0.0
 40
0.0
 40
0.0
 40
0.5528289881885005
 40
1.0
 40
1.0
 40
1.0
 40
1.0
 10
280.8429874012613
 20
1246.402312913051
 30
0.0
 10
280.7935178546791
 20
1246.462695452555
 30
0.0
 10
280.7040334976006
 20
1246.571920078604
 30
0.0
 10
280.6926598454743
 20
1246.712587672926
 30
0.0
 10
280.6875738779449
 20
1246.775490143409
 30
0.0
  0
SPLINE
  5
BA
330
1F
100
AcDbEntity
  8
0
  6
Continuous
 62
     7
370
    25
100
AcDbSpline
210
0.0
220
0.0
230
1.0
 70
    24
 71
     3
 72
    15
 73
    11
 74
     0
 42
0.000000001
 43
0.00000001
 40
0.0
 40
0.0
 40
0.0
 40
0.0
 40
0.2406899065055969
 40
0.5449400836818116
 40
0.6933101586965247
 40
0.8142757611142395
 40
0.8460768412864503
 40
0.8685412133335911
 40
0.9413140102047615
 40
1.0
 40
1.0
 40
1.0
 40
1.0
 10
284.7677483687544
 20
1244.12802318584
 30
0.0
 10
284.9204530152048
 20
1244.12802318584
 30
0.0
 10
285.2661878406628
 20
1244.12802318584
 30
0.0
 10
286.1958948684433
 20
1244.12802318584
 30
0.0
 10
287.3081627561317
 20
1244.12802318584
 30
0.0
 10
288.0106981591251
 20
1244.128023185839
 30
0.0
 10
288.4973619838004
 20
1244.12802318584
 30
0.0
 10
288.882813925573
 20
1244.12802318584
 30
0.0
 10
289.3356898680315
 20
1244.12802318584
 30
0.0
 10
289.7160804748668
 20
1244.12802318584
 30
0.0
 10
289.8858949074888
 20
1244.12802318584
 30
0.0
  0
LINE
  5
BB
330
1F
100
AcDbEntity
  8
0
  6
Continuous
 62
     7
370
    25
100
AcDbLine
 10
284.3230138997
 20
1244.1306979443
 30
0.0
 11
284.4912461469
 21
1244.1280231858
 31
0.0
  0
SPLINE
  5
BC
330
1F
100
AcDbEntity
  8
0
  6
Continuous
 62
     7
370
    25
100
AcDbSpline
210
0.0
220
0.0
230
1.0
 70
     8
 71
     3
 72
     9
 73
     5
 74
     0
 42
0.000000001
 43
0.00000001
 40
0.0
 40
0.0
 40
0.0
 40
0.0
 40
0.9799207232183692
 40
1.0
 40
1.0
 40
1.0
 40
1.0
 10
320.8487756083155
 20
1244.130697944274
 30
0.0
 10
321.0210042340706
 20
1244.138898379292
 30
0.0
 10
321.1967619476023
 20
1244.147266847091
 30
0.0
 10
321.2985864082487
 20
1244.229393323502
 30
0.0
 10
321.3006309697771
 20
1244.231042363753
 30
0.0
  0
SPLINE
  5
BD
330
1F
100
AcDbEntity
  8
0
  6
Continuous
 62
     7
370
    25
100
AcDbSpline
210
0.0
220
0.0
230
1.0
 70
     8
 71
     3
 72
     9
 73
     5
 74
     0
 42
0.000000001
 43
0.00000001
 40
0.0
 40
0.0
 40
0.0
 40
0.0
 40
0.0332368320465158
 40
1.0
 40
1.0
 40
1.0
 40
1.0
 10
283.8667794594908
 20
1244.233545758834
 30
0.0
 10
283.8702431717538
 20
1244.231046706196
 30
0.0
 10
283.974456240499
 20
1244.15585745126
 30
0.0
 10
284.1516802524587
 20
1244.143065109306
 30
0.0
 10
284.3230138996983
 20
1244.130697944274
 30
0.0
  0
LWPOLYLINE
  5
BE
330
1F
100
AcDbEntity
  8
0
  6
Continuous
 62
     7
370
    25
100
AcDbPolyline
 90
        8
 70
   128
 43
0.0
 10
309.5948994624
 20
1244.1769287969
 10
309.7216594497
 20
1244.1307948018
 10
309.7226666751
 20
1244.130720296
 10
309.7229227888
 20
1244.1307053949
 10
309.7229889127
 20
1244.1306979443
 10
309.7230066078
 20
1244.1306979443
 10
309.7230140584
 20
1244.1306979443
 10
309.7230140584
 20
1244.1306979443
  0
SPLINE
  5
BF
330
1F
100
AcDbEntity
  8
0
  6
Continuous
 62
     7
370
    25
100
AcDbSpline
210
0.0
220
0.0
230
1.0
 70
     8
 71
     3
 72
     9
 73
     5
 74
     0
 42
0.000000001
 43
0.00000001
 40
0.0
 40
0.0
 40
0.0
 40
0.0
 40
0.9533029004952945
 40
1.0
 40
1.0
 40
1.0
 40
1.0
 10
295.4487759152794
 20
1244.130697944274
 30
0.0
 10
295.5932225930459
 20
1244.135577610154
 30
0.0
 10
295.7447449241869
 20
1244.1406963042
 30
0.0
 10
295.830936052349
 20
1244.198097629949
 30
0.0
 10
295.8349609280372
 20
1244.200778105368
 30
0.0
  0
SPLINE
  5
C0
330
1F
100
AcDbEntity
  8
0
  6
Continuous
 62
     7
370
    25
100
AcDbSpline
210
0.0
220
0.0
230
1.0
 70
     8
 71
     3
 72
     9
 73
     5
 74
     0
 42
0.000000001
 43
0.00000001
 40
0.0
 40
0.0
 40
0.0
 40
0.0
 40
0.5000017048034917
 40
0.9999999999999999
 40
0.9999999999999999
 40
0.9999999999999999
 40
0.9999999999999999
 10
304.5186492845783
 20
1246.478018262496
 30
0.0
 10
304.7739410787212
 20
1246.511638596649
 30
0.0
 10
305.2845229261235
 20
1246.578879035693
 30
0.0
 10
305.7012111292704
 20
1247.001559378351
 30
0.0
 10
305.9095545204723
 20
1247.212898829093
 30
0.0
  0
SPLINE
  5
C1
330
1F
100
AcDbEntity
  8
0
  6
Continuous
 62
     7
370
    25
100
AcDbSpline
210
0.0
220
0.0
230
1.0
 70
    24
 71
     3
 72
    13
 73
     9
 74
     0
 42
0.000000001
 43
0.00000001
 40
0.0
 40
0.0
 40
0.0
 40
0.0
 40
0.2394443301889792
 40
0.3697792384076902
 40
0.5000001995530589
 40
0.6303346808234798
 40
0.7605556494278818
 40
1.0
 40
1.0
 40
1.0
 40
1.0
 10
300.2501563633227
 20
1246.478018262496
 30
0.0
 10
300.547210038464
 20
1246.478018262496
 30
0.0
 10
301.0059566777066
 20
1246.478018262496
 30
0.0
 10
301.7690909135021
 20
1246.478018262496
 30
0.0
 10
302.3845814566675
 20
1246.478018262496
 30
0.0
 10
302.9998934543572
 20
1246.478018262496
 30
0.0
 10
303.7629942015573
 20
1246.478018262496
 30
0.0
 10
304.2215972699292
 20
1246.478018262496
 30
0.0
 10
304.5186495174089
 20
1246.478018262496
 30
0.0
  0
ARC
  5
C2
330
1F
100
AcDbEntity
  8
0
  6
Continuous
 62
     7
370
    25
100
AcDbCircle
 10
300.2804772471
 20
1248.1605851671
 30
0.0
 40
1.682840082814884
100
AcDbArc
 50
228.8098712866
 51
268.9676067863
  0
LINE
  5
C3
330
1F
100
AcDbEntity
  8
0
  6
Continuous
 62
     7
370
    25
100
AcDbLine
 10
306.2050797044
 20
1246.4780182625
 30
0.0
 11
304.5186495174
 21
1246.4780182625
 31
0.0
  0
LINE
  5
C4
330
1F
100
AcDbEntity
  8
0
  6
Continuous
 62
     7
370
    25
100
AcDbLine
 10
300.2501563633
 20
1246.4780182625
 30
0.0
 11
298.9986150524
 21
1246.4780182625
 31
0.0
  0
SPLINE
  5
C5
330
1F
100
AcDbEntity
  8
0
  6
Continuous
 62
     7
370
    25
100
AcDbSpline
210
0.0
220
0.0
230
1.0
 70
     8
 71
     3
 72
    11
 73
     7
 74
     0
 42
0.000000001
 43
0.00000001
 40
0.0
 40
0.0
 40
0.0
 40
0.0
 40
0.2499939591115223
 40
0.500008903660905
 40
0.7499948388672298
 40
1.0
 40
1.0
 40
1.0
 40
1.0
 10
267.1296499202394
 20
1248.036597766986
 30
0.0
 10
267.1347511646082
 20
1248.03190815469
 30
0.0
 10
267.1449540815635
 20
1248.022528536434
 30
0.0
 10
267.2139487008298
 20
1248.018531181297
 30
0.0
 10
267.3114285648189
 20
1248.022529306683
 30
0.0
 10
267.3883626878415
 20
1248.031908160005
 30
0.0
 10
267.4268312285089
 20
1248.036597766986
 30
0.0
  0
LINE
  5
C6
330
1F
100
AcDbEntity
  8
0
  6
Continuous
 62
     7
370
    25
100
AcDbLine
 10
267.1296499202
 20
1248.036597767
 30
0.0
 11
266.8873942921
 21
1249.7603342916
 31
0.0
  0
SPLINE
  5
C7
330
1F
100
AcDbEntity
  8
0
  6
Continuous
 62
     7
370
    25
100
AcDbSpline
210
0.0
220
0.0
230
1.0
 70
    24
 71
     3
 72
    11
 73
     7
 74
     0
 42
0.000000001
 43
0.00000001
 40
0.0
 40
0.0
 40
0.0
 40
0.0
 40
0.249995298854196
 40
0.4999917980387463
 40
0.7500001039105102
 40
0.9999999999999999
 40
0.9999999999999999
 40
0.9999999999999999
 40
0.9999999999999999
 10
267.1873956451559
 20
1249.760334291568
 30
0.0
 10
267.1481436038776
 20
1249.760334291568
 30
0.0
 10
267.0696393328557
 20
1249.760334291568
 30
0.0
 10
266.9705656182509
 20
1249.760334291567
 30
0.0
 10
266.9011633842278
 20
1249.760334291568
 30
0.0
 10
266.8919839380324
 20
1249.760334291568
 30
0.0
 10
266.8873942921305
 20
1249.760334291568
 30
0.0
  0
LINE
  5
C8
330
1F
100
AcDbEntity
  8
0
  6
Continuous
 62
     7
370
    25
100
AcDbLine
 10
267.1873956452
 20
1249.7603342916
 30
0.0
 11
267.4268312285
 21
1248.036597767
 31
0.0
  0
LINE
  5
C9
330
1F
100
AcDbEntity
  8
0
  6
Continuous
 62
     7
370
    25
100
AcDbLine
 10
266.8873942921
 20
1249.7603342916
 30
0.0
 11
266.8873942921
 21
1250.1282663132
 31
0.0
  0
LINE
  5
CA
330
1F
100
AcDbEntity
  8
0
  6
Continuous
 62
     7
370
    25
100
AcDbLine
 10
337.9873945842
 20
1249.7603342916
 30
0.0
 11
337.9902109037
 21
1249.7603342916
 31
0.0
  0
LINE
  5
CB
330
1F
100
AcDbEntity
  8
0
  6
Continuous
 62
     7
370
    25
100
AcDbLine
 10
337.7479590008
 20
1248.036597767
 30
0.0
 11
337.9902109037
 21
1249.7603342916
 31
0.0
  0
LINE
  5
CC
330
1F
100
AcDbEntity
  8
0
  6
Continuous
 62
     7
370
    25
100
AcDbLine
 10
267.4268312285
 20
1248.036597767
 30
0.0
 11
337.7479590008
 21
1248.036597767
 31
0.0
  0
LINE
  5
CD
330
1F
100
AcDbEntity
  8
0
  6
Continuous
 62
     7
370
    25
100
AcDbLine
 10
267.1873956452
 20
1249.7603342916
 30
0.0
 11
269.2373968194
 21
1249.7603342916
 31
0.0
  0
LINE
  5
CE
330
1F
100
AcDbEntity
  8
0
  6
Continuous
 62
     7
370
    25
100
AcDbLine
 10
274.9373945872
 20
1249.7603342916
 30
0.0
 11
330.2373956422
 21
1249.7603342916
 31
0.0
  0
LINE
  5
CF
330
1F
100
AcDbEntity
  8
0
  6
Continuous
 62
     7
370
    25
100
AcDbLine
 10
335.93739341
 20
1249.7603342916
 30
0.0
 11
337.9873945842
 21
1249.7603342916
 31
0.0
  0
LINE
  5
D0
330
1F
100
AcDbEntity
  8
0
  6
Continuous
 62
     7
370
    25
100
AcDbLine
 10
338.2873959372
 20
1249.7603342916
 30
0.0
 11
338.0451403091
 21
1248.036597767
 31
0.0
  0
SPLINE
  5
D1
330
1F
100
AcDbEntity
  8
0
  6
Continuous
 62
     7
370
    25
100
AcDbSpline
210
0.0
220
0.0
230
1.0
 70
     8
 71
     3
 72
    11
 73
     7
 74
     0
 42
0.000000001
 43
0.00000001
 40
0.0
 40
0.0
 40
0.0
 40
0.0
 40
0.2500034953630773
 40
0.4999944278690287
 40
0.7500077065835323
 40
1.0
 40
1.0
 40
1.0
 40
1.0
 10
337.7479552755499
 20
1248.036597766986
 30
0.0
 10
337.7864236658191
 20
1248.031908155314
 30
0.0
 10
337.863358513293
 20
1248.022529167626
 30
0.0
 10
337.9608412603168
 20
1248.018531211287
 30
0.0
 10
338.0298360616039
 20
1248.02252852006
 30
0.0
 10
338.0400390360145
 20
1248.031908149232
 30
0.0
 10
338.0451403091097
 20
1248.036597766986
 30
0.0
  0
SPLINE
  5
D2
330
1F
100
AcDbEntity
  8
0
  6
Continuous
 62
     7
370
    25
100
AcDbSpline
210
0.0
220
0.0
230
1.0
 70
    24
 71
     3
 72
    11
 73
     7
 74
     0
 42
0.000000001
 43
0.00000001
 40
0.0
 40
0.0
 40
0.0
 40
0.0
 40
0.2500092151582679
 40
0.5000174148926816
 40
0.7500144415807284
 40
0.9999999999999999
 40
0.9999999999999999
 40
0.9999999999999999
 40
0.9999999999999999
 10
337.9902109036589
 20
1249.760334291568
 30
0.0
 10
338.0290094150029
 20
1249.760334291568
 30
0.0
 10
338.1066062801089
 20
1249.760334291568
 30
0.0
 10
338.2043657463496
 20
1249.760334291568
 30
0.0
 10
338.2730859606878
 20
1249.760334291568
 30
0.0
 10
338.2826160837995
 20
1249.760334291568
 30
0.0
 10
338.2873810360575
 20
1249.760334291568
 30
0.0
  0
LINE
  5
D3
330
1F
100
AcDbEntity
  8
0
  6
Continuous
 62
     7
370
    25
100
AcDbLine
 10
338.2873959372
 20
1250.1282663132
 30
0.0
 11
338.2873959372
 21
1249.7603342916
 31
0.0
  0
LINE
  5
D4
330
1F
100
AcDbEntity
  8
0
  6
Continuous
 62
     7
370
    25
100
AcDbLine
 10
337.7479590008
 20
1247.7782637859
 30
0.0
 11
337.7479590008
 21
1248.036597767
 31
0.0
  0
LINE
  5
D5
330
1F
100
AcDbEntity
  8
0
  6
Continuous
 62
     7
370
    25
100
AcDbLine
 10
267.4268312285
 20
1247.7782637859
 30
0.0
 11
337.7479590008
 21
1247.7782637859
 31
0.0
  0
LINE
  5
D6
330
1F
100
AcDbEntity
  8
0
  6
Continuous
 62
     7
370
    25
100
AcDbLine
 10
267.4268312285
 20
1248.036597767
 30
0.0
 11
267.4268312285
 21
1247.7782637859
 31
0.0
  0
ARC
  5
D7
330
1F
100
AcDbEntity
  8
0
  6
Continuous
 62
     7
370
    25
100
AcDbCircle
 10
337.7479607722
 20
1248.0783655969
 30
0.0
 40
0.3000997008971353
100
AcDbArc
 50
270.0000000764
 51
352.0000001254
  0
ARC
  5
D8
330
1F
100
AcDbEntity
  8
0
  6
Continuous
 62
     7
370
    25
100
AcDbCircle
 10
267.4268294563
 20
1248.0783655969
 30
0.0
 40
0.3000997008971353
100
AcDbArc
 50
187.9999998772
 51
269.9999999618
  0
LINE
  5
D9
330
1F
100
AcDbEntity
  8
0
  6
Continuous
 62
     7
370
    25
100
AcDbLine
 10
337.9902109037
 20
1249.7603342916
 30
0.0
 11
337.9873945842
 21
1249.7603342916
 31
0.0
  0
LINE
  5
DA
330
1F
100
AcDbEntity
  8
0
  6
Continuous
 62
     7
370
    25
100
AcDbLine
 10
361.5873954723
 20
1251.1282683397
 30
0.0
 11
243.587394757
 21
1251.1282683397
 31
0.0
  0
LINE
  5
DB
330
1F
100
AcDbEntity
  8
0
  6
Continuous
 62
     7
370
    25
100
AcDbLine
 10
361.5873954723
 20
1329.1282659909
 30
0.0
 11
361.5873954723
 21
1251.1282683397
 31
0.0
  0
LINE
  5
DC
330
1F
100
AcDbEntity
  8
0
  6
Continuous
 62
     7
370
    25
100
AcDbLine
 10
243.587394757
 20
1329.1282659909
 30
0.0
 11
361.5873954723
 21
1329.1282659909
 31
0.0
  0
LINE
  5
DD
330
1F
100
AcDbEntity
  8
0
  6
Continuous
 62
     7
370
    25
100
AcDbLine
 10
243.587394757
 20
1251.1282683397
 30
0.0
 11
243.587394757
 21
1329.1282659909
 31
0.0
  0
LINE
  5
DE
330
1F
100
AcDbEntity
  8
0
  6
Continuous
 62
     7
370
    25
100
AcDbLine
 10
392.587398691
 20
330.1282868768
 30
0.0
 11
392.587398691
 21
340.12827734
 31
0.0
  0
LINE
  5
DF
330
1F
100
AcDbEntity
  8
0
  6
Continuous
 62
     7
370
    25
100
AcDbLine
 10
212.5873915384
 20
330.1282868768
 30
0.0
 11
392.587398691
 21
330.1282868768
 31
0.0
  0
LINE
  5
E0
330
1F
100
AcDbEntity
  8
0
  6
Continuous
 62
     7
370
    25
100
AcDbLine
 10
212.5873915384
 20
340.12827734
 30
0.0
 11
212.5873915384
 21
330.1282868768
 31
0.0
  0
LINE
  5
E1
330
1F
100
AcDbEntity
  8
0
  6
Continuous
 62
     7
370
    25
100
AcDbLine
 10
212.5873915384
 20
340.12827734
 30
0.0
 11
392.587398691
 21
340.12827734
 31
0.0
  0
LINE
  5
E2
330
1F
100
AcDbEntity
  8
0
  6
Continuous
 62
     7
370
    25
100
AcDbLine
 10
212.5873915384
 20
330.1282868768
 30
0.0
 11
202.5873936246
 21
330.1282868768
 31
0.0
  0
LINE
  5
E3
330
1F
100
AcDbEntity
  8
0
  6
Continuous
 62
     7
370
    25
100
AcDbLine
 10
202.5873936246
 20
330.1282868768
 30
0.0
 11
202.5873936246
 21
340.12827734
 31
0.0
  0
LINE
  5
E4
330
1F
100
AcDbEntity
  8
0
  6
Continuous
 62
     7
370
    25
100
AcDbLine
 10
202.5873936246
 20
340.12827734
 30
0.0
 11
212.5873915384
 21
340.12827734
 31
0.0
  0
LINE
  5
E5
330
1F
100
AcDbEntity
  8
0
  6
Continuous
 62
     7
370
    25
100
AcDbLine
 10
402.5873966048
 20
340.12827734
 30
0.0
 11
402.5873966048
 21
330.1282868768
 31
0.0
  0
LINE
  5
E6
330
1F
100
AcDbEntity
  8
0
  6
Continuous
 62
     7
370
    25
100
AcDbLine
 10
402.5873966048
 20
330.1282868768
 30
0.0
 11
392.587398691
 21
330.1282868768
 31
0.0
  0
LINE
  5
E7
330
1F
100
AcDbEntity
  8
0
  6
Continuous
 62
     7
370
    25
100
AcDbLine
 10
392.587398691
 20
340.12827734
 30
0.0
 11
402.5873966048
 21
340.12827734
 31
0.0
  0
LINE
  5
E8
330
1F
100
AcDbEntity
  8
0
  6
Continuous
 62
     7
370
    25
100
AcDbLine
 10
242.5873964558
 20
340.12827734
 30
0.0
 11
242.5873964558
 21
1250.1282663132
 31
0.0
  0
LINE
  5
E9
330
1F
100
AcDbEntity
  8
0
  6
Continuous
 62
     7
370
    25
100
AcDbLine
 10
362.5873937736
 20
340.12827734
 30
0.0
 11
362.5873937736
 21
1250.1282663132
 31
0.0
  0
LINE
  5
EA
330
1F
100
AcDbEntity
  8
0
  6
Continuous
 62
     8
370
    25
100
AcDbLine
 10
281.0924235264
 20
1247.7780179168
 30
0.0
 11
281.0924235264
 21
1247.7782637859
 31
0.0
  0
LINE
  5
EB
330
1F
100
AcDbEntity
  8
0
  6
Continuous
 62
     8
370
    25
100
AcDbLine
 10
324.079038156
 20
1247.7780179168
 30
0.0
 11
324.079038156
 21
1247.7782637859
 31
0.0
  0
LINE
  5
EC
330
1F
100
AcDbEntity
  8
0
  6
Continuous
 62
     8
370
    25
100
AcDbLine
 10
267.1873956452
 20
1250.1282663132
 30
0.0
 11
267.1873956452
 21
1249.7603342916
 31
0.0
  0
LINE
  5
ED
330
1F
100
AcDbEntity
  8
0
  6
Continuous
 62
     8
370
    25
100
AcDbLine
 10
337.9873945842
 20
1249.7603342916
 30
0.0
 11
337.9873945842
 21
1250.1282663132
 31
0.0
  0
LINE
  5
EE
330
1F
100
AcDbEntity
  8
0
  6
Continuous
 62
     7
370
    25
100
AcDbLine
 10
844.7148533356
 20
1247.7780179168
 30
0.0
 11
844.7148533356
 21
1247.3980234052
 31
0.0
  0
LINE
  5
EF
330
1F
100
AcDbEntity
  8
0
  6
Continuous
 62
     7
370
    25
100
AcDbLine
 10
850.4148529661
 20
1247.3980234052
 30
0.0
 11
850.4148529661
 21
1247.7780179168
 31
0.0
  0
ARC
  5
F0
330
1F
100
AcDbEntity
  8
0
  6
Continuous
 62
     7
370
    25
100
AcDbCircle
 10
846.619215223
 20
1248.0911520769
 30
0.0
 40
2.026579787012544
100
AcDbArc
 50
200.0
 51
255.6250378776
  0
ARC
  5
F1
330
1F
100
AcDbEntity
  8
0
  6
Continuous
 62
     7
370
    25
100
AcDbCircle
 10
848.5104910804
 20
1248.0911520769
 30
0.0
 40
2.026579787012544
100
AcDbArc
 50
284.3749621224
 51
340.0
  0
LINE
  5
F2
330
1F
100
AcDbEntity
  8
0
  6
Continuous
 62
     7
370
    25
100
AcDbLine
 10
1007.3148639691
 20
1247.7780179168
 30
0.0
 11
1007.3148639691
 21
1247.3980234052
 31
0.0
  0
LINE
  5
F3
330
1F
100
AcDbEntity
  8
0
  6
Continuous
 62
     7
370
    25
100
AcDbLine
 10
1013.014856149
 20
1247.3980234052
 30
0.0
 11
1013.014856149
 21
1247.7780179168
 31
0.0
  0
ARC
  5
F4
330
1F
100
AcDbEntity
  8
0
  6
Continuous
 62
     7
370
    25
100
AcDbCircle
 10
1009.2192152251
 20
1248.0911520769
 30
0.0
 40
2.026579787012324
100
AcDbArc
 50
200.0
 51
255.6250378776
  0
ARC
  5
F5
330
1F
100
AcDbEntity
  8
0
  6
Continuous
 62
     7
370
    25
100
AcDbCircle
 10
1011.1104910825
 20
1248.0911520769
 30
0.0
 40
2.026579787012324
100
AcDbArc
 50
284.3749621224
 51
340.0
  0
LINE
  5
F6
330
1F
100
AcDbEntity
  8
0
  6
Continuous
 62
     7
370
    25
100
AcDbLine
 10
953.1148554576
 20
1247.7780179168
 30
0.0
 11
953.1148554576
 21
1247.3980234052
 31
0.0
  0
LINE
  5
F7
330
1F
100
AcDbEntity
  8
0
  6
Continuous
 62
     7
370
    25
100
AcDbLine
 10
958.8148476374
 20
1247.3980234052
 30
0.0
 11
958.8148476374
 21
1247.7780179168
 31
0.0
  0
ARC
  5
F8
330
1F
100
AcDbEntity
  8
0
  6
Continuous
 62
     7
370
    25
100
AcDbCircle
 10
955.0192138332
 20
1248.0911520769
 30
0.0
 40
2.026579787012544
100
AcDbArc
 50
200.0
 51
255.6250378776
  0
ARC
  5
F9
330
1F
100
AcDbEntity
  8
0
  6
Continuous
 62
     7
370
    25
100
AcDbCircle
 10
956.9104896906
 20
1248.0911520769
 30
0.0
 40
2.026579787012573
100
AcDbArc
 50
284.3749621224
 51
340.0
  0
LINE
  5
FA
330
1F
100
AcDbEntity
  8
0
  6
Continuous
 62
     7
370
    25
100
AcDbLine
 10
1019.014838506
 20
1250.1282663132
 30
0.0
 11
1019.014838506
 21
1249.748264351
 31
0.0
  0
LINE
  5
FB
330
1F
100
AcDbEntity
  8
0
  6
Continuous
 62
     7
370
    25
100
AcDbLine
 10
1024.7148604882
 20
1249.748264351
 30
0.0
 11
1024.7148604882
 21
1250.1282663132
 31
0.0
  0
ARC
  5
FC
330
1F
100
AcDbEntity
  8
0
  6
Continuous
 62
     7
370
    25
100
AcDbCircle
 10
1020.9192138334
 20
1250.4413970052
 30
0.0
 40
2.026579787012544
100
AcDbArc
 50
200.0
 51
255.6250378776
  0
ARC
  5
FD
330
1F
100
AcDbEntity
  8
0
  6
Continuous
 62
     7
370
    25
100
AcDbCircle
 10
1022.8104896908
 20
1250.4413970052
 30
0.0
 40
2.026579787012573
100
AcDbArc
 50
284.3749621224
 51
340.0
  0
LINE
  5
FE
330
1F
100
AcDbEntity
  8
0
  6
Continuous
 62
     7
370
    25
100
AcDbLine
 10
619.0148548973
 20
1250.1282663132
 30
0.0
 11
619.0148548973
 21
1249.748264351
 31
0.0
  0
LINE
  5
FF
330
1F
100
AcDbEntity
  8
0
  6
Continuous
 62
     7
370
    25
100
AcDbLine
 10
624.7148545277
 20
1249.748264351
 30
0.0
 11
624.7148545277
 21
1250.1282663132
 31
0.0
  0
ARC
  5
100
330
1F
100
AcDbEntity
  8
0
  6
Continuous
 62
     7
370
    25
100
AcDbCircle
 10
620.9192138334
 20
1250.4413970052
 30
0.0
 40
2.026579787012353
100
AcDbArc
 50
200.0
 51
255.6250378776
  0
ARC
  5
101
330
1F
100
AcDbEntity
  8
0
  6
Continuous
 62
     7
370
    25
100
AcDbCircle
 10
622.8104896908
 20
1250.4413970052
 30
0.0
 40
2.026579787012544
100
AcDbArc
 50
284.3749621224
 51
340.0
  0
LINE
  5
102
330
1F
100
AcDbEntity
  8
0
  6
Continuous
 62
     7
370
    25
100
AcDbLine
 10
898.914846946
 20
1247.7780179168
 30
0.0
 11
898.914846946
 21
1247.3980234052
 31
0.0
  0
LINE
  5
103
330
1F
100
AcDbEntity
  8
0
  6
Continuous
 62
     7
370
    25
100
AcDbLine
 10
904.6148540271
 20
1247.3980234052
 30
0.0
 11
904.6148540271
 21
1247.7780179168
 31
0.0
  0
ARC
  5
104
330
1F
100
AcDbEntity
  8
0
  6
Continuous
 62
     7
370
    25
100
AcDbCircle
 10
900.8192152241
 20
1248.0911520769
 30
0.0
 40
2.026579787012573
100
AcDbArc
 50
200.0
 51
255.6250378776
  0
ARC
  5
105
330
1F
100
AcDbEntity
  8
0
  6
Continuous
 62
     7
370
    25
100
AcDbCircle
 10
902.7104910815
 20
1248.0911520769
 30
0.0
 40
2.026579787012573
100
AcDbArc
 50
284.3749621224
 51
340.0
  0
ARC
  5
106
330
1F
100
AcDbEntity
  8
0
  6
Continuous
 62
     7
370
    25
100
AcDbCircle
 10
834.9192138334
 20
1250.4413970052
 30
0.0
 40
2.026579787012601
100
AcDbArc
 50
200.0
 51
255.6250378776
  0
ARC
  5
107
330
1F
100
AcDbEntity
  8
0
  6
Continuous
 62
     7
370
    25
100
AcDbCircle
 10
836.8104896908
 20
1250.4413970052
 30
0.0
 40
2.026579787012573
100
AcDbArc
 50
284.3749621224
 51
340.0
  0
LINE
  5
108
330
1F
100
AcDbEntity
  8
0
  6
Continuous
 62
     7
370
    25
100
AcDbLine
 10
833.0148489964
 20
1250.1282663132
 30
0.0
 11
833.0148489964
 21
1249.748264351
 31
0.0
  0
LINE
  5
109
330
1F
100
AcDbEntity
  8
0
  6
Continuous
 62
     7
370
    25
100
AcDbLine
 10
838.7148486269
 20
1249.748264351
 30
0.0
 11
838.7148486269
 21
1250.1282663132
 31
0.0
  0
LINE
  5
10A
330
1F
100
AcDbEntity
  8
0
  6
Continuous
 62
     7
370
    25
100
AcDbLine
 10
433.014843036
 20
1250.1282663132
 30
0.0
 11
433.014843036
 21
1249.748264351
 31
0.0
  0
LINE
  5
10B
330
1F
100
AcDbEntity
  8
0
  6
Continuous
 62
     7
370
    25
100
AcDbLine
 10
438.7148650182
 20
1249.748264351
 30
0.0
 11
438.7148650182
 21
1250.1282663132
 31
0.0
  0
ARC
  5
10C
330
1F
100
AcDbEntity
  8
0
  6
Continuous
 62
     7
370
    25
100
AcDbCircle
 10
434.9192138334
 20
1250.4413970052
 30
0.0
 40
2.026579787012573
100
AcDbArc
 50
200.0
 51
255.6250378776
  0
ARC
  5
10D
330
1F
100
AcDbEntity
  8
0
  6
Continuous
 62
     7
370
    25
100
AcDbCircle
 10
436.8104896908
 20
1250.4413970052
 30
0.0
 40
2.026579787012573
100
AcDbArc
 50
284.3749621224
 51
340.0
  0
ARC
  5
10E
330
1F
100
AcDbEntity
  8
0
  6
Continuous
 62
     7
370
    25
100
AcDbCircle
 10
446.6192124416
 20
1248.0911520769
 30
0.0
 40
2.026579787012573
100
AcDbArc
 50
200.0
 51
255.6250378776
  0
ARC
  5
10F
330
1F
100
AcDbEntity
  8
0
  6
Continuous
 62
     7
370
    25
100
AcDbCircle
 10
448.510488299
 20
1248.0911520769
 30
0.0
 40
2.026579787012559
100
AcDbArc
 50
284.3749621224
 51
340.0
  0
LINE
  5
110
330
1F
100
AcDbEntity
  8
0
  6
Continuous
 62
     7
370
    25
100
AcDbLine
 10
444.7148473752
 20
1247.7780179168
 30
0.0
 11
444.7148473752
 21
1247.3980234052
 31
0.0
  0
LINE
  5
111
330
1F
100
AcDbEntity
  8
0
  6
Continuous
 62
     7
370
    25
100
AcDbLine
 10
450.414839555
 20
1247.3980234052
 30
0.0
 11
450.414839555
 21
1247.7780179168
 31
0.0
  0
ARC
  5
112
330
1F
100
AcDbEntity
  8
0
  6
Continuous
 62
     7
370
    25
100
AcDbCircle
 10
555.0192124426
 20
1248.0911520769
 30
0.0
 40
2.026579787012573
100
AcDbArc
 50
200.0
 51
255.6250378776
  0
ARC
  5
113
330
1F
100
AcDbEntity
  8
0
  6
Continuous
 62
     7
370
    25
100
AcDbCircle
 10
556.9104883
 20
1248.0911520769
 30
0.0
 40
2.026579787012573
100
AcDbArc
 50
284.3749621224
 51
340.0
  0
LINE
  5
114
330
1F
100
AcDbEntity
  8
0
  6
Continuous
 62
     7
370
    25
100
AcDbLine
 10
553.1148494971
 20
1247.7780179168
 30
0.0
 11
553.1148494971
 21
1247.3980234052
 31
0.0
  0
LINE
  5
115
330
1F
100
AcDbEntity
  8
0
  6
Continuous
 62
     7
370
    25
100
AcDbLine
 10
558.8148565781
 20
1247.3980234052
 30
0.0
 11
558.8148565781
 21
1247.7780179168
 31
0.0
  0
LINE
  5
116
330
1F
100
AcDbEntity
  8
0
  6
Continuous
 62
     7
370
    25
100
AcDbLine
 10
498.9148558867
 20
1247.7780179168
 30
0.0
 11
498.9148558867
 21
1247.3980234052
 31
0.0
  0
LINE
  5
117
330
1F
100
AcDbEntity
  8
0
  6
Continuous
 62
     7
370
    25
100
AcDbLine
 10
504.6148480666
 20
1247.3980234052
 30
0.0
 11
504.6148480666
 21
1247.7780179168
 31
0.0
  0
ARC
  5
118
330
1F
100
AcDbEntity
  8
0
  6
Continuous
 62
     7
370
    25
100
AcDbCircle
 10
500.8192138335
 20
1248.0911520769
 30
0.0
 40
2.026579787012559
100
AcDbArc
 50
200.0
 51
255.6250378776
  0
ARC
  5
119
330
1F
100
AcDbEntity
  8
0
  6
Continuous
 62
     7
370
    25
100
AcDbCircle
 10
502.7104896909
 20
1248.0911520769
 30
0.0
 40
2.026579787012587
100
AcDbArc
 50
284.3749621224
 51
340.0
  0
ARC
  5
11A
330
1F
100
AcDbEntity
  8
0
  6
Continuous
 62
     7
370
    25
100
AcDbCircle
 10
609.2192124437
 20
1248.0911520769
 30
0.0
 40
2.02657978701233
100
AcDbArc
 50
200.0
 51
255.6250378776
  0
ARC
  5
11B
330
1F
100
AcDbEntity
  8
0
  6
Continuous
 62
     7
370
    25
100
AcDbCircle
 10
611.1104883011
 20
1248.0911520769
 30
0.0
 40
2.02657978701233
100
AcDbArc
 50
284.3749621224
 51
340.0
  0
LINE
  5
11C
330
1F
100
AcDbEntity
  8
0
  6
Continuous
 62
     7
370
    25
100
AcDbLine
 10
607.3148505581
 20
1247.7780179168
 30
0.0
 11
607.3148505581
 21
1247.3980234052
 31
0.0
  0
LINE
  5
11D
330
1F
100
AcDbEntity
  8
0
  6
Continuous
 62
     7
370
    25
100
AcDbLine
 10
613.0148501885
 20
1247.3980234052
 30
0.0
 11
613.0148501885
 21
1247.7780179168
 31
0.0
  0
LINE
  5
11E
330
1F
100
AcDbEntity
  8
0
  6
Continuous
 62
     7
370
    25
100
AcDbLine
 10
530.6192071927
 20
1247.4780202891
 30
0.0
 11
531.9117041123
 21
1247.7707237984
 31
0.0
  0
SPLINE
  5
11F
330
1F
100
AcDbEntity
  8
0
  6
Continuous
 62
     7
370
    25
100
AcDbSpline
210
0.0
220
0.0
230
1.0
 70
     8
 71
     3
 72
     9
 73
     5
 74
     0
 42
0.000000001
 43
0.00000001
 40
0.0
 40
0.0
 40
0.0
 40
0.0
 40
0.1726525363127999
 40
1.0
 40
1.0
 40
1.0
 40
1.0
 10
525.9064318430666
 20
1247.778017916789
 30
0.0
 10
525.9665967117014
 20
1247.736334493302
 30
0.0
 10
526.3150704145479
 20
1247.494904947132
 30
0.0
 10
526.7546300390268
 20
1247.48566496491
 30
0.0
 10
527.1182985794786
 20
1247.478020289054
 30
0.0
  0
SPLINE
  5
120
330
1F
100
AcDbEntity
  8
0
  6
Continuous
 62
     7
370
    25
100
AcDbSpline
210
0.0
220
0.0
230
1.0
 70
     8
 71
     3
 72
    13
 73
     9
 74
     0
 42
0.000000001
 43
0.00000001
 40
0.0
 40
0.0
 40
0.0
 40
0.0
 40
0.103196628550302
 40
0.2561367763567615
 40
0.3981120114322395
 40
0.5291806875278923
 40
0.7674488781221326
 40
1.0
 40
1.0
 40
1.0
 40
1.0
 10
584.2271925699953
 20
1247.778263785949
 30
0.0
 10
584.2452350375428
 20
1247.561396213792
 30
0.0
 10
584.2900169217966
 20
1247.023125132565
 30
0.0
 10
584.621665123822
 20
1246.239457814381
 30
0.0
 10
585.1254251249603
 20
1245.504847852787
 30
0.0
 10
585.8987416736952
 20
1244.796950657978
 30
0.0
 10
587.0380471382075
 20
1244.229865243839
 30
0.0
 10
587.9847324652883
 20
1244.16169461086
 30
0.0
 10
588.4523274195436
 20
1244.12802318584
 30
0.0
  0
SPLINE
  5
121
330
1F
100
AcDbEntity
  8
0
  6
Continuous
 62
     7
370
    25
100
AcDbSpline
210
0.0
220
0.0
230
1.0
 70
     8
 71
     3
 72
    13
 73
     9
 74
     0
 42
0.000000001
 43
0.00000001
 40
0.0
 40
0.0
 40
0.0
 40
0.0
 40
0.1031613379130015
 40
0.2561074425100107
 40
0.3980868744115065
 40
0.5291623498181973
 40
0.7674398206029329
 40
1.0
 40
1.0
 40
1.0
 40
1.0
 10
558.8272245419267
 20
1247.778017916789
 30
0.0
 10
558.8452623700651
 20
1247.561233252259
 30
0.0
 10
558.8900429257113
 20
1247.023045524846
 30
0.0
 10
559.2216732005226
 20
1246.239464264615
 30
0.0
 10
559.7254099556471
 20
1245.50483824356
 30
0.0
 10
560.4987479023836
 20
1244.796958650236
 30
0.0
 10
561.6380471334212
 20
1244.229863329882
 30
0.0
 10
562.5847339159902
 20
1244.16169397806
 30
0.0
 10
563.0523295891527
 20
1244.12802318584
 30
0.0
  0
SPLINE
  5
122
330
1F
100
AcDbEntity
  8
0
  6
Continuous
 62
     7
370
    25
100
AcDbSpline
210
0.0
220
0.0
230
1.0
 70
     8
 71
     3
 72
    13
 73
     9
 74
     0
 42
0.000000001
 43
0.00000001
 40
0.0
 40
0.0
 40
0.0
 40
0.0
 40
0.1041161310654228
 40
0.2568993752819943
 40
0.3987276243576526
 40
0.5296635277115145
 40
0.767685215779475
 40
1.0
 40
1.0
 40
1.0
 40
1.0
 10
533.4263773453478
 20
1247.784678735843
 30
0.0
 10
533.4445515474735
 20
1247.565644089972
 30
0.0
 10
533.4893951382268
 20
1247.025191202285
 30
0.0
 10
533.8216074315659
 20
1246.239450648625
 30
0.0
 10
534.3254277989782
 20
1245.504841238679
 30
0.0
 10
535.0987396034969
 20
1244.796960748082
 30
0.0
 10
536.2380434463153
 20
1244.229858966895
 30
0.0
 10
537.1847312512725
 20
1244.16169274422
 30
0.0
 10
537.6523317587618
 20
1244.12802318584
 30
0.0
  0
SPLINE
  5
123
330
1F
100
AcDbEntity
  8
0
  6
Continuous
 62
     7
370
    25
100
AcDbSpline
210
0.0
220
0.0
230
1.0
 70
     8
 71
     3
 72
    13
 73
     9
 74
     0
 42
0.000000001
 43
0.00000001
 40
0.0
 40
0.0
 40
0.0
 40
0.0
 40
0.1031611817790184
 40
0.2561070548931387
 40
0.3980876048052551
 40
0.5291628818301055
 40
0.7674379301727592
 40
1.0
 40
1.0
 40
1.0
 40
1.0
 10
508.0272139799837
 20
1247.778017916789
 30
0.0
 10
508.0452519900774
 20
1247.561233372135
 30
0.0
 10
508.0900329974444
 20
1247.023045942327
 30
0.0
 10
508.4216598553639
 20
1246.239459075787
 30
0.0
 10
508.9254155966353
 20
1245.50484225269
 30
0.0
 10
509.6987479745312
 20
1244.796961165273
 30
0.0
 10
510.838043760133
 20
1244.22985884205
 30
0.0
 10
511.7847328073087
 20
1244.161692702943
 30
0.0
 10
512.2523339283708
 20
1244.12802318584
 30
0.0
  0
SPLINE
  5
124
330
1F
100
AcDbEntity
  8
0
  6
Continuous
 62
     7
370
    25
100
AcDbSpline
210
0.0
220
0.0
230
1.0
 70
     8
 71
     3
 72
    13
 73
     9
 74
     0
 42
0.000000001
 43
0.00000001
 40
0.0
 40
0.0
 40
0.0
 40
0.0
 40
0.1031963971504943
 40
0.256136202016285
 40
0.3981111187379314
 40
0.529179500935742
 40
0.7674471572565832
 40
0.9999999999999999
 40
0.9999999999999999
 40
0.9999999999999999
 40
0.9999999999999999
 10
482.6271863472705
 20
1247.778263785949
 30
0.0
 10
482.6452288146683
 20
1247.561396213781
 30
0.0
 10
482.6900106985508
 20
1247.023125132527
 30
0.0
 10
483.0216589042957
 20
1246.239457814615
 30
0.0
 10
483.5254188916846
 20
1245.504847852017
 30
0.0
 10
484.2987354994311
 20
1244.796950661515
 30
0.0
 10
485.4380448108788
 20
1244.229863105691
 30
0.0
 10
486.3847359776266
 20
1244.161694013917
 30
0.0
 10
486.85233609798
 20
1244.12802318584
 30
0.0
  0
SPLINE
  5
125
330
1F
100
AcDbEntity
  8
0
  6
Continuous
 62
     7
370
    25
100
AcDbSpline
210
0.0
220
0.0
230
1.0
 70
     8
 71
     3
 72
    13
 73
     9
 74
     0
 42
0.000000001
 43
0.00000001
 40
0.0
 40
0.0
 40
0.0
 40
0.0
 40
0.0817569284233302
 40
0.238353956355542
 40
0.3837217138790532
 40
0.5179235582064313
 40
0.7618874981409315
 40
1.0
 40
1.0
 40
1.0
 40
1.0
 10
457.2456212532763
 20
1247.632314362635
 30
0.0
 10
457.260577391726
 20
1247.464714482947
 30
0.0
 10
457.3041804824986
 20
1246.976094188876
 30
0.0
 10
457.6233199619296
 20
1246.239797453116
 30
0.0
 10
458.1250379464817
 20
1245.5047662823
 30
0.0
 10
458.8989309666642
 20
1244.796990675322
 30
0.0
 10
460.0379891359287
 20
1244.229851131508
 30
0.0
 10
460.9847190223758
 20
1244.161690054952
 30
0.0
 10
461.452338267589
 20
1244.12802318584
 30
0.0
  0
SPLINE
  5
126
330
1F
100
AcDbEntity
  8
0
  6
Continuous
 62
     7
370
    25
100
AcDbSpline
210
0.0
220
0.0
230
1.0
 70
     8
 71
     3
 72
     9
 73
     5
 74
     0
 42
0.000000001
 43
0.00000001
 40
0.0
 40
0.0
 40
0.0
 40
0.0
 40
0.1806372506847765
 40
1.0
 40
1.0
 40
1.0
 40
1.0
 10
576.6961009991411
 20
1247.784678735843
 30
0.0
 10
576.7596178137334
 20
1247.740532302439
 30
0.0
 10
577.1112441496714
 20
1247.496139558218
 30
0.0
 10
577.5548335827808
 20
1247.486180428753
 30
0.0
 10
577.9182942402605
 20
1247.478020289054
 30
0.0
  0
SPLINE
  5
127
330
1F
100
AcDbEntity
  8
0
  6
Continuous
 62
     7
370
    25
100
AcDbSpline
210
0.0
220
0.0
230
1.0
 70
     8
 71
     3
 72
     9
 73
     5
 74
     0
 42
0.000000001
 43
0.00000001
 40
0.0
 40
0.0
 40
0.0
 40
0.0
 40
0.1729448977406353
 40
1.0
 40
1.0
 40
1.0
 40
1.0
 10
475.106063653255
 20
1247.778263785949
 30
0.0
 10
475.1663492349986
 20
1247.736489652181
 30
0.0
 10
475.5149318328733
 20
1247.494943736031
 30
0.0
 10
475.9546400194682
 20
1247.485681044963
 30
0.0
 10
476.3183029186969
 20
1247.478020289054
 30
0.0
  0
SPLINE
  5
128
330
1F
100
AcDbEntity
  8
0
  6
Continuous
 62
     7
370
    25
100
AcDbSpline
210
0.0
220
0.0
230
1.0
 70
     8
 71
     3
 72
     9
 73
     5
 74
     0
 42
0.000000001
 43
0.00000001
 40
0.0
 40
0.0
 40
0.0
 40
0.0
 40
0.9903006653118396
 40
1.0
 40
1.0
 40
1.0
 40
1.0
 10
479.8192115319018
 20
1247.478020289054
 30
0.0
 10
480.2853273910031
 20
1247.496838075113
 30
0.0
 10
480.7560085441401
 20
1247.515840168839
 30
0.0
 10
481.1187402177546
 20
1247.77574290235
 30
0.0
 10
481.122258473659
 20
1247.778263785949
 30
0.0
  0
LINE
  5
129
330
1F
100
AcDbEntity
  8
0
  6
Continuous
 62
     7
370
    25
100
AcDbLine
 10
505.2192093623
 20
1247.4780202891
 30
0.0
 11
506.5117062819
 21
1247.7707237984
 31
0.0
  0
SPLINE
  5
12A
330
1F
100
AcDbEntity
  8
0
  6
Continuous
 62
     7
370
    25
100
AcDbSpline
210
0.0
220
0.0
230
1.0
 70
     8
 71
     3
 72
     9
 73
     5
 74
     0
 42
0.000000001
 43
0.00000001
 40
0.0
 40
0.0
 40
0.0
 40
0.0
 40
0.9903097443419324
 40
1.0
 40
1.0
 40
1.0
 40
1.0
 10
581.4192028534654
 20
1247.478020289054
 30
0.0
 10
581.885409369539
 20
1247.496717139785
 30
0.0
 10
582.3561777515903
 20
1247.515596940613
 30
0.0
 10
582.7187365081803
 20
1247.775742905045
 30
0.0
 10
582.7222497952226
 20
1247.778263785949
 30
0.0
  0
SPLINE
  5
12B
330
1F
100
AcDbEntity
  8
0
  6
Continuous
 62
     7
370
    25
100
AcDbSpline
210
0.0
220
0.0
230
1.0
 70
     8
 71
     3
 72
     9
 73
     5
 74
     0
 42
0.000000001
 43
0.00000001
 40
0.0
 40
0.0
 40
0.0
 40
0.0
 40
0.1738958663131562
 40
1.0
 40
1.0
 40
1.0
 40
1.0
 10
551.304850150371
 20
1247.779046096911
 30
0.0
 10
551.3655320435939
 20
1247.736983121782
 30
0.0
 10
551.7144873954919
 20
1247.495097124022
 30
0.0
 10
552.1546643818693
 20
1247.485745611886
 30
0.0
 10
552.5182964098695
 20
1247.478020289054
 30
0.0
  0
ARC
  5
12C
330
1F
100
AcDbEntity
  8
0
  6
Continuous
 62
     7
370
    25
100
AcDbCircle
 10
532.8673786098
 20
1249.4780209677
 30
0.0
 40
3.000000000000455
100
AcDbArc
 50
270.0
 51
286.307927155
  0
ARC
  5
12D
330
1F
100
AcDbEntity
  8
0
  6
Continuous
 62
     7
370
    25
100
AcDbCircle
 10
524.870127711
 20
1249.4780209677
 30
0.0
 40
3.000000000000272
100
AcDbArc
 50
237.4151077722
 51
270.0
  0
SPLINE
  5
12E
330
1F
100
AcDbEntity
  8
0
  6
Continuous
 62
     7
370
    25
100
AcDbSpline
210
0.0
220
0.0
230
1.0
 70
     8
 71
     3
 72
     9
 73
     5
 74
     0
 42
0.000000001
 43
0.00000001
 40
0.0
 40
0.0
 40
0.0
 40
0.0
 40
0.9005475157621351
 40
0.9999999999999999
 40
0.9999999999999999
 40
0.9999999999999999
 40
0.9999999999999999
 10
599.6192129147295
 20
1247.478020289054
 30
0.0
 10
600.0821972992007
 20
1247.503881821883
 30
0.0
 10
600.5963116311684
 20
1247.532599388004
 30
0.0
 10
600.991470573788
 20
1247.826573020727
 30
0.0
 10
601.0307701123003
 20
1247.855809428801
 30
0.0
  0
SPLINE
  5
12F
330
1F
100
AcDbEntity
  8
0
  6
Continuous
 62
     7
370
    25
100
AcDbSpline
210
0.0
220
0.0
230
1.0
 70
     8
 71
     3
 72
     9
 73
     5
 74
     0
 42
0.000000001
 43
0.00000001
 40
0.0
 40
0.0
 40
0.0
 40
0.0
 40
0.592046498695121
 40
1.0
 40
1.0
 40
1.0
 40
1.0
 10
456.8960996163134
 20
1247.784678735843
 30
0.0
 10
456.9573329324535
 20
1247.734723731312
 30
0.0
 10
457.0607594644491
 20
1247.650346905097
 30
0.0
 10
457.1922481887268
 20
1247.637507527995
 30
0.0
 10
457.2458894741778
 20
1247.632269659152
 30
0.0
  0
SPLINE
  5
130
330
1F
100
AcDbEntity
  8
0
  6
Continuous
 62
     7
370
    25
100
AcDbSpline
210
0.0
220
0.0
230
1.0
 70
     8
 71
     3
 72
    12
 73
     8
 74
     0
 42
0.000000001
 43
0.00000001
 40
0.0
 40
0.0
 40
0.0
 40
0.0
 40
0.1676144657443639
 40
0.4449277982126788
 40
0.6294629434108782
 40
0.8284434643434788
 40
0.9999999999999999
 40
0.9999999999999999
 40
0.9999999999999999
 40
0.9999999999999999
 10
573.750111628795
 20
1246.199165382495
 30
0.0
 10
573.7510409111153
 20
1246.017568881423
 30
0.0
 10
573.7535076644161
 20
1245.535526170932
 30
0.0
 10
574.0237703307066
 20
1244.890721344061
 30
0.0
 10
574.4277167825583
 20
1244.304248537067
 30
0.0
 10
574.8647585117261
 20
1243.884420507027
 30
0.0
 10
575.2125315239351
 20
1243.686318816478
 30
0.0
 10
575.3735484373811
 20
1243.594598868003
 30
0.0
  0
SPLINE
  5
131
330
1F
100
AcDbEntity
  8
0
  6
Continuous
 62
     7
370
    25
100
AcDbSpline
210
0.0
220
0.0
230
1.0
 70
     8
 71
     3
 72
     9
 73
     5
 74
     0
 42
0.000000001
 43
0.00000001
 40
0.0
 40
0.0
 40
0.0
 40
0.0
 40
0.9906219872082404
 40
1.0
 40
1.0
 40
1.0
 40
1.0
 10
505.2192093622927
 20
1247.478020289054
 30
0.0
 10
505.6854193918332
 20
1247.496702962486
 30
0.0
 10
506.1560429349816
 20
1247.51556250091
 30
0.0
 10
506.5185143160937
 20
1247.775579474287
 30
0.0
 10
506.5219135773424
 20
1247.778017916789
 30
0.0
  0
SPLINE
  5
132
330
1F
100
AcDbEntity
  8
0
  6
Continuous
 62
     7
370
    25
100
AcDbSpline
210
0.0
220
0.0
230
1.0
 70
     8
 71
     3
 72
    13
 73
     9
 74
     0
 42
0.000000001
 43
0.00000001
 40
0.0
 40
0.0
 40
0.0
 40
0.0
 40
0.1283931725480676
 40
0.391869318059906
 40
0.5446094753746008
 40
0.7115724337585035
 40
0.8915616355631732
 40
1.0
 40
1.0
 40
1.0
 40
1.0
 10
996.5356619847063
 20
1244.15498683702
 30
0.0
 10
996.7858057516617
 20
1244.158066877667
 30
0.0
 10
997.5492705483354
 20
1244.167467482106
 30
0.0
 10
998.5542543080572
 20
1244.601354923269
 30
0.0
 10
999.4391564624403
 20
1245.310837674969
 30
0.0
 10
1000.0288187368
 20
1246.089906772169
 30
0.0
 10
1000.412642960781
 20
1246.907388496265
 30
0.0
 10
1000.464843994664
 20
1247.4658008775
 30
0.0
 10
1000.484469701076
 20
1247.675743796935
 30
0.0
  0
SPLINE
  5
133
330
1F
100
AcDbEntity
  8
0
  6
Continuous
 62
     7
370
    25
100
AcDbSpline
210
0.0
220
0.0
230
1.0
 70
     8
 71
     3
 72
    13
 73
     9
 74
     0
 42
0.000000001
 43
0.00000001
 40
0.0
 40
0.0
 40
0.0
 40
0.0
 40
0.1260101041272375
 40
0.3845908041173767
 40
0.5344930152580173
 40
0.6983552969356537
 40
0.8750002592448761
 40
1.0
 40
1.0
 40
1.0
 40
1.0
 10
971.1356492531542
 20
1244.15498683702
 30
0.0
 10
971.3857935427934
 20
1244.158067461007
 30
0.0
 10
972.149249728819
 20
1244.167469720174
 30
0.0
 10
973.1543937926738
 20
1244.601324761877
 30
0.0
 10
974.0388741800176
 20
1245.310902482491
 30
0.0
 10
974.6300672885721
 20
1246.089639362792
 30
0.0
 10
975.0242543308924
 20
1246.942295217369
 30
0.0
 10
975.0774277114915
 20
1247.537874346495
 30
0.0
 10
975.0994624388461
 20
1247.784678735843
 30
0.0
  0
SPLINE
  5
134
330
1F
100
AcDbEntity
  8
0
  6
Continuous
 62
     7
370
    25
100
AcDbSpline
210
0.0
220
0.0
230
1.0
 70
     8
 71
     3
 72
    13
 73
     9
 74
     0
 42
0.000000001
 43
0.00000001
 40
0.0
 40
0.0
 40
0.0
 40
0.0
 40
0.126010354349768
 40
0.3845892407231712
 40
0.5344917495297081
 40
0.6983543565942255
 40
0.8749996696733308
 40
1.0
 40
1.0
 40
1.0
 40
1.0
 10
869.5356579315904
 20
1244.15498683702
 30
0.0
 10
869.7858023123208
 20
1244.158067191798
 30
0.0
 10
870.549254156835
 20
1244.167468572433
 30
0.0
 10
871.5543910312836
 20
1244.601328492547
 30
0.0
 10
872.4388676488766
 20
1245.310902337657
 30
0.0
 10
873.0300626916758
 20
1246.089639195652
 30
0.0
 10
873.4242425589506
 20
1246.94229663755
 30
0.0
 10
873.477430373386
 20
1247.537874483533
 30
0.0
 10
873.4994711172823
 20
1247.784678735843
 30
0.0
  0
SPLINE
  5
135
330
1F
100
AcDbEntity
  8
0
  6
Continuous
 62
     7
370
    25
100
AcDbSpline
210
0.0
220
0.0
230
1.0
 70
     8
 71
     3
 72
    13
 73
     9
 74
     0
 42
0.000000001
 43
0.00000001
 40
0.0
 40
0.0
 40
0.0
 40
0.0
 40
0.1261536247458945
 40
0.3850265083838231
 40
0.5350994523258525
 40
0.6991483667834856
 40
0.8759945208498997
 40
1.0
 40
1.0
 40
1.0
 40
1.0
 10
945.7356514227632
 20
1244.15498683702
 30
0.0
 10
945.9857960553688
 20
1244.158067137954
 30
0.0
 10
946.7492486686173
 20
1244.167468354254
 30
0.0
 10
947.7543768293267
 20
1244.601330137131
 30
0.0
 10
948.638877210723
 20
1245.31089890218
 30
0.0
 10
949.2299865369338
 20
1246.089654084074
 30
0.0
 10
949.6235205542681
 20
1246.940163818781
 30
0.0
 10
949.6766547180107
 20
1247.533468641616
 30
0.0
 10
949.6985556376222
 20
1247.778017916789
 30
0.0
  0
SPLINE
  5
136
330
1F
100
AcDbEntity
  8
0
  6
Continuous
 62
     7
370
    25
100
AcDbSpline
210
0.0
220
0.0
230
1.0
 70
     8
 71
     3
 72
    13
 73
     9
 74
     0
 42
0.000000001
 43
0.00000001
 40
0.0
 40
0.0
 40
0.0
 40
0.0
 40
0.1261536247458945
 40
0.3850265083838231
 40
0.5350994523258525
 40
0.6991483667834856
 40
0.8759945208498997
 40
1.0
 40
1.0
 40
1.0
 40
1.0
 10
920.3356535923723
 20
1244.15498683702
 30
0.0
 10
920.5857982249779
 20
1244.158067137954
 30
0.0
 10
921.3492508382265
 20
1244.167468354254
 30
0.0
 10
922.3543789989359
 20
1244.601330137131
 30
0.0
 10
923.238879380332
 20
1245.31089890218
 30
0.0
 10
923.8299887065428
 20
1246.089654084074
 30
0.0
 10
924.2235227238772
 20
1246.940163818781
 30
0.0
 10
924.2766568876198
 20
1247.533468641616
 30
0.0
 10
924.2985578072313
 20
1247.778017916789
 30
0.0
  0
SPLINE
  5
137
330
1F
100
AcDbEntity
  8
0
  6
Continuous
 62
     7
370
    25
100
AcDbSpline
210
0.0
220
0.0
230
1.0
 70
     8
 71
     3
 72
    13
 73
     9
 74
     0
 42
0.000000001
 43
0.00000001
 40
0.0
 40
0.0
 40
0.0
 40
0.0
 40
0.1261536678612057
 40
0.3850266399736823
 40
0.5350996352058883
 40
0.6991486057302416
 40
0.875994820237067
 40
1.0
 40
1.0
 40
1.0
 40
1.0
 10
894.9356557619814
 20
1244.15498683702
 30
0.0
 10
895.1858004006247
 20
1244.158067137121
 30
0.0
 10
895.9492530323008
 20
1244.167468350882
 30
0.0
 10
896.9543809841321
 20
1244.601330162552
 30
0.0
 10
897.838881935173
 20
1245.310898849078
 30
0.0
 10
898.4299892066616
 20
1246.089654314203
 30
0.0
 10
898.8235305051246
 20
1246.940162380126
 30
0.0
 10
898.876650168374
 20
1247.533468502258
 30
0.0
 10
898.8985450756792
 20
1247.778017916789
 30
0.0
  0
SPLINE
  5
138
330
1F
100
AcDbEntity
  8
0
  6
Continuous
 62
     7
370
    25
100
AcDbSpline
210
0.0
220
0.0
230
1.0
 70
     8
 71
     3
 72
     9
 73
     5
 74
     0
 42
0.000000001
 43
0.00000001
 40
0.0
 40
0.0
 40
0.0
 40
0.0
 40
0.1806372506847765
 40
1.0
 40
1.0
 40
1.0
 40
1.0
 10
976.68829875114
 20
1247.784678735843
 30
0.0
 10
976.7518155657323
 20
1247.740532302439
 30
0.0
 10
977.1034419016702
 20
1247.496139558218
 30
0.0
 10
977.5470313347798
 20
1247.486180428753
 30
0.0
 10
977.9104919922595
 20
1247.478020289054
 30
0.0
  0
SPLINE
  5
139
330
1F
100
AcDbEntity
  8
0
  6
Continuous
 62
     7
370
    25
100
AcDbSpline
210
0.0
220
0.0
230
1.0
 70
     8
 71
     3
 72
     9
 73
     5
 74
     0
 42
0.000000001
 43
0.00000001
 40
0.0
 40
0.0
 40
0.0
 40
0.0
 40
0.9906130073981301
 40
1.0
 40
1.0
 40
1.0
 40
1.0
 10
981.4114006054643
 20
1247.478020289054
 30
0.0
 10
981.8775225938645
 20
1247.496826521988
 30
0.0
 10
982.3480615277557
 20
1247.515810961717
 30
0.0
 10
982.7107154915998
 20
1247.775579471707
 30
0.0
 10
982.7141197216754
 20
1247.778017916789
 30
0.0
  0
SPLINE
  5
13A
330
1F
100
AcDbEntity
  8
0
  6
Continuous
 62
     7
370
    25
100
AcDbSpline
210
0.0
220
0.0
230
1.0
 70
     8
 71
     3
 72
     9
 73
     5
 74
     0
 42
0.000000001
 43
0.00000001
 40
0.0
 40
0.0
 40
0.0
 40
0.0
 40
0.9906129054205011
 40
1.0
 40
1.0
 40
1.0
 40
1.0
 10
879.8114092839007
 20
1247.478020289054
 30
0.0
 10
880.2775257945898
 20
1247.496827923806
 30
0.0
 10
880.7480592473024
 20
1247.515813780592
 30
0.0
 10
881.1107092688985
 20
1247.775579471678
 30
0.0
 10
881.1141134989504
 20
1247.778017916789
 30
0.0
  0
SPLINE
  5
13B
330
1F
100
AcDbEntity
  8
0
  6
Continuous
 62
     7
370
    25
100
AcDbSpline
210
0.0
220
0.0
230
1.0
 70
     8
 71
     3
 72
     9
 73
     5
 74
     0
 42
0.000000001
 43
0.00000001
 40
0.0
 40
0.0
 40
0.0
 40
0.0
 40
0.1806271227367754
 40
1.0
 40
1.0
 40
1.0
 40
1.0
 10
875.0883074295763
 20
1247.784678735843
 30
0.0
 10
875.1518192528675
 20
1247.740532362809
 30
0.0
 10
875.5034376716793
 20
1247.496126249457
 30
0.0
 10
875.9470317304357
 20
1247.486174490458
 30
0.0
 10
876.3105006706957
 20
1247.478020289054
 30
0.0
  0
SPLINE
  5
13C
330
1F
100
AcDbEntity
  8
0
  6
Continuous
 62
     7
370
    25
100
AcDbSpline
210
0.0
220
0.0
230
1.0
 70
     8
 71
     3
 72
     9
 73
     5
 74
     0
 42
0.000000001
 43
0.00000001
 40
0.0
 40
0.0
 40
0.0
 40
0.0
 40
0.9906219872082404
 40
1.0
 40
1.0
 40
1.0
 40
1.0
 10
930.6114049446825
 20
1247.478020289054
 30
0.0
 10
931.0776149742223
 20
1247.496702962486
 30
0.0
 10
931.5482385173698
 20
1247.51556250091
 30
0.0
 10
931.9107098984836
 20
1247.775579474287
 30
0.0
 10
931.9141091597322
 20
1247.778017916789
 30
0.0
  0
SPLINE
  5
13D
330
1F
100
AcDbEntity
  8
0
  6
Continuous
 62
     7
370
    25
100
AcDbSpline
210
0.0
220
0.0
230
1.0
 70
     8
 71
     3
 72
     9
 73
     5
 74
     0
 42
0.000000001
 43
0.00000001
 40
0.0
 40
0.0
 40
0.0
 40
0.0
 40
0.1729448977406353
 40
1.0
 40
1.0
 40
1.0
 40
1.0
 10
925.8982570660356
 20
1247.778263785949
 30
0.0
 10
925.9585426477794
 20
1247.736489652181
 30
0.0
 10
926.3071252456542
 20
1247.494943736031
 30
0.0
 10
926.7468334322491
 20
1247.485681044963
 30
0.0
 10
927.1104963314775
 20
1247.478020289054
 30
0.0
  0
SPLINE
  5
13E
330
1F
100
AcDbEntity
  8
0
  6
Continuous
 62
     7
370
    25
100
AcDbSpline
210
0.0
220
0.0
230
1.0
 70
     8
 71
     3
 72
     9
 73
     5
 74
     0
 42
0.000000001
 43
0.00000001
 40
0.0
 40
0.0
 40
0.0
 40
0.0
 40
0.9903097443419324
 40
1.0
 40
1.0
 40
1.0
 40
1.0
 10
905.2114071142915
 20
1247.478020289054
 30
0.0
 10
905.6776136303646
 20
1247.496717139785
 30
0.0
 10
906.1483820124155
 20
1247.515596940613
 30
0.0
 10
906.5109407690064
 20
1247.775742905045
 30
0.0
 10
906.5144540560487
 20
1247.778263785949
 30
0.0
  0
SPLINE
  5
13F
330
1F
100
AcDbEntity
  8
0
  6
Continuous
 62
     7
370
    25
100
AcDbSpline
210
0.0
220
0.0
230
1.0
 70
     8
 71
     3
 72
     9
 73
     5
 74
     0
 42
0.000000001
 43
0.00000001
 40
0.0
 40
0.0
 40
0.0
 40
0.0
 40
0.1726627493074099
 40
1.0
 40
1.0
 40
1.0
 40
1.0
 10
951.2986274254564
 20
1247.778017916789
 30
0.0
 10
951.3587972842395
 20
1247.736334434917
 30
0.0
 10
951.7072792760088
 20
1247.494918831153
 30
0.0
 10
952.1468340902913
 20
1247.485671199337
 30
0.0
 10
952.5104941618685
 20
1247.478020289054
 30
0.0
  0
SPLINE
  5
140
330
1F
100
AcDbEntity
  8
0
  6
Continuous
 62
     7
370
    25
100
AcDbSpline
210
0.0
220
0.0
230
1.0
 70
     8
 71
     3
 72
    12
 73
     8
 74
     0
 42
0.000000001
 43
0.00000001
 40
0.0
 40
0.0
 40
0.0
 40
0.0
 40
0.3058260325515597
 40
0.4426880059258375
 40
0.6752687400455627
 40
0.9302085872384341
 40
1.0
 40
1.0
 40
1.0
 40
1.0
 10
882.35615508678
 20
1243.594598868003
 30
0.0
 10
882.6359087616764
 20
1243.768018548616
 30
0.0
 10
883.040856618656
 20
1244.019046271659
 30
0.0
 10
883.5083512092281
 20
1244.575247803711
 30
0.0
 10
883.8254712475499
 20
1245.160773013511
 30
0.0
 10
884.0148917355759
 20
1245.744920420907
 30
0.0
 10
883.9925332309275
 20
1246.091500726075
 30
0.0
 10
883.9877279293779
 20
1246.165987947097
 30
0.0
  0
ARC
  5
141
330
1F
100
AcDbEntity
  8
0
  6
Continuous
 62
     7
370
    25
100
AcDbCircle
 10
932.8595758131
 20
1249.4780209677
 30
0.0
 40
3.000000000000455
100
AcDbArc
 50
270.0
 51
302.6326860497
  0
ARC
  5
142
330
1F
100
AcDbEntity
  8
0
  6
Continuous
 62
     7
370
    25
100
AcDbCircle
 10
924.8623249143
 20
1249.4780209677
 30
0.0
 40
3.000000000000455
100
AcDbArc
 50
253.5025924681
 51
270.0
  0
SPLINE
  5
143
330
1F
100
AcDbEntity
  8
0
  6
Continuous
 62
     7
370
    25
100
AcDbSpline
210
0.0
220
0.0
230
1.0
 70
     8
 71
     3
 72
     9
 73
     5
 74
     0
 42
0.000000001
 43
0.00000001
 40
0.0
 40
0.0
 40
0.0
 40
0.0
 40
0.1726627493074099
 40
1.0
 40
1.0
 40
1.0
 40
1.0
 10
856.8986238730196
 20
1247.778017916789
 30
0.0
 10
856.9587937318026
 20
1247.736334434917
 30
0.0
 10
857.3072757235719
 20
1247.494918831153
 30
0.0
 10
857.7468305378545
 20
1247.485671199337
 30
0.0
 10
858.1104906094316
 20
1247.478020289054
 30
0.0
  0
SPLINE
  5
144
330
1F
100
AcDbEntity
  8
0
  6
Continuous
 62
     7
370
    25
100
AcDbSpline
210
0.0
220
0.0
230
1.0
 70
     8
 71
     3
 72
     9
 73
     5
 74
     0
 42
0.000000001
 43
0.00000001
 40
0.0
 40
0.0
 40
0.0
 40
0.0
 40
0.7291755370648312
 40
1.0
 40
1.0
 40
1.0
 40
1.0
 10
1000.485482980037
 20
1247.675967314353
 30
0.0
 10
1000.633389291373
 20
1247.688753258571
 30
0.0
 10
1000.836229765055
 20
1247.706288054471
 30
0.0
 10
1000.991497411726
 20
1247.829895773883
 30
0.0
 10
1001.033547688747
 20
1247.863371768107
 30
0.0
  0
SPLINE
  5
145
330
1F
100
AcDbEntity
  8
0
  6
Continuous
 62
     7
370
    25
100
AcDbSpline
210
0.0
220
0.0
230
1.0
 70
     8
 71
     3
 72
     9
 73
     5
 74
     0
 42
0.000000001
 43
0.00000001
 40
0.0
 40
0.0
 40
0.0
 40
0.0
 40
0.9903097443419324
 40
1.0
 40
1.0
 40
1.0
 40
1.0
 10
905.2114071142915
 20
1247.478020289054
 30
0.0
 10
905.6776136303646
 20
1247.496717139785
 30
0.0
 10
906.1483820124155
 20
1247.515596940613
 30
0.0
 10
906.5109407690064
 20
1247.775742905045
 30
0.0
 10
906.5144540560487
 20
1247.778263785949
 30
0.0
  0
LINE
  5
146
330
1F
100
AcDbEntity
  8
0
  6
Continuous
 62
     7
370
    25
100
AcDbLine
 10
768.864850868
 20
1250.1282663132
 30
0.0
 11
1040.8648581994
 21
1250.1282663132
 31
0.0
  0
LINE
  5
147
330
1F
100
AcDbEntity
  8
0
  6
Continuous
 62
     7
370
    25
100
AcDbLine
 10
1040.8648581994
 20
1250.1282663132
 30
0.0
 11
1040.8648581994
 21
1330.128265922
 31
0.0
  0
LINE
  5
148
330
1F
100
AcDbEntity
  8
0
  6
Continuous
 62
     7
370
    25
100
AcDbLine
 10
768.864850868
 20
1250.1282663132
 30
0.0
 11
768.864850868
 21
1330.128265922
 31
0.0
  0
LINE
  5
149
330
1F
100
AcDbEntity
  8
0
  6
Continuous
 62
     7
370
    25
100
AcDbLine
 10
768.864850868
 20
1330.128265922
 30
0.0
 11
1040.8648581994
 21
1330.128265922
 31
0.0
  0
LINE
  5
14A
330
1F
100
AcDbEntity
  8
0
  6
Continuous
 62
     7
370
    25
100
AcDbLine
 10
688.8648526562
 20
1330.128265922
 30
0.0
 11
416.8648453248
 21
1330.128265922
 31
0.0
  0
LINE
  5
14B
330
1F
100
AcDbEntity
  8
0
  6
Continuous
 62
     7
370
    25
100
AcDbLine
 10
688.8648526562
 20
1330.128265922
 30
0.0
 11
688.8648526562
 21
1250.1282663132
 31
0.0
  0
LINE
  5
14C
330
1F
100
AcDbEntity
  8
0
  6
Continuous
 62
     7
370
    25
100
AcDbLine
 10
416.8648453248
 20
1330.128265922
 30
0.0
 11
416.8648453248
 21
1250.1282663132
 31
0.0
  0
LINE
  5
14D
330
1F
100
AcDbEntity
  8
0
  6
Continuous
 62
     7
370
    25
100
AcDbLine
 10
688.8648526562
 20
1250.1282663132
 30
0.0
 11
416.8648453248
 21
1250.1282663132
 31
0.0
  0
LINE
  5
14E
330
1F
100
AcDbEntity
  8
0
  6
Continuous
 62
     7
370
    25
100
AcDbLine
 10
844.7148533356
 20
1247.3980234052
 30
0.0
 11
850.4148529661
 21
1247.3980234052
 31
0.0
  0
LINE
  5
14F
330
1F
100
AcDbEntity
  8
0
  6
Continuous
 62
     7
370
    25
100
AcDbLine
 10
846.1160840285
 20
1246.1280197884
 30
0.0
 11
849.0136222732
 21
1246.1280197884
 31
0.0
  0
LINE
  5
150
330
1F
100
AcDbEntity
  8
0
  6
Continuous
 62
     7
370
    25
100
AcDbLine
 10
1007.3148639691
 20
1247.3980234052
 30
0.0
 11
1013.014856149
 21
1247.3980234052
 31
0.0
  0
LINE
  5
151
330
1F
100
AcDbEntity
  8
0
  6
Continuous
 62
     7
370
    25
100
AcDbLine
 10
1008.7160797608
 20
1246.1280197884
 30
0.0
 11
1011.613610555
 21
1246.1280197884
 31
0.0
  0
LINE
  5
152
330
1F
100
AcDbEntity
  8
0
  6
Continuous
 62
     7
370
    25
100
AcDbLine
 10
953.1148554576
 20
1247.3980234052
 30
0.0
 11
958.8148476374
 21
1247.3980234052
 31
0.0
  0
LINE
  5
153
330
1F
100
AcDbEntity
  8
0
  6
Continuous
 62
     7
370
    25
100
AcDbLine
 10
954.5160861504
 20
1246.1280197884
 30
0.0
 11
957.4136169446
 21
1246.1280197884
 31
0.0
  0
LINE
  5
154
330
1F
100
AcDbEntity
  8
0
  6
Continuous
 62
     7
370
    25
100
AcDbLine
 10
1022.4019618523
 20
1249.748264351
 30
0.0
 11
1024.7148604882
 21
1249.748264351
 31
0.0
  0
LINE
  5
155
330
1F
100
AcDbEntity
  8
0
  6
Continuous
 62
     7
370
    25
100
AcDbLine
 10
1019.014838506
 20
1249.748264351
 30
0.0
 11
1022.4019618523
 21
1249.748264351
 31
0.0
  0
LINE
  5
156
330
1F
100
AcDbEntity
  8
0
  6
Continuous
 62
     7
370
    25
100
AcDbLine
 10
1022.1378834737
 20
1248.4782681848
 30
0.0
 11
1023.3136148942
 21
1248.4782681848
 31
0.0
  0
LINE
  5
157
330
1F
100
AcDbEntity
  8
0
  6
Continuous
 62
     7
370
    25
100
AcDbLine
 10
1020.4160841
 20
1248.4782681848
 30
0.0
 11
1022.1378834737
 21
1248.4782681848
 31
0.0
  0
LINE
  5
158
330
1F
100
AcDbEntity
  8
0
  6
Continuous
 62
     7
370
    25
100
AcDbLine
 10
619.0148548973
 20
1249.748264351
 30
0.0
 11
624.7148545277
 21
1249.748264351
 31
0.0
  0
LINE
  5
159
330
1F
100
AcDbEntity
  8
0
  6
Continuous
 62
     7
370
    25
100
AcDbLine
 10
620.4160781396
 20
1248.4782681848
 30
0.0
 11
623.3136238349
 21
1248.4782681848
 31
0.0
  0
LINE
  5
15A
330
1F
100
AcDbEntity
  8
0
  6
Continuous
 62
     7
370
    25
100
AcDbLine
 10
898.914846946
 20
1247.3980234052
 30
0.0
 11
904.6148540271
 21
1247.3980234052
 31
0.0
  0
LINE
  5
15B
330
1F
100
AcDbEntity
  8
0
  6
Continuous
 62
     7
370
    25
100
AcDbLine
 10
900.3160776389
 20
1246.1280197884
 30
0.0
 11
903.2136233342
 21
1246.1280197884
 31
0.0
  0
LINE
  5
15C
330
1F
100
AcDbEntity
  8
0
  6
Continuous
 62
     7
370
    25
100
AcDbLine
 10
836.9926916254
 20
1249.748264351
 30
0.0
 11
838.7148486269
 21
1249.748264351
 31
0.0
  0
LINE
  5
15D
330
1F
100
AcDbEntity
  8
0
  6
Continuous
 62
     7
370
    25
100
AcDbLine
 10
833.0148489964
 20
1249.748264351
 30
0.0
 11
836.9926916254
 21
1249.748264351
 31
0.0
  0
LINE
  5
15E
330
1F
100
AcDbEntity
  8
0
  6
Continuous
 62
     7
370
    25
100
AcDbLine
 10
836.4381821645
 20
1248.4782681848
 30
0.0
 11
837.3136253846
 21
1248.4782681848
 31
0.0
  0
LINE
  5
15F
330
1F
100
AcDbEntity
  8
0
  6
Continuous
 62
     7
370
    25
100
AcDbLine
 10
834.4160796893
 20
1248.4782681848
 30
0.0
 11
836.4381821645
 21
1248.4782681848
 31
0.0
  0
LINE
  5
160
330
1F
100
AcDbEntity
  8
0
  6
Continuous
 62
     7
370
    25
100
AcDbLine
 10
433.014843036
 20
1249.748264351
 30
0.0
 11
438.7148650182
 21
1249.748264351
 31
0.0
  0
LINE
  5
161
330
1F
100
AcDbEntity
  8
0
  6
Continuous
 62
     7
370
    25
100
AcDbLine
 10
434.41608863
 20
1248.4782681848
 30
0.0
 11
437.3136194241
 21
1248.4782681848
 31
0.0
  0
LINE
  5
162
330
1F
100
AcDbEntity
  8
0
  6
Continuous
 62
     7
370
    25
100
AcDbLine
 10
447.5648434651
 20
1247.3980234052
 30
0.0
 11
450.414839555
 21
1247.3980234052
 31
0.0
  0
LINE
  5
163
330
1F
100
AcDbEntity
  8
0
  6
Continuous
 62
     7
370
    25
100
AcDbLine
 10
444.7148473752
 20
1247.3980234052
 30
0.0
 11
447.5648434651
 21
1247.3980234052
 31
0.0
  0
LINE
  5
164
330
1F
100
AcDbEntity
  8
0
  6
Continuous
 62
     7
370
    25
100
AcDbLine
 10
447.5648434651
 20
1246.1280197884
 30
0.0
 11
449.0136237633
 21
1246.1280197884
 31
0.0
  0
LINE
  5
165
330
1F
100
AcDbEntity
  8
0
  6
Continuous
 62
     7
370
    25
100
AcDbLine
 10
446.1160929692
 20
1246.1280197884
 30
0.0
 11
447.5648434651
 21
1246.1280197884
 31
0.0
  0
LINE
  5
166
330
1F
100
AcDbEntity
  8
0
  6
Continuous
 62
     7
370
    25
100
AcDbLine
 10
557.0926995766
 20
1247.3980234052
 30
0.0
 11
558.8148565781
 21
1247.3980234052
 31
0.0
  0
LINE
  5
167
330
1F
100
AcDbEntity
  8
0
  6
Continuous
 62
     7
370
    25
100
AcDbLine
 10
553.1148494971
 20
1247.3980234052
 30
0.0
 11
557.0926995766
 21
1247.3980234052
 31
0.0
  0
LINE
  5
168
330
1F
100
AcDbEntity
  8
0
  6
Continuous
 62
     7
370
    25
100
AcDbLine
 10
556.5381826651
 20
1246.1280197884
 30
0.0
 11
557.4136258853
 21
1246.1280197884
 31
0.0
  0
LINE
  5
169
330
1F
100
AcDbEntity
  8
0
  6
Continuous
 62
     7
370
    25
100
AcDbLine
 10
554.51608019
 20
1246.1280197884
 30
0.0
 11
556.5381826651
 21
1246.1280197884
 31
0.0
  0
LINE
  5
16A
330
1F
100
AcDbEntity
  8
0
  6
Continuous
 62
     7
370
    25
100
AcDbLine
 10
502.3019494307
 20
1247.3980234052
 30
0.0
 11
504.6148480666
 21
1247.3980234052
 31
0.0
  0
LINE
  5
16B
330
1F
100
AcDbEntity
  8
0
  6
Continuous
 62
     7
370
    25
100
AcDbLine
 10
498.9148558867
 20
1247.3980234052
 30
0.0
 11
502.3019494307
 21
1247.3980234052
 31
0.0
  0
LINE
  5
16C
330
1F
100
AcDbEntity
  8
0
  6
Continuous
 62
     7
370
    25
100
AcDbLine
 10
502.0378859532
 20
1246.1280197884
 30
0.0
 11
503.2136173737
 21
1246.1280197884
 31
0.0
  0
LINE
  5
16D
330
1F
100
AcDbEntity
  8
0
  6
Continuous
 62
     7
370
    25
100
AcDbLine
 10
500.3160865796
 20
1246.1280197884
 30
0.0
 11
502.0378859532
 21
1246.1280197884
 31
0.0
  0
LINE
  5
16E
330
1F
100
AcDbEntity
  8
0
  6
Continuous
 62
     7
370
    25
100
AcDbLine
 10
611.8748517525
 20
1247.3980234052
 30
0.0
 11
613.0148501885
 21
1247.3980234052
 31
0.0
  0
LINE
  5
16F
330
1F
100
AcDbEntity
  8
0
  6
Continuous
 62
     7
370
    25
100
AcDbLine
 10
607.3148505581
 20
1247.3980234052
 30
0.0
 11
611.8748517525
 21
1247.3980234052
 31
0.0
  0
LINE
  5
170
330
1F
100
AcDbEntity
  8
0
  6
Continuous
 62
     7
370
    25
100
AcDbLine
 10
611.0341133368
 20
1246.1280197884
 30
0.0
 11
611.6136194957
 21
1246.1280197884
 31
0.0
  0
LINE
  5
171
330
1F
100
AcDbEntity
  8
0
  6
Continuous
 62
     7
370
    25
100
AcDbLine
 10
608.7160812509
 20
1246.1280197884
 30
0.0
 11
611.0341133368
 21
1246.1280197884
 31
0.0
  0
SPLINE
  5
172
330
1F
100
AcDbEntity
  8
0
  6
Continuous
 62
     7
370
    25
100
AcDbSpline
210
0.0
220
0.0
230
1.0
 70
    24
 71
     3
 72
    13
 73
     9
 74
     0
 42
0.000000001
 43
0.00000001
 40
0.0
 40
0.0
 40
0.0
 40
0.0
 40
0.2394403294949255
 40
0.3696243628682875
 40
0.5000014745585932
 40
0.630180838212048
 40
0.7605567441767301
 40
1.0
 40
1.0
 40
1.0
 40
1.0
 10
528.8687528860811
 20
1247.478020289054
 30
0.0
 10
528.6486298601747
 20
1247.478020289054
 30
0.0
 10
528.3088256451749
 20
1247.478020289054
 30
0.0
 10
527.900878066484
 20
1247.478020289054
 30
0.0
 10
527.622394625322
 20
1247.478020289054
 30
0.0
 10
527.3961135115359
 20
1247.478020289054
 30
0.0
 10
527.1781281360109
 20
1247.478020289054
 30
0.0
 10
527.1418119021397
 20
1247.478020289054
 30
0.0
 10
527.1182985794786
 20
1247.478020289054
 30
0.0
  0
SPLINE
  5
173
330
1F
100
AcDbEntity
  8
0
  6
Continuous
 62
     7
370
    25
100
AcDbSpline
210
0.0
220
0.0
230
1.0
 70
    24
 71
     3
 72
    12
 73
     8
 74
     0
 42
0.000000001
 43
0.00000001
 40
0.0
 40
0.0
 40
0.0
 40
0.0
 40
0.2521484169670952
 40
0.4964827950425122
 40
0.6242149728058487
 40
0.7521294585561086
 40
1.0
 40
1.0
 40
1.0
 40
1.0
 10
530.6192071926836
 20
1247.478020289054
 30
0.0
 10
530.5925847456389
 20
1247.478020289054
 30
0.0
 10
530.5401648769016
 20
1247.478020289054
 30
0.0
 10
530.2011370389756
 20
1247.478020289054
 30
0.0
 10
529.8496360271371
 20
1247.478020289054
 30
0.0
 10
529.4413868510895
 20
1247.478020289054
 30
0.0
 10
529.0963450027775
 20
1247.478020289054
 30
0.0
 10
528.8687528860811
 20
1247.478020289054
 30
0.0
  0
LINE
  5
174
330
1F
100
AcDbEntity
  8
0
  6
Continuous
 62
     7
370
    25
100
AcDbLine
 10
564.9895550502
 20
1247.7780179168
 30
0.0
 11
601.168754865
 21
1247.7780179168
 31
0.0
  0
LINE
  5
175
330
1F
100
AcDbEntity
  8
0
  6
Continuous
 62
     7
370
    25
100
AcDbLine
 10
510.7687594188
 20
1247.7780179168
 30
0.0
 11
546.9687463534
 21
1247.7780179168
 31
0.0
  0
LINE
  5
176
330
1F
100
AcDbEntity
  8
0
  6
Continuous
 62
     7
370
    25
100
AcDbLine
 10
456.5687509072
 20
1247.7780179168
 30
0.0
 11
492.747950722
 21
1247.7780179168
 31
0.0
  0
LINE
  5
177
330
1F
100
AcDbEntity
  8
0
  6
Continuous
 62
     7
370
    25
100
AcDbLine
 10
507.3491962445
 20
1247.7780179168
 30
0.0
 11
507.3648573649
 21
1247.7782637859
 31
0.0
  0
LINE
  5
178
330
1F
100
AcDbEntity
  8
0
  6
Continuous
 62
     7
370
    25
100
AcDbLine
 10
453.1492026341
 20
1247.7780179168
 30
0.0
 11
453.1648488534
 21
1247.7782637859
 31
0.0
  0
LINE
  5
179
330
1F
100
AcDbEntity
  8
0
  6
Continuous
 62
     7
370
    25
100
AcDbLine
 10
443.9491959107
 20
1247.7780179168
 30
0.0
 11
443.96484213
 21
1247.7782637859
 31
0.0
  0
SPLINE
  5
17A
330
1F
100
AcDbEntity
  8
0
  6
Continuous
 62
     7
370
    25
100
AcDbSpline
210
0.0
220
0.0
230
1.0
 70
    24
 71
     3
 72
    16
 73
    12
 74
     0
 42
0.000000001
 43
0.00000001
 40
0.0
 40
0.0
 40
0.0
 40
0.0
 40
0.3249079720683486
 40
0.5953679940344321
 40
0.7272612028371251
 40
0.83479142209122
 40
0.8630601157120776
 40
0.8830297584151788
 40
0.9175779617870203
 40
0.9477751768464922
 40
1.0
 40
1.0
 40
1.0
 40
1.0
 10
595.6662775767091
 20
1244.12802318584
 30
0.0
 10
594.5866909249706
 20
1244.12802318584
 30
0.0
 10
592.6084343277556
 20
1244.12802318584
 30
0.0
 10
590.3403573510919
 20
1244.12802318584
 30
0.0
 10
589.0146668985761
 20
1244.12802318584
 30
0.0
 10
588.4201790360327
 20
1244.12802318584
 30
0.0
 10
588.2018609053714
 20
1244.12802318584
 30
0.0
 10
588.169911490652
 20
1244.12802318584
 30
0.0
 10
588.2238578937364
 20
1244.12802318584
 30
0.0
 10
588.3284477240727
 20
1244.12802318584
 30
0.0
 10
588.4042788046513
 20
1244.12802318584
 30
0.0
 10
588.4523274195436
 20
1244.12802318584
 30
0.0
  0
LINE
  5
17B
330
1F
100
AcDbEntity
  8
0
  6
Continuous
 62
     7
370
    25
100
AcDbLine
 10
595.812547375
 20
1244.1306979443
 30
0.0
 11
595.6662775767
 21
1244.1280231858
 31
0.0
  0
SPLINE
  5
17C
330
1F
100
AcDbEntity
  8
0
  6
Continuous
 62
     7
370
    25
100
AcDbSpline
210
0.0
220
0.0
230
1.0
 70
    24
 71
     3
 72
    16
 73
    12
 74
     0
 42
0.000000001
 43
0.00000001
 40
0.0
 40
0.0
 40
0.0
 40
0.0
 40
0.3249078513682277
 40
0.595367772861069
 40
0.7272609326667302
 40
0.8347911119744046
 40
0.8630603400372768
 40
0.8830298018684749
 40
0.9175779924059982
 40
0.9477751962475012
 40
1.0
 40
1.0
 40
1.0
 40
1.0
 10
570.2662797463182
 20
1244.12802318584
 30
0.0
 10
569.1866918600192
 20
1244.12802318584
 30
0.0
 10
567.2084330005705
 20
1244.12802318584
 30
0.0
 10
564.9403684515999
 20
1244.12802318584
 30
0.0
 10
563.6146550235043
 20
1244.12802318584
 30
0.0
 10
563.020209678291
 20
1244.12802318584
 30
0.0
 10
562.801838994696
 20
1244.12802318584
 30
0.0
 10
562.769923944892
 20
1244.12802318584
 30
0.0
 10
562.8238572717854
 20
1244.12802318584
 30
0.0
 10
562.9284511374941
 20
1244.12802318584
 30
0.0
 10
563.0042814566918
 20
1244.12802318584
 30
0.0
 10
563.0523295891527
 20
1244.12802318584
 30
0.0
  0
LINE
  5
17D
330
1F
100
AcDbEntity
  8
0
  6
Continuous
 62
     7
370
    25
100
AcDbLine
 10
570.4125495446
 20
1244.1306979443
 30
0.0
 11
570.2662797463
 21
1244.1280231858
 31
0.0
  0
SPLINE
  5
17E
330
1F
100
AcDbEntity
  8
0
  6
Continuous
 62
     7
370
    25
100
AcDbSpline
210
0.0
220
0.0
230
1.0
 70
    24
 71
     3
 72
    16
 73
    12
 74
     0
 42
0.000000001
 43
0.00000001
 40
0.0
 40
0.0
 40
0.0
 40
0.0
 40
0.3249091149202122
 40
0.5953675935976365
 40
0.727260689521091
 40
0.834790816746723
 40
0.8630600311174471
 40
0.8830296567297664
 40
0.9175780323269443
 40
0.9477752215424877
 40
1.0
 40
1.0
 40
1.0
 40
1.0
 10
544.8662819159273
 20
1244.12802318584
 30
0.0
 10
543.7866888141483
 20
1244.12802318584
 30
0.0
 10
541.8084286867627
 20
1244.12802318584
 30
0.0
 10
539.5403644772101
 20
1244.12802318584
 30
0.0
 10
538.2146620338378
 20
1244.12802318584
 30
0.0
 10
537.6202014968588
 20
1244.12802318584
 30
0.0
 10
537.4018488957448
 20
1244.12802318584
 30
0.0
 10
537.3698990128096
 20
1244.12802318584
 30
0.0
 10
537.4238666005803
 20
1244.12802318584
 30
0.0
 10
537.5284500368539
 20
1244.12802318584
 30
0.0
 10
537.604282357885
 20
1244.12802318584
 30
0.0
 10
537.6523317587618
 20
1244.12802318584
 30
0.0
  0
LINE
  5
17F
330
1F
100
AcDbEntity
  8
0
  6
Continuous
 62
     7
370
    25
100
AcDbLine
 10
545.0125517142
 20
1244.1306979443
 30
0.0
 11
544.8662819159
 21
1244.1280231858
 31
0.0
  0
SPLINE
  5
180
330
1F
100
AcDbEntity
  8
0
  6
Continuous
 62
     7
370
    25
100
AcDbSpline
210
0.0
220
0.0
230
1.0
 70
    24
 71
     3
 72
    16
 73
    12
 74
     0
 42
0.000000001
 43
0.00000001
 40
0.0
 40
0.0
 40
0.0
 40
0.0
 40
0.3249091068572292
 40
0.5953675788229238
 40
0.7272606714733036
 40
0.8347907960304553
 40
0.8630600096996472
 40
0.8830296348163978
 40
0.9175780095562193
 40
0.947774827299208
 40
1.0
 40
1.0
 40
1.0
 40
1.0
 10
519.4662840855364
 20
1244.12802318584
 30
0.0
 10
518.3866909980447
 20
1244.12802318584
 30
0.0
 10
516.4084308968395
 20
1244.12802318584
 30
0.0
 10
514.1403665434644
 20
1244.12802318584
 30
0.0
 10
512.8146643659828
 20
1244.12802318584
 30
0.0
 10
512.2202033229553
 20
1244.12802318584
 30
0.0
 10
512.0018513299253
 20
1244.12802318584
 30
0.0
 10
511.9699002861275
 20
1244.12802318584
 30
0.0
 10
512.0238744625669
 20
1244.12802318584
 30
0.0
 10
512.1284273316058
 20
1244.12802318584
 30
0.0
 10
512.2042746654522
 20
1244.12802318584
 30
0.0
 10
512.2523339283708
 20
1244.12802318584
 30
0.0
  0
LINE
  5
181
330
1F
100
AcDbEntity
  8
0
  6
Continuous
 62
     7
370
    25
100
AcDbLine
 10
519.6125538838
 20
1244.1306979443
 30
0.0
 11
519.4662840855
 21
1244.1280231858
 31
0.0
  0
SPLINE
  5
182
330
1F
100
AcDbEntity
  8
0
  6
Continuous
 62
     7
370
    25
100
AcDbSpline
210
0.0
220
0.0
230
1.0
 70
    24
 71
     3
 72
    16
 73
    12
 74
     0
 42
0.000000001
 43
0.00000001
 40
0.0
 40
0.0
 40
0.0
 40
0.0
 40
0.324908939383841
 40
0.5953672719425578
 40
0.7272602966090533
 40
0.8347912571999347
 40
0.8630599113548503
 40
0.8830295261783198
 40
0.9175776813173914
 40
0.9477748542185109
 40
1.0
 40
1.0
 40
1.0
 40
1.0
 10
494.0662862551455
 20
1244.12802318584
 30
0.0
 10
492.9866943935675
 20
1244.12802318584
 30
0.0
 10
491.0084365387419
 20
1244.12802318584
 30
0.0
 10
488.7403598448319
 20
1244.12802318584
 30
0.0
 10
487.4146781640409
 20
1244.12802318584
 30
0.0
 10
486.820173308345
 20
1244.12802318584
 30
0.0
 10
486.6018547624852
 20
1244.12802318584
 30
0.0
 10
486.5699051700381
 20
1244.12802318584
 30
0.0
 10
486.623852162473
 20
1244.12802318584
 30
0.0
 10
486.7284398498247
 20
1244.12802318584
 30
0.0
 10
486.804280981254
 20
1244.12802318584
 30
0.0
 10
486.85233609798
 20
1244.12802318584
 30
0.0
  0
LINE
  5
183
330
1F
100
AcDbEntity
  8
0
  6
Continuous
 62
     7
370
    25
100
AcDbLine
 10
494.2125560534
 20
1244.1306979443
 30
0.0
 11
494.0662862551
 21
1244.1280231858
 31
0.0
  0
SPLINE
  5
184
330
1F
100
AcDbEntity
  8
0
  6
Continuous
 62
     7
370
    25
100
AcDbSpline
210
0.0
220
0.0
230
1.0
 70
    24
 71
     3
 72
    16
 73
    12
 74
     0
 42
0.000000001
 43
0.00000001
 40
0.0
 40
0.0
 40
0.0
 40
0.0
 40
0.3249088189200724
 40
0.5953683630206782
 40
0.7272602199869321
 40
0.834791140709459
 40
0.8630603293262384
 40
0.8830297632926062
 40
0.91757810741537
 40
0.9477752691205364
 40
1.0
 40
1.0
 40
1.0
 40
1.0
 10
468.6662884247546
 20
1244.12802318584
 30
0.0
 10
467.586696624046
 20
1244.12802318584
 30
0.0
 10
465.6084345219128
 20
1244.12802318584
 30
0.0
 10
463.3403569403521
 20
1244.12802318584
 30
0.0
 10
462.0146659700669
 20
1244.12802318584
 30
0.0
 10
461.4202027733173
 20
1244.12802318584
 30
0.0
 10
461.2018336940405
 20
1244.12802318584
 30
0.0
 10
461.1699147155537
 20
1244.12802318584
 30
0.0
 10
461.2238706171379
 20
1244.12802318584
 30
0.0
 10
461.3284576561384
 20
1244.12802318584
 30
0.0
 10
461.40428929742
 20
1244.12802318584
 30
0.0
 10
461.4523382675891
 20
1244.12802318584
 30
0.0
  0
LINE
  5
185
330
1F
100
AcDbEntity
  8
0
  6
Continuous
 62
     7
370
    25
100
AcDbLine
 10
468.812558223
 20
1244.1306979443
 30
0.0
 11
468.6662884248
 21
1244.1280231858
 31
0.0
  0
SPLINE
  5
186
330
1F
100
AcDbEntity
  8
0
  6
Continuous
 62
     7
370
    25
100
AcDbSpline
210
0.0
220
0.0
230
1.0
 70
     8
 71
     3
 72
    16
 73
    12
 74
     0
 42
0.000000001
 43
0.00000001
 40
0.0
 40
0.0
 40
0.0
 40
0.0
 40
0.0815047884467805
 40
0.2124704029017928
 40
0.3403062532637171
 40
0.3636653097142376
 40
0.4670753724675306
 40
0.7228904444453688
 40
0.7469865723348222
 40
0.8575291654643481
 40
1.0
 40
1.0
 40
1.0
 40
1.0
 10
599.6300609600786
 20
1247.784678735843
 30
0.0
 10
599.6181733167041
 20
1247.61953548142
 30
0.0
 10
599.5871840653303
 20
1247.18903250764
 30
0.0
 10
599.3617849235184
 20
1246.54520464428
 30
0.0
 10
599.0967273665809
 20
1246.051989323892
 30
0.0
 10
598.8103002524098
 20
1245.644852534643
 30
0.0
 10
598.3264345187359
 20
1245.073822063747
 30
0.0
 10
597.6803780155129
 20
1244.634278682346
 30
0.0
 10
596.9959438218093
 20
1244.348203552987
 30
0.0
 10
596.4779751935453
 20
1244.185838090407
 30
0.0
 10
596.0522637573935
 20
1244.150561851354
 30
0.0
 10
595.812547374988
 20
1244.130697944274
 30
0.0
  0
SPLINE
  5
187
330
1F
100
AcDbEntity
  8
0
  6
Continuous
 62
     7
370
    25
100
AcDbSpline
210
0.0
220
0.0
230
1.0
 70
     8
 71
     3
 72
    16
 73
    12
 74
     0
 42
0.000000001
 43
0.00000001
 40
0.0
 40
0.0
 40
0.0
 40
0.0
 40
0.1424846421803007
 40
0.2530219428878808
 40
0.2771185331293998
 40
0.5329223765753992
 40
0.6363313650340223
 40
0.6596859973415107
 40
0.7875187073453589
 40
0.9184774948520216
 40
1.0
 40
1.0
 40
1.0
 40
1.0
 10
570.412549544597
 20
1244.130697944274
 30
0.0
 10
570.6522899398204
 20
1244.150565565602
 30
0.0
 10
571.0780170894972
 20
1244.185846168986
 30
0.0
 10
571.5960042556982
 20
1244.348213535485
 30
0.0
 10
572.2803956357143
 20
1244.634315772802
 30
0.0
 10
572.9264303319335
 20
1245.073828211314
 30
0.0
 10
573.4102839884827
 20
1245.644833863787
 30
0.0
 10
573.696700370665
 20
1246.051952518223
 30
0.0
 10
573.9617566864379
 20
1246.545138620704
 30
0.0
 10
574.1871600951014
 20
1247.188976387693
 30
0.0
 10
574.2181668110549
 20
1247.619500094932
 30
0.0
 10
574.2300631296877
 20
1247.784678735843
 30
0.0
  0
SPLINE
  5
188
330
1F
100
AcDbEntity
  8
0
  6
Continuous
 62
     7
370
    25
100
AcDbSpline
210
0.0
220
0.0
230
1.0
 70
     8
 71
     3
 72
    16
 73
    12
 74
     0
 42
0.000000001
 43
0.00000001
 40
0.0
 40
0.0
 40
0.0
 40
0.0
 40
0.1426364808166095
 40
0.2532915755035536
 40
0.2774138442557246
 40
0.5334902848473324
 40
0.6370094710055065
 40
0.6603889911568129
 40
0.7883579259780564
 40
0.9194562696039147
 40
1.0
 40
1.0
 40
1.0
 40
1.0
 10
545.0125517142061
 20
1244.130697944274
 30
0.0
 10
545.2522921075556
 20
1244.150565566084
 30
0.0
 10
545.6780192539043
 20
1244.185846170322
 30
0.0
 10
546.196006435878
 20
1244.34821353277
 30
0.0
 10
546.8803977714732
 20
1244.634315781497
 30
0.0
 10
547.5264338077443
 20
1245.073827875779
 30
0.0
 10
548.0102849396686
 20
1245.644834176773
 30
0.0
 10
548.296704913447
 20
1246.051951908606
 30
0.0
 10
548.5616948783855
 20
1246.545155055186
 30
0.0
 10
548.7866532146516
 20
1247.186912086094
 30
0.0
 10
548.8176018531989
 20
1247.615252198246
 30
0.0
 10
548.8293798458818
 20
1247.778263785949
 30
0.0
  0
SPLINE
  5
189
330
1F
100
AcDbEntity
  8
0
  6
Continuous
 62
     7
370
    25
100
AcDbSpline
210
0.0
220
0.0
230
1.0
 70
     8
 71
     3
 72
    16
 73
    12
 74
     0
 42
0.000000001
 43
0.00000001
 40
0.0
 40
0.0
 40
0.0
 40
0.0
 40
0.1424846421803007
 40
0.2530219428878808
 40
0.2771185331293998
 40
0.5329223765753992
 40
0.6363313650340223
 40
0.6596859973415107
 40
0.7875187073453589
 40
0.9184774948520216
 40
1.0
 40
1.0
 40
1.0
 40
1.0
 10
519.6125538838152
 20
1244.130697944274
 30
0.0
 10
519.8522942790386
 20
1244.150565565602
 30
0.0
 10
520.2780214287153
 20
1244.185846168986
 30
0.0
 10
520.7960085949163
 20
1244.348213535485
 30
0.0
 10
521.4803999749325
 20
1244.634315772802
 30
0.0
 10
522.1264346711516
 20
1245.073828211314
 30
0.0
 10
522.6102883277008
 20
1245.644833863787
 30
0.0
 10
522.8967047098831
 20
1246.051952518223
 30
0.0
 10
523.161761025656
 20
1246.545138620704
 30
0.0
 10
523.3871644343195
 20
1247.188976387693
 30
0.0
 10
523.418171150273
 20
1247.619500094932
 30
0.0
 10
523.4300674689058
 20
1247.784678735843
 30
0.0
  0
SPLINE
  5
18A
330
1F
100
AcDbEntity
  8
0
  6
Continuous
 62
     7
370
    25
100
AcDbSpline
210
0.0
220
0.0
230
1.0
 70
     8
 71
     3
 72
    16
 73
    12
 74
     0
 42
0.000000001
 43
0.00000001
 40
0.0
 40
0.0
 40
0.0
 40
0.0
 40
0.1426137070256514
 40
0.2532511341707409
 40
0.2773695514853072
 40
0.5334051061037479
 40
0.6369077640617574
 40
0.6602835513650465
 40
0.788232054262044
 40
0.9193094663123643
 40
1.0
 40
1.0
 40
1.0
 40
1.0
 10
494.2125560534244
 20
1244.130697944274
 30
0.0
 10
494.4522964470628
 20
1244.15056556601
 30
0.0
 10
494.8780235939252
 20
1244.185846170119
 30
0.0
 10
495.3960107734649
 20
1244.348213533183
 30
0.0
 10
496.0804021159152
 20
1244.634315780175
 30
0.0
 10
496.7264379453836
 20
1245.073827926797
 30
0.0
 10
497.2102894669193
 20
1245.644834129184
 30
0.0
 10
497.4967088864265
 20
1246.051952001298
 30
0.0
 10
497.7617090909251
 20
1246.545152556344
 30
0.0
 10
497.9867330620619
 20
1247.187221507909
 30
0.0
 10
498.0176920886049
 20
1247.61588866352
 30
0.0
 10
498.0294884932284
 20
1247.779224910846
 30
0.0
  0
SPLINE
  5
18B
330
1F
100
AcDbEntity
  8
0
  6
Continuous
 62
     7
370
    25
100
AcDbSpline
210
0.0
220
0.0
230
1.0
 70
     8
 71
     3
 72
    16
 73
    12
 74
     0
 42
0.000000001
 43
0.00000001
 40
0.0
 40
0.0
 40
0.0
 40
0.0
 40
0.1424826416014827
 40
0.25302000964307
 40
0.2771166145630728
 40
0.5329225657266572
 40
0.6363316171770624
 40
0.659684897802399
 40
0.7875188354807845
 40
0.918477702761242
 40
1.0
 40
1.0
 40
1.0
 40
1.0
 10
468.8125582230334
 20
1244.130697944274
 30
0.0
 10
469.052293339031
 20
1244.150565948605
 30
0.0
 10
469.4780138385928
 20
1244.185847457923
 30
0.0
 10
469.9959979894219
 20
1244.348213548442
 30
0.0
 10
470.6803930375873
 20
1244.634317156765
 30
0.0
 10
471.3264205998696
 20
1245.073834941017
 30
0.0
 10
471.8103066341623
 20
1245.644821841066
 30
0.0
 10
472.0966768629508
 20
1246.051969323756
 30
0.0
 10
472.3617757385293
 20
1246.545128845454
 30
0.0
 10
472.5871734178529
 20
1247.188976318718
 30
0.0
 10
472.6181660247095
 20
1247.619500308268
 30
0.0
 10
472.6300569069629
 20
1247.784678735843
 30
0.0
  0
SPLINE
  5
18C
330
1F
100
AcDbEntity
  8
0
  6
Continuous
 62
     7
370
    25
100
AcDbSpline
210
0.0
220
0.0
230
1.0
 70
    24
 71
     3
 72
    13
 73
     9
 74
     0
 42
0.000000001
 43
0.00000001
 40
0.0
 40
0.0
 40
0.0
 40
0.0
 40
0.2394406625362766
 40
0.3696200470257177
 40
0.4999973400596155
 40
0.6301803238247115
 40
0.7605564111313087
 40
0.9999999999999999
 40
0.9999999999999999
 40
0.9999999999999999
 40
0.9999999999999999
 10
579.668748546863
 20
1247.478020289054
 30
0.0
 10
579.4486247767506
 20
1247.478020289054
 30
0.0
 10
579.1088238532207
 20
1247.478020289054
 30
0.0
 10
578.7008851822823
 20
1247.478020289054
 30
0.0
 10
578.422405899102
 20
1247.478020289054
 30
0.0
 10
578.1961076908044
 20
1247.478020289054
 30
0.0
 10
577.9781253008334
 20
1247.478020289054
 30
0.0
 10
577.9418081540173
 20
1247.478020289054
 30
0.0
 10
577.9182942402605
 20
1247.478020289054
 30
0.0
  0
SPLINE
  5
18D
330
1F
100
AcDbEntity
  8
0
  6
Continuous
 62
     7
370
    25
100
AcDbSpline
210
0.0
220
0.0
230
1.0
 70
    24
 71
     3
 72
    13
 73
     9
 74
     0
 42
0.000000001
 43
0.00000001
 40
0.0
 40
0.0
 40
0.0
 40
0.0
 40
0.2394411144133558
 40
0.3696255745479377
 40
0.4999988987994347
 40
0.6301821282483916
 40
0.7605559592487069
 40
1.0
 40
1.0
 40
1.0
 40
1.0
 10
478.0687423241382
 20
1247.478020289054
 30
0.0
 10
477.8486199792029
 20
1247.478020289054
 30
0.0
 10
477.5088168154191
 20
1247.478020289054
 30
0.0
 10
477.1008675121453
 20
1247.478020289054
 30
0.0
 10
476.8224005370934
 20
1247.478020289054
 30
0.0
 10
476.5960983097131
 20
1247.478020289054
 30
0.0
 10
476.3781415949192
 20
1247.478020289054
 30
0.0
 10
476.3418199220313
 20
1247.478020289054
 30
0.0
 10
476.3183029186969
 20
1247.478020289054
 30
0.0
  0
SPLINE
  5
18E
330
1F
100
AcDbEntity
  8
0
  6
Continuous
 62
     7
370
    25
100
AcDbSpline
210
0.0
220
0.0
230
1.0
 70
    24
 71
     3
 72
    12
 73
     8
 74
     0
 42
0.000000001
 43
0.00000001
 40
0.0
 40
0.0
 40
0.0
 40
0.0
 40
0.2521472043744054
 40
0.496480407435185
 40
0.6242119709289304
 40
0.7521306505763091
 40
1.0
 40
1.0
 40
1.0
 40
1.0
 10
479.8192115319018
 20
1247.478020289054
 30
0.0
 10
479.792589138088
 20
1247.478020289054
 30
0.0
 10
479.7401693741634
 20
1247.478020289054
 30
0.0
 10
479.4011408895984
 20
1247.478020289054
 30
0.0
 10
479.0496378778004
 20
1247.478020289054
 30
0.0
 10
478.6413781361078
 20
1247.478020289054
 30
0.0
 10
478.2963334199289
 20
1247.478020289054
 30
0.0
 10
478.0687423241382
 20
1247.478020289054
 30
0.0
  0
SPLINE
  5
18F
330
1F
100
AcDbEntity
  8
0
  6
Continuous
 62
     7
370
    25
100
AcDbSpline
210
0.0
220
0.0
230
1.0
 70
    24
 71
     3
 72
     9
 73
     5
 74
     0
 42
0.000000001
 43
0.00000001
 40
0.0
 40
0.0
 40
0.0
 40
0.0
 40
0.5230191796365775
 40
1.0
 40
1.0
 40
1.0
 40
1.0
 10
505.2192093622927
 20
1247.478020289054
 30
0.0
 10
505.1954521422126
 20
1247.478020289054
 30
0.0
 10
505.1500289129983
 20
1247.478020289054
 30
0.0
 10
504.8683521601498
 20
1247.478020289054
 30
0.0
 10
504.7339977514986
 20
1247.478020289054
 30
0.0
  0
SPLINE
  5
190
330
1F
100
AcDbEntity
  8
0
  6
Continuous
 62
     7
370
    25
100
AcDbSpline
210
0.0
220
0.0
230
1.0
 70
    24
 71
     3
 72
    12
 73
     8
 74
     0
 42
0.000000001
 43
0.00000001
 40
0.0
 40
0.0
 40
0.0
 40
0.0
 40
0.252148262810891
 40
0.4964824915073796
 40
0.6242103934862545
 40
0.7521296100969441
 40
0.9999999999999999
 40
0.9999999999999999
 40
0.9999999999999999
 40
0.9999999999999999
 10
581.4192028534654
 20
1247.478020289054
 30
0.0
 10
581.3925809065747
 20
1247.478020289054
 30
0.0
 10
581.3401620226462
 20
1247.478020289054
 30
0.0
 10
581.0011303888825
 20
1247.478020289054
 30
0.0
 10
580.6496428242011
 20
1247.478020289054
 30
0.0
 10
580.2413832180506
 20
1247.478020289054
 30
0.0
 10
579.896339189256
 20
1247.478020289054
 30
0.0
 10
579.668748546863
 20
1247.478020289054
 30
0.0
  0
SPLINE
  5
191
330
1F
100
AcDbEntity
  8
0
  6
Continuous
 62
     7
370
    25
100
AcDbSpline
210
0.0
220
0.0
230
1.0
 70
    24
 71
     3
 72
    11
 73
     7
 74
     0
 42
0.000000001
 43
0.00000001
 40
0.0
 40
0.0
 40
0.0
 40
0.0
 40
0.0353624973441852
 40
0.2865199379114364
 40
0.538049926332833
 40
1.0
 40
1.0
 40
1.0
 40
1.0
 10
553.0699075949434
 20
1247.478020289054
 30
0.0
 10
553.0568101458653
 20
1247.478020289054
 30
0.0
 10
552.9506898043022
 20
1247.478020289054
 30
0.0
 10
552.7989224768284
 20
1247.478020289054
 30
0.0
 10
552.5767083090454
 20
1247.478020289054
 30
0.0
 10
552.5412525859166
 20
1247.478020289054
 30
0.0
 10
552.5182964098695
 20
1247.478020289054
 30
0.0
  0
SPLINE
  5
192
330
1F
100
AcDbEntity
  8
0
  6
Continuous
 62
     7
370
    25
100
AcDbSpline
210
0.0
220
0.0
230
1.0
 70
    24
 71
     3
 72
    13
 73
     9
 74
     0
 42
0.000000001
 43
0.00000001
 40
0.0
 40
0.0
 40
0.0
 40
0.0
 40
0.2394447710189149
 40
0.3697805808071153
 40
0.4999998152411691
 40
0.6303344220507091
 40
0.7605578380542717
 40
1.0
 40
1.0
 40
1.0
 40
1.0
 10
577.5344999325517
 20
1246.478018262496
 30
0.0
 10
577.8315584447136
 20
1246.478018262496
 30
0.0
 10
578.2903133746853
 20
1246.478018262496
 30
0.0
 10
579.0534452196691
 20
1246.478018262496
 30
0.0
 10
579.668929660216
 20
1246.478018262496
 30
0.0
 10
580.2842404244806
 20
1246.478018262496
 30
0.0
 10
581.0473371198666
 20
1246.478018262496
 30
0.0
 10
581.5059448301402
 20
1246.478018262496
 30
0.0
 10
581.8029971611742
 20
1246.478018262496
 30
0.0
  0
SPLINE
  5
193
330
1F
100
AcDbEntity
  8
0
  6
Continuous
 62
     7
370
    25
100
AcDbSpline
210
0.0
220
0.0
230
1.0
 70
     8
 71
     3
 72
    11
 73
     7
 74
     0
 42
0.000000001
 43
0.00000001
 40
0.0
 40
0.0
 40
0.0
 40
0.0
 40
0.2500001483636249
 40
0.5000001475366518
 40
0.7500016420407914
 40
0.9999999999999999
 40
0.9999999999999999
 40
0.9999999999999999
 40
0.9999999999999999
 10
480.2030058396106
 20
1246.478018262496
 30
0.0
 10
480.3813522277666
 20
1246.496356540374
 30
0.0
 10
480.7380448976483
 20
1246.533033085187
 30
0.0
 10
481.2372442518144
 20
1246.826766439656
 30
0.0
 10
481.6791772566172
 20
1247.267300853833
 30
0.0
 10
481.8913485111264
 20
1247.674447542341
 30
0.0
 10
481.9974334728961
 20
1247.878019609561
 30
0.0
  0
SPLINE
  5
194
330
1F
100
AcDbEntity
  8
0
  6
Continuous
 62
     7
370
    25
100
AcDbSpline
210
0.0
220
0.0
230
1.0
 70
    24
 71
     3
 72
    11
 73
     7
 74
     0
 42
0.000000001
 43
0.00000001
 40
0.0
 40
0.0
 40
0.0
 40
0.0
 40
0.2500055691913672
 40
0.4999971337161073
 40
0.7499918007868303
 40
1.0
 40
1.0
 40
1.0
 40
1.0
 10
475.9345086109881
 20
1246.478018262496
 30
0.0
 10
476.2462425413635
 20
1246.478018262496
 30
0.0
 10
476.8696929395844
 20
1246.478018262496
 30
0.0
 10
478.0687473987842
 20
1246.478018262496
 30
0.0
 10
479.2678053761487
 20
1246.478018262496
 30
0.0
 10
479.8912667273103
 20
1246.478018262496
 30
0.0
 10
480.2030058396106
 20
1246.478018262496
 30
0.0
  0
LINE
  5
195
330
1F
100
AcDbEntity
  8
0
  6
Continuous
 62
     7
370
    25
100
AcDbLine
 10
480.2030058396
 20
1246.4780182625
 30
0.0
 11
482.9645039332
 21
1246.4780182625
 31
0.0
  0
LINE
  5
196
330
1F
100
AcDbEntity
  8
0
  6
Continuous
 62
     7
370
    25
100
AcDbLine
 10
584.5644952548
 20
1246.4780182625
 30
0.0
 11
581.8029971612
 21
1246.4780182625
 31
0.0
  0
LINE
  5
197
330
1F
100
AcDbEntity
  8
0
  6
Continuous
 62
     7
370
    25
100
AcDbLine
 10
573.9026250136
 20
1246.4780182625
 30
0.0
 11
577.5344999326
 21
1246.4780182625
 31
0.0
  0
LINE
  5
198
330
1F
100
AcDbEntity
  8
0
  6
Continuous
 62
     7
370
    25
100
AcDbLine
 10
475.934508611
 20
1246.4780182625
 30
0.0
 11
472.3026187909
 21
1246.4780182625
 31
0.0
  0
SPLINE
  5
199
330
1F
100
AcDbEntity
  8
0
  6
Continuous
 62
     7
370
    25
100
AcDbSpline
210
0.0
220
0.0
230
1.0
 70
    24
 71
     3
 72
    13
 73
     9
 74
     0
 42
0.000000001
 43
0.00000001
 40
0.0
 40
0.0
 40
0.0
 40
0.0
 40
0.2394570230241285
 40
0.3683605458133282
 40
0.5000003025800247
 40
0.6316391641419596
 40
0.7605423850058174
 40
1.0
 40
1.0
 40
1.0
 40
1.0
 10
524.8701305878404
 20
1246.478018262496
 30
0.0
 10
524.9235463875597
 20
1246.478018262496
 30
0.0
 10
525.0057167615629
 20
1246.478018262496
 30
0.0
 10
525.5043266615054
 20
1246.478018262496
 30
0.0
 10
526.0204016681645
 20
1246.478018262496
 30
0.0
 10
526.6610030945401
 20
1246.478018262496
 30
0.0
 10
527.5919459162542
 20
1246.478018262496
 30
0.0
 10
528.3657389493143
 20
1246.478018262496
 30
0.0
 10
528.8687528860811
 20
1246.478018262496
 30
0.0
  0
SPLINE
  5
19A
330
1F
100
AcDbEntity
  8
0
  6
Continuous
 62
     7
370
    25
100
AcDbSpline
210
0.0
220
0.0
230
1.0
 70
    24
 71
     3
 72
    12
 73
     8
 74
     0
 42
0.000000001
 43
0.00000001
 40
0.0
 40
0.0
 40
0.0
 40
0.0
 40
0.2478763894305648
 40
0.3761162049926149
 40
0.5035032610046377
 40
0.7478449887439544
 40
1.0
 40
1.0
 40
1.0
 40
1.0
 10
528.8687528860811
 20
1246.478018262496
 30
0.0
 10
529.3887857089591
 20
1246.478018262496
 30
0.0
 10
530.177859538305
 20
1246.478018262496
 30
0.0
 10
531.109288051657
 20
1246.478018262496
 30
0.0
 10
531.9132048892704
 20
1246.478018262496
 30
0.0
 10
532.6866855396644
 20
1246.478018262496
 30
0.0
 10
532.8065167152578
 20
1246.478018262496
 30
0.0
 10
532.8673751843218
 20
1246.478018262496
 30
0.0
  0
LINE
  5
19B
330
1F
100
AcDbEntity
  8
0
  6
Continuous
 62
     7
370
    25
100
AcDbLine
 10
453.1490536225
 20
1247.7780179168
 30
0.0
 11
453.1646998418
 21
1247.7782637859
 31
0.0
  0
LINE
  5
19C
330
1F
100
AcDbEntity
  8
0
  6
Continuous
 62
     7
370
    25
100
AcDbLine
 10
950.3805072797
 20
1247.7780179168
 30
0.0
 11
950.3648461592
 21
1247.7782637859
 31
0.0
  0
LINE
  5
19D
330
1F
100
AcDbEntity
  8
0
  6
Continuous
 62
     7
370
    25
100
AcDbLine
 10
946.9609441054
 20
1247.7782637859
 30
0.0
 11
946.9609441054
 21
1247.7780253674
 31
0.0
  0
LINE
  5
19E
330
1F
100
AcDbEntity
  8
0
  6
Continuous
 62
     7
370
    25
100
AcDbLine
 10
892.740148474
 20
1247.7782637859
 30
0.0
 11
892.740148474
 21
1247.7780253674
 31
0.0
  0
LINE
  5
19F
330
1F
100
AcDbEntity
  8
0
  6
Continuous
 62
     7
370
    25
100
AcDbLine
 10
1004.5816631806
 20
1247.7780179168
 30
0.0
 11
1004.5660169614
 21
1247.7782637859
 31
0.0
  0
LINE
  5
1A0
330
1F
100
AcDbEntity
  8
0
  6
Continuous
 62
     7
370
    25
100
AcDbLine
 10
1001.1622043145
 20
1247.7782637859
 30
0.0
 11
1001.1622043145
 21
1247.7780253674
 31
0.0
  0
LINE
  5
1A1
330
1F
100
AcDbEntity
  8
0
  6
Continuous
 62
     7
370
    25
100
AcDbLine
 10
1013.7805076134
 20
1247.7780179168
 30
0.0
 11
1013.7648613942
 21
1247.7782637859
 31
0.0
  0
LINE
  5
1A2
330
1F
100
AcDbEntity
  8
0
  6
Continuous
 62
     7
370
    25
100
AcDbLine
 10
843.9746754062
 20
1247.7791280533
 30
0.0
 11
843.9746828568
 21
1247.7791280533
 31
0.0
  0
SPLINE
  5
1A3
330
1F
100
AcDbEntity
  8
0
  6
Continuous
 62
     7
370
    25
100
AcDbSpline
210
0.0
220
0.0
230
1.0
 70
    24
 71
     3
 72
    13
 73
     9
 74
     0
 42
0.000000001
 43
0.00000001
 40
0.0
 40
0.0
 40
0.0
 40
0.0
 40
0.3712786082290425
 40
0.680337141788381
 40
0.8310520509257326
 40
0.9539293883896585
 40
0.9862330514305317
 40
1.0
 40
1.0
 40
1.0
 40
1.0
 10
989.0634150994066
 20
1244.12802318584
 30
0.0
 10
990.1433591737263
 20
1244.12802318584
 30
0.0
 10
992.1222667879256
 20
1244.12802318584
 30
0.0
 10
994.3867980483147
 20
1244.12802318584
 30
0.0
 10
995.7190447618297
 20
1244.12802318584
 30
0.0
 10
996.3010320869643
 20
1244.12802318584
 30
0.0
 10
996.5225244195732
 20
1244.12802318584
 30
0.0
 10
996.5337866805966
 20
1244.12802318584
 30
0.0
 10
996.5371521008257
 20
1244.12802318584
 30
0.0
  0
LINE
  5
1A4
330
1F
100
AcDbEntity
  8
0
  6
Continuous
 62
     7
370
    25
100
AcDbLine
 10
988.9171453011
 20
1244.1306979443
 30
0.0
 11
989.0634150994
 21
1244.1280231858
 31
0.0
  0
SPLINE
  5
1A5
330
1F
100
AcDbEntity
  8
0
  6
Continuous
 62
     7
370
    25
100
AcDbSpline
210
0.0
220
0.0
230
1.0
 70
    24
 71
     3
 72
    13
 73
     9
 74
     0
 42
0.000000001
 43
0.00000001
 40
0.0
 40
0.0
 40
0.0
 40
0.0
 40
0.3712788477550427
 40
0.6803360816636539
 40
0.8310523665046352
 40
0.9539297832414212
 40
0.9862328444071947
 40
1.0
 40
1.0
 40
1.0
 40
1.0
 10
963.6634172690157
 20
1244.12802318584
 30
0.0
 10
964.7433611004441
 20
1244.12802318584
 30
0.0
 10
966.7222639092986
 20
1244.12802318584
 30
0.0
 10
968.9867973503057
 20
1244.12802318584
 30
0.0
 10
970.3190291450951
 20
1244.12802318584
 30
0.0
 10
970.9010688921736
 20
1244.12802318584
 30
0.0
 10
971.1225008247386
 20
1244.12802318584
 30
0.0
 10
971.1337828612478
 20
1244.12802318584
 30
0.0
 10
971.1371542704347
 20
1244.12802318584
 30
0.0
  0
LINE
  5
1A6
330
1F
100
AcDbEntity
  8
0
  6
Continuous
 62
     7
370
    25
100
AcDbLine
 10
963.5171474707
 20
1244.1306979443
 30
0.0
 11
963.663417269
 21
1244.1280231858
 31
0.0
  0
SPLINE
  5
1A7
330
1F
100
AcDbEntity
  8
0
  6
Continuous
 62
     7
370
    25
100
AcDbSpline
210
0.0
220
0.0
230
1.0
 70
    24
 71
     3
 72
    13
 73
     9
 74
     0
 42
0.000000001
 43
0.00000001
 40
0.0
 40
0.0
 40
0.0
 40
0.0
 40
0.3712775749095812
 40
0.6803365999200104
 40
0.8310530271903839
 40
0.9539295413614719
 40
0.9862326330541747
 40
1.0
 40
1.0
 40
1.0
 40
1.0
 10
862.063425947452
 20
1244.12802318584
 30
0.0
 10
863.143363955873
 20
1244.12802318584
 30
0.0
 10
865.1222643862379
 20
1244.12802318584
 30
0.0
 10
867.3868042493388
 20
1244.12802318584
 30
0.0
 10
868.7190334494073
 20
1244.12802318584
 30
0.0
 10
869.3010779406158
 20
1244.12802318584
 30
0.0
 10
869.5224849000767
 20
1244.12802318584
 30
0.0
 10
869.5337858528314
 20
1244.12802318584
 30
0.0
 10
869.537162948871
 20
1244.12802318584
 30
0.0
  0
LINE
  5
1A8
330
1F
100
AcDbEntity
  8
0
  6
Continuous
 62
     7
370
    25
100
AcDbLine
 10
861.9171561492
 20
1244.1306979443
 30
0.0
 11
862.0634259475
 21
1244.1280231858
 31
0.0
  0
SPLINE
  5
1A9
330
1F
100
AcDbEntity
  8
0
  6
Continuous
 62
     7
370
    25
100
AcDbSpline
210
0.0
220
0.0
230
1.0
 70
    24
 71
     3
 72
    13
 73
     9
 74
     0
 42
0.000000001
 43
0.00000001
 40
0.0
 40
0.0
 40
0.0
 40
0.0
 40
0.3712789947705752
 40
0.6803363510567851
 40
0.8310526955769941
 40
0.9539291422832945
 40
0.9862328389558049
 40
1.0
 40
1.0
 40
1.0
 40
1.0
 10
938.2634194386247
 20
1244.12802318584
 30
0.0
 10
939.3433645892522
 20
1244.12802318584
 30
0.0
 10
941.3222698154241
 20
1244.12802318584
 30
0.0
 10
943.5867899768486
 20
1244.12802318584
 30
0.0
 10
944.9190439929268
 20
1244.12802318584
 30
0.0
 10
945.5010366985898
 20
1244.12802318584
 30
0.0
 10
945.7225041588887
 20
1244.12802318584
 30
0.0
 10
945.7337853338726
 20
1244.12802318584
 30
0.0
 10
945.7371564400438
 20
1244.12802318584
 30
0.0
  0
LINE
  5
1AA
330
1F
100
AcDbEntity
  8
0
  6
Continuous
 62
     7
370
    25
100
AcDbLine
 10
938.1171496403
 20
1244.1306979443
 30
0.0
 11
938.2634194386
 21
1244.1280231858
 31
0.0
  0
SPLINE
  5
1AB
330
1F
100
AcDbEntity
  8
0
  6
Continuous
 62
     7
370
    25
100
AcDbSpline
210
0.0
220
0.0
230
1.0
 70
    24
 71
     3
 72
    13
 73
     9
 74
     0
 42
0.000000001
 43
0.00000001
 40
0.0
 40
0.0
 40
0.0
 40
0.0
 40
0.3712789947705752
 40
0.6803363510567851
 40
0.8310526955769941
 40
0.9539291422832945
 40
0.9862328389558049
 40
1.0
 40
1.0
 40
1.0
 40
1.0
 10
912.8634216082338
 20
1244.12802318584
 30
0.0
 10
913.9433667588613
 20
1244.12802318584
 30
0.0
 10
915.9222719850331
 20
1244.12802318584
 30
0.0
 10
918.1867921464577
 20
1244.12802318584
 30
0.0
 10
919.5190461625359
 20
1244.12802318584
 30
0.0
 10
920.1010388681989
 20
1244.12802318584
 30
0.0
 10
920.3225063284978
 20
1244.12802318584
 30
0.0
 10
920.3337875034816
 20
1244.12802318584
 30
0.0
 10
920.3371586096529
 20
1244.12802318584
 30
0.0
  0
LINE
  5
1AC
330
1F
100
AcDbEntity
  8
0
  6
Continuous
 62
     7
370
    25
100
AcDbLine
 10
912.71715181
 20
1244.1306979443
 30
0.0
 11
912.8634216082
 21
1244.1280231858
 31
0.0
  0
SPLINE
  5
1AD
330
1F
100
AcDbEntity
  8
0
  6
Continuous
 62
     7
370
    25
100
AcDbSpline
210
0.0
220
0.0
230
1.0
 70
    24
 71
     3
 72
    13
 73
     9
 74
     0
 42
0.000000001
 43
0.00000001
 40
0.0
 40
0.0
 40
0.0
 40
0.0
 40
0.3712774173494012
 40
0.6803363112035232
 40
0.8310526745139137
 40
0.9539291365395262
 40
0.9862328372394188
 40
0.9999999999999999
 40
0.9999999999999999
 40
0.9999999999999999
 40
0.9999999999999999
 10
887.4634237778429
 20
1244.12802318584
 30
0.0
 10
888.543363280015
 20
1244.12802318584
 30
0.0
 10
890.52226644756
 20
1244.12802318584
 30
0.0
 10
892.7867912738282
 20
1244.12802318584
 30
0.0
 10
894.1190482730921
 20
1244.12802318584
 30
0.0
 10
894.7010410412369
 20
1244.12802318584
 30
0.0
 10
894.9225084979671
 20
1244.12802318584
 30
0.0
 10
894.9337896730585
 20
1244.12802318584
 30
0.0
 10
894.937160779262
 20
1244.12802318584
 30
0.0
  0
LINE
  5
1AE
330
1F
100
AcDbEntity
  8
0
  6
Continuous
 62
     7
370
    25
100
AcDbLine
 10
887.3171539796
 20
1244.1306979443
 30
0.0
 11
887.4634237778
 21
1244.1280231858
 31
0.0
  0
SPLINE
  5
1AF
330
1F
100
AcDbEntity
  8
0
  6
Continuous
 62
     7
370
    25
100
AcDbSpline
210
0.0
220
0.0
230
1.0
 70
     8
 71
     3
 72
    15
 73
    11
 74
     0
 42
0.000000001
 43
0.00000001
 40
0.0
 40
0.0
 40
0.0
 40
0.0
 40
0.0805958172986115
 40
0.2118432759854222
 40
0.4658268705096617
 40
0.7221945509250212
 40
0.7463934408077136
 40
0.7889581795438472
 40
0.8571996276095574
 40
1.0
 40
1.0
 40
1.0
 40
1.0
 10
858.1003429186586
 20
1247.778017916789
 30
0.0
 10
858.1121707395938
 20
1247.615115696122
 30
0.0
 10
858.1432597516371
 20
1247.186932928727
 30
0.0
 10
858.4494877060964
 20
1246.306525508638
 30
0.0
 10
859.1522018712437
 20
1245.241106810015
 30
0.0
 10
860.0483615885614
 20
1244.634734319742
 30
0.0
 10
860.614958724238
 20
1244.397849104461
 30
0.0
 10
860.8549290778868
 20
1244.310631247831
 30
0.0
 10
861.3252908564564
 20
1244.178959907194
 30
0.0
 10
861.6782966069434
 20
1244.150175062652
 30
0.0
 10
861.9171561491731
 20
1244.130697944274
 30
0.0
  0
SPLINE
  5
1B0
330
1F
100
AcDbEntity
  8
0
  6
Continuous
 62
     7
370
    25
100
AcDbSpline
210
0.0
220
0.0
230
1.0
 70
     8
 71
     3
 72
    15
 73
    11
 74
     0
 42
0.000000001
 43
0.00000001
 40
0.0
 40
0.0
 40
0.0
 40
0.0
 40
0.0805958403615961
 40
0.2118433366056675
 40
0.4658270038088614
 40
0.7221986700307577
 40
0.7463932845572212
 40
0.7889602110161629
 40
0.8572016786095796
 40
1.0
 40
1.0
 40
1.0
 40
1.0
 10
985.1003320706133
 20
1247.778017916789
 30
0.0
 10
985.1121598263551
 20
1247.6151156145
 30
0.0
 10
985.1432486670404
 20
1247.186932632564
 30
0.0
 10
985.4494792159373
 20
1246.306528460723
 30
0.0
 10
986.15217721594
 20
1245.24107766138
 30
0.0
 10
987.0483978498008
 20
1244.634781809056
 30
0.0
 10
987.614954868515
 20
1244.397838869389
 30
0.0
 10
987.8549332362746
 20
1244.310637922231
 30
0.0
 10
988.3252887182772
 20
1244.178957233245
 30
0.0
 10
988.678289948759
 20
1244.150173928501
 30
0.0
 10
988.9171453011278
 20
1244.130697944274
 30
0.0
  0
SPLINE
  5
1B1
330
1F
100
AcDbEntity
  8
0
  6
Continuous
 62
     7
370
    25
100
AcDbSpline
210
0.0
220
0.0
230
1.0
 70
     8
 71
     3
 72
    15
 73
    11
 74
     0
 42
0.000000001
 43
0.00000001
 40
0.0
 40
0.0
 40
0.0
 40
0.0
 40
0.0805968245863702
 40
0.2118450860746983
 40
0.4658288128955878
 40
0.7221966268494354
 40
0.7463955293370054
 40
0.7889602902445407
 40
0.8571995532267576
 40
1.0
 40
1.0
 40
1.0
 40
1.0
 10
959.7003491413835
 20
1247.77802536737
 30
0.0
 10
959.7121702044116
 20
1247.615120327853
 30
0.0
 10
959.7432413306934
 20
1247.186931844055
 30
0.0
 10
960.0495083542831
 20
1246.306530504703
 30
0.0
 10
960.752202554102
 20
1245.241105383787
 30
0.0
 10
961.6483680692489
 20
1244.634734508741
 30
0.0
 10
962.2149648803197
 20
1244.397849041456
 30
0.0
 10
962.454931892992
 20
1244.310633263456
 30
0.0
 10
962.9252837192353
 20
1244.178956528906
 30
0.0
 10
963.278287051466
 20
1244.1501738215
 30
0.0
 10
963.5171474707369
 20
1244.130697944274
 30
0.0
  0
SPLINE
  5
1B2
330
1F
100
AcDbEntity
  8
0
  6
Continuous
 62
     7
370
    25
100
AcDbSpline
210
0.0
220
0.0
230
1.0
 70
     8
 71
     3
 72
    15
 73
    11
 74
     0
 42
0.000000001
 43
0.00000001
 40
0.0
 40
0.0
 40
0.0
 40
0.0
 40
0.0805958349727153
 40
0.2118433224411835
 40
0.4658269726622639
 40
0.7221966655154665
 40
0.7463955607048077
 40
0.7889581332638395
 40
0.857199596294426
 40
0.9999999999999999
 40
0.9999999999999999
 40
0.9999999999999999
 40
0.9999999999999999
 10
908.9003385794405
 20
1247.778017916789
 30
0.0
 10
908.9121663946964
 20
1247.615115689417
 30
0.0
 10
908.9432553918122
 20
1247.186932904398
 30
0.0
 10
909.249483572281
 20
1246.306525751147
 30
0.0
 10
909.9521980985064
 20
1245.241101700784
 30
0.0
 10
910.8483674394265
 20
1244.634734153716
 30
0.0
 10
911.4149659931901
 20
1244.397851352996
 30
0.0
 10
911.6549266747112
 20
1244.310627370763
 30
0.0
 10
912.125287953882
 20
1244.178961787862
 30
0.0
 10
912.4782928475128
 20
1244.150175821635
 30
0.0
 10
912.7171518099551
 20
1244.130697944274
 30
0.0
  0
SPLINE
  5
1B3
330
1F
100
AcDbEntity
  8
0
  6
Continuous
 62
     7
370
    25
100
AcDbSpline
210
0.0
220
0.0
230
1.0
 70
     8
 71
     3
 72
    15
 73
    11
 74
     0
 42
0.000000001
 43
0.00000001
 40
0.0
 40
0.0
 40
0.0
 40
0.0
 40
0.0805958172986115
 40
0.2118432759854222
 40
0.4658268705096617
 40
0.7221945509250212
 40
0.7463934408077136
 40
0.7889581795438472
 40
0.8571996276095574
 40
1.0
 40
1.0
 40
1.0
 40
1.0
 10
883.5003407490495
 20
1247.778017916789
 30
0.0
 10
883.5121685699846
 20
1247.615115696122
 30
0.0
 10
883.543257582028
 20
1247.186932928727
 30
0.0
 10
883.8494855364874
 20
1246.306525508638
 30
0.0
 10
884.5521997016348
 20
1245.241106810015
 30
0.0
 10
885.4483594189524
 20
1244.634734319742
 30
0.0
 10
886.014956554629
 20
1244.397849104461
 30
0.0
 10
886.2549269082778
 20
1244.310631247831
 30
0.0
 10
886.7252886868473
 20
1244.178959907194
 30
0.0
 10
887.0782944373343
 20
1244.150175062652
 30
0.0
 10
887.3171539795641
 20
1244.130697944274
 30
0.0
  0
SPLINE
  5
1B4
330
1F
100
AcDbEntity
  8
0
  6
Continuous
 62
     7
370
    25
100
AcDbSpline
210
0.0
220
0.0
230
1.0
 70
     8
 71
     3
 72
    15
 73
    11
 74
     0
 42
0.000000001
 43
0.00000001
 40
0.0
 40
0.0
 40
0.0
 40
0.0
 40
0.0805956475271787
 40
0.2118432501262069
 40
0.4658284603045143
 40
0.7221964218258226
 40
0.7463953382424834
 40
0.7889579481374894
 40
0.8571994710296247
 40
1.0
 40
1.0
 40
1.0
 40
1.0
 10
934.3003513109927
 20
1247.778017916789
 30
0.0
 10
934.3121732523442
 20
1247.615115632825
 30
0.0
 10
934.3432468717705
 20
1247.186931849373
 30
0.0
 10
934.6494845951761
 20
1246.306522210356
 30
0.0
 10
935.3522117865971
 20
1245.24111193944
 30
0.0
 10
936.2483684680103
 20
1244.634732444094
 30
0.0
 10
936.8149638474472
 20
1244.397851381346
 30
0.0
 10
937.0549244922939
 20
1244.310627355548
 30
0.0
 10
937.5252857930401
 20
1244.178961798276
 30
0.0
 10
937.8782906814417
 20
1244.150175825838
 30
0.0
 10
938.1171496403459
 20
1244.130697944274
 30
0.0
  0
SPLINE
  5
1B5
330
1F
100
AcDbEntity
  8
0
  6
Continuous
 62
     7
370
    25
100
AcDbSpline
210
0.0
220
0.0
230
1.0
 70
    24
 71
     3
 72
    12
 73
     8
 74
     0
 42
0.000000001
 43
0.00000001
 40
0.0
 40
0.0
 40
0.0
 40
0.0
 40
0.2478696769056345
 40
0.3755998147303702
 40
0.503515911681093
 40
0.7478524624918015
 40
1.0
 40
1.0
 40
1.0
 40
1.0
 10
979.660961200023
 20
1247.478020289054
 30
0.0
 10
979.4333696777055
 20
1247.478020289054
 30
0.0
 10
979.0884975873238
 20
1247.478020289054
 30
0.0
 10
978.6802172911997
 20
1247.478020289054
 30
0.0
 10
978.3286772665788
 20
1247.478020289054
 30
0.0
 10
977.9895309543384
 20
1247.478020289054
 30
0.0
 10
977.9371132021681
 20
1247.478020289054
 30
0.0
 10
977.9104919922594
 20
1247.478020289054
 30
0.0
  0
SPLINE
  5
1B6
330
1F
100
AcDbEntity
  8
0
  6
Continuous
 62
     7
370
    25
100
AcDbSpline
210
0.0
220
0.0
230
1.0
 70
    24
 71
     3
 72
    13
 73
     9
 74
     0
 42
0.000000001
 43
0.00000001
 40
0.0
 40
0.0
 40
0.0
 40
0.0
 40
0.2394444393991251
 40
0.36962734843944
 40
0.5000001827941337
 40
0.6301793724125094
 40
0.7605583595474954
 40
0.9999999999999999
 40
0.9999999999999999
 40
0.9999999999999999
 40
0.9999999999999999
 10
981.4114006054643
 20
1247.478020289054
 30
0.0
 10
981.38789172868
 20
1247.478020289054
 30
0.0
 10
981.3516013733375
 20
1247.478020289054
 30
0.0
 10
981.1336710726753
 20
1247.478020289054
 30
0.0
 10
980.9075578685007
 20
1247.478020289054
 30
0.0
 10
980.6289878888898
 20
1247.478020289054
 30
0.0
 10
980.2210649605189
 20
1247.478020289054
 30
0.0
 10
979.8810834204064
 20
1247.478020289054
 30
0.0
 10
979.660961200023
 20
1247.478020289054
 30
0.0
  0
SPLINE
  5
1B7
330
1F
100
AcDbEntity
  8
0
  6
Continuous
 62
     7
370
    25
100
AcDbSpline
210
0.0
220
0.0
230
1.0
 70
    24
 71
     3
 72
    13
 73
     9
 74
     0
 42
0.000000001
 43
0.00000001
 40
0.0
 40
0.0
 40
0.0
 40
0.0
 40
0.2394436161247442
 40
0.3696260775612053
 40
0.5000019019279797
 40
0.6301806439552899
 40
0.7605591828122529
 40
1.0
 40
1.0
 40
1.0
 40
1.0
 10
879.8114092839006
 20
1247.478020289054
 30
0.0
 10
879.7878998048309
 20
1247.478020289054
 30
0.0
 10
879.7516085197478
 20
1247.478020289054
 30
0.0
 10
879.5336812871956
 20
1247.478020289054
 30
0.0
 10
879.3075507057266
 20
1247.478020289054
 30
0.0
 10
879.0289825537354
 20
1247.478020289054
 30
0.0
 10
878.621058289959
 20
1247.478020289054
 30
0.0
 10
878.2810770216813
 20
1247.478020289054
 30
0.0
 10
878.0609549772983
 20
1247.478020289054
 30
0.0
  0
SPLINE
  5
1B8
330
1F
100
AcDbEntity
  8
0
  6
Continuous
 62
     7
370
    25
100
AcDbSpline
210
0.0
220
0.0
230
1.0
 70
    24
 71
     3
 72
    12
 73
     8
 74
     0
 42
0.000000001
 43
0.00000001
 40
0.0
 40
0.0
 40
0.0
 40
0.0
 40
0.2478704266987779
 40
0.3756009509006725
 40
0.503517434791071
 40
0.7478516997583478
 40
1.0
 40
1.0
 40
1.0
 40
1.0
 10
878.0609549772981
 20
1247.478020289054
 30
0.0
 10
877.8333633764393
 20
1247.478020289054
 30
0.0
 10
877.4884911670429
 20
1247.478020289054
 30
0.0
 10
877.0802114366614
 20
1247.478020289054
 30
0.0
 10
876.7286712177786
 20
1247.478020289054
 30
0.0
 10
876.3895429025297
 20
1247.478020289054
 30
0.0
 10
876.3371230894659
 20
1247.478020289054
 30
0.0
 10
876.3105006706957
 20
1247.478020289054
 30
0.0
  0
SPLINE
  5
1B9
330
1F
100
AcDbEntity
  8
0
  6
Continuous
 62
     7
370
    25
100
AcDbSpline
210
0.0
220
0.0
230
1.0
 70
    24
 71
     3
 72
    12
 73
     8
 74
     0
 42
0.000000001
 43
0.00000001
 40
0.0
 40
0.0
 40
0.0
 40
0.0
 40
0.2478704266987779
 40
0.3756009509006725
 40
0.503517434791071
 40
0.7478516997583478
 40
1.0
 40
1.0
 40
1.0
 40
1.0
 10
928.86095063808
 20
1247.478020289054
 30
0.0
 10
928.6333590372211
 20
1247.478020289054
 30
0.0
 10
928.2884868278247
 20
1247.478020289054
 30
0.0
 10
927.8802070974433
 20
1247.478020289054
 30
0.0
 10
927.5286668785604
 20
1247.478020289054
 30
0.0
 10
927.1895385633115
 20
1247.478020289054
 30
0.0
 10
927.1371187502477
 20
1247.478020289054
 30
0.0
 10
927.1104963314775
 20
1247.478020289054
 30
0.0
  0
SPLINE
  5
1BA
330
1F
100
AcDbEntity
  8
0
  6
Continuous
 62
     7
370
    25
100
AcDbSpline
210
0.0
220
0.0
230
1.0
 70
    24
 71
     3
 72
    13
 73
     9
 74
     0
 42
0.000000001
 43
0.00000001
 40
0.0
 40
0.0
 40
0.0
 40
0.0
 40
0.2394430831102885
 40
0.3696227530050766
 40
0.4999982871482059
 40
0.6301809536808138
 40
0.7605543727496779
 40
1.0
 40
1.0
 40
1.0
 40
1.0
 10
930.6114049446825
 20
1247.478020289054
 30
0.0
 10
930.5878926015918
 20
1247.478020289054
 30
0.0
 10
930.5515971410176
 20
1247.478020289054
 30
0.0
 10
930.3336938572137
 20
1247.478020289054
 30
0.0
 10
930.107559977755
 20
1247.478020289054
 30
0.0
 10
929.8289822310844
 20
1247.478020289054
 30
0.0
 10
929.4210633686499
 20
1247.478020289054
 30
0.0
 10
929.0810791797801
 20
1247.478020289054
 30
0.0
 10
928.86095063808
 20
1247.478020289054
 30
0.0
  0
SPLINE
  5
1BB
330
1F
100
AcDbEntity
  8
0
  6
Continuous
 62
     7
370
    25
100
AcDbSpline
210
0.0
220
0.0
230
1.0
 70
    24
 71
     3
 72
    10
 73
     6
 74
     0
 42
0.000000001
 43
0.00000001
 40
0.0
 40
0.0
 40
0.0
 40
0.0
 40
0.5002694124416188
 40
0.7722543289577194
 40
1.0
 40
1.0
 40
1.0
 40
1.0
 10
905.2114071142915
 20
1247.478020289054
 30
0.0
 10
905.1872261614386
 20
1247.478020289054
 30
0.0
 10
905.1498985834284
 20
1247.478020289054
 30
0.0
 10
904.9461613958582
 20
1247.478020289054
 30
0.0
 10
904.8015995250204
 20
1247.478020289054
 30
0.0
 10
904.7357173455005
 20
1247.478020289054
 30
0.0
  0
SPLINE
  5
1BC
330
1F
100
AcDbEntity
  8
0
  6
Continuous
 62
     7
370
    25
100
AcDbSpline
210
0.0
220
0.0
230
1.0
 70
    24
 71
     3
 72
    10
 73
     6
 74
     0
 42
0.000000001
 43
0.00000001
 40
0.0
 40
0.0
 40
0.0
 40
0.0
 40
0.0435143342977257
 40
0.5142302032079569
 40
0.9999999999999999
 40
0.9999999999999999
 40
0.9999999999999999
 40
0.9999999999999999
 10
953.0651749861482
 20
1247.478020289054
 30
0.0
 10
953.0491752665389
 20
1247.478020289054
 30
0.0
 10
952.8600987427028
 20
1247.478020289054
 30
0.0
 10
952.5942645533432
 20
1247.478020289054
 30
0.0
 10
952.53870908433
 20
1247.478020289054
 30
0.0
 10
952.5104941618686
 20
1247.478020289054
 30
0.0
  0
SPLINE
  5
1BD
330
1F
100
AcDbEntity
  8
0
  6
Continuous
 62
     7
370
    25
100
AcDbSpline
210
0.0
220
0.0
230
1.0
 70
    24
 71
     3
 72
    11
 73
     7
 74
     0
 42
0.000000001
 43
0.00000001
 40
0.0
 40
0.0
 40
0.0
 40
0.0
 40
0.2500081936733041
 40
0.5000028937457501
 40
0.7499944912727604
 40
1.0
 40
1.0
 40
1.0
 40
1.0
 10
977.5266976845506
 20
1246.478018262496
 30
0.0
 10
977.8384368116562
 20
1246.478018262496
 30
0.0
 10
978.4618982404852
 20
1246.478018262496
 30
0.0
 10
979.6609561393645
 20
1246.478018262496
 30
0.0
 10
980.860010348354
 20
1246.478018262496
 30
0.0
 10
981.4834609429026
 20
1246.478018262496
 30
0.0
 10
981.7951949131731
 20
1246.478018262496
 30
0.0
  0
SPLINE
  5
1BE
330
1F
100
AcDbEntity
  8
0
  6
Continuous
 62
     7
370
    25
100
AcDbSpline
210
0.0
220
0.0
230
1.0
 70
     8
 71
     3
 72
    11
 73
     7
 74
     0
 42
0.000000001
 43
0.00000001
 40
0.0
 40
0.0
 40
0.0
 40
0.0
 40
0.2500002295747071
 40
0.500000201677368
 40
0.7500016691109798
 40
1.0
 40
1.0
 40
1.0
 40
1.0
 10
880.1952035916094
 20
1246.478018262496
 30
0.0
 10
880.3735499605683
 20
1246.496356528297
 30
0.0
 10
880.7302425148094
 20
1246.533033041012
 30
0.0
 10
881.229442020551
 20
1246.826766440127
 30
0.0
 10
881.6713750044318
 20
1247.267300853715
 30
0.0
 10
881.8835462617305
 20
1247.674447542302
 30
0.0
 10
881.9896312248949
 20
1247.878019609561
 30
0.0
  0
SPLINE
  5
1BF
330
1F
100
AcDbEntity
  8
0
  6
Continuous
 62
     7
370
    25
100
AcDbSpline
210
0.0
220
0.0
230
1.0
 70
    24
 71
     3
 72
    11
 73
     7
 74
     0
 42
0.000000001
 43
0.00000001
 40
0.0
 40
0.0
 40
0.0
 40
0.0
 40
0.2500082568842416
 40
0.4999999725381158
 40
0.7499916881919899
 40
1.0
 40
1.0
 40
1.0
 40
1.0
 10
875.9267063629869
 20
1246.478018262496
 30
0.0
 10
876.23844546187
 20
1246.478018262496
 30
0.0
 10
876.861903034124
 20
1246.478018262496
 30
0.0
 10
878.0609549633145
 20
1246.478018262496
 30
0.0
 10
879.2600070642189
 20
1246.478018262496
 30
0.0
 10
879.8834645178157
 20
1246.478018262496
 30
0.0
 10
880.1952035916094
 20
1246.478018262496
 30
0.0
  0
LINE
  5
1C0
330
1F
100
AcDbEntity
  8
0
  6
Continuous
 62
     7
370
    25
100
AcDbLine
 10
883.8361086142
 20
1246.4780182625
 30
0.0
 11
880.1952035916
 21
1246.4780182625
 31
0.0
  0
LINE
  5
1C1
330
1F
100
AcDbEntity
  8
0
  6
Continuous
 62
     7
370
    25
100
AcDbLine
 10
985.436114837
 20
1246.4780182625
 30
0.0
 11
981.7951949132
 21
1246.4780182625
 31
0.0
  0
LINE
  5
1C2
330
1F
100
AcDbEntity
  8
0
  6
Continuous
 62
     7
370
    25
100
AcDbLine
 10
875.926706363
 20
1246.4780182625
 30
0.0
 11
873.1534214509
 21
1246.4780182625
 31
0.0
  0
LINE
  5
1C3
330
1F
100
AcDbEntity
  8
0
  6
Continuous
 62
     7
370
    25
100
AcDbLine
 10
974.7530700457
 20
1246.4780182625
 30
0.0
 11
977.5266976846
 21
1246.4780182625
 31
0.0
  0
SPLINE
  5
1C4
330
1F
100
AcDbEntity
  8
0
  6
Continuous
 62
     7
370
    25
100
AcDbSpline
210
0.0
220
0.0
230
1.0
 70
    24
 71
     3
 72
    13
 73
     9
 74
     0
 42
0.000000001
 43
0.00000001
 40
0.0
 40
0.0
 40
0.0
 40
0.0
 40
0.2394576079763736
 40
0.3683608250624513
 40
0.4999997062266539
 40
0.6316394591353705
 40
0.7605429946657176
 40
0.9999999999999999
 40
0.9999999999999999
 40
0.9999999999999999
 40
0.9999999999999999
 10
928.86095063808
 20
1246.478018262496
 30
0.0
 10
929.3639645670871
 20
1246.478018262496
 30
0.0
 10
930.1377575882102
 20
1246.478018262496
 30
0.0
 10
931.0687005121775
 20
1246.478018262496
 30
0.0
 10
931.7093017776524
 20
1246.478018262496
 30
0.0
 10
932.2253769094667
 20
1246.478018262496
 30
0.0
 10
932.7239867053323
 20
1246.478018262496
 30
0.0
 10
932.8061571159976
 20
1246.478018262496
 30
0.0
 10
932.8595729363207
 20
1246.478018262496
 30
0.0
  0
SPLINE
  5
1C5
330
1F
100
AcDbEntity
  8
0
  6
Continuous
 62
     7
370
    25
100
AcDbSpline
210
0.0
220
0.0
230
1.0
 70
    24
 71
     3
 72
    12
 73
     8
 74
     0
 42
0.000000001
 43
0.00000001
 40
0.0
 40
0.0
 40
0.0
 40
0.0
 40
0.2521550206111994
 40
0.4964967577614783
 40
0.6238837949544059
 40
0.7521236154556864
 40
1.0
 40
1.0
 40
1.0
 40
1.0
 10
924.8623283398393
 20
1246.478018262496
 30
0.0
 10
924.923186818651
 20
1246.478018262496
 30
0.0
 10
925.0430180135207
 20
1246.478018262496
 30
0.0
 10
925.8164985172419
 20
1246.478018262496
 30
0.0
 10
926.6204155541845
 20
1246.478018262496
 30
0.0
 10
927.5518439281199
 20
1246.478018262496
 30
0.0
 10
928.3409177984901
 20
1246.478018262496
 30
0.0
 10
928.8609506380801
 20
1246.478018262496
 30
0.0
  0
LINE
  5
1C6
330
1F
100
AcDbEntity
  8
0
  6
Continuous
 62
     7
370
    25
100
AcDbLine
 10
615.3648527158
 20
1249.7603342916
 30
0.0
 11
615.1225970876
 21
1248.036597767
 31
0.0
  0
SPLINE
  5
1C7
330
1F
100
AcDbEntity
  8
0
  6
Continuous
 62
     7
370
    25
100
AcDbSpline
210
0.0
220
0.0
230
1.0
 70
     8
 71
     3
 72
    11
 73
     7
 74
     0
 42
0.000000001
 43
0.00000001
 40
0.0
 40
0.0
 40
0.0
 40
0.0
 40
0.2499958794851442
 40
0.4999994187313823
 40
0.7499962951812479
 40
0.9999999999999999
 40
0.9999999999999999
 40
0.9999999999999999
 40
0.9999999999999999
 10
614.8254157793764
 20
1248.036597766986
 30
0.0
 10
614.8638834774931
 20
1248.031908155411
 30
0.0
 10
614.9408200523592
 20
1248.022528788573
 30
0.0
 10
615.0382915912198
 20
1248.018531177147
 30
0.0
 10
615.1072965203463
 20
1248.022529076193
 30
0.0
 10
615.1174968521117
 20
1248.031908160692
 30
0.0
 10
615.1225970876459
 20
1248.036597766986
 30
0.0
  0
LINE
  5
1C8
330
1F
100
AcDbEntity
  8
0
  6
Continuous
 62
     7
370
    25
100
AcDbLine
 10
614.8254157794
 20
1248.036597767
 30
0.0
 11
615.0676639569
 21
1249.7603342916
 31
0.0
  0
SPLINE
  5
1C9
330
1F
100
AcDbEntity
  8
0
  6
Continuous
 62
     7
370
    25
100
AcDbSpline
210
0.0
220
0.0
230
1.0
 70
    24
 71
     3
 72
    11
 73
     7
 74
     0
 42
0.000000001
 43
0.00000001
 40
0.0
 40
0.0
 40
0.0
 40
0.0
 40
0.2500013295313758
 40
0.5000016436709253
 40
0.7499907851165208
 40
0.9999999999999999
 40
0.9999999999999999
 40
0.9999999999999999
 40
0.9999999999999999
 10
615.3648378145937
 20
1249.760334291568
 30
0.0
 10
615.3600734745334
 20
1249.760334291568
 30
0.0
 10
615.3505448137631
 20
1249.760334291568
 30
0.0
 10
615.2818211105672
 20
1249.760334291568
 30
0.0
 10
615.1840603100912
 20
1249.760334291568
 30
0.0
 10
615.1064637797231
 20
1249.760334291568
 30
0.0
 10
615.0676639569048
 20
1249.760334291568
 30
0.0
  0
LINE
  5
1CA
330
1F
100
AcDbEntity
  8
0
  6
Continuous
 62
     7
370
    25
100
AcDbLine
 10
615.3648378146
 20
1249.7603342916
 30
0.0
 11
615.3648527158
 21
1249.7603342916
 31
0.0
  0
LINE
  5
1CB
330
1F
100
AcDbEntity
  8
0
  6
Continuous
 62
     7
370
    25
100
AcDbLine
 10
615.064855088
 20
1249.7603342916
 30
0.0
 11
615.0676639569
 21
1249.7603342916
 31
0.0
  0
LINE
  5
1CC
330
1F
100
AcDbEntity
  8
0
  6
Continuous
 62
     7
370
    25
100
AcDbLine
 10
615.3648527158
 20
1250.1282663132
 30
0.0
 11
615.3648527158
 21
1249.7603342916
 31
0.0
  0
LINE
  5
1CD
330
1F
100
AcDbEntity
  8
0
  6
Continuous
 62
     7
370
    25
100
AcDbLine
 10
442.6620336068
 20
1249.7603342916
 30
0.0
 11
442.9042966855
 21
1248.036597767
 31
0.0
  0
LINE
  5
1CE
330
1F
100
AcDbEntity
  8
0
  6
Continuous
 62
     7
370
    25
100
AcDbLine
 10
442.6648648274
 20
1249.7603342916
 30
0.0
 11
442.6620336068
 21
1249.7603342916
 31
0.0
  0
LINE
  5
1CF
330
1F
100
AcDbEntity
  8
0
  6
Continuous
 62
     7
370
    25
100
AcDbLine
 10
442.6648648274
 20
1249.7603342916
 30
0.0
 11
615.064855088
 21
1249.7603342916
 31
0.0
  0
LINE
  5
1D0
330
1F
100
AcDbEntity
  8
0
  6
Continuous
 62
     7
370
    25
100
AcDbLine
 10
442.9042966855
 20
1248.036597767
 30
0.0
 11
614.8254157794
 21
1248.036597767
 31
0.0
  0
SPLINE
  5
1D1
330
1F
100
AcDbEntity
  8
0
  6
Continuous
 62
     7
370
    25
100
AcDbSpline
210
0.0
220
0.0
230
1.0
 70
     8
 71
     3
 72
    11
 73
     7
 74
     0
 42
0.000000001
 43
0.00000001
 40
0.0
 40
0.0
 40
0.0
 40
0.0
 40
0.2500034953630773
 40
0.4999944278690287
 40
0.7500077065835323
 40
1.0
 40
1.0
 40
1.0
 40
1.0
 10
442.6071079266314
 20
1248.036597766986
 30
0.0
 10
442.6122120387647
 20
1248.031908155314
 30
0.0
 10
442.622420006546
 20
1248.022529167626
 30
0.0
 10
442.691411262666
 20
1248.018531211287
 30
0.0
 10
442.7888920151591
 20
1248.02252852006
 30
0.0
 10
442.8658295384
 20
1248.031908149232
 30
0.0
 10
442.9042966854815
 20
1248.036597766986
 30
0.0
  0
LINE
  5
1D2
330
1F
100
AcDbEntity
  8
0
  6
Continuous
 62
     7
370
    25
100
AcDbLine
 10
442.6071079266
 20
1248.036597767
 30
0.0
 11
442.3648448479
 21
1249.7603342916
 31
0.0
  0
SPLINE
  5
1D3
330
1F
100
AcDbEntity
  8
0
  6
Continuous
 62
     7
370
    25
100
AcDbSpline
210
0.0
220
0.0
230
1.0
 70
    24
 71
     3
 72
    11
 73
     7
 74
     0
 42
0.000000001
 43
0.00000001
 40
0.0
 40
0.0
 40
0.0
 40
0.0
 40
0.2500092151582679
 40
0.5000174148926816
 40
0.7500144415807284
 40
0.9999999999999999
 40
0.9999999999999999
 40
0.9999999999999999
 40
0.9999999999999999
 10
442.3648746502643
 20
1249.760334291568
 30
0.0
 10
442.3696389892791
 20
1249.760334291568
 30
0.0
 10
442.3791676479582
 20
1249.760334291568
 30
0.0
 10
442.4478913668373
 20
1249.760334291568
 30
0.0
 10
442.5456479963706
 20
1249.760334291568
 30
0.0
 10
442.6232389965618
 20
1249.760334291568
 30
0.0
 10
442.662033606792
 20
1249.760334291568
 30
0.0
  0
LINE
  5
1D4
330
1F
100
AcDbEntity
  8
0
  6
Continuous
 62
     7
370
    25
100
AcDbLine
 10
442.3648448479
 20
1249.7603342916
 30
0.0
 11
442.3648746503
 21
1249.7603342916
 31
0.0
  0
LINE
  5
1D5
330
1F
100
AcDbEntity
  8
0
  6
Continuous
 62
     7
370
    25
100
AcDbLine
 10
442.3648448479
 20
1249.7603342916
 30
0.0
 11
442.3648448479
 21
1250.1282663132
 31
0.0
  0
LINE
  5
1D6
330
1F
100
AcDbEntity
  8
0
  6
Continuous
 62
     7
370
    25
100
AcDbLine
 10
442.9042966855
 20
1247.7782637859
 30
0.0
 11
614.8254157794
 21
1247.7782637859
 31
0.0
  0
LINE
  5
1D7
330
1F
100
AcDbEntity
  8
0
  6
Continuous
 62
     7
370
    25
100
AcDbLine
 10
442.9042966855
 20
1248.036597767
 30
0.0
 11
442.9042966855
 21
1247.7782637859
 31
0.0
  0
LINE
  5
1D8
330
1F
100
AcDbEntity
  8
0
  6
Continuous
 62
     7
370
    25
100
AcDbLine
 10
614.8254157794
 20
1247.7782637859
 30
0.0
 11
614.8254157794
 21
1248.036597767
 31
0.0
  0
ARC
  5
1D9
330
1F
100
AcDbEntity
  8
0
  6
Continuous
 62
     7
370
    25
100
AcDbCircle
 10
442.9042861043
 20
1248.0783655969
 30
0.0
 40
0.3000997008971353
100
AcDbArc
 50
187.9999998586
 51
269.9999999045
  0
ARC
  5
1DA
330
1F
100
AcDbEntity
  8
0
  6
Continuous
 62
     7
370
    25
100
AcDbCircle
 10
614.8254174198
 20
1248.0783655969
 30
0.0
 40
0.3000997008971353
100
AcDbArc
 50
270.0000000573
 51
352.0000001228
  0
SPLINE
  5
1DB
330
1F
100
AcDbEntity
  8
0
  6
Continuous
 62
     7
370
    25
100
AcDbSpline
210
0.0
220
0.0
230
1.0
 70
     8
 71
     3
 72
    11
 73
     7
 74
     0
 42
0.000000001
 43
0.00000001
 40
0.0
 40
0.0
 40
0.0
 40
0.0
 40
0.2499939591115223
 40
0.500008903660905
 40
0.7499948388672298
 40
1.0
 40
1.0
 40
1.0
 40
1.0
 10
1014.82540683868
 20
1248.036597766986
 30
0.0
 10
1014.863874029046
 20
1248.03190815469
 30
0.0
 10
1014.940811638859
 20
1248.022528536434
 30
0.0
 10
1015.038290876027
 20
1248.018531181298
 30
0.0
 10
1015.107284366109
 20
1248.022529306683
 30
0.0
 10
1015.11749172289
 20
1248.031908160005
 30
0.0
 10
1015.12259559753
 20
1248.036597766986
 30
0.0
  0
LINE
  5
1DC
330
1F
100
AcDbEntity
  8
0
  6
Continuous
 62
     7
370
    25
100
AcDbLine
 10
1014.8254068387
 20
1248.036597767
 30
0.0
 11
1015.0655539525
 21
1249.7603342916
 31
0.0
  0
SPLINE
  5
1DD
330
1F
100
AcDbEntity
  8
0
  6
Continuous
 62
     7
370
    25
100
AcDbSpline
210
0.0
220
0.0
230
1.0
 70
    24
 71
     3
 72
    11
 73
     7
 74
     0
 42
0.000000001
 43
0.00000001
 40
0.0
 40
0.0
 40
0.0
 40
0.0
 40
0.249995298854196
 40
0.4999917980387463
 40
0.7500001039105102
 40
0.9999999999999999
 40
0.9999999999999999
 40
0.9999999999999999
 40
0.9999999999999999
 10
1015.364858676219
 20
1249.760334291568
 30
0.0
 10
1015.360362712317
 20
1249.760334291568
 30
0.0
 10
1015.351370762925
 20
1249.760334291568
 30
0.0
 10
1015.282194931544
 20
1249.760334291568
 30
0.0
 10
1015.18328033834
 20
1249.760334291568
 30
0.0
 10
1015.104795641081
 20
1249.760334291568
 30
0.0
 10
1015.06555395248
 20
1249.760334291568
 30
0.0
  0
LINE
  5
1DE
330
1F
100
AcDbEntity
  8
0
  6
Continuous
 62
     7
370
    25
100
AcDbLine
 10
1015.3648586762
 20
1249.7603342916
 30
0.0
 11
1015.1225955975
 21
1248.036597767
 31
0.0
  0
LINE
  5
1DF
330
1F
100
AcDbEntity
  8
0
  6
Continuous
 62
     7
370
    25
100
AcDbLine
 10
1015.3648586762
 20
1250.1282663132
 30
0.0
 11
1015.3648586762
 21
1249.7603342916
 31
0.0
  0
LINE
  5
1E0
330
1F
100
AcDbEntity
  8
0
  6
Continuous
 62
     7
370
    25
100
AcDbLine
 10
844.4885344994
 20
1249.7603342916
 30
0.0
 11
1015.0655539525
 21
1249.7603342916
 31
0.0
  0
LINE
  5
1E1
330
1F
100
AcDbEntity
  8
0
  6
Continuous
 62
     7
370
    25
100
AcDbLine
 10
844.588290323
 20
1248.036597767
 30
0.0
 11
1014.8254068387
 21
1248.036597767
 31
0.0
  0
LINE
  5
1E2
330
1F
100
AcDbEntity
  8
0
  6
Continuous
 62
     7
370
    25
100
AcDbLine
 10
844.4885344994
 20
1249.7603342916
 30
0.0
 11
844.588290323
 21
1248.036597767
 31
0.0
  0
SPLINE
  5
1E3
330
1F
100
AcDbEntity
  8
0
  6
Continuous
 62
     7
370
    25
100
AcDbSpline
210
0.0
220
0.0
230
1.0
 70
     8
 71
     3
 72
    11
 73
     7
 74
     0
 42
0.000000001
 43
0.00000001
 40
0.0
 40
0.0
 40
0.0
 40
0.0
 40
0.2500001576673037
 40
0.5000144383582377
 40
0.7500146149563709
 40
1.0
 40
1.0
 40
1.0
 40
1.0
 10
844.3781541478876
 20
1248.036597766986
 30
0.0
 10
844.3927534384405
 20
1248.035639832319
 30
0.0
 10
844.4219528442902
 20
1248.033723908869
 30
0.0
 10
844.4741360381648
 20
1248.032983197707
 30
0.0
 10
844.5300460239282
 20
1248.033723899082
 30
0.0
 10
844.568875939586
 20
1248.035639829912
 30
0.0
 10
844.5882903230432
 20
1248.036597766986
 30
0.0
  0
LINE
  5
1E4
330
1F
100
AcDbEntity
  8
0
  6
Continuous
 62
     7
370
    25
100
AcDbLine
 10
844.3781541479
 20
1248.036597767
 30
0.0
 11
844.2778097284
 21
1249.7603342916
 31
0.0
  0
SPLINE
  5
1E5
330
1F
100
AcDbEntity
  8
0
  6
Continuous
 62
     7
370
    25
100
AcDbSpline
210
0.0
220
0.0
230
1.0
 70
    24
 71
     3
 72
    11
 73
     7
 74
     0
 42
0.000000001
 43
0.00000001
 40
0.0
 40
0.0
 40
0.0
 40
0.0
 40
0.2499965055666333
 40
0.4999888612240336
 40
0.7499807322457358
 40
1.0
 40
1.0
 40
1.0
 40
1.0
 10
844.2778097284082
 20
1249.760334291568
 30
0.0
 10
844.2924181950713
 20
1249.760334291568
 30
0.0
 10
844.3216348858984
 20
1249.760334291568
 30
0.0
 10
844.3739467550951
 20
1249.760334291568
 30
0.0
 10
844.4300468235467
 20
1249.760334291568
 30
0.0
 10
844.4690378953336
 20
1249.760334291568
 30
0.0
 10
844.488534499431
 20
1249.760334291568
 30
0.0
  0
LINE
  5
1E6
330
1F
100
AcDbEntity
  8
0
  6
Continuous
 62
     7
370
    25
100
AcDbLine
 10
844.2778097284
 20
1249.7603342916
 30
0.0
 11
844.276982714
 21
1249.7603342916
 31
0.0
  0
LINE
  5
1E7
330
1F
100
AcDbEntity
  8
0
  6
Continuous
 62
     7
370
    25
100
AcDbLine
 10
842.452722956
 20
1249.7603342916
 30
0.0
 11
842.4518959415
 21
1249.7603342916
 31
0.0
  0
LINE
  5
1E8
330
1F
100
AcDbEntity
  8
0
  6
Continuous
 62
     7
370
    25
100
AcDbLine
 10
844.276982714
 20
1249.7603342916
 30
0.0
 11
842.452722956
 21
1249.7603342916
 31
0.0
  0
LINE
  5
1E9
330
1F
100
AcDbEntity
  8
0
  6
Continuous
 62
     7
370
    25
100
AcDbLine
 10
842.6941515696
 20
1248.036597767
 30
0.0
 11
844.3781541479
 21
1248.036597767
 31
0.0
  0
LINE
  5
1EA
330
1F
100
AcDbEntity
  8
0
  6
Continuous
 62
     7
370
    25
100
AcDbLine
 10
842.4518959415
 20
1249.7603342916
 30
0.0
 11
842.6941515696
 21
1248.036597767
 31
0.0
  0
LINE
  5
1EB
330
1F
100
AcDbEntity
  8
0
  6
Continuous
 62
     7
370
    25
100
AcDbLine
 10
1014.8254068387
 20
1247.7782637859
 30
0.0
 11
1014.8254068387
 21
1248.036597767
 31
0.0
  0
LINE
  5
1EC
330
1F
100
AcDbEntity
  8
0
  6
Continuous
 62
     7
370
    25
100
AcDbLine
 10
844.588290323
 20
1247.7782637859
 30
0.0
 11
1014.8254068387
 21
1247.7782637859
 31
0.0
  0
LINE
  5
1ED
330
1F
100
AcDbEntity
  8
0
  6
Continuous
 62
     7
370
    25
100
AcDbLine
 10
844.588290323
 20
1248.036597767
 30
0.0
 11
844.588290323
 21
1247.7782637859
 31
0.0
  0
SPLINE
  5
1EE
330
1F
100
AcDbEntity
  8
0
  6
Continuous
 62
     7
370
    25
100
AcDbSpline
210
0.0
220
0.0
230
1.0
 70
     8
 71
     3
 72
    11
 73
     7
 74
     0
 42
0.000000001
 43
0.00000001
 40
0.0
 40
0.0
 40
0.0
 40
0.0
 40
0.2499984638488808
 40
0.4999959274472687
 40
0.7500097073886526
 40
1.0
 40
1.0
 40
1.0
 40
1.0
 10
844.5882903230432
 20
1247.778263785949
 30
0.0
 10
844.5629586323889
 20
1247.781995822139
 30
0.0
 10
844.512295352433
 20
1247.789459879588
 30
0.0
 10
844.4463968889658
 20
1247.847518937807
 30
0.0
 10
844.3965672757918
 20
1247.931725620618
 30
0.0
 10
844.3842916649764
 20
1248.001641479612
 30
0.0
 10
844.3781541478877
 20
1248.036597766986
 30
0.0
  0
ARC
  5
1EF
330
1F
100
AcDbEntity
  8
0
  6
Continuous
 62
     7
370
    25
100
AcDbCircle
 10
1014.8254174196
 20
1248.0783655969
 30
0.0
 40
0.3000997008971353
100
AcDbArc
 50
270.0
 51
352.0000001414
  0
LINE
  5
1F0
330
1F
100
AcDbEntity
  8
0
  6
Continuous
 62
     7
370
    25
100
AcDbLine
 10
843.660953809
 20
1247.7782637859
 30
0.0
 11
842.9042877448
 21
1247.7782637859
 31
0.0
  0
LINE
  5
1F1
330
1F
100
AcDbEntity
  8
0
  6
Continuous
 62
     7
370
    25
100
AcDbLine
 10
844.588290323
 20
1247.7782637859
 30
0.0
 11
843.8292251718
 21
1247.7782637859
 31
0.0
  0
LINE
  5
1F2
330
1F
100
AcDbEntity
  8
0
  6
Continuous
 62
     7
370
    25
100
AcDbLine
 10
843.660953809
 20
1247.7782637859
 30
0.0
 11
843.660953809
 21
1247.8028656031
 31
0.0
  0
LINE
  5
1F3
330
1F
100
AcDbEntity
  8
0
  6
Continuous
 62
     7
370
    25
100
AcDbLine
 10
843.660953809
 20
1247.8028656031
 30
0.0
 11
843.8292251718
 21
1247.7782637859
 31
0.0
  0
SPLINE
  5
1F4
330
1F
100
AcDbEntity
  8
0
  6
Continuous
 62
     7
370
    25
100
AcDbSpline
210
0.0
220
0.0
230
1.0
 70
     8
 71
     3
 72
    11
 73
     7
 74
     0
 42
0.000000001
 43
0.00000001
 40
0.0
 40
0.0
 40
0.0
 40
0.0
 40
0.2499891885232623
 40
0.4999941455466968
 40
0.7499905050253287
 40
0.9999999999999999
 40
0.9999999999999999
 40
0.9999999999999999
 40
0.9999999999999999
 10
842.6941515696291
 20
1248.036597766986
 30
0.0
 10
842.7002897138563
 20
1248.00164174739
 30
0.0
 10
842.7125663894844
 20
1247.931727503285
 30
0.0
 10
842.7623855971289
 20
1247.847517351133
 30
0.0
 10
842.8282859552337
 20
1247.789459146405
 30
0.0
 10
842.8789533712452
 20
1247.781995638125
 30
0.0
 10
842.9042877447847
 20
1247.778263785949
 30
0.0
  0
SPLINE
  5
1F5
330
1F
100
AcDbEntity
  8
0
  6
Continuous
 62
     7
370
    25
100
AcDbSpline
210
0.0
220
0.0
230
1.0
 70
    24
 71
     3
 72
    11
 73
     7
 74
     0
 42
0.000000001
 43
0.00000001
 40
0.0
 40
0.0
 40
0.0
 40
0.0
 40
0.2500016881200601
 40
0.4999978650104819
 40
0.7500027839889403
 40
1.0
 40
1.0
 40
1.0
 40
1.0
 10
842.3648508084062
 20
1249.760334291568
 30
0.0
 10
842.3660137850779
 20
1249.760334291568
 30
0.0
 10
842.3683397127836
 20
1249.760334291568
 30
0.0
 10
842.3861658990223
 20
1249.760334291568
 30
0.0
 10
842.4131191377602
 20
1249.760334291568
 30
0.0
 10
842.438970473021
 20
1249.760334291568
 30
0.0
 10
842.4518959415202
 20
1249.760334291568
 30
0.0
  0
LWPOLYLINE
  5
1F6
330
1F
100
AcDbEntity
  8
0
  6
Continuous
 62
     7
370
    25
100
AcDbPolyline
 90
        2
 70
   128
 43
0.0
 10
842.3648508084
 20
1249.7603342916
 10
842.3648508084
 20
1249.7603342916
  0
LINE
  5
1F7
330
1F
100
AcDbEntity
  8
0
  6
Continuous
 62
     7
370
    25
100
AcDbLine
 10
842.3648508084
 20
1249.7603342916
 30
0.0
 11
842.3648508084
 21
1250.1282663132
 31
0.0
  0
LINE
  5
1F8
330
1F
100
AcDbEntity
  8
0
  6
Continuous
 62
     7
370
    25
100
AcDbLine
 10
842.6071064365
 20
1248.036597767
 30
0.0
 11
842.3648508084
 21
1249.7603342916
 31
0.0
  0
SPLINE
  5
1F9
330
1F
100
AcDbEntity
  8
0
  6
Continuous
 62
     7
370
    25
100
AcDbSpline
210
0.0
220
0.0
230
1.0
 70
     8
 71
     3
 72
    11
 73
     7
 74
     0
 42
0.000000001
 43
0.00000001
 40
0.0
 40
0.0
 40
0.0
 40
0.0
 40
0.2499944250629714
 40
0.4999983682672361
 40
0.7500066948926616
 40
1.0
 40
1.0
 40
1.0
 40
1.0
 10
842.6071064365152
 20
1248.036597766986
 30
0.0
 10
842.6083376390918
 20
1248.035639831725
 30
0.0
 10
842.610800091121
 20
1248.033723924731
 30
0.0
 10
842.6286768128272
 20
1248.03298319367
 30
0.0
 10
842.6555785693592
 20
1248.033723903688
 30
0.0
 10
842.6812941603965
 20
1248.03563983174
 30
0.0
 10
842.6941515696292
 20
1248.036597766986
 30
0.0
  0
ARC
  5
1FA
330
1F
100
AcDbEntity
  8
0
  6
Continuous
 62
     7
370
    25
100
AcDbCircle
 10
842.9042861041
 20
1248.0783655969
 30
0.0
 40
0.3000997008971353
100
AcDbArc
 50
187.9999998772
 51
269.9999999427
  0
SPLINE
  5
1FB
330
1F
100
AcDbEntity
  8
0
  6
Continuous
 62
     7
370
    25
100
AcDbSpline
210
0.0
220
0.0
230
1.0
 70
    24
 71
     3
 72
    11
 73
     7
 74
     0
 42
0.000000001
 43
0.00000001
 40
0.0
 40
0.0
 40
0.0
 40
0.0
 40
0.2500013295313758
 40
0.5000016436709253
 40
0.7499907851165208
 40
0.9999999999999999
 40
0.9999999999999999
 40
0.9999999999999999
 40
0.9999999999999999
 10
842.3648657095674
 20
1249.760334291568
 30
0.0
 10
842.369630049628
 20
1249.760334291568
 30
0.0
 10
842.3791587103982
 20
1249.760334291568
 30
0.0
 10
842.4478824135941
 20
1249.760334291568
 30
0.0
 10
842.5456432140701
 20
1249.760334291568
 30
0.0
 10
842.6232397444383
 20
1249.760334291568
 30
0.0
 10
842.6620395672563
 20
1249.760334291568
 30
0.0
  0
LINE
  5
1FC
330
1F
100
AcDbEntity
  8
0
  6
Continuous
 62
     7
370
    25
100
AcDbLine
 10
1015.0648386967
 20
1249.7603342916
 30
0.0
 11
1015.0676699174
 21
1249.7603342916
 31
0.0
  0
LINE
  5
1FD
330
1F
100
AcDbEntity
  8
0
  6
Continuous
 62
     7
370
    25
100
AcDbLine
 10
1040.8648581994
 20
1251.1282683397
 30
0.0
 11
1043.8648493779
 21
1251.1282683397
 31
0.0
  0
LINE
  5
1FE
330
1F
100
AcDbEntity
  8
0
  6
Continuous
 62
     7
370
    25
100
AcDbLine
 10
1043.8648493779
 20
1251.1282683397
 30
0.0
 11
1043.8648493779
 21
1329.1282659909
 31
0.0
  0
LINE
  5
1FF
330
1F
100
AcDbEntity
  8
0
  6
Continuous
 62
     7
370
    25
100
AcDbLine
 10
1040.8648581994
 20
1329.1282659909
 30
0.0
 11
1043.8648493779
 21
1329.1282659909
 31
0.0
  0
LINE
  5
200
330
1F
100
AcDbEntity
  8
0
  6
Continuous
 62
     7
370
    25
100
AcDbLine
 10
416.8648453248
 20
1329.1282659909
 30
0.0
 11
413.8648541463
 21
1329.1282659909
 31
0.0
  0
LINE
  5
201
330
1F
100
AcDbEntity
  8
0
  6
Continuous
 62
     7
370
    25
100
AcDbLine
 10
416.8648453248
 20
1251.1282683397
 30
0.0
 11
413.8648541463
 21
1251.1282683397
 31
0.0
  0
LINE
  5
202
330
1F
100
AcDbEntity
  8
0
  6
Continuous
 62
     7
370
    25
100
AcDbLine
 10
413.8648541463
 20
1329.1282659909
 30
0.0
 11
413.8648541463
 21
1251.1282683397
 31
0.0
  0
LINE
  5
203
330
1F
100
AcDbEntity
  8
0
  6
Continuous
 62
     7
370
    25
100
AcDbLine
 10
689.8648509574
 20
1330.128265922
 30
0.0
 11
689.8648509574
 21
1327.128265896
 31
0.0
  0
LINE
  5
204
330
1F
100
AcDbEntity
  8
0
  6
Continuous
 62
     7
370
    25
100
AcDbLine
 10
767.8648525667
 20
1330.128265922
 30
0.0
 11
767.8648525667
 21
1327.128265896
 31
0.0
  0
LINE
  5
205
330
1F
100
AcDbEntity
  8
0
  6
Continuous
 62
     7
370
    25
100
AcDbLine
 10
689.8648509574
 20
1330.128265922
 30
0.0
 11
767.8648525667
 21
1330.128265922
 31
0.0
  0
LINE
  5
206
330
1F
100
AcDbEntity
  8
0
  6
Continuous
 62
     7
370
    25
100
AcDbLine
 10
638.8648481858
 20
340.12827734
 30
0.0
 11
638.8648481858
 21
330.1282868768
 31
0.0
  0
LINE
  5
207
330
1F
100
AcDbEntity
  8
0
  6
Continuous
 62
     7
370
    25
100
AcDbLine
 10
638.8648481858
 20
330.1282868768
 30
0.0
 11
628.864850272
 21
330.1282868768
 31
0.0
  0
LINE
  5
208
330
1F
100
AcDbEntity
  8
0
  6
Continuous
 62
     7
370
    25
100
AcDbLine
 10
628.864850272
 20
330.1282868768
 30
0.0
 11
628.864850272
 21
340.12827734
 31
0.0
  0
LINE
  5
209
330
1F
100
AcDbEntity
  8
0
  6
Continuous
 62
     7
370
    25
100
AcDbLine
 10
628.864850272
 20
340.12827734
 30
0.0
 11
638.8648481858
 21
340.12827734
 31
0.0
  0
LINE
  5
20A
330
1F
100
AcDbEntity
  8
0
  6
Continuous
 62
     7
370
    25
100
AcDbLine
 10
818.8648553384
 20
330.1282868768
 30
0.0
 11
818.8648553384
 21
340.12827734
 31
0.0
  0
LINE
  5
20B
330
1F
100
AcDbEntity
  8
0
  6
Continuous
 62
     7
370
    25
100
AcDbLine
 10
638.8648481858
 20
330.1282868768
 30
0.0
 11
818.8648553384
 21
330.1282868768
 31
0.0
  0
LINE
  5
20C
330
1F
100
AcDbEntity
  8
0
  6
Continuous
 62
     7
370
    25
100
AcDbLine
 10
638.8648481858
 20
340.12827734
 30
0.0
 11
818.8648553384
 21
340.12827734
 31
0.0
  0
LINE
  5
20D
330
1F
100
AcDbEntity
  8
0
  6
Continuous
 62
     7
370
    25
100
AcDbLine
 10
828.8648532522
 20
340.12827734
 30
0.0
 11
828.8648532522
 21
330.1282868768
 31
0.0
  0
LINE
  5
20E
330
1F
100
AcDbEntity
  8
0
  6
Continuous
 62
     7
370
    25
100
AcDbLine
 10
828.8648532522
 20
330.1282868768
 30
0.0
 11
818.8648553384
 21
330.1282868768
 31
0.0
  0
LINE
  5
20F
330
1F
100
AcDbEntity
  8
0
  6
Continuous
 62
     7
370
    25
100
AcDbLine
 10
818.8648553384
 20
340.12827734
 30
0.0
 11
828.8648532522
 21
340.12827734
 31
0.0
  0
LINE
  5
210
330
1F
100
AcDbEntity
  8
0
  6
Continuous
 62
     7
370
    25
100
AcDbLine
 10
768.864850868
 20
340.12827734
 30
0.0
 11
768.864850868
 21
1327.128265896
 31
0.0
  0
LINE
  5
211
330
1F
100
AcDbEntity
  8
0
  6
Continuous
 62
     7
370
    25
100
AcDbLine
 10
688.8648526562
 20
340.12827734
 30
0.0
 11
688.8648526562
 21
1327.128265896
 31
0.0
  0
LINE
  5
212
330
1F
100
AcDbEntity
  8
0
  6
Continuous
 62
     7
370
    25
100
AcDbLine
 10
768.864850868
 20
1327.128265896
 30
0.0
 11
688.8648526562
 21
1327.128265896
 31
0.0
  0
LINE
  5
213
330
1F
100
AcDbEntity
  8
0
  6
Continuous
 62
     8
370
    25
100
AcDbLine
 10
564.9895550502
 20
1247.7780179168
 30
0.0
 11
564.9895550502
 21
1247.7782637859
 31
0.0
  0
LINE
  5
214
330
1F
100
AcDbEntity
  8
0
  6
Continuous
 62
     8
370
    25
100
AcDbLine
 10
601.168754865
 20
1247.7780179168
 30
0.0
 11
601.168754865
 21
1247.7782637859
 31
0.0
  0
LINE
  5
215
330
1F
100
AcDbEntity
  8
0
  6
Continuous
 62
     8
370
    25
100
AcDbLine
 10
510.7687594188
 20
1247.7780179168
 30
0.0
 11
510.7687594188
 21
1247.7782637859
 31
0.0
  0
LINE
  5
216
330
1F
100
AcDbEntity
  8
0
  6
Continuous
 62
     8
370
    25
100
AcDbLine
 10
546.9687463534
 20
1247.7780179168
 30
0.0
 11
546.9687463534
 21
1247.7782637859
 31
0.0
  0
LINE
  5
217
330
1F
100
AcDbEntity
  8
0
  6
Continuous
 62
     8
370
    25
100
AcDbLine
 10
456.5687509072
 20
1247.7780179168
 30
0.0
 11
456.5687509072
 21
1247.7782637859
 31
0.0
  0
LINE
  5
218
330
1F
100
AcDbEntity
  8
0
  6
Continuous
 62
     8
370
    25
100
AcDbLine
 10
492.747950722
 20
1247.7780179168
 30
0.0
 11
492.747950722
 21
1247.7782637859
 31
0.0
  0
LINE
  5
219
330
1F
100
AcDbEntity
  8
0
  6
Continuous
 62
     8
370
    25
100
AcDbLine
 10
561.574164201
 20
1247.7780179168
 30
0.0
 11
561.5897955191
 21
1247.7782637859
 31
0.0
  0
LINE
  5
21A
330
1F
100
AcDbEntity
  8
0
  6
Continuous
 62
     8
370
    25
100
AcDbLine
 10
561.5424247277
 20
1247.7780179168
 30
0.0
 11
561.5580560458
 21
1247.7782637859
 31
0.0
  0
SPLINE
  5
21B
330
1F
100
AcDbEntity
  8
0
  6
Continuous
 62
     8
370
    25
100
AcDbSpline
210
0.0
220
0.0
230
1.0
 70
     8
 71
     3
 72
    11
 73
     7
 74
     0
 42
0.000000001
 43
0.00000001
 40
0.0
 40
0.0
 40
0.0
 40
0.0
 40
0.2084904679518544
 40
0.47590621532894
 40
0.7395738623994718
 40
0.9999999999999999
 40
0.9999999999999999
 40
0.9999999999999999
 40
0.9999999999999999
 10
597.411069442058
 20
1247.778263785949
 30
0.0
 10
597.2907620256087
 20
1247.374200953144
 30
0.0
 10
597.0161449277582
 20
1246.451875748523
 30
0.0
 10
596.550780792946
 20
1245.258669757289
 30
0.0
 10
596.1040892553677
 20
1244.351740719718
 30
0.0
 10
595.9093264671445
 20
1244.204248637787
 30
0.0
 10
595.812547374988
 20
1244.130958714595
 30
0.0
  0
SPLINE
  5
21C
330
1F
100
AcDbEntity
  8
0
  6
Continuous
 62
     8
370
    25
100
AcDbSpline
210
0.0
220
0.0
230
1.0
 70
     8
 71
     3
 72
    11
 73
     7
 74
     0
 42
0.000000001
 43
0.00000001
 40
0.0
 40
0.0
 40
0.0
 40
0.0
 40
0.2084904679518544
 40
0.47590621532894
 40
0.7395738623994718
 40
0.9999999999999999
 40
0.9999999999999999
 40
0.9999999999999999
 40
0.9999999999999999
 10
572.011071611667
 20
1247.778263785949
 30
0.0
 10
571.8907641952178
 20
1247.374200953144
 30
0.0
 10
571.6161470973673
 20
1246.451875748523
 30
0.0
 10
571.150782962555
 20
1245.258669757289
 30
0.0
 10
570.7040914249769
 20
1244.351740719718
 30
0.0
 10
570.5093286367536
 20
1244.204248637787
 30
0.0
 10
570.412549544597
 20
1244.130958714595
 30
0.0
  0
SPLINE
  5
21D
330
1F
100
AcDbEntity
  8
0
  6
Continuous
 62
     8
370
    25
100
AcDbSpline
210
0.0
220
0.0
230
1.0
 70
     8
 71
     3
 72
    11
 73
     7
 74
     0
 42
0.000000001
 43
0.00000001
 40
0.0
 40
0.0
 40
0.0
 40
0.0
 40
0.2084904679518544
 40
0.47590621532894
 40
0.7395738623994718
 40
0.9999999999999999
 40
0.9999999999999999
 40
0.9999999999999999
 40
0.9999999999999999
 10
546.6110737812761
 20
1247.778263785949
 30
0.0
 10
546.4907663648269
 20
1247.374200953144
 30
0.0
 10
546.2161492669763
 20
1246.451875748523
 30
0.0
 10
545.7507851321641
 20
1245.258669757289
 30
0.0
 10
545.304093594586
 20
1244.351740719718
 30
0.0
 10
545.1093308063627
 20
1244.204248637787
 30
0.0
 10
545.0125517142061
 20
1244.130958714595
 30
0.0
  0
SPLINE
  5
21E
330
1F
100
AcDbEntity
  8
0
  6
Continuous
 62
     8
370
    25
100
AcDbSpline
210
0.0
220
0.0
230
1.0
 70
     8
 71
     3
 72
    11
 73
     7
 74
     0
 42
0.000000001
 43
0.00000001
 40
0.0
 40
0.0
 40
0.0
 40
0.0
 40
0.2084904679518544
 40
0.47590621532894
 40
0.7395738623994718
 40
0.9999999999999999
 40
0.9999999999999999
 40
0.9999999999999999
 40
0.9999999999999999
 10
521.2110759508852
 20
1247.778263785949
 30
0.0
 10
521.0907685344359
 20
1247.374200953144
 30
0.0
 10
520.8161514365854
 20
1246.451875748523
 30
0.0
 10
520.3507873017732
 20
1245.258669757289
 30
0.0
 10
519.9040957641951
 20
1244.351740719718
 30
0.0
 10
519.7093329759716
 20
1244.204248637787
 30
0.0
 10
519.6125538838152
 20
1244.130958714595
 30
0.0
  0
SPLINE
  5
21F
330
1F
100
AcDbEntity
  8
0
  6
Continuous
 62
     8
370
    25
100
AcDbSpline
210
0.0
220
0.0
230
1.0
 70
     8
 71
     3
 72
    11
 73
     7
 74
     0
 42
0.000000001
 43
0.00000001
 40
0.0
 40
0.0
 40
0.0
 40
0.0
 40
0.2084906247903867
 40
0.4759058210754244
 40
0.7395736664919391
 40
1.0
 40
1.0
 40
1.0
 40
1.0
 10
495.8110632193332
 20
1247.778263785949
 30
0.0
 10
495.6907547479382
 20
1247.374201214735
 30
0.0
 10
495.4161356761257
 20
1246.451878065133
 30
0.0
 10
494.9507939594832
 20
1245.25866748156
 30
0.0
 10
494.504096730379
 20
1244.351741066044
 30
0.0
 10
494.3093347460966
 20
1244.204248752752
 30
0.0
 10
494.2125560534244
 20
1244.130958714595
 30
0.0
  0
SPLINE
  5
220
330
1F
100
AcDbEntity
  8
0
  6
Continuous
 62
     8
370
    25
100
AcDbSpline
210
0.0
220
0.0
230
1.0
 70
     8
 71
     3
 72
    11
 73
     7
 74
     0
 42
0.000000001
 43
0.00000001
 40
0.0
 40
0.0
 40
0.0
 40
0.0
 40
0.2084898959245819
 40
0.4759058365641545
 40
0.7395736741884054
 40
1.0
 40
1.0
 40
1.0
 40
1.0
 10
470.4110653889422
 20
1247.778263785949
 30
0.0
 10
470.2907640078262
 20
1247.374200681718
 30
0.0
 10
470.0161601515293
 20
1246.451873061041
 30
0.0
 10
469.5507902421434
 20
1245.258670197895
 30
0.0
 10
469.1041004460816
 20
1244.351740611785
 30
0.0
 10
468.9093374289407
 20
1244.204248601958
 30
0.0
 10
468.8125582230334
 20
1244.130958714595
 30
0.0
  0
SPLINE
  5
221
330
1F
100
AcDbEntity
  8
0
  6
Continuous
 62
     8
370
    25
100
AcDbSpline
210
0.0
220
0.0
230
1.0
 70
    24
 71
     3
 72
    10
 73
     6
 74
     0
 42
0.000000001
 43
0.00000001
 40
0.0
 40
0.0
 40
0.0
 40
0.0
 40
0.4481035133075967
 40
0.8961063801588466
 40
1.0
 40
1.0
 40
1.0
 40
1.0
 10
579.668748546863
 20
1247.478020289054
 30
0.0
 10
579.668748546863
 20
1247.491088392838
 30
0.0
 10
579.668748546863
 20
1247.517221665239
 30
0.0
 10
579.6687485468632
 20
1247.635364948643
 30
0.0
 10
579.668748546863
 20
1247.755418104602
 30
0.0
 10
579.668748546863
 20
1247.778017916789
 30
0.0
  0
SPLINE
  5
222
330
1F
100
AcDbEntity
  8
0
  6
Continuous
 62
     8
370
    25
100
AcDbSpline
210
0.0
220
0.0
230
1.0
 70
    24
 71
     3
 72
    10
 73
     6
 74
     0
 42
0.000000001
 43
0.00000001
 40
0.0
 40
0.0
 40
0.0
 40
0.0
 40
0.4481035133075967
 40
0.8961063801588466
 40
1.0
 40
1.0
 40
1.0
 40
1.0
 10
478.0687423241382
 20
1247.478020289054
 30
0.0
 10
478.0687423241381
 20
1247.491088392838
 30
0.0
 10
478.068742324138
 20
1247.517221665239
 30
0.0
 10
478.0687423241383
 20
1247.635364948643
 30
0.0
 10
478.0687423241382
 20
1247.755418104602
 30
0.0
 10
478.0687423241382
 20
1247.778017916789
 30
0.0
  0
ARC
  5
223
330
1F
100
AcDbEntity
  8
0
  6
Continuous
 62
     8
370
    25
100
AcDbCircle
 10
581.6318866397
 20
1248.5330857041
 30
0.0
 40
2.062178702217903
100
AcDbArc
 50
274.7596241796
 51
338.5215956727
  0
ARC
  5
224
330
1F
100
AcDbEntity
  8
0
  6
Continuous
 62
     8
370
    25
100
AcDbCircle
 10
577.70558584
 20
1248.5330306145
 30
0.0
 40
2.06212176041293
100
AcDbArc
 50
201.4773819735
 51
265.2409303525
  0
ARC
  5
225
330
1F
100
AcDbEntity
  8
0
  6
Continuous
 62
     8
370
    25
100
AcDbCircle
 10
476.105562942
 20
1248.5329881601
 30
0.0
 40
2.06207683276701
100
AcDbArc
 50
201.4766055004
 51
265.2417068256
  0
LINE
  5
226
330
1F
100
AcDbEntity
  8
0
  6
Continuous
 62
     8
370
    25
100
AcDbLine
 10
896.1872787965
 20
1247.7780179168
 30
0.0
 11
896.1716474784
 21
1247.7782637859
 31
0.0
  0
SPLINE
  5
227
330
1F
100
AcDbEntity
  8
0
  6
Continuous
 62
     8
370
    25
100
AcDbSpline
210
0.0
220
0.0
230
1.0
 70
     8
 71
     3
 72
    11
 73
     7
 74
     0
 42
0.000000001
 43
0.00000001
 40
0.0
 40
0.0
 40
0.0
 40
0.0
 40
0.2677998842802424
 40
0.5284557339859748
 40
0.7901347810399502
 40
1.0
 40
1.0
 40
1.0
 40
1.0
 10
988.9171453011279
 20
1244.130958714595
 30
0.0
 10
988.8170070119386
 20
1244.208024263252
 30
0.0
 10
988.6194017991661
 20
1244.360099501037
 30
0.0
 10
988.1714700554148
 20
1245.27825895468
 30
0.0
 10
987.7101206848567
 20
1246.462295410306
 30
0.0
 10
987.4378278649424
 20
1247.377401948122
 30
0.0
 10
987.316641379619
 20
1247.784678735843
 30
0.0
  0
SPLINE
  5
228
330
1F
100
AcDbEntity
  8
0
  6
Continuous
 62
     8
370
    25
100
AcDbSpline
210
0.0
220
0.0
230
1.0
 70
     8
 71
     3
 72
    11
 73
     7
 74
     0
 42
0.000000001
 43
0.00000001
 40
0.0
 40
0.0
 40
0.0
 40
0.0
 40
0.2668038437297774
 40
0.5264902240247196
 40
0.7871952467592208
 40
1.0
 40
1.0
 40
1.0
 40
1.0
 10
963.517147470737
 20
1244.130958714595
 30
0.0
 10
963.4170112267533
 20
1244.208033580445
 30
0.0
 10
963.2194100498328
 20
1244.360127204063
 30
0.0
 10
962.7714490438344
 20
1245.278150533571
 30
0.0
 10
962.3078531802638
 20
1246.468705017493
 30
0.0
 10
962.0334219264397
 20
1247.391260688156
 30
0.0
 10
961.9100870383028
 20
1247.805875637641
 30
0.0
  0
SPLINE
  5
229
330
1F
100
AcDbEntity
  8
0
  6
Continuous
 62
     8
370
    25
100
AcDbSpline
210
0.0
220
0.0
230
1.0
 70
     8
 71
     3
 72
    11
 73
     7
 74
     0
 42
0.000000001
 43
0.00000001
 40
0.0
 40
0.0
 40
0.0
 40
0.0
 40
0.2601317878956351
 40
0.5235015835648207
 40
0.7906152576295202
 40
0.9999999999999999
 40
0.9999999999999999
 40
0.9999999999999999
 40
0.9999999999999999
 10
861.9171561491731
 20
1244.130958714595
 30
0.0
 10
861.8203774455862
 20
1244.204255334772
 30
0.0
 10
861.625615379047
 20
1244.351760939694
 30
0.0
 10
861.1789176539996
 20
1245.258633617797
 30
0.0
 10
860.7128644559949
 20
1246.453814956943
 30
0.0
 10
860.4376069329783
 20
1247.378395878628
 30
0.0
 10
860.3166522276643
 20
1247.784678735843
 30
0.0
  0
SPLINE
  5
22A
330
1F
100
AcDbEntity
  8
0
  6
Continuous
 62
     8
370
    25
100
AcDbSpline
210
0.0
220
0.0
230
1.0
 70
     8
 71
     3
 72
    11
 73
     7
 74
     0
 42
0.000000001
 43
0.00000001
 40
0.0
 40
0.0
 40
0.0
 40
0.0
 40
0.2681027709889024
 40
0.5290534273657523
 40
0.7910276854151825
 40
1.0
 40
1.0
 40
1.0
 40
1.0
 10
938.1171496403459
 20
1244.130958714595
 30
0.0
 10
938.0170114565213
 20
1244.208021627055
 30
0.0
 10
937.8194064516676
 20
1244.360091662771
 30
0.0
 10
937.3714736047797
 20
1245.278288510025
 30
0.0
 10
936.9108415446555
 20
1246.460362247511
 30
0.0
 10
936.6391741016229
 20
1247.373208212322
 30
0.0
 10
936.5186275732759
 20
1247.778263785949
 30
0.0
  0
SPLINE
  5
22B
330
1F
100
AcDbEntity
  8
0
  6
Continuous
 62
     8
370
    25
100
AcDbSpline
210
0.0
220
0.0
230
1.0
 70
     8
 71
     3
 72
    11
 73
     7
 74
     0
 42
0.000000001
 43
0.00000001
 40
0.0
 40
0.0
 40
0.0
 40
0.0
 40
0.2681027628723427
 40
0.5290534113491565
 40
0.7910284143986578
 40
1.0
 40
1.0
 40
1.0
 40
1.0
 10
912.717151809955
 20
1244.130958714595
 30
0.0
 10
912.6170130794773
 20
1244.208021466364
 30
0.0
 10
912.4194069959
 20
1244.360091184984
 30
0.0
 10
911.9714816579847
 20
1245.278291238843
 30
0.0
 10
911.5108214472427
 20
1246.46035725413
 30
0.0
 10
911.2391691333927
 20
1247.373207665878
 30
0.0
 10
911.118629742885
 20
1247.778263785949
 30
0.0
  0
SPLINE
  5
22C
330
1F
100
AcDbEntity
  8
0
  6
Continuous
 62
     8
370
    25
100
AcDbSpline
210
0.0
220
0.0
230
1.0
 70
     8
 71
     3
 72
    11
 73
     7
 74
     0
 42
0.000000001
 43
0.00000001
 40
0.0
 40
0.0
 40
0.0
 40
0.0
 40
0.2677998842802424
 40
0.5284557339859748
 40
0.7901347810399502
 40
1.0
 40
1.0
 40
1.0
 40
1.0
 10
887.3171539795642
 20
1244.130958714595
 30
0.0
 10
887.2170156903749
 20
1244.208024263252
 30
0.0
 10
887.0194104776024
 20
1244.360099501037
 30
0.0
 10
886.5714787338511
 20
1245.27825895468
 30
0.0
 10
886.110129363293
 20
1246.462295410306
 30
0.0
 10
885.8378365433787
 20
1247.377401948122
 30
0.0
 10
885.7166500580553
 20
1247.784678735843
 30
0.0
  0
SPLINE
  5
22D
330
1F
100
AcDbEntity
  8
0
  6
Continuous
 62
     8
370
    25
100
AcDbSpline
210
0.0
220
0.0
230
1.0
 70
    24
 71
     3
 72
    10
 73
     6
 74
     0
 42
0.000000001
 43
0.00000001
 40
0.0
 40
0.0
 40
0.0
 40
0.0
 40
0.4434455839088424
 40
0.8867902420595157
 40
1.0
 40
1.0
 40
1.0
 40
1.0
 10
979.660961200023
 20
1247.478020289054
 30
0.0
 10
979.660961200023
 20
1247.491026066974
 30
0.0
 10
979.660961200023
 20
1247.517034662773
 30
0.0
 10
979.660961200023
 20
1247.637121432068
 30
0.0
 10
979.6609612000232
 20
1247.759737230623
 30
0.0
 10
979.660961200023
 20
1247.784678735843
 30
0.0
  0
SPLINE
  5
22E
330
1F
100
AcDbEntity
  8
0
  6
Continuous
 62
     8
370
    25
100
AcDbSpline
210
0.0
220
0.0
230
1.0
 70
    24
 71
     3
 72
    10
 73
     6
 74
     0
 42
0.000000001
 43
0.00000001
 40
0.0
 40
0.0
 40
0.0
 40
0.0
 40
0.4434455839088424
 40
0.8867902420595157
 40
1.0
 40
1.0
 40
1.0
 40
1.0
 10
878.0609549772981
 20
1247.478020289054
 30
0.0
 10
878.0609549772981
 20
1247.491026066974
 30
0.0
 10
878.0609549772981
 20
1247.517034662773
 30
0.0
 10
878.0609549772981
 20
1247.637121432068
 30
0.0
 10
878.0609549772983
 20
1247.759737230623
 30
0.0
 10
878.0609549772981
 20
1247.784678735843
 30
0.0
  0
ARC
  5
22F
330
1F
100
AcDbEntity
  8
0
  6
Continuous
 62
     8
370
    25
100
AcDbCircle
 10
981.6234378148
 20
1248.5348729739
 30
0.0
 40
2.064013518481954
100
AcDbArc
 50
274.7733941615
 51
338.6869258981
  0
ARC
  5
230
330
1F
100
AcDbEntity
  8
0
  6
Continuous
 62
     8
370
    25
100
AcDbCircle
 10
977.6984617855
 20
1248.53486043
 30
0.0
 40
2.06400160090984
100
AcDbArc
 50
201.312829399
 51
265.2263831472
  0
ARC
  5
231
330
1F
100
AcDbEntity
  8
0
  6
Continuous
 62
     8
370
    25
100
AcDbCircle
 10
876.098470464
 20
1248.53486043
 30
0.0
 40
2.06400160090984
100
AcDbArc
 50
201.312829399
 51
265.2263831472
  0
LINE
  5
232
330
1F
100
AcDbEntity
  8
0
  6
Continuous
 62
     8
370
    25
100
AcDbLine
 10
615.064855088
 20
1249.7603342916
 30
0.0
 11
615.064855088
 21
1250.1282663132
 31
0.0
  0
LINE
  5
233
330
1F
100
AcDbEntity
  8
0
  6
Continuous
 62
     8
370
    25
100
AcDbLine
 10
442.6648648274
 20
1250.1282663132
 30
0.0
 11
442.6648648274
 21
1249.7603342916
 31
0.0
  0
LINE
  5
234
330
1F
100
AcDbEntity
  8
0
  6
Continuous
 62
     8
370
    25
100
AcDbLine
 10
1015.0655539525
 20
1249.7603342916
 30
0.0
 11
1015.0654943478
 21
1250.1282663132
 31
0.0
  0
LINE
  5
235
330
1F
100
AcDbEntity
  8
0
  6
Continuous
 62
     8
370
    25
100
AcDbLine
 10
844.4885941041
 20
1250.1282663132
 30
0.0
 11
844.4885344994
 21
1249.7603342916
 31
0.0
  0
LINE
  5
236
330
1F
100
AcDbEntity
  8
0
  6
Continuous
 62
     8
370
    25
100
AcDbLine
 10
844.276982714
 20
1250.1282663132
 30
0.0
 11
844.276982714
 21
1249.7603342916
 31
0.0
  0
LINE
  5
237
330
1F
100
AcDbEntity
  8
0
  6
Continuous
 62
     8
370
    25
100
AcDbLine
 10
842.452722956
 20
1249.7603342916
 30
0.0
 11
842.452722956
 21
1250.1282663132
 31
0.0
  0
ENDSEC
  0
SECTION
  2
OBJECTS
  0
DICTIONARY
  5
C
330
0
100
AcDbDictionary
281
     1
  3
ACAD_GROUP
350
D
  3
ACAD_LAYOUT
350
1A
  3
ACAD_MLINESTYLE
350
17
  3
ACAD_PLOTSETTINGS
350
19
  3
ACAD_PLOTSTYLENAME
350
E
  3
ACAD_SCALELIST
350
47
  0
DICTIONARY
  5
D
102
{ACAD_REACTORS
330
C
102
}
330
C
100
AcDbDictionary
281
     1
  0
DICTIONARY
  5
1A
102
{ACAD_REACTORS
330
C
102
}
330
C
100
AcDbDictionary
281
     1
  3
Layout1
350
1E
  3
Layout2
350
26
  3
Model
350
22
  0
DICTIONARY
  5
17
102
{ACAD_REACTORS
330
C
102
}
330
C
100
AcDbDictionary
281
     1
  3
Standard
350
18
  0
DICTIONARY
  5
19
102
{ACAD_REACTORS
330
C
102
}
330
C
100
AcDbDictionary
281
     1
  0
ACDBDICTIONARYWDFLT
  5
E
102
{ACAD_REACTORS
330
C
102
}
330
C
100
AcDbDictionary
281
     1
  3
Normal
350
F
100
AcDbDictionaryWithDefault
340
F
  0
DICTIONARY
  5
47
102
{ACAD_REACTORS
330
C
102
}
330
C
100
AcDbDictionary
281
     1
  3
A0
350
48
  3
A1
350
49
  3
A2
350
4A
  3
A3
350
4B
  3
A4
350
4C
  3
A5
350
4D
  3
A6
350
4E
  3
A7
350
4F
  3
A8
350
50
  3
A9
350
51
  3
B0
350
52
  3
B1
350
53
  3
B2
350
54
  3
B3
350
55
  3
B4
350
56
  3
B5
350
57
  3
B6
350
58
  3
B7
350
59
  3
B8
350
5A
  3
B9
350
5B
  3
C0
350
5C
  3
C1
350
5D
  3
C2
350
5E
  3
C3
350
5F
  3
C4
350
60
  3
C5
350
61
  3
C6
350
62
  3
C7
350
63
  3
C8
350
64
  3
C9
350
65
  3
D0
350
66
  3
D1
350
67
  3
D2
350
68
  0
LAYOUT
  5
1E
102
{ACAD_REACTORS
330
1A
102
}
330
1A
100
AcDbPlotSettings
  1

  2
none_device
  4

  6

 40
0.0
 41
0.0
 42
0.0
 43
0.0
 44
0.0
 45
0.0
 46
0.0
 47
0.0
 48
0.0
 49
0.0
140
0.0
141
0.0
142
1.0
143
1.0
 70
   688
 72
     1
 73
     0
 74
     5
  7

 75
    16
147
1.0
148
0.0
149
0.0
100
AcDbLayout
  1
Layout1
 70
     1
 71
     1
 10
0.0
 20
0.0
 11
420.0
 21
297.0
 12
0.0
 22
0.0
 32
0.0
 14
1.0000000000E+20
 24
1.0000000000E+20
 34
1.0000000000E+20
 15
-1.0000000000E+20
 25
-1.0000000000E+20
 35
-1.0000000000E+20
146
0.0
 13
0.0
 23
0.0
 33
0.0
 16
1.0
 26
0.0
 36
0.0
 17
0.0
 27
1.0
 37
0.0
 76
     0
330
1B
  0
LAYOUT
  5
26
102
{ACAD_REACTORS
330
1A
102
}
330
1A
100
AcDbPlotSettings
  1

  2
none_device
  4

  6

 40
0.0
 41
0.0
 42
0.0
 43
0.0
 44
0.0
 45
0.0
 46
0.0
 47
0.0
 48
0.0
 49
0.0
140
0.0
141
0.0
142
1.0
143
1.0
 70
   688
 72
     1
 73
     0
 74
     5
  7

 75
    16
147
1.0
148
0.0
149
0.0
100
AcDbLayout
  1
Layout2
 70
     1
 71
     2
 10
0.0
 20
0.0
 11
0.0
 21
0.0
 12
0.0
 22
0.0
 32
0.0
 14
0.0
 24
0.0
 34
0.0
 15
0.0
 25
0.0
 35
0.0
146
0.0
 13
0.0
 23
0.0
 33
0.0
 16
1.0
 26
0.0
 36
0.0
 17
0.0
 27
1.0
 37
0.0
 76
     0
330
23
  0
LAYOUT
  5
22
102
{ACAD_REACTORS
330
1A
102
}
330
1A
100
AcDbPlotSettings
  1

  2
none_device
  4
Letter_(8.50_x_11.00_Inches)
  6

 40
6.35
 41
6.35
 42
6.35000508
 43
6.35000508
 44
215.9
 45
279.4
 46
0.0
 47
0.0
 48
0.0
 49
0.0
140
0.0
141
0.0
142
1.0
143
1.0
 70
  1712
 72
     1
 73
     0
 74
     0
  7

 75
     0
147
1.0
148
0.0
149
0.0
100
AcDbLayout
  1
Model
 70
     1
 71
     0
 10
0.0
 20
0.0
 11
1500.0
 21
1500.0
 12
0.0
 22
0.0
 32
0.0
 14
0.0
 24
0.0
 34
0.0
 15
1500.0
 25
1500.0
 35
0.0
146
0.0
 13
0.0
 23
0.0
 33
0.0
 16
1.0
 26
0.0
 36
0.0
 17
0.0
 27
1.0
 37
0.0
 76
     0
330
1F
331
29
  0
MLINESTYLE
  5
18
102
{ACAD_REACTORS
330
17
102
}
330
17
100
AcDbMlineStyle
  2
Standard
 70
     0
  3

 62
   256
 51
90.0
 52
90.0
 71
     2
 49
0.5
 62
   256
  6
BYLAYER
 49
-0.5
 62
   256
  6
BYLAYER
  0
ACDBPLACEHOLDER
  5
F
102
{ACAD_REACTORS
330
E
102
}
330
E
  0
SCALE
  5
48
102
{ACAD_REACTORS
330
47
102
}
330
47
100
AcDbScale
 70
     0
300
1:1
140
1.0
141
1.0
290
     1
  0
SCALE
  5
49
102
{ACAD_REACTORS
330
47
102
}
330
47
100
AcDbScale
 70
     0
300
1:2
140
1.0
141
2.0
290
     0
  0
SCALE
  5
4A
102
{ACAD_REACTORS
330
47
102
}
330
47
100
AcDbScale
 70
     0
300
1:4
140
1.0
141
4.0
290
     0
  0
SCALE
  5
4B
102
{ACAD_REACTORS
330
47
102
}
330
47
100
AcDbScale
 70
     0
300
1:5
140
1.0
141
5.0
290
     0
  0
SCALE
  5
4C
102
{ACAD_REACTORS
330
47
102
}
330
47
100
AcDbScale
 70
     0
300
1:8
140
1.0
141
8.0
290
     0
  0
SCALE
  5
4D
102
{ACAD_REACTORS
330
47
102
}
330
47
100
AcDbScale
 70
     0
300
1:10
140
1.0
141
10.0
290
     0
  0
SCALE
  5
4E
102
{ACAD_REACTORS
330
47
102
}
330
47
100
AcDbScale
 70
     0
300
1:16
140
1.0
141
16.0
290
     0
  0
SCALE
  5
4F
102
{ACAD_REACTORS
330
47
102
}
330
47
100
AcDbScale
 70
     0
300
1:20
140
1.0
141
20.0
290
     0
  0
SCALE
  5
50
102
{ACAD_REACTORS
330
47
102
}
330
47
100
AcDbScale
 70
     0
300
1:30
140
1.0
141
30.0
290
     0
  0
SCALE
  5
51
102
{ACAD_REACTORS
330
47
102
}
330
47
100
AcDbScale
 70
     0
300
1:40
140
1.0
141
40.0
290
     0
  0
SCALE
  5
52
102
{ACAD_REACTORS
330
47
102
}
330
47
100
AcDbScale
 70
     0
300
1:50
140
1.0
141
50.0
290
     0
  0
SCALE
  5
53
102
{ACAD_REACTORS
330
47
102
}
330
47
100
AcDbScale
 70
     0
300
1:100
140
1.0
141
100.0
290
     0
  0
SCALE
  5
54
102
{ACAD_REACTORS
330
47
102
}
330
47
100
AcDbScale
 70
     0
300
2:1
140
2.0
141
1.0
290
     0
  0
SCALE
  5
55
102
{ACAD_REACTORS
330
47
102
}
330
47
100
AcDbScale
 70
     0
300
4:1
140
4.0
141
1.0
290
     0
  0
SCALE
  5
56
102
{ACAD_REACTORS
330
47
102
}
330
47
100
AcDbScale
 70
     0
300
8:1
140
8.0
141
1.0
290
     0
  0
SCALE
  5
57
102
{ACAD_REACTORS
330
47
102
}
330
47
100
AcDbScale
 70
     0
300
10:1
140
10.0
141
1.0
290
     0
  0
SCALE
  5
58
102
{ACAD_REACTORS
330
47
102
}
330
47
100
AcDbScale
 70
     0
300
100:1
140
100.0
141
1.0
290
     0
  0
SCALE
  5
59
102
{ACAD_REACTORS
330
47
102
}
330
47
100
AcDbScale
 70
     0
300
1/128" = 1'-0"
140
0.0078125
141
12.0
290
     0
  0
SCALE
  5
5A
102
{ACAD_REACTORS
330
47
102
}
330
47
100
AcDbScale
 70
     0
300
1/64" = 1'-0"
140
0.015625
141
12.0
290
     0
  0
SCALE
  5
5B
102
{ACAD_REACTORS
330
47
102
}
330
47
100
AcDbScale
 70
     0
300
1/32" = 1'-0"
140
0.03125
141
12.0
290
     0
  0
SCALE
  5
5C
102
{ACAD_REACTORS
330
47
102
}
330
47
100
AcDbScale
 70
     0
300
1/16" = 1'-0"
140
0.0625
141
12.0
290
     0
  0
SCALE
  5
5D
102
{ACAD_REACTORS
330
47
102
}
330
47
100
AcDbScale
 70
     0
300
3/32" = 1'-0"
140
0.09375
141
12.0
290
     0
  0
SCALE
  5
5E
102
{ACAD_REACTORS
330
47
102
}
330
47
100
AcDbScale
 70
     0
300
1/8" = 1'-0"
140
0.125
141
12.0
290
     0
  0
SCALE
  5
5F
102
{ACAD_REACTORS
330
47
102
}
330
47
100
AcDbScale
 70
     0
300
3/16" = 1'-0"
140
0.1875
141
12.0
290
     0
  0
SCALE
  5
60
102
{ACAD_REACTORS
330
47
102
}
330
47
100
AcDbScale
 70
     0
300
1/4" = 1'-0"
140
0.25
141
12.0
290
     0
  0
SCALE
  5
61
102
{ACAD_REACTORS
330
47
102
}
330
47
100
AcDbScale
 70
     0
300
3/8" = 1'-0"
140
0.375
141
12.0
290
     0
  0
SCALE
  5
62
102
{ACAD_REACTORS
330
47
102
}
330
47
100
AcDbScale
 70
     0
300
1/2" = 1'-0"
140
0.5
141
12.0
290
     0
  0
SCALE
  5
63
102
{ACAD_REACTORS
330
47
102
}
330
47
100
AcDbScale
 70
     0
300
3/4" = 1'-0"
140
0.75
141
12.0
290
     0
  0
SCALE
  5
64
102
{ACAD_REACTORS
330
47
102
}
330
47
100
AcDbScale
 70
     0
300
1" = 1'-0"
140
1.0
141
12.0
290
     0
  0
SCALE
  5
65
102
{ACAD_REACTORS
330
47
102
}
330
47
100
AcDbScale
 70
     0
300
1-1/2" = 1'-0"
140
1.5
141
12.0
290
     0
  0
SCALE
  5
66
102
{ACAD_REACTORS
330
47
102
}
330
47
100
AcDbScale
 70
     0
300
3" = 1'-0"
140
3.0
141
12.0
290
     0
  0
SCALE
  5
67
102
{ACAD_REACTORS
330
47
102
}
330
47
100
AcDbScale
 70
     0
300
6" = 1'-0"
140
6.0
141
12.0
290
     0
  0
SCALE
  5
68
102
{ACAD_REACTORS
330
47
102
}
330
47
100
AcDbScale
 70
     0
300
1'-0" = 1'-0"
140
12.0
141
12.0
290
     0
  0
ENDSEC
  0
EOF
