  0
SECTION
  2
HEADER
  9
$ACADVER
  1
AC1015
  9
$ACADMAINTVER
 70
     6
  9
$DWGCODEPAGE
  3
ANSI_1254
  9
$INSBASE
 10
0.0
 20
0.0
 30
0.0
  9
$EXTMIN
 10
-100.0104762308
 20
-1190.5
 30
0.0
  9
$EXTMAX
 10
100.0104762308
 20
0.0
 30
0.0
  9
$LIMMIN
 10
0.0
 20
0.0
  9
$LIMMAX
 10
420.0
 20
297.0
  9
$ORTHOMODE
 70
     0
  9
$REGENMODE
 70
     1
  9
$FILLMODE
 70
     1
  9
$QTEXTMODE
 70
     0
  9
$MIRRTEXT
 70
     1
  9
$LTSCALE
 40
1.0
  9
$ATTMODE
 70
     1
  9
$TEXTSIZE
 40
3.5
  9
$TRACEWID
 40
1.0
  9
$TEXTSTYLE
  7
Standard
  9
$CLAYER
  8
0
  9
$CELTYPE
  6
ByLayer
  9
$CECOLOR
 62
   256
  9
$CELTSCALE
 40
1.0
  9
$DISPSILH
 70
     0
  9
$DIMSCALE
 40
1.0
  9
$DIMASZ
 40
3.556
  9
$DIMEXO
 40
0.0
  9
$DIMDLI
 40
3.75
  9
$DIMRND
 40
0.0
  9
$DIMDLE
 40
0.0
  9
$DIMEXE
 40
1.0
  9
$DIMTP
 40
0.0
  9
$DIMTM
 40
0.0
  9
$DIMTXT
 40
3.5
  9
$DIMCEN
 40
2.5
  9
$DIMTSZ
 40
0.0
  9
$DIMTOL
 70
     0
  9
$DIMLIM
 70
     0
  9
$DIMTIH
 70
     1
  9
$DIMTOH
 70
     1
  9
$DIMSE1
 70
     0
  9
$DIMSE2
 70
     0
  9
$DIMTAD
 70
     1
  9
$DIMZIN
 70
     1
  9
$DIMBLK
  1

  9
$DIMASO
 70
     1
  9
$DIMSHO
 70
     1
  9
$DIMPOST
  1

  9
$DIMAPOST
  1

  9
$DIMALT
 70
     0
  9
$DIMALTD
 70
     3
  9
$DIMALTF
 40
0.0393700787
  9
$DIMLFAC
 40
1.0
  9
$DIMTOFL
 70
     1
  9
$DIMTVP
 40
0.0
  9
$DIMTIX
 70
     0
  9
$DIMSOXD
 70
     0
  9
$DIMSAH
 70
     0
  9
$DIMBLK1
  1

  9
$DIMBLK2
  1

  9
$DIMSTYLE
  2
ISO-25
  9
$DIMCLRD
 70
     0
  9
$DIMCLRE
 70
     0
  9
$DIMCLRT
 70
     0
  9
$DIMTFAC
 40
1.0
  9
$DIMGAP
 40
1.524
  9
$DIMJUST
 70
     0
  9
$DIMSD1
 70
     0
  9
$DIMSD2
 70
     0
  9
$DIMTOLJ
 70
     0
  9
$DIMTZIN
 70
     1
  9
$DIMALTZ
 70
     0
  9
$DIMALTTZ
 70
     0
  9
$DIMUPT
 70
     0
  9
$DIMDEC
 70
     2
  9
$DIMTDEC
 70
     2
  9
$DIMALTU
 70
     2
  9
$DIMALTTD
 70
     3
  9
$DIMTXSTY
  7
Standard
  9
$DIMAUNIT
 70
     0
  9
$DIMADEC
 70
     2
  9
$DIMALTRND
 40
0.0
  9
$DIMAZIN
 70
     0
  9
$DIMDSEP
 70
    44
  9
$DIMATFIT
 70
     3
  9
$DIMFRAC
 70
     0
  9
$DIMLDRBLK
  1

  9
$DIMLUNIT
 70
     2
  9
$DIMLWD
 70
    -2
  9
$DIMLWE
 70
    -2
  9
$DIMTMOVE
 70
     0
  9
$LUNITS
 70
     2
  9
$LUPREC
 70
     2
  9
$SKETCHINC
 40
1.0
  9
$FILLETRAD
 40
0.0
  9
$AUNITS
 70
     0
  9
$AUPREC
 70
     2
  9
$MENU
  1
.
  9
$ELEVATION
 40
0.0
  9
$PELEVATION
 40
0.0
  9
$THICKNESS
 40
0.0
  9
$LIMCHECK
 70
     0
  9
$CHAMFERA
 40
0.0
  9
$CHAMFERB
 40
0.0
  9
$CHAMFERC
 40
0.0
  9
$CHAMFERD
 40
0.0
  9
$SKPOLY
 70
     0
  9
$TDCREATE
 40
2460630.582341841
  9
$TDUCREATE
 40
2460630.457341841
  9
$TDUPDATE
 40
2460630.582375475
  9
$TDUUPDATE
 40
2460630.457375475
  9
$TDINDWG
 40
0.0000000116
  9
$TDUSRTIMER
 40
0.0000000116
  9
$USRTIMER
 70
     1
  9
$ANGBASE
 50
0.0
  9
$ANGDIR
 70
     0
  9
$PDMODE
 70
     0
  9
$PDSIZE
 40
-1.0
  9
$PLINEWID
 40
0.0
  9
$SPLFRAME
 70
     0
  9
$SPLINETYPE
 70
     6
  9
$SPLINESEGS
 70
     8
  9
$HANDSEED
  5
B3
  9
$SURFTAB1
 70
     6
  9
$SURFTAB2
 70
     6
  9
$SURFTYPE
 70
     6
  9
$SURFU
 70
     6
  9
$SURFV
 70
     6
  9
$UCSBASE
  2

  9
$UCSNAME
  2

  9
$UCSORG
 10
0.0
 20
0.0
 30
0.0
  9
$UCSXDIR
 10
1.0
 20
0.0
 30
0.0
  9
$UCSYDIR
 10
0.0
 20
1.0
 30
0.0
  9
$UCSORTHOREF
  2

  9
$UCSORTHOVIEW
 70
     0
  9
$UCSORGTOP
 10
0.0
 20
0.0
 30
0.0
  9
$UCSORGBOTTOM
 10
0.0
 20
0.0
 30
0.0
  9
$UCSORGLEFT
 10
0.0
 20
0.0
 30
0.0
  9
$UCSORGRIGHT
 10
0.0
 20
0.0
 30
0.0
  9
$UCSORGFRONT
 10
0.0
 20
0.0
 30
0.0
  9
$UCSORGBACK
 10
0.0
 20
0.0
 30
0.0
  9
$PUCSBASE
  2

  9
$PUCSNAME
  2

  9
$PUCSORG
 10
0.0
 20
0.0
 30
0.0
  9
$PUCSXDIR
 10
1.0
 20
0.0
 30
0.0
  9
$PUCSYDIR
 10
0.0
 20
1.0
 30
0.0
  9
$PUCSORTHOREF
  2

  9
$PUCSORTHOVIEW
 70
     0
  9
$PUCSORGTOP
 10
0.0
 20
0.0
 30
0.0
  9
$PUCSORGBOTTOM
 10
0.0
 20
0.0
 30
0.0
  9
$PUCSORGLEFT
 10
0.0
 20
0.0
 30
0.0
  9
$PUCSORGRIGHT
 10
0.0
 20
0.0
 30
0.0
  9
$PUCSORGFRONT
 10
0.0
 20
0.0
 30
0.0
  9
$PUCSORGBACK
 10
0.0
 20
0.0
 30
0.0
  9
$USERI1
 70
     0
  9
$USERI2
 70
     0
  9
$USERI3
 70
     0
  9
$USERI4
 70
     0
  9
$USERI5
 70
     0
  9
$USERR1
 40
0.0
  9
$USERR2
 40
0.0
  9
$USERR3
 40
0.0
  9
$USERR4
 40
0.0
  9
$USERR5
 40
0.0
  9
$WORLDVIEW
 70
     1
  9
$SHADEDGE
 70
     3
  9
$SHADEDIF
 70
    70
  9
$TILEMODE
 70
     1
  9
$MAXACTVP
 70
    64
  9
$PINSBASE
 10
0.0
 20
0.0
 30
0.0
  9
$PLIMCHECK
 70
     0
  9
$PEXTMIN
 10
1.0000000000E+20
 20
1.0000000000E+20
 30
1.0000000000E+20
  9
$PEXTMAX
 10
-1.0000000000E+20
 20
-1.0000000000E+20
 30
-1.0000000000E+20
  9
$PLIMMIN
 10
0.0
 20
0.0
  9
$PLIMMAX
 10
420.0
 20
297.0
  9
$UNITMODE
 70
     0
  9
$VISRETAIN
 70
     1
  9
$PLINEGEN
 70
     0
  9
$PSLTSCALE
 70
     1
  9
$TREEDEPTH
 70
  3020
  9
$CMLSTYLE
  2
Standard
  9
$CMLJUST
 70
     0
  9
$CMLSCALE
 40
20.0
  9
$PROXYGRAPHICS
 70
     1
  9
$MEASUREMENT
 70
     1
  9
$CELWEIGHT
370
    -1
  9
$ENDCAPS
280
     0
  9
$JOINSTYLE
280
     0
  9
$LWDISPLAY
290
     1
  9
$INSUNITS
 70
     4
  9
$HYPERLINKBASE
  1

  9
$STYLESHEET
  1

  9
$XEDIT
290
     1
  9
$CEPSNTYPE
380
     0
  9
$PSTYLEMODE
290
     1
  9
$FINGERPRINTGUID
  2
{1530cdaa-0fad-4eab-86be-e74991da4cb4}
  9
$VERSIONGUID
  2
{FAEB1C32-E019-11D5-929B-00C0DF256EC4}
  9
$EXTNAMES
290
     1
  9
$PSVPSCALE
 40
0.0
  9
$OLESTARTUP
290
     0
  0
ENDSEC
  0
SECTION
  2
CLASSES
  0
CLASS
  1
ACDBDICTIONARYWDFLT
  2
AcDbDictionaryWithDefault
  3
ObjectDBX Classes
 90
        0
280
     0
281
     0
  0
CLASS
  1
VISUALSTYLE
  2
AcDbVisualStyle
  3
ObjectDBX Classes
 90
     4095
280
     0
281
     0
  0
CLASS
  1
MATERIAL
  2
AcDbMaterial
  3
ObjectDBX Classes
 90
     1153
280
     0
281
     0
  0
CLASS
  1
SCALE
  2
AcDbScale
  3
ObjectDBX Classes
 90
     1153
280
     0
281
     0
  0
CLASS
  1
TABLESTYLE
  2
AcDbTableStyle
  3
ObjectDBX Classes
 90
     4095
280
     0
281
     0
  0
CLASS
  1
MLEADERSTYLE
  2
AcDbMLeaderStyle
  3
ACDB_MLEADERSTYLE_CLASS
 90
     4095
280
     0
281
     0
  0
CLASS
  1
SUN
  2
AcDbSun
  3
SCENEOE
 90
     1153
280
     0
281
     0
  0
CLASS
  1
ACDBPLACEHOLDER
  2
AcDbPlaceHolder
  3
ObjectDBX Classes
 90
        0
280
     0
281
     0
  0
CLASS
  1
LAYOUT
  2
AcDbLayout
  3
ObjectDBX Classes
 90
        0
280
     0
281
     0
  0
ENDSEC
  0
SECTION
  2
TABLES
  0
TABLE
  2
VPORT
  5
8
330
0
100
AcDbSymbolTable
 70
     1
  0
VPORT
  5
29
330
8
100
AcDbSymbolTableRecord
100
AcDbViewportTableRecord
  2
*Active
 70
     0
 10
0.0
 20
0.0
 11
1.0
 21
1.0
 12
0.0
 22
-595.25
 13
0.0
 23
0.0
 14
10.0
 24
10.0
 15
10.0
 25
10.0
 16
0.0
 26
0.0
 36
1.0
 17
0.0
 27
0.0
 37
0.0
 40
1214.31
 41
0.1680142398
 42
50.0
 43
0.0
 44
0.0
 50
0.0
 51
0.0
 71
     0
 72
   100
 73
     1
 74
     3
 75
     0
 76
     0
 77
     0
 78
     0
281
     0
 65
     1
110
0.0
120
0.0
130
0.0
111
1.0
121
0.0
131
0.0
112
0.0
122
1.0
132
0.0
 79
     0
146
0.0
  0
ENDTAB
  0
TABLE
  2
LTYPE
  5
5
330
0
100
AcDbSymbolTable
 70
     6
  0
LTYPE
  5
14
330
5
100
AcDbSymbolTableRecord
100
AcDbLinetypeTableRecord
  2
ByBlock
 70
     0
  3

 72
    65
 73
     0
 40
0.0
  0
LTYPE
  5
15
330
5
100
AcDbSymbolTableRecord
100
AcDbLinetypeTableRecord
  2
ByLayer
 70
     0
  3

 72
    65
 73
     0
 40
0.0
  0
LTYPE
  5
16
330
5
100
AcDbSymbolTableRecord
100
AcDbLinetypeTableRecord
  2
Continuous
 70
     0
  3
Solid line
 72
    65
 73
     0
 40
0.0
  0
LTYPE
  5
5E
330
5
100
AcDbSymbolTableRecord
100
AcDbLinetypeTableRecord
  2
HIDDEN
 70
     0
  3
Hidden __ __ __ __ __ __ __ __ __ __ __ __ __ __
 72
    65
 73
     2
 40
1.905
 49
1.27
 74
     0
 49
-0.635
 74
     0
  0
LTYPE
  5
5F
330
5
100
AcDbSymbolTableRecord
100
AcDbLinetypeTableRecord
  2
PHANTOM
 70
     0
  3
Phantom ______  __  __  ______  __  __  ______
 72
    65
 73
     6
 40
12.7
 49
6.35
 74
     0
 49
-1.27
 74
     0
 49
1.27
 74
     0
 49
-1.27
 74
     0
 49
1.27
 74
     0
 49
-1.27
 74
     0
  0
LTYPE
  5
60
330
5
100
AcDbSymbolTableRecord
100
AcDbLinetypeTableRecord
  2
CENTER
 70
     0
  3
Center ____ _ ____ _ ____ _ ____ _ ____ _ ____
 72
    65
 73
     4
 40
10.16
 49
6.35
 74
     0
 49
-1.27
 74
     0
 49
1.27
 74
     0
 49
-1.27
 74
     0
  0
LTYPE
  5
61
330
5
100
AcDbSymbolTableRecord
100
AcDbLinetypeTableRecord
  2
CENTERX2
 70
     0
  3
Center (2x) ________  __  ________  __  _____
 72
    65
 73
     4
 40
20.32
 49
12.7
 74
     0
 49
-2.54
 74
     0
 49
2.54
 74
     0
 49
-2.54
 74
     0
  0
LTYPE
  5
62
330
5
100
AcDbSymbolTableRecord
100
AcDbLinetypeTableRecord
  2
DOT2
 70
     0
  3
Dot (.5x) ........................................
 72
    65
 73
     2
 40
0.635
 49
0.0
 74
     0
 49
-0.635
 74
     0
  0
ENDTAB
  0
TABLE
  2
LAYER
  5
2
330
0
100
AcDbSymbolTable
 70
     1
  0
LAYER
  5
10
330
2
100
AcDbSymbolTableRecord
100
AcDbLayerTableRecord
  2
0
 70
     0
 62
     7
  6
Continuous
370
    -3
390
F
  0
ENDTAB
  0
TABLE
  2
STYLE
  5
3
330
0
100
AcDbSymbolTable
 70
     1
  0
STYLE
  5
11
330
3
100
AcDbSymbolTableRecord
100
AcDbTextStyleTableRecord
  2
Standard
 70
     0
 40
0.0
 41
1.0
 50
0.0
 71
     0
 42
3.5
  3
txt
  4

  0
ENDTAB
  0
TABLE
  2
VIEW
  5
6
330
0
100
AcDbSymbolTable
 70
     0
  0
ENDTAB
  0
TABLE
  2
UCS
  5
7
330
0
100
AcDbSymbolTable
 70
     0
  0
ENDTAB
  0
TABLE
  2
APPID
  5
9
330
0
100
AcDbSymbolTable
 70
     1
  0
APPID
  5
12
330
9
100
AcDbSymbolTableRecord
100
AcDbRegAppTableRecord
  2
ACAD
 70
     0
  0
ENDTAB
  0
TABLE
  2
DIMSTYLE
  5
A
330
0
100
AcDbSymbolTable
 70
     1
100
AcDbDimStyleTable
  0
DIMSTYLE
105
27
330
A
100
AcDbSymbolTableRecord
100
AcDbDimStyleTableRecord
  2
ISO-25
 70
     0
 41
2.5
 42
0.625
 43
3.75
 44
1.25
 73
     0
 74
     0
 77
     1
 78
     8
140
2.5
141
2.5
143
0.0393700787
147
0.625
171
     3
172
     1
178
     0
271
     2
272
     2
274
     3
278
    44
283
     0
284
     8
340
11
  0
ENDTAB
  0
TABLE
  2
BLOCK_RECORD
  5
1
330
0
100
AcDbSymbolTable
 70
     1
  0
BLOCK_RECORD
  5
1F
330
1
100
AcDbSymbolTableRecord
100
AcDbBlockTableRecord
  2
*Model_Space
340
22
  0
BLOCK_RECORD
  5
1B
330
1
100
AcDbSymbolTableRecord
100
AcDbBlockTableRecord
  2
*Paper_Space
340
1E
  0
BLOCK_RECORD
  5
23
330
1
100
AcDbSymbolTableRecord
100
AcDbBlockTableRecord
  2
*Paper_Space0
340
26
  0
ENDTAB
  0
ENDSEC
  0
SECTION
  2
BLOCKS
  0
BLOCK
  5
20
330
1F
100
AcDbEntity
  8
0
100
AcDbBlockBegin
  2
*Model_Space
 70
     0
 10
0.0
 20
0.0
 30
0.0
  3
*Model_Space
  1

  0
ENDBLK
  5
21
330
1F
100
AcDbEntity
  8
0
100
AcDbBlockEnd
  0
BLOCK
  5
1C
330
1B
100
AcDbEntity
 67
     1
  8
0
100
AcDbBlockBegin
  2
*Paper_Space
 70
     0
 10
0.0
 20
0.0
 30
0.0
  3
*Paper_Space
  1

  0
ENDBLK
  5
1D
330
1B
100
AcDbEntity
 67
     1
  8
0
100
AcDbBlockEnd
  0
BLOCK
  5
24
330
23
100
AcDbEntity
  8
0
100
AcDbBlockBegin
  2
*Paper_Space0
 70
     0
 10
0.0
 20
0.0
 30
0.0
  3
*Paper_Space0
  1

  0
ENDBLK
  5
25
330
23
100
AcDbEntity
  8
0
100
AcDbBlockEnd
  0
ENDSEC
  0
SECTION
  2
ENTITIES
  0
LINE
  5
63
330
1F
100
AcDbEntity
  8
0
  6
CENTERX2
 62
     7
100
AcDbLine
 10
60.0783048858
 20
-100.5
 30
0.0
 11
-67.1751442127
 21
-100.5
 31
0.0
  0
LINE
  5
64
330
1F
100
AcDbEntity
  8
0
  6
CENTERX2
 62
     7
100
AcDbLine
 10
8.7896016859
 20
-111.5
 30
0.0
 11
8.7896016859
 21
-131.5
 31
0.0
  0
LINE
  5
65
330
1F
100
AcDbEntity
  8
0
  6
CENTERX2
 62
     7
100
AcDbLine
 10
-8.7896016859
 20
-131.5
 30
0.0
 11
-8.7896016859
 21
-112.5553508863
 31
0.0
  0
LINE
  5
66
330
1F
100
AcDbEntity
  8
0
  6
CENTERX2
 62
     7
100
AcDbLine
 10
-8.7896016859
 20
-111.5
 30
0.0
 11
-8.7896016859
 21
-131.5
 31
0.0
  0
LINE
  5
67
330
1F
100
AcDbEntity
  8
0
  6
CENTERX2
 62
     7
100
AcDbLine
 10
8.7896016859
 20
-131.5
 30
0.0
 11
8.7896016859
 21
-112.5553508863
 31
0.0
  0
SPLINE
  5
68
330
1F
100
AcDbEntity
  8
0
  6
Continuous
 62
     7
100
AcDbSpline
210
0.0
220
0.0
230
1.0
 70
     8
 71
     3
 72
    12
 73
     8
 74
     0
 42
0.00000001
 43
0.00000001
 40
0.0
 40
0.0
 40
0.0
 40
0.0
 40
0.1867355874473231
 40
0.3733442980766283
 40
0.5598953793503145
 40
0.7799080307059812
 40
1.0
 40
1.0
 40
1.0
 40
1.0
 10
38.18374872207642
 20
-64.49999999999909
 30
0.0
 10
42.89418842687746
 20
-73.13118614817255
 30
0.0
 10
48.11415799360034
 20
-81.14467776942541
 30
0.0
 10
54.16609244991984
 20
-87.8816711653437
 30
0.0
 10
61.96705768040174
 20
-94.46241564380719
 30
0.0
 10
69.9883697103641
 20
-100.5000000000001
 30
0.0
 10
67.3064974984403
 20
-98.51026167066242
 30
0.0
 10
69.9883697103641
 20
-100.5000000000001
 30
0.0
  0
SPLINE
  5
6B
330
1F
100
AcDbEntity
  8
0
  6
Continuous
 62
     7
370
    25
100
AcDbSpline
210
0.0
220
0.0
230
1.0
 70
     8
 71
     3
 72
    14
 73
    10
 74
     0
 42
0.00000001
 43
0.00000001
 40
0.0
 40
0.0
 40
0.0
 40
0.0
 40
0.1400287954978055
 40
0.2800380300600743
 40
0.4200088946199946
 40
0.559963199815606
 40
0.7066170771487669
 40
0.8533028206085383
 40
0.9999999999999999
 40
0.9999999999999999
 40
0.9999999999999999
 40
0.9999999999999999
 10
-55.00000000000085
 20
-64.5
 30
0.0
 10
-56.48265025459941
 20
-66.4530768295456
 30
0.0
 10
-59.44774364906739
 20
-70.3589576589676
 30
0.0
 10
-64.119519509652
 20
-76.04316178504422
 30
0.0
 10
-69.2325904491898
 20
-81.34851546871936
 30
0.0
 10
-75.06818528586042
 20
-86.04058746775023
 30
0.0
 10
-81.43791616058317
 20
-90.17818879413953
 30
0.0
 10
-88.1616523283446
 20
-93.94722075152696
 30
0.0
 10
-92.72049154229533
 20
-96.3157094763078
 30
0.0
 10
-95.00000000000088
 20
-97.50000000000003
 30
0.0
  0
SPLINE
  5
6C
330
1F
100
AcDbEntity
  8
0
  6
Continuous
 62
     7
370
    25
100
AcDbSpline
210
0.0
220
0.0
230
1.0
 70
     8
 71
     3
 72
    14
 73
    10
 74
     0
 42
0.00000001
 43
0.00000001
 40
0.0
 40
0.0
 40
0.0
 40
0.0
 40
0.1400297799589247
 40
0.2800504580291611
 40
0.4200463909673738
 40
0.560007915319881
 40
0.7066307039451261
 40
0.8533028052385927
 40
0.9999999999999999
 40
0.9999999999999999
 40
0.9999999999999999
 40
0.9999999999999999
 10
94.99999999999893
 20
-97.50000000000009
 30
0.0
 10
92.8241425084079
 20
-96.36950443789516
 30
0.0
 10
88.47256895523232
 20
-94.10858679551737
 30
0.0
 10
82.0440863371959
 20
-90.52962298369249
 30
0.0
 10
75.83794383143032
 20
-86.57292718400333
 30
0.0
 10
69.92283153329541
 20
-81.98300821933357
 30
0.0
 10
64.57518203534659
 20
-76.57588961161154
 30
0.0
 10
59.65979200935308
 20
-70.63763715245963
 30
0.0
 10
56.55335257332462
 20
-66.5459957109189
 30
0.0
 10
54.99999999999893
 20
-64.5
 30
0.0
  0
SPLINE
  5
80
330
1F
100
AcDbEntity
  8
0
  6
Continuous
 62
     7
370
    25
100
AcDbSpline
210
0.0
220
0.0
230
1.0
 70
    11
 71
     3
 72
    26
 73
    22
 74
     0
 42
0.00000001
 43
0.00000001
 40
0.0
 40
0.0
 40
0.0
 40
0.0
 40
0.0536797914739378
 40
0.1073592654500817
 40
0.1610469797600375
 40
0.2147400642226653
 40
0.2684241911885586
 40
0.3220990148057287
 40
0.3757787109977455
 40
0.4294698488728863
 40
0.4831611404457249
 40
0.5368410599650454
 40
0.5905158328249154
 40
0.6441997110098102
 40
0.6978927421690272
 40
0.7515806850857658
 40
0.805257236348085
 40
0.8589338761723538
 40
0.9126219438542847
 40
0.9663149433610826
 40
0.9999999999999999
 40
0.9999999999999999
 40
0.9999999999999999
 40
0.9999999999999999
 10
-0.0000000000008269
 20
-117.4000000000002
 30
0.0
 10
0.2361089568255304
 20
-117.4232126178064
 30
0.0
 10
0.7083254739736976
 20
-117.4696377161242
 30
0.0
 10
1.336814452616756
 20
-117.8315394900613
 30
0.0
 10
1.814662897486308
 20
-118.3645353552697
 30
0.0
 10
2.087958167418131
 20
-119.0301410086605
 30
0.0
 10
2.12584290589753
 20
-119.7474663481461
 30
0.0
 10
1.924118749328939
 20
-120.4371438949403
 30
0.0
 10
1.505548906633204
 20
-121.0211169479439
 30
0.0
 10
0.9172197156002162
 20
-121.4337136805695
 30
0.0
 10
0.2254462280987438
 20
-121.6283065885937
 30
0.0
 10
-0.4916791151261786
 20
-121.5829564962312
 30
0.0
 10
-1.153324826512409
 20
-121.3028578032376
 30
0.0
 10
-1.685018418958685
 20
-120.8195499703871
 30
0.0
 10
-2.026814421818698
 20
-120.1874456125433
 30
0.0
 10
-2.140090478363552
 20
-119.4777672346641
 30
0.0
 10
-2.01214337125033
 20
-118.7709282213417
 30
0.0
 10
-1.657359088991325
 20
-118.1453499960933
 30
0.0
 10
-1.116028716678585
 20
-117.6759105379925
 30
0.0
 10
-0.53070672583649
 20
-117.4333696592209
 30
0.0
 10
-0.1476658389771557
 20
-117.4092848997109
 30
0.0
 10
-0.0000000000008269
 20
-117.4000000000002
 30
0.0
  0
SPLINE
  5
81
330
1F
100
AcDbEntity
  8
0
  6
Continuous
 62
     7
370
    25
100
AcDbSpline
210
0.0
220
0.0
230
1.0
 70
     8
 71
     3
 72
    17
 73
    13
 74
     0
 42
0.00000001
 43
0.00000001
 40
0.0
 40
0.0
 40
0.0
 40
0.0
 40
0.1073523773429982
 40
0.2147041197330353
 40
0.3220723416845599
 40
0.4294513032205726
 40
0.5368123509655086
 40
0.6441547932618154
 40
0.7515069800537545
 40
0.8588820486760651
 40
0.9662574246731864
 40
1.0
 40
1.0
 40
1.0
 40
1.0
 10
-95.00000000000098
 20
-117.4000000000002
 30
0.0
 10
-94.99947217552467
 20
-117.4232129450028
 30
0.0
 10
-94.99841652969396
 20
-117.4696386977113
 30
0.0
 10
-94.9910792587743
 20
-117.831535563489
 30
0.0
 10
-94.98292974030339
 20
-118.3645500830646
 30
0.0
 10
-94.9770741706068
 20
-119.0300860229266
 30
0.0
 10
-94.9762129175713
 20
-119.7476715088604
 30
0.0
 10
-94.98065720320166
 20
-120.4363783376662
 30
0.0
 10
-94.98858520436936
 20
-121.0239746106948
 30
0.0
 10
-94.99608355370535
 20
-121.4230462218712
 30
0.0
 10
-95.00026408982653
 20
-121.6121090583636
 30
0.0
 10
-94.99959774545378
 20
-121.5816256210506
 30
0.0
 10
-94.99943841650247
 20
-121.5743367561677
 30
0.0
  0
SPLINE
  5
82
330
1F
100
AcDbEntity
  8
0
  6
Continuous
 62
     7
370
    25
100
AcDbSpline
210
0.0
220
0.0
230
1.0
 70
     8
 71
     3
 72
    17
 73
    13
 74
     0
 42
0.00000001
 43
0.00000001
 40
0.0
 40
0.0
 40
0.0
 40
0.0
 40
0.1073523773430082
 40
0.2147041197330667
 40
0.3220723416845981
 40
0.4294513032206211
 40
0.5368123509655717
 40
0.6441547932618973
 40
0.7515069800538605
 40
0.8588820486761909
 40
0.9662574246733109
 40
1.0
 40
1.0
 40
1.0
 40
1.0
 10
94.99999999999939
 20
-121.6000000000002
 30
0.0
 10
94.99947217552294
 20
-121.5767870549976
 30
0.0
 10
94.99841652969198
 20
-121.5303613022891
 30
0.0
 10
94.99107925877249
 20
-121.1684644365111
 30
0.0
 10
94.98292974030144
 20
-120.6354499169355
 30
0.0
 10
94.97707417060494
 20
-119.9699139770735
 30
0.0
 10
94.97621291756936
 20
-119.2523284911396
 30
0.0
 10
94.9806572031998
 20
-118.5636216623339
 30
0.0
 10
94.98858520436737
 20
-117.9760253893053
 30
0.0
 10
94.99608355370346
 20
-117.5769537781289
 30
0.0
 10
95.00026408982454
 20
-117.3878909416368
 30
0.0
 10
94.99959774545187
 20
-117.4183743789497
 30
0.0
 10
94.99943841650058
 20
-117.4256632438326
 30
0.0
  0
SPLINE
  5
83
330
1F
100
AcDbEntity
  8
0
  6
Continuous
 62
     7
370
    25
100
AcDbSpline
210
0.0
220
0.0
230
1.0
 70
     8
 71
     3
 72
    17
 73
    13
 74
     0
 42
0.00000001
 43
0.00000001
 40
0.0
 40
0.0
 40
0.0
 40
0.0
 40
0.1073449478891866
 40
0.2146889961664521
 40
0.3220563938662011
 40
0.4294390190839525
 40
0.5367962593421509
 40
0.6441271250217896
 40
0.7514717945978087
 40
0.8588488955352912
 40
0.9662264430170355
 40
1.0
 40
1.0
 40
1.0
 40
1.0
 10
-95.00000000000097
 20
-1161.500000000001
 30
0.0
 10
-94.99925203483434
 20
-1161.527631569053
 30
0.0
 10
-94.99775611076943
 20
-1161.582894475588
 30
0.0
 10
-94.98735838354916
 20
-1162.01367497452
 30
0.0
 10
-94.9758081926073
 20
-1162.648166683979
 30
0.0
 10
-94.96750784943487
 20
-1163.440454007725
 30
0.0
 10
-94.96628607184704
 20
-1164.294702573209
 30
0.0
 10
-94.97258358266225
 20
-1165.114551837628
 30
0.0
 10
-94.98381854636423
 20
-1165.81406801172
 30
0.0
 10
-94.99444667258251
 20
-1166.289229508309
 30
0.0
 10
-95.0003733631556
 20
-1166.514380320378
 30
0.0
 10
-94.99942957845013
 20
-1166.478113261837
 30
0.0
 10
-94.99920375686234
 20
-1166.46943555738
 30
0.0
  0
SPLINE
  5
86
330
1F
100
AcDbEntity
  8
0
  6
Continuous
 62
     7
370
    25
100
AcDbSpline
210
0.0
220
0.0
230
1.0
 70
    11
 71
     3
 72
    26
 73
    22
 74
     0
 42
0.00000001
 43
0.00000001
 40
0.0
 40
0.0
 40
0.0
 40
0.0
 40
0.0536760640811433
 40
0.1073516783262387
 40
0.1610389680634939
 40
0.2147338720690326
 40
0.2684160827457984
 40
0.3220851052511902
 40
0.3757610301664417
 40
0.429453171847087
 40
0.483145536814798
 40
0.5368217873656942
 40
0.5904907393799982
 40
0.6441725871067769
 40
0.6978674126167773
 40
0.7515550373318207
 40
0.8052265132851028
 40
0.8588981034944498
 40
0.9125858872438503
 40
0.9662806726044143
 40
1.0
 40
1.0
 40
1.0
 40
1.0
 10
-0.0000000000009546
 20
-1161.500000000001
 30
0.0
 10
0.2810661299388602
 20
-1161.52763117979
 30
0.0
 10
0.8431960343239269
 20
-1161.582893307804
 30
0.0
 10
1.591364929376638
 20
-1162.013679646034
 30
0.0
 10
2.160246285930567
 20
-1162.648149160492
 30
0.0
 10
2.485637521959988
 20
-1163.440519432062
 30
0.0
 10
2.530776641844219
 20
-1164.294458491123
 30
0.0
 10
2.290697457925895
 20
-1165.11546257319
 30
0.0
 10
1.792501434746196
 20
-1165.810668149503
 30
0.0
 10
1.092180542469162
 20
-1166.301922210513
 30
0.0
 10
0.2686659444956017
 20
-1166.533668147421
 30
0.0
 10
-0.5850282532024556
 20
-1166.479774036948
 30
0.0
 10
-1.372686314411822
 20
-1166.146453812723
 30
0.0
 10
-2.005713617283114
 20
-1165.571222952612
 30
0.0
 10
-2.41273852349775
 20
-1164.818793698406
 30
0.0
 10
-2.547728069844955
 20
-1163.973967381539
 30
0.0
 10
-2.395564145048932
 20
-1163.132512574713
 30
0.0
 10
-1.973386055310502
 20
-1162.387746741711
 30
0.0
 10
-1.32909775474868
 20
-1161.828767049952
 30
0.0
 10
-0.6321717070498569
 20
-1161.539788689602
 30
0.0
 10
-0.1759745676637458
 20
-1161.511075784273
 30
0.0
 10
-0.0000000000009546
 20
-1161.500000000001
 30
0.0
  0
SPLINE
  5
8B
330
1F
100
AcDbEntity
  8
0
  6
Continuous
 62
     7
370
    25
100
AcDbSpline
210
0.0
220
0.0
230
1.0
 70
    11
 71
     3
 72
    26
 73
    22
 74
     0
 42
0.00000001
 43
0.00000001
 40
0.0
 40
0.0
 40
0.0
 40
0.0
 40
0.0536846118080818
 40
0.10736907732143
 40
0.1610573393438706
 40
0.2147480719549301
 40
0.2684346793264972
 40
0.3221170056137199
 40
0.3758015760016183
 40
0.4294914134804886
 40
0.4831813204075558
 40
0.5368659891402924
 40
0.5905482890712331
 40
0.6442347866646579
 40
0.6979254963405912
 40
0.7516138580209626
 40
0.8052969774144881
 40
0.8589801422867215
 40
0.9126685688833012
 40
0.9663592620361412
 40
1.0
 40
1.0
 40
1.0
 40
1.0
 10
99.83857951410714
 20
-34.49999999999997
 30
0.0
 10
99.83764469536796
 20
-34.33133835988622
 30
0.0
 10
99.835775060437
 20
-33.99401553927473
 30
0.0
 10
99.82076860159945
 20
-33.54506980404992
 30
0.0
 10
99.79738367213335
 20
-33.2037604791261
 30
0.0
 10
99.76609213720698
 20
-33.00858039215837
 30
0.0
 10
99.72973867308522
 20
-32.98154953861299
 30
0.0
 10
99.69222375751555
 20
-33.12569148084022
 30
0.0
 10
99.65849379115201
 20
-33.42474862969147
 30
0.0
 10
99.63358039265243
 20
-33.84503883869549
 30
0.0
 10
99.6215219595632
 20
-34.33918236498801
 30
0.0
 10
99.62435780925792
 20
-34.85143529476509
 30
0.0
 10
99.64160119408945
 20
-35.32405130850869
 30
0.0
 10
99.67037246041586
 20
-35.70378681721853
 30
0.0
 10
99.70613115527239
 20
-35.94782988730183
 30
0.0
 10
99.74375695850607
 20
-36.02863498019016
 30
0.0
 10
99.77858759536322
 20
-35.93712461620691
 30
0.0
 10
99.80720444648799
 20
-35.68356436238307
 30
0.0
 10
99.82732153099359
 20
-35.29678143947423
 30
0.0
 10
99.83723080873902
 20
-34.87878297392621
 30
0.0
 10
99.83820445723063
 20
-34.60533446550451
 30
0.0
 10
99.83857951410714
 20
-34.49999999999997
 30
0.0
  0
SPLINE
  5
8C
330
1F
100
AcDbEntity
  8
0
  6
Continuous
 62
     7
370
    25
100
AcDbSpline
210
0.0
220
0.0
230
1.0
 70
    11
 71
     3
 72
    26
 73
    22
 74
     0
 42
0.00000001
 43
0.00000001
 40
0.0
 40
0.0
 40
0.0
 40
0.0
 40
0.0536846121910832
 40
0.1073690781317065
 40
0.1610573396641841
 40
0.2147480724586636
 40
0.2684346800467139
 40
0.3221170051471069
 40
0.3758015751999276
 40
0.4294914131641077
 40
0.4831813196051589
 40
0.5368659886549689
 40
0.5905482897782017
 40
0.6442347871704742
 40
0.6979254966581188
 40
0.7516138588373124
 40
0.8052969773614204
 40
0.858980141394261
 40
0.9126685684947894
 40
0.9663592614287048
 40
1.0
 40
1.0
 40
1.0
 40
1.0
 10
-7.176555937442208
 20
-35.99999999999992
 30
0.0
 10
-7.008310822443246
 20
-35.9834173167185
 30
0.0
 10
-6.67182105078756
 20
-35.95025199533119
 30
0.0
 10
-6.223777661117254
 20
-35.69171261852156
 30
0.0
 10
-5.883064918726346
 20
-35.31096297812686
 30
0.0
 10
-5.688184522620761
 20
-34.83551686206254
 30
0.0
 10
-5.661193251796261
 20
-34.32312633940193
 30
0.0
 10
-5.805118887940925
 20
-33.83046801108647
 30
0.0
 10
-6.103677975304787
 20
-33.41334408660956
 30
0.0
 10
-6.523155503583353
 20
-33.11868450318156
 30
0.0
 10
-7.016175131792604
 20
-32.97975762004401
 30
0.0
 10
-7.527070838529839
 20
-33.01222356535649
 30
0.0
 10
-7.998261179059695
 20
-33.21239542696608
 30
0.0
 10
-8.376730554461068
 20
-33.55772052118089
 30
0.0
 10
-8.619903159623252
 20
-34.00928251406899
 30
0.0
 10
-8.700410285710362
 20
-34.5162180688392
 30
0.0
 10
-8.609236898654604
 20
-35.02111876157499
 30
0.0
 10
-8.356578646571013
 20
-35.46793712331564
 30
0.0
 10
-7.971076520278869
 20
-35.80315536522316
 30
0.0
 10
-7.554336451740539
 20
-35.97621329283618
 30
0.0
 10
-7.281611633399405
 20
-35.99338523565643
 30
0.0
 10
-7.176555937442208
 20
-35.99999999999992
 30
0.0
  0
SPLINE
  5
8F
330
1F
100
AcDbEntity
  8
0
  6
Continuous
 62
     7
370
    25
100
AcDbSpline
210
0.0
220
0.0
230
1.0
 70
     8
 71
     3
 72
    17
 73
    13
 74
     0
 42
0.00000001
 43
0.00000001
 40
0.0
 40
0.0
 40
0.0
 40
0.0
 40
0.1073881685219274
 40
0.2147760324316807
 40
0.3221718018586909
 40
0.4295727186362435
 40
0.5369650433175138
 40
0.6443484481666057
 40
0.7517365287940986
 40
0.8591355816741442
 40
0.9665347773487148
 40
1.0
 40
1.0
 40
1.0
 40
1.0
 10
-7.033024818693366
 20
-35.99999999999992
 30
0.0
 10
-7.201232390036306
 20
-35.98341716080122
 30
0.0
 10
-7.537647055592583
 20
-35.95025152944209
 30
0.0
 10
-7.985173988466643
 20
-35.69171701621588
 30
0.0
 10
-8.325313908066363
 20
-35.31095533770612
 30
0.0
 10
-8.519785833019402
 20
-34.83555972060215
 30
0.0
 10
-8.546710731856193
 20
-34.32298304547532
 30
0.0
 10
-8.40312534597441
 20
-33.8310225106514
 30
0.0
 10
-8.105029298339229
 20
-33.411298377793
 30
0.0
 10
-7.68644244193633
 20
-33.12634216032151
 30
0.0
 10
-7.3057954939067
 20
-32.99137951680076
 30
0.0
 10
-7.086303275391851
 20
-33.01309010145559
 30
0.0
 10
-7.034158411201714
 20
-33.0182478947294
 30
0.0
  0
SPLINE
  5
93
330
1F
100
AcDbEntity
  8
0
  6
Continuous
 62
     7
370
    25
100
AcDbSpline
210
0.0
220
0.0
230
1.0
 70
     8
 71
     3
 72
    14
 73
    10
 74
     0
 42
0.00000001
 43
0.00000001
 40
0.0
 40
0.0
 40
0.0
 40
0.0
 40
0.079780798047779
 40
0.2612757096420282
 40
0.4443100511604562
 40
0.615232726006898
 40
0.7788926119982684
 40
0.9518736957441323
 40
0.9999999999999999
 40
0.9999999999999999
 40
0.9999999999999999
 40
0.9999999999999999
 10
-6.610348023773804
 20
-33.12352481489022
 30
0.0
 10
-6.683301062397672
 20
-33.16272239779406
 30
0.0
 10
-6.922216407987201
 20
-33.29109133543384
 30
0.0
 10
-7.207677770164602
 20
-33.66814637021653
 30
0.0
 10
-7.410452435747557
 20
-34.19066024421357
 30
0.0
 10
-7.415528170252466
 20
-34.74082752584151
 30
0.0
 10
-7.251794207979716
 20
-35.2433931135222
 30
0.0
 10
-7.019646592621508
 20
-35.56887934150366
 30
0.0
 10
-6.850909655503986
 20
-35.71909031803067
 30
0.0
 10
-6.814182320210888
 20
-35.75178528686118
 30
0.0
  0
LINE
  5
99
330
1F
100
AcDbEntity
  8
0
  6
Continuous
 62
     7
370
    25
100
AcDbLine
 10
-95.0
 20
-97.5
 30
0.0
 11
-95.0
 21
-117.4
 31
0.0
  0
LINE
  5
9A
330
1F
100
AcDbEntity
  8
0
  6
Continuous
 62
     7
370
    25
100
AcDbLine
 10
95.0
 20
-117.4256632438
 30
0.0
 11
95.0
 21
-97.5
 31
0.0
  0
LINE
  5
9B
330
1F
100
AcDbEntity
  8
0
  6
Continuous
 62
     7
370
    25
100
AcDbLine
 10
95.0
 20
-1161.5
 30
0.0
 11
95.0
 21
-121.6
 31
0.0
  0
LINE
  5
9C
330
1F
100
AcDbEntity
  8
0
  6
Continuous
 62
     7
370
    25
100
AcDbLine
 10
95.0
 20
-1190.5
 30
0.0
 11
95.0
 21
-1166.4694355574
 31
0.0
  0
LINE
  5
9D
330
1F
100
AcDbEntity
  8
0
  6
Continuous
 62
     7
370
    25
100
AcDbLine
 10
-95.0
 20
-1166.4694355574
 30
0.0
 11
-95.0
 21
-1190.5
 31
0.0
  0
LINE
  5
9E
330
1F
100
AcDbEntity
  8
0
  6
Continuous
 62
     7
370
    25
100
AcDbLine
 10
-95.0
 20
-121.5743367562
 30
0.0
 11
-95.0
 21
-1161.5
 31
0.0
  0
LINE
  5
9F
330
1F
100
AcDbEntity
  8
0
  6
Continuous
 62
     7
370
    25
100
AcDbLine
 10
-100.0
 20
-4.0
 30
0.0
 11
-100.0
 21
-42.0
 31
0.0
  0
LINE
  5
A0
330
1F
100
AcDbEntity
  8
0
  6
Continuous
 62
     7
370
    25
100
AcDbLine
 10
100.0
 20
-42.0
 30
0.0
 11
100.0
 21
-4.0
 31
0.0
  0
LINE
  5
A1
330
1F
100
AcDbEntity
  8
0
  6
Continuous
 62
     7
370
    25
100
AcDbLine
 10
100.0104762308
 20
-64.5
 30
0.0
 11
100.0104762308
 21
-42.0
 31
0.0
  0
LINE
  5
A2
330
1F
100
AcDbEntity
  8
0
  6
Continuous
 62
     7
370
    25
100
AcDbLine
 10
-100.0104762308
 20
-42.0
 30
0.0
 11
-100.0104762308
 21
-64.5
 31
0.0
  0
LINE
  5
A3
330
1F
100
AcDbEntity
  8
0
  6
Continuous
 62
     7
370
    25
100
AcDbLine
 10
-95.0
 20
-97.5
 30
0.0
 11
95.0
 21
-97.5
 31
0.0
  0
LINE
  5
A4
330
1F
100
AcDbEntity
  8
0
  6
Continuous
 62
     7
370
    25
100
AcDbLine
 10
-95.0
 20
-100.5
 30
0.0
 11
95.0
 21
-100.5
 31
0.0
  0
LINE
  5
A5
330
1F
100
AcDbEntity
  8
0
  6
Continuous
 62
     7
370
    25
100
AcDbLine
 10
-95.0
 20
-1180.5
 30
0.0
 11
95.0
 21
-1180.5
 31
0.0
  0
LINE
  5
A6
330
1F
100
AcDbEntity
  8
0
  6
Continuous
 62
     7
370
    25
100
AcDbLine
 10
95.0
 20
-1190.5
 30
0.0
 11
-95.0
 21
-1190.5
 31
0.0
  0
LINE
  5
A7
330
1F
100
AcDbEntity
  8
0
  6
Continuous
 62
     7
370
    25
100
AcDbLine
 10
-96.0
 20
0.0
 30
0.0
 11
96.0
 21
0.0
 31
0.0
  0
LINE
  5
A8
330
1F
100
AcDbEntity
  8
0
  6
Continuous
 62
     7
370
    25
100
AcDbLine
 10
100.0104762308
 20
-42.0
 30
0.0
 11
-100.0104762308
 21
-42.0
 31
0.0
  0
LINE
  5
A9
330
1F
100
AcDbEntity
  8
0
  6
Continuous
 62
     7
370
    25
100
AcDbLine
 10
100.0104762308
 20
-64.5
 30
0.0
 11
-100.0104762308
 21
-64.5
 31
0.0
  0
LINE
  5
AA
330
1F
100
AcDbEntity
  8
0
  6
Continuous
 62
     7
370
    25
100
AcDbLine
 10
-6.8141823202
 20
-35.7517852869
 30
0.0
 11
-6.6166680055
 21
-35.8976728048
 31
0.0
  0
LINE
  5
AB
330
1F
100
AcDbEntity
  8
0
  6
Continuous
 62
     7
370
    25
100
AcDbLine
 10
-6.8141823202
 20
-35.7517852869
 30
0.0
 11
-6.3440694979
 21
-35.8300930554
 31
0.0
  0
LINE
  5
AC
330
1F
100
AcDbEntity
  8
0
  6
Continuous
 62
     7
370
    25
100
AcDbLine
 10
100.0
 20
-4.0
 30
0.0
 11
-100.0
 21
-4.0
 31
0.0
  0
ARC
  5
AD
330
1F
100
AcDbEntity
  8
0
  6
Continuous
 62
     7
370
    25
100
AcDbCircle
 10
-96.0
 20
-4.0
 30
0.0
 40
3.999999999999915
100
AcDbArc
 50
90.0
 51
180.0
  0
ARC
  5
AE
330
1F
100
AcDbEntity
  8
0
  6
Continuous
 62
     7
370
    25
100
AcDbCircle
 10
96.0
 20
-4.0
 30
0.0
 40
4.000000000000057
100
AcDbArc
 50
0.0
 51
90.0
  0
ARC
  5
AF
330
1F
100
AcDbEntity
  8
0
  6
Continuous
 62
     7
370
    25
100
AcDbCircle
 10
189.9766510695
 20
-1163.9999357693
 30
0.0
 40
95.00954650577671
100
AcDbArc
 50
178.4922325474
 51
181.4894066668
  0
ARC
  5
B0
330
1F
100
AcDbEntity
  8
0
  6
Continuous
 62
     7
370
    25
100
AcDbCircle
 10
0.0
 20
-124.5
 30
0.0
 40
3.999999999154285
100
AcDbArc
 50
66.6501540242
 51
113.1637789108
  0
ARC
  5
B1
330
1F
100
AcDbEntity
  8
0
  6
Continuous
 62
     7
370
    25
100
AcDbCircle
 10
0.0
 20
-124.5
 30
0.0
 40
3.499999999999604
100
AcDbArc
 50
70.6276248392
 51
109.4857390775
  0
ENDSEC
  0
SECTION
  2
OBJECTS
  0
DICTIONARY
  5
C
330
0
100
AcDbDictionary
281
     1
  3
ACAD_GROUP
350
D
  3
ACAD_LAYOUT
350
1A
  3
ACAD_MLINESTYLE
350
17
  3
ACAD_PLOTSETTINGS
350
19
  3
ACAD_PLOTSTYLENAME
350
E
  3
ACAD_SCALELIST
350
47
  3
DWGPROPS
350
B2
  0
DICTIONARY
  5
D
102
{ACAD_REACTORS
330
C
102
}
330
C
100
AcDbDictionary
281
     1
  0
DICTIONARY
  5
1A
102
{ACAD_REACTORS
330
C
102
}
330
C
100
AcDbDictionary
281
     1
  3
Layout1
350
1E
  3
Layout2
350
26
  3
Model
350
22
  0
DICTIONARY
  5
17
102
{ACAD_REACTORS
330
C
102
}
330
C
100
AcDbDictionary
281
     1
  3
Standard
350
18
  0
DICTIONARY
  5
19
102
{ACAD_REACTORS
330
C
102
}
330
C
100
AcDbDictionary
281
     1
  0
ACDBDICTIONARYWDFLT
  5
E
102
{ACAD_REACTORS
330
C
102
}
330
C
100
AcDbDictionary
281
     1
  3
Normal
350
F
100
AcDbDictionaryWithDefault
340
F
  0
DICTIONARY
  5
47
102
{ACAD_REACTORS
330
C
102
}
330
C
100
AcDbDictionary
281
     1
  3
A0
350
48
  3
A1
350
49
  3
A2
350
4A
  3
A3
350
4B
  3
A4
350
4C
  3
A5
350
4D
  3
A6
350
4E
  3
A7
350
4F
  3
A8
350
50
  3
A9
350
51
  3
B0
350
52
  3
B1
350
53
  3
B2
350
54
  3
B3
350
55
  3
B4
350
56
  3
B5
350
57
  3
B6
350
58
  0
XRECORD
  5
B2
102
{ACAD_REACTORS
330
C
102
}
330
C
100
AcDbXrecord
280
     1
  1
DWGPROPS COOKIE
  2

  3

  4

  6

  7

  8
sisler
  9

300
=
301
=
302
=
303
=
304
=
305
=
306
=
307
=
308
=
309
=
 40
0.0
 41
2460630.457341841
 42
2460630.457375475
  1

 90
        0
  0
LAYOUT
  5
1E
102
{ACAD_REACTORS
330
1A
102
}
330
1A
100
AcDbPlotSettings
  1

  2
none_device
  4

  6

 40
0.0
 41
0.0
 42
0.0
 43
0.0
 44
0.0
 45
0.0
 46
0.0
 47
0.0
 48
0.0
 49
0.0
140
0.0
141
0.0
142
1.0
143
1.0
 70
   688
 72
     1
 73
     0
 74
     5
  7

 75
    16
147
1.0
148
0.0
149
0.0
100
AcDbLayout
  1
Layout1
 70
     1
 71
     1
 10
0.0
 20
0.0
 11
420.0
 21
297.0
 12
0.0
 22
0.0
 32
0.0
 14
1.0000000000E+20
 24
1.0000000000E+20
 34
1.0000000000E+20
 15
-1.0000000000E+20
 25
-1.0000000000E+20
 35
-1.0000000000E+20
146
0.0
 13
0.0
 23
0.0
 33
0.0
 16
1.0
 26
0.0
 36
0.0
 17
0.0
 27
1.0
 37
0.0
 76
     0
330
1B
  0
LAYOUT
  5
26
102
{ACAD_REACTORS
330
1A
102
}
330
1A
100
AcDbPlotSettings
  1

  2
none_device
  4

  6

 40
0.0
 41
0.0
 42
0.0
 43
0.0
 44
0.0
 45
0.0
 46
0.0
 47
0.0
 48
0.0
 49
0.0
140
0.0
141
0.0
142
1.0
143
1.0
 70
   688
 72
     1
 73
     0
 74
     5
  7

 75
    16
147
1.0
148
0.0
149
0.0
100
AcDbLayout
  1
Layout2
 70
     1
 71
     2
 10
0.0
 20
0.0
 11
0.0
 21
0.0
 12
0.0
 22
0.0
 32
0.0
 14
0.0
 24
0.0
 34
0.0
 15
0.0
 25
0.0
 35
0.0
146
0.0
 13
0.0
 23
0.0
 33
0.0
 16
1.0
 26
0.0
 36
0.0
 17
0.0
 27
1.0
 37
0.0
 76
     0
330
23
  0
LAYOUT
  5
22
102
{ACAD_REACTORS
330
1A
102
}
330
1A
100
AcDbPlotSettings
  1

  2
none_device
  4
ANSI_A_(11.00_x_8.50_Inches)
  6

 40
6.35
 41
19.05
 42
6.35000508
 43
19.05000254
 44
279.4
 45
215.9
 46
133.34999746
 47
195.77049873
 48
0.0
 49
0.0
140
0.0
141
0.0
142
0.0070684586
143
1.0
 70
  1696
 72
     0
 73
     0
 74
     0
  7

 75
     0
147
0.0179189148
148
-1300.4909072572
149
0.0
100
AcDbLayout
  1
Model
 70
     1
 71
     0
 10
0.0
 20
0.0
 11
420.0
 21
297.0
 12
0.0
 22
0.0
 32
0.0
 14
-100.0104762308
 24
-1190.5
 34
0.0
 15
100.0104762308
 25
0.0
 35
0.0
146
0.0
 13
0.0
 23
0.0
 33
0.0
 16
1.0
 26
0.0
 36
0.0
 17
0.0
 27
1.0
 37
0.0
 76
     0
330
1F
331
29
  0
MLINESTYLE
  5
18
102
{ACAD_REACTORS
330
17
102
}
330
17
100
AcDbMlineStyle
  2
Standard
 70
     0
  3

 62
   256
 51
90.0
 52
90.0
 71
     2
 49
0.5
 62
   256
  6
BYLAYER
 49
-0.5
 62
   256
  6
BYLAYER
  0
ACDBPLACEHOLDER
  5
F
102
{ACAD_REACTORS
330
E
102
}
330
E
  0
SCALE
  5
48
102
{ACAD_REACTORS
330
47
102
}
330
47
100
AcDbScale
 70
     0
300
1:1
140
1.0
141
1.0
290
     1
  0
SCALE
  5
49
102
{ACAD_REACTORS
330
47
102
}
330
47
100
AcDbScale
 70
     0
300
1:2
140
1.0
141
2.0
290
     0
  0
SCALE
  5
4A
102
{ACAD_REACTORS
330
47
102
}
330
47
100
AcDbScale
 70
     0
300
1:4
140
1.0
141
4.0
290
     0
  0
SCALE
  5
4B
102
{ACAD_REACTORS
330
47
102
}
330
47
100
AcDbScale
 70
     0
300
1:5
140
1.0
141
5.0
290
     0
  0
SCALE
  5
4C
102
{ACAD_REACTORS
330
47
102
}
330
47
100
AcDbScale
 70
     0
300
1:8
140
1.0
141
8.0
290
     0
  0
SCALE
  5
4D
102
{ACAD_REACTORS
330
47
102
}
330
47
100
AcDbScale
 70
     0
300
1:10
140
1.0
141
10.0
290
     0
  0
SCALE
  5
4E
102
{ACAD_REACTORS
330
47
102
}
330
47
100
AcDbScale
 70
     0
300
1:16
140
1.0
141
16.0
290
     0
  0
SCALE
  5
4F
102
{ACAD_REACTORS
330
47
102
}
330
47
100
AcDbScale
 70
     0
300
1:20
140
1.0
141
20.0
290
     0
  0
SCALE
  5
50
102
{ACAD_REACTORS
330
47
102
}
330
47
100
AcDbScale
 70
     0
300
1:30
140
1.0
141
30.0
290
     0
  0
SCALE
  5
51
102
{ACAD_REACTORS
330
47
102
}
330
47
100
AcDbScale
 70
     0
300
1:40
140
1.0
141
40.0
290
     0
  0
SCALE
  5
52
102
{ACAD_REACTORS
330
47
102
}
330
47
100
AcDbScale
 70
     0
300
1:50
140
1.0
141
50.0
290
     0
  0
SCALE
  5
53
102
{ACAD_REACTORS
330
47
102
}
330
47
100
AcDbScale
 70
     0
300
1:100
140
1.0
141
100.0
290
     0
  0
SCALE
  5
54
102
{ACAD_REACTORS
330
47
102
}
330
47
100
AcDbScale
 70
     0
300
2:1
140
2.0
141
1.0
290
     0
  0
SCALE
  5
55
102
{ACAD_REACTORS
330
47
102
}
330
47
100
AcDbScale
 70
     0
300
4:1
140
4.0
141
1.0
290
     0
  0
SCALE
  5
56
102
{ACAD_REACTORS
330
47
102
}
330
47
100
AcDbScale
 70
     0
300
8:1
140
8.0
141
1.0
290
     0
  0
SCALE
  5
57
102
{ACAD_REACTORS
330
47
102
}
330
47
100
AcDbScale
 70
     0
300
10:1
140
10.0
141
1.0
290
     0
  0
SCALE
  5
58
102
{ACAD_REACTORS
330
47
102
}
330
47
100
AcDbScale
 70
     0
300
100:1
140
100.0
141
1.0
290
     0
  0
ENDSEC
  0
EOF
