  0
SECTION
  2
HEADER
  9
$ACADVER
  1
AC1015
  9
$ACADMAINTVER
 70
     6
  9
$DWGCODEPAGE
  3
ANSI_1254
  9
$INSBASE
 10
0.0
 20
0.0
 30
0.0
  9
$EXTMIN
 10
0.0
 20
0.0
 30
0.0
  9
$EXTMAX
 10
1189.0
 20
841.0
 30
0.0
  9
$LIMMIN
 10
0.0
 20
0.0
  9
$LIMMAX
 10
1189.0
 20
841.0
  9
$ORTHOMODE
 70
     0
  9
$REGENMODE
 70
     1
  9
$FILLMODE
 70
     1
  9
$QTEXTMODE
 70
     0
  9
$MIRRTEXT
 70
     1
  9
$LTSCALE
 40
1.0
  9
$ATTMODE
 70
     1
  9
$TEXTSIZE
 40
4.9388888889
  9
$TRACEWID
 40
1.0
  9
$TEXTSTYLE
  7
Standard
  9
$CLAYER
  8
0
  9
$CELTYPE
  6
ByLayer
  9
$CECOLOR
 62
   256
  9
$CELTSCALE
 40
1.0
  9
$DISPSILH
 70
     0
  9
$DIMSCALE
 40
1.0
  9
$DIMASZ
 40
3.65
  9
$DIMEXO
 40
0.5
  9
$DIMDLI
 40
3.75
  9
$DIMRND
 40
0.0
  9
$DIMDLE
 40
0.0
  9
$DIMEXE
 40
1.0
  9
$DIMTP
 40
0.0
  9
$DIMTM
 40
0.0
  9
$DIMTXT
 40
4.2333333333
  9
$DIMCEN
 40
2.5
  9
$DIMTSZ
 40
0.0
  9
$DIMTOL
 70
     0
  9
$DIMLIM
 70
     0
  9
$DIMTIH
 70
     1
  9
$DIMTOH
 70
     1
  9
$DIMSE1
 70
     0
  9
$DIMSE2
 70
     0
  9
$DIMTAD
 70
     1
  9
$DIMZIN
 70
     0
  9
$DIMBLK
  1

  9
$DIMASO
 70
     1
  9
$DIMSHO
 70
     1
  9
$DIMPOST
  1

  9
$DIMAPOST
  1

  9
$DIMALT
 70
     0
  9
$DIMALTD
 70
     3
  9
$DIMALTF
 40
0.0393700787
  9
$DIMLFAC
 40
1.0
  9
$DIMTOFL
 70
     1
  9
$DIMTVP
 40
0.0
  9
$DIMTIX
 70
     0
  9
$DIMSOXD
 70
     0
  9
$DIMSAH
 70
     0
  9
$DIMBLK1
  1

  9
$DIMBLK2
  1

  9
$DIMSTYLE
  2
ISO-25
  9
$DIMCLRD
 70
     0
  9
$DIMCLRE
 70
     0
  9
$DIMCLRT
 70
     0
  9
$DIMTFAC
 40
1.0
  9
$DIMGAP
 40
1.524
  9
$DIMJUST
 70
     0
  9
$DIMSD1
 70
     0
  9
$DIMSD2
 70
     0
  9
$DIMTOLJ
 70
     0
  9
$DIMTZIN
 70
     0
  9
$DIMALTZ
 70
     0
  9
$DIMALTTZ
 70
     0
  9
$DIMUPT
 70
     0
  9
$DIMDEC
 70
     2
  9
$DIMTDEC
 70
     2
  9
$DIMALTU
 70
     2
  9
$DIMALTTD
 70
     3
  9
$DIMTXSTY
  7
Standard
  9
$DIMAUNIT
 70
     0
  9
$DIMADEC
 70
     2
  9
$DIMALTRND
 40
0.0
  9
$DIMAZIN
 70
     0
  9
$DIMDSEP
 70
    44
  9
$DIMATFIT
 70
     3
  9
$DIMFRAC
 70
     0
  9
$DIMLDRBLK
  1

  9
$DIMLUNIT
 70
     2
  9
$DIMLWD
 70
    -2
  9
$DIMLWE
 70
    -2
  9
$DIMTMOVE
 70
     0
  9
$LUNITS
 70
     2
  9
$LUPREC
 70
     2
  9
$SKETCHINC
 40
1.0
  9
$FILLETRAD
 40
10.0
  9
$AUNITS
 70
     0
  9
$AUPREC
 70
     2
  9
$MENU
  1
.
  9
$ELEVATION
 40
0.0
  9
$PELEVATION
 40
0.0
  9
$THICKNESS
 40
0.0
  9
$LIMCHECK
 70
     0
  9
$CHAMFERA
 40
0.0
  9
$CHAMFERB
 40
0.0
  9
$CHAMFERC
 40
0.0
  9
$CHAMFERD
 40
0.0
  9
$SKPOLY
 70
     0
  9
$TDCREATE
 40
2459075.46140882
  9
$TDUCREATE
 40
2459075.33640882
  9
$TDUPDATE
 40
2459075.461409607
  9
$TDUUPDATE
 40
2459075.336409607
  9
$TDINDWG
 40
0.0000000116
  9
$TDUSRTIMER
 40
0.0000000116
  9
$USRTIMER
 70
     1
  9
$ANGBASE
 50
0.0
  9
$ANGDIR
 70
     0
  9
$PDMODE
 70
     0
  9
$PDSIZE
 40
-1.0
  9
$PLINEWID
 40
0.0
  9
$SPLFRAME
 70
     0
  9
$SPLINETYPE
 70
     6
  9
$SPLINESEGS
 70
     8
  9
$HANDSEED
  5
250
  9
$SURFTAB1
 70
     6
  9
$SURFTAB2
 70
     6
  9
$SURFTYPE
 70
     6
  9
$SURFU
 70
     6
  9
$SURFV
 70
     6
  9
$UCSBASE
  2

  9
$UCSNAME
  2

  9
$UCSORG
 10
0.0
 20
0.0
 30
0.0
  9
$UCSXDIR
 10
1.0
 20
0.0
 30
0.0
  9
$UCSYDIR
 10
0.0
 20
1.0
 30
0.0
  9
$UCSORTHOREF
  2

  9
$UCSORTHOVIEW
 70
     0
  9
$UCSORGTOP
 10
0.0
 20
0.0
 30
0.0
  9
$UCSORGBOTTOM
 10
0.0
 20
0.0
 30
0.0
  9
$UCSORGLEFT
 10
0.0
 20
0.0
 30
0.0
  9
$UCSORGRIGHT
 10
0.0
 20
0.0
 30
0.0
  9
$UCSORGFRONT
 10
0.0
 20
0.0
 30
0.0
  9
$UCSORGBACK
 10
0.0
 20
0.0
 30
0.0
  9
$PUCSBASE
  2

  9
$PUCSNAME
  2

  9
$PUCSORG
 10
0.0
 20
0.0
 30
0.0
  9
$PUCSXDIR
 10
1.0
 20
0.0
 30
0.0
  9
$PUCSYDIR
 10
0.0
 20
1.0
 30
0.0
  9
$PUCSORTHOREF
  2

  9
$PUCSORTHOVIEW
 70
     0
  9
$PUCSORGTOP
 10
0.0
 20
0.0
 30
0.0
  9
$PUCSORGBOTTOM
 10
0.0
 20
0.0
 30
0.0
  9
$PUCSORGLEFT
 10
0.0
 20
0.0
 30
0.0
  9
$PUCSORGRIGHT
 10
0.0
 20
0.0
 30
0.0
  9
$PUCSORGFRONT
 10
0.0
 20
0.0
 30
0.0
  9
$PUCSORGBACK
 10
0.0
 20
0.0
 30
0.0
  9
$USERI1
 70
     0
  9
$USERI2
 70
     0
  9
$USERI3
 70
     0
  9
$USERI4
 70
     0
  9
$USERI5
 70
     0
  9
$USERR1
 40
0.0
  9
$USERR2
 40
0.0
  9
$USERR3
 40
0.0
  9
$USERR4
 40
0.0
  9
$USERR5
 40
0.0
  9
$WORLDVIEW
 70
     1
  9
$SHADEDGE
 70
     3
  9
$SHADEDIF
 70
    70
  9
$TILEMODE
 70
     1
  9
$MAXACTVP
 70
    64
  9
$PINSBASE
 10
0.0
 20
0.0
 30
0.0
  9
$PLIMCHECK
 70
     0
  9
$PEXTMIN
 10
1.0000000000E+20
 20
1.0000000000E+20
 30
1.0000000000E+20
  9
$PEXTMAX
 10
-1.0000000000E+20
 20
-1.0000000000E+20
 30
-1.0000000000E+20
  9
$PLIMMIN
 10
0.0
 20
0.0
  9
$PLIMMAX
 10
420.0
 20
297.0
  9
$UNITMODE
 70
     0
  9
$VISRETAIN
 70
     1
  9
$PLINEGEN
 70
     0
  9
$PSLTSCALE
 70
     1
  9
$TREEDEPTH
 70
  3020
  9
$CMLSTYLE
  2
Standard
  9
$CMLJUST
 70
     0
  9
$CMLSCALE
 40
20.0
  9
$PROXYGRAPHICS
 70
     1
  9
$MEASUREMENT
 70
     1
  9
$CELWEIGHT
370
    -1
  9
$ENDCAPS
280
     0
  9
$JOINSTYLE
280
     0
  9
$LWDISPLAY
290
     1
  9
$INSUNITS
 70
     4
  9
$HYPERLINKBASE
  1

  9
$STYLESHEET
  1

  9
$XEDIT
290
     1
  9
$CEPSNTYPE
380
     0
  9
$PSTYLEMODE
290
     1
  9
$FINGERPRINTGUID
  2
{5bbfec4f-4a0f-43b6-a2be-d80b7aba7203}
  9
$VERSIONGUID
  2
{FAEB1C32-E019-11D5-929B-00C0DF256EC4}
  9
$EXTNAMES
290
     1
  9
$PSVPSCALE
 40
0.0
  9
$OLESTARTUP
290
     0
  0
ENDSEC
  0
SECTION
  2
CLASSES
  0
CLASS
  1
ACDBDICTIONARYWDFLT
  2
AcDbDictionaryWithDefault
  3
ObjectDBX Classes
 90
        0
280
     0
281
     0
  0
CLASS
  1
VISUALSTYLE
  2
AcDbVisualStyle
  3
ObjectDBX Classes
 90
     4095
280
     0
281
     0
  0
CLASS
  1
MATERIAL
  2
AcDbMaterial
  3
ObjectDBX Classes
 90
     1153
280
     0
281
     0
  0
CLASS
  1
SCALE
  2
AcDbScale
  3
ObjectDBX Classes
 90
     1153
280
     0
281
     0
  0
CLASS
  1
TABLESTYLE
  2
AcDbTableStyle
  3
ObjectDBX Classes
 90
     4095
280
     0
281
     0
  0
CLASS
  1
MLEADERSTYLE
  2
AcDbMLeaderStyle
  3
ACDB_MLEADERSTYLE_CLASS
 90
     4095
280
     0
281
     0
  0
CLASS
  1
SUN
  2
AcDbSun
  3
SCENEOE
 90
     1153
280
     0
281
     0
  0
CLASS
  1
ACDBPLACEHOLDER
  2
AcDbPlaceHolder
  3
ObjectDBX Classes
 90
        0
280
     0
281
     0
  0
CLASS
  1
LAYOUT
  2
AcDbLayout
  3
ObjectDBX Classes
 90
        0
280
     0
281
     0
  0
ENDSEC
  0
SECTION
  2
TABLES
  0
TABLE
  2
VPORT
  5
8
330
0
100
AcDbSymbolTable
 70
     1
  0
VPORT
  5
29
330
8
100
AcDbSymbolTableRecord
100
AcDbViewportTableRecord
  2
*Active
 70
     0
 10
0.0
 20
0.0
 11
1.0
 21
1.0
 12
594.5
 22
420.5
 13
0.0
 23
0.0
 14
10.0
 24
10.0
 15
10.0
 25
10.0
 16
0.0
 26
0.0
 36
1.0
 17
0.0
 27
0.0
 37
0.0
 40
841.0
 41
1.4137931034
 42
50.0
 43
0.0
 44
0.0
 50
0.0
 51
0.0
 71
     0
 72
  2000
 73
     1
 74
     3
 75
     0
 76
     0
 77
     0
 78
     0
281
     0
 65
     1
110
0.0
120
0.0
130
0.0
111
1.0
121
0.0
131
0.0
112
0.0
122
1.0
132
0.0
 79
     0
146
0.0
  0
ENDTAB
  0
TABLE
  2
LTYPE
  5
5
330
0
100
AcDbSymbolTable
 70
     6
  0
LTYPE
  5
14
330
5
100
AcDbSymbolTableRecord
100
AcDbLinetypeTableRecord
  2
ByBlock
 70
     0
  3

 72
    65
 73
     0
 40
0.0
  0
LTYPE
  5
15
330
5
100
AcDbSymbolTableRecord
100
AcDbLinetypeTableRecord
  2
ByLayer
 70
     0
  3

 72
    65
 73
     0
 40
0.0
  0
LTYPE
  5
16
330
5
100
AcDbSymbolTableRecord
100
AcDbLinetypeTableRecord
  2
Continuous
 70
     0
  3
Solid line
 72
    65
 73
     0
 40
0.0
  0
LTYPE
  5
6E
330
5
100
AcDbSymbolTableRecord
100
AcDbLinetypeTableRecord
  2
HIDDEN
 70
     0
  3
Hidden __ __ __ __ __ __ __ __ __ __ __ __ __ __
 72
    65
 73
     2
 40
1.905
 49
1.27
 74
     0
 49
-0.635
 74
     0
  0
LTYPE
  5
6F
330
5
100
AcDbSymbolTableRecord
100
AcDbLinetypeTableRecord
  2
PHANTOM
 70
     0
  3
Phantom ______  __  __  ______  __  __  ______
 72
    65
 73
     6
 40
12.7
 49
6.35
 74
     0
 49
-1.27
 74
     0
 49
1.27
 74
     0
 49
-1.27
 74
     0
 49
1.27
 74
     0
 49
-1.27
 74
     0
  0
LTYPE
  5
70
330
5
100
AcDbSymbolTableRecord
100
AcDbLinetypeTableRecord
  2
CENTER
 70
     0
  3
Center ____ _ ____ _ ____ _ ____ _ ____ _ ____
 72
    65
 73
     4
 40
10.16
 49
6.35
 74
     0
 49
-1.27
 74
     0
 49
1.27
 74
     0
 49
-1.27
 74
     0
  0
LTYPE
  5
71
330
5
100
AcDbSymbolTableRecord
100
AcDbLinetypeTableRecord
  2
CENTERX2
 70
     0
  3
Center (2x) ________  __  ________  __  _____
 72
    65
 73
     4
 40
20.32
 49
12.7
 74
     0
 49
-2.54
 74
     0
 49
2.54
 74
     0
 49
-2.54
 74
     0
  0
LTYPE
  5
72
330
5
100
AcDbSymbolTableRecord
100
AcDbLinetypeTableRecord
  2
DOT2
 70
     0
  3
Dot (.5x) ........................................
 72
    65
 73
     2
 40
0.635
 49
0.0
 74
     0
 49
-0.635
 74
     0
  0
ENDTAB
  0
TABLE
  2
LAYER
  5
2
330
0
100
AcDbSymbolTable
 70
     5
  0
LAYER
  5
10
330
2
100
AcDbSymbolTableRecord
100
AcDbLayerTableRecord
  2
0
 70
     0
 62
     7
  6
Continuous
370
    -3
390
F
  0
LAYER
  5
73
330
2
100
AcDbSymbolTableRecord
100
AcDbLayerTableRecord
  2
FORMAT
 70
     0
 62
     7
  6
Continuous
370
    -3
390
F
  0
LAYER
  5
74
330
2
100
AcDbSymbolTableRecord
100
AcDbLayerTableRecord
  2
SLD-0
 70
     0
 62
   179
  6
Continuous
370
    -3
390
F
  0
LAYER
  5
75
330
2
100
AcDbSymbolTableRecord
100
AcDbLayerTableRecord
  2
AAA_EKSEN
 70
     0
 62
     1
  6
CENTER
370
    -3
390
F
  0
LAYER
  5
76
330
2
100
AcDbSymbolTableRecord
100
AcDbLayerTableRecord
  2
03
 70
     0
 62
     3
  6
HIDDEN
370
    -3
390
F
  0
ENDTAB
  0
TABLE
  2
STYLE
  5
3
330
0
100
AcDbSymbolTable
 70
     1
  0
STYLE
  5
11
330
3
100
AcDbSymbolTableRecord
100
AcDbTextStyleTableRecord
  2
Standard
 70
     0
 40
0.0
 41
1.0
 50
0.0
 71
     0
 42
4.9388888889
  3
txt
  4

  0
ENDTAB
  0
TABLE
  2
VIEW
  5
6
330
0
100
AcDbSymbolTable
 70
     0
  0
ENDTAB
  0
TABLE
  2
UCS
  5
7
330
0
100
AcDbSymbolTable
 70
     0
  0
ENDTAB
  0
TABLE
  2
APPID
  5
9
330
0
100
AcDbSymbolTable
 70
     1
  0
APPID
  5
12
330
9
100
AcDbSymbolTableRecord
100
AcDbRegAppTableRecord
  2
ACAD
 70
     0
  0
ENDTAB
  0
TABLE
  2
DIMSTYLE
  5
A
330
0
100
AcDbSymbolTable
 70
     1
100
AcDbDimStyleTable
  0
DIMSTYLE
105
27
330
A
100
AcDbSymbolTableRecord
100
AcDbDimStyleTableRecord
  2
ISO-25
 70
     0
 41
2.5
 42
0.625
 43
3.75
 44
1.25
 73
     0
 74
     0
 77
     1
 78
     8
140
2.5
141
2.5
143
0.0393700787
147
0.625
171
     3
172
     1
178
     0
271
     2
272
     2
274
     3
278
    44
283
     0
284
     8
340
11
  0
ENDTAB
  0
TABLE
  2
BLOCK_RECORD
  5
1
330
0
100
AcDbSymbolTable
 70
     1
  0
BLOCK_RECORD
  5
1F
330
1
100
AcDbSymbolTableRecord
100
AcDbBlockTableRecord
  2
*Model_Space
340
22
  0
BLOCK_RECORD
  5
1B
330
1
100
AcDbSymbolTableRecord
100
AcDbBlockTableRecord
  2
*Paper_Space
340
1E
  0
BLOCK_RECORD
  5
23
330
1
100
AcDbSymbolTableRecord
100
AcDbBlockTableRecord
  2
*Paper_Space0
340
26
  0
ENDTAB
  0
ENDSEC
  0
SECTION
  2
BLOCKS
  0
BLOCK
  5
20
330
1F
100
AcDbEntity
  8
0
100
AcDbBlockBegin
  2
*Model_Space
 70
     0
 10
0.0
 20
0.0
 30
0.0
  3
*Model_Space
  1

  0
ENDBLK
  5
21
330
1F
100
AcDbEntity
  8
0
100
AcDbBlockEnd
  0
BLOCK
  5
1C
330
1B
100
AcDbEntity
 67
     1
  8
0
100
AcDbBlockBegin
  2
*Paper_Space
 70
     0
 10
0.0
 20
0.0
 30
0.0
  3
*Paper_Space
  1

  0
ENDBLK
  5
1D
330
1B
100
AcDbEntity
 67
     1
  8
0
100
AcDbBlockEnd
  0
BLOCK
  5
24
330
23
100
AcDbEntity
  8
0
100
AcDbBlockBegin
  2
*Paper_Space0
 70
     0
 10
0.0
 20
0.0
 30
0.0
  3
*Paper_Space0
  1

  0
ENDBLK
  5
25
330
23
100
AcDbEntity
  8
0
100
AcDbBlockEnd
  0
ENDSEC
  0
SECTION
  2
ENTITIES
  0
LINE
  5
77
330
1F
100
AcDbEntity
  8
0
  6
Continuous
 62
     7
370
    25
100
AcDbLine
 10
435.5990083838
 20
465.0774647391
 30
0.0
 11
435.4235490733
 21
464.6431890226
 31
0.0
  0
LINE
  5
78
330
1F
100
AcDbEntity
  8
0
  6
Continuous
 62
     7
370
    25
100
AcDbLine
 10
435.4235490733
 20
457.205650667
 30
0.0
 11
435.5990083838
 21
456.7713749505
 31
0.0
  0
LINE
  5
79
330
1F
100
AcDbEntity
  8
0
  6
Continuous
 62
     7
370
    25
100
AcDbLine
 10
439.2482683012
 20
456.7718145347
 30
0.0
 11
439.4235487977
 21
457.205650667
 31
0.0
  0
LINE
  5
7A
330
1F
100
AcDbEntity
  8
0
  6
Continuous
 62
     7
370
    25
100
AcDbLine
 10
439.4235487977
 20
464.6431890226
 30
0.0
 11
439.2482683012
 21
465.0770251549
 31
0.0
  0
LINE
  5
7B
330
1F
100
AcDbEntity
  8
0
  6
Continuous
 62
     7
370
    25
100
AcDbLine
 10
440.353048774
 20
463.4244193232
 30
0.0
 11
439.4235487977
 21
463.4244193232
 31
0.0
  0
LINE
  5
7C
330
1F
100
AcDbEntity
  8
0
  6
Continuous
 62
     7
370
    25
100
AcDbLine
 10
429.4235490212
 20
463.4244193232
 30
0.0
 11
424.4235491329
 21
463.4244193232
 31
0.0
  0
LINE
  5
7D
330
1F
100
AcDbEntity
  8
0
  6
Continuous
 62
     7
370
    25
100
AcDbLine
 10
439.4235487977
 20
458.4244203663
 30
0.0
 11
440.353048774
 21
458.4244203663
 31
0.0
  0
LINE
  5
7E
330
1F
100
AcDbEntity
  8
0
  6
Continuous
 62
     7
370
    25
100
AcDbLine
 10
440.353048774
 20
458.4244203663
 30
0.0
 11
440.7138934308
 21
459.0494197703
 31
0.0
  0
LINE
  5
7F
330
1F
100
AcDbEntity
  8
0
  6
Continuous
 62
     7
370
    25
100
AcDbLine
 10
440.7138934308
 20
462.7994199193
 30
0.0
 11
440.353048774
 21
463.4244193232
 31
0.0
  0
LINE
  5
80
330
1F
100
AcDbEntity
  8
0
  6
Continuous
 62
     7
370
    25
100
AcDbLine
 10
435.4235490733
 20
465.9244206644
 30
0.0
 11
434.4235489094
 21
465.9244206644
 31
0.0
  0
LINE
  5
81
330
1F
100
AcDbEntity
  8
0
  6
Continuous
 62
     7
370
    25
100
AcDbLine
 10
434.4235489094
 20
455.9244190252
 30
0.0
 11
435.4235490733
 21
455.9244190252
 31
0.0
  0
ARC
  5
82
330
1F
100
AcDbEntity
  8
0
  6
Continuous
 62
     7
370
    25
100
AcDbCircle
 10
399.6306551957
 20
421.7244195617
 30
0.0
 40
0.2000000000000455
100
AcDbArc
 50
90.0
 51
182.0
  0
ARC
  5
83
330
1F
100
AcDbEntity
  8
0
  6
Continuous
 62
     7
370
    25
100
AcDbCircle
 10
449.2164430702
 20
421.7244195617
 30
0.0
 40
0.2000000000000455
100
AcDbArc
 50
358.0
 51
90.0
  0
LINE
  5
84
330
1F
100
AcDbEntity
  8
0
  6
Continuous
 62
     7
370
    25
100
AcDbLine
 10
399.4307776862
 20
421.7174395828
 30
0.0
 11
399.5108509386
 21
419.4244195617
 31
0.0
  0
LINE
  5
85
330
1F
100
AcDbEntity
  8
0
  6
Continuous
 62
     7
370
    25
100
AcDbLine
 10
449.3362473273
 20
419.4244195617
 30
0.0
 11
449.4163205797
 21
421.7174395828
 31
0.0
  0
LINE
  5
86
330
1F
100
AcDbEntity
  8
0
  6
Continuous
 62
     7
370
    25
100
AcDbLine
 10
399.5108509386
 20
419.4244195617
 30
0.0
 11
399.8600596511
 21
409.4244197852
 31
0.0
  0
LINE
  5
87
330
1F
100
AcDbEntity
  8
0
  6
Continuous
 62
     7
370
    25
100
AcDbLine
 10
448.9870386148
 20
409.4244197852
 30
0.0
 11
449.3362473273
 21
419.4244195617
 31
0.0
  0
SPLINE
  5
88
330
1F
100
AcDbEntity
  8
0
  6
Continuous
 62
     7
370
    25
100
AcDbSpline
210
0.0
220
0.0
230
1.0
 70
     8
 71
     3
 72
    10
 73
     6
 74
     0
 42
0.000000001
 43
0.00000001
 40
0.0
 40
0.0
 40
0.0
 40
0.0
 40
0.0553626808734887
 40
0.8685302274287834
 40
1.0
 40
1.0
 40
1.0
 40
1.0
 10
424.4244510663951
 20
467.792411605163
 30
0.0
 10
424.6004455764673
 20
467.8162308175631
 30
0.0
 10
427.3614490077945
 20
468.1899068324647
 30
0.0
 10
430.5479231861928
 20
468.5644477952321
 30
0.0
 10
433.5610147514861
 20
468.8869191814699
 30
0.0
 10
433.9803613671709
 20
468.9317990935281
 30
0.0
  0
LINE
  5
89
330
1F
100
AcDbEntity
  8
0
  6
Continuous
 62
     7
370
    25
100
AcDbLine
 10
414.9060992473
 20
446.907568062
 30
0.0
 11
418.4235490808
 21
446.7847359276
 31
0.0
  0
ARC
  5
8A
330
1F
100
AcDbEntity
  8
0
  6
Continuous
 62
     7
370
    25
100
AcDbCircle
 10
433.9235529109
 20
469.4337991845
 30
0.0
 40
0.4999960006120641
100
AcDbArc
 50
276.5273469109
 51
0.0052834819
  0
ARC
  5
8B
330
1F
100
AcDbEntity
  8
0
  6
Continuous
 62
     7
370
    25
100
AcDbCircle
 10
414.9235491329
 20
447.4072639491
 30
0.0
 40
0.5
100
AcDbArc
 50
180.0
 51
268.0
  0
LINE
  5
8C
330
1F
100
AcDbEntity
  8
0
  6
Continuous
 62
     7
370
    25
100
AcDbLine
 10
418.931401609
 20
449.9010176307
 30
0.0
 11
424.4235378065
 21
449.8134993858
 31
0.0
  0
ARC
  5
8D
330
1F
100
AcDbEntity
  8
0
  6
Continuous
 62
     7
370
    25
100
AcDbCircle
 10
418.9235492836
 20
449.3974176999
 30
0.0
 40
0.4999995252854865
100
AcDbArc
 50
89.3542798907
 51
151.1684503042
  0
ARC
  5
8E
330
1F
100
AcDbEntity
  8
0
  6
Continuous
 62
     7
370
    25
100
AcDbCircle
 10
434.5235491329
 20
476.3227055268
 30
0.0
 40
0.1000000000000227
100
AcDbArc
 50
96.9821339711
 51
180.0
  0
ARC
  5
8F
330
1F
100
AcDbEntity
  8
0
  6
Continuous
 62
     7
370
    25
100
AcDbCircle
 10
434.7235491329
 20
476.5515024498
 30
0.0
 40
0.1000000000000322
100
AcDbArc
 50
277.68414263
 51
0.0
  0
LINE
  5
90
330
1F
100
AcDbEntity
  8
0
  6
Continuous
 62
     7
370
    25
100
AcDbLine
 10
434.5101777414
 20
476.421808163
 30
0.0
 11
434.7369203293
 21
476.4524002469
 31
0.0
  0
ARC
  5
91
330
1F
100
AcDbEntity
  8
0
  6
Continuous
 62
     7
370
    25
100
AcDbCircle
 10
399.9235491329
 20
435.568555937
 30
0.0
 40
0.500000000000036
100
AcDbArc
 50
92.0
 51
178.1731574893
  0
ARC
  5
92
330
1F
100
AcDbEntity
  8
0
  6
Continuous
 62
     7
370
    25
100
AcDbCircle
 10
448.9235491329
 20
435.568555937
 30
0.0
 40
0.4999999999999772
100
AcDbArc
 50
1.3025584609
 51
88.0
  0
LINE
  5
93
330
1F
100
AcDbEntity
  8
0
  6
Continuous
 62
     7
370
    25
100
AcDbLine
 10
399.4235487604
 20
426.124419356
 30
0.0
 11
399.4235487604
 21
421.9244195058
 31
0.0
  0
LINE
  5
94
330
1F
100
AcDbEntity
  8
0
  6
Continuous
 62
     7
370
    25
100
AcDbLine
 10
399.4235487604
 20
435.5685555286
 30
0.0
 11
399.4235487604
 21
429.7244197599
 31
0.0
  0
LINE
  5
95
330
1F
100
AcDbEntity
  8
0
  6
Continuous
 62
     7
370
    25
100
AcDbLine
 10
449.4235495055
 20
429.7244197599
 30
0.0
 11
449.4235495055
 21
435.5685555286
 31
0.0
  0
LINE
  5
96
330
1F
100
AcDbEntity
  8
0
  6
Continuous
 62
     7
370
    25
100
AcDbLine
 10
449.4235495055
 20
421.9244195058
 30
0.0
 11
449.4235495055
 21
426.124419356
 31
0.0
  0
SPLINE
  5
97
330
1F
100
AcDbEntity
  8
0
  6
Continuous
 62
     7
370
    25
100
AcDbSpline
210
0.0
220
0.0
230
1.0
 70
     8
 71
     3
 72
    10
 73
     6
 74
     0
 42
0.000000001
 43
0.00000001
 40
0.0
 40
0.0
 40
0.0
 40
0.0
 40
0.4144434085350747
 40
0.8417963906712612
 40
1.0
 40
1.0
 40
1.0
 40
1.0
 10
435.7871858352472
 20
464.1929876900152
 30
0.0
 10
435.6819847349072
 20
464.3568898233927
 30
0.0
 10
435.4683056058948
 20
464.6897995077047
 30
0.0
 10
435.575057022752
 20
465.0926793967413
 30
0.0
 10
435.7420643784342
 20
465.3227349892265
 30
0.0
 10
435.7871858352472
 20
465.3848905957178
 30
0.0
  0
SPLINE
  5
98
330
1F
100
AcDbEntity
  8
0
  6
Continuous
 62
     7
370
    25
100
AcDbSpline
210
0.0
220
0.0
230
1.0
 70
     8
 71
     3
 72
    10
 73
     6
 74
     0
 42
0.000000001
 43
0.00000001
 40
0.0
 40
0.0
 40
0.0
 40
0.0
 40
0.4144429393880153
 40
0.8417966287735467
 40
1.0
 40
1.0
 40
1.0
 40
1.0
 10
435.7871858352472
 20
459.7325188017324
 30
0.0
 10
435.6819848125863
 20
460.3458894629669
 30
0.0
 10
435.468305539029
 20
461.591738543128
 30
0.0
 10
435.5750566322387
 20
463.0994541987489
 30
0.0
 10
435.7420643772952
 20
463.9603849896541
 30
0.0
 10
435.7871858352472
 20
464.1929876900152
 30
0.0
  0
SPLINE
  5
99
330
1F
100
AcDbEntity
  8
0
  6
Continuous
 62
     7
370
    25
100
AcDbSpline
210
0.0
220
0.0
230
1.0
 70
     8
 71
     3
 72
    11
 73
     7
 74
     0
 42
0.000000001
 43
0.00000001
 40
0.0
 40
0.0
 40
0.0
 40
0.0
 40
0.0969453162172446
 40
0.4786195755777536
 40
0.871170441306747
 40
1.0
 40
1.0
 40
1.0
 40
1.0
 10
435.7871858352472
 20
456.4639490938619
 30
0.0
 10
435.7586942375594
 20
456.5683370650587
 30
0.0
 10
435.6180310583062
 20
457.0837010704498
 30
0.0
 10
435.48251877591
 20
458.0392223521587
 30
0.0
 10
435.5986452249206
 20
459.032024508141
 30
0.0
 10
435.7498292823567
 20
459.5937261454307
 30
0.0
 10
435.7871858352472
 20
459.7325188017324
 30
0.0
  0
SPLINE
  5
9A
330
1F
100
AcDbEntity
  8
0
  6
Continuous
 62
     7
370
    25
100
AcDbSpline
210
0.0
220
0.0
230
1.0
 70
     8
 71
     3
 72
     9
 73
     5
 74
     0
 42
0.000000001
 43
0.00000001
 40
0.0
 40
0.0
 40
0.0
 40
0.0
 40
0.4123712236325942
 40
1.0
 40
1.0
 40
1.0
 40
1.0
 10
435.6297578612019
 20
456.7837987935976
 30
0.0
 10
435.6355348759898
 20
456.7393547430598
 30
0.0
 10
435.6495441338062
 20
456.6315779439267
 30
0.0
 10
435.7362405350618
 20
456.5259935324068
 30
0.0
 10
435.7871858352472
 20
456.4639490938619
 30
0.0
  0
SPLINE
  5
9B
330
1F
100
AcDbEntity
  8
0
  6
Continuous
 62
     7
370
    25
100
AcDbSpline
210
0.0
220
0.0
230
1.0
 70
     8
 71
     3
 72
    10
 73
     6
 74
     0
 42
0.000000001
 43
0.00000001
 40
0.0
 40
0.0
 40
0.0
 40
0.0
 40
0.414443718831515
 40
0.8417966591235184
 40
1.0
 40
1.0
 40
1.0
 40
1.0
 10
439.0599129670907
 20
464.1929876900152
 30
0.0
 10
439.1651142513899
 20
463.5796157146464
 30
0.0
 10
439.3787936622113
 20
462.333766263432
 30
0.0
 10
439.2720402194315
 20
460.8260513877256
 30
0.0
 10
439.1050340505921
 20
459.9651215181662
 30
0.0
 10
439.0599129670907
 20
459.7325188017324
 30
0.0
  0
SPLINE
  5
9C
330
1F
100
AcDbEntity
  8
0
  6
Continuous
 62
     7
370
    25
100
AcDbSpline
210
0.0
220
0.0
230
1.0
 70
     8
 71
     3
 72
    10
 73
     6
 74
     0
 42
0.000000001
 43
0.00000001
 40
0.0
 40
0.0
 40
0.0
 40
0.0
 40
0.4144434062148994
 40
0.8417964098607096
 40
0.9999999999999999
 40
0.9999999999999999
 40
0.9999999999999999
 40
0.9999999999999999
 10
439.0599129670907
 20
465.3848905957178
 30
0.0
 10
439.1651142565274
 20
465.2209884570443
 30
0.0
 10
439.378793775691
 20
464.8880787525227
 30
0.0
 10
439.2720400240258
 20
464.4851989261069
 30
0.0
 10
439.1050340460328
 20
464.2551432982717
 30
0.0
 10
439.0599129670907
 20
464.1929876900152
 30
0.0
  0
LINE
  5
9D
330
1F
100
AcDbEntity
  8
0
  6
Continuous
 62
     7
370
    25
100
AcDbLine
 10
439.0599129671
 20
456.4639490939
 30
0.0
 11
439.2171546766
 21
456.7843873895
 31
0.0
  0
SPLINE
  5
9E
330
1F
100
AcDbEntity
  8
0
  6
Continuous
 62
     7
370
    25
100
AcDbSpline
210
0.0
220
0.0
230
1.0
 70
     8
 71
     3
 72
    11
 73
     7
 74
     0
 42
0.000000001
 43
0.00000001
 40
0.0
 40
0.0
 40
0.0
 40
0.0
 40
0.1288293493091846
 40
0.5104158827638786
 40
0.9030548512137455
 40
1.0
 40
1.0
 40
1.0
 40
1.0
 10
439.0599129670907
 20
459.7325188017324
 30
0.0
 10
439.0972652186783
 20
459.5937239534326
 30
0.0
 10
439.2452531000853
 20
459.0438252277315
 30
0.0
 10
439.364746589148
 20
458.051607196101
 30
0.0
 10
439.2323030361874
 20
457.0954995211306
 30
0.0
 10
439.088406653367
 20
456.5683356158727
 30
0.0
 10
439.0599129670907
 20
456.4639490938619
 30
0.0
  0
LINE
  5
9F
330
1F
100
AcDbEntity
  8
0
  6
Continuous
 62
     7
370
    25
100
AcDbLine
 10
439.4235487977
 20
457.205650667
 30
0.0
 11
439.4235487977
 21
464.6431890226
 31
0.0
  0
LINE
  5
A0
330
1F
100
AcDbEntity
  8
0
  6
Continuous
 62
     7
370
    25
100
AcDbLine
 10
439.0599129671
 20
464.19298769
 30
0.0
 11
435.7871858352
 21
464.19298769
 31
0.0
  0
LINE
  5
A1
330
1F
100
AcDbEntity
  8
0
  6
Continuous
 62
     7
370
    25
100
AcDbLine
 10
439.0599129671
 20
459.7325188017
 30
0.0
 11
435.7871858352
 21
459.7325188017
 31
0.0
  0
LINE
  5
A2
330
1F
100
AcDbEntity
  8
0
  6
Continuous
 62
     7
370
    25
100
AcDbLine
 10
439.0599129671
 20
456.4639490939
 30
0.0
 11
435.7871858352
 21
456.4639490939
 31
0.0
  0
LINE
  5
A3
330
1F
100
AcDbEntity
  8
0
  6
Continuous
 62
     7
370
    25
100
AcDbLine
 10
439.0599129671
 20
465.3848905957
 30
0.0
 11
435.7871858352
 21
465.3848905957
 31
0.0
  0
LINE
  5
A4
330
1F
100
AcDbEntity
  8
0
  6
Continuous
 62
     7
370
    25
100
AcDbLine
 10
440.353048774
 20
460.2343228555
 30
0.0
 11
440.353048774
 21
463.4244193232
 31
0.0
  0
LINE
  5
A5
330
1F
100
AcDbEntity
  8
0
  6
Continuous
 62
     7
370
    25
100
AcDbLine
 10
440.353048774
 20
458.4244203663
 30
0.0
 11
440.353048774
 21
460.2343228555
 31
0.0
  0
LINE
  5
A6
330
1F
100
AcDbEntity
  8
0
  6
Continuous
 62
     7
370
    25
100
AcDbLine
 10
440.7138934308
 20
462.7994199193
 30
0.0
 11
440.7138934308
 21
459.0494197703
 31
0.0
  0
CIRCLE
  5
A7
330
1F
100
AcDbEntity
  8
0
  6
Continuous
 62
     7
370
    25
100
AcDbCircle
 10
424.4235491329
 20
509.9244195617
 30
0.0
 40
30.55000000000001
  0
CIRCLE
  5
A8
330
1F
100
AcDbEntity
  8
0
  6
Continuous
 62
     7
370
    25
100
AcDbCircle
 10
424.4235491329
 20
509.9244195617
 30
0.0
 40
30.85000000000002
  0
LINE
  5
A9
330
1F
100
AcDbEntity
  8
0
  6
Continuous
 62
     7
370
    25
100
AcDbLine
 10
399.4235487604
 20
426.124419356
 30
0.0
 11
399.4235487604
 21
429.7244197599
 31
0.0
  0
LINE
  5
AA
330
1F
100
AcDbEntity
  8
0
  6
Continuous
 62
     7
370
    25
100
AcDbLine
 10
449.4235495055
 20
427.9244200236
 30
0.0
 11
449.4235495055
 21
426.124419356
 31
0.0
  0
LINE
  5
AB
330
1F
100
AcDbEntity
  8
0
  6
Continuous
 62
     7
370
    25
100
AcDbLine
 10
449.4235495055
 20
429.7244197599
 30
0.0
 11
449.4235495055
 21
427.9244200236
 31
0.0
  0
LINE
  5
AC
330
1F
100
AcDbEntity
  8
0
  6
Continuous
 62
     7
370
    25
100
AcDbLine
 10
435.4235490733
 20
465.9244206644
 30
0.0
 11
435.4235490733
 21
455.9244190252
 31
0.0
  0
CIRCLE
  5
AD
330
1F
100
AcDbEntity
  8
0
  6
Continuous
 62
     7
370
    25
100
AcDbCircle
 10
424.4235491329
 20
509.9244195617
 30
0.0
 40
30.99999999999995
  0
CIRCLE
  5
AE
330
1F
100
AcDbEntity
  8
0
  6
Continuous
 62
     7
370
    25
100
AcDbCircle
 10
424.4235491329
 20
509.9244195617
 30
0.0
 40
31.99999999999995
  0
LINE
  5
AF
330
1F
100
AcDbEntity
  8
0
  6
Continuous
 62
     7
370
    25
100
AcDbLine
 10
424.2735491258
 20
421.9244195058
 30
0.0
 11
424.2735491258
 21
421.8157038933
 31
0.0
  0
ARC
  5
B0
330
1F
100
AcDbEntity
  8
0
  6
Continuous
 62
     7
370
    25
100
AcDbCircle
 10
424.2487393245
 20
422.1090800431
 30
0.0
 40
0.2944233201991088
100
AcDbArc
 50
255.2038212374
 51
274.8338038472
  0
ARC
  5
B1
330
1F
100
AcDbEntity
  8
0
  6
Continuous
 62
     7
370
    25
100
AcDbCircle
 10
424.2735491329
 20
421.8244195617
 30
0.0
 40
0.1000000000000796
100
AcDbArc
 50
90.0
 51
180.0
  0
LINE
  5
B2
330
1F
100
AcDbEntity
  8
0
  6
Continuous
 62
     7
370
    25
100
AcDbLine
 10
424.2735491258
 20
421.9244195058
 30
0.0
 11
424.5735491401
 21
421.9244195058
 31
0.0
  0
LINE
  5
B3
330
1F
100
AcDbEntity
  8
0
  6
Continuous
 62
     7
370
    25
100
AcDbLine
 10
424.5735491401
 20
421.9244195058
 30
0.0
 11
424.5735491401
 21
421.8157038933
 31
0.0
  0
LINE
  5
B4
330
1F
100
AcDbEntity
  8
0
  6
Continuous
 62
     7
370
    25
100
AcDbLine
 10
424.5735491401
 20
421.8157038933
 30
0.0
 11
424.2735491258
 21
421.8157038933
 31
0.0
  0
ARC
  5
B5
330
1F
100
AcDbEntity
  8
0
  6
Continuous
 62
     7
370
    25
100
AcDbCircle
 10
424.5735491329
 20
421.8244195617
 30
0.0
 40
0.1000000000000796
100
AcDbArc
 50
0.0
 51
90.0
  0
ARC
  5
B6
330
1F
100
AcDbEntity
  8
0
  6
Continuous
 62
     7
370
    25
100
AcDbCircle
 10
424.5983589414
 20
422.1090800431
 30
0.0
 40
0.2944233201991088
100
AcDbArc
 50
265.1661961528
 51
284.7961787626
  0
LINE
  5
B7
330
1F
100
AcDbEntity
  8
0
  6
Continuous
 62
     7
370
    25
100
AcDbLine
 10
424.5735491401
 20
419.6157039926
 30
0.0
 11
424.5735491401
 21
421.8157038933
 31
0.0
  0
LINE
  5
B8
330
1F
100
AcDbEntity
  8
0
  6
Continuous
 62
     7
370
    25
100
AcDbLine
 10
424.6735491448
 20
421.8244196757
 30
0.0
 11
424.6735491448
 21
419.6244195566
 31
0.0
  0
ARC
  5
B9
330
1F
100
AcDbEntity
  8
0
  6
Continuous
 62
     7
370
    25
100
AcDbCircle
 10
424.5983592782
 20
419.9090834072
 30
0.0
 40
0.2944266018864843
100
AcDbArc
 50
265.1661843836
 51
284.7959422885
  0
LINE
  5
BA
330
1F
100
AcDbEntity
  8
0
  6
Continuous
 62
     7
370
    25
100
AcDbLine
 10
424.3735491342
 20
419.5157039878
 30
0.0
 11
424.4735491317
 21
419.5157039878
 31
0.0
  0
ARC
  5
BB
330
1F
100
AcDbEntity
  8
0
  6
Continuous
 62
     7
370
    25
100
AcDbCircle
 10
424.3735491329
 20
419.6157039874
 30
0.0
 40
0.1000000000000227
100
AcDbArc
 50
180.0
 51
270.0
  0
LINE
  5
BC
330
1F
100
AcDbEntity
  8
0
  6
Continuous
 62
     7
370
    25
100
AcDbLine
 10
424.2735491258
 20
421.8157038933
 30
0.0
 11
424.2735491258
 21
419.6157039926
 31
0.0
  0
ARC
  5
BD
330
1F
100
AcDbEntity
  8
0
  6
Continuous
 62
     7
370
    25
100
AcDbCircle
 10
424.4735491329
 20
419.6157039874
 30
0.0
 40
0.1000000000000227
100
AcDbArc
 50
270.0
 51
0.0
  0
LINE
  5
BE
330
1F
100
AcDbEntity
  8
0
  6
Continuous
 62
     7
370
    25
100
AcDbLine
 10
424.1735491211
 20
419.6244195566
 30
0.0
 11
424.1735491211
 21
421.8244196757
 31
0.0
  0
ARC
  5
BF
330
1F
100
AcDbEntity
  8
0
  6
Continuous
 62
     7
370
    25
100
AcDbCircle
 10
424.2487389877
 20
419.9090834072
 30
0.0
 40
0.2944266018865055
100
AcDbArc
 50
255.2040577115
 51
274.8338156164
  0
ARC
  5
C0
330
1F
100
AcDbEntity
  8
0
  6
Continuous
 62
     7
370
    25
100
AcDbCircle
 10
424.4735491329
 20
419.6244195617
 30
0.0
 40
0.2000000000000455
100
AcDbArc
 50
270.0
 51
0.0
  0
LINE
  5
C1
330
1F
100
AcDbEntity
  8
0
  6
Continuous
 62
     7
370
    25
100
AcDbLine
 10
424.4735491317
 20
419.5157039878
 30
0.0
 11
424.4735491317
 21
419.4244195617
 31
0.0
  0
LINE
  5
C2
330
1F
100
AcDbEntity
  8
0
  6
Continuous
 62
     7
370
    25
100
AcDbLine
 10
424.3735491342
 20
419.5157039878
 30
0.0
 11
424.3735491342
 21
419.4244195617
 31
0.0
  0
ARC
  5
C3
330
1F
100
AcDbEntity
  8
0
  6
Continuous
 62
     7
370
    25
100
AcDbCircle
 10
424.3735491329
 20
419.6244195617
 30
0.0
 40
0.2000000000000455
100
AcDbArc
 50
180.0
 51
270.0
  0
LINE
  5
C4
330
1F
100
AcDbEntity
  8
0
  6
Continuous
 62
     7
370
    25
100
AcDbLine
 10
424.4735491317
 20
419.4244195617
 30
0.0
 11
424.3735491342
 21
419.4244195617
 31
0.0
  0
SPLINE
  5
C5
330
1F
100
AcDbEntity
  8
0
  6
Continuous
 62
     7
370
    25
100
AcDbSpline
210
0.0
220
0.0
230
1.0
 70
     8
 71
     3
 72
    10
 73
     6
 74
     0
 42
0.000000001
 43
0.00000001
 40
0.0
 40
0.0
 40
0.0
 40
0.0
 40
0.5
 40
0.5
 40
1.0
 40
1.0
 40
1.0
 40
1.0
 10
424.7735491329481
 20
421.9244195616678
 30
0.0
 10
424.7731680066075
 20
421.9244195616678
 30
0.0
 10
424.7727988196472
 20
421.9016480066495
 30
0.0
 10
424.7722854593598
 20
421.8249744626902
 30
0.0
 10
424.7721421671314
 20
421.7714147619305
 30
0.0
 10
424.7721551552831
 20
421.7174396623273
 30
0.0
  0
ARC
  5
C6
330
1F
100
AcDbEntity
  8
0
  6
Continuous
 62
     7
370
    25
100
AcDbCircle
 10
424.7477585801
 20
421.0119711612
 30
0.0
 40
0.7058901382125765
100
AcDbArc
 50
88.0193806181
 51
96.0345915807
  0
SPLINE
  5
C7
330
1F
100
AcDbEntity
  8
0
  6
Continuous
 62
     7
370
    25
100
AcDbSpline
210
0.0
220
0.0
230
1.0
 70
     8
 71
     3
 72
    12
 73
     8
 74
     0
 42
0.000000001
 43
0.00000001
 40
0.0
 40
0.0
 40
0.0
 40
0.0
 40
0.2500000000000005
 40
0.2500000000000005
 40
0.500000000000001
 40
0.500000000000001
 40
1.0
 40
1.0
 40
1.0
 40
1.0
 10
424.673549132948
 20
421.8244195616678
 30
0.0
 10
424.673549132948
 20
421.8317185694785
 30
0.0
 10
424.6805927362555
 20
421.8413870600141
 30
0.0
 10
424.6979568633975
 20
421.8634346084039
 30
0.0
 10
424.7081968329662
 20
421.8756275079365
 30
0.0
 10
424.7375327521732
 20
421.9085249099729
 30
0.0
 10
424.7558819590169
 20
421.9244195616678
 30
0.0
 10
424.7735491329481
 20
421.9244195616678
 30
0.0
  0
ARC
  5
C8
330
1F
100
AcDbEntity
  8
0
  6
Continuous
 62
     7
370
    25
100
AcDbCircle
 10
424.0993396858
 20
421.0119711612
 30
0.0
 40
0.7058901382125765
100
AcDbArc
 50
83.9654084193
 51
91.9806193819
  0
SPLINE
  5
C9
330
1F
100
AcDbEntity
  8
0
  6
Continuous
 62
     7
370
    25
100
AcDbSpline
210
0.0
220
0.0
230
1.0
 70
     8
 71
     3
 72
    10
 73
     6
 74
     0
 42
0.000000001
 43
0.00000001
 40
0.0
 40
0.0
 40
0.0
 40
0.0
 40
0.5
 40
0.5
 40
1.0
 40
1.0
 40
1.0
 40
1.0
 10
424.074943110613
 20
421.7174396623273
 30
0.0
 10
424.0749560987647
 20
421.7714147619305
 30
0.0
 10
424.0748128065364
 20
421.8249744626902
 30
0.0
 10
424.0742994462489
 20
421.9016480066495
 30
0.0
 10
424.0739302592886
 20
421.9244195616678
 30
0.0
 10
424.073549132948
 20
421.9244195616678
 30
0.0
  0
SPLINE
  5
CA
330
1F
100
AcDbEntity
  8
0
  6
Continuous
 62
     7
370
    25
100
AcDbSpline
210
0.0
220
0.0
230
1.0
 70
     8
 71
     3
 72
    12
 73
     8
 74
     0
 42
0.000000001
 43
0.00000001
 40
0.0
 40
0.0
 40
0.0
 40
0.0
 40
0.2499999999999995
 40
0.2499999999999995
 40
0.499999999999999
 40
0.499999999999999
 40
1.0
 40
1.0
 40
1.0
 40
1.0
 10
424.173549132948
 20
421.8244195616678
 30
0.0
 10
424.173549132948
 20
421.8317185694785
 30
0.0
 10
424.1665055296406
 20
421.8413870600141
 30
0.0
 10
424.1491414024986
 20
421.8634346084039
 30
0.0
 10
424.1389014329299
 20
421.8756275079365
 30
0.0
 10
424.1095655137229
 20
421.9085249099729
 30
0.0
 10
424.0912163068789
 20
421.9244195616678
 30
0.0
 10
424.073549132948
 20
421.9244195616678
 30
0.0
  0
LWPOLYLINE
  5
CB
330
1F
100
AcDbEntity
  8
0
  6
Continuous
 62
     7
370
    25
100
AcDbPolyline
 90
        4
 70
   128
 43
0.0
 10
424.7721551634
 20
421.7174395828
 10
424.772154756
 20
421.5175614602
 10
424.7721532134
 20
420.7180489696
 10
424.7721510598
 20
419.6174396577
  0
SPLINE
  5
CC
330
1F
100
AcDbEntity
  8
0
  6
Continuous
 62
     7
370
    25
100
AcDbSpline
210
0.0
220
0.0
230
1.0
 70
     8
 71
     3
 72
    20
 73
    16
 74
     0
 42
0.000000001
 43
0.00000001
 40
0.0000000000000001
 40
0.0000000000000001
 40
0.0000000000000001
 40
0.0000000000000001
 40
0.0000337716595465
 40
0.0000337716595465
 40
0.0000337716595465
 40
0.000067511137753
 40
0.000067511137753
 40
0.000067511137753
 40
0.0001011901982228
 40
0.0001011901982228
 40
0.0001011901982228
 40
0.000134802297231
 40
0.000134802297231
 40
0.000134802297231
 40
0.0001552590143654
 40
0.0001552590143654
 40
0.0001552590143654
 40
0.0001552590143654
 10
424.673549132948
 20
419.6244195616678
 30
0.0
 10
424.6735491329481
 20
419.6236380201507
 30
0.0
 10
424.6754817441881
 20
419.6228457761174
 30
0.0
 10
424.6791915666855
 20
419.6221078931122
 30
0.0
 10
424.6828977195235
 20
419.6213707400015
 30
0.0
 10
424.6884798348733
 20
419.6206676380373
 30
0.0
 10
424.6954850151696
 20
419.6200568414221
 30
0.0
 10
424.7024773102959
 20
419.6194471682924
 30
0.0
 10
424.7110807893092
 20
419.6189127150413
 30
0.0
 10
424.7205880014171
 20
419.6184983500369
 30
0.0
 10
424.7300759709447
 20
419.6180848237067
 30
0.0
 10
424.7407270082556
 20
419.6177795122145
 30
0.0
 10
424.7516550132329
 20
419.6176083425746
 30
0.0
 10
424.7583661830305
 20
419.6175032228824
 30
0.0
 10
424.7652718953001
 20
419.6174463765735
 30
0.0
 10
424.7721510694331
 20
419.6174396623273
 30
0.0
  0
SPLINE
  5
CD
330
1F
100
AcDbEntity
  8
0
  6
Continuous
 62
     7
370
    25
100
AcDbSpline
210
0.0
220
0.0
230
1.0
 70
     8
 71
     3
 72
    20
 73
    16
 74
     0
 42
0.000000001
 43
0.00000001
 40
0.0
 40
0.0
 40
0.0
 40
0.0
 40
0.000020639561723
 40
0.000020639561723
 40
0.000020639561723
 40
0.0000545520896985
 40
0.0000545520896985
 40
0.0000545520896985
 40
0.0000885321776452
 40
0.0000885321776452
 40
0.0000885321776452
 40
0.0001225732233497
 40
0.0001225732233497
 40
0.0001225732233497
 40
0.0001566467380346
 40
0.0001566467380346
 40
0.0001566467380346
 40
0.0001566467380346
 10
424.0749471964629
 20
419.6174396623271
 30
0.0
 10
424.081826370596
 20
419.6174463765733
 30
0.0
 10
424.0887320828657
 20
419.6175032228821
 30
0.0
 10
424.0954432526635
 20
419.6176083425742
 30
0.0
 10
424.1063712576407
 20
419.6177795122142
 30
0.0
 10
424.1170222949517
 20
419.618084823706
 30
0.0
 10
424.1265102644791
 20
419.6184983500363
 30
0.0
 10
424.1360174765871
 20
419.6189127150407
 30
0.0
 10
424.1446209556004
 20
419.6194471682917
 30
0.0
 10
424.1516132507267
 20
419.6200568414214
 30
0.0
 10
424.1586184310229
 20
419.6206676380367
 30
0.0
 10
424.1642005463727
 20
419.6213707400015
 30
0.0
 10
424.1679066992107
 20
419.6221078931122
 30
0.0
 10
424.171616521708
 20
419.6228457761174
 30
0.0
 10
424.1735491329481
 20
419.6236380201507
 30
0.0
 10
424.173549132948
 20
419.6244195616679
 30
0.0
  0
LWPOLYLINE
  5
CE
330
1F
100
AcDbEntity
  8
0
  6
Continuous
 62
     7
370
    25
100
AcDbPolyline
 90
        4
 70
   128
 43
0.0
 10
424.0749472061
 20
419.6174396577
 10
424.074947177
 20
419.6242976989
 10
424.0749456345
 20
420.4238102914
 10
424.0749431025
 20
421.7174395828
  0
SPLINE
  5
CF
330
1F
100
AcDbEntity
  8
0
  6
Continuous
 62
     7
370
    25
100
AcDbSpline
210
0.0
220
0.0
230
1.0
 70
    24
 71
     3
 72
    10
 73
     6
 74
     0
 42
0.000000001
 43
0.00000001
 40
0.0
 40
0.0
 40
0.0
 40
0.0
 40
0.5
 40
0.5
 40
1.0
 40
1.0
 40
1.0
 40
1.0
 10
424.573549132948
 20
421.9244195616678
 30
0.0
 10
424.573549132948
 20
421.9244195616678
 30
0.0
 10
424.5989147120557
 20
421.9244195616678
 30
0.0
 10
424.6750136479465
 20
421.9244195616678
 30
0.0
 10
424.7245554878174
 20
421.9244195616678
 30
0.0
 10
424.7735491329481
 20
421.9244195616678
 30
0.0
  0
SPLINE
  5
D0
330
1F
100
AcDbEntity
  8
0
  6
Continuous
 62
     7
370
    25
100
AcDbSpline
210
0.0
220
0.0
230
1.0
 70
    24
 71
     3
 72
    10
 73
     6
 74
     0
 42
0.000000001
 43
0.00000001
 40
0.0
 40
0.0
 40
0.0
 40
0.0
 40
0.5
 40
0.5
 40
1.0
 40
1.0
 40
1.0
 40
1.0
 10
424.2735491329481
 20
421.9244195616678
 30
0.0
 10
424.2735491329481
 20
421.9244195616678
 30
0.0
 10
424.2481835538404
 20
421.9244195616678
 30
0.0
 10
424.1720846179496
 20
421.9244195616678
 30
0.0
 10
424.1225427780788
 20
421.9244195616678
 30
0.0
 10
424.073549132948
 20
421.9244195616678
 30
0.0
  0
SPLINE
  5
D1
330
1F
100
AcDbEntity
  8
0
  6
Continuous
 62
     7
370
    25
100
AcDbSpline
210
0.0
220
0.0
230
1.0
 70
     8
 71
     3
 72
    23
 73
    19
 74
     0
 42
0.000000001
 43
0.00000001
 40
0.0
 40
0.0
 40
0.0
 40
0.0
 40
0.0586103779163391
 40
0.1174619445709236
 40
0.1781642965248878
 40
0.2421875267543659
 40
0.3683969553361303
 40
0.4365772248052388
 40
0.4543617086583026
 40
0.4714389978384416
 40
0.5004718199550201
 40
0.5294518045712694
 40
0.5464714172132704
 40
0.5641600563135901
 40
0.6318779651529127
 40
0.757104226684417
 40
0.8823176434739967
 40
1.0
 40
1.0
 40
1.0
 40
1.0
 10
425.0516775315743
 20
419.4244195616678
 30
0.0
 10
425.0383580487355
 20
419.4250536369569
 30
0.0
 10
425.0116642717874
 20
419.4263243968311
 30
0.0
 10
424.9723193387228
 20
419.4368212445488
 30
0.0
 10
424.9340579427126
 20
419.4536112354484
 30
0.0
 10
424.8857429976302
 20
419.4841364381341
 30
0.0
 10
424.8429978515074
 20
419.5250402726359
 30
0.0
 10
424.8123586548012
 20
419.5621197283251
 30
0.0
 10
424.7985944425295
 20
419.5811063565659
 30
0.0
 10
424.7889261759667
 20
419.59175376331
 30
0.0
 10
424.7720777450751
 20
419.6005485611079
 30
0.0
 10
424.755236320916
 20
419.5917354157162
 30
0.0
 10
424.7456477419992
 20
419.5810679302791
 30
0.0
 10
424.7319419105446
 20
419.5622054829073
 30
0.0
 10
424.7014576223867
 20
419.5253413904721
 30
0.0
 10
424.6489953175991
 20
419.4753826978385
 30
0.0
 10
424.5746233421414
 20
419.4326586942088
 30
0.0
 10
424.5192256394767
 20
419.4271085781469
 30
0.0
 10
424.4923855997892
 20
419.4244195616678
 30
0.0
  0
SPLINE
  5
D2
330
1F
100
AcDbEntity
  8
0
  6
Continuous
 62
     7
370
    25
100
AcDbSpline
210
0.0
220
0.0
230
1.0
 70
     8
 71
     3
 72
    10
 73
     6
 74
     0
 42
0.000000001
 43
0.00000001
 40
0.0
 40
0.0
 40
0.0
 40
0.0
 40
0.5
 40
0.5
 40
1.0
 40
1.0
 40
1.0
 40
1.0
 10
425.0516775315744
 20
419.4244195616678
 30
0.0
 10
424.9919194595309
 20
419.4244195616678
 30
0.0
 10
424.9348766727851
 20
419.4483476475577
 30
0.0
 10
424.8416804905273
 20
419.5215120247464
 30
0.0
 10
424.8060761512402
 20
419.5693889538572
 30
0.0
 10
424.7721510694331
 20
419.6174396623273
 30
0.0
  0
SPLINE
  5
D3
330
1F
100
AcDbEntity
  8
0
  6
Continuous
 62
     7
370
    25
100
AcDbSpline
210
0.0
220
0.0
230
1.0
 70
    24
 71
     3
 72
     8
 73
     4
 74
     0
 42
0.000000001
 43
0.00000001
 40
0.0
 40
0.0
 40
0.0
 40
0.0
 40
1.0
 40
1.0
 40
1.0
 40
1.0
 10
424.4923855997893
 20
419.4244195616678
 30
0.0
 10
424.4798474842641
 20
419.4244195616678
 30
0.0
 10
424.4735491329481
 20
419.4244195616678
 30
0.0
 10
424.4735491329481
 20
419.4244195616678
 30
0.0
  0
SPLINE
  5
D4
330
1F
100
AcDbEntity
  8
0
  6
Continuous
 62
     7
370
    25
100
AcDbSpline
210
0.0
220
0.0
230
1.0
 70
     8
 71
     3
 72
    10
 73
     6
 74
     0
 42
0.000000001
 43
0.00000001
 40
0.0
 40
0.0
 40
0.0
 40
0.0
 40
0.5
 40
0.5
 40
1.0
 40
1.0
 40
1.0
 40
1.0
 10
423.7954207343217
 20
419.4244195616678
 30
0.0
 10
423.8551788063651
 20
419.4244195616678
 30
0.0
 10
423.912221593111
 20
419.4483476475577
 30
0.0
 10
424.0054177753688
 20
419.5215120247464
 30
0.0
 10
424.0410221146549
 20
419.5693889538579
 30
0.0
 10
424.0749471964629
 20
419.6174396623273
 30
0.0
  0
SPLINE
  5
D5
330
1F
100
AcDbEntity
  8
0
  6
Continuous
 62
     7
370
    25
100
AcDbSpline
210
0.0
220
0.0
230
1.0
 70
     8
 71
     3
 72
    23
 73
    19
 74
     0
 42
0.000000001
 43
0.00000001
 40
0.0
 40
0.0
 40
0.0
 40
0.0
 40
0.0586101502189316
 40
0.1174617199121453
 40
0.1781641930196313
 40
0.2421875510474695
 40
0.3683966595685654
 40
0.436576426990051
 40
0.4543608712023019
 40
0.4714388732394775
 40
0.5004732640696906
 40
0.5294517055706155
 40
0.5464706159452516
 40
0.5641593080310635
 40
0.6318776383485075
 40
0.7571040896052809
 40
0.8823172650905102
 40
1.0
 40
1.0
 40
1.0
 40
1.0
 10
424.3547126661069
 20
419.4244195616678
 30
0.0
 10
424.3413886066518
 20
419.4250536218102
 30
0.0
 10
424.3146856049712
 20
419.4263243538349
 30
0.0
 10
424.275320777759
 20
419.4368209032922
 30
0.0
 10
424.2370349038725
 20
419.4536103933478
 30
0.0
 10
424.1886818368405
 20
419.484134647736
 30
0.0
 10
424.1458913906254
 20
419.5250370951114
 30
0.0
 10
424.1152136203426
 20
419.5621157050676
 30
0.0
 10
424.1014299337423
 20
419.5811020413421
 30
0.0
 10
424.0917516097534
 20
419.5917505023634
 30
0.0
 10
424.0748960394386
 20
419.6005485825751
 30
0.0
 10
424.0580617612611
 20
419.5917386925906
 30
0.0
 10
424.0484832370177
 20
419.5810722585996
 30
0.0
 10
424.0347968208574
 20
419.5622094908502
 30
0.0
 10
424.0043507722938
 20
419.5253446868582
 30
0.0
 10
423.9519441112624
 20
419.4753842946291
 30
0.0
 10
423.8776269941915
 20
419.4326588704837
 30
0.0
 10
423.8222505469413
 20
419.4271086404801
 30
0.0
 10
423.7954207343217
 20
419.4244195616678
 30
0.0
  0
LINE
  5
D6
330
1F
100
AcDbEntity
  8
0
  6
Continuous
 62
     7
370
    25
100
AcDbLine
 10
448.9870386148
 20
409.4244197852
 30
0.0
 11
399.8600596511
 21
409.4244197852
 31
0.0
  0
SPLINE
  5
D7
330
1F
100
AcDbEntity
  8
0
  6
Continuous
 62
     7
370
    25
100
AcDbSpline
210
0.0
220
0.0
230
1.0
 70
    24
 71
     3
 72
    13
 73
     9
 74
     0
 42
0.000000001
 43
0.00000001
 40
0.0
 40
0.0
 40
0.0
 40
0.0
 40
0.0195780845588291
 40
0.1417399047973106
 40
0.3564270840645049
 40
0.5709895492596629
 40
0.7854937523053422
 40
0.9999999999999999
 40
0.9999999999999999
 40
0.9999999999999999
 40
0.9999999999999999
 10
424.423549132948
 20
477.9244189060167
 30
0.0
 10
424.423549132948
 20
477.9243594193726
 30
0.0
 10
424.423549132948
 20
477.9239287525604
 30
0.0
 10
424.423549132948
 20
477.9095420830221
 30
0.0
 10
424.423549132948
 20
477.8428179303687
 30
0.0
 10
424.423549132948
 20
477.7062389546027
 30
0.0
 10
424.423549132948
 20
477.5267417983338
 30
0.0
 10
424.423549132948
 20
477.3918657309406
 30
0.0
 10
424.423549132948
 20
477.3244273758367
 30
0.0
  0
ARC
  5
D8
330
1F
100
AcDbEntity
  8
0
  6
Continuous
 62
     7
370
    25
100
AcDbCircle
 10
424.444488831
 20
509.9244195617
 30
0.0
 40
32.59999999999992
100
AcDbArc
 50
252.9870025487
 51
269.9631976563
  0
LINE
  5
D9
330
1F
100
AcDbEntity
  8
0
  6
Continuous
 62
     7
370
    25
100
AcDbLine
 10
414.8984009349
 20
478.7864995099
 30
0.0
 11
414.9060992473
 21
478.7510459221
 31
0.0
  0
SPLINE
  5
DA
330
1F
100
AcDbEntity
  8
0
  6
Continuous
 62
     7
370
    25
100
AcDbSpline
210
0.0
220
0.0
230
1.0
 70
     8
 71
     3
 72
    12
 73
     8
 74
     0
 42
0.000000001
 43
0.00000001
 40
0.0
 40
0.0
 40
0.0
 40
0.0
 40
0.0046976219283067
 40
0.3406002073070885
 40
0.6495317018366268
 40
0.8529450537036818
 40
1.0
 40
1.0
 40
1.0
 40
1.0
 10
413.7568825805236
 20
479.7545310950712
 30
0.0
 10
413.7591096381439
 20
479.7537409848143
 30
0.0
 10
413.9205820381634
 20
479.69645418707
 30
0.0
 10
414.2205329549551
 20
479.5603483004729
 30
0.0
 10
414.571009445405
 20
479.3064938447798
 30
0.0
 10
414.8079235528378
 20
479.0455524370997
 30
0.0
 10
414.8716581712312
 20
478.8630688254156
 30
0.0
 10
414.8984009349395
 20
478.7864995098547
 30
0.0
  0
ARC
  5
DB
330
1F
100
AcDbEntity
  8
0
  6
Continuous
 62
     7
370
    25
100
AcDbCircle
 10
424.4026094349
 20
509.9244195617
 30
0.0
 40
32.5999999999999
100
AcDbArc
 50
270.0368023437
 51
287.0129974513
  0
SPLINE
  5
DC
330
1F
100
AcDbEntity
  8
0
  6
Continuous
 62
     7
370
    25
100
AcDbSpline
210
0.0
220
0.0
230
1.0
 70
     8
 71
     3
 72
    13
 73
     9
 74
     0
 42
0.000000001
 43
0.00000001
 40
0.0
 40
0.0
 40
0.0
 40
0.0
 40
0.117201855163367
 40
0.2725117162061431
 40
0.5417138578306903
 40
0.9308435756492753
 40
0.9953038427847469
 40
1.0
 40
1.0
 40
1.0
 40
1.0
 10
433.9486973309566
 20
478.7864995098547
 30
0.0
 10
433.9684784790372
 20
478.8480298368769
 30
0.0
 10
434.0144725855681
 20
478.9910969836569
 30
0.0
 10
434.1911826518999
 20
479.2225361196561
 30
0.0
 10
434.5115459212628
 20
479.4934999451612
 30
0.0
 10
434.8393980217284
 20
479.6609514029242
 30
0.0
 10
435.0551911141231
 20
479.7421064307156
 30
0.0
 10
435.0879885338025
 20
479.7537410322741
 30
0.0
 10
435.0902156853725
 20
479.7545310950712
 30
0.0
  0
LINE
  5
DD
330
1F
100
AcDbEntity
  8
0
  6
Continuous
 62
     7
370
    25
100
AcDbLine
 10
433.9409990186
 20
478.7510459221
 30
0.0
 11
433.948697331
 21
478.7864995099
 31
0.0
  0
ARC
  5
DE
330
1F
100
AcDbEntity
  8
0
  6
Continuous
 62
     7
370
    25
100
AcDbCircle
 10
434.0631477182
 20
481.1145166433
 30
0.0
 40
2.33082875061969
100
AcDbArc
 50
267.1854808522
 51
278.8949684103
  0
SPLINE
  5
DF
330
1F
100
AcDbEntity
  8
0
  6
Continuous
 62
     7
370
    25
100
AcDbSpline
210
0.0
220
0.0
230
1.0
 70
     8
 71
     3
 72
    13
 73
     9
 74
     0
 42
0.000000001
 43
0.00000001
 40
0.0
 40
0.0
 40
0.0
 40
0.0
 40
0.004034227273037
 40
0.0677446054067533
 40
0.4492791333740849
 40
0.7161457086040421
 40
0.8743032403509073
 40
1.0
 40
1.0
 40
1.0
 40
1.0
 10
435.0902156853725
 20
479.7545310950712
 30
0.0
 10
435.0889167662505
 20
479.7540700991045
 30
0.0
 10
435.0671047171464
 20
479.7463288421696
 30
0.0
 10
434.9243838480764
 20
479.6897152611769
 30
0.0
 10
434.7146412159149
 20
479.5488561169522
 30
0.0
 10
434.527524602746
 20
479.2831306308158
 30
0.0
 10
434.4378712762863
 20
479.0352399367268
 30
0.0
 10
434.4279446376302
 20
478.8803211027969
 30
0.0
 10
434.4235489094306
 20
478.8117197251752
 30
0.0
  0
ARC
  5
E0
330
1F
100
AcDbEntity
  8
0
  6
Continuous
 62
     7
370
    25
100
AcDbCircle
 10
414.7839505477
 20
481.1145166433
 30
0.0
 40
2.330828750619681
100
AcDbArc
 50
261.1050315897
 51
272.8145191478
  0
SPLINE
  5
E1
330
1F
100
AcDbEntity
  8
0
  6
Continuous
 62
     7
370
    25
100
AcDbSpline
210
0.0
220
0.0
230
1.0
 70
     8
 71
     3
 72
    13
 73
     9
 74
     0
 42
0.000000001
 43
0.00000001
 40
0.0
 40
0.0
 40
0.0
 40
0.0
 40
0.1193732572343755
 40
0.157034023177801
 40
0.3619365105994297
 40
0.6664755092870527
 40
0.9959665532839139
 40
1.0
 40
1.0
 40
1.0
 40
1.0
 10
414.4235493564655
 20
478.8117197251753
 30
0.0
 10
414.419928074778
 20
478.8770616145397
 30
0.0
 10
414.4151643241221
 20
478.9630180507355
 30
0.0
 10
414.3741817307297
 20
479.1406098876631
 30
0.0
 10
414.2743802223979
 20
479.3700959160625
 30
0.0
 10
414.0592971770045
 20
479.607727798444
 30
0.0
 10
413.8655849364594
 20
479.7159470632233
 30
0.0
 10
413.7581814543227
 20
479.7540700582555
 30
0.0
 10
413.7568825805236
 20
479.7545310950712
 30
0.0
  0
SPLINE
  5
E2
330
1F
100
AcDbEntity
  8
0
  6
Continuous
 62
     7
370
    25
100
AcDbSpline
210
0.0
220
0.0
230
1.0
 70
     8
 71
     3
 72
     9
 73
     5
 74
     0
 42
0.000000001
 43
0.00000001
 40
0.0
 40
0.0
 40
0.0
 40
0.0
 40
0.3422449666727347
 40
1.0
 40
1.0
 40
1.0
 40
1.0
 10
424.423549132948
 20
468.7992867923215
 30
0.0
 10
425.5084404409795
 20
468.9361114003667
 30
0.0
 10
428.6783667033833
 20
469.3358969965591
 30
0.0
 10
431.8529203674485
 20
469.6972716316753
 30
0.0
 10
433.9409990185548
 20
469.9349676168397
 30
0.0
  0
LINE
  5
E3
330
1F
100
AcDbEntity
  8
0
  6
Continuous
 62
     7
370
    25
100
AcDbLine
 10
424.4235491329
 20
477.3244273758
 30
0.0
 11
424.4235491329
 21
468.7992867923
 31
0.0
  0
LINE
  5
E4
330
1F
100
AcDbEntity
  8
0
  6
Continuous
 62
     7
370
    25
100
AcDbLine
 10
414.9060992473
 20
460.9244179821
 30
0.0
 11
424.4235491329
 21
460.9244179821
 31
0.0
  0
LINE
  5
E5
330
1F
100
AcDbEntity
  8
0
  6
Continuous
 62
     7
370
    25
100
AcDbLine
 10
414.9060992473
 20
478.7510459221
 30
0.0
 11
414.9060992473
 21
460.9244179821
 31
0.0
  0
LINE
  5
E6
330
1F
100
AcDbEntity
  8
0
  6
Continuous
 62
     7
370
    25
100
AcDbLine
 10
424.4235491329
 20
460.9244179821
 30
0.0
 11
424.4235491329
 21
468.7992867923
 31
0.0
  0
LINE
  5
E7
330
1F
100
AcDbEntity
  8
0
  6
Continuous
 62
     7
370
    25
100
AcDbLine
 10
433.9409990186
 20
469.9349676168
 30
0.0
 11
433.9409990186
 21
478.7510459221
 31
0.0
  0
LWPOLYLINE
  5
E8
330
1F
100
AcDbEntity
  8
0
  6
Continuous
 62
     7
370
    25
100
AcDbPolyline
 90
        3
 70
   128
 43
0.0
 10
418.9409988882
 20
450.1351558513
 10
420.4220299558
 20
450.1124353058
 10
424.4235491329
 20
450.0513051546
  0
SPLINE
  5
E9
330
1F
100
AcDbEntity
  8
0
  6
Continuous
 62
     7
370
    25
100
AcDbSpline
210
0.0
220
0.0
230
1.0
 70
     8
 71
     3
 72
    10
 73
     6
 74
     0
 42
0.000000001
 43
0.00000001
 40
0.0
 40
0.0
 40
0.0
 40
0.0
 40
0.2821793506824309
 40
0.9949546511050485
 40
0.9999999999999999
 40
0.9999999999999999
 40
0.9999999999999999
 40
0.9999999999999999
 10
418.423549080794
 20
449.4257320559457
 30
0.0
 10
418.4382109185066
 20
449.4974200100048
 30
0.0
 10
418.4899080522292
 20
449.7501892617124
 30
0.0
 10
418.7646511923276
 20
449.9722718321663
 30
0.0
 10
418.93976804365
 20
450.1340189784682
 30
0.0
 10
418.9409988881696
 20
450.1351558512882
 30
0.0
  0
LINE
  5
EA
330
1F
100
AcDbEntity
  8
0
  6
Continuous
 62
     7
370
    25
100
AcDbLine
 10
418.4235490808
 20
446.7847359276
 30
0.0
 11
418.4235490808
 21
449.4257320559
 31
0.0
  0
LINE
  5
EB
330
1F
100
AcDbEntity
  8
0
  6
Continuous
 62
     7
370
    25
100
AcDbLine
 10
433.9409990186
 20
469.9349676168
 30
0.0
 11
434.4235489094
 21
469.9349676168
 31
0.0
  0
SPLINE
  5
EC
330
1F
100
AcDbEntity
  8
0
  6
Continuous
 62
     7
370
    25
100
AcDbSpline
210
0.0
220
0.0
230
1.0
 70
    24
 71
     3
 72
    12
 73
     8
 74
     0
 42
0.000000001
 43
0.00000001
 40
0.0
 40
0.0
 40
0.0
 40
0.0
 40
0.2161624568659211
 40
0.4323649825920535
 40
0.6475456381785362
 40
0.8613876410090496
 40
0.9999999999999999
 40
0.9999999999999999
 40
0.9999999999999999
 40
0.9999999999999999
 10
434.4235489094306
 20
469.9349676168397
 30
0.0
 10
434.4235489094306
 20
469.8783432561495
 30
0.0
 10
434.4235489094306
 20
469.7650840386191
 30
0.0
 10
434.4235489094306
 20
469.6139611141915
 30
0.0
 10
434.4235489094306
 20
469.5019008517147
 30
0.0
 10
434.4235489094306
 20
469.43913005694
 30
0.0
 10
434.4235489094306
 20
469.4399011199947
 30
0.0
 10
434.4235489094306
 20
469.4402043617204
 30
0.0
  0
LINE
  5
ED
330
1F
100
AcDbEntity
  8
0
  6
Continuous
 62
     7
370
    25
100
AcDbLine
 10
414.4235493565
 20
478.7510459221
 30
0.0
 11
414.4235493565
 21
478.8117197252
 31
0.0
  0
LINE
  5
EE
330
1F
100
AcDbEntity
  8
0
  6
Continuous
 62
     7
370
    25
100
AcDbLine
 10
414.4235493565
 20
478.7510459221
 30
0.0
 11
414.9060992473
 21
478.7510459221
 31
0.0
  0
LINE
  5
EF
330
1F
100
AcDbEntity
  8
0
  6
Continuous
 62
     7
370
    25
100
AcDbLine
 10
434.4235489094
 20
478.8117197252
 30
0.0
 11
434.4235489094
 21
478.7510459221
 31
0.0
  0
LINE
  5
F0
330
1F
100
AcDbEntity
  8
0
  6
Continuous
 62
     7
370
    25
100
AcDbLine
 10
433.9409990186
 20
478.7510459221
 30
0.0
 11
434.4235489094
 21
478.7510459221
 31
0.0
  0
LINE
  5
F1
330
1F
100
AcDbEntity
  8
0
  6
Continuous
 62
     7
370
    25
100
AcDbLine
 10
414.4235493565
 20
460.9244179821
 30
0.0
 11
414.4235493565
 21
478.7510459221
 31
0.0
  0
LINE
  5
F2
330
1F
100
AcDbEntity
  8
0
  6
Continuous
 62
     7
370
    25
100
AcDbLine
 10
414.4235493565
 20
460.9244179821
 30
0.0
 11
414.9060992473
 21
460.9244179821
 31
0.0
  0
LINE
  5
F3
330
1F
100
AcDbEntity
  8
0
  6
Continuous
 62
     7
370
    25
100
AcDbLine
 10
434.4235489094
 20
478.7510459221
 30
0.0
 11
434.4235489094
 21
469.9349676168
 31
0.0
  0
LINE
  5
F4
330
1F
100
AcDbEntity
  8
0
  6
Continuous
 62
     7
370
    25
100
AcDbLine
 10
414.4235493565
 20
447.4072636015
 30
0.0
 11
414.4235493565
 21
460.9244179821
 31
0.0
  0
ELLIPSE
  5
F5
330
1F
100
AcDbEntity
  8
0
  6
Continuous
 62
     7
370
    25
100
AcDbEllipse
 10
434.5235491329
 20
478.0208665303
 30
0.0
 11
-0.003504300398958549
 21
0.1001828263515563
 31
0.0
210
0.0
220
0.0
230
1.0
 40
0.04521394
 41
6.280021006165544
 42
8.111029761740276
  0
ARC
  5
F6
330
1F
100
AcDbEntity
  8
0
  6
Continuous
 62
     7
370
    25
100
AcDbCircle
 10
434.4982936661
 20
477.8834695828
 30
0.0
 40
0.1138739710692323
100
AcDbArc
 50
78.9809166108
 51
131.0244782893
  0
ARC
  5
F7
330
1F
100
AcDbEntity
  8
0
  6
Continuous
 62
     7
370
    25
100
AcDbCircle
 10
434.5235491329
 20
478.2209884391
 30
0.0
 40
0.1000000000000227
100
AcDbArc
 50
180.0
 51
268.0
  0
LINE
  5
F8
330
1F
100
AcDbEntity
  8
0
  6
Continuous
 62
     7
370
    25
100
AcDbLine
 10
434.5200590739
 20
477.9952441252
 30
0.0
 11
434.5200590739
 21
476.4977109528
 31
0.0
  0
ARC
  5
F9
330
1F
100
AcDbEntity
  8
0
  6
Continuous
 62
     7
370
    25
100
AcDbCircle
 10
434.4982980198
 20
476.3859325394
 30
0.0
 40
0.1138769387600066
100
AcDbArc
 50
78.9834389831
 51
131.0260827044
  0
LINE
  5
FA
330
1F
100
AcDbEntity
  8
0
  6
Continuous
 62
     7
370
    25
100
AcDbLine
 10
434.7270389968
 20
477.988017062
 30
0.0
 11
434.5200590739
 21
477.9952441252
 31
0.0
  0
LINE
  5
FB
330
1F
100
AcDbEntity
  8
0
  6
Continuous
 62
     7
370
    25
100
AcDbLine
 10
434.5200590739
 20
478.1210509038
 30
0.0
 11
434.7270389968
 21
478.1138201154
 31
0.0
  0
ARC
  5
FC
330
1F
100
AcDbEntity
  8
0
  6
Continuous
 62
     7
370
    25
100
AcDbCircle
 10
433.9852271059
 20
478.0509185887
 30
0.0
 40
0.7444739643230938
100
AcDbArc
 50
355.1532303046
 51
4.8467696954
  0
LINE
  5
FD
330
1F
100
AcDbEntity
  8
0
  6
Continuous
 62
     7
370
    25
100
AcDbLine
 10
434.7270389968
 20
476.5256357289
 30
0.0
 11
434.7270389968
 21
477.988017062
 31
0.0
  0
LINE
  5
FE
330
1F
100
AcDbEntity
  8
0
  6
Continuous
 62
     7
370
    25
100
AcDbLine
 10
434.5200590739
 20
476.4977109528
 30
0.0
 11
434.7270389968
 21
476.5256357289
 31
0.0
  0
ARC
  5
FF
330
1F
100
AcDbEntity
  8
0
  6
Continuous
 62
     7
370
    25
100
AcDbCircle
 10
434.7235491329
 20
478.0138823764
 30
0.0
 40
0.0999999999999833
100
AcDbArc
 50
0.0
 51
88.0
  0
ARC
  5
100
330
1F
100
AcDbEntity
  8
0
  6
Continuous
 62
     7
370
    25
100
AcDbCircle
 10
434.7488044046
 20
478.0997916043
 30
0.0
 40
0.1138739710692881
100
AcDbArc
 50
258.9809166108
 51
311.0244782893
  0
LINE
  5
101
330
1F
100
AcDbEntity
  8
0
  6
Continuous
 62
     7
370
    25
100
AcDbLine
 10
434.8235491613
 20
478.0138817525
 30
0.0
 11
434.8235491613
 21
476.5515041447
 31
0.0
  0
ARC
  5
102
330
1F
100
AcDbEntity
  8
0
  6
Continuous
 62
     7
370
    25
100
AcDbCircle
 10
434.7488000509
 20
476.6374141423
 30
0.0
 40
0.1138769387599586
100
AcDbArc
 50
258.9834389831
 51
311.0260827045
  0
LWPOLYLINE
  5
103
330
1F
100
AcDbEntity
  8
0
  6
Continuous
 62
     7
370
    25
100
AcDbPolyline
 90
       20
 70
   128
 43
0.0
 10
399.9060986513
 20
436.068251068
 10
399.9060986513
 20
436.068251068
 10
399.999413448
 20
436.0715106971
 10
400.2786463076
 20
436.0812616444
 10
400.7416700894
 20
436.0974294043
 10
401.3849569434
 20
436.1198947674
 10
402.2036081129
 20
436.1484826452
 10
403.1913855994
 20
436.1829769707
 10
404.3407680416
 20
436.2231132484
 10
405.6429972822
 20
436.2685878671
 10
407.0881528729
 20
436.3190543747
 10
408.6652303064
 20
436.3741272039
 10
410.3622136587
 20
436.4333872593
 10
412.1661752412
 20
436.4963819182
 10
414.0633752519
 20
436.5626343435
 10
416.0393604958
 20
436.6316378957
 10
418.0790798688
 20
436.7028654463
 10
420.166995185
 20
436.775776828
 10
422.2872017832
 20
436.8498169727
 10
424.4235491329
 20
436.9244196362
  0
SPLINE
  5
104
330
1F
100
AcDbEntity
  8
0
  6
Continuous
 62
     7
370
    25
100
AcDbSpline
210
0.0
220
0.0
230
1.0
 70
    24
 71
     3
 72
    13
 73
     9
 74
     0
 42
0.000000001
 43
0.00000001
 40
0.0
 40
0.0
 40
0.0
 40
0.0
 40
0.2145075209417091
 40
0.4290150566433166
 40
0.643582444472402
 40
0.8582711435258225
 40
0.978132485991697
 40
1.0
 40
1.0
 40
1.0
 40
1.0
 10
424.423549132948
 20
436.9244196361736
 30
0.0
 10
424.423549132948
 20
436.918894164315
 30
0.0
 10
424.423549132948
 20
436.9078432202175
 30
0.0
 10
424.423549132948
 20
436.8216598778033
 30
0.0
 10
424.423549132948
 20
436.694823001039
 30
0.0
 10
424.423549132948
 20
436.5594637615529
 30
0.0
 10
424.4235491329482
 20
436.4667758002856
 30
0.0
 10
424.423549132948
 20
436.4298173716867
 30
0.0
 10
424.423549132948
 20
436.4241150117353
 30
0.0
  0
LWPOLYLINE
  5
105
330
1F
100
AcDbEntity
  8
0
  6
Continuous
 62
     7
370
    25
100
AcDbPolyline
 90
       19
 70
   128
 43
0.0
 10
424.4235491329
 20
436.9244196362
 10
426.5598964827
 20
436.8498169727
 10
428.6801030809
 20
436.775776828
 10
430.7680183971
 20
436.7028654463
 10
432.8077377701
 20
436.6316378957
 10
434.783723014
 20
436.5626343435
 10
436.6809230247
 20
436.4963819182
 10
438.4848846072
 20
436.4333872593
 10
440.1818679595
 20
436.3741272039
 10
441.758945393
 20
436.3190543747
 10
443.2041009837
 20
436.2685878671
 10
444.5063302243
 20
436.2231132484
 10
445.6557126665
 20
436.1829769707
 10
446.643490153
 20
436.1484826452
 10
447.4621413225
 20
436.1198947674
 10
448.1054281765
 20
436.0974294043
 10
448.5684519583
 20
436.0812616444
 10
448.8476848179
 20
436.0715106971
 10
448.9409996146
 20
436.068251068
  0
LINE
  5
106
330
1F
100
AcDbEntity
  8
0
  6
Continuous
 62
     7
370
    25
100
AcDbLine
 10
449.4235495055
 20
421.9244195058
 30
0.0
 11
424.5735491401
 21
421.9244195058
 31
0.0
  0
LINE
  5
107
330
1F
100
AcDbEntity
  8
0
  6
Continuous
 62
     7
370
    25
100
AcDbLine
 10
424.2735491258
 20
421.9244195058
 30
0.0
 11
399.4235487604
 21
421.9244195058
 31
0.0
  0
ARC
  5
108
330
1F
100
AcDbEntity
  8
0
  6
Continuous
 62
     7
370
    25
100
AcDbCircle
 10
408.2192697372
 20
437.1086091644
 30
0.0
 40
7.186773266370924
100
AcDbArc
 50
356.0130140118
 51
3.9869859882
  0
LINE
  5
109
330
1F
100
AcDbEntity
  8
0
  6
Continuous
 62
     7
370
    25
100
AcDbLine
 10
415.3886500695
 20
437.6083047039
 30
0.0
 11
424.4235491329
 21
437.9238107151
 31
0.0
  0
LINE
  5
10A
330
1F
100
AcDbEntity
  8
0
  6
Continuous
 62
     7
370
    25
100
AcDbLine
 10
424.4235491329
 20
437.9238107151
 30
0.0
 11
424.4235491329
 21
436.9244196362
 31
0.0
  0
LINE
  5
10B
330
1F
100
AcDbEntity
  8
0
  6
Continuous
 62
     7
370
    25
100
AcDbLine
 10
424.4235491329
 20
437.9238107151
 30
0.0
 11
433.4584481964
 21
437.6083047039
 31
0.0
  0
ARC
  5
10C
330
1F
100
AcDbEntity
  8
0
  6
Continuous
 62
     7
370
    25
100
AcDbCircle
 10
440.6278285287
 20
437.1086091644
 30
0.0
 40
7.18677326637098
100
AcDbArc
 50
176.0130140118
 51
183.9869859882
  0
LWPOLYLINE
  5
10D
330
1F
100
AcDbEntity
  8
0
  6
Continuous
 62
     7
370
    25
100
AcDbPolyline
 90
        9
 70
   128
 43
0.0
 10
433.4584481964
 20
437.6083047039
 10
433.6485004002
 20
437.5950314945
 10
433.8302861849
 20
437.5823357052
 10
433.9971251735
 20
437.5706829972
 10
434.1428892636
 20
437.5605017788
 10
434.2622196251
 20
437.5521683044
 10
434.3507325226
 20
437.5459861851
 10
434.405176709
 20
437.5421845264
 10
434.4235489094
 20
437.5409011639
  0
ARC
  5
10E
330
1F
100
AcDbEntity
  8
0
  6
Continuous
 62
     7
370
    25
100
AcDbCircle
 10
435.4235491329
 20
437.5409006416
 30
0.0
 40
1.0
100
AcDbArc
 50
180.0
 51
268.0
  0
ARC
  5
10F
330
1F
100
AcDbEntity
  8
0
  6
Continuous
 62
     7
370
    25
100
AcDbCircle
 10
413.4235491329
 20
437.5409006416
 30
0.0
 40
1.0
100
AcDbArc
 50
272.0
 51
0.0
  0
LWPOLYLINE
  5
110
330
1F
100
AcDbEntity
  8
0
  6
Continuous
 62
     7
370
    25
100
AcDbPolyline
 90
        9
 70
   128
 43
0.0
 10
414.4235493565
 20
437.5409011639
 10
414.4419215569
 20
437.5421845264
 10
414.4963657433
 20
437.5459861851
 10
414.5848786408
 20
437.5521683044
 10
414.7042090023
 20
437.5605017788
 10
414.8499730924
 20
437.5706829972
 10
415.016812081
 20
437.5823357052
 10
415.1985978657
 20
437.5950314945
 10
415.3886500695
 20
437.6083047039
  0
LINE
  5
111
330
1F
100
AcDbEntity
  8
0
  6
Continuous
 62
     7
370
    25
100
AcDbLine
 10
424.4235491329
 20
460.9244179821
 30
0.0
 11
433.4584481964
 21
460.9244179821
 31
0.0
  0
SPLINE
  5
112
330
1F
100
AcDbEntity
  8
0
  6
Continuous
 62
     7
370
    25
100
AcDbSpline
210
0.0
220
0.0
230
1.0
 70
     8
 71
     3
 72
    12
 73
     8
 74
     0
 42
0.000000001
 43
0.00000001
 40
0.0
 40
0.0
 40
0.0
 40
0.0
 40
0.2186831623520755
 40
0.4373073183404504
 40
0.657368382883185
 40
0.8784025501901292
 40
1.0
 40
1.0
 40
1.0
 40
1.0
 10
425.3886496131916
 20
462.7835166550116
 30
0.0
 10
425.2768677502754
 20
462.7685712969848
 30
0.0
 10
425.0533341860758
 20
462.7386846135748
 30
0.0
 10
424.7606081366921
 20
462.5568120642037
 30
0.0
 10
424.5428070447117
 20
462.2959458280596
 30
0.0
 10
424.4368349442801
 20
462.021283579506
 30
0.0
 10
424.427029140754
 20
461.8462453580307
 30
0.0
 10
424.423549132948
 20
461.7841255760625
 30
0.0
  0
LWPOLYLINE
  5
113
330
1F
100
AcDbEntity
  8
0
  6
Continuous
 62
     7
370
    25
100
AcDbPolyline
 90
        3
 70
   128
 43
0.0
 10
425.3886496132
 20
462.783516655
 10
429.4237492555
 20
462.9244257606
 10
429.8503890583
 20
462.9393269217
  0
SPLINE
  5
114
330
1F
100
AcDbEntity
  8
0
  6
Continuous
 62
     7
370
    25
100
AcDbSpline
210
0.0
220
0.0
230
1.0
 70
     8
 71
     3
 72
    10
 73
     6
 74
     0
 42
0.000000001
 43
0.00000001
 40
0.0
 40
0.0
 40
0.0
 40
0.0
 40
0.0098540289371316
 40
0.5107279243382224
 40
1.0
 40
1.0
 40
1.0
 40
1.0
 10
430.4584486359407
 20
463.1297488606409
 30
0.0
 10
430.4565566079933
 20
463.128838768597
 30
0.0
 10
430.3584940274477
 20
463.081669288633
 30
0.0
 10
430.1647672660647
 20
462.9874097214894
 30
0.0
 10
429.9543599937589
 20
462.9552288308006
 30
0.0
 10
429.8503890582968
 20
462.9393269217447
 30
0.0
  0
LINE
  5
115
330
1F
100
AcDbEntity
  8
0
  6
Continuous
 62
     7
370
    25
100
AcDbLine
 10
433.4584481964
 20
437.6083047039
 30
0.0
 11
433.4584481964
 21
460.9244179821
 31
0.0
  0
LINE
  5
116
330
1F
100
AcDbEntity
  8
0
  6
Continuous
 62
     7
370
    25
100
AcDbLine
 10
424.4235491329
 20
437.9238107151
 30
0.0
 11
424.4235491329
 21
445.9250283337
 31
0.0
  0
LINE
  5
117
330
1F
100
AcDbEntity
  8
0
  6
Continuous
 62
     7
370
    25
100
AcDbLine
 10
424.4235491329
 20
445.9250283337
 30
0.0
 11
424.4235491329
 21
460.9244179821
 31
0.0
  0
LINE
  5
118
330
1F
100
AcDbEntity
  8
0
  6
Continuous
 62
     7
370
    25
100
AcDbLine
 10
415.3886500695
 20
445.6095223225
 30
0.0
 11
415.3886500695
 21
437.6083047039
 31
0.0
  0
LINE
  5
119
330
1F
100
AcDbEntity
  8
0
  6
Continuous
 62
     7
370
    25
100
AcDbLine
 10
424.4235491329
 20
445.9250283337
 30
0.0
 11
415.3886500695
 21
445.6095223225
 31
0.0
  0
LINE
  5
11A
330
1F
100
AcDbEntity
  8
0
  6
Continuous
 62
     7
370
    25
100
AcDbLine
 10
415.3886500695
 20
446.6089134014
 30
0.0
 11
424.4235491329
 21
446.9244194127
 31
0.0
  0
ARC
  5
11B
330
1F
100
AcDbEntity
  8
0
  6
Continuous
 62
     7
370
    25
100
AcDbCircle
 10
422.5574336892
 20
446.1092178619
 30
0.0
 40
7.186177997956992
100
AcDbArc
 50
176.0126832149
 51
183.9873167851
  0
ARC
  5
11C
330
1F
100
AcDbEntity
  8
0
  6
Continuous
 62
     7
370
    25
100
AcDbCircle
 10
429.2235491329
 20
463.1175573166
 30
0.0
 40
0.1999999999999886
100
AcDbArc
 50
272.0
 51
0.0
  0
SPLINE
  5
11D
330
1F
100
AcDbEntity
  8
0
  6
Continuous
 62
     7
370
    25
100
AcDbSpline
210
0.0
220
0.0
230
1.0
 70
     8
 71
     3
 72
    12
 73
     8
 74
     0
 42
0.000000001
 43
0.00000001
 40
0.0
 40
0.0
 40
0.0
 40
0.0
 40
0.2136430944554863
 40
0.4269264400230628
 40
0.6376656534061567
 40
0.8454492235072655
 40
1.0
 40
1.0
 40
1.0
 40
1.0
 10
429.4235490211893
 20
463.1175559854941
 30
0.0
 10
429.4346729206968
 20
463.1143198635478
 30
0.0
 10
429.456901988423
 20
463.1078530688896
 30
0.0
 10
429.631650699492
 20
463.1059501869099
 30
0.0
 10
429.8883948505285
 20
463.1099761921038
 30
0.0
 10
430.1800837218886
 20
463.1185495582283
 30
0.0
 10
430.3752163824021
 20
463.1264002231841
 30
0.0
 10
430.4584486359407
 20
463.1297488606409
 30
0.0
  0
LINE
  5
11E
330
1F
100
AcDbEntity
  8
0
  6
Continuous
 62
     7
370
    25
100
AcDbLine
 10
434.4235489094
 20
460.9244179821
 30
0.0
 11
433.4584481964
 21
460.9244179821
 31
0.0
  0
LINE
  5
11F
330
1F
100
AcDbEntity
  8
0
  6
Continuous
 62
     7
370
    25
100
AcDbLine
 10
434.4235489094
 20
460.9244179821
 30
0.0
 11
434.4235489094
 21
437.5409011639
 31
0.0
  0
LINE
  5
120
330
1F
100
AcDbEntity
  8
0
  6
Continuous
 62
     7
370
    25
100
AcDbLine
 10
434.4235489094
 20
469.4338005877
 30
0.0
 11
434.4235489094
 21
460.9244179821
 31
0.0
  0
LINE
  5
121
330
1F
100
AcDbEntity
  8
0
  6
Continuous
 62
     7
370
    25
100
AcDbLine
 10
414.4235493565
 20
437.5409011639
 30
0.0
 11
414.4235493565
 21
445.6095223225
 31
0.0
  0
LINE
  5
122
330
1F
100
AcDbEntity
  8
0
  6
Continuous
 62
     7
370
    25
100
AcDbLine
 10
415.3886500695
 20
445.6095223225
 30
0.0
 11
414.4235493565
 21
445.6095223225
 31
0.0
  0
ARC
  5
123
330
1F
100
AcDbEntity
  8
0
  6
Continuous
 62
     7
370
    25
100
AcDbCircle
 10
415.4235491329
 20
445.6095230919
 30
0.0
 40
1.0
100
AcDbArc
 50
92.0
 51
180.0
  0
LINE
  5
124
330
1F
100
AcDbEntity
  8
0
  6
Continuous
 62
     7
370
    25
100
AcDbLine
 10
429.4235490212
 20
463.1175559855
 30
0.0
 11
429.4235490212
 21
468.420707891
 31
0.0
  0
LINE
  5
125
330
1F
100
AcDbEntity
  8
0
  6
Continuous
 62
     8
370
    25
100
AcDbLine
 10
424.0749431025
 20
421.7174395828
 30
0.0
 11
399.4307776862
 21
421.7174395828
 31
0.0
  0
LINE
  5
126
330
1F
100
AcDbEntity
  8
0
  6
Continuous
 62
     8
370
    25
100
AcDbLine
 10
449.4163205797
 20
421.7174395828
 30
0.0
 11
424.7721551634
 21
421.7174395828
 31
0.0
  0
LINE
  5
127
330
1F
100
AcDbEntity
  8
0
  6
Continuous
 62
     8
370
    25
100
AcDbLine
 10
399.5108509386
 20
419.4244195617
 30
0.0
 11
423.795420718
 21
419.4244195617
 31
0.0
  0
LINE
  5
128
330
1F
100
AcDbEntity
  8
0
  6
Continuous
 62
     8
370
    25
100
AcDbLine
 10
425.0516775479
 20
419.4244195617
 30
0.0
 11
449.3362473273
 21
419.4244195617
 31
0.0
  0
SPLINE
  5
129
330
1F
100
AcDbEntity
  8
0
  6
Continuous
 62
     8
370
    25
100
AcDbSpline
210
0.0
220
0.0
230
1.0
 70
     8
 71
     3
 72
    12
 73
     8
 74
     0
 42
0.000000001
 43
0.00000001
 40
0.0
 40
0.0
 40
0.0
 40
0.0
 40
0.1377520366027255
 40
0.3521952716139514
 40
0.5678062247637241
 40
0.7840977258582663
 40
1.0
 40
1.0
 40
1.0
 40
1.0
 10
433.9784046584417
 20
468.9497177398637
 30
0.0
 10
433.9796808751613
 20
468.9492822257465
 30
0.0
 10
433.9829438214326
 20
468.9481687321341
 30
0.0
 10
433.9808334727285
 20
469.0732502363913
 30
0.0
 10
433.9728660915865
 20
469.2963037862438
 30
0.0
 10
433.9591801802176
 20
469.5969444124212
 30
0.0
 10
433.9470557660898
 20
469.8223608842163
 30
0.0
 10
433.9409990185548
 20
469.9349676168397
 30
0.0
  0
LINE
  5
12A
330
1F
100
AcDbEntity
  8
0
  6
Continuous
 62
     8
370
    25
100
AcDbLine
 10
414.9060992473
 20
460.9244179821
 30
0.0
 11
414.9060992473
 21
446.907568062
 31
0.0
  0
SPLINE
  5
12B
330
1F
100
AcDbEntity
  8
0
  6
Continuous
 62
     8
370
    25
100
AcDbSpline
210
0.0
220
0.0
230
1.0
 70
     8
 71
     3
 72
    10
 73
     6
 74
     0
 42
0.000000001
 43
0.00000001
 40
0.0
 40
0.0
 40
0.0
 40
0.0
 40
0.3565365034894697
 40
0.8356296760307358
 40
1.0
 40
1.0
 40
1.0
 40
1.0
 10
418.9409988881696
 20
450.1351558512882
 30
0.0
 10
418.9402098732037
 20
450.0867067195593
 30
0.0
 10
418.9383606254718
 20
449.9731544413092
 30
0.0
 10
418.9349574449117
 20
449.8931468190383
 30
0.0
 10
418.9322274885999
 20
449.9066979164049
 30
0.0
 10
418.9315301315535
 20
449.910159493132
 30
0.0
  0
LWPOLYLINE
  5
12C
330
1F
100
AcDbEntity
  8
0
  6
Continuous
 62
     8
370
    25
100
AcDbPolyline
 90
        8
 70
   128
 43
0.0
 10
434.5101777414
 20
476.421808163
 10
434.510410572
 20
476.423592577
 10
434.5110988194
 20
476.4288824892
 10
434.5122201318
 20
476.4374990857
 10
434.5137353936
 20
476.4491368926
 10
434.5155915195
 20
476.4633935786
 10
434.5177242482
 20
476.47977368
 10
434.5200590739
 20
476.4977109528
  0
LWPOLYLINE
  5
12D
330
1F
100
AcDbEntity
  8
0
  6
Continuous
 62
     8
370
    25
100
AcDbPolyline
 90
        5
 70
   128
 43
0.0
 10
434.7369203293
 20
476.4524002469
 10
434.7362134555
 20
476.4576417304
 10
434.7341664085
 20
476.4728111124
 10
434.7309961864
 20
476.4963027931
 10
434.7270389968
 20
476.5256357289
  0
LWPOLYLINE
  5
12E
330
1F
100
AcDbEntity
  8
0
  6
Continuous
 62
     8
370
    25
100
AcDbPolyline
 90
       20
 70
   128
 43
0.0
 10
424.4235491329
 20
436.4241150117
 10
422.3034009752
 20
436.3515575326
 10
420.1985288361
 20
436.2795253194
 10
418.1240976737
 20
436.2085324622
 10
416.0950545171
 20
436.1390949136
 10
414.1260178709
 20
436.0717081374
 10
412.2311759689
 20
436.0068638719
 10
410.4241792062
 20
435.9450240529
 10
408.7180493349
 20
435.8866357154
 10
407.1250779504
 20
435.8321198172
 10
405.6567417407
 20
435.781871239
 10
404.3236205304
 20
435.7362476087
 10
403.1353199804
 20
435.6955823398
 10
402.1004026705
 20
435.6601641423
 10
401.2263229066
 20
435.6302519238
 10
400.5193801546
 20
435.606058026
 10
399.984668749
 20
435.5877594001
 10
399.6260387772
 20
435.5754864312
 10
399.4460755909
 20
435.5693266637
 10
399.4235487604
 20
435.5685555286
  0
LWPOLYLINE
  5
12F
330
1F
100
AcDbEntity
  8
0
  6
Continuous
 62
     8
370
    25
100
AcDbPolyline
 90
       20
 70
   128
 43
0.0
 10
449.4235495055
 20
435.5685555286
 10
449.401022675
 20
435.5693266637
 10
449.2210594887
 20
435.5754864312
 10
448.8624295169
 20
435.5877594001
 10
448.3277181113
 20
435.606058026
 10
447.6207753593
 20
435.6302519238
 10
446.7466955954
 20
435.6601641423
 10
445.7117782855
 20
435.6955823398
 10
444.5234777355
 20
435.7362476087
 10
443.1903565252
 20
435.781871239
 10
441.7220203155
 20
435.8321198172
 10
440.129048931
 20
435.8866357154
 10
438.4229190597
 20
435.9450240529
 10
436.6159222969
 20
436.0068638719
 10
434.721080395
 20
436.0717081374
 10
432.7520437488
 20
436.1390949136
 10
430.7230005921
 20
436.2085324622
 10
428.6485694298
 20
436.2795253194
 10
426.5436972906
 20
436.3515575326
 10
424.4235491329
 20
436.4241150117
  0
LINE
  5
130
330
1F
100
AcDbEntity
  8
0
  6
Continuous
 62
     8
370
    25
100
AcDbLine
 10
433.4584481964
 20
460.9244179821
 30
0.0
 11
433.4584481964
 21
468.9188686109
 31
0.0
  0
LINE
  5
131
330
1F
100
AcDbEntity
  8
0
  6
Continuous
 62
     8
370
    25
100
AcDbLine
 10
430.4584486359
 20
468.5678121543
 30
0.0
 11
430.4584486359
 21
463.1297488606
 31
0.0
  0
ARC
  5
132
330
1F
100
AcDbEntity
  8
0
  6
Continuous
 62
     7
370
    25
100
AcDbCircle
 10
512.0780068615
 20
539.9244195617
 30
0.0
 40
1.0
100
AcDbArc
 50
8.109614456
 51
90.0
  0
ARC
  5
133
330
1F
100
AcDbEntity
  8
0
  6
Continuous
 62
     7
370
    25
100
AcDbCircle
 10
512.0780068615
 20
479.9244195617
 30
0.0
 40
1.0
100
AcDbArc
 50
270.0
 51
351.890385544
  0
LINE
  5
134
330
1F
100
AcDbEntity
  8
0
  6
Continuous
 62
     7
370
    25
100
AcDbLine
 10
593.078007696
 20
541.9244219459
 30
0.0
 11
513.0780076215
 21
541.9244219459
 31
0.0
  0
LINE
  5
135
330
1F
100
AcDbEntity
  8
0
  6
Continuous
 62
     7
370
    25
100
AcDbLine
 10
513.0780076215
 20
477.924418906
 30
0.0
 11
593.078007696
 21
477.924418906
 31
0.0
  0
LINE
  5
136
330
1F
100
AcDbEntity
  8
0
  6
Continuous
 62
     7
370
    25
100
AcDbLine
 10
513.0780076215
 20
539.024417559
 30
0.0
 11
513.0680070797
 21
539.024417559
 31
0.0
  0
LINE
  5
137
330
1F
100
AcDbEntity
  8
0
  6
Continuous
 62
     7
370
    25
100
AcDbLine
 10
513.0680070797
 20
480.8244195676
 30
0.0
 11
513.0780076215
 21
480.8244195676
 31
0.0
  0
ARC
  5
138
330
1F
100
AcDbEntity
  8
0
  6
Continuous
 62
     7
370
    25
100
AcDbCircle
 10
472.2851129243
 20
421.7244195617
 30
0.0
 40
0.2000000000000274
100
AcDbArc
 50
90.0
 51
182.0
  0
LINE
  5
139
330
1F
100
AcDbEntity
  8
0
  6
Continuous
 62
     7
370
    25
100
AcDbLine
 10
472.0852354148
 20
421.7174395828
 30
0.0
 11
472.1653086672
 21
419.4244195617
 31
0.0
  0
LINE
  5
13A
330
1F
100
AcDbEntity
  8
0
  6
Continuous
 62
     7
370
    25
100
AcDbLine
 10
521.6414963433
 20
409.4244197852
 30
0.0
 11
521.9907050559
 21
419.4244195617
 31
0.0
  0
SPLINE
  5
13B
330
1F
100
AcDbEntity
  8
0
  6
Continuous
 62
     7
370
    25
100
AcDbSpline
210
0.0
220
0.0
230
1.0
 70
     8
 71
     3
 72
    17
 73
    13
 74
     0
 42
0.000000001
 43
0.00000001
 40
0.0
 40
0.0
 40
0.0
 40
0.0
 40
0.0172787874728443
 40
0.0968861539579514
 40
0.1612363235140675
 40
0.2182228017295739
 40
0.2715453495328388
 40
0.331261737217549
 40
0.4284798349716837
 40
0.6241887930559707
 40
0.957151326384306
 40
1.0
 40
1.0
 40
1.0
 40
1.0
 10
477.0501849779758
 20
534.4183568752244
 30
0.0
 10
477.0366901248057
 20
534.4203923194872
 30
0.0
 10
476.9610213648344
 20
534.4318055257968
 30
0.0
 10
476.8342158146839
 20
534.3862499550082
 30
0.0
 10
476.7051026299069
 20
534.3025368473395
 30
0.0
 10
476.6238578830338
 20
534.2069276812997
 30
0.0
 10
476.5770262059964
 20
534.1214171556538
 30
0.0
 10
476.5479282959006
 20
534.0423897064571
 30
0.0
 10
476.5257966499864
 20
533.9503835909998
 30
0.0
 10
476.5044134211772
 20
533.805060360944
 30
0.0
 10
476.4883021176279
 20
533.6215186317572
 30
0.0
 10
476.4785937061403
 20
533.4700066872068
 30
0.0
 10
476.4774867871675
 20
533.4527318275407
 30
0.0
  0
SPLINE
  5
13C
330
1F
100
AcDbEntity
  8
0
  6
Continuous
 62
     7
370
    25
100
AcDbSpline
210
0.0
220
0.0
230
1.0
 70
     8
 71
     3
 72
    13
 73
     9
 74
     0
 42
0.000000001
 43
0.00000001
 40
0.0
 40
0.0
 40
0.0
 40
0.0
 40
0.2443165239855261
 40
0.4152047373137448
 40
0.5736085168145681
 40
0.7552009599597113
 40
0.9505545631484823
 40
1.0
 40
1.0
 40
1.0
 40
1.0
 10
476.5388292798671
 20
525.8518208659127
 30
0.0
 10
476.5444735468748
 20
525.8264063774993
 30
0.0
 10
476.5540657200198
 20
525.7832156189968
 30
0.0
 10
476.5993510713016
 20
525.6790811920362
 30
0.0
 10
476.6843164863024
 20
525.5633250074316
 30
0.0
 10
476.8206904653839
 20
525.4680796856035
 30
0.0
 10
476.9559447441466
 20
525.417104642831
 30
0.0
 10
477.0334498658864
 20
525.4294870536442
 30
0.0
 10
477.0491046437892
 20
525.4319880998567
 30
0.0
  0
LINE
  5
13D
330
1F
100
AcDbEntity
  8
0
  6
Continuous
 62
     7
370
    25
100
AcDbLine
 10
478.1436061093
 20
525.42441831
 30
0.0
 11
478.543363286
 21
525.42441831
 31
0.0
  0
LINE
  5
13E
330
1F
100
AcDbEntity
  8
0
  6
Continuous
 62
     7
370
    25
100
AcDbLine
 10
477.0442766676
 20
525.42441831
 30
0.0
 11
477.7438489327
 21
525.42441831
 31
0.0
  0
LINE
  5
13F
330
1F
100
AcDbEntity
  8
0
  6
Continuous
 62
     7
370
    25
100
AcDbLine
 10
477.7438489327
 20
534.4244216478
 30
0.0
 11
477.0442766676
 21
534.4244216478
 31
0.0
  0
LINE
  5
140
330
1F
100
AcDbEntity
  8
0
  6
Continuous
 62
     7
370
    25
100
AcDbLine
 10
478.543363286
 20
534.4244216478
 30
0.0
 11
478.1436061093
 21
534.4244216478
 31
0.0
  0
LINE
  5
141
330
1F
100
AcDbEntity
  8
0
  6
Continuous
 62
     7
370
    25
100
AcDbLine
 10
482.1048954109
 20
526.9244213498
 30
0.0
 11
482.357475681
 21
526.9244213498
 31
0.0
  0
LINE
  5
142
330
1F
100
AcDbEntity
  8
0
  6
Continuous
 62
     7
370
    25
100
AcDbLine
 10
482.357475681
 20
532.924418608
 30
0.0
 11
482.104800416
 21
532.924418608
 31
0.0
  0
LINE
  5
143
330
1F
100
AcDbEntity
  8
0
  6
Continuous
 62
     7
370
    25
100
AcDbLine
 10
478.9298491159
 20
524.8601262367
 30
0.0
 11
481.1285079995
 21
524.8601262367
 31
0.0
  0
LINE
  5
144
330
1F
100
AcDbEntity
  8
0
  6
Continuous
 62
     7
370
    25
100
AcDbLine
 10
478.7559022734
 20
534.9884082473
 30
0.0
 11
478.4564504007
 21
534.6885894335
 31
0.0
  0
LINE
  5
145
330
1F
100
AcDbEntity
  8
0
  6
Continuous
 62
     7
370
    25
100
AcDbLine
 10
480.9551702419
 20
534.9887137211
 30
0.0
 11
478.7565113583
 21
534.9887137211
 31
0.0
  0
SPLINE
  5
146
330
1F
100
AcDbEntity
  8
0
  6
Continuous
 62
     7
370
    25
100
AcDbSpline
210
0.0
220
0.0
230
1.0
 70
     8
 71
     3
 72
    27
 73
    23
 74
     0
 42
0.000000001
 43
0.00000001
 40
0.0
 40
0.0
 40
0.0
 40
0.0
 40
0.0392139907246489
 40
0.11557837797925
 40
0.1909384612924198
 40
0.2658551787368371
 40
0.3406109875501257
 40
0.4153115445518901
 40
0.4900174290019353
 40
0.5647688888473422
 40
0.6396466433834257
 40
0.7148184958579807
 40
0.7907790996981777
 40
0.8702598434934823
 40
0.8914775125680732
 40
0.9063454635584599
 40
0.9224941050618857
 40
0.9406252256496007
 40
0.9596737816488502
 40
0.9785303952136016
 40
0.9937341715991703
 40
0.9999999999999999
 40
0.9999999999999999
 40
0.9999999999999999
 40
0.9999999999999999
 10
482.0998532304439
 20
526.8332262433007
 30
0.0
 10
482.1039241528285
 20
526.9033061117818
 30
0.0
 10
482.1159226920587
 20
527.1098578393251
 30
0.0
 10
482.1328528247374
 20
527.5517153627209
 30
0.0
 10
482.1486449565996
 20
528.1793552376909
 30
0.0
 10
482.159201414798
 20
528.8847864327836
 30
0.0
 10
482.1642282975285
 20
529.6354746813553
 30
0.0
 10
482.1635302426402
 20
530.3988470848777
 30
0.0
 10
482.1571214327812
 20
531.1404236731953
 30
0.0
 10
482.1453829412844
 20
531.8265903597448
 30
0.0
 10
482.1284104199299
 20
532.4277943267348
 30
0.0
 10
482.1082320486254
 20
532.9153018951939
 30
0.0
 10
482.0794727014206
 20
533.2876967520115
 30
0.0
 10
482.0661471336019
 20
533.4376428554993
 30
0.0
 10
482.0186792926403
 20
533.6016118229853
 30
0.0
 10
481.9551864757804
 20
533.7197230521443
 30
0.0
 10
481.8486727692685
 20
533.8316114464296
 30
0.0
 10
481.6920314330151
 20
533.9132393850555
 30
0.0
 10
481.5040733459519
 20
533.9350875024636
 30
0.0
 10
481.3337058307736
 20
533.8887579874611
 30
0.0
 10
481.219808023536
 20
533.8168338552331
 30
0.0
 10
481.1795295517616
 20
533.7682554473068
 30
0.0
 10
481.1677744218978
 20
533.7540780103639
 30
0.0
  0
SPLINE
  5
147
330
1F
100
AcDbEntity
  8
0
  6
Continuous
 62
     7
370
    25
100
AcDbSpline
210
0.0
220
0.0
230
1.0
 70
     8
 71
     3
 72
    18
 73
    14
 74
     0
 42
0.000000001
 43
0.00000001
 40
0.0
 40
0.0
 40
0.0
 40
0.0
 40
0.0401231313898665
 40
0.1088208531874435
 40
0.1811819204439555
 40
0.2535133275936037
 40
0.3116322646987859
 40
0.3625070788401661
 40
0.4088904274151091
 40
0.4572871132645407
 40
0.5290326584104933
 40
0.6803349113710914
 40
1.0
 40
1.0
 40
1.0
 40
1.0
 10
481.1647550741109
 20
526.1000071561768
 30
0.0
 10
481.1854347801507
 20
526.0761633411295
 30
0.0
 10
481.2415217099828
 20
526.0114948018902
 30
0.0
 10
481.3856612016241
 20
525.9381147687212
 30
0.0
 10
481.5713501426667
 20
525.913214418775
 30
0.0
 10
481.7456422125828
 20
525.9572082509231
 30
0.0
 10
481.8755427251984
 20
526.042600985776
 30
0.0
 10
481.9580408350358
 20
526.1366190908276
 30
0.0
 10
482.0057269554902
 20
526.2222364668901
 30
0.0
 10
482.033955372399
 20
526.2974109947605
 30
0.0
 10
482.0554365552966
 20
526.3834965205907
 30
0.0
 10
482.076727532918
 20
526.519356922024
 30
0.0
 10
482.090503148324
 20
526.7063239552475
 30
0.0
 10
482.0998532304439
 20
526.8332262433007
 30
0.0
  0
LINE
  5
148
330
1F
100
AcDbEntity
  8
0
  6
Continuous
 62
     7
370
    25
100
AcDbLine
 10
512.0780065263
 20
541.9244219459
 30
0.0
 11
482.0780071968
 21
541.9244219459
 31
0.0
  0
LINE
  5
149
330
1F
100
AcDbEntity
  8
0
  6
Continuous
 62
     7
370
    25
100
AcDbLine
 10
512.0275800655
 20
477.924418906
 30
0.0
 11
512.0780065263
 21
477.924418906
 31
0.0
  0
LINE
  5
14A
330
1F
100
AcDbEntity
  8
0
  6
Continuous
 62
     7
370
    25
100
AcDbLine
 10
482.0780071968
 20
477.924418906
 30
0.0
 11
482.1284336576
 21
477.924418906
 31
0.0
  0
LINE
  5
14B
330
1F
100
AcDbEntity
  8
0
  6
Continuous
 62
     7
370
    25
100
AcDbLine
 10
472.078006489
 20
436.4241150117
 30
0.0
 11
472.078006489
 21
421.9244195058
 31
0.0
  0
LINE
  5
14C
330
1F
100
AcDbEntity
  8
0
  6
Continuous
 62
     7
370
    25
100
AcDbLine
 10
522.0780072341
 20
421.9244195058
 30
0.0
 11
522.0780072341
 21
436.4241150117
 31
0.0
  0
ARC
  5
14D
330
1F
100
AcDbEntity
  8
0
  6
Continuous
 62
     7
370
    25
100
AcDbCircle
 10
493.1469954762
 20
445.7215690502
 30
0.0
 40
1.0
100
AcDbArc
 50
75.4893914261
 51
90.0
  0
ARC
  5
14E
330
1F
100
AcDbEntity
  8
0
  6
Continuous
 62
     7
370
    25
100
AcDbCircle
 10
501.0090182469
 20
445.7215690502
 30
0.0
 40
1.0
100
AcDbArc
 50
90.0
 51
104.5106085739
  0
LINE
  5
14F
330
1F
100
AcDbEntity
  8
0
  6
Continuous
 62
     7
370
    25
100
AcDbLine
 10
493.1469953226
 20
446.7215699053
 30
0.0
 11
490.0780066455
 21
446.7215699053
 31
0.0
  0
LINE
  5
150
330
1F
100
AcDbEntity
  8
0
  6
Continuous
 62
     7
370
    25
100
AcDbLine
 10
504.0780070776
 20
446.7215699053
 30
0.0
 11
501.0090184005
 21
446.7215699053
 31
0.0
  0
LINE
  5
151
330
1F
100
AcDbEntity
  8
0
  6
Continuous
 62
     7
370
    25
100
AcDbLine
 10
513.0680070797
 20
532.2463934219
 30
0.0
 11
513.0680070797
 21
479.7833536661
 31
0.0
  0
LINE
  5
152
330
1F
100
AcDbEntity
  8
0
  6
Continuous
 62
     7
370
    25
100
AcDbLine
 10
513.0680070797
 20
540.0654871858
 30
0.0
 11
513.0680070797
 21
532.2463934219
 31
0.0
  0
LINE
  5
153
330
1F
100
AcDbEntity
  8
0
  6
Continuous
 62
     7
370
    25
100
AcDbLine
 10
498.0339544199
 20
428.5721055142
 30
0.0
 11
496.9950678496
 21
429.0761372915
 31
0.0
  0
LINE
  5
154
330
1F
100
AcDbEntity
  8
0
  6
Continuous
 62
     7
370
    25
100
AcDbLine
 10
496.9950678496
 20
429.0761372915
 30
0.0
 11
496.0391202548
 21
428.4284508697
 31
0.0
  0
LINE
  5
155
330
1F
100
AcDbEntity
  8
0
  6
Continuous
 62
     7
370
    25
100
AcDbLine
 10
496.0391202548
 20
428.4284508697
 30
0.0
 11
496.1220593031
 21
427.2767336017
 31
0.0
  0
LINE
  5
156
330
1F
100
AcDbEntity
  8
0
  6
Continuous
 62
     7
370
    25
100
AcDbLine
 10
496.1220593031
 20
427.2767336017
 30
0.0
 11
497.1609458735
 21
426.7727013587
 31
0.0
  0
LINE
  5
157
330
1F
100
AcDbEntity
  8
0
  6
Continuous
 62
     7
370
    25
100
AcDbLine
 10
497.1609458735
 20
426.7727013587
 30
0.0
 11
498.1168934682
 21
427.4203882462
 31
0.0
  0
LINE
  5
158
330
1F
100
AcDbEntity
  8
0
  6
Continuous
 62
     7
370
    25
100
AcDbLine
 10
498.1168934682
 20
427.4203882462
 30
0.0
 11
498.0339544199
 21
428.5721055142
 31
0.0
  0
CIRCLE
  5
159
330
1F
100
AcDbEntity
  8
0
  6
Continuous
 62
     7
370
    25
100
AcDbCircle
 10
497.0780068615
 20
427.9244195617
 30
0.0
 40
1.800000000000027
  0
LINE
  5
15A
330
1F
100
AcDbEntity
  8
0
  6
Continuous
 62
     7
370
    25
100
AcDbLine
 10
593.078007696
 20
504.0735428131
 30
0.0
 11
593.078007696
 21
477.924418906
 31
0.0
  0
LINE
  5
15B
330
1F
100
AcDbEntity
  8
0
  6
Continuous
 62
     7
370
    25
100
AcDbLine
 10
593.078007696
 20
541.9244219459
 30
0.0
 11
593.078007696
 21
504.0735428131
 31
0.0
  0
LINE
  5
15C
330
1F
100
AcDbEntity
  8
0
  6
Continuous
 62
     7
370
    25
100
AcDbLine
 10
513.0780076215
 20
504.0735428131
 30
0.0
 11
513.0780076215
 21
541.9244219459
 31
0.0
  0
LINE
  5
15D
330
1F
100
AcDbEntity
  8
0
  6
Continuous
 62
     7
370
    25
100
AcDbLine
 10
513.0780076215
 20
477.924418906
 30
0.0
 11
513.0780076215
 21
504.0735428131
 31
0.0
  0
SPLINE
  5
15E
330
1F
100
AcDbEntity
  8
0
  6
Continuous
 62
     7
370
    25
100
AcDbSpline
210
0.0
220
0.0
230
1.0
 70
     8
 71
     3
 72
    10
 73
     6
 74
     0
 42
0.000000001
 43
0.00000001
 40
0.0
 40
0.0
 40
0.0
 40
0.0
 40
0.5
 40
0.5
 40
1.0
 40
1.0
 40
1.0
 40
1.0
 10
522.0683476198355
 20
421.7174396623272
 30
0.0
 10
522.0702328364068
 20
421.7714147619304
 30
0.0
 10
522.0493731770913
 20
421.8249744626902
 30
0.0
 10
521.9753571452541
 20
421.9016480066494
 30
0.0
 10
521.922436542835
 20
421.9244195616677
 30
0.0
 10
521.8684302097421
 20
421.9244195616677
 30
0.0
  0
LWPOLYLINE
  5
15F
330
1F
100
AcDbEntity
  8
0
  6
Continuous
 62
     7
370
    25
100
AcDbPolyline
 90
        4
 70
   128
 43
0.0
 10
521.9950077662
 20
419.6174396577
 10
521.9952461848
 20
419.6242976989
 10
522.0231690982
 20
420.4238102914
 10
522.0683475563
 20
421.7174395828
  0
SPLINE
  5
160
330
1F
100
AcDbEntity
  8
0
  6
Continuous
 62
     7
370
    25
100
AcDbSpline
210
0.0
220
0.0
230
1.0
 70
     8
 71
     3
 72
    10
 73
     6
 74
     0
 42
0.000000001
 43
0.00000001
 40
0.0
 40
0.0
 40
0.0
 40
0.0
 40
0.5
 40
0.5
 40
1.0
 40
1.0
 40
1.0
 40
1.0
 10
521.982785121023
 20
419.4244195616678
 30
0.0
 10
521.9842922913219
 20
419.4244195616678
 30
0.0
 10
521.9863363540237
 20
419.4483476475576
 30
0.0
 10
521.9906304214312
 20
419.5215120247463
 30
0.0
 10
521.9928541436765
 20
419.5693889538578
 30
0.0
 10
521.9950069053396
 20
419.6174396623272
 30
0.0
  0
LINE
  5
161
330
1F
100
AcDbEntity
  8
0
  6
Continuous
 62
     7
370
    25
100
AcDbLine
 10
472.1661114672
 20
419.4244195617
 30
0.0
 11
521.9827850887
 21
419.4244195617
 31
0.0
  0
LINE
  5
162
330
1F
100
AcDbEntity
  8
0
  6
Continuous
 62
     7
370
    25
100
AcDbLine
 10
472.1653086672
 20
419.4244195617
 30
0.0
 11
472.1661114672
 21
419.4244195617
 31
0.0
  0
SPLINE
  5
163
330
1F
100
AcDbEntity
  8
0
  6
Continuous
 62
     7
370
    25
100
AcDbSpline
210
0.0
220
0.0
230
1.0
 70
     8
 71
     3
 72
    22
 73
    18
 74
     0
 42
0.000000001
 43
0.00000001
 40
0.0
 40
0.0
 40
0.0
 40
0.0
 40
0.125
 40
0.125
 40
0.25
 40
0.25
 40
0.375
 40
0.375
 40
0.5
 40
0.5
 40
0.625
 40
0.625
 40
0.75
 40
0.75
 40
0.875
 40
0.875
 40
1.0
 40
1.0
 40
1.0
 40
1.0
 10
472.1661116229919
 20
419.4244195616678
 30
0.0
 10
472.1681328799286
 20
419.4244193855548
 30
0.0
 10
472.1747968389764
 20
419.3996474882139
 30
0.0
 10
472.1966023471658
 20
419.3027312539333
 30
0.0
 10
472.2119824453224
 20
419.2293711538319
 30
0.0
 10
472.2493370411669
 20
419.0384206716801
 30
0.0
 10
472.2711641147465
 20
418.9216716403062
 30
0.0
 10
472.3193017200734
 20
418.6460214734422
 30
0.0
 10
472.3457493837016
 20
418.4859939117714
 30
0.0
 10
472.3988668247981
 20
418.1365536835562
 30
0.0
 10
472.4257944978643
 20
417.9458241913055
 30
0.0
 10
472.4782532862509
 20
417.5312286846158
 30
0.0
 10
472.5032357841308
 20
417.3112552201342
 30
0.0
 10
472.5480059705359
 20
416.8549487933098
 30
0.0
 10
472.5680769520451
 20
416.6156386099474
 30
0.0
 10
472.6011981451133
 20
416.1245512277888
 30
0.0
 10
472.6140770817815
 20
415.8760112609506
 30
0.0
 10
472.6229796077549
 20
415.6244195616677
 30
0.0
  0
SPLINE
  5
164
330
1F
100
AcDbEntity
  8
0
  6
Continuous
 62
     7
370
    25
100
AcDbSpline
210
0.0
220
0.0
230
1.0
 70
     8
 71
     3
 72
    16
 73
    12
 74
     0
 42
0.000000001
 43
0.00000001
 40
0.0
 40
0.0
 40
0.0
 40
0.0
 40
0.2330473831886884
 40
0.4806930986679069
 40
0.7319741927080745
 40
0.867719478580339
 40
0.9370125373957192
 40
0.968646581873191
 40
0.9825798741717422
 40
0.9958683557867952
 40
1.0
 40
1.0
 40
1.0
 40
1.0
 10
521.990610061017
 20
419.4244195616678
 30
0.0
 10
521.9906031950255
 20
419.4270753887557
 30
0.0
 10
521.9905890329497
 20
419.4325534067233
 30
0.0
 10
521.9914852777373
 20
419.4750210558087
 30
0.0
 10
521.9926808468855
 20
419.5250078519614
 30
0.0
 10
521.9936832422012
 20
419.5650438753079
 30
0.0
 10
521.9942508604847
 20
419.5872893508686
 30
0.0
 10
521.994368357074
 20
419.5947438227155
 30
0.0
 10
521.9943464925
 20
419.596761245149
 30
0.0
 10
521.9943196727729
 20
419.5973127545704
 30
0.0
 10
521.994281156528
 20
419.5970564710003
 30
0.0
 10
521.9942720213804
 20
419.5969956865641
 30
0.0
  0
LINE
  5
165
330
1F
100
AcDbEntity
  8
0
  6
Continuous
 62
     7
370
    25
100
AcDbLine
 10
521.6414963433
 20
409.4244197852
 30
0.0
 11
473.5330490002
 21
409.4244197852
 31
0.0
  0
SPLINE
  5
166
330
1F
100
AcDbEntity
  8
0
  6
Continuous
 62
     7
370
    25
100
AcDbSpline
210
0.0
220
0.0
230
1.0
 70
     8
 71
     3
 72
    20
 73
    16
 74
     0
 42
0.000000001
 43
0.00000001
 40
0.0
 40
0.0
 40
0.0
 40
0.0
 40
0.1250000000000001
 40
0.1250000000000001
 40
0.2500000000000002
 40
0.2500000000000002
 40
0.3750000000000003
 40
0.3750000000000003
 40
0.5000000000000004
 40
0.5000000000000004
 40
0.7500000000000002
 40
0.7500000000000002
 40
0.8750000000000001
 40
0.8750000000000001
 40
1.0
 40
1.0
 40
1.0
 40
1.0
 10
472.7362178810754
 20
412.4244195616678
 30
0.0
 10
472.7433442815358
 20
412.2230468941096
 30
0.0
 10
472.7536178207444
 20
412.0252628070191
 30
0.0
 10
472.7804783097731
 20
411.636564058613
 30
0.0
 10
472.7973149890456
 20
411.443569734236
 30
0.0
 10
472.8372186138913
 20
411.077267416049
 30
0.0
 10
472.8601818305027
 20
410.9038860579752
 30
0.0
 10
472.9132826783541
 20
410.5765200947252
 30
0.0
 10
472.9435754449551
 20
410.4226294041214
 30
0.0
 10
473.0434651016625
 20
410.0103415258215
 30
0.0
 10
473.1249258843806
 20
409.791026099699
 30
0.0
 10
473.2648400363059
 20
409.5726941367988
 30
0.0
 10
473.3150672054728
 20
409.5169406187173
 30
0.0
 10
473.4206571151959
 20
409.4428746917401
 30
0.0
 10
473.4756690553915
 20
409.4244195616678
 30
0.0
 10
473.5330485962327
 20
409.4244195616678
 30
0.0
  0
LINE
  5
167
330
1F
100
AcDbEntity
  8
0
  6
Continuous
 62
     7
370
    25
100
AcDbLine
 10
472.7362187186
 20
412.4244193456
 30
0.0
 11
472.6229792068
 21
415.6244194976
 31
0.0
  0
SPLINE
  5
168
330
1F
100
AcDbEntity
  8
0
  6
Continuous
 62
     7
370
    25
100
AcDbSpline
210
0.0
220
0.0
230
1.0
 70
    24
 71
     3
 72
    20
 73
    16
 74
     0
 42
0.000000001
 43
0.00000001
 40
0.0
 40
0.0
 40
0.0
 40
0.0
 40
0.000020639561723
 40
0.000020639561723
 40
0.000020639561723
 40
0.0000545520896985
 40
0.0000545520896985
 40
0.0000545520896985
 40
0.0000885321776452
 40
0.0000885321776452
 40
0.0000885321776452
 40
0.0001225732233497
 40
0.0001225732233497
 40
0.0001225732233497
 40
0.0001566467380346
 40
0.0001566467380346
 40
0.0001566467380346
 40
0.0001566467380346
 10
521.9950069053396
 20
419.617439662327
 30
0.0
 10
521.9951033830935
 20
419.6174463765732
 30
0.0
 10
521.9959202140584
 20
419.617503222882
 30
0.0
 10
521.9974306906674
 20
419.6176083425742
 30
0.0
 10
521.9998902463632
 20
419.6177795122142
 30
0.0
 10
522.0042773013215
 20
419.6180848237059
 30
0.0
 10
522.0102193074027
 20
419.6184983500363
 30
0.0
 10
522.016173364485
 20
419.6189127150406
 30
0.0
 10
522.0238529830059
 20
419.6194471682916
 30
0.0
 10
522.0326134443924
 20
419.6200568414213
 30
0.0
 10
522.0413900492672
 20
419.6206676380366
 30
0.0
 10
522.0514930000248
 20
419.6213707400015
 30
0.0
 10
522.0620852355325
 20
419.6221078931122
 30
0.0
 10
522.0726879589769
 20
419.6228457761173
 30
0.0
 10
522.0840718021562
 20
419.6236380201507
 30
0.0
 10
522.0953018596621
 20
419.6244195616678
 30
0.0
  0
LINE
  5
169
330
1F
100
AcDbEntity
  8
0
  6
Continuous
 62
     7
370
    25
100
AcDbLine
 10
522.0953018943
 20
419.6244195566
 30
0.0
 11
522.0953018943
 21
419.4244195617
 31
0.0
  0
SPLINE
  5
16A
330
1F
100
AcDbEntity
  8
0
  6
Continuous
 62
     7
370
    25
100
AcDbSpline
210
0.0
220
0.0
230
1.0
 70
    24
 71
     3
 72
     8
 73
     4
 74
     0
 42
0.000000001
 43
0.00000001
 40
0.0
 40
0.0
 40
0.0
 40
0.0
 40
1.0
 40
1.0
 40
1.0
 40
1.0
 10
522.0953018596621
 20
419.4244195616678
 30
0.0
 10
522.0592748161769
 20
419.4244195616678
 30
0.0
 10
522.0243773886525
 20
419.4244195616678
 30
0.0
 10
521.9906098363398
 20
419.4244195616678
 30
0.0
  0
SPLINE
  5
16B
330
1F
100
AcDbEntity
  8
0
  6
Continuous
 62
     7
370
    25
100
AcDbSpline
210
0.0
220
0.0
230
1.0
 70
     8
 71
     3
 72
    12
 73
     8
 74
     0
 42
0.000000001
 43
0.00000001
 40
0.0
 40
0.0
 40
0.0
 40
0.0
 40
0.2499999999999995
 40
0.2499999999999995
 40
0.499999999999999
 40
0.499999999999999
 40
1.0
 40
1.0
 40
1.0
 40
1.0
 10
522.1513007920488
 20
421.8244195616677
 30
0.0
 10
522.1254964107127
 20
421.8317185694785
 30
0.0
 10
522.1013571621007
 20
421.841387060014
 30
0.0
 10
522.0561112297245
 20
421.8634346084039
 30
0.0
 10
522.0346279803503
 20
421.8756275079364
 30
0.0
 10
521.968028514205
 20
421.9085249099729
 30
0.0
 10
521.9183987303792
 20
421.9244195616677
 30
0.0
 10
521.8684302097421
 20
421.9244195616677
 30
0.0
  0
LINE
  5
16C
330
1F
100
AcDbEntity
  8
0
  6
Continuous
 62
     7
370
    25
100
AcDbLine
 10
522.151300458
 20
421.8244196757
 30
0.0
 11
522.151300458
 21
421.9244195058
 31
0.0
  0
LINE
  5
16D
330
1F
100
AcDbEntity
  8
0
  6
Continuous
 62
     7
370
    25
100
AcDbLine
 10
522.0780072341
 20
421.9244195058
 30
0.0
 11
522.151300458
 21
421.9244195058
 31
0.0
  0
SPLINE
  5
16E
330
1F
100
AcDbEntity
  8
0
  6
Continuous
 62
     7
370
    25
100
AcDbSpline
210
0.0
220
0.0
230
1.0
 70
     8
 71
     3
 72
     8
 73
     4
 74
     0
 42
0.000000001
 43
0.00000001
 40
0.0
 40
0.0
 40
0.0
 40
0.0
 40
1.0
 40
1.0
 40
1.0
 40
1.0
 10
522.1513007920488
 20
421.8244195616677
 30
0.0
 10
522.1639014037819
 20
421.7887831214675
 30
0.0
 10
522.1695962595709
 20
421.7517252535304
 30
0.0
 10
522.1682769802737
 20
421.713949712657
 30
0.0
  0
LWPOLYLINE
  5
16F
330
1F
100
AcDbEntity
  8
0
  6
Continuous
 62
     7
370
    25
100
AcDbPolyline
 90
        9
 70
   128
 43
0.0
 10
522.0683475563
 20
421.7174395828
 10
522.0705026368
 20
421.7173643785
 10
522.0763494799
 20
421.7171601861
 10
522.0856682936
 20
421.7168346888
 10
522.0981033126
 20
421.7164004597
 10
522.1131888756
 20
421.7158735639
 10
522.1303531507
 20
421.7152742579
 10
522.1489497999
 20
421.7146246604
 10
522.1682766059
 20
421.7139496843
  0
LINE
  5
170
330
1F
100
AcDbEntity
  8
0
  6
Continuous
 62
     7
370
    25
100
AcDbLine
 10
522.1682766059
 20
421.7139496843
 30
0.0
 11
522.0953018943
 21
419.6244195566
 31
0.0
  0
LINE
  5
171
330
1F
100
AcDbEntity
  8
0
  6
Continuous
 62
     7
370
    25
100
AcDbLine
 10
522.1514010409
 20
419.6244195566
 30
0.0
 11
522.3438756147
 21
421.8244196757
 31
0.0
  0
LWPOLYLINE
  5
172
330
1F
100
AcDbEntity
  8
0
  6
Continuous
 62
     7
370
    25
100
AcDbPolyline
 90
        9
 70
   128
 43
0.0
 10
522.3438756147
 20
421.8244196757
 10
522.3633104542
 20
421.8227193135
 10
522.381998373
 20
421.8210841439
 10
522.3992222527
 20
421.8195774968
 10
522.414317129
 20
421.8182566485
 10
522.4267074445
 20
421.8171728219
 10
522.4359126368
 20
421.8163674607
 10
522.441580666
 20
421.8158715314
 10
522.4434954652
 20
421.8157038933
  0
LINE
  5
173
330
1F
100
AcDbEntity
  8
0
  6
Continuous
 62
     7
370
    25
100
AcDbLine
 10
522.4434954652
 20
421.8157038933
 30
0.0
 11
522.2510208914
 21
419.6157039926
 31
0.0
  0
LWPOLYLINE
  5
174
330
1F
100
AcDbEntity
  8
0
  6
Continuous
 62
     7
370
    25
100
AcDbPolyline
 90
        9
 70
   128
 43
0.0
 10
522.1514010409
 20
419.6244195566
 10
522.1708358804
 20
419.6227192381
 10
522.1895237991
 20
419.6210842576
 10
522.2067458162
 20
419.6195774505
 10
522.2218425551
 20
419.6182567187
 10
522.234231008
 20
419.6171728192
 10
522.243438063
 20
419.6163674144
 10
522.2491060922
 20
419.615871456
 10
522.2510208914
 20
419.6157039926
  0
LWPOLYLINE
  5
175
330
1F
100
AcDbEntity
  8
0
  6
Continuous
 62
     7
370
    25
100
AcDbPolyline
 90
        9
 70
   128
 43
0.0
 10
522.2510208914
 20
419.6157039926
 10
522.2493128458
 20
419.5961949529
 10
522.2476718554
 20
419.5774356424
 10
522.2461593876
 20
419.560146963
 10
522.2448331842
 20
419.5449933115
 10
522.2437453994
 20
419.5325570265
 10
522.2429370114
 20
419.5233160365
 10
522.2424396852
 20
419.5176254591
 10
522.2422720471
 20
419.5157039878
  0
ARC
  5
176
330
1F
100
AcDbEntity
  8
0
  6
Continuous
 62
     7
370
    25
100
AcDbCircle
 10
522.1426520853
 20
419.5244195617
 30
0.0
 40
0.0999999999999659
100
AcDbArc
 50
270.0
 51
355.0
  0
LWPOLYLINE
  5
177
330
1F
100
AcDbEntity
  8
0
  6
Continuous
 62
     7
370
    25
100
AcDbPolyline
 90
        9
 70
   128
 43
0.0
 10
522.1426521966
 20
419.4244195617
 10
522.1428198347
 20
419.4282625056
 10
522.1433171609
 20
419.4396436553
 10
522.1441274116
 20
419.458125639
 10
522.1452151963
 20
419.4829982055
 10
522.146539537
 20
419.5133055121
 10
522.1480520049
 20
419.5478828708
 10
522.1496948579
 20
419.5854014918
 10
522.1514010409
 20
419.6244195566
  0
ARC
  5
178
330
1F
100
AcDbEntity
  8
0
  6
Continuous
 62
     7
370
    25
100
AcDbCircle
 10
522.3438760114
 20
421.8244195617
 30
0.0
 40
0.100000000000049
100
AcDbArc
 50
355.0
 51
90.0
  0
LINE
  5
179
330
1F
100
AcDbEntity
  8
0
  6
Continuous
 62
     7
370
    25
100
AcDbLine
 10
522.3438756147
 20
421.8244196757
 30
0.0
 11
522.3438756147
 21
421.9244195058
 31
0.0
  0
LINE
  5
17A
330
1F
100
AcDbEntity
  8
0
  6
Continuous
 62
     7
370
    25
100
AcDbLine
 10
522.0953018943
 20
419.6244195566
 30
0.0
 11
522.1514010409
 21
419.6244195566
 31
0.0
  0
LINE
  5
17B
330
1F
100
AcDbEntity
  8
0
  6
Continuous
 62
     7
370
    25
100
AcDbLine
 10
522.1426521966
 20
419.4244195617
 30
0.0
 11
522.0953018943
 21
419.4244195617
 31
0.0
  0
LINE
  5
17C
330
1F
100
AcDbEntity
  8
0
  6
Continuous
 62
     7
370
    25
100
AcDbLine
 10
522.3438756147
 20
421.8244196757
 30
0.0
 11
522.151300458
 21
421.8244196757
 31
0.0
  0
LINE
  5
17D
330
1F
100
AcDbEntity
  8
0
  6
Continuous
 62
     7
370
    25
100
AcDbLine
 10
522.151300458
 20
421.9244195058
 30
0.0
 11
522.3438756147
 21
421.9244195058
 31
0.0
  0
LINE
  5
17E
330
1F
100
AcDbEntity
  8
0
  6
Continuous
 62
     7
370
    25
100
AcDbLine
 10
479.039350299
 20
529.5320724047
 30
0.0
 11
478.944735376
 21
525.099252621
 31
0.0
  0
LINE
  5
17F
330
1F
100
AcDbEntity
  8
0
  6
Continuous
 62
     7
370
    25
100
AcDbLine
 10
478.944735376
 20
525.099252621
 30
0.0
 11
478.6359851787
 21
525.2557744182
 31
0.0
  0
LINE
  5
180
330
1F
100
AcDbEntity
  8
0
  6
Continuous
 62
     7
370
    25
100
AcDbLine
 10
478.6359851787
 20
525.2557744182
 30
0.0
 11
478.7306019643
 21
529.6886016524
 31
0.0
  0
LINE
  5
181
330
1F
100
AcDbEntity
  8
0
  6
Continuous
 62
     7
370
    25
100
AcDbLine
 10
478.7306019643
 20
529.6886016524
 30
0.0
 11
479.039350299
 21
529.5320724047
 31
0.0
  0
LINE
  5
182
330
1F
100
AcDbEntity
  8
0
  6
Continuous
 62
     7
370
    25
100
AcDbLine
 10
478.944735376
 20
525.099252621
 30
0.0
 11
481.1433942595
 21
525.099252621
 31
0.0
  0
LINE
  5
183
330
1F
100
AcDbEntity
  8
0
  6
Continuous
 62
     7
370
    25
100
AcDbLine
 10
481.2380110452
 20
529.5320724047
 30
0.0
 11
479.039350299
 21
529.5320724047
 31
0.0
  0
LINE
  5
184
330
1F
100
AcDbEntity
  8
0
  6
Continuous
 62
     7
370
    25
100
AcDbLine
 10
481.2380110452
 20
529.5320724047
 30
0.0
 11
481.1433942595
 21
525.099252621
 31
0.0
  0
ARC
  5
185
330
1F
100
AcDbEntity
  8
0
  6
Continuous
 62
     7
370
    25
100
AcDbCircle
 10
431.0824942123
 20
529.9244199789
 30
0.0
 40
47.67372555450434
100
AcDbArc
 50
354.5836933532
 51
5.4163066468
  0
LINE
  5
186
330
1F
100
AcDbEntity
  8
0
  6
Continuous
 62
     7
370
    25
100
AcDbLine
 10
478.6381551603
 20
534.5571835435
 30
0.0
 11
478.4568694958
 21
534.6886490381
 31
0.0
  0
ARC
  5
187
330
1F
100
AcDbEntity
  8
0
  6
Continuous
 62
     7
370
    25
100
AcDbCircle
 10
478.0091702567
 20
534.4689443044
 30
0.0
 40
0.6351442136961262
100
AcDbArc
 50
358.5462515392
 51
7.9858120433
  0
LINE
  5
188
330
1F
100
AcDbEntity
  8
0
  6
Continuous
 62
     7
370
    25
100
AcDbLine
 10
478.7307789156
 20
529.8885379827
 30
0.0
 11
478.6441100368
 21
534.4528307116
 31
0.0
  0
ARC
  5
189
330
1F
100
AcDbEntity
  8
0
  6
Continuous
 62
     7
370
    25
100
AcDbCircle
 10
473.4510349708
 20
529.7932425143
 30
0.0
 40
5.280603881077293
100
AcDbArc
 50
358.8645480067
 51
1.0340341131
  0
ARC
  5
18A
330
1F
100
AcDbEntity
  8
0
  6
Continuous
 62
     7
370
    25
100
AcDbCircle
 10
478.1716704559
 20
525.2375635578
 30
0.0
 40
0.4646717091084913
100
AcDbArc
 50
350.41501633
 51
2.2460431754
  0
LINE
  5
18B
330
1F
100
AcDbEntity
  8
0
  6
Continuous
 62
     7
370
    25
100
AcDbLine
 10
478.4485695491
 20
525.2916564143
 30
0.0
 11
478.6298552135
 21
525.1601909197
 31
0.0
  0
ARC
  5
18C
330
1F
100
AcDbEntity
  8
0
  6
Continuous
 62
     7
370
    25
100
AcDbCircle
 10
479.0774686172
 20
525.3798907552
 30
0.0
 40
0.6350585302349177
100
AcDbArc
 50
178.5456132917
 51
187.9864502908
  0
LINE
  5
18D
330
1F
100
AcDbEntity
  8
0
  6
Continuous
 62
     7
370
    25
100
AcDbLine
 10
478.4420763681
 20
525.42441831
 30
0.0
 11
478.4426146725
 21
525.3960092462
 31
0.0
  0
LINE
  5
18E
330
1F
100
AcDbEntity
  8
0
  6
Continuous
 62
     7
370
    25
100
AcDbLine
 10
478.4507395307
 20
534.5930655396
 30
0.0
 11
478.4471390376
 21
534.4244216478
 31
0.0
  0
ARC
  5
18F
330
1F
100
AcDbEntity
  8
0
  6
Continuous
 62
     7
370
    25
100
AcDbCircle
 10
478.9152682729
 20
534.6112626745
 30
0.0
 40
0.4648850267039958
100
AcDbArc
 50
170.4177404076
 51
182.2433190978
  0
ARC
  5
190
330
1F
100
AcDbEntity
  8
0
  6
Continuous
 62
     7
370
    25
100
AcDbCircle
 10
539.3797865401
 20
530.0889084713
 30
0.0
 40
62.99119113232432
100
AcDbArc
 50
176.9674284795
 51
183.7482631204
  0
ARC
  5
191
330
1F
100
AcDbEntity
  8
0
  6
Continuous
 62
     7
370
    25
100
AcDbCircle
 10
429.2573593956
 20
529.9241043164
 30
0.0
 40
47.46471922106226
100
AcDbArc
 50
355.1772736295
 51
4.8236355777
  0
ARC
  5
192
330
1F
100
AcDbEntity
  8
0
  6
Continuous
 62
     7
370
    25
100
AcDbCircle
 10
477.521639146
 20
525.568484381
 30
0.0
 40
0.2648248895073129
100
AcDbArc
 50
327.0433031936
 51
4.1556928469
  0
LWPOLYLINE
  5
193
330
1F
100
AcDbEntity
  8
0
  6
Continuous
 62
     7
370
    25
100
AcDbPolyline
 90
        9
 70
   128
 43
0.0
 10
478.1855249384
 20
525.587675432
 10
478.1742391715
 20
525.5108524955
 10
478.1627876291
 20
525.4581098354
 10
478.1512317786
 20
525.4297231234
 10
478.1396330872
 20
525.4258637226
 10
478.1280567476
 20
525.4465316332
 10
478.1165642271
 20
525.4916299975
 10
478.1052207181
 20
525.5609129465
 10
478.1016872803
 20
525.587675432
  0
LINE
  5
194
330
1F
100
AcDbEntity
  8
0
  6
Continuous
 62
     7
370
    25
100
AcDbLine
 10
477.7857677618
 20
525.587675432
 30
0.0
 11
478.1855249384
 21
525.587675432
 31
0.0
  0
ARC
  5
195
330
1F
100
AcDbEntity
  8
0
  6
Continuous
 62
     7
370
    25
100
AcDbCircle
 10
477.4215572567
 20
534.2347706534
 30
0.0
 40
0.3739510986053118
100
AcDbArc
 50
353.8713109133
 51
30.474479739
  0
LINE
  5
196
330
1F
100
AcDbEntity
  8
0
  6
Continuous
 62
     7
370
    25
100
AcDbLine
 10
478.1931263933
 20
534.1948469079
 30
0.0
 11
477.7933710793
 21
534.1948469079
 31
0.0
  0
LWPOLYLINE
  5
197
330
1F
100
AcDbEntity
  8
0
  6
Continuous
 62
     7
370
    25
100
AcDbPolyline
 90
        9
 70
   128
 43
0.0
 10
478.1016872803
 20
534.2611645258
 10
478.1129730472
 20
534.3379800117
 10
478.1244245896
 20
534.3907301224
 10
478.1359823028
 20
534.4191093839
 10
478.1475791315
 20
534.4229762352
 10
478.1591554711
 20
534.4023083246
 10
478.1706479916
 20
534.3572099603
 10
478.1819915006
 20
534.2879270113
 10
478.1931263933
 20
534.1948469079
  0
LINE
  5
198
330
1F
100
AcDbEntity
  8
0
  6
Continuous
 62
     7
370
    25
100
AcDbLine
 10
477.7857677618
 20
534.2611645258
 30
0.0
 11
478.1016872803
 21
534.2611645258
 31
0.0
  0
LINE
  5
199
330
1F
100
AcDbEntity
  8
0
  6
Continuous
 62
     7
370
    25
100
AcDbLine
 10
478.2479142377
 20
526.5603561795
 30
0.0
 11
477.8481589237
 21
526.5603561795
 31
0.0
  0
ARC
  5
19A
330
1F
100
AcDbEntity
  8
0
  6
Continuous
 62
     7
370
    25
100
AcDbCircle
 10
400.7492142533
 20
529.3330090896
 30
0.0
 40
77.54828240160276
100
AcDbArc
 50
357.9510161818
 51
359.603408957
  0
LINE
  5
19B
330
1F
100
AcDbEntity
  8
0
  6
Continuous
 62
     7
370
    25
100
AcDbLine
 10
477.8958817551
 20
528.7962381638
 30
0.0
 11
478.2956389317
 21
528.7962381638
 31
0.0
  0
ARC
  5
19C
330
1F
100
AcDbEntity
  8
0
  6
Continuous
 62
     7
370
    25
100
AcDbCircle
 10
400.3439903959
 20
529.333061209
 30
0.0
 40
77.55374931209789
100
AcDbArc
 50
357.9511221503
 51
359.6033984078
  0
ARC
  5
19D
330
1F
100
AcDbEntity
  8
0
  6
Continuous
 62
     7
370
    25
100
AcDbCircle
 10
578.472101964
 20
530.1767561269
 30
0.0
 40
100.4843457899633
100
AcDbArc
 50
178.8310948218
 51
179.500589915
  0
LINE
  5
19E
330
1F
100
AcDbEntity
  8
0
  6
Continuous
 62
     7
370
    25
100
AcDbLine
 10
477.8958817551
 20
531.052601794
 30
0.0
 11
477.991573287
 21
531.052601794
 31
0.0
  0
ARC
  5
19F
330
1F
100
AcDbEntity
  8
0
  6
Continuous
 62
     7
370
    25
100
AcDbCircle
 10
580.1421106601
 20
529.6940669138
 30
0.0
 40
102.15448292701
100
AcDbArc
 50
180.5035751631
 51
181.1249252034
  0
ARC
  5
1A0
330
1F
100
AcDbEntity
  8
0
  6
Continuous
 62
     7
370
    25
100
AcDbCircle
 10
393.1333897405
 20
530.3727157495
 30
0.0
 40
84.76552715915547
100
AcDbArc
 50
0.3096241482
 51
1.8660841987
  0
LINE
  5
1A1
330
1F
100
AcDbEntity
  8
0
  6
Continuous
 62
     7
370
    25
100
AcDbLine
 10
478.2974345216
 20
530.8307831085
 30
0.0
 11
477.8976792077
 21
530.8307831085
 31
0.0
  0
ARC
  5
1A2
330
1F
100
AcDbEntity
  8
0
  6
Continuous
 62
     7
370
    25
100
AcDbCircle
 10
393.5451636263
 20
530.3730125045
 30
0.0
 40
84.75350715955577
100
AcDbArc
 50
0.3094674428
 51
1.8661482248
  0
LINE
  5
1A3
330
1F
100
AcDbEntity
  8
0
  6
Continuous
 62
     7
370
    25
100
AcDbLine
 10
477.853962926
 20
533.1329827106
 30
0.0
 11
478.2537201026
 21
533.1329827106
 31
0.0
  0
LINE
  5
1A4
330
1F
100
AcDbEntity
  8
0
  6
Continuous
 62
     7
370
    25
100
AcDbLine
 10
478.2479142377
 20
526.5603561795
 30
0.0
 11
478.1873205284
 21
527.6222203768
 31
0.0
  0
LINE
  5
1A5
330
1F
100
AcDbEntity
  8
0
  6
Continuous
 62
     7
370
    25
100
AcDbLine
 10
478.095883278
 20
527.6885305441
 30
0.0
 11
478.0958236733
 21
527.6222203768
 31
0.0
  0
LINE
  5
1A6
330
1F
100
AcDbEntity
  8
0
  6
Continuous
 62
     7
370
    25
100
AcDbLine
 10
478.0042318234
 20
530.8307831085
 30
0.0
 11
477.991573287
 21
531.052601794
 31
0.0
  0
LINE
  5
1A7
330
1F
100
AcDbEntity
  8
0
  6
Continuous
 62
     7
370
    25
100
AcDbLine
 10
478.1016872803
 20
534.2611645258
 30
0.0
 11
478.1016295383
 21
534.1948469079
 31
0.0
  0
LINE
  5
1A8
330
1F
100
AcDbEntity
  8
0
  6
Continuous
 62
     7
370
    25
100
AcDbLine
 10
478.1913289407
 20
532.1603094137
 30
0.0
 11
478.2537201026
 21
533.1329827106
 31
0.0
  0
LWPOLYLINE
  5
1A9
330
1F
100
AcDbEntity
  8
0
  6
Continuous
 62
     7
370
    25
100
AcDbPolyline
 90
        6
 70
   128
 43
0.0
 10
478.1161600331
 20
530.8307831085
 10
478.1232734749
 20
530.9735064304
 10
478.1388321498
 20
531.1166022814
 10
478.1551172564
 20
531.0781945384
 10
478.1696514765
 20
530.8641393578
 10
478.1710521856
 20
530.8307831085
  0
LWPOLYLINE
  5
1AA
330
1F
100
AcDbEntity
  8
0
  6
Continuous
 62
     7
370
    25
100
AcDbPolyline
 90
        4
 70
   128
 43
0.0
 10
478.1578776965
 20
528.7962381638
 10
478.1483800689
 20
528.7322376764
 10
478.1320949623
 20
528.7706454194
 10
478.1293345222
 20
528.7962381638
  0
LINE
  5
1AB
330
1F
100
AcDbEntity
  8
0
  6
Continuous
 62
     7
370
    25
100
AcDbLine
 10
478.7307789156
 20
529.8885379827
 30
0.0
 11
479.0397917459
 21
530.0319169558
 31
0.0
  0
ARC
  5
1AC
330
1F
100
AcDbEntity
  8
0
  6
Continuous
 62
     7
370
    25
100
AcDbCircle
 10
465.8556186222
 20
529.79363833
 30
0.0
 40
13.18632616227751
100
AcDbArc
 50
358.8633978576
 51
1.0353985277
  0
LINE
  5
1AD
330
1F
100
AcDbEntity
  8
0
  6
Continuous
 62
     7
370
    25
100
AcDbLine
 10
479.0397917459
 20
530.0319169558
 30
0.0
 11
481.2384524921
 21
530.0319169558
 31
0.0
  0
ARC
  5
1AE
330
1F
100
AcDbEntity
  8
0
  6
Continuous
 62
     7
370
    25
100
AcDbCircle
 10
468.0460343354
 20
529.7936456118
 30
0.0
 40
13.19456971844868
100
AcDbArc
 50
358.8640764379
 51
1.0347199473
  0
LINE
  5
1AF
330
1F
100
AcDbEntity
  8
0
  6
Continuous
 62
     7
370
    25
100
AcDbLine
 10
478.6441100368
 20
534.4528307116
 30
0.0
 11
478.9531228671
 21
534.5962096847
 31
0.0
  0
LINE
  5
1B0
330
1F
100
AcDbEntity
  8
0
  6
Continuous
 62
     7
370
    25
100
AcDbLine
 10
478.9531228671
 20
534.5962096847
 30
0.0
 11
479.0397917459
 21
530.0319169558
 31
0.0
  0
LINE
  5
1B1
330
1F
100
AcDbEntity
  8
0
  6
Continuous
 62
     7
370
    25
100
AcDbLine
 10
481.1517836133
 20
534.5962096847
 30
0.0
 11
478.9531228671
 21
534.5962096847
 31
0.0
  0
LINE
  5
1B2
330
1F
100
AcDbEntity
  8
0
  6
Continuous
 62
     7
370
    25
100
AcDbLine
 10
481.1517836133
 20
534.5962096847
 30
0.0
 11
481.2384524921
 21
530.0319169558
 31
0.0
  0
LINE
  5
1B3
330
1F
100
AcDbEntity
  8
0
  6
Continuous
 62
     7
370
    25
100
AcDbLine
 10
478.1913289407
 20
532.1603094137
 30
0.0
 11
477.8801405409
 21
532.1603094137
 31
0.0
  0
LINE
  5
1B4
330
1F
100
AcDbEntity
  8
0
  6
Continuous
 62
     7
370
    25
100
AcDbLine
 10
478.6381551603
 20
534.5571835435
 30
0.0
 11
478.938236607
 21
534.8570843137
 31
0.0
  0
ARC
  5
1B5
330
1F
100
AcDbEntity
  8
0
  6
Continuous
 62
     7
370
    25
100
AcDbCircle
 10
477.3670708278
 20
534.636567014
 30
0.0
 40
1.58656540535072
100
AcDbArc
 50
358.5424149134
 51
7.9894270569
  0
LINE
  5
1B6
330
1F
100
AcDbEntity
  8
0
  6
Continuous
 62
     7
370
    25
100
AcDbLine
 10
478.938236607
 20
534.8570843137
 30
0.0
 11
481.1368973533
 21
534.8570843137
 31
0.0
  0
ARC
  5
1B7
330
1F
100
AcDbEntity
  8
0
  6
Continuous
 62
     7
370
    25
100
AcDbCircle
 10
479.565731574
 20
534.636567014
 30
0.0
 40
1.58656540535072
100
AcDbArc
 50
358.5424149134
 51
7.9894270569
  0
LINE
  5
1B8
330
1F
100
AcDbEntity
  8
0
  6
Continuous
 62
     7
370
    25
100
AcDbLine
 10
477.8787882605
 20
527.6222203768
 30
0.0
 11
478.1873205284
 21
527.6222203768
 31
0.0
  0
ARC
  5
1B9
330
1F
100
AcDbEntity
  8
0
  6
Continuous
 62
     7
370
    25
100
AcDbCircle
 10
477.7833516374
 20
525.0537681037
 30
0.0
 40
1.162274076745339
100
AcDbArc
 50
350.4172776383
 51
2.2427898653
  0
LINE
  5
1BA
330
1F
100
AcDbEntity
  8
0
  6
Continuous
 62
     7
370
    25
100
AcDbLine
 10
478.929407669
 20
524.8602826989
 30
0.0
 11
478.6298552135
 21
525.1601909197
 31
0.0
  0
ARC
  5
1BB
330
1F
100
AcDbEntity
  8
0
  6
Continuous
 62
     7
370
    25
100
AcDbCircle
 10
479.897718311
 20
525.0567727493
 30
0.0
 40
1.246400059438758
100
AcDbArc
 50
350.9224253722
 51
1.9531359837
  0
LINE
  5
1BC
330
1F
100
AcDbEntity
  8
0
  6
Continuous
 62
     7
370
    25
100
AcDbLine
 10
478.4568694958
 20
534.6886490381
 30
0.0
 11
478.7569528052
 21
534.9885572589
 31
0.0
  0
LINE
  5
1BD
330
1F
100
AcDbEntity
  8
0
  6
Continuous
 62
     7
370
    25
100
AcDbLine
 10
478.7569528052
 20
534.9885572589
 30
0.0
 11
478.938236607
 21
534.8570843137
 31
0.0
  0
LINE
  5
1BE
330
1F
100
AcDbEntity
  8
0
  6
Continuous
 62
     7
370
    25
100
AcDbLine
 10
480.9556116888
 20
534.9885572589
 30
0.0
 11
478.7569528052
 21
534.9885572589
 31
0.0
  0
LINE
  5
1BF
330
1F
100
AcDbEntity
  8
0
  6
Continuous
 62
     7
370
    25
100
AcDbLine
 10
480.9556116888
 20
534.9885572589
 30
0.0
 11
481.1368973533
 21
534.8570843137
 31
0.0
  0
LINE
  5
1C0
330
1F
100
AcDbEntity
  8
0
  6
Continuous
 62
     7
370
    25
100
AcDbLine
 10
478.929407669
 20
524.8602826989
 30
0.0
 11
478.7481220046
 21
524.9917556441
 31
0.0
  0
LINE
  5
1C1
330
1F
100
AcDbEntity
  8
0
  6
Continuous
 62
     7
370
    25
100
AcDbLine
 10
478.7481220046
 20
524.9917556441
 30
0.0
 11
478.4485695491
 21
525.2916564143
 31
0.0
  0
LINE
  5
1C2
330
1F
100
AcDbEntity
  8
0
  6
Continuous
 62
     7
370
    25
100
AcDbLine
 10
478.095883278
 20
527.6885305441
 30
0.0
 11
477.8801405409
 21
527.6885305441
 31
0.0
  0
LINE
  5
1C3
330
1F
100
AcDbEntity
  8
0
  6
Continuous
 62
     7
370
    25
100
AcDbLine
 10
478.7559022734
 20
534.9884082473
 30
0.0
 11
478.7569528052
 21
534.9885572589
 31
0.0
  0
LINE
  5
1C4
330
1F
100
AcDbEntity
  8
0
  6
Continuous
 62
     7
370
    25
100
AcDbLine
 10
480.9551702419
 20
534.9887137211
 30
0.0
 11
480.9556116888
 21
534.9885572589
 31
0.0
  0
ELLIPSE
  5
1C5
330
1F
100
AcDbEntity
  8
0
  6
Continuous
 62
     7
370
    25
100
AcDbEllipse
 10
482.0780068615
 20
509.9244195617
 30
0.0
 11
0.0
 21
32.00000000000006
 31
0.0
210
0.0
220
0.0
230
1.0
 40
0.0349207695
 41
3.14159265358979
 42
6.283185307179586
  0
LINE
  5
1C6
330
1F
100
AcDbEntity
  8
0
  6
Continuous
 62
     7
370
    25
100
AcDbLine
 10
482.0780071968
 20
477.924418906
 30
0.0
 11
482.0780071968
 21
526.5809793866
 31
0.0
  0
LINE
  5
1C7
330
1F
100
AcDbEntity
  8
0
  6
Continuous
 62
     7
370
    25
100
AcDbLine
 10
482.0780071968
 20
533.2780902183
 30
0.0
 11
482.0780071968
 21
541.9244219459
 31
0.0
  0
ELLIPSE
  5
1C8
330
1F
100
AcDbEntity
  8
0
  6
Continuous
 62
     7
370
    25
100
AcDbEllipse
 10
512.027580283
 20
509.9244195617
 30
0.0
 11
0.0
 21
31.99999999999994
 31
0.0
210
0.0
220
0.0
230
1.0
 40
0.0355755339
 41
2.801755744135626
 42
3.14159265358979
  0
LINE
  5
1C9
330
1F
100
AcDbEntity
  8
0
  6
Continuous
 62
     7
370
    25
100
AcDbLine
 10
482.5079056973
 20
479.7545310951
 30
0.0
 11
511.6481080258
 21
479.7545310951
 31
0.0
  0
ELLIPSE
  5
1CA
330
1F
100
AcDbEntity
  8
0
  6
Continuous
 62
     7
370
    25
100
AcDbEllipse
 10
482.12843344
 20
509.9244195617
 30
0.0
 11
0.0
 21
32.00000000000006
 31
0.0
210
0.0
220
0.0
230
1.0
 40
0.0355755339
 41
3.14159265358974
 42
3.48142956304425
  0
LINE
  5
1CB
330
1F
100
AcDbEntity
  8
0
  6
Continuous
 62
     7
370
    25
100
AcDbLine
 10
512.0780065263
 20
541.9244219459
 30
0.0
 11
512.0780065263
 21
477.924418906
 31
0.0
  0
SPLINE
  5
1CC
330
1F
100
AcDbEntity
  8
0
  6
Continuous
 62
     7
370
    25
100
AcDbSpline
210
0.0
220
0.0
230
1.0
 70
     8
 71
     3
 72
    13
 73
     9
 74
     0
 42
0.000000001
 43
0.00000001
 40
0.0
 40
0.0
 40
0.0
 40
0.0
 40
0.004034227273037
 40
0.0677446054067533
 40
0.4492791333740849
 40
0.7161457086040421
 40
0.8743032403509073
 40
1.0
 40
1.0
 40
1.0
 40
1.0
 10
482.5079056972536
 20
479.7545310950712
 30
0.0
 10
482.5096485427781
 20
479.7540700991045
 30
0.0
 10
482.5389152088203
 20
479.7463288421695
 30
0.0
 10
482.7328390261795
 20
479.6897152611768
 30
0.0
 10
483.0412511291171
 20
479.5488561169522
 30
0.0
 10
483.3494012419139
 20
479.2831306308157
 30
0.0
 10
483.5167623113408
 20
479.0352399367267
 30
0.0
 10
483.546257493989
 20
478.8803211027969
 30
0.0
 10
483.5593185925755
 20
478.8117197251752
 30
0.0
  0
SPLINE
  5
1CD
330
1F
100
AcDbEntity
  8
0
  6
Continuous
 62
     7
370
    25
100
AcDbSpline
210
0.0
220
0.0
230
1.0
 70
     8
 71
     3
 72
    13
 73
     9
 74
     0
 42
0.000000001
 43
0.00000001
 40
0.0
 40
0.0
 40
0.0
 40
0.0
 40
0.1193732572343755
 40
0.157034023177801
 40
0.3619365105994297
 40
0.6664755092870527
 40
0.9959665532839139
 40
1.0
 40
1.0
 40
1.0
 40
1.0
 10
510.5966951304945
 20
478.8117197251752
 30
0.0
 10
510.6081228539207
 20
478.8770616145397
 30
0.0
 10
510.623155880806
 20
478.9630180507354
 30
0.0
 10
510.7058703538278
 20
479.140609887663
 30
0.0
 10
510.8849015454262
 20
479.3700959160624
 30
0.0
 10
511.2259219677869
 20
479.607727798444
 30
0.0
 10
511.5022537165906
 20
479.7159470632233
 30
0.0
 10
511.6463652269682
 20
479.7540700582555
 30
0.0
 10
511.6481080258164
 20
479.7545310950712
 30
0.0
  0
LINE
  5
1CE
330
1F
100
AcDbEntity
  8
0
  6
Continuous
 62
     7
370
    25
100
AcDbLine
 10
510.5966951305
 20
478.8117197252
 30
0.0
 11
483.5593185926
 21
478.8117197252
 31
0.0
  0
LWPOLYLINE
  5
1CF
330
1F
100
AcDbEntity
  8
0
  6
Continuous
 62
     7
370
    25
100
AcDbPolyline
 90
        9
 70
   128
 43
0.0
 10
483.5593185926
 20
478.8117197252
 10
483.4649802724
 20
478.8069513536
 10
483.3740394169
 20
478.8023506201
 10
483.2897714877
 20
478.798088888
 10
483.2152107337
 20
478.7943188942
 10
483.1530430892
 20
478.7911747492
 10
483.1055065224
 20
478.7887719369
 10
483.0743137354
 20
478.7871924139
 10
483.0605888346
 20
478.7864995099
  0
SPLINE
  5
1D0
330
1F
100
AcDbEntity
  8
0
  6
Continuous
 62
     7
370
    25
100
AcDbSpline
210
0.0
220
0.0
230
1.0
 70
     8
 71
     3
 72
    13
 73
     9
 74
     0
 42
0.000000001
 43
0.00000001
 40
0.0
 40
0.0
 40
0.0
 40
0.0
 40
0.117201855163367
 40
0.2725117162061431
 40
0.5417138578306903
 40
0.9308435756492753
 40
0.9953038427847469
 40
1.0
 40
1.0
 40
1.0
 40
1.0
 10
483.0605888346109
 20
478.7864995098547
 30
0.0
 10
483.0537905709761
 20
478.8480298368768
 30
0.0
 10
483.0379835985713
 20
478.9910969836569
 30
0.0
 10
482.9498185771012
 20
479.222536119656
 30
0.0
 10
482.7882785112703
 20
479.4934999451611
 30
0.0
 10
482.6266432526795
 20
479.6609514029242
 30
0.0
 10
482.5243925779939
 20
479.7421064307156
 30
0.0
 10
482.5089540693255
 20
479.7537410322741
 30
0.0
 10
482.5079056972536
 20
479.7545310950712
 30
0.0
  0
LWPOLYLINE
  5
1D1
330
1F
100
AcDbEntity
  8
0
  6
Continuous
 62
     7
370
    25
100
AcDbPolyline
 90
        9
 70
   128
 43
0.0
 10
510.5966951305
 20
478.8117197252
 10
510.6910334507
 20
478.8069513536
 10
510.7819743061
 20
478.8023506201
 10
510.8662422353
 20
478.798088888
 10
510.9408029893
 20
478.7943188942
 10
511.0029706338
 20
478.7911747492
 10
511.0505072007
 20
478.7887719369
 10
511.0816999877
 20
478.7871924139
 10
511.0954248885
 20
478.7864995099
  0
SPLINE
  5
1D2
330
1F
100
AcDbEntity
  8
0
  6
Continuous
 62
     7
370
    25
100
AcDbSpline
210
0.0
220
0.0
230
1.0
 70
     8
 71
     3
 72
    12
 73
     8
 74
     0
 42
0.000000001
 43
0.00000001
 40
0.0
 40
0.0
 40
0.0
 40
0.0
 40
0.0046976219283067
 40
0.3406002073070885
 40
0.6495317018366268
 40
0.8529450537036818
 40
1.0
 40
1.0
 40
1.0
 40
1.0
 10
511.6481080258164
 20
479.7545310950712
 30
0.0
 10
511.647059700502
 20
479.7537409848143
 30
0.0
 10
511.571051067867
 20
479.6964541870699
 30
0.0
 10
511.4250945856932
 20
479.5603483004729
 30
0.0
 10
511.249426393427
 20
479.3064938447797
 30
0.0
 10
511.1287577356408
 20
479.0455524370997
 30
0.0
 10
511.1052772121582
 20
478.8630688254155
 30
0.0
 10
511.0954248884591
 20
478.7864995098547
 30
0.0
  0
ELLIPSE
  5
1D3
330
1F
100
AcDbEntity
  8
0
  6
Continuous
 62
     7
370
    25
100
AcDbEllipse
 10
482.7280679362
 20
509.9244195617
 30
0.0
 11
-5.684341886080801E-14
 21
32.59999999999997
 31
0.0
210
0.0
220
0.0
230
1.0
 40
0.0349207695
 41
3.1422349756595
 42
3.438525474747954
  0
SPLINE
  5
1D4
330
1F
100
AcDbEntity
  8
0
  6
Continuous
 62
     7
370
    25
100
AcDbSpline
210
0.0
220
0.0
230
1.0
 70
     8
 71
     3
 72
    13
 73
     9
 74
     0
 42
0.000000001
 43
0.00000001
 40
0.0
 40
0.0
 40
0.0
 40
0.0
 40
0.2145062476946577
 40
0.429010450740337
 40
0.643572915935495
 40
0.8582600952026894
 40
0.980421915441171
 40
1.0
 40
1.0
 40
1.0
 40
1.0
 10
482.7287995794687
 20
477.3244273758367
 30
0.0
 10
482.7221690236062
 20
477.3918657309406
 30
0.0
 10
482.7089079750828
 20
477.5267417983337
 30
0.0
 10
482.605493597631
 20
477.7062389546026
 30
0.0
 10
482.4532914044547
 20
477.8428179303687
 30
0.0
 10
482.2901937915353
 20
477.9095420830221
 30
0.0
 10
482.1789122564801
 20
477.9239287525604
 30
0.0
 10
482.1345599072711
 20
477.9243594193725
 30
0.0
 10
482.1284336576137
 20
477.9244189060167
 30
0.0
  0
LINE
  5
1D5
330
1F
100
AcDbEntity
  8
0
  6
Continuous
 62
     7
370
    25
100
AcDbLine
 10
483.0611560101
 20
478.7510459221
 30
0.0
 11
483.0605888346
 21
478.7864995099
 31
0.0
  0
SPLINE
  5
1D6
330
1F
100
AcDbEntity
  8
0
  6
Continuous
 62
     7
370
    25
100
AcDbSpline
210
0.0
220
0.0
230
1.0
 70
     8
 71
     3
 72
    13
 73
     9
 74
     0
 42
0.000000001
 43
0.00000001
 40
0.0
 40
0.0
 40
0.0
 40
0.0
 40
0.0195780845588291
 40
0.1417399047973106
 40
0.3564270840645049
 40
0.5709895492596629
 40
0.7854937523053422
 40
0.9999999999999999
 40
0.9999999999999999
 40
0.9999999999999999
 40
0.9999999999999999
 10
512.0275800654564
 20
477.9244189060167
 30
0.0
 10
512.021453815799
 20
477.9243594193725
 30
0.0
 10
511.9771014665899
 20
477.9239287525604
 30
0.0
 10
511.8658199315348
 20
477.9095420830221
 30
0.0
 10
511.7027223186155
 20
477.8428179303687
 30
0.0
 10
511.550520125439
 20
477.7062389546027
 30
0.0
 10
511.4471057479872
 20
477.5267417983337
 30
0.0
 10
511.433844699464
 20
477.3918657309406
 30
0.0
 10
511.4272141436014
 20
477.3244273758367
 30
0.0
  0
ELLIPSE
  5
1D7
330
1F
100
AcDbEntity
  8
0
  6
Continuous
 62
     7
370
    25
100
AcDbEllipse
 10
511.4279457868
 20
509.9244195617
 30
0.0
 11
0.0
 21
32.59999999999997
 31
0.0
210
0.0
220
0.0
230
1.0
 40
0.0349207695
 41
2.844659832431919
 42
3.140950331520435
  0
LINE
  5
1D8
330
1F
100
AcDbEntity
  8
0
  6
Continuous
 62
     7
370
    25
100
AcDbLine
 10
511.0954248885
 20
478.7864995099
 30
0.0
 11
511.094857713
 21
478.7510459221
 31
0.0
  0
LINE
  5
1D9
330
1F
100
AcDbEntity
  8
0
  6
Continuous
 62
     7
370
    25
100
AcDbLine
 10
510.5951621735
 20
460.9244179821
 30
0.0
 11
510.5951621735
 21
478.7510459221
 31
0.0
  0
LINE
  5
1DA
330
1F
100
AcDbEntity
  8
0
  6
Continuous
 62
     7
370
    25
100
AcDbLine
 10
510.5951621735
 20
478.7510459221
 30
0.0
 11
511.094857713
 21
478.7510459221
 31
0.0
  0
LINE
  5
1DB
330
1F
100
AcDbEntity
  8
0
  6
Continuous
 62
     7
370
    25
100
AcDbLine
 10
511.094857713
 20
478.7510459221
 30
0.0
 11
511.094857713
 21
460.9244179821
 31
0.0
  0
LINE
  5
1DC
330
1F
100
AcDbEntity
  8
0
  6
Continuous
 62
     7
370
    25
100
AcDbLine
 10
510.5951621735
 20
460.9244179821
 30
0.0
 11
511.094857713
 21
460.9244179821
 31
0.0
  0
LINE
  5
1DD
330
1F
100
AcDbEntity
  8
0
  6
Continuous
 62
     7
370
    25
100
AcDbLine
 10
510.5951621735
 20
478.7510459221
 30
0.0
 11
510.5966951305
 21
478.8117197252
 31
0.0
  0
ARC
  5
1DE
330
1F
100
AcDbEntity
  8
0
  6
Continuous
 62
     7
370
    25
100
AcDbCircle
 10
497.0780068615
 20
460.9244195617
 30
0.0
 40
13.51715561259641
100
AcDbArc
 50
180.0
 51
0.0
  0
LINE
  5
1DF
330
1F
100
AcDbEntity
  8
0
  6
Continuous
 62
     7
370
    25
100
AcDbLine
 10
483.5608515495
 20
478.7510459221
 30
0.0
 11
483.5608515495
 21
460.9244179821
 31
0.0
  0
LINE
  5
1E0
330
1F
100
AcDbEntity
  8
0
  6
Continuous
 62
     7
370
    25
100
AcDbLine
 10
483.5593185926
 20
478.8117197252
 30
0.0
 11
483.5608515495
 21
478.7510459221
 31
0.0
  0
ARC
  5
1E1
330
1F
100
AcDbEntity
  8
0
  6
Continuous
 62
     7
370
    25
100
AcDbCircle
 10
497.0780068615
 20
460.9244195617
 30
0.0
 40
14.016851026106
100
AcDbArc
 50
180.0
 51
0.0
  0
LINE
  5
1E2
330
1F
100
AcDbEntity
  8
0
  6
Continuous
 62
     7
370
    25
100
AcDbLine
 10
483.5608515495
 20
460.9244179821
 30
0.0
 11
483.0611560101
 21
460.9244179821
 31
0.0
  0
LINE
  5
1E3
330
1F
100
AcDbEntity
  8
0
  6
Continuous
 62
     7
370
    25
100
AcDbLine
 10
483.0611560101
 20
460.9244179821
 30
0.0
 11
483.0611560101
 21
478.7510459221
 31
0.0
  0
LINE
  5
1E4
330
1F
100
AcDbEntity
  8
0
  6
Continuous
 62
     7
370
    25
100
AcDbLine
 10
483.5608515495
 20
478.7510459221
 30
0.0
 11
483.0611560101
 21
478.7510459221
 31
0.0
  0
LINE
  5
1E5
330
1F
100
AcDbEntity
  8
0
  6
Continuous
 62
     7
370
    25
100
AcDbLine
 10
511.4272141436
 20
477.3244273758
 30
0.0
 11
511.4272141436
 21
468.7992867923
 31
0.0
  0
LINE
  5
1E6
330
1F
100
AcDbEntity
  8
0
  6
Continuous
 62
     7
370
    25
100
AcDbLine
 10
511.4272141436
 20
460.9244179821
 30
0.0
 11
511.4272141436
 21
468.7992867923
 31
0.0
  0
LINE
  5
1E7
330
1F
100
AcDbEntity
  8
0
  6
Continuous
 62
     7
370
    25
100
AcDbLine
 10
511.094857713
 20
460.9244179821
 30
0.0
 11
511.4272141436
 21
460.9244179821
 31
0.0
  0
LINE
  5
1E8
330
1F
100
AcDbEntity
  8
0
  6
Continuous
 62
     7
370
    25
100
AcDbLine
 10
482.7287995795
 20
460.9244179821
 30
0.0
 11
482.7287995795
 21
468.7992867923
 31
0.0
  0
LINE
  5
1E9
330
1F
100
AcDbEntity
  8
0
  6
Continuous
 62
     7
370
    25
100
AcDbLine
 10
482.7287995795
 20
477.3244273758
 30
0.0
 11
482.7287995795
 21
468.7992867923
 31
0.0
  0
LINE
  5
1EA
330
1F
100
AcDbEntity
  8
0
  6
Continuous
 62
     7
370
    25
100
AcDbLine
 10
483.0611560101
 20
460.9244179821
 30
0.0
 11
482.7287995795
 21
460.9244179821
 31
0.0
  0
ARC
  5
1EB
330
1F
100
AcDbEntity
  8
0
  6
Continuous
 62
     7
370
    25
100
AcDbCircle
 10
497.0780068615
 20
460.9244195617
 30
0.0
 40
14.34920769491748
100
AcDbArc
 50
310.7337408461
 51
0.0
  0
LWPOLYLINE
  5
1EC
330
1F
100
AcDbEntity
  8
0
  6
Continuous
 62
     7
370
    25
100
AcDbPolyline
 90
        3
 70
   128
 43
0.0
 10
506.2450000623
 20
450.1351558513
 10
506.2980975563
 20
450.1124353058
 10
506.4415072629
 20
450.0513051546
  0
SPLINE
  5
1ED
330
1F
100
AcDbEntity
  8
0
  6
Continuous
 62
     7
370
    25
100
AcDbSpline
210
0.0
220
0.0
230
1.0
 70
     8
 71
     3
 72
    10
 73
     6
 74
     0
 42
0.000000001
 43
0.00000001
 40
0.0
 40
0.0
 40
0.0
 40
0.0
 40
0.2821793506824309
 40
0.9949546511050485
 40
0.9999999999999999
 40
0.9999999999999999
 40
0.9999999999999999
 40
0.9999999999999999
 10
505.3066664913568
 20
449.4257320559457
 30
0.0
 10
505.4059501388211
 20
449.4974200100048
 30
0.0
 10
505.7560208530118
 20
449.7501892617123
 30
0.0
 10
506.0436634961285
 20
449.9722718321662
 30
0.0
 10
506.2435948043212
 20
450.1340189784681
 30
0.0
 10
506.245000062314
 20
450.1351558512882
 30
0.0
  0
ARC
  5
1EE
330
1F
100
AcDbEntity
  8
0
  6
Continuous
 62
     7
370
    25
100
AcDbCircle
 10
497.0780068615
 20
460.9244195617
 30
0.0
 40
14.13968307796699
100
AcDbArc
 50
234.4118329433
 51
305.5881670567
  0
SPLINE
  5
1EF
330
1F
100
AcDbEntity
  8
0
  6
Continuous
 62
     7
370
    25
100
AcDbSpline
210
0.0
220
0.0
230
1.0
 70
     8
 71
     3
 72
    10
 73
     6
 74
     0
 42
0.000000001
 43
0.00000001
 40
0.0
 40
0.0
 40
0.0
 40
0.0
 40
0.0050453488949514
 40
0.7178206493175691
 40
0.9999999999999999
 40
0.9999999999999999
 40
0.9999999999999999
 40
0.9999999999999999
 10
487.9110136607561
 20
450.1351558512882
 30
0.0
 10
487.9124189187489
 20
450.1340189784681
 30
0.0
 10
488.1123502269414
 20
449.9722718321667
 30
0.0
 10
488.3999928700584
 20
449.7501892617123
 30
0.0
 10
488.750063584249
 20
449.4974200100048
 30
0.0
 10
488.8493472317132
 20
449.4257320559457
 30
0.0
  0
LWPOLYLINE
  5
1F0
330
1F
100
AcDbEntity
  8
0
  6
Continuous
 62
     7
370
    25
100
AcDbPolyline
 90
        3
 70
   128
 43
0.0
 10
487.7145064602
 20
450.0513051546
 10
487.7861205095
 20
450.0817892051
 10
487.9110136608
 20
450.1351558513
  0
ARC
  5
1F1
330
1F
100
AcDbEntity
  8
0
  6
Continuous
 62
     7
370
    25
100
AcDbCircle
 10
497.0780068615
 20
460.9244195617
 30
0.0
 40
14.34920769491748
100
AcDbArc
 50
180.0
 51
229.2662591539
  0
SPLINE
  5
1F2
330
1F
100
AcDbEntity
  8
0
  6
Continuous
 62
     7
370
    25
100
AcDbSpline
210
0.0
220
0.0
230
1.0
 70
     8
 71
     3
 72
    10
 73
     6
 74
     0
 42
0.000000001
 43
0.00000001
 40
0.0
 40
0.0
 40
0.0
 40
0.0
 40
0.1050032773955197
 40
0.6123619675834584
 40
1.0
 40
1.0
 40
1.0
 40
1.0
 10
488.3211699852619
 20
449.8194076961711
 30
0.0
 10
488.2980034849726
 20
449.8175997131529
 30
0.0
 10
488.1629002381884
 20
449.8070558514195
 30
0.0
 10
487.9435938599202
 20
449.8864561883372
 30
0.0
 10
487.7837412821111
 20
450.0014844798731
 30
0.0
 10
487.7145064601573
 20
450.0513051546052
 30
0.0
  0
SPLINE
  5
1F3
330
1F
100
AcDbEntity
  8
0
  6
Continuous
 62
     7
370
    25
100
AcDbSpline
210
0.0
220
0.0
230
1.0
 70
     8
 71
     3
 72
    10
 73
     6
 74
     0
 42
0.000000001
 43
0.00000001
 40
0.0
 40
0.0
 40
0.0
 40
0.0
 40
0.498192143576438
 40
0.9963720860788492
 40
1.0
 40
1.0
 40
1.0
 40
1.0
 10
506.4415072629127
 20
450.0513051546052
 30
0.0
 10
506.3493406531848
 20
449.9888701101163
 30
0.0
 10
506.1650096909537
 20
449.8640015502164
 30
0.0
 10
505.9351963550159
 20
449.7949218695806
 30
0.0
 10
505.8234328011827
 20
449.8098986486723
 30
0.0
 10
505.8226247856292
 20
449.810006926103
 30
0.0
  0
ELLIPSE
  5
1F4
330
1F
100
AcDbEntity
  8
0
  6
Continuous
 62
     7
370
    25
100
AcDbEllipse
 10
497.0780068615
 20
436.4241147895
 30
0.0
 11
25.00000000000006
 21
0.0
 31
0.0
210
0.0
220
0.0
230
1.0
 40
0.0342223541
 41
3.14159265358979
 42
6.283185307179586
  0
LINE
  5
1F5
330
1F
100
AcDbEntity
  8
0
  6
Continuous
 62
     7
370
    25
100
AcDbLine
 10
522.0780072341
 20
421.9244195058
 30
0.0
 11
472.078006489
 21
421.9244195058
 31
0.0
  0
SPLINE
  5
1F6
330
1F
100
AcDbEntity
  8
0
  6
Continuous
 62
     7
370
    25
100
AcDbSpline
210
0.0
220
0.0
230
1.0
 70
    11
 71
     3
 72
    26
 73
    22
 74
     0
 42
0.000000001
 43
0.00000001
 40
0.0
 40
0.0
 40
0.0
 40
0.0
 40
0.0536139052133518
 40
0.1072251695911612
 40
0.1609052012228025
 40
0.21463057602735
 40
0.2682811008969114
 40
0.3218532733233849
 40
0.3754659367087381
 40
0.4291746420959261
 40
0.4828852111274466
 40
0.5365007120359442
 40
0.5900726159613816
 40
0.6437199011498419
 40
0.6974445447943921
 40
0.7511276841188247
 40
0.8047148122371731
 40
0.858301555960602
 40
0.9119838238707765
 40
0.9657086840116652
 40
1.0
 40
1.0
 40
1.0
 40
1.0
 10
497.078006861535
 20
426.3244194819466
 30
0.0
 10
496.8982948279532
 20
426.3420725565834
 30
0.0
 10
496.5388796127827
 20
426.3773778363278
 30
0.0
 10
496.0603963034288
 20
426.6525576146756
 30
0.0
 10
495.6961620530406
 20
427.0580906568908
 30
0.0
 10
495.4874870390246
 20
427.5650214052102
 30
0.0
 10
495.4581900950772
 20
428.1113335360427
 30
0.0
 10
495.6111092571198
 20
428.6363419716891
 30
0.0
 10
495.9288717898761
 20
429.0812658411638
 30
0.0
 10
496.3763166902293
 20
429.3963877833318
 30
0.0
 10
496.9030963031246
 20
429.545642390914
 30
0.0
 10
497.4491806058093
 20
429.5121541889824
 30
0.0
 10
497.9531155435986
 20
429.3002200616899
 30
0.0
 10
498.3588754519008
 20
428.9335220181354
 30
0.0
 10
498.6207031356831
 20
428.4527820410618
 30
0.0
 10
498.7085605036146
 20
427.9124009506803
 30
0.0
 10
498.6128170242648
 20
427.3740853877022
 30
0.0
 10
498.344588100469
 20
426.897123383449
 30
0.0
 10
497.9338788951306
 20
426.5380679798121
 30
0.0
 10
497.4866369234891
 20
426.350561120227
 30
0.0
 10
497.1925743531433
 20
426.3317488054672
 30
0.0
 10
497.078006861535
 20
426.3244194819466
 30
0.0
  0
SPLINE
  5
1F7
330
1F
100
AcDbEntity
  8
0
  6
Continuous
 62
     7
370
    25
100
AcDbSpline
210
0.0
220
0.0
230
1.0
 70
     8
 71
     3
 72
    13
 73
     9
 74
     0
 42
0.000000001
 43
0.00000001
 40
0.0
 40
0.0
 40
0.0
 40
0.0
 40
0.0218675140083031
 40
0.1417288564741776
 40
0.3564175555275981
 40
0.5709849433566835
 40
0.785492479058291
 40
1.0
 40
1.0
 40
1.0
 40
1.0
 10
472.078006489006
 20
436.4241150117353
 30
0.0
 10
472.0780687775498
 20
436.4298173716866
 30
0.0
 10
472.0784724852637
 20
436.4667758002856
 30
0.0
 10
472.0906398488843
 20
436.5594637615528
 30
0.0
 10
472.146004715475
 20
436.694823001039
 30
0.0
 10
472.259827630994
 20
436.8216598778032
 30
0.0
 10
472.4094125214277
 20
436.9078432202175
 30
0.0
 10
472.5218129019119
 20
436.9188941643149
 30
0.0
 10
472.5780130902204
 20
436.9244196361736
 30
0.0
  0
ELLIPSE
  5
1F8
330
1F
100
AcDbEntity
  8
0
  6
Continuous
 62
     7
370
    25
100
AcDbEllipse
 10
497.0780068615
 20
436.923810203
 30
0.0
 11
24.49999999999994
 21
0.0
 31
0.0
210
0.0
220
0.0
230
1.0
 40
0.0349207695
 41
3.205002922784541
 42
6.204648428179064
  0
SPLINE
  5
1F9
330
1F
100
AcDbEntity
  8
0
  6
Continuous
 62
     7
370
    25
100
AcDbSpline
210
0.0
220
0.0
230
1.0
 70
     8
 71
     3
 72
    13
 73
     9
 74
     0
 42
0.000000001
 43
0.00000001
 40
0.0
 40
0.0
 40
0.0
 40
0.0
 40
0.2145075209417091
 40
0.4290150566433166
 40
0.643582444472402
 40
0.8582711435258225
 40
0.978132485991697
 40
1.0
 40
1.0
 40
1.0
 40
1.0
 10
521.5780006328497
 20
436.9244196361736
 30
0.0
 10
521.6342008211583
 20
436.9188941643149
 30
0.0
 10
521.7466012016424
 20
436.9078432202175
 30
0.0
 10
521.896186092076
 20
436.8216598778032
 30
0.0
 10
522.010009007595
 20
436.694823001039
 30
0.0
 10
522.0653738741859
 20
436.5594637615528
 30
0.0
 10
522.0775412378065
 20
436.4667758002856
 30
0.0
 10
522.0779449455202
 20
436.4298173716866
 30
0.0
 10
522.0780072340641
 20
436.4241150117353
 30
0.0
  0
LINE
  5
1FA
330
1F
100
AcDbEntity
  8
0
  6
Continuous
 62
     7
370
    25
100
AcDbLine
 10
510.1123179847
 20
436.5415100849
 30
0.0
 11
484.0436957383
 21
436.5415100849
 31
0.0
  0
ELLIPSE
  5
1FB
330
1F
100
AcDbEntity
  8
0
  6
Continuous
 62
     7
370
    25
100
AcDbEllipse
 10
510.1123180867
 20
436.6113513535
 30
0.0
 11
2.000000000000057
 21
0.0
 31
0.0
210
0.0
220
0.0
230
1.0
 40
0.0349207695
 41
4.71238898038469
 42
6.248278722140101
  0
LINE
  5
1FC
330
1F
100
AcDbEntity
  8
0
  6
Continuous
 62
     7
370
    25
100
AcDbLine
 10
512.4266052226
 20
436.9244196362
 30
0.0
 11
512.1111001426
 21
436.6089136249
 31
0.0
  0
LINE
  5
1FD
330
1F
100
AcDbEntity
  8
0
  6
Continuous
 62
     7
370
    25
100
AcDbLine
 10
521.5780006328
 20
436.9244196362
 30
0.0
 11
512.4266052226
 21
436.9244196362
 31
0.0
  0
LINE
  5
1FE
330
1F
100
AcDbEntity
  8
0
  6
Continuous
 62
     7
370
    25
100
AcDbLine
 10
481.7294085005
 20
436.9244196362
 30
0.0
 11
472.5780130902
 21
436.9244196362
 31
0.0
  0
LINE
  5
1FF
330
1F
100
AcDbEntity
  8
0
  6
Continuous
 62
     7
370
    25
100
AcDbLine
 10
482.0449135804
 20
436.6089136249
 30
0.0
 11
481.7294085005
 21
436.9244196362
 31
0.0
  0
ELLIPSE
  5
200
330
1F
100
AcDbEntity
  8
0
  6
Continuous
 62
     7
370
    25
100
AcDbEllipse
 10
484.0436956363
 20
436.6113513535
 30
0.0
 11
2.0
 21
0.0
 31
0.0
210
0.0
220
0.0
230
1.0
 40
0.0349207695
 41
3.176499238630068
 42
4.71238898038469
  0
ARC
  5
201
330
1F
100
AcDbEntity
  8
0
  6
Continuous
 62
     7
370
    25
100
AcDbCircle
 10
482.0434855584
 20
437.6097327259
 30
0.0
 40
1.000820119787616
100
AcDbArc
 50
270.0817526173
 51
359.9182473827
  0
ELLIPSE
  5
202
330
1F
100
AcDbEntity
  8
0
  6
Continuous
 62
     7
370
    25
100
AcDbEllipse
 10
484.0436956363
 20
437.6107421805
 30
0.0
 11
1.0
 21
0.0
 31
0.0
210
0.0
220
0.0
230
1.0
 40
0.069841539
 41
3.176499238629904
 42
4.712388980384691
  0
LINE
  5
203
330
1F
100
AcDbEntity
  8
0
  6
Continuous
 62
     7
370
    25
100
AcDbLine
 10
484.0436957383
 20
436.5415100849
 30
0.0
 11
484.0436957383
 21
437.5409011639
 31
0.0
  0
LINE
  5
204
330
1F
100
AcDbEntity
  8
0
  6
Continuous
 62
     7
370
    25
100
AcDbLine
 10
484.0436957383
 20
437.5409011639
 30
0.0
 11
510.1123179847
 21
437.5409011639
 31
0.0
  0
LINE
  5
205
330
1F
100
AcDbEntity
  8
0
  6
Continuous
 62
     7
370
    25
100
AcDbLine
 10
510.1123179847
 20
436.5415100849
 30
0.0
 11
510.1123179847
 21
437.5409011639
 31
0.0
  0
ELLIPSE
  5
206
330
1F
100
AcDbEntity
  8
0
  6
Continuous
 62
     7
370
    25
100
AcDbEllipse
 10
510.1123180867
 20
437.6107421805
 30
0.0
 11
1.0
 21
0.0
 31
0.0
210
0.0
220
0.0
230
1.0
 40
0.069841539
 41
4.712388980384691
 42
6.24827872213987
  0
ARC
  5
207
330
1F
100
AcDbEntity
  8
0
  6
Continuous
 62
     7
370
    25
100
AcDbCircle
 10
512.1125281647
 20
437.6097327259
 30
0.0
 40
1.000820119787616
100
AcDbArc
 50
180.0817526174
 51
269.9182473827
  0
LINE
  5
208
330
1F
100
AcDbEntity
  8
0
  6
Continuous
 62
     7
370
    25
100
AcDbLine
 10
484.0436957383
 20
446.6089134014
 30
0.0
 11
493.1327698359
 21
446.6089134014
 31
0.0
  0
LINE
  5
209
330
1F
100
AcDbEntity
  8
0
  6
Continuous
 62
     7
370
    25
100
AcDbLine
 10
493.1327698359
 20
446.6089134014
 30
0.0
 11
493.1327698359
 21
445.6095223225
 31
0.0
  0
LINE
  5
20A
330
1F
100
AcDbEntity
  8
0
  6
Continuous
 62
     7
370
    25
100
AcDbLine
 10
493.1327698359
 20
445.6095223225
 30
0.0
 11
484.0436957383
 21
445.6095223225
 31
0.0
  0
LINE
  5
20B
330
1F
100
AcDbEntity
  8
0
  6
Continuous
 62
     7
370
    25
100
AcDbLine
 10
484.0436957383
 20
446.6089134014
 30
0.0
 11
484.0436957383
 21
445.6095223225
 31
0.0
  0
LINE
  5
20C
330
1F
100
AcDbEntity
  8
0
  6
Continuous
 62
     7
370
    25
100
AcDbLine
 10
510.1123179847
 20
445.6095223225
 30
0.0
 11
510.1123179847
 21
446.6089134014
 31
0.0
  0
ARC
  5
20D
330
1F
100
AcDbEntity
  8
0
  6
Continuous
 62
     7
370
    25
100
AcDbCircle
 10
510.1108914503
 20
445.6080957881
 30
0.0
 40
1.000818629998767
100
AcDbArc
 50
0.0816675715
 51
89.9183324285
  0
LINE
  5
20E
330
1F
100
AcDbEntity
  8
0
  6
Continuous
 62
     7
370
    25
100
AcDbLine
 10
511.1117090637
 20
445.6095223225
 30
0.0
 11
510.1123179847
 21
445.6095223225
 31
0.0
  0
ARC
  5
20F
330
1F
100
AcDbEntity
  8
0
  6
Continuous
 62
     7
370
    25
100
AcDbCircle
 10
501.0233990892
 20
445.6082845805
 30
0.0
 40
1.000628832916999
100
AcDbArc
 50
90.0088868336
 51
104.4366708596
  0
LINE
  5
210
330
1F
100
AcDbEntity
  8
0
  6
Continuous
 62
     7
370
    25
100
AcDbLine
 10
501.0232438872
 20
445.6095223225
 30
0.0
 11
501.0232438872
 21
446.6089134014
 31
0.0
  0
LWPOLYLINE
  5
211
330
1F
100
AcDbEntity
  8
0
  6
Continuous
 62
     7
370
    25
100
AcDbPolyline
 90
        9
 70
   128
 43
0.0
 10
501.0232438872
 20
445.6095223225
 10
500.9756442232
 20
445.7943004466
 10
500.9297933502
 20
445.9722855038
 10
500.8873764964
 20
446.136943335
 10
500.84995223
 20
446.2822184807
 10
500.818895649
 20
446.4027763254
 10
500.7953478562
 20
446.4941856361
 10
500.7801745159
 20
446.5530880636
 10
500.7739325592
 20
446.5773173517
  0
LINE
  5
212
330
1F
100
AcDbEntity
  8
0
  6
Continuous
 62
     7
370
    25
100
AcDbLine
 10
501.0232438872
 20
446.6089134014
 30
0.0
 11
510.1123179847
 21
446.6089134014
 31
0.0
  0
LINE
  5
213
330
1F
100
AcDbEntity
  8
0
  6
Continuous
 62
     7
370
    25
100
AcDbLine
 10
510.1123179847
 20
445.6095223225
 30
0.0
 11
501.0232438872
 21
445.6095223225
 31
0.0
  0
LINE
  5
214
330
1F
100
AcDbEntity
  8
0
  6
Continuous
 62
     7
370
    25
100
AcDbLine
 10
484.0436957383
 20
445.6095223225
 30
0.0
 11
483.0443046594
 21
445.6095223225
 31
0.0
  0
ARC
  5
215
330
1F
100
AcDbEntity
  8
0
  6
Continuous
 62
     7
370
    25
100
AcDbCircle
 10
484.0451222727
 20
445.6080957881
 30
0.0
 40
1.000818629998824
100
AcDbArc
 50
90.0816675715
 51
179.9183324285
  0
LINE
  5
216
330
1F
100
AcDbEntity
  8
0
  6
Continuous
 62
     7
370
    25
100
AcDbLine
 10
510.1123179847
 20
437.5409011639
 30
0.0
 11
510.1123179847
 21
445.6095223225
 31
0.0
  0
LINE
  5
217
330
1F
100
AcDbEntity
  8
0
  6
Continuous
 62
     7
370
    25
100
AcDbLine
 10
484.0436957383
 20
445.6095223225
 30
0.0
 11
484.0436957383
 21
437.5409011639
 31
0.0
  0
ARC
  5
218
330
1F
100
AcDbEntity
  8
0
  6
Continuous
 62
     7
370
    25
100
AcDbCircle
 10
497.0780068615
 20
460.9244195617
 30
0.0
 40
15.81489646972454
100
AcDbArc
 50
255.5542412102
 51
284.4457587898
  0
LINE
  5
219
330
1F
100
AcDbEntity
  8
0
  6
Continuous
 62
     7
370
    25
100
AcDbLine
 10
483.0443046594
 20
437.6083047039
 30
0.0
 11
483.0443046594
 21
445.6095223225
 31
0.0
  0
LINE
  5
21A
330
1F
100
AcDbEntity
  8
0
  6
Continuous
 62
     7
370
    25
100
AcDbLine
 10
511.1117090637
 20
445.6095223225
 30
0.0
 11
511.1117090637
 21
437.6083047039
 31
0.0
  0
ARC
  5
21B
330
1F
100
AcDbEntity
  8
0
  6
Continuous
 62
     7
370
    25
100
AcDbCircle
 10
493.1326146339
 20
445.6082845805
 30
0.0
 40
1.000628832916974
100
AcDbArc
 50
75.5633291404
 51
89.9911131664
  0
LWPOLYLINE
  5
21C
330
1F
100
AcDbEntity
  8
0
  6
Continuous
 62
     7
370
    25
100
AcDbPolyline
 90
        9
 70
   128
 43
0.0
 10
493.3820811639
 20
446.5773173517
 10
493.3758392071
 20
446.5530880636
 10
493.3606658669
 20
446.4941856361
 10
493.3371180741
 20
446.4027763254
 10
493.306061493
 20
446.2822184807
 10
493.2686372267
 20
446.136943335
 10
493.2262203729
 20
445.9722855038
 10
493.1803694999
 20
445.7943004466
 10
493.1327698359
 20
445.6095223225
  0
ARC
  5
21D
330
1F
100
AcDbEntity
  8
0
  6
Continuous
 62
     7
370
    25
100
AcDbCircle
 10
497.0780068615
 20
460.9244195617
 30
0.0
 40
14.81550564270542
100
AcDbArc
 50
255.5542412102
 51
284.4457587898
  0
LINE
  5
21E
330
1F
100
AcDbEntity
  8
0
  6
Continuous
 62
     7
370
    25
100
AcDbLine
 10
510.1123179847
 20
446.6089134014
 30
0.0
 11
510.427823996
 21
446.9244194127
 31
0.0
  0
ELLIPSE
  5
21F
330
1F
100
AcDbEntity
  8
0
  6
Continuous
 62
     7
370
    25
100
AcDbEllipse
 10
510.4266050122
 20
445.9238100174
 30
0.0
 11
0.7079685445992254
 21
0.7079685445992254
 31
9.022935463265273E-17
210
-6.372412681394676E-17
220
-6.372412681394676E-17
230
1.0
 40
0.998782766
 41
5.498396131367736
 42
7.067974482991393
  0
LINE
  5
220
330
1F
100
AcDbEntity
  8
0
  6
Continuous
 62
     7
370
    25
100
AcDbLine
 10
511.4272141436
 20
445.9250283337
 30
0.0
 11
511.1117090637
 21
445.6095223225
 31
0.0
  0
LINE
  5
221
330
1F
100
AcDbEntity
  8
0
  6
Continuous
 62
     7
370
    25
100
AcDbLine
 10
483.7281897271
 20
446.9244194127
 30
0.0
 11
484.0436957383
 21
446.6089134014
 31
0.0
  0
LINE
  5
222
330
1F
100
AcDbEntity
  8
0
  6
Continuous
 62
     7
370
    25
100
AcDbLine
 10
483.0443046594
 20
445.6095223225
 30
0.0
 11
482.7287995795
 21
445.9250283337
 31
0.0
  0
ELLIPSE
  5
223
330
1F
100
AcDbEntity
  8
0
  6
Continuous
 62
     7
370
    25
100
AcDbEllipse
 10
483.7294087109
 20
445.9238100174
 30
0.0
 11
0.7079685445991687
 21
-0.7079685445991687
 31
-9.022935463265273E-17
210
6.372412681395187E-17
220
-6.372412681395187E-17
230
1.0
 40
0.998782766
 41
2.356803477778006
 42
3.926381829401651
  0
LINE
  5
224
330
1F
100
AcDbEntity
  8
0
  6
Continuous
 62
     7
370
    25
100
AcDbLine
 10
501.0090184005
 20
446.7209589577
 30
0.0
 11
501.0232438872
 21
446.6089134014
 31
0.0
  0
LWPOLYLINE
  5
225
330
1F
100
AcDbEntity
  8
0
  6
Continuous
 62
     7
370
    25
100
AcDbPolyline
 90
        3
 70
   128
 43
0.0
 10
500.7739325592
 20
446.5773173517
 10
500.7645336518
 20
446.646976555
 10
500.7588332591
 20
446.689137528
  0
ARC
  5
226
330
1F
100
AcDbEntity
  8
0
  6
Continuous
 62
     7
370
    25
100
AcDbCircle
 10
501.0091675713
 20
445.7203777531
 30
0.0
 40
1.000581215763225
100
AcDbArc
 50
90.008541894
 51
104.4886904995
  0
LWPOLYLINE
  5
227
330
1F
100
AcDbEntity
  8
0
  6
Continuous
 62
     7
370
    25
100
AcDbPolyline
 90
        3
 70
   128
 43
0.0
 10
493.3971804639
 20
446.689137528
 10
493.3877673538
 20
446.6194801873
 10
493.3820811639
 20
446.5773173517
  0
LINE
  5
228
330
1F
100
AcDbEntity
  8
0
  6
Continuous
 62
     7
370
    25
100
AcDbLine
 10
493.1327698359
 20
446.6089134014
 30
0.0
 11
493.1469953226
 21
446.7209589577
 31
0.0
  0
ARC
  5
229
330
1F
100
AcDbEntity
  8
0
  6
Continuous
 62
     7
370
    25
100
AcDbCircle
 10
493.1468461518
 20
445.7203777531
 30
0.0
 40
1.000581215763213
100
AcDbArc
 50
75.5113095005
 51
89.991458106
  0
ELLIPSE
  5
22A
330
1F
100
AcDbEntity
  8
0
  6
Continuous
 62
     7
370
    25
100
AcDbEllipse
 10
481.7281896223
 20
437.925029106
 30
0.0
 11
0.7079685445992255
 21
-0.7079685445991686
 31
0.0
210
-6.252615409839968E-17
220
-6.252615409840471E-17
230
1.0
 40
0.998782766
 41
5.498396131367753
 42
7.06797448299141
  0
LINE
  5
22B
330
1F
100
AcDbEntity
  8
0
  6
Continuous
 62
     7
370
    25
100
AcDbLine
 10
482.7287995795
 20
437.9238107151
 30
0.0
 11
483.0443046594
 21
437.6083047039
 31
0.0
  0
LINE
  5
22C
330
1F
100
AcDbEntity
  8
0
  6
Continuous
 62
     7
370
    25
100
AcDbLine
 10
511.1117090637
 20
437.6083047039
 30
0.0
 11
511.4272141436
 21
437.9238107151
 31
0.0
  0
LINE
  5
22D
330
1F
100
AcDbEntity
  8
0
  6
Continuous
 62
     7
370
    25
100
AcDbLine
 10
511.4272141436
 20
437.9238107151
 30
0.0
 11
511.4272141436
 21
445.9250283337
 31
0.0
  0
LINE
  5
22E
330
1F
100
AcDbEntity
  8
0
  6
Continuous
 62
     7
370
    25
100
AcDbLine
 10
504.0780070776
 20
446.7209589577
 30
0.0
 11
501.0090184005
 21
446.7209589577
 31
0.0
  0
ELLIPSE
  5
22F
330
1F
100
AcDbEntity
  8
0
  6
Continuous
 62
     7
370
    25
100
AcDbEllipse
 10
504.0780068615
 20
446.9230160776
 30
0.0
 11
5.786130114283309
 21
0.0
 31
0.0
210
0.0
220
0.0
230
1.0
 40
0.0349207841
 41
4.71238898038469
 42
6.150341610492829
  0
LINE
  5
230
330
1F
100
AcDbEntity
  8
0
  6
Continuous
 62
     7
370
    25
100
AcDbLine
 10
509.863997584
 20
446.9244194127
 30
0.0
 11
510.427823996
 21
446.9244194127
 31
0.0
  0
ELLIPSE
  5
231
330
1F
100
AcDbEntity
  8
0
  6
Continuous
 62
     7
370
    25
100
AcDbEllipse
 10
512.4278241008
 20
437.925029106
 30
0.0
 11
0.7079685445989981
 21
0.7079685445992254
 31
0.0
210
6.426299171229362E-17
220
-6.426299171227297E-17
230
1.0
 40
0.998782766
 41
2.356803477777849
 42
3.926381829401317
  0
LINE
  5
232
330
1F
100
AcDbEntity
  8
0
  6
Continuous
 62
     7
370
    25
100
AcDbLine
 10
483.7281897271
 20
446.9244194127
 30
0.0
 11
484.2920161391
 21
446.9244194127
 31
0.0
  0
ELLIPSE
  5
233
330
1F
100
AcDbEntity
  8
0
  6
Continuous
 62
     7
370
    25
100
AcDbEllipse
 10
490.0780068615
 20
446.9230160776
 30
0.0
 11
5.786130114283309
 21
0.0
 31
0.0
210
0.0
220
0.0
230
1.0
 40
0.0349207841
 41
3.326180541048416
 42
4.71238898038469
  0
LINE
  5
234
330
1F
100
AcDbEntity
  8
0
  6
Continuous
 62
     7
370
    25
100
AcDbLine
 10
493.1469953226
 20
446.7209589577
 30
0.0
 11
490.0780066455
 21
446.7209589577
 31
0.0
  0
LINE
  5
235
330
1F
100
AcDbEntity
  8
0
  6
Continuous
 62
     7
370
    25
100
AcDbLine
 10
482.7287995795
 20
445.9250283337
 30
0.0
 11
482.7287995795
 21
437.9238107151
 31
0.0
  0
SPLINE
  5
236
330
1F
100
AcDbEntity
  8
0
  6
Continuous
 62
     7
370
    25
100
AcDbSpline
210
0.0
220
0.0
230
1.0
 70
     8
 71
     3
 72
    11
 73
     7
 74
     0
 42
0.000000001
 43
0.00000001
 40
0.0
 40
0.0
 40
0.0
 40
0.0
 40
0.2528826514526171
 40
0.5809316810769297
 40
0.9184941238536624
 40
1.0
 40
1.0
 40
1.0
 40
1.0
 10
500.7588332591477
 20
446.6891375279859
 30
0.0
 10
500.1458909011943
 20
446.5547952667691
 30
0.0
 10
498.737816316545
 20
446.2461790955922
 30
0.0
 10
496.4492498762109
 20
446.1703861959471
 30
0.0
 10
494.6019989576431
 20
446.3937114165502
 30
0.0
 10
493.5933547531591
 20
446.6410348405396
 30
0.0
 10
493.3971804639223
 20
446.6891375279859
 30
0.0
  0
LINE
  5
237
330
1F
100
AcDbEntity
  8
0
  6
Continuous
 62
     7
370
    25
100
AcDbLine
 10
493.1469953226
 20
446.7209589577
 30
0.0
 11
493.1469953226
 21
446.7215699053
 31
0.0
  0
LINE
  5
238
330
1F
100
AcDbEntity
  8
0
  6
Continuous
 62
     7
370
    25
100
AcDbLine
 10
501.0090184005
 20
446.7215699053
 30
0.0
 11
501.0090184005
 21
446.7209589577
 31
0.0
  0
LINE
  5
239
330
1F
100
AcDbEntity
  8
0
  6
Continuous
 62
     7
370
    25
100
AcDbLine
 10
484.4053804481
 20
446.9179690725
 30
0.0
 11
484.6090467254
 21
446.8665693796
 31
0.0
  0
LINE
  5
23A
330
1F
100
AcDbEntity
  8
0
  6
Continuous
 62
     7
370
    25
100
AcDbLine
 10
490.0780066455
 20
446.7215699053
 30
0.0
 11
490.0780066455
 21
446.7209589577
 31
0.0
  0
LINE
  5
23B
330
1F
100
AcDbEntity
  8
0
  6
Continuous
 62
     7
370
    25
100
AcDbLine
 10
484.2920161391
 20
446.9244194127
 30
0.0
 11
484.4053804481
 21
446.9179690725
 31
0.0
  0
LINE
  5
23C
330
1F
100
AcDbEntity
  8
0
  6
Continuous
 62
     7
370
    25
100
AcDbLine
 10
509.7506332749
 20
446.9179690725
 30
0.0
 11
509.863997584
 21
446.9244194127
 31
0.0
  0
LINE
  5
23D
330
1F
100
AcDbEntity
  8
0
  6
Continuous
 62
     7
370
    25
100
AcDbLine
 10
504.0780070776
 20
446.7215699053
 30
0.0
 11
504.0780070776
 21
446.7209589577
 31
0.0
  0
LINE
  5
23E
330
1F
100
AcDbEntity
  8
0
  6
Continuous
 62
     7
370
    25
100
AcDbLine
 10
509.4921111667
 20
446.8527243382
 30
0.0
 11
509.7506332749
 21
446.9179690725
 31
0.0
  0
LINE
  5
23F
330
1F
100
AcDbEntity
  8
0
  6
Continuous
 62
     7
370
    25
100
AcDbLine
 10
511.4272141436
 20
445.9250283337
 30
0.0
 11
511.4272141436
 21
460.9244179821
 31
0.0
  0
LINE
  5
240
330
1F
100
AcDbEntity
  8
0
  6
Continuous
 62
     7
370
    25
100
AcDbLine
 10
482.7287995795
 20
460.9244179821
 30
0.0
 11
482.7287995795
 21
445.9250283337
 31
0.0
  0
ARC
  5
241
330
1F
100
AcDbEntity
  8
0
  6
Continuous
 62
     8
370
    25
100
AcDbCircle
 10
512.1697727789
 20
531.9368894381
 30
0.0
 40
0.9500618796719243
100
AcDbArc
 50
19.0123800479
 51
95.5428274156
  0
LINE
  5
242
330
1F
100
AcDbEntity
  8
0
  6
Continuous
 62
     8
370
    25
100
AcDbLine
 10
522.0683475563
 20
421.7174395828
 30
0.0
 11
472.0852354148
 21
421.7174395828
 31
0.0
  0
ARC
  5
243
330
1F
100
AcDbEntity
  8
0
  6
Continuous
 62
     8
370
    25
100
AcDbCircle
 10
426.0468909944
 20
529.9240189096
 30
0.0
 40
51.19559795592461
100
AcDbArc
 50
354.9577461899
 51
5.0431550153
  0
LWPOLYLINE
  5
244
330
1F
100
AcDbEntity
  8
0
  6
Continuous
 62
     8
370
    25
100
AcDbPolyline
 90
        3
 70
   128
 43
0.0
 10
476.5233395228
 20
525.9709929026
 10
476.5397345254
 20
525.9268333114
 10
476.5540340522
 20
525.9335984385
  0
LWPOLYLINE
  5
245
330
1F
100
AcDbEntity
  8
0
  6
Continuous
 62
     8
370
    25
100
AcDbPolyline
 90
        4
 70
   128
 43
0.0
 10
476.5539707223
 20
533.9153607285
 10
476.534314228
 20
533.9135874904
 10
476.504625527
 20
533.7570880449
 10
476.4768069217
 20
533.4213723338
  0
ELLIPSE
  5
246
330
1F
100
AcDbEntity
  8
0
  6
Continuous
 62
     8
370
    25
100
AcDbEllipse
 10
497.0780068615
 20
436.923810203
 30
0.0
 11
24.49999999999994
 21
0.0
 31
0.0
210
0.0
220
0.0
230
1.0
 40
0.0349207695
 41
3.140880418902948
 42
3.205002922784541
  0
ELLIPSE
  5
247
330
1F
100
AcDbEntity
  8
0
  6
Continuous
 62
     8
370
    25
100
AcDbEllipse
 10
497.0780068615
 20
436.923810203
 30
0.0
 11
24.49999999999994
 21
0.0
 31
0.0
210
0.0
220
0.0
230
1.0
 40
0.0349207695
 41
6.204648428179064
 42
6.283897541866422
  0
ELLIPSE
  5
248
330
1F
100
AcDbEntity
  8
0
  6
Continuous
 62
     8
370
    25
100
AcDbEllipse
 10
504.0780068615
 20
446.9230160776
 30
0.0
 11
5.786130114283309
 21
0.0
 31
0.0
210
0.0
220
0.0
230
1.0
 40
0.0349207841
 41
6.150341610492829
 42
6.29013137132084
  0
ELLIPSE
  5
249
330
1F
100
AcDbEntity
  8
0
  6
Continuous
 62
     8
370
    25
100
AcDbEllipse
 10
490.0780068615
 20
446.9230160776
 30
0.0
 11
5.786130114283309
 21
0.0
 31
0.0
210
0.0
220
0.0
230
1.0
 40
0.0349207841
 41
3.134646589448515
 42
3.326180541048416
  0
LINE
  5
24A
330
1F
100
AcDbEntity
  8
0
  6
Continuous
 62
     8
370
    25
100
AcDbLine
 10
504.0780070776
 20
448.6390364266
 30
0.0
 11
504.0780070776
 21
446.7215699053
 31
0.0
  0
LWPOLYLINE
  5
24B
330
1F
100
AcDbEntity
  8
0
  6
Continuous
 62
     8
370
    25
100
AcDbPolyline
 90
        4
 70
   128
 43
0.0
 10
508.7683505917
 20
446.8088366932
 10
508.7645293752
 20
446.953277374
 10
508.7116432914
 20
448.9525773472
 10
508.6181124279
 20
452.487082491
  0
LINE
  5
24C
330
1F
100
AcDbEntity
  8
0
  6
Continuous
 62
     8
370
    25
100
AcDbLine
 10
490.0780066455
 20
448.6390364266
 30
0.0
 11
490.0780066455
 21
446.7215699053
 31
0.0
  0
LWPOLYLINE
  5
24D
330
1F
100
AcDbEntity
  8
0
  6
Continuous
 62
     8
370
    25
100
AcDbPolyline
 90
        4
 70
   128
 43
0.0
 10
485.535605585
 20
452.4003242052
 10
485.4474698732
 20
449.0697321392
 10
485.3914843479
 20
446.953277374
 10
485.387667788
 20
446.8090099192
  0
LWPOLYLINE
  5
24E
330
1F
100
AcDbEntity
  8
0
  6
Continuous
 62
     8
370
    25
100
AcDbPolyline
 90
        3
 70
   128
 43
0.0
 10
509.5659603903
 20
453.8569611407
 10
509.7504619116
 20
446.9244194127
 10
509.7506332749
 20
446.9179690725
  0
LWPOLYLINE
  5
24F
330
1F
100
AcDbEntity
  8
0
  6
Continuous
 62
     8
370
    25
100
AcDbPolyline
 90
        3
 70
   128
 43
0.0
 10
484.4053804481
 20
446.9179690725
 10
484.4055518115
 20
446.9244194127
 10
484.5900533328
 20
453.8569611407
  0
ENDSEC
  0
SECTION
  2
OBJECTS
  0
DICTIONARY
  5
C
330
0
100
AcDbDictionary
281
     1
  3
ACAD_GROUP
350
D
  3
ACAD_LAYOUT
350
1A
  3
ACAD_MLINESTYLE
350
17
  3
ACAD_PLOTSETTINGS
350
19
  3
ACAD_PLOTSTYLENAME
350
E
  3
ACAD_SCALELIST
350
47
  0
DICTIONARY
  5
D
102
{ACAD_REACTORS
330
C
102
}
330
C
100
AcDbDictionary
281
     1
  0
DICTIONARY
  5
1A
102
{ACAD_REACTORS
330
C
102
}
330
C
100
AcDbDictionary
281
     1
  3
Layout1
350
1E
  3
Layout2
350
26
  3
Model
350
22
  0
DICTIONARY
  5
17
102
{ACAD_REACTORS
330
C
102
}
330
C
100
AcDbDictionary
281
     1
  3
Standard
350
18
  0
DICTIONARY
  5
19
102
{ACAD_REACTORS
330
C
102
}
330
C
100
AcDbDictionary
281
     1
  0
ACDBDICTIONARYWDFLT
  5
E
102
{ACAD_REACTORS
330
C
102
}
330
C
100
AcDbDictionary
281
     1
  3
Normal
350
F
100
AcDbDictionaryWithDefault
340
F
  0
DICTIONARY
  5
47
102
{ACAD_REACTORS
330
C
102
}
330
C
100
AcDbDictionary
281
     1
  3
A0
350
48
  3
A1
350
49
  3
A2
350
4A
  3
A3
350
4B
  3
A4
350
4C
  3
A5
350
4D
  3
A6
350
4E
  3
A7
350
4F
  3
A8
350
50
  3
A9
350
51
  3
B0
350
52
  3
B1
350
53
  3
B2
350
54
  3
B3
350
55
  3
B4
350
56
  3
B5
350
57
  3
B6
350
58
  3
B7
350
59
  3
B8
350
5A
  3
B9
350
5B
  3
C0
350
5C
  3
C1
350
5D
  3
C2
350
5E
  3
C3
350
5F
  3
C4
350
60
  3
C5
350
61
  3
C6
350
62
  3
C7
350
63
  3
C8
350
64
  3
C9
350
65
  3
D0
350
66
  3
D1
350
67
  3
D2
350
68
  0
LAYOUT
  5
1E
102
{ACAD_REACTORS
330
1A
102
}
330
1A
100
AcDbPlotSettings
  1

  2
none_device
  4

  6

 40
0.0
 41
0.0
 42
0.0
 43
0.0
 44
0.0
 45
0.0
 46
0.0
 47
0.0
 48
0.0
 49
0.0
140
0.0
141
0.0
142
1.0
143
1.0
 70
   688
 72
     1
 73
     0
 74
     5
  7

 75
    16
147
1.0
148
0.0
149
0.0
100
AcDbLayout
  1
Layout1
 70
     1
 71
     1
 10
0.0
 20
0.0
 11
420.0
 21
297.0
 12
0.0
 22
0.0
 32
0.0
 14
1.0000000000E+20
 24
1.0000000000E+20
 34
1.0000000000E+20
 15
-1.0000000000E+20
 25
-1.0000000000E+20
 35
-1.0000000000E+20
146
0.0
 13
0.0
 23
0.0
 33
0.0
 16
1.0
 26
0.0
 36
0.0
 17
0.0
 27
1.0
 37
0.0
 76
     0
330
1B
  0
LAYOUT
  5
26
102
{ACAD_REACTORS
330
1A
102
}
330
1A
100
AcDbPlotSettings
  1

  2
none_device
  4

  6

 40
0.0
 41
0.0
 42
0.0
 43
0.0
 44
0.0
 45
0.0
 46
0.0
 47
0.0
 48
0.0
 49
0.0
140
0.0
141
0.0
142
1.0
143
1.0
 70
   688
 72
     1
 73
     0
 74
     5
  7

 75
    16
147
1.0
148
0.0
149
0.0
100
AcDbLayout
  1
Layout2
 70
     1
 71
     2
 10
0.0
 20
0.0
 11
0.0
 21
0.0
 12
0.0
 22
0.0
 32
0.0
 14
0.0
 24
0.0
 34
0.0
 15
0.0
 25
0.0
 35
0.0
146
0.0
 13
0.0
 23
0.0
 33
0.0
 16
1.0
 26
0.0
 36
0.0
 17
0.0
 27
1.0
 37
0.0
 76
     0
330
23
  0
LAYOUT
  5
22
102
{ACAD_REACTORS
330
1A
102
}
330
1A
100
AcDbPlotSettings
  1

  2
none_device
  4
Letter_(8.50_x_11.00_Inches)
  6

 40
6.35
 41
6.35
 42
6.35000508
 43
6.35000508
 44
215.9
 45
279.4
 46
0.0
 47
0.0
 48
0.0
 49
0.0
140
0.0
141
0.0
142
1.0
143
1.0
 70
  1712
 72
     1
 73
     0
 74
     0
  7

 75
     0
147
1.0
148
0.0
149
0.0
100
AcDbLayout
  1
Model
 70
     1
 71
     0
 10
0.0
 20
0.0
 11
1189.0
 21
841.0
 12
0.0
 22
0.0
 32
0.0
 14
0.0
 24
0.0
 34
0.0
 15
1189.0
 25
841.0
 35
0.0
146
0.0
 13
0.0
 23
0.0
 33
0.0
 16
1.0
 26
0.0
 36
0.0
 17
0.0
 27
1.0
 37
0.0
 76
     0
330
1F
331
29
  0
MLINESTYLE
  5
18
102
{ACAD_REACTORS
330
17
102
}
330
17
100
AcDbMlineStyle
  2
Standard
 70
     0
  3

 62
   256
 51
90.0
 52
90.0
 71
     2
 49
0.5
 62
   256
  6
BYLAYER
 49
-0.5
 62
   256
  6
BYLAYER
  0
ACDBPLACEHOLDER
  5
F
102
{ACAD_REACTORS
330
E
102
}
330
E
  0
SCALE
  5
48
102
{ACAD_REACTORS
330
47
102
}
330
47
100
AcDbScale
 70
     0
300
1:1
140
1.0
141
1.0
290
     1
  0
SCALE
  5
49
102
{ACAD_REACTORS
330
47
102
}
330
47
100
AcDbScale
 70
     0
300
1:2
140
1.0
141
2.0
290
     0
  0
SCALE
  5
4A
102
{ACAD_REACTORS
330
47
102
}
330
47
100
AcDbScale
 70
     0
300
1:4
140
1.0
141
4.0
290
     0
  0
SCALE
  5
4B
102
{ACAD_REACTORS
330
47
102
}
330
47
100
AcDbScale
 70
     0
300
1:5
140
1.0
141
5.0
290
     0
  0
SCALE
  5
4C
102
{ACAD_REACTORS
330
47
102
}
330
47
100
AcDbScale
 70
     0
300
1:8
140
1.0
141
8.0
290
     0
  0
SCALE
  5
4D
102
{ACAD_REACTORS
330
47
102
}
330
47
100
AcDbScale
 70
     0
300
1:10
140
1.0
141
10.0
290
     0
  0
SCALE
  5
4E
102
{ACAD_REACTORS
330
47
102
}
330
47
100
AcDbScale
 70
     0
300
1:16
140
1.0
141
16.0
290
     0
  0
SCALE
  5
4F
102
{ACAD_REACTORS
330
47
102
}
330
47
100
AcDbScale
 70
     0
300
1:20
140
1.0
141
20.0
290
     0
  0
SCALE
  5
50
102
{ACAD_REACTORS
330
47
102
}
330
47
100
AcDbScale
 70
     0
300
1:30
140
1.0
141
30.0
290
     0
  0
SCALE
  5
51
102
{ACAD_REACTORS
330
47
102
}
330
47
100
AcDbScale
 70
     0
300
1:40
140
1.0
141
40.0
290
     0
  0
SCALE
  5
52
102
{ACAD_REACTORS
330
47
102
}
330
47
100
AcDbScale
 70
     0
300
1:50
140
1.0
141
50.0
290
     0
  0
SCALE
  5
53
102
{ACAD_REACTORS
330
47
102
}
330
47
100
AcDbScale
 70
     0
300
1:100
140
1.0
141
100.0
290
     0
  0
SCALE
  5
54
102
{ACAD_REACTORS
330
47
102
}
330
47
100
AcDbScale
 70
     0
300
2:1
140
2.0
141
1.0
290
     0
  0
SCALE
  5
55
102
{ACAD_REACTORS
330
47
102
}
330
47
100
AcDbScale
 70
     0
300
4:1
140
4.0
141
1.0
290
     0
  0
SCALE
  5
56
102
{ACAD_REACTORS
330
47
102
}
330
47
100
AcDbScale
 70
     0
300
8:1
140
8.0
141
1.0
290
     0
  0
SCALE
  5
57
102
{ACAD_REACTORS
330
47
102
}
330
47
100
AcDbScale
 70
     0
300
10:1
140
10.0
141
1.0
290
     0
  0
SCALE
  5
58
102
{ACAD_REACTORS
330
47
102
}
330
47
100
AcDbScale
 70
     0
300
100:1
140
100.0
141
1.0
290
     0
  0
SCALE
  5
59
102
{ACAD_REACTORS
330
47
102
}
330
47
100
AcDbScale
 70
     0
300
1/128" = 1'-0"
140
0.0078125
141
12.0
290
     0
  0
SCALE
  5
5A
102
{ACAD_REACTORS
330
47
102
}
330
47
100
AcDbScale
 70
     0
300
1/64" = 1'-0"
140
0.015625
141
12.0
290
     0
  0
SCALE
  5
5B
102
{ACAD_REACTORS
330
47
102
}
330
47
100
AcDbScale
 70
     0
300
1/32" = 1'-0"
140
0.03125
141
12.0
290
     0
  0
SCALE
  5
5C
102
{ACAD_REACTORS
330
47
102
}
330
47
100
AcDbScale
 70
     0
300
1/16" = 1'-0"
140
0.0625
141
12.0
290
     0
  0
SCALE
  5
5D
102
{ACAD_REACTORS
330
47
102
}
330
47
100
AcDbScale
 70
     0
300
3/32" = 1'-0"
140
0.09375
141
12.0
290
     0
  0
SCALE
  5
5E
102
{ACAD_REACTORS
330
47
102
}
330
47
100
AcDbScale
 70
     0
300
1/8" = 1'-0"
140
0.125
141
12.0
290
     0
  0
SCALE
  5
5F
102
{ACAD_REACTORS
330
47
102
}
330
47
100
AcDbScale
 70
     0
300
3/16" = 1'-0"
140
0.1875
141
12.0
290
     0
  0
SCALE
  5
60
102
{ACAD_REACTORS
330
47
102
}
330
47
100
AcDbScale
 70
     0
300
1/4" = 1'-0"
140
0.25
141
12.0
290
     0
  0
SCALE
  5
61
102
{ACAD_REACTORS
330
47
102
}
330
47
100
AcDbScale
 70
     0
300
3/8" = 1'-0"
140
0.375
141
12.0
290
     0
  0
SCALE
  5
62
102
{ACAD_REACTORS
330
47
102
}
330
47
100
AcDbScale
 70
     0
300
1/2" = 1'-0"
140
0.5
141
12.0
290
     0
  0
SCALE
  5
63
102
{ACAD_REACTORS
330
47
102
}
330
47
100
AcDbScale
 70
     0
300
3/4" = 1'-0"
140
0.75
141
12.0
290
     0
  0
SCALE
  5
64
102
{ACAD_REACTORS
330
47
102
}
330
47
100
AcDbScale
 70
     0
300
1" = 1'-0"
140
1.0
141
12.0
290
     0
  0
SCALE
  5
65
102
{ACAD_REACTORS
330
47
102
}
330
47
100
AcDbScale
 70
     0
300
1-1/2" = 1'-0"
140
1.5
141
12.0
290
     0
  0
SCALE
  5
66
102
{ACAD_REACTORS
330
47
102
}
330
47
100
AcDbScale
 70
     0
300
3" = 1'-0"
140
3.0
141
12.0
290
     0
  0
SCALE
  5
67
102
{ACAD_REACTORS
330
47
102
}
330
47
100
AcDbScale
 70
     0
300
6" = 1'-0"
140
6.0
141
12.0
290
     0
  0
SCALE
  5
68
102
{ACAD_REACTORS
330
47
102
}
330
47
100
AcDbScale
 70
     0
300
1'-0" = 1'-0"
140
12.0
141
12.0
290
     0
  0
ENDSEC
  0
EOF
