  0
SECTION
  2
HEADER
  9
$ACADVER
  1
AC1032
  9
$ACADMAINTVER
 90
       55
  9
$DWGCODEPAGE
  3
ANSI_1254
  9
$LASTSAVEDBY
  1
eakin
  9
$REQUIREDVERSIONS
160
                 0
  9
$INSBASE
 10
0.0
 20
0.0
 30
0.0
  9
$EXTMIN
 10
67.97451064249998
 20
99.5715001148
 30
0.0
  9
$EXTMAX
 10
272.623704333
 20
194.57151477
 30
0.0
  9
$LIMMIN
 10
0.0
 20
0.0
  9
$LIMMAX
 10
420.0
 20
297.0
  9
$ORTHOMODE
 70
     0
  9
$REGENMODE
 70
     1
  9
$FILLMODE
 70
     1
  9
$QTEXTMODE
 70
     0
  9
$MIRRTEXT
 70
     1
  9
$LTSCALE
 40
1.0
  9
$ATTMODE
 70
     1
  9
$TEXTSIZE
 40
3.5
  9
$TRACEWID
 40
1.0
  9
$TEXTSTYLE
  7
Standard
  9
$CLAYER
  8
0
  9
$CELTYPE
  6
ByLayer
  9
$CECOLOR
 62
   256
  9
$CELTSCALE
 40
1.0
  9
$DISPSILH
 70
     0
  9
$DIMSCALE
 40
1.0
  9
$DIMASZ
 40
3.302
  9
$DIMEXO
 40
1.0
  9
$DIMDLI
 40
3.75
  9
$DIMRND
 40
0.0
  9
$DIMDLE
 40
0.0
  9
$DIMEXE
 40
1.0
  9
$DIMTP
 40
0.0
  9
$DIMTM
 40
0.0
  9
$DIMTXT
 40
3.5
  9
$DIMCEN
 40
2.5
  9
$DIMTSZ
 40
0.0
  9
$DIMTOL
 70
     0
  9
$DIMLIM
 70
     0
  9
$DIMTIH
 70
     1
  9
$DIMTOH
 70
     1
  9
$DIMSE1
 70
     0
  9
$DIMSE2
 70
     0
  9
$DIMTAD
 70
     1
  9
$DIMZIN
 70
     1
  9
$DIMBLK
  1

  9
$DIMASO
 70
     1
  9
$DIMSHO
 70
     1
  9
$DIMPOST
  1

  9
$DIMAPOST
  1

  9
$DIMALT
 70
     0
  9
$DIMALTD
 70
     3
  9
$DIMALTF
 40
0.0393700787
  9
$DIMLFAC
 40
2.0
  9
$DIMTOFL
 70
     1
  9
$DIMTVP
 40
0.0
  9
$DIMTIX
 70
     0
  9
$DIMSOXD
 70
     0
  9
$DIMSAH
 70
     0
  9
$DIMBLK1
  1

  9
$DIMBLK2
  1

  9
$DIMSTYLE
  2
ISO-25
  9
$DIMCLRD
 70
     0
  9
$DIMCLRE
 70
     0
  9
$DIMCLRT
 70
     0
  9
$DIMTFAC
 40
1.0
  9
$DIMGAP
 40
1.524
  9
$DIMJUST
 70
     0
  9
$DIMSD1
 70
     0
  9
$DIMSD2
 70
     0
  9
$DIMTOLJ
 70
     0
  9
$DIMTZIN
 70
     1
  9
$DIMALTZ
 70
     0
  9
$DIMALTTZ
 70
     0
  9
$DIMUPT
 70
     0
  9
$DIMDEC
 70
     2
  9
$DIMTDEC
 70
     2
  9
$DIMALTU
 70
     2
  9
$DIMALTTD
 70
     3
  9
$DIMTXSTY
  7
Standard
  9
$DIMAUNIT
 70
     0
  9
$DIMADEC
 70
     2
  9
$DIMALTRND
 40
0.0
  9
$DIMAZIN
 70
     0
  9
$DIMDSEP
 70
    44
  9
$DIMATFIT
 70
     3
  9
$DIMFRAC
 70
     0
  9
$DIMLDRBLK
  1

  9
$DIMLUNIT
 70
     2
  9
$DIMLWD
 70
    -2
  9
$DIMLWE
 70
    -2
  9
$DIMTMOVE
 70
     0
  9
$DIMFXL
 40
1.0
  9
$DIMFXLON
 70
     0
  9
$DIMJOGANG
 40
0.7853981633974483
  9
$DIMTFILL
 70
     0
  9
$DIMTFILLCLR
 70
     0
  9
$DIMARCSYM
 70
     0
  9
$DIMLTYPE
  6

  9
$DIMLTEX1
  6

  9
$DIMLTEX2
  6

  9
$DIMTXTDIRECTION
 70
     0
  9
$LUNITS
 70
     2
  9
$LUPREC
 70
     2
  9
$SKETCHINC
 40
1.0
  9
$FILLETRAD
 40
10.0
  9
$AUNITS
 70
     0
  9
$AUPREC
 70
     2
  9
$MENU
  1
.
  9
$ELEVATION
 40
0.0
  9
$PELEVATION
 40
0.0
  9
$THICKNESS
 40
0.0
  9
$LIMCHECK
 70
     0
  9
$CHAMFERA
 40
0.0
  9
$CHAMFERB
 40
0.0
  9
$CHAMFERC
 40
0.0
  9
$CHAMFERD
 40
0.0
  9
$SKPOLY
 70
     0
  9
$TDCREATE
 40
2459864.370062662
  9
$TDUCREATE
 40
2459864.245062662
  9
$TDUPDATE
 40
2459864.371162176
  9
$TDUUPDATE
 40
2459864.246162176
  9
$TDINDWG
 40
0.0005585417
  9
$TDUSRTIMER
 40
0.0005631829
  9
$USRTIMER
 70
     1
  9
$ANGBASE
 50
0.0
  9
$ANGDIR
 70
     0
  9
$PDMODE
 70
     0
  9
$PDSIZE
 40
-1.0
  9
$PLINEWID
 40
0.0
  9
$SPLFRAME
 70
     0
  9
$SPLINETYPE
 70
     6
  9
$SPLINESEGS
 70
     8
  9
$HANDSEED
  5
2EA
  9
$SURFTAB1
 70
     6
  9
$SURFTAB2
 70
     6
  9
$SURFTYPE
 70
     6
  9
$SURFU
 70
     6
  9
$SURFV
 70
     6
  9
$UCSBASE
  2

  9
$UCSNAME
  2

  9
$UCSORG
 10
0.0
 20
0.0
 30
0.0
  9
$UCSXDIR
 10
1.0
 20
0.0
 30
0.0
  9
$UCSYDIR
 10
0.0
 20
1.0
 30
0.0
  9
$UCSORTHOREF
  2

  9
$UCSORTHOVIEW
 70
     0
  9
$UCSORGTOP
 10
0.0
 20
0.0
 30
0.0
  9
$UCSORGBOTTOM
 10
0.0
 20
0.0
 30
0.0
  9
$UCSORGLEFT
 10
0.0
 20
0.0
 30
0.0
  9
$UCSORGRIGHT
 10
0.0
 20
0.0
 30
0.0
  9
$UCSORGFRONT
 10
0.0
 20
0.0
 30
0.0
  9
$UCSORGBACK
 10
0.0
 20
0.0
 30
0.0
  9
$PUCSBASE
  2

  9
$PUCSNAME
  2

  9
$PUCSORG
 10
0.0
 20
0.0
 30
0.0
  9
$PUCSXDIR
 10
1.0
 20
0.0
 30
0.0
  9
$PUCSYDIR
 10
0.0
 20
1.0
 30
0.0
  9
$PUCSORTHOREF
  2

  9
$PUCSORTHOVIEW
 70
     0
  9
$PUCSORGTOP
 10
0.0
 20
0.0
 30
0.0
  9
$PUCSORGBOTTOM
 10
0.0
 20
0.0
 30
0.0
  9
$PUCSORGLEFT
 10
0.0
 20
0.0
 30
0.0
  9
$PUCSORGRIGHT
 10
0.0
 20
0.0
 30
0.0
  9
$PUCSORGFRONT
 10
0.0
 20
0.0
 30
0.0
  9
$PUCSORGBACK
 10
0.0
 20
0.0
 30
0.0
  9
$USERI1
 70
     0
  9
$USERI2
 70
     0
  9
$USERI3
 70
     0
  9
$USERI4
 70
     0
  9
$USERI5
 70
     0
  9
$USERR1
 40
0.0
  9
$USERR2
 40
0.0
  9
$USERR3
 40
0.0
  9
$USERR4
 40
0.0
  9
$USERR5
 40
0.0
  9
$WORLDVIEW
 70
     1
  9
$SHADEDGE
 70
     3
  9
$SHADEDIF
 70
    70
  9
$TILEMODE
 70
     1
  9
$MAXACTVP
 70
    64
  9
$PINSBASE
 10
0.0
 20
0.0
 30
0.0
  9
$PLIMCHECK
 70
     0
  9
$PEXTMIN
 10
1.000000000000000E+20
 20
1.000000000000000E+20
 30
1.000000000000000E+20
  9
$PEXTMAX
 10
-1.000000000000000E+20
 20
-1.000000000000000E+20
 30
-1.000000000000000E+20
  9
$PLIMMIN
 10
0.0
 20
0.0
  9
$PLIMMAX
 10
0.0
 20
0.0
  9
$UNITMODE
 70
     0
  9
$VISRETAIN
 70
     1
  9
$PLINEGEN
 70
     0
  9
$PSLTSCALE
 70
     1
  9
$TREEDEPTH
 70
  3020
  9
$CMLSTYLE
  2
Standard
  9
$CMLJUST
 70
     0
  9
$CMLSCALE
 40
20.0
  9
$PROXYGRAPHICS
 70
     1
  9
$MEASUREMENT
 70
     1
  9
$CELWEIGHT
370
    -1
  9
$ENDCAPS
280
     0
  9
$JOINSTYLE
280
     0
  9
$LWDISPLAY
290
     1
  9
$INSUNITS
 70
     4
  9
$HYPERLINKBASE
  1

  9
$STYLESHEET
  1

  9
$XEDIT
290
     1
  9
$CEPSNTYPE
380
     0
  9
$PSTYLEMODE
290
     1
  9
$FINGERPRINTGUID
  2
{b7aef443-828d-4f0f-a518-79ab790a2a7b}
  9
$VERSIONGUID
  2
{FAEB1C32-E019-11D5-929B-00C0DF256EC4}
  9
$EXTNAMES
290
     1
  9
$PSVPSCALE
 40
0.0
  9
$OLESTARTUP
290
     0
  9
$SORTENTS
280
   127
  9
$INDEXCTL
280
     0
  9
$HIDETEXT
280
     1
  9
$XCLIPFRAME
280
     2
  9
$HALOGAP
280
     0
  9
$OBSCOLOR
 70
   257
  9
$OBSLTYPE
280
     0
  9
$INTERSECTIONDISPLAY
280
     0
  9
$INTERSECTIONCOLOR
 70
   257
  9
$DIMASSOC
280
     2
  9
$PROJECTNAME
  1

  9
$CAMERADISPLAY
290
     0
  9
$LENSLENGTH
 40
50.0
  9
$CAMERAHEIGHT
 40
0.0
  9
$STEPSPERSEC
 40
2.0
  9
$STEPSIZE
 40
6.0
  9
$3DDWFPREC
 40
2.0
  9
$PSOLWIDTH
 40
0.25
  9
$PSOLHEIGHT
 40
4.0
  9
$LOFTANG1
 40
1.570796326794897
  9
$LOFTANG2
 40
1.570796326794897
  9
$LOFTMAG1
 40
0.0
  9
$LOFTMAG2
 40
0.0
  9
$LOFTPARAM
 70
     7
  9
$LOFTNORMALS
280
     1
  9
$LATITUDE
 40
37.795
  9
$LONGITUDE
 40
-122.394
  9
$NORTHDIRECTION
 40
0.0
  9
$TIMEZONE
 70
 -8000
  9
$LIGHTGLYPHDISPLAY
280
     1
  9
$TILEMODELIGHTSYNCH
280
     1
  9
$SOLIDHIST
280
     0
  9
$SHOWHIST
280
     1
  9
$DWFFRAME
280
     2
  9
$DGNFRAME
280
     2
  9
$REALWORLDSCALE
290
     1
  9
$INTERFERECOLOR
 62
   256
  9
$CSHADOW
280
     0
  9
$SHADOWPLANELOCATION
 40
0.0
  0
ENDSEC
  0
SECTION
  2
CLASSES
  0
CLASS
  1
ACDBDICTIONARYWDFLT
  2
AcDbDictionaryWithDefault
  3
ObjectDBX Classes
 90
        0
 91
        3
280
     0
281
     0
  0
CLASS
  1
VISUALSTYLE
  2
AcDbVisualStyle
  3
ObjectDBX Classes
 90
     4095
 91
        3
280
     0
281
     0
  0
CLASS
  1
MATERIAL
  2
AcDbMaterial
  3
ObjectDBX Classes
 90
     1153
 91
        3
280
     0
281
     0
  0
CLASS
  1
SCALE
  2
AcDbScale
  3
ObjectDBX Classes
 90
     1153
 91
        3
280
     0
281
     0
  0
CLASS
  1
TABLESTYLE
  2
AcDbTableStyle
  3
ObjectDBX Classes
 90
     4095
 91
        3
280
     0
281
     0
  0
CLASS
  1
MLEADERSTYLE
  2
AcDbMLeaderStyle
  3
ACDB_MLEADERSTYLE_CLASS
 90
     4095
 91
        3
280
     0
281
     0
  0
CLASS
  1
SUN
  2
AcDbSun
  3
SCENEOE
 90
     1153
 91
        3
280
     0
281
     0
  0
CLASS
  1
ACDBPLACEHOLDER
  2
AcDbPlaceHolder
  3
ObjectDBX Classes
 90
        0
 91
        1
280
     0
281
     0
  0
CLASS
  1
LAYOUT
  2
AcDbLayout
  3
ObjectDBX Classes
 90
        0
 91
        1
280
     0
281
     0
  0
CLASS
  1
DICTIONARYVAR
  2
AcDbDictionaryVar
  3
ObjectDBX Classes
 90
        0
 91
        3
280
     0
281
     0
  0
CLASS
  1
CELLSTYLEMAP
  2
AcDbCellStyleMap
  3
ObjectDBX Classes
 90
     1152
 91
        3
280
     0
281
     0
  0
ENDSEC
  0
SECTION
  2
TABLES
  0
TABLE
  2
VPORT
  5
8
330
0
100
AcDbSymbolTable
 70
     1
  0
VPORT
  5
29
330
8
100
AcDbSymbolTableRecord
100
AcDbViewportTableRecord
  2
*Active
 70
     0
 10
0.0
 20
0.0
 11
1.0
 21
1.0
 12
87.45405832598263
 22
235.3121978169104
 13
0.0
 23
0.0
 14
10.0
 24
10.0
 15
10.0
 25
10.0
 16
0.0
 26
0.0
 36
1.0
 17
0.0
 27
0.0
 37
0.0
 40
580.078125
 41
2.225806451612903
 42
50.0
 43
0.0
 44
0.0
 50
0.0
 51
0.0
 71
    16
 72
  2000
 73
     1
 74
     3
 75
     0
 76
     0
 77
     0
 78
     0
281
     0
 65
     1
110
0.0
120
0.0
130
0.0
111
1.0
121
0.0
131
0.0
112
0.0
122
1.0
132
0.0
 79
     0
146
0.0
348
2C1
 60
     3
 61
     5
292
     1
282
     1
141
0.0
142
0.0
 63
   256
  0
ENDTAB
  0
TABLE
  2
LTYPE
  5
5
330
0
100
AcDbSymbolTable
 70
     6
  0
LTYPE
  5
14
330
5
100
AcDbSymbolTableRecord
100
AcDbLinetypeTableRecord
  2
ByBlock
 70
     0
  3

 72
    65
 73
     0
 40
0.0
  0
LTYPE
  5
15
330
5
100
AcDbSymbolTableRecord
100
AcDbLinetypeTableRecord
  2
ByLayer
 70
     0
  3

 72
    65
 73
     0
 40
0.0
  0
LTYPE
  5
16
330
5
100
AcDbSymbolTableRecord
100
AcDbLinetypeTableRecord
  2
Continuous
 70
     0
  3
Solid line
 72
    65
 73
     0
 40
0.0
  0
LTYPE
  5
6E
330
5
100
AcDbSymbolTableRecord
100
AcDbLinetypeTableRecord
  2
HIDDEN
 70
     0
  3
Hidden __ __ __ __ __ __ __ __ __ __ __ __ __ __
 72
    65
 73
     2
 40
1.905
 49
1.27
 74
     0
 49
-0.635
 74
     0
  0
LTYPE
  5
6F
330
5
100
AcDbSymbolTableRecord
100
AcDbLinetypeTableRecord
  2
PHANTOM
 70
     0
  3
Phantom ______  __  __  ______  __  __  ______
 72
    65
 73
     6
 40
12.7
 49
6.35
 74
     0
 49
-1.27
 74
     0
 49
1.27
 74
     0
 49
-1.27
 74
     0
 49
1.27
 74
     0
 49
-1.27
 74
     0
  0
LTYPE
  5
70
330
5
100
AcDbSymbolTableRecord
100
AcDbLinetypeTableRecord
  2
CENTER
 70
     0
  3
Center ____ _ ____ _ ____ _ ____ _ ____ _ ____
 72
    65
 73
     4
 40
10.16
 49
6.35
 74
     0
 49
-1.27
 74
     0
 49
1.27
 74
     0
 49
-1.27
 74
     0
  0
LTYPE
  5
71
330
5
100
AcDbSymbolTableRecord
100
AcDbLinetypeTableRecord
  2
CENTERX2
 70
     0
  3
Center (2x) ________  __  ________  __  _____
 72
    65
 73
     4
 40
20.32
 49
12.7
 74
     0
 49
-2.54
 74
     0
 49
2.54
 74
     0
 49
-2.54
 74
     0
  0
LTYPE
  5
72
330
5
100
AcDbSymbolTableRecord
100
AcDbLinetypeTableRecord
  2
DOT2
 70
     0
  3
Dot (.5x) ........................................
 72
    65
 73
     2
 40
0.635
 49
0.0
 74
     0
 49
-0.635
 74
     0
  0
ENDTAB
  0
TABLE
  2
LAYER
  5
2
330
0
100
AcDbSymbolTable
 70
     5
  0
LAYER
  5
10
330
2
100
AcDbSymbolTableRecord
100
AcDbLayerTableRecord
  2
0
 70
     0
 62
     7
  6
Continuous
370
    -3
390
F
347
2D8
348
0
  0
LAYER
  5
73
330
2
100
AcDbSymbolTableRecord
100
AcDbLayerTableRecord
  2
FORMAT
 70
     0
 62
     7
  6
Continuous
370
    -3
390
F
347
2D8
348
0
  0
LAYER
  5
74
330
2
100
AcDbSymbolTableRecord
100
AcDbLayerTableRecord
  2
SLD-0
 70
     0
 62
   179
  6
Continuous
370
    -3
390
F
347
2D8
348
0
  0
LAYER
  5
75
330
2
100
AcDbSymbolTableRecord
100
AcDbLayerTableRecord
  2
AAA_EKSEN
 70
     0
 62
     1
  6
CENTER
370
    -3
390
F
347
2D8
348
0
  0
LAYER
  5
76
330
2
100
AcDbSymbolTableRecord
100
AcDbLayerTableRecord
  2
03
 70
     0
 62
     3
  6
HIDDEN
370
    -3
390
F
347
2D8
348
0
  0
ENDTAB
  0
TABLE
  2
STYLE
  5
3
330
0
100
AcDbSymbolTable
 70
     7
  0
STYLE
  5
11
330
3
100
AcDbSymbolTableRecord
100
AcDbTextStyleTableRecord
  2
Standard
 70
     0
 40
0.0
 41
1.0
 50
0.0
 71
     0
 42
3.5
  3
txt
  4

  0
STYLE
  5
C9
330
3
100
AcDbSymbolTableRecord
100
AcDbTextStyleTableRecord
  2
SLDTEXTSTYLE0
 70
     0
 40
0.0
 41
0.5526315789
 50
0.0
 71
     0
 42
3.5
  3
TXT
  4

  0
STYLE
  5
CE
330
3
100
AcDbSymbolTableRecord
100
AcDbTextStyleTableRecord
  2
SLDTEXTSTYLE1
 70
     0
 40
0.0
 41
0.5526315789
 50
0.0
 71
     0
 42
3.5
  3
TXT
  4
bigfont
  0
STYLE
  5
DB
330
3
100
AcDbSymbolTableRecord
100
AcDbTextStyleTableRecord
  2
SLDTEXTSTYLE2
 70
     0
 40
0.0
 41
0.75
 50
0.0
 71
     0
 42
3.5
  3
TXT
  4

  0
STYLE
  5
DD
330
3
100
AcDbSymbolTableRecord
100
AcDbTextStyleTableRecord
  2
SLDTEXTSTYLE3
 70
     0
 40
0.0
 41
0.75
 50
0.0
 71
     0
 42
3.5
  3
TXT
  4
bigfont
  0
STYLE
  5
101
330
3
100
AcDbSymbolTableRecord
100
AcDbTextStyleTableRecord
  2
SLDTEXTSTYLE4
 70
     0
 40
0.0
 41
0.5027700831
 50
0.0
 71
     0
 42
3.5
  3
TXT
  4

  0
STYLE
  5
10B
330
3
100
AcDbSymbolTableRecord
100
AcDbTextStyleTableRecord
  2
SLDTEXTSTYLE5
 70
     0
 40
0.0
 41
0.5027700831
 50
0.0
 71
     0
 42
3.5
  3
TXT
  4
bigfont
  0
ENDTAB
  0
TABLE
  2
VIEW
  5
6
330
0
100
AcDbSymbolTable
 70
     0
  0
ENDTAB
  0
TABLE
  2
UCS
  5
7
330
0
100
AcDbSymbolTable
 70
     0
  0
ENDTAB
  0
TABLE
  2
APPID
  5
9
330
0
100
AcDbSymbolTable
 70
     1
  0
APPID
  5
12
330
9
100
AcDbSymbolTableRecord
100
AcDbRegAppTableRecord
  2
ACAD
 70
     0
  0
ENDTAB
  0
TABLE
  2
DIMSTYLE
  5
A
330
0
100
AcDbSymbolTable
 70
     1
100
AcDbDimStyleTable
  0
DIMSTYLE
105
27
330
A
100
AcDbSymbolTableRecord
100
AcDbDimStyleTableRecord
  2
ISO-25
 70
     0
 41
2.5
 42
0.625
 43
3.75
 44
1.25
 73
     0
 74
     0
 77
     1
 78
     8
140
2.5
141
2.5
143
0.0393700787
147
0.625
171
     3
172
     1
178
     0
271
     2
272
     2
274
     3
278
    44
283
     0
284
     8
340
11
  0
ENDTAB
  0
TABLE
  2
BLOCK_RECORD
  5
1
330
0
100
AcDbSymbolTable
 70
     6
  0
BLOCK_RECORD
  5
1F
102
{ACAD_XDICTIONARY
360
2DE
102
}
330
1
100
AcDbSymbolTableRecord
100
AcDbBlockTableRecord
  2
*Model_Space
340
22
 70
     0
280
     1
281
     0
  0
BLOCK_RECORD
  5
1B
330
1
100
AcDbSymbolTableRecord
100
AcDbBlockTableRecord
  2
*Paper_Space
340
1E
 70
     0
280
     1
281
     0
  0
BLOCK_RECORD
  5
23
330
1
100
AcDbSymbolTableRecord
100
AcDbBlockTableRecord
  2
*Paper_Space0
340
26
 70
     0
280
     1
281
     0
  0
BLOCK_RECORD
  5
CB
330
1
100
AcDbSymbolTableRecord
100
AcDbBlockTableRecord
  2
SW_NOTE_0
340
0
102
{BLKREFS
331
0
102
}
 70
     0
280
     1
281
     0
  0
BLOCK_RECORD
  5
D2
330
1
100
AcDbSymbolTableRecord
100
AcDbBlockTableRecord
  2
SW_NOTE_0_1
340
0
102
{BLKREFS
331
0
102
}
 70
     0
280
     1
281
     0
  0
BLOCK_RECORD
  5
D8
330
1
100
AcDbSymbolTableRecord
100
AcDbBlockTableRecord
  2
SW_NOTE_0_2
340
0
102
{BLKREFS
331
0
102
}
 70
     0
280
     1
281
     0
  0
BLOCK_RECORD
  5
115
330
1
100
AcDbSymbolTableRecord
100
AcDbBlockTableRecord
  2
SW_NOTE_0_3
340
0
102
{BLKREFS
331
0
102
}
 70
     0
280
     1
281
     0
  0
BLOCK_RECORD
  5
11D
330
1
100
AcDbSymbolTableRecord
100
AcDbBlockTableRecord
  2
SW_NOTE_0_4
340
0
102
{BLKREFS
331
0
102
}
 70
     0
280
     1
281
     0
  0
ENDTAB
  0
ENDSEC
  0
SECTION
  2
BLOCKS
  0
BLOCK
  5
20
330
1F
100
AcDbEntity
  8
0
100
AcDbBlockBegin
  2
*Model_Space
 70
     0
 10
0.0
 20
0.0
 30
0.0
  3
*Model_Space
  1

  0
ENDBLK
  5
21
330
1F
100
AcDbEntity
  8
0
100
AcDbBlockEnd
  0
BLOCK
  5
1C
330
1B
100
AcDbEntity
 67
     1
  8
0
100
AcDbBlockBegin
  2
*Paper_Space
 70
     0
 10
0.0
 20
0.0
 30
0.0
  3
*Paper_Space
  1

  0
ENDBLK
  5
1D
330
1B
100
AcDbEntity
 67
     1
  8
0
100
AcDbBlockEnd
  0
BLOCK
  5
24
330
23
100
AcDbEntity
  8
0
100
AcDbBlockBegin
  2
*Paper_Space0
 70
     0
 10
0.0
 20
0.0
 30
0.0
  3
*Paper_Space0
  1

  0
ENDBLK
  5
25
330
23
100
AcDbEntity
  8
0
100
AcDbBlockEnd
  0
BLOCK
  5
CC
330
CB
100
AcDbEntity
  8
0
100
AcDbBlockBegin
  2
SW_NOTE_0
 70
     0
 10
0.0
 20
0.0
 30
0.0
  3
SW_NOTE_0
  1

  0
MTEXT
  5
CF
330
CB
100
AcDbEntity
  8
0
  6
Continuous
 62
     0
370
     0
100
AcDbMText
 10
-2.5781354795
 20
0.0
 30
0.0
 40
2.0
 41
0.0
 46
0.0
 71
     1
 72
     1
  1
Bu doküman ve içeriğinde yer alan bilgiler ile ilgili tüm haklarımız saklıdır.
  7
SLDTEXTSTYLE1
 11
-3.491481338843133E-15
 21
1.0
 31
0.0
 73
     1
 44
1.0
  0
MTEXT
  5
D0
330
CB
100
AcDbEntity
  8
0
  6
Continuous
 62
     0
370
     0
100
AcDbMText
 10
0.220168715
 20
0.0
 30
0.0
 40
2.0
 41
0.0
 46
0.0
 71
     1
 72
     1
  1
Yazılı izin olmadan bu doküman üçüncü taraflarca kopyalanamaz, çoğaltılamaz, yayınlanamaz ve kullanılamaz.
  7
SLDTEXTSTYLE1
 11
-3.491481338843133E-15
 21
1.0
 31
0.0
 73
     1
 44
1.0
  0
ENDBLK
  5
CD
330
CB
100
AcDbEntity
  8
0
100
AcDbBlockEnd
  0
BLOCK
  5
D3
330
D2
100
AcDbEntity
  8
0
100
AcDbBlockBegin
  2
SW_NOTE_0_1
 70
     0
 10
0.0
 20
0.0
 30
0.0
  3
SW_NOTE_0_1
  1

  0
MTEXT
  5
D5
330
D2
100
AcDbEntity
  8
0
  6
Continuous
 62
     0
370
     0
100
AcDbMText
 10
-2.5781354795
 20
0.0
 30
0.0
 40
2.0
 41
0.0
 46
0.0
 71
     1
 72
     1
  1
We reserve all rights in this document and in the information contained therein.
  7
SLDTEXTSTYLE0
 11
9.494107596574928E-16
 21
1.0
 31
0.0
 73
     1
 44
1.0
  0
MTEXT
  5
D6
330
D2
100
AcDbEntity
  8
0
  6
Continuous
 62
     0
370
     0
100
AcDbMText
 10
0.220168715
 20
0.0
 30
0.0
 40
2.0
 41
0.0
 46
0.0
 71
     1
 72
     1
  1
Reproduction, use or disclosure to third parties without express authority is strictly forbidden.
  7
SLDTEXTSTYLE0
 11
9.494107596574928E-16
 21
1.0
 31
0.0
 73
     1
 44
1.0
  0
ENDBLK
  5
D4
330
D2
100
AcDbEntity
  8
0
100
AcDbBlockEnd
  0
BLOCK
  5
D9
330
D8
100
AcDbEntity
  8
0
100
AcDbBlockBegin
  2
SW_NOTE_0_2
 70
     0
 10
0.0
 20
0.0
 30
0.0
  3
SW_NOTE_0_2
  1

  0
MTEXT
  5
DC
330
D8
100
AcDbEntity
  8
0
  6
Continuous
 62
     0
370
     0
100
AcDbMText
 10
0.0
 20
2.5781354795
 30
0.0
 40
2.0
 41
0.0
 46
0.0
 71
     1
 72
     1
  1
NOT:
  7
SLDTEXTSTYLE2
 73
     1
 44
1.0
  0
MTEXT
  5
DE
330
D8
100
AcDbEntity
  8
0
  6
Continuous
 62
     0
370
     0
100
AcDbMText
 10
3.0000000261
 20
-0.4218645465
 30
0.0
 40
2.0
 41
0.0
 46
0.0
 71
     1
 72
     1
  1
Aksi belirtilmediği sürece boyutlar mm cinsindendir.
  7
SLDTEXTSTYLE3
 73
     1
 44
1.0
  0
MTEXT
  5
DF
330
D8
100
AcDbEntity
  8
0
  6
Continuous
 62
     0
370
     0
100
AcDbMText
 10
0.0
 20
-0.4218645465
 30
0.0
 40
2.0
 41
0.0
 46
0.0
 71
     1
 72
     1
  1
1.
  7
SLDTEXTSTYLE2
 73
     1
 44
1.0
  0
MTEXT
  5
E0
330
D8
100
AcDbEntity
  8
0
  6
Continuous
 62
     0
370
     0
100
AcDbMText
 10
2.4375
 20
-3.4218645726
 30
0.0
 40
2.0
 41
0.0
 46
0.0
 71
     1
 72
     1
  1
(Unless otherwise specified dimensions are in mm.)
  7
SLDTEXTSTYLE2
 73
     1
 44
1.0
  0
MTEXT
  5
E1
330
D8
100
AcDbEntity
  8
0
  6
Continuous
 62
     0
370
     0
100
AcDbMText
 10
0.0
 20
-6.4218645987
 30
0.0
 40
2.0
 41
0.0
 46
0.0
 71
     1
 72
     1
  1
2. Resim üzerinden ölçü almayınız.
  7
SLDTEXTSTYLE3
 73
     1
 44
1.0
  0
MTEXT
  5
E2
330
D8
100
AcDbEntity
  8
0
  6
Continuous
 62
     0
370
     0
100
AcDbMText
 10
2.4375
 20
-9.4218646248
 30
0.0
 40
2.0
 41
0.0
 46
0.0
 71
     1
 72
     1
  1
(Don't take measures on the drawing.)
  7
SLDTEXTSTYLE2
 73
     1
 44
1.0
  0
ENDBLK
  5
DA
330
D8
100
AcDbEntity
  8
0
100
AcDbBlockEnd
  0
BLOCK
  5
116
330
115
100
AcDbEntity
  8
0
100
AcDbBlockBegin
  2
SW_NOTE_0_3
 70
     0
 10
0.0
 20
0.0
 30
0.0
  3
SW_NOTE_0_3
  1

  0
MTEXT
  5
118
330
115
100
AcDbEntity
  8
0
  6
Continuous
 62
     0
370
     0
100
AcDbMText
 10
8.975
 20
2.0625083836
 30
0.0
 40
1.6
 41
0.0
 46
0.0
 71
     2
 72
     1
  1
Revizyon Açıklaması
  7
SLDTEXTSTYLE3
 73
     1
 44
1.0
  0
MTEXT
  5
119
330
115
100
AcDbEntity
  8
0
  6
Continuous
 62
     0
370
     0
100
AcDbMText
 10
9.0027787283
 20
-0.3374917304
 30
0.0
 40
1.6
 41
0.0
 46
0.0
 71
     2
 72
     1
  1
Revision Description
  7
SLDTEXTSTYLE2
 73
     1
 44
1.0
  0
ENDBLK
  5
117
330
115
100
AcDbEntity
  8
0
100
AcDbBlockEnd
  0
BLOCK
  5
11E
330
11D
100
AcDbEntity
  8
0
100
AcDbBlockBegin
  2
SW_NOTE_0_4
 70
     0
 10
0.0
 20
0.0
 30
0.0
  3
SW_NOTE_0_4
  1

  0
MTEXT
  5
120
330
11D
100
AcDbEntity
  8
FORMAT
 62
     0
100
AcDbMText
 10
7.725
 20
2.0625083836
 30
0.0
 40
1.6
 41
0.0
 46
0.0
 71
     2
 72
     1
  1
Revizyonu Yapan
  7
SLDTEXTSTYLE2
 73
     1
 44
1.0
  0
MTEXT
  5
121
330
11D
100
AcDbEntity
  8
FORMAT
 62
     0
100
AcDbMText
 10
7.7499993496
 20
-0.3374917304
 30
0.0
 40
1.6
 41
0.0
 46
0.0
 71
     2
 72
     1
  1
Revised By
  7
SLDTEXTSTYLE2
 73
     1
 44
1.0
  0
ENDBLK
  5
11F
330
11D
100
AcDbEntity
  8
0
100
AcDbBlockEnd
  0
ENDSEC
  0
SECTION
  2
ENTITIES
  0
ARC
  5
125
330
1F
100
AcDbEntity
  8
0
  6
Continuous
 62
     7
370
    25
100
AcDbCircle
 10
180.9745106425
 20
118.5715001148
 30
0.0
 40
1.0
100
AcDbArc
 50
0.0
 51
90.0
  0
ARC
  5
126
330
1F
100
AcDbEntity
  8
0
  6
Continuous
 62
     7
370
    25
100
AcDbCircle
 10
132.9745106425
 20
118.5715001148
 30
0.0
 40
1.0
100
AcDbArc
 50
90.0
 51
180.0
  0
LINE
  5
127
330
1F
100
AcDbEntity
  8
0
  6
Continuous
 62
     7
370
    25
100
AcDbLine
 10
181.9745106425
 20
103.8215001148
 30
0.0
 11
181.9745106425
 21
118.5715001148
 31
0.0
  0
LINE
  5
128
330
1F
100
AcDbEntity
  8
0
  6
Continuous
 62
     7
370
    25
100
AcDbLine
 10
181.9745106425
 20
99.5715001148
 30
0.0
 11
181.9745106425
 21
101.3215001148
 31
0.0
  0
LINE
  5
129
330
1F
100
AcDbEntity
  8
0
  6
Continuous
 62
     7
370
    25
100
AcDbLine
 10
131.9745106425
 20
118.5715001148
 30
0.0
 11
131.9745106425
 21
99.5715001148
 31
0.0
  0
LINE
  5
12A
330
1F
100
AcDbEntity
  8
0
  6
Continuous
 62
     7
370
    25
100
AcDbLine
 10
165.9745106425
 20
119.5715001148
 30
0.0
 11
165.9745106425
 21
120.0715001148
 31
0.0
  0
LINE
  5
12B
330
1F
100
AcDbEntity
  8
0
  6
Continuous
 62
     7
370
    25
100
AcDbLine
 10
147.9745106425
 20
120.0715001148
 30
0.0
 11
147.9745106425
 21
119.5715001148
 31
0.0
  0
ARC
  5
12C
330
1F
100
AcDbEntity
  8
0
  6
Continuous
 62
     7
370
    25
100
AcDbCircle
 10
151.9745106425
 20
167.0715001148
 30
0.0
 40
27.50000000000001
100
AcDbArc
 50
23.9313839765
 51
90.0
  0
ARC
  5
12D
330
1F
100
AcDbEntity
  8
0
  6
Continuous
 62
     7
370
    25
100
AcDbCircle
 10
143.0745106425
 20
194.4715001148
 30
0.0
 40
0.0999999999999943
100
AcDbArc
 50
90.0
 51
180.0
  0
LINE
  5
12E
330
1F
100
AcDbEntity
  8
0
  6
Continuous
 62
     7
370
    25
100
AcDbLine
 10
151.9745106425
 20
194.5715001148
 30
0.0
 11
143.0745106425
 21
194.5715001148
 31
0.0
  0
ARC
  5
12F
330
1F
100
AcDbEntity
  8
0
  6
Continuous
 62
     7
370
    25
100
AcDbCircle
 10
142.8745106425
 20
193.4715001148
 30
0.0
 40
0.1000000000000227
100
AcDbArc
 50
270.0
 51
0.0
  0
SPLINE
  5
130
330
1F
100
AcDbEntity
  8
0
  6
Continuous
 62
     7
370
    25
100
AcDbSpline
210
0.0
220
0.0
230
1.0
 70
     8
 71
     3
 72
    15
 73
    11
 74
     0
 42
0.000000001
 43
0.00000001
 40
0.0
 40
0.0
 40
0.0
 40
0.0
 40
0.1012958581475689
 40
0.2302709310673564
 40
0.3601377047980026
 40
0.4888539813364935
 40
0.6177302252418667
 40
0.7472874161647862
 40
0.8756873902366921
 40
1.0
 40
1.0
 40
1.0
 40
1.0
 10
177.2796072732961
 20
173.770931922759
 30
0.0
 10
177.2744628938335
 20
174.0192370211363
 30
0.0
 10
177.2627684270477
 20
174.5836968839357
 30
0.0
 10
177.2467274144115
 20
175.3539604008265
 30
0.0
 10
177.2314456908899
 20
176.0847310593165
 30
0.0
 10
177.2186354967922
 20
176.692982174589
 30
0.0
 10
177.2083797199552
 20
177.1752700943059
 30
0.0
 10
177.2009318947697
 20
177.5196307113806
 30
0.0
 10
177.1961238517256
 20
177.7342376184248
 30
0.0
 10
177.1953560302064
 20
177.7579723422004
 30
0.0
 10
177.1949783288057
 20
177.7696477618007
 30
0.0
  0
SPLINE
  5
131
330
1F
100
AcDbEntity
  8
0
  6
Continuous
 62
     7
370
    25
100
AcDbSpline
210
0.0
220
0.0
230
1.0
 70
     8
 71
     3
 72
     9
 73
     5
 74
     0
 42
0.000000001
 43
0.00000001
 40
0.0
 40
0.0
 40
0.0
 40
0.0
 40
0.5234403169651104
 40
1.0
 40
1.0
 40
1.0
 40
1.0
 10
177.1949059720551
 20
177.7717542151466
 30
0.0
 10
177.1938790591767
 20
177.8538586207357
 30
0.0
 10
177.1919172063254
 20
178.0107139544347
 30
0.0
 10
177.1365521653082
 20
178.1573023411355
 30
0.0
 10
177.1101674189098
 20
178.2271604562383
 30
0.0
  0
ARC
  5
132
330
1F
100
AcDbEntity
  8
0
  6
Continuous
 62
     7
370
    25
100
AcDbCircle
 10
151.9745106425
 20
167.0715001148
 30
0.0
 40
26.18307963693084
100
AcDbArc
 50
270.0
 51
14.9117559366
  0
LINE
  5
133
330
1F
100
AcDbEntity
  8
0
  6
Continuous
 62
     7
370
    25
100
AcDbLine
 10
143.0745106425
 20
140.8884204778
 30
0.0
 11
151.9745106425
 21
140.8884204778
 31
0.0
  0
SPLINE
  5
134
330
1F
100
AcDbEntity
  8
0
  6
Continuous
 62
     7
370
    25
100
AcDbSpline
210
0.0
220
0.0
230
1.0
 70
     8
 71
     3
 72
    13
 73
     9
 74
     0
 42
0.000000001
 43
0.00000001
 40
0.0
 40
0.0
 40
0.0
 40
0.0
 40
0.2366523679578608
 40
0.366023664299693
 40
0.4990874120083846
 40
0.6322688778429909
 40
0.7619915784666562
 40
1.0
 40
1.0
 40
1.0
 40
1.0
 10
78.31475108913124
 20
140.295513090083
 30
0.0
 10
78.28954401782472
 20
140.2198790502659
 30
0.0
 10
78.2505569386525
 20
140.1028979752887
 30
0.0
 10
78.27857955473068
 20
139.929837412019
 30
0.0
 10
78.33407472234843
 20
139.803622535313
 30
0.0
 10
78.42228015411277
 20
139.6981609216656
 30
0.0
 10
78.5641786458238
 20
139.5971570150081
 30
0.0
 10
78.68417883757265
 20
139.5815927329681
 30
0.0
 10
78.76184715145997
 20
139.5715189862073
 30
0.0
  0
LINE
  5
135
330
1F
100
AcDbEntity
  8
0
  6
Continuous
 62
     7
370
    25
100
AcDbLine
 10
129.9666530763
 20
139.5715001148
 30
0.0
 11
140.8745106425
 21
139.5715001148
 31
0.0
  0
LINE
  5
136
330
1F
100
AcDbEntity
  8
0
  6
Continuous
 62
     7
370
    25
100
AcDbLine
 10
78.7482009565
 20
139.5715001148
 30
0.0
 11
126.9936834435
 21
139.5715001148
 31
0.0
  0
LINE
  5
137
330
1F
100
AcDbEntity
  8
0
  6
Continuous
 62
     7
370
    25
100
AcDbLine
 10
140.8745106425
 20
194.5715001148
 30
0.0
 11
126.1044844639
 21
194.5715001148
 31
0.0
  0
ARC
  5
138
330
1F
100
AcDbEntity
  8
0
  6
Continuous
 62
     7
370
    25
100
AcDbCircle
 10
140.8745106425
 20
194.4715001148
 30
0.0
 40
0.1000000000000227
100
AcDbArc
 50
0.0
 51
90.0
  0
ARC
  5
139
330
1F
100
AcDbEntity
  8
0
  6
Continuous
 62
     7
370
    25
100
AcDbCircle
 10
140.8745106425
 20
139.6715001148
 30
0.0
 40
0.1000000000000227
100
AcDbArc
 50
270.0
 51
0.0
  0
ARC
  5
13A
330
1F
100
AcDbEntity
  8
0
  6
Continuous
 62
     7
370
    25
100
AcDbCircle
 10
141.0745106425
 20
194.3715001148
 30
0.0
 40
0.0999999999999943
100
AcDbArc
 50
180.0
 51
270.0
  0
ARC
  5
13B
330
1F
100
AcDbEntity
  8
0
  6
Continuous
 62
     7
370
    25
100
AcDbCircle
 10
141.0745106425
 20
139.7715001148
 30
0.0
 40
0.0999999999999943
100
AcDbArc
 50
90.0
 51
180.0
  0
ARC
  5
13C
330
1F
100
AcDbEntity
  8
0
  6
Continuous
 62
     7
370
    25
100
AcDbCircle
 10
142.8745106425
 20
194.1715001148
 30
0.0
 40
0.1000000000000227
100
AcDbArc
 50
0.0
 51
90.0
  0
ARC
  5
13D
330
1F
100
AcDbEntity
  8
0
  6
Continuous
 62
     7
370
    25
100
AcDbCircle
 10
142.8745106425
 20
139.9715001148
 30
0.0
 40
0.1000000000000227
100
AcDbArc
 50
270.0
 51
0.0
  0
LINE
  5
13E
330
1F
100
AcDbEntity
  8
0
  6
Continuous
 62
     7
370
    25
100
AcDbLine
 10
142.8745106425
 20
194.2715001148
 30
0.0
 11
141.0745106425
 21
194.2715001148
 31
0.0
  0
LINE
  5
13F
330
1F
100
AcDbEntity
  8
0
  6
Continuous
 62
     7
370
    25
100
AcDbLine
 10
141.0745106425
 20
139.8715001148
 30
0.0
 11
142.8745106425
 21
139.8715001148
 31
0.0
  0
SPLINE
  5
140
330
1F
100
AcDbEntity
  8
0
  6
Continuous
 62
     7
370
    25
100
AcDbSpline
210
0.0
220
0.0
230
1.0
 70
     8
 71
     3
 72
    11
 73
     7
 74
     0
 42
0.000000001
 43
0.00000001
 40
0.0
 40
0.0
 40
0.0
 40
0.0
 40
0.1773187412941073
 40
0.4539859640246863
 40
0.7300155191285992
 40
1.0
 40
1.0
 40
1.0
 40
1.0
 10
126.0568871192999
 20
194.5647220484795
 30
0.0
 10
126.0268819363363
 20
194.5619473266287
 30
0.0
 10
125.9500602094615
 20
194.5548432564941
 30
0.0
 10
125.8322639237262
 20
194.4968573404653
 30
0.0
 10
125.7190482743185
 20
194.4016296882339
 30
0.0
 10
125.6720047304037
 20
194.3183039619271
 30
0.0
 10
125.6487433745679
 20
194.2771023599939
 30
0.0
  0
LINE
  5
141
330
1F
100
AcDbEntity
  8
0
  6
Continuous
 62
     7
370
    25
100
AcDbLine
 10
126.1045856008
 20
194.57151477
 30
0.0
 11
126.0568871193
 21
194.5647220485
 31
0.0
  0
LINE
  5
142
330
1F
100
AcDbEntity
  8
0
  6
Continuous
 62
     7
370
    25
100
AcDbLine
 10
147.9745106425
 20
140.8884204778
 30
0.0
 11
147.9745106425
 21
120.0715001148
 31
0.0
  0
LINE
  5
143
330
1F
100
AcDbEntity
  8
0
  6
Continuous
 62
     7
370
    25
100
AcDbLine
 10
165.9745106425
 20
120.0715001148
 30
0.0
 11
165.9745106425
 21
144.9456405999
 31
0.0
  0
LINE
  5
144
330
1F
100
AcDbEntity
  8
0
  6
Continuous
 62
     7
370
    25
100
AcDbLine
 10
105.6603078832
 20
170.3468668053
 30
0.0
 11
67.9745106425
 21
170.3468668053
 31
0.0
  0
LINE
  5
145
330
1F
100
AcDbEntity
  8
0
  6
Continuous
 62
     7
370
    25
100
AcDbLine
 10
67.9745106425
 20
161.8477745856
 30
0.0
 11
95.886429202
 21
161.8477745856
 31
0.0
  0
LINE
  5
146
330
1F
100
AcDbEntity
  8
0
  6
Continuous
 62
     7
370
    25
100
AcDbLine
 10
109.497077878
 20
173.766279814
 30
0.0
 11
67.9745106425
 21
173.766279814
 31
0.0
  0
LINE
  5
147
330
1F
100
AcDbEntity
  8
0
  6
Continuous
 62
     7
370
    25
100
AcDbLine
 10
67.9745106425
 20
158.487531016
 30
0.0
 11
92.2561570373
 21
158.487531016
 31
0.0
  0
LINE
  5
148
330
1F
100
AcDbEntity
  8
0
  6
Continuous
 62
     7
370
    25
100
AcDbLine
 10
112.9516141006
 20
177.0670648687
 30
0.0
 11
67.9745106425
 21
177.0670648687
 31
0.0
  0
LINE
  5
149
330
1F
100
AcDbEntity
  8
0
  6
Continuous
 62
     7
370
    25
100
AcDbLine
 10
67.9745106425
 20
155.2826863232
 30
0.0
 11
89.0343752297
 21
155.2826863232
 31
0.0
  0
LINE
  5
14A
330
1F
100
AcDbEntity
  8
0
  6
Continuous
 62
     7
370
    25
100
AcDbLine
 10
115.9619194736
 20
180.1849759426
 30
0.0
 11
67.9745106425
 21
180.1849759426
 31
0.0
  0
LINE
  5
14B
330
1F
100
AcDbEntity
  8
0
  6
Continuous
 62
     7
370
    25
100
AcDbLine
 10
67.9745106425
 20
152.2956191638
 30
0.0
 11
86.3333720037
 21
152.2956191638
 31
0.0
  0
LINE
  5
14C
330
1F
100
AcDbEntity
  8
0
  6
Continuous
 62
     7
370
    25
100
AcDbLine
 10
118.4491932723
 20
183.0593264435
 30
0.0
 11
67.9745106425
 21
183.0593264435
 31
0.0
  0
LINE
  5
14D
330
1F
100
AcDbEntity
  8
0
  6
Continuous
 62
     7
370
    25
100
AcDbLine
 10
67.9745106425
 20
149.5844694023
 30
0.0
 11
84.1185212902
 21
149.5844694023
 31
0.0
  0
LINE
  5
14E
330
1F
100
AcDbEntity
  8
0
  6
Continuous
 62
     7
370
    25
100
AcDbLine
 10
120.4527191935
 20
185.6341704083
 30
0.0
 11
67.9745106425
 21
185.6341704083
 31
0.0
  0
LINE
  5
14F
330
1F
100
AcDbEntity
  8
0
  6
Continuous
 62
     7
370
    25
100
AcDbLine
 10
67.9745106425
 20
147.2020064849
 30
0.0
 11
82.3644755625
 21
147.2020064849
 31
0.0
  0
LINE
  5
150
330
1F
100
AcDbEntity
  8
0
  6
Continuous
 62
     7
370
    25
100
AcDbLine
 10
122.0149531145
 20
187.859391428
 30
0.0
 11
67.9745106425
 21
187.859391428
 31
0.0
  0
LINE
  5
151
330
1F
100
AcDbEntity
  8
0
  6
Continuous
 62
     7
370
    25
100
AcDbLine
 10
67.9745106425
 20
145.1946023423
 30
0.0
 11
81.0311727389
 21
145.1946023423
 31
0.0
  0
LINE
  5
152
330
1F
100
AcDbEntity
  8
0
  6
Continuous
 62
     7
370
    25
100
AcDbLine
 10
123.1817685738
 20
189.6916781067
 30
0.0
 11
67.9745106425
 21
189.6916781067
 31
0.0
  0
LINE
  5
153
330
1F
100
AcDbEntity
  8
0
  6
Continuous
 62
     7
370
    25
100
AcDbLine
 10
67.9745106425
 20
143.6013288127
 30
0.0
 11
80.067568272
 21
143.6013288127
 31
0.0
  0
LINE
  5
154
330
1F
100
AcDbEntity
  8
0
  6
Continuous
 62
     7
370
    25
100
AcDbLine
 10
124.0035149799
 20
191.0953670684
 30
0.0
 11
67.9745106425
 21
191.0953670684
 31
0.0
  0
LINE
  5
155
330
1F
100
AcDbEntity
  8
0
  6
Continuous
 62
     7
370
    25
100
AcDbLine
 10
67.9745106425
 20
142.453197153
 30
0.0
 11
79.4238676986
 21
142.453197153
 31
0.0
  0
LINE
  5
156
330
1F
100
AcDbEntity
  8
0
  6
Continuous
 62
     7
370
    25
100
AcDbLine
 10
124.5266116535
 20
192.0431371041
 30
0.0
 11
67.9745106425
 21
192.0431371041
 31
0.0
  0
LINE
  5
157
330
1F
100
AcDbEntity
  8
0
  6
Continuous
 62
     7
370
    25
100
AcDbLine
 10
67.9745106425
 20
141.7725544401
 30
0.0
 11
79.0595611339
 21
141.7725544401
 31
0.0
  0
LINE
  5
158
330
1F
100
AcDbEntity
  8
0
  6
Continuous
 62
     7
370
    25
100
AcDbLine
 10
124.7760424015
 20
192.5165409481
 30
0.0
 11
67.9745106425
 21
192.5165409481
 31
0.0
  0
LINE
  5
159
330
1F
100
AcDbEntity
  8
0
  6
Continuous
 62
     7
370
    25
100
AcDbLine
 10
124.7836370367
 20
192.5309550873
 30
0.0
 11
67.9745106425
 21
192.5309550873
 31
0.0
  0
SPLINE
  5
15A
330
1F
100
AcDbEntity
  8
0
  6
Continuous
 62
     7
370
    25
100
AcDbSpline
210
0.0
220
0.0
230
1.0
 70
    24
 71
     3
 72
    41
 73
    37
 74
     0
 42
0.000000001
 43
0.00000001
 40
0.0
 40
0.0
 40
0.0
 40
0.0
 40
0.0291214747443554
 40
0.0582464693133632
 40
0.0891147400034641
 40
0.1199899688224604
 40
0.1521449400569173
 40
0.1843068975801376
 40
0.2171460678083875
 40
0.2499923729892024
 40
0.2828315434214785
 40
0.3156778488062986
 40
0.3371350804494379
 40
0.3585465668480209
 40
0.3800100023475916
 40
0.4108782725839057
 40
0.4417535010671579
 40
0.4708732187534407
 40
0.4999999851461226
 40
0.5291197028998518
 40
0.5582464693077691
 40
0.5891147399976133
 40
0.6199899688168687
 40
0.6521449400511783
 40
0.6843068975745444
 40
0.7171460678022824
 40
0.7499923729836069
 40
0.7828315434158871
 40
0.8156778488007108
 40
0.8371350804438161
 40
0.8585465668423993
 40
0.8800100023419948
 40
0.9108782725779366
 40
0.9417535010615649
 40
0.9708749910144486
 40
1.0
 40
1.0
 40
1.0
 40
1.0
 10
180.9745106424773
 20
119.5715001147757
 30
0.0
 10
180.9552771576596
 20
119.5715001147757
 30
0.0
 10
180.9168078633309
 20
119.5715001147757
 30
0.0
 10
180.5980267734284
 20
119.5715001147757
 30
0.0
 10
180.0774522791189
 20
119.5715001147757
 30
0.0
 10
179.3136128426979
 20
119.5715001147757
 30
0.0
 10
178.3215177204663
 20
119.5715001147757
 30
0.0
 10
177.0877443587638
 20
119.5715001147757
 30
0.0
 10
175.6364960374511
 20
119.5715001147757
 30
0.0
 10
173.9750864793363
 20
119.5715001147757
 30
0.0
 10
172.1342324103821
 20
119.5715001147757
 30
0.0
 10
170.3620775302857
 20
119.5715001147757
 30
0.0
 10
168.7349638132304
 20
119.5715001147757
 30
0.0
 10
167.2987013824156
 20
119.5715001147757
 30
0.0
 10
165.5986968342306
 20
119.5715001147757
 30
0.0
 10
163.6169765894261
 20
119.5715001147757
 30
0.0
 10
161.3914094808585
 20
119.5715001147757
 30
0.0
 10
159.1704315481381
 20
119.5715001147757
 30
0.0
 10
156.9746884355421
 20
119.5715001147757
 30
0.0
 10
154.7787643177077
 20
119.5715001147757
 30
0.0
 10
152.557969310459
 20
119.5715001147757
 30
0.0
 10
150.3321674029835
 20
119.5715001147757
 30
0.0
 10
148.0960224687246
 20
119.5715001147757
 30
0.0
 10
145.9155410904806
 20
119.5715001147757
 30
0.0
 10
143.8045806966242
 20
119.5715001147757
 30
0.0
 10
141.8149887097578
 20
119.5715001147757
 30
0.0
 10
139.9741660000326
 20
119.5715001147757
 30
0.0
 10
138.3126686819374
 20
119.5715001147757
 30
0.0
 10
137.0200582030505
 20
119.5715001147757
 30
0.0
 10
136.0322370574504
 20
119.5715001147757
 30
0.0
 10
135.288149760892
 20
119.5715001147757
 30
0.0
 10
134.5486254737111
 20
119.5715001147757
 30
0.0
 10
133.871578902415
 20
119.5715001147757
 30
0.0
 10
133.3510593457024
 20
119.5715001147757
 30
0.0
 10
133.0321808249637
 20
119.5715001147757
 30
0.0
 10
132.9937348108936
 20
119.5715001147757
 30
0.0
 10
132.9745106424773
 20
119.5715001147757
 30
0.0
  0
SPLINE
  5
15B
330
1F
100
AcDbEntity
  8
0
  6
Continuous
 62
     7
370
    25
100
AcDbSpline
210
0.0
220
0.0
230
1.0
 70
    11
 71
     3
 72
    27
 73
    23
 74
     0
 42
0.000000001
 43
0.00000001
 40
0.0
 40
0.0
 40
0.0
 40
0.0
 40
0.0536404147665257
 40
0.1072792044782127
 40
0.1609601583516281
 40
0.2146686276400768
 40
0.2683313210714291
 40
0.3219464797478235
 40
0.3755863491246476
 40
0.4292846953364303
 40
0.4829841423434497
 40
0.5000000000000774
 40
0.5536404147666031
 40
0.6072792044782899
 40
0.6609601583517056
 40
0.7146686276401546
 40
0.7683313210715067
 40
0.8219464797479007
 40
0.8755863491247251
 40
0.9292846953365078
 40
0.9829841423435273
 40
1.0
 40
1.0
 40
1.0
 40
1.0
 10
145.5726771750589
 20
102.5715001147763
 30
0.0
 10
145.5603681983278
 20
102.4310378828556
 30
0.0
 10
145.5357506177702
 20
102.1501176743658
 30
0.0
 10
145.3444642521979
 20
101.7761763278799
 30
0.0
 10
145.0644332100839
 20
101.4916732588886
 30
0.0
 10
144.7174490965508
 20
101.328799848705
 30
0.0
 10
144.3471698474047
 20
101.3060663915828
 30
0.0
 10
143.994816179033
 20
101.4257810867288
 30
0.0
 10
143.6990673793762
 20
101.6745093630186
 30
0.0
 10
143.4913266556297
 20
102.0240589139806
 30
0.0
 10
143.4158444711076
 20
102.3429357721961
 30
0.0
 10
143.4013300329399
 20
102.6667951501696
 30
0.0
 10
143.4477566794297
 20
102.9931121609156
 30
0.0
 10
143.6223812153262
 20
103.3667623162927
 30
0.0
 10
143.8932580343157
 20
103.6513435273244
 30
0.0
 10
144.2318606165021
 20
103.8141958001502
 30
0.0
 10
144.6011124357879
 20
103.8369356133016
 30
0.0
 10
144.9593566289441
 20
103.7172166175986
 30
0.0
 10
145.2659272898873
 20
103.4684992008333
 30
0.0
 10
145.4832112265706
 20
103.1189104690172
 30
0.0
 10
145.5659785950295
 20
102.8001462775861
 30
0.0
 10
145.5713779550182
 20
102.6158470772146
 30
0.0
 10
145.5726771750589
 20
102.5715001147763
 30
0.0
  0
SPLINE
  5
15C
330
1F
100
AcDbEntity
  8
0
  6
Continuous
 62
     7
370
    25
100
AcDbSpline
210
0.0
220
0.0
230
1.0
 70
     8
 71
     3
 72
    12
 73
     8
 74
     0
 42
0.000000001
 43
0.00000001
 40
0.0
 40
0.0
 40
0.0
 40
0.0
 40
0.2145110603896423
 40
0.4290156220928336
 40
0.6436888006697438
 40
0.8584720149516617
 40
1.0
 40
1.0
 40
1.0
 40
1.0
 10
181.943241086775
 20
102.5715001147757
 30
0.0
 10
181.9439504504256
 20
102.7119320930492
 30
0.0
 10
181.9453691562363
 20
102.992791795161
 30
0.0
 10
181.9552695530562
 20
103.3671870478438
 30
0.0
 10
181.9661595395798
 20
103.6499636807172
 30
0.0
 10
181.9734341576565
 20
103.8000797178004
 30
0.0
 10
181.9742046144819
 20
103.8154106270094
 30
0.0
 10
181.9745106424773
 20
103.8215001147757
 30
0.0
  0
SPLINE
  5
15D
330
1F
100
AcDbEntity
  8
0
  6
Continuous
 62
     7
370
    25
100
AcDbSpline
210
0.0
220
0.0
230
1.0
 70
     8
 71
     3
 72
    12
 73
     8
 74
     0
 42
0.000000001
 43
0.00000001
 40
0.0
 40
0.0
 40
0.0
 40
0.0
 40
0.2145112493284682
 40
0.4290160217937505
 40
0.6436889586330131
 40
0.8584722626843162
 40
1.0
 40
1.0
 40
1.0
 40
1.0
 10
181.9745106424773
 20
101.3215001147757
 30
0.0
 10
181.9738022709325
 20
101.3353005465902
 30
0.0
 10
181.9723855492309
 20
101.3629009935348
 30
0.0
 10
181.9624931207101
 20
101.5781121396491
 30
0.0
 10
181.9516011942821
 20
101.8949932313083
 30
0.0
 10
181.9443189950487
 20
102.2466068612578
 30
0.0
 10
181.9435475191494
 20
102.4791380710611
 30
0.0
 10
181.943241086775
 20
102.5715001147757
 30
0.0
  0
LINE
  5
15E
330
1F
100
AcDbEntity
  8
0
  6
Continuous
 62
     7
370
    25
100
AcDbLine
 10
131.9745106425
 20
99.5715001148
 30
0.0
 11
181.9745106425
 21
99.5715001148
 31
0.0
  0
SPLINE
  5
15F
330
1F
100
AcDbEntity
  8
0
  6
Continuous
 62
     7
370
    25
100
AcDbSpline
210
0.0
220
0.0
230
1.0
 70
     8
 71
     3
 72
    15
 73
    11
 74
     0
 42
0.000000001
 43
0.00000001
 40
0.0
 40
0.0
 40
0.0
 40
0.0
 40
0.1407766059870132
 40
0.2959872441660185
 40
0.4512018655726674
 40
0.5004833594243829
 40
0.655496260450828
 40
0.810503612459716
 40
0.9656549355696854
 40
1.0
 40
1.0
 40
1.0
 40
1.0
 10
144.9781155745131
 20
101.4695285639779
 30
0.0
 10
144.8853397082154
 20
101.5368264465044
 30
0.0
 10
144.6902755297744
 20
101.6783223623036
 30
0.0
 10
144.4935447961953
 20
102.0256769209141
 30
0.0
 10
144.417110303271
 20
102.3426748314082
 30
0.0
 10
144.4027856624189
 20
102.6666236936349
 30
0.0
 10
144.4482098524502
 20
102.9949074468516
 30
0.0
 10
144.6259870037179
 20
103.3598954476456
 30
0.0
 10
144.8162505921918
 20
103.5942976437137
 30
0.0
 10
144.9534188588941
 20
103.6552576822692
 30
0.0
 10
144.9782797705919
 20
103.6663063174387
 30
0.0
  0
LINE
  5
160
330
1F
100
AcDbEntity
  8
0
  6
Continuous
 62
     7
370
    25
100
AcDbLine
 10
165.9745106425
 20
120.0715001148
 30
0.0
 11
147.9745106425
 21
120.0715001148
 31
0.0
  0
SPLINE
  5
161
330
1F
100
AcDbEntity
  8
0
  6
Continuous
 62
     7
370
    25
100
AcDbSpline
210
0.0
220
0.0
230
1.0
 70
     8
 71
     3
 72
    15
 73
    11
 74
     0
 42
0.000000001
 43
0.00000001
 40
0.0
 40
0.0
 40
0.0
 40
0.0
 40
0.1246196247460532
 40
0.2493473980705692
 40
0.3742476063873535
 40
0.4995805380457417
 40
0.6241316939722837
 40
0.7495854003282768
 40
0.8741348937826753
 40
1.0
 40
1.0
 40
1.0
 40
1.0
 10
177.1101674181622
 20
178.2271604921342
 30
0.0
 10
177.1103737987319
 20
178.2134137453501
 30
0.0
 10
177.1107867389744
 20
178.1859083219504
 30
0.0
 10
177.1157871534911
 20
177.9604837589994
 30
0.0
 10
177.1227745162726
 20
177.6052165386133
 30
0.0
 10
177.133345086896
 20
177.108881084884
 30
0.0
 10
177.14593658207
 20
176.4842824281514
 30
0.0
 10
177.1616079986272
 20
175.736688543728
 30
0.0
 10
177.1789835618072
 20
174.88218005523
 30
0.0
 10
177.1924899753728
 20
174.2303141149486
 30
0.0
 10
177.1992786617364
 20
173.9026687782927
 30
0.0
  0
ARC
  5
162
330
1F
100
AcDbEntity
  8
0
  6
Continuous
 62
     7
370
    25
100
AcDbCircle
 10
151.9745106425
 20
167.0715001148
 30
0.0
 40
26.13338452889048
100
AcDbArc
 50
270.0
 51
15.1529266969
  0
LINE
  5
163
330
1F
100
AcDbEntity
  8
0
  6
Continuous
 62
     7
370
    25
100
AcDbLine
 10
151.9745106425
 20
140.9381155859
 30
0.0
 11
151.9745106425
 21
194.5715001148
 31
0.0
  0
ARC
  5
164
330
1F
100
AcDbEntity
  8
0
  6
Continuous
 62
     7
370
    25
100
AcDbCircle
 10
143.0720876272
 20
141.0356957992
 30
0.0
 40
0.0976102916433574
100
AcDbArc
 50
181.4968201334
 51
271.4224198097999
  0
SPLINE
  5
165
330
1F
100
AcDbEntity
  8
0
  6
Continuous
 62
     7
370
    25
100
AcDbSpline
210
0.0
220
0.0
230
1.0
 70
    24
 71
     3
 72
    19
 73
    15
 74
     0
 42
0.000000001
 43
0.00000001
 40
0.0
 40
0.0
 40
0.0
 40
0.0
 40
0.0797108623673286
 40
0.1609785654102257
 40
0.2437071212031979
 40
0.3285562667000008
 40
0.4140282632199592
 40
0.4999999828872186
 40
0.5859578135712828
 40
0.6714299899338567
 40
0.756292845329062
 40
0.839008037348597
 40
0.9202825497008015
 40
0.9999999999999999
 40
0.9999999999999999
 40
0.9999999999999999
 40
0.9999999999999999
 10
142.9745106424774
 20
167.0715001147757
 30
0.0
 10
142.9745106424774
 20
166.1584377439797
 30
0.0
 10
142.9745106424774
 20
164.3144798916175
 30
0.0
 10
142.9745106424774
 20
161.5509596345393
 30
0.0
 10
142.9745106424774
 20
158.7880630615341
 30
0.0
 10
142.9745106424774
 20
156.0700283973417
 30
0.0
 10
142.9745106424774
 20
153.4428995252124
 30
0.0
 10
142.9745106424774
 20
150.9620631389905
 30
0.0
 10
142.9745106424774
 20
148.667589218471
 30
0.0
 10
142.9745106424774
 20
146.5953754670162
 30
0.0
 10
142.9745106424774
 20
144.7793570846815
 30
0.0
 10
142.9745106424774
 20
143.2421398955676
 30
0.0
 10
142.9745106424774
 20
141.9672249757812
 30
0.0
 10
142.9745106424774
 20
141.3424916358938
 30
0.0
 10
142.9745106424774
 20
141.0331460750812
 30
0.0
  0
SPLINE
  5
166
330
1F
100
AcDbEntity
  8
0
  6
Continuous
 62
     7
370
    25
100
AcDbSpline
210
0.0
220
0.0
230
1.0
 70
    24
 71
     3
 72
    24
 73
    20
 74
     0
 42
0.000000001
 43
0.00000001
 40
0.0
 40
0.0
 40
0.0
 40
0.0
 40
0.0582403086422311
 40
0.1164929652849528
 40
0.1782303684222545
 40
0.239979960995264
 40
0.3042907687720416
 40
0.3686138153065764
 40
0.4342930394400345
 40
0.4999847627606909
 40
0.5656639872518597
 40
0.631355710929613
 40
0.6742709428405194
 40
0.7170939145235143
 40
0.7600200145026799
 40
0.8217574168584879
 40
0.8835070088299053
 40
0.9417504220078095
 40
1.0
 40
1.0
 40
1.0
 40
1.0
 10
142.9745106424774
 20
194.4715001147757
 30
0.0
 10
142.9745106424774
 20
194.4495511781371
 30
0.0
 10
142.9745106424774
 20
194.4056486512877
 30
0.0
 10
142.9745106424774
 20
194.0416817570771
 30
0.0
 10
142.9745106424774
 20
193.4473566769131
 30
0.0
 10
142.9745106424774
 20
192.5752988223624
 30
0.0
 10
142.9745106424774
 20
191.442660968235
 30
0.0
 10
142.9745106424774
 20
190.0340948043001
 30
0.0
 10
142.9745106424774
 20
188.3772587116482
 30
0.0
 10
142.9745106424774
 20
186.4804729595693
 30
0.0
 10
142.9745106424774
 20
184.3788389854761
 30
0.0
 10
142.9745106424774
 20
182.3556197274537
 30
0.0
 10
142.9745106424774
 20
180.4979971498069
 30
0.0
 10
142.9745106424774
 20
178.8582654095429
 30
0.0
 10
142.9745106424774
 20
176.9174237617137
 30
0.0
 10
142.9745106424774
 20
174.6549703929669
 30
0.0
 10
142.9745106424774
 20
172.1140576632417
 30
0.0
 10
142.9745106424774
 20
169.5784547530062
 30
0.0
 10
142.9745106424774
 20
167.9071811421439
 30
0.0
 10
142.9745106424774
 20
167.0715001147757
 30
0.0
  0
LINE
  5
167
330
1F
100
AcDbEntity
  8
0
  6
Continuous
 62
     7
370
    25
100
AcDbLine
 10
143.0745106425
 20
140.9381155859
 30
0.0
 11
151.9745106425
 21
140.9381155859
 31
0.0
  0
SPLINE
  5
168
330
1F
100
AcDbEntity
  8
0
  6
Continuous
 62
     7
370
    25
100
AcDbSpline
210
0.0
220
0.0
230
1.0
 70
     8
 71
     3
 72
     9
 73
     5
 74
     0
 42
0.000000001
 43
0.00000001
 40
0.0
 40
0.0
 40
0.0
 40
0.0
 40
0.8037528885324965
 40
1.0
 40
1.0
 40
1.0
 40
1.0
 10
177.1992786617364
 20
173.9026687782927
 30
0.0
 10
177.230415192987
 20
173.8797760059593
 30
0.0
 10
177.269154128417
 20
173.8512936544056
 30
0.0
 10
177.2706204393002
 20
173.8151928576366
 30
0.0
 10
177.2709081985756
 20
173.808108180549
 30
0.0
  0
LINE
  5
169
330
1F
100
AcDbEntity
  8
0
  6
Continuous
 62
     7
370
    25
100
AcDbLine
 10
143.0745106425
 20
140.9381155859
 30
0.0
 11
143.0745106425
 21
140.8884204778
 31
0.0
  0
ARC
  5
16A
330
1F
100
AcDbEntity
  8
0
  6
Continuous
 62
     7
370
    25
100
AcDbCircle
 10
143.0745106425
 20
140.9884204778
 30
0.0
 40
0.0999999999999943
100
AcDbArc
 50
180.0
 51
270.0
  0
SPLINE
  5
16B
330
1F
100
AcDbEntity
  8
0
  6
Continuous
 62
     7
370
    25
100
AcDbSpline
210
0.0
220
0.0
230
1.0
 70
     8
 71
     3
 72
    24
 73
    20
 74
     0
 42
0.000000001
 43
0.00000001
 40
0.0
 40
0.0
 40
0.0
 40
0.0
 40
0.073794476316005
 40
0.1471868288629414
 40
0.220505067844723
 40
0.2756500237495483
 40
0.3311343068696325
 40
0.3871159854542257
 40
0.4429174351584294
 40
0.4986568757395178
 40
0.5547814346444375
 40
0.6105018658222375
 40
0.6658627764391823
 40
0.7216797107090533
 40
0.7775604219810907
 40
0.8329753297477378
 40
0.8888463949855272
 40
0.9444840837052177
 40
1.0
 40
1.0
 40
1.0
 40
1.0
 10
107.39010199169
 20
171.8608308215076
 30
0.0
 10
106.342422039131
 20
170.9396740179641
 30
0.0
 10
104.2527711929064
 20
169.1023800148399
 30
0.0
 10
101.0704289373868
 20
166.3796220827255
 30
0.0
 10
98.17420607756183
 20
163.8803657705304
 30
0.0
 10
95.57618181637079
 20
161.5845503278352
 30
0.0
 10
93.27737899222184
 20
159.4834416587544
 30
0.0
 10
91.04770999414454
 20
157.3493442793968
 30
0.0
 10
88.9205136810162
 20
155.1911729956472
 30
0.0
 10
86.92689669788622
 20
153.023612685902
 30
0.0
 10
85.10087968419623
 20
150.8752532573463
 30
0.0
 10
83.47499348949592
 20
148.7883009762802
 30
0.0
 10
82.0687780864502
 20
146.8141983205936
 30
0.0
 10
80.89201383663472
 20
145.0034163756604
 30
0.0
 10
79.94867467939092
 20
143.4192600290283
 30
0.0
 10
79.2288398177087
 20
142.1114718261918
 30
0.0
 10
78.72413022248928
 20
141.1333235890889
 30
0.0
 10
78.40280450578557
 20
140.4793364668715
 30
0.0
 10
78.34408078342717
 20
140.3567427805426
 30
0.0
 10
78.31475108913124
 20
140.295513090083
 30
0.0
  0
ARC
  5
16C
330
1F
100
AcDbEntity
  8
0
  6
Continuous
 62
     7
370
    25
100
AcDbCircle
 10
106.9099363179
 20
170.979170796
 30
0.0
 40
1.003933999247303
100
AcDbArc
 50
35.9784976624
 51
61.4266059779
  0
SPLINE
  5
16D
330
1F
100
AcDbEntity
  8
0
  6
Continuous
 62
     7
370
    25
100
AcDbSpline
210
0.0
220
0.0
230
1.0
 70
     8
 71
     3
 72
    13
 73
     9
 74
     0
 42
0.000000001
 43
0.00000001
 40
0.0
 40
0.0
 40
0.0
 40
0.0
 40
0.1966265818138618
 40
0.3632700360447897
 40
0.4999306383354749
 40
0.678241579230234
 40
0.8449296015932101
 40
1.0
 40
1.0
 40
1.0
 40
1.0
 10
102.6470419316383
 20
167.0715001147757
 30
0.0
 10
102.9820437905264
 20
167.3649572693224
 30
0.0
 10
103.6009638583559
 20
167.9071229832677
 30
0.0
 10
104.4512734091648
 20
168.6541749199208
 30
0.0
 10
105.2687804003788
 20
169.3746733221087
 30
0.0
 10
106.0831881635344
 20
170.0972413013442
 30
0.0
 10
106.925243869659
 20
170.8491605633877
 30
0.0
 10
107.4631265959576
 20
171.3348750621569
 30
0.0
 10
107.7223573830298
 20
171.5689635458581
 30
0.0
  0
SPLINE
  5
16E
330
1F
100
AcDbEntity
  8
0
  6
Continuous
 62
     7
370
    25
100
AcDbSpline
210
0.0
220
0.0
230
1.0
 70
     8
 71
     3
 72
    19
 73
    15
 74
     0
 42
0.000000001
 43
0.00000001
 40
0.0
 40
0.0
 40
0.0
 40
0.0
 40
0.1059279394378052
 40
0.2036820467356376
 40
0.3018432965601688
 40
0.4026693370004421
 40
0.4984872757092688
 40
0.5629281084361853
 40
0.6261493498415776
 40
0.6882108695889613
 40
0.7491759540843408
 40
0.8333645317108489
 40
0.9169079715772614
 40
0.9999999999999999
 40
0.9999999999999999
 40
0.9999999999999999
 40
0.9999999999999999
 10
107.7223573830298
 20
171.5689635458581
 30
0.0
 10
108.3459172238811
 20
172.1378908733705
 30
0.0
 10
109.5449204832743
 20
173.2318447737917
 30
0.0
 10
111.2780268789505
 20
174.8704663277344
 30
0.0
 10
112.9381896713451
 20
176.4953324609448
 30
0.0
 10
114.5299967295737
 20
178.1230241456211
 30
0.0
 10
115.8805622722346
 20
179.5710926994214
 30
0.0
 10
116.9863600302053
 20
180.8111981715081
 30
0.0
 10
117.8885695609813
 20
181.8610834195595
 30
0.0
 10
118.7359717059466
 20
182.8853019967402
 30
0.0
 10
119.6340007504209
 20
184.0137581599862
 30
0.0
 10
120.5606174534028
 20
185.2374271297068
 30
0.0
 10
121.4990959336892
 20
186.5445971808062
 30
0.0
 10
122.0482210177419
 20
187.3656891571262
 30
0.0
 10
122.3220397764984
 20
187.7751229861576
 30
0.0
  0
LINE
  5
16F
330
1F
100
AcDbEntity
  8
0
  6
Continuous
 62
     7
370
    25
100
AcDbLine
 10
122.4355045887
 20
187.9482814759
 30
0.0
 11
122.3220397765
 21
187.7751229862
 31
0.0
  0
SPLINE
  5
170
330
1F
100
AcDbEntity
  8
0
  6
Continuous
 62
     7
370
    25
100
AcDbSpline
210
0.0
220
0.0
230
1.0
 70
     8
 71
     3
 72
    10
 73
     6
 74
     0
 42
0.000000001
 43
0.00000001
 40
0.0
 40
0.0
 40
0.0
 40
0.0
 40
0.3287770922070165
 40
0.6617565066410266
 40
1.0
 40
1.0
 40
1.0
 40
1.0
 10
122.4355045887205
 20
187.9482814759096
 30
0.0
 10
122.7366065647955
 20
188.4194250328393
 30
0.0
 10
123.3426591048085
 20
189.3677341509331
 30
0.0
 10
124.0995706639299
 20
190.6580524438588
 30
0.0
 10
124.5032132950738
 20
191.395050086747
 30
0.0
 10
124.7066173983034
 20
191.7664388674837
 30
0.0
  0
LINE
  5
171
330
1F
100
AcDbEntity
  8
0
  6
Continuous
 62
     7
370
    25
100
AcDbLine
 10
124.758686558
 20
191.863434287
 30
0.0
 11
124.7066173983
 21
191.7664388675
 31
0.0
  0
SPLINE
  5
172
330
1F
100
AcDbEntity
  8
0
  6
Continuous
 62
     7
370
    25
100
AcDbSpline
210
0.0
220
0.0
230
1.0
 70
     8
 71
     3
 72
     9
 73
     5
 74
     0
 42
0.000000001
 43
0.00000001
 40
0.0
 40
0.0
 40
0.0
 40
0.0
 40
0.4930410511755406
 40
1.0
 40
1.0
 40
1.0
 40
1.0
 10
124.7586865580173
 20
191.863434287002
 30
0.0
 10
124.9736293272217
 20
192.2737747738963
 30
0.0
 10
125.4095824161012
 20
193.1060391176379
 30
0.0
 10
125.6576934185958
 20
193.6238914566818
 30
0.0
 10
125.7834755116123
 20
193.8864213341298
 30
0.0
  0
LINE
  5
173
330
1F
100
AcDbEntity
  8
0
  6
Continuous
 62
     7
370
    25
100
AcDbLine
 10
125.8048271167
 20
193.9311352575
 30
0.0
 11
125.7834755116
 21
193.8864213341
 31
0.0
  0
SPLINE
  5
174
330
1F
100
AcDbEntity
  8
0
  6
Continuous
 62
     7
370
    25
100
AcDbSpline
210
0.0
220
0.0
230
1.0
 70
     8
 71
     3
 72
     9
 73
     5
 74
     0
 42
0.000000001
 43
0.00000001
 40
0.0
 40
0.0
 40
0.0
 40
0.0
 40
0.4969896401273033
 40
1.0
 40
1.0
 40
1.0
 40
1.0
 10
125.8048271167025
 20
193.931135257495
 30
0.0
 10
125.8909928000692
 20
194.1138055987595
 30
0.0
 10
126.0643680103546
 20
194.4813592186254
 30
0.0
 10
126.0910587469271
 20
194.5412118182942
 30
0.0
 10
126.1044844639357
 20
194.5713182959929
 30
0.0
  0
SPLINE
  5
175
330
1F
100
AcDbEntity
  8
0
  6
Continuous
 62
     7
370
    25
100
AcDbSpline
210
0.0
220
0.0
230
1.0
 70
     8
 71
     3
 72
    10
 73
     6
 74
     0
 42
0.000000001
 43
0.00000001
 40
0.0
 40
0.0
 40
0.0
 40
0.0
 40
0.3452881756099727
 40
0.6905811584867418
 40
1.0
 40
1.0
 40
1.0
 40
1.0
 10
129.3126799071369
 20
139.5996503824366
 30
0.0
 10
129.4425079002845
 20
139.5950815870527
 30
0.0
 10
129.7021656941069
 20
139.585943932676
 30
0.0
 10
129.9338992836509
 20
139.5736809949233
 30
0.0
 10
129.9561413885101
 20
139.572485123299
 30
0.0
 10
129.9666530763429
 20
139.5719199506553
 30
0.0
  0
SPLINE
  5
176
330
1F
100
AcDbEntity
  8
0
  6
Continuous
 62
     7
370
    25
100
AcDbSpline
210
0.0
220
0.0
230
1.0
 70
     8
 71
     3
 72
    16
 73
    12
 74
     0
 42
0.000000001
 43
0.00000001
 40
0.0
 40
0.0
 40
0.0
 40
0.0
 40
0.0534544909736174
 40
0.2089941014719444
 40
0.3646188864953132
 40
0.5204455797742886
 40
0.6762763119758514
 40
0.7257581047796795
 40
0.8813592875180557
 40
0.9286604998270073
 40
1.0
 40
1.0
 40
1.0
 40
1.0
 10
126.993683443452
 20
139.5725362993219
 30
0.0
 10
126.9884300994749
 20
139.5722527504091
 30
0.0
 10
126.96789079802
 20
139.5711441428968
 30
0.0
 10
127.1067815526365
 20
139.578708798266
 30
0.0
 10
127.3959210693268
 20
139.5920267772974
 30
0.0
 10
127.8177631582679
 20
139.6059258469556
 30
0.0
 10
128.1999652885373
 20
139.6117929182191
 30
0.0
 10
128.5886914890077
 20
139.6129392211272
 30
0.0
 10
128.8629821451058
 20
139.6103057181185
 30
0.0
 10
129.1376755223435
 20
139.6046506324923
 30
0.0
 10
129.24696398249
 20
139.6015280271383
 30
0.0
 10
129.3126799071369
 20
139.5996503824366
 30
0.0
  0
SPLINE
  5
177
330
1F
100
AcDbEntity
  8
0
  6
Continuous
 62
     7
370
    25
100
AcDbSpline
210
0.0
220
0.0
230
1.0
 70
    24
 71
     3
 72
    23
 73
    19
 74
     0
 42
0.000000001
 43
0.00000001
 40
0.0
 40
0.0
 40
0.0
 40
0.0
 40
0.0582513515880608
 40
0.1164965381741286
 40
0.1782480103105069
 40
0.2399872924603218
 40
0.3043122985017322
 40
0.3686250654138315
 40
0.4343187892873078
 40
0.5000000135940655
 40
0.5656937371100786
 40
0.6313749610594767
 40
0.695699966116151
 40
0.760012732042479
 40
0.8217642047830527
 40
0.8835034877118212
 40
0.9417579180464323
 40
1.0
 40
1.0
 40
1.0
 40
1.0
 10
140.9745106424773
 20
167.0715001147757
 30
0.0
 10
140.9745106424773
 20
167.9071822219875
 30
0.0
 10
140.9745106424773
 20
169.5784579924228
 30
0.0
 10
140.9745106424773
 20
172.114044382203
 30
0.0
 10
140.9745106424773
 20
174.655023552489
 30
0.0
 10
140.9745106424774
 20
177.2081223839491
 30
0.0
 10
140.9745106424773
 20
179.697326557186
 30
0.0
 10
140.9745106424774
 20
182.107487011172
 30
0.0
 10
140.9745106424773
 20
184.3787740977579
 30
0.0
 10
140.9745106424773
 20
186.480490349444
 30
0.0
 10
140.9745106424774
 20
188.377254049377
 30
0.0
 10
140.9745106424773
 20
190.034096024892
 30
0.0
 10
140.9745106424774
 20
191.4426606436971
 30
0.0
 10
140.9745106424773
 20
192.5752989054899
 30
0.0
 10
140.9745106424774
 20
193.4473566550192
 30
0.0
 10
140.9745106424774
 20
194.041681762567
 30
0.0
 10
140.9745106424774
 20
194.4056486499417
 30
0.0
 10
140.9745106424774
 20
194.4495511776891
 30
0.0
 10
140.9745106424773
 20
194.4715001147757
 30
0.0
  0
SPLINE
  5
178
330
1F
100
AcDbEntity
  8
0
  6
Continuous
 62
     7
370
    25
100
AcDbSpline
210
0.0
220
0.0
230
1.0
 70
    24
 71
     3
 72
    23
 73
    19
 74
     0
 42
0.000000001
 43
0.00000001
 40
0.0
 40
0.0
 40
0.0
 40
0.0
 40
0.0582544333328547
 40
0.116496518206369
 40
0.1782479935555254
 40
0.2399872789195586
 40
0.3043122883071386
 40
0.3686250585679196
 40
0.434318785859388
 40
0.5000000135854896
 40
0.5656937405209922
 40
0.631374967888216
 40
0.6956999762932842
 40
0.7600127455660853
 40
0.8217642215199321
 40
0.8835035076624029
 40
0.941754836939736
 40
1.0
 40
1.0
 40
1.0
 40
1.0
 10
140.9745106424773
 20
139.6715001147757
 30
0.0
 10
140.9745106424773
 20
139.6934578583844
 30
0.0
 10
140.9745106424774
 20
139.7373686911182
 30
0.0
 10
140.9745106424773
 20
140.1013834242137
 30
0.0
 10
140.9745106424774
 20
140.6956933404659
 30
0.0
 10
140.9745106424774
 20
141.5678305820217
 30
0.0
 10
140.9745106424774
 20
142.700419956945
 30
0.0
 10
140.9745106424774
 20
144.1090985972579
 30
0.0
 10
140.9745106424773
 20
145.7658600028774
 30
0.0
 10
140.9745106424773
 20
147.6627631831385
 30
0.0
 10
140.9745106424773
 20
149.7643671579813
 30
0.0
 10
140.9745106424773
 20
152.0358096409659
 30
0.0
 10
140.9745106424773
 20
154.4458318732705
 30
0.0
 10
140.9745106424774
 20
156.9352030582945
 30
0.0
 10
140.9745106424773
 20
159.4881464298535
 30
0.0
 10
140.9745106424773
 20
162.0292135134169
 30
0.0
 10
140.9745106424773
 20
164.5646346642656
 30
0.0
 10
140.9745106424773
 20
166.2359077850438
 30
0.0
 10
140.9745106424773
 20
167.0715001147757
 30
0.0
  0
SPLINE
  5
179
330
1F
100
AcDbEntity
  8
0
  6
Continuous
 62
     7
370
    25
100
AcDbSpline
210
0.0
220
0.0
230
1.0
 70
    24
 71
     3
 72
    23
 73
    19
 74
     0
 42
0.000000001
 43
0.00000001
 40
0.0
 40
0.0
 40
0.0
 40
0.0
 40
0.058251385835633
 40
0.1164965384280114
 40
0.1782480780167091
 40
0.2399872926709591
 40
0.3043123664448331
 40
0.3686250655982941
 40
0.4343188586407417
 40
0.5000000137445973
 40
0.5656938064249128
 40
0.6313749611681755
 40
0.6957000339450379
 40
0.760012732103196
 40
0.8217642722998982
 40
0.8835034877445913
 40
0.941757986410771
 40
1.0
 40
1.0
 40
1.0
 40
1.0
 10
142.9745106424774
 20
167.0715001147757
 30
0.0
 10
142.9745106424774
 20
167.8980329092855
 30
0.0
 10
142.9745106424774
 20
169.5510100544013
 30
0.0
 10
142.9745106424773
 20
172.0588354540379
 30
0.0
 10
142.9745106424774
 20
174.5719932032634
 30
0.0
 10
142.9745106424774
 20
177.097139249027
 30
0.0
 10
142.9745106424774
 20
179.5590884475408
 30
0.0
 10
142.9745106424774
 20
181.9428610402259
 30
0.0
 10
142.9745106424774
 20
184.1892791691431
 30
0.0
 10
142.9745106424774
 20
186.2679845438393
 30
0.0
 10
142.9745106424774
 20
188.1439799942383
 30
0.0
 10
142.9745106424774
 20
189.7826818054551
 30
0.0
 10
142.9745106424774
 20
191.1758235594978
 30
0.0
 10
142.9745106424774
 20
192.2960609402757
 30
0.0
 10
142.9745106424773
 20
193.1585701768489
 30
0.0
 10
142.9745106424774
 20
193.7463881585836
 30
0.0
 10
142.9745106424774
 20
194.1063697449162
 30
0.0
 10
142.9745106424774
 20
194.1497915426787
 30
0.0
 10
142.9745106424774
 20
194.1715001147757
 30
0.0
  0
SPLINE
  5
17A
330
1F
100
AcDbEntity
  8
0
  6
Continuous
 62
     7
370
    25
100
AcDbSpline
210
0.0
220
0.0
230
1.0
 70
    24
 71
     3
 72
    10
 73
     6
 74
     0
 42
0.000000001
 43
0.00000001
 40
0.0
 40
0.0
 40
0.0
 40
0.0
 40
0.3576135239666889
 40
0.7151504038604738
 40
0.9999999999999999
 40
0.9999999999999999
 40
0.9999999999999999
 40
0.9999999999999999
 10
142.9745106424774
 20
139.9715001147757
 30
0.0
 10
142.9745106424774
 20
139.9946550598237
 30
0.0
 10
142.9745106424774
 20
140.0409599873296
 30
0.0
 10
142.9745106424774
 20
140.3498880171639
 30
0.0
 10
142.9745106424774
 20
140.7148509369794
 30
0.0
 10
142.9745106424774
 20
140.8766842634799
 30
0.0
  0
SPLINE
  5
17B
330
1F
100
AcDbEntity
  8
0
  6
Continuous
 62
     7
370
    25
100
AcDbSpline
210
0.0
220
0.0
230
1.0
 70
    24
 71
     3
 72
    20
 73
    16
 74
     0
 42
0.000000001
 43
0.00000001
 40
0.0
 40
0.0
 40
0.0
 40
0.0
 40
0.0648510102387582
 40
0.1439990682333681
 40
0.2231319000200765
 40
0.30396408312728
 40
0.3847807160277864
 40
0.4656128986902099
 40
0.5464295311462188
 40
0.6255775879162732
 40
0.7047104184761194
 40
0.7806919012508612
 40
0.8566582191717125
 40
0.9283329451621762
 40
1.0
 40
1.0
 40
1.0
 40
1.0
 10
142.9745106424774
 20
141.1505079401502
 30
0.0
 10
142.9745106424774
 20
141.3785758990452
 30
0.0
 10
142.9745106424774
 20
141.8849916580884
 30
0.0
 10
142.9745106424774
 20
142.9716714333239
 30
0.0
 10
142.9745106424774
 20
144.3593017643752
 30
0.0
 10
142.9745106424773
 20
145.9994613968765
 30
0.0
 10
142.9745106424774
 20
147.8751812619113
 30
0.0
 10
142.9745106424774
 20
149.9538856063035
 30
0.0
 10
142.9745106424774
 20
152.200429454359
 30
0.0
 10
142.9745106424774
 20
154.5840716201385
 30
0.0
 10
142.9745106424774
 20
157.0461857739538
 30
0.0
 10
142.9745106424774
 20
159.5711768896732
 30
0.0
 10
142.9745106424774
 20
162.0844224140001
 30
0.0
 10
142.9745106424774
 20
164.5920826090442
 30
0.0
 10
142.9745106424774
 20
166.2450571000102
 30
0.0
 10
142.9745106424774
 20
167.0715001147757
 30
0.0
  0
SPLINE
  5
17C
330
1F
100
AcDbEntity
  8
0
  6
Continuous
 62
     7
370
    25
100
AcDbSpline
210
0.0
220
0.0
230
1.0
 70
     8
 71
     3
 72
    21
 73
    17
 74
     0
 42
0.000000001
 43
0.00000001
 40
0.0
 40
0.0
 40
0.0
 40
0.0
 40
0.0714613648683495
 40
0.1432938463383141
 40
0.2150151048490154
 40
0.2863424205944233
 40
0.3581996445328808
 40
0.4294614862702875
 40
0.5008209636175145
 40
0.5724245221913058
 40
0.6436179883110589
 40
0.7152100965542625
 40
0.7864798779556951
 40
0.8574212969013024
 40
0.9284926223203557
 40
1.0
 40
1.0
 40
1.0
 40
1.0
 10
125.6487433745865
 20
194.2771023600338
 30
0.0
 10
125.6429259252376
 20
194.2644713485802
 30
0.0
 10
125.6312608150817
 20
194.2391437296959
 30
0.0
 10
125.3940362656637
 20
193.7376891312418
 30
0.0
 10
124.987872931539
 20
192.9110236930921
 30
0.0
 10
124.3788610417347
 20
191.7451401050072
 30
0.0
 10
123.560846685894
 20
190.2885306787837
 30
0.0
 10
122.5158320758677
 20
188.579615297618
 30
0.0
 10
121.2415832425652
 20
186.6768050679092
 30
0.0
 10
119.7423273758737
 20
184.6364727858073
 30
0.0
 10
118.033690864498
 20
182.5118151900141
 30
0.0
 10
116.1461906405887
 20
180.354264427263
 30
0.0
 10
114.1103195428929
 20
178.1968509748407
 30
0.0
 10
111.9589254585396
 20
176.0610890267538
 30
0.0
 10
109.7168227797417
 20
173.9477632630398
 30
0.0
 10
108.1672552822795
 20
172.5578918623095
 30
0.0
 10
107.39010199169
 20
171.8608308215076
 30
0.0
  0
SPLINE
  5
17D
330
1F
100
AcDbEntity
  8
0
  6
Continuous
 62
     7
370
    25
100
AcDbSpline
210
0.0
220
0.0
230
1.0
 70
    11
 71
     3
 72
    27
 73
    23
 74
     0
 42
0.000000001
 43
0.00000001
 40
0.0
 40
0.0
 40
0.0
 40
0.0
 40
0.0531010861773353
 40
0.1061825406478068
 40
0.1597762106306345
 40
0.2137410854259688
 40
0.2500000055757578
 40
0.3030936175223621
 40
0.3561667422082109
 40
0.4097699900362323
 40
0.4637316914204835
 40
0.4999999999999998
 40
0.5531010861773353
 40
0.6061825406478069
 40
0.6597762106306345
 40
0.7137410854259688
 40
0.7500000055757579
 40
0.8030936175223621
 40
0.856166742208211
 40
0.9097699900362324
 40
0.9637316914204835
 40
1.0
 40
1.0
 40
1.0
 40
1.0
 10
156.9745106424773
 20
122.4715001147757
 30
0.0
 10
156.7961587848378
 20
122.4889036708595
 30
0.0
 10
156.4395210070307
 20
122.5237043488553
 30
0.0
 10
155.9638307965664
 20
122.7947669317739
 30
0.0
 10
155.5984164157796
 20
123.1958282786472
 30
0.0
 10
155.4089877252212
 20
123.6481364115656
 30
0.0
 10
155.3540994398232
 20
124.1275459895881
 30
0.0
 10
155.4347189960351
 20
124.6065636556195
 30
0.0
 10
155.695516993394
 20
125.0820245612319
 30
0.0
 10
156.0993167134062
 20
125.4475396225191
 30
0.0
 10
156.5509937801168
 20
125.6370108901069
 30
0.0
 10
157.0305842173731
 20
125.6919194184437
 30
0.0
 10
157.5096434565027
 20
125.6112765421143
 30
0.0
 10
157.9851516821191
 20
125.3504068115405
 30
0.0
 10
158.350615557485
 20
124.9465733056486
 30
0.0
 10
158.5400316130456
 20
124.4949728506949
 30
0.0
 10
158.5949228578235
 20
124.0153975197462
 30
0.0
 10
158.5142998048455
 20
123.5365757052984
 30
0.0
 10
158.253512835249
 20
123.0604971419217
 30
0.0
 10
157.8496724483313
 20
122.6972598074199
 30
0.0
 10
157.3981314488357
 20
122.5001675040842
 30
0.0
 10
157.0959668823913
 20
122.4797193364506
 30
0.0
 10
156.9745106424773
 20
122.4715001147757
 30
0.0
  0
LINE
  5
17E
330
1F
100
AcDbEntity
  8
0
  6
Continuous
 62
     7
370
    25
100
AcDbLine
 10
156.9745106425
 20
120.0715001148
 30
0.0
 11
165.9745106425
 21
120.0715001148
 31
0.0
  0
LINE
  5
17F
330
1F
100
AcDbEntity
  8
0
  6
Continuous
 62
     7
370
    25
100
AcDbLine
 10
147.9745106425
 20
120.0715001148
 30
0.0
 11
156.9745106425
 21
120.0715001148
 31
0.0
  0
LINE
  5
180
330
1F
100
AcDbEntity
  8
0
  6
Continuous
 62
     7
370
    25
100
AcDbLine
 10
151.1961025572
 20
135.0715001148
 30
0.0
 11
151.1961025572
 21
140.8884204778
 31
0.0
  0
SPLINE
  5
181
330
1F
100
AcDbEntity
  8
0
  6
Continuous
 62
     7
370
    25
100
AcDbSpline
210
0.0
220
0.0
230
1.0
 70
     8
 71
     3
 72
    24
 73
    20
 74
     0
 42
0.000000001
 43
0.00000001
 40
0.0
 40
0.0
 40
0.0
 40
0.0
 40
0.0692693572634386
 40
0.1384126982276496
 40
0.208465155375825
 40
0.2589021184292473
 40
0.3094033716382129
 40
0.3753302514245581
 40
0.4413170761758161
 40
0.4998567928648066
 40
0.5766510142895297
 40
0.6533877696737805
 40
0.7074660193599889
 40
0.7614798009746613
 40
0.8035311438011736
 40
0.8455391597678796
 40
0.8879421689747252
 40
0.930305406170803
 40
1.0
 40
1.0
 40
1.0
 40
1.0
 10
162.7529187277548
 20
135.0715001147757
 30
0.0
 10
162.7219533760947
 20
134.6859344060732
 30
0.0
 10
162.660079005606
 20
133.9155044180684
 30
0.0
 10
162.1708876164337
 20
132.9019329046377
 30
0.0
 10
161.5071905026708
 20
132.1941098775189
 30
0.0
 10
160.7694095575079
 20
131.7281415151873
 30
0.0
 10
159.9709597685449
 20
131.3935562479127
 30
0.0
 10
159.0244361739172
 20
131.155351967741
 30
0.0
 10
157.9889574603197
 20
131.0247518410967
 30
0.0
 10
156.8734490380957
 20
130.9824889207544
 30
0.0
 10
155.6976579865645
 20
131.0392793449021
 30
0.0
 10
154.5810804991863
 20
131.2249801966787
 30
0.0
 10
153.649817966171
 20
131.5141864164251
 30
0.0
 10
152.9533861975487
 20
131.8533010286991
 30
0.0
 10
152.3882967429245
 20
132.2677911228644
 30
0.0
 10
151.9420910063251
 20
132.7335555856583
 30
0.0
 10
151.5911945145536
 20
133.2908065349385
 30
0.0
 10
151.2750485446717
 20
134.0587634847039
 30
0.0
 10
151.2263751025907
 20
134.6831571909038
 30
0.0
 10
151.1961025571999
 20
135.0715001147757
 30
0.0
  0
LINE
  5
182
330
1F
100
AcDbEntity
  8
0
  6
Continuous
 62
     7
370
    25
100
AcDbLine
 10
162.7529187278
 20
143.2098241799
 30
0.0
 11
162.7529187278
 21
135.0715001148
 31
0.0
  0
LINE
  5
183
330
1F
100
AcDbEntity
  8
0
  6
Continuous
 62
     7
370
    25
100
AcDbLine
 10
157.1245106425
 20
134.0765126777
 30
0.0
 11
156.8245106425
 21
134.0765126777
 31
0.0
  0
LINE
  5
184
330
1F
100
AcDbEntity
  8
0
  6
Continuous
 62
     7
370
    25
100
AcDbLine
 10
157.1245106425
 20
135.0715001148
 30
0.0
 11
162.7529187278
 21
135.0715001148
 31
0.0
  0
LINE
  5
185
330
1F
100
AcDbEntity
  8
0
  6
Continuous
 62
     7
370
    25
100
AcDbLine
 10
151.1961025572
 20
135.0715001148
 30
0.0
 11
156.8245106425
 21
135.0715001148
 31
0.0
  0
LINE
  5
186
330
1F
100
AcDbEntity
  8
0
  6
Continuous
 62
     7
370
    25
100
AcDbLine
 10
157.1245106425
 20
141.3998979195
 30
0.0
 11
157.1245106425
 21
134.0765126777
 31
0.0
  0
LINE
  5
187
330
1F
100
AcDbEntity
  8
0
  6
Continuous
 62
     7
370
    25
100
AcDbLine
 10
156.8245106425
 20
141.3415339416
 30
0.0
 11
156.8245106425
 21
134.0765126777
 31
0.0
  0
LINE
  5
188
330
1F
100
AcDbEntity
  8
0
  6
Continuous
 62
     7
370
    25
100
AcDbLine
 10
67.9745106425
 20
163.620772137
 30
0.0
 11
97.8884870497
 21
163.620772137
 31
0.0
  0
LINE
  5
189
330
1F
100
AcDbEntity
  8
0
  6
Continuous
 62
     7
370
    25
100
AcDbLine
 10
99.8114203996
 20
165.2859382098
 30
0.0
 11
67.9745106425
 21
165.2859382098
 31
0.0
  0
LINE
  5
18A
330
1F
100
AcDbEntity
  8
0
  6
Continuous
 62
     7
370
    25
100
AcDbLine
 10
67.9745106425
 20
166.9598033608
 30
0.0
 11
101.7490316338
 21
166.9598033608
 31
0.0
  0
LINE
  5
18B
330
1F
100
AcDbEntity
  8
0
  6
Continuous
 62
     7
370
    25
100
AcDbLine
 10
103.6944627009
 20
168.6342126871
 30
0.0
 11
67.9745106425
 21
168.6342126871
 31
0.0
  0
LINE
  5
18C
330
1F
100
AcDbEntity
  8
0
  6
Continuous
 62
     7
370
    25
100
AcDbLine
 10
107.4909917624
 20
171.9520707418
 30
0.0
 11
67.9745106425
 21
171.9520707418
 31
0.0
  0
LINE
  5
18D
330
1F
100
AcDbEntity
  8
0
  6
Continuous
 62
     7
370
    25
100
AcDbLine
 10
110.9998699718
 20
175.1749340407
 30
0.0
 11
67.9745106425
 21
175.1749340407
 31
0.0
  0
LINE
  5
18E
330
1F
100
AcDbEntity
  8
0
  6
Continuous
 62
     7
370
    25
100
AcDbLine
 10
114.1283006476
 20
178.2400732158
 30
0.0
 11
67.9745106425
 21
178.2400732158
 31
0.0
  0
LINE
  5
18F
330
1F
100
AcDbEntity
  8
0
  6
Continuous
 62
     7
370
    25
100
AcDbLine
 10
116.7629484229
 20
181.0878288196
 30
0.0
 11
67.9745106425
 21
181.0878288196
 31
0.0
  0
LINE
  5
190
330
1F
100
AcDbEntity
  8
0
  6
Continuous
 62
     7
370
    25
100
AcDbLine
 10
118.934999149
 20
183.6627725284
 30
0.0
 11
67.9745106425
 21
183.6627725284
 31
0.0
  0
LINE
  5
191
330
1F
100
AcDbEntity
  8
0
  6
Continuous
 62
     7
370
    25
100
AcDbLine
 10
120.6594606351
 20
185.9147859921
 30
0.0
 11
67.9745106425
 21
185.9147859921
 31
0.0
  0
LINE
  5
192
330
1F
100
AcDbEntity
  8
0
  6
Continuous
 62
     7
370
    25
100
AcDbLine
 10
67.9745106425
 20
147.112353826
 30
0.0
 11
82.3004151424
 21
147.112353826
 31
0.0
  0
LINE
  5
193
330
1F
100
AcDbEntity
  8
0
  6
Continuous
 62
     7
370
    25
100
AcDbLine
 10
67.9745106425
 20
149.1614777459
 30
0.0
 11
83.7883366109
 21
149.1614777459
 31
0.0
  0
LINE
  5
194
330
1F
100
AcDbEntity
  8
0
  6
Continuous
 62
     7
370
    25
100
AcDbLine
 10
67.9745106425
 20
151.5591998789
 30
0.0
 11
85.7072786514
 21
151.5591998789
 31
0.0
  0
LINE
  5
195
330
1F
100
AcDbEntity
  8
0
  6
Continuous
 62
     7
370
    25
100
AcDbLine
 10
67.9745106425
 20
154.258851291
 30
0.0
 11
88.0871744361
 21
154.258851291
 31
0.0
  0
LINE
  5
196
330
1F
100
AcDbEntity
  8
0
  6
Continuous
 62
     7
370
    25
100
AcDbLine
 10
67.9745106425
 20
157.2078863383
 30
0.0
 11
90.9294732279
 21
157.2078863383
 31
0.0
  0
LINE
  5
197
330
1F
100
AcDbEntity
  8
0
  6
Continuous
 62
     7
370
    25
100
AcDbLine
 10
67.9745106425
 20
160.3489054081
 30
0.0
 11
94.239866594
 21
160.3489054081
 31
0.0
  0
LINE
  5
198
330
1F
100
AcDbEntity
  8
0
  6
Continuous
 62
     7
370
    25
100
AcDbLine
 10
67.9745106425
 20
185.6308106032
 30
0.0
 11
67.9745106425
 21
185.9147859921
 31
0.0
  0
LINE
  5
199
330
1F
100
AcDbEntity
  8
0
  6
Continuous
 62
     7
370
    25
100
AcDbLine
 10
67.9745106425
 20
183.0593264435
 30
0.0
 11
67.9745106425
 21
183.6627725284
 31
0.0
  0
LINE
  5
19A
330
1F
100
AcDbEntity
  8
0
  6
Continuous
 62
     7
370
    25
100
AcDbLine
 10
67.9745106425
 20
180.1849759426
 30
0.0
 11
67.9745106425
 21
181.0878288196
 31
0.0
  0
LINE
  5
19B
330
1F
100
AcDbEntity
  8
0
  6
Continuous
 62
     7
370
    25
100
AcDbLine
 10
67.9745106425
 20
177.0670648687
 30
0.0
 11
67.9745106425
 21
178.2400732158
 31
0.0
  0
LINE
  5
19C
330
1F
100
AcDbEntity
  8
0
  6
Continuous
 62
     7
370
    25
100
AcDbLine
 10
67.9745106425
 20
173.766279814
 30
0.0
 11
67.9745106425
 21
175.1749340407
 31
0.0
  0
LINE
  5
19D
330
1F
100
AcDbEntity
  8
0
  6
Continuous
 62
     7
370
    25
100
AcDbLine
 10
67.9745106425
 20
170.3010086349
 30
0.0
 11
67.9745106425
 21
171.9520707418
 31
0.0
  0
LINE
  5
19E
330
1F
100
AcDbEntity
  8
0
  6
Continuous
 62
     7
370
    25
100
AcDbLine
 10
67.9745106425
 20
166.9598033608
 30
0.0
 11
67.9745106425
 21
168.6342126871
 31
0.0
  0
LINE
  5
19F
330
1F
100
AcDbEntity
  8
0
  6
Continuous
 62
     7
370
    25
100
AcDbLine
 10
67.9745106425
 20
163.620772137
 30
0.0
 11
67.9745106425
 21
165.2859382098
 31
0.0
  0
LINE
  5
1A0
330
1F
100
AcDbEntity
  8
0
  6
Continuous
 62
     7
370
    25
100
AcDbLine
 10
67.9745106425
 20
160.3489054081
 30
0.0
 11
67.9745106425
 21
161.8477745856
 31
0.0
  0
LINE
  5
1A1
330
1F
100
AcDbEntity
  8
0
  6
Continuous
 62
     7
370
    25
100
AcDbLine
 10
67.9745106425
 20
158.487531016
 30
0.0
 11
67.9745106425
 21
157.2078863383
 31
0.0
  0
LINE
  5
1A2
330
1F
100
AcDbEntity
  8
0
  6
Continuous
 62
     7
370
    25
100
AcDbLine
 10
67.9745106425
 20
155.2826863232
 30
0.0
 11
67.9745106425
 21
154.258851291
 31
0.0
  0
LINE
  5
1A3
330
1F
100
AcDbEntity
  8
0
  6
Continuous
 62
     7
370
    25
100
AcDbLine
 10
67.9745106425
 20
152.2956191638
 30
0.0
 11
67.9745106425
 21
151.5591998789
 31
0.0
  0
LINE
  5
1A4
330
1F
100
AcDbEntity
  8
0
  6
Continuous
 62
     7
370
    25
100
AcDbLine
 10
67.9745106425
 20
149.5844694023
 30
0.0
 11
67.9745106425
 21
149.1614777459
 31
0.0
  0
LINE
  5
1A5
330
1F
100
AcDbEntity
  8
0
  6
Continuous
 62
     7
370
    25
100
AcDbLine
 10
67.9745106425
 20
147.2020064849
 30
0.0
 11
67.9745106425
 21
147.112353826
 31
0.0
  0
LINE
  5
1A6
330
1F
100
AcDbEntity
  8
0
  6
Continuous
 62
     7
370
    25
100
AcDbLine
 10
67.9745106425
 20
166.8728477973
 30
0.0
 11
67.9745106425
 21
166.251650638
 31
0.0
  0
LINE
  5
1A7
330
1F
100
AcDbEntity
  8
0
  6
Continuous
 62
     7
370
    25
100
AcDbLine
 10
67.9745106425
 20
165.8742835243
 30
0.0
 11
67.9745106425
 21
166.251650638
 31
0.0
  0
LINE
  5
1A8
330
1F
100
AcDbEntity
  8
0
  6
Continuous
 62
     7
370
    25
100
AcDbLine
 10
67.9745106425
 20
169.431032696
 30
0.0
 11
67.9745106425
 21
169.8068060823
 31
0.0
  0
LINE
  5
1A9
330
1F
100
AcDbEntity
  8
0
  6
Continuous
 62
     7
370
    25
100
AcDbLine
 10
67.9745106425
 20
165.8742835243
 30
0.0
 11
67.9745106425
 21
165.2980628588
 31
0.0
  0
LINE
  5
1AA
330
1F
100
AcDbEntity
  8
0
  6
Continuous
 62
     7
370
    25
100
AcDbLine
 10
67.9745106425
 20
170.3468668053
 30
0.0
 11
67.9745106425
 21
169.8068060823
 31
0.0
  0
LINE
  5
1AB
330
1F
100
AcDbEntity
  8
0
  6
Continuous
 62
     7
370
    25
100
AcDbLine
 10
67.9745106425
 20
169.431032696
 30
0.0
 11
67.9745106425
 21
168.7780500021
 31
0.0
  0
LINE
  5
1AC
330
1F
100
AcDbEntity
  8
0
  6
Continuous
 62
     7
370
    25
100
AcDbLine
 10
67.9745106425
 20
163.403377955
 30
0.0
 11
67.9745106425
 21
162.7124526313
 31
0.0
  0
LINE
  5
1AD
330
1F
100
AcDbEntity
  8
0
  6
Continuous
 62
     7
370
    25
100
AcDbLine
 10
67.9745106425
 20
162.3408368117
 30
0.0
 11
67.9745106425
 21
162.7124526313
 31
0.0
  0
LINE
  5
1AE
330
1F
100
AcDbEntity
  8
0
  6
Continuous
 62
     7
370
    25
100
AcDbLine
 10
67.9745106425
 20
162.3408368117
 30
0.0
 11
67.9745106425
 21
161.8477745856
 31
0.0
  0
LINE
  5
1AF
330
1F
100
AcDbEntity
  8
0
  6
Continuous
 62
     7
370
    25
100
AcDbLine
 10
67.9745106425
 20
166.8728477973
 30
0.0
 11
67.9745106425
 21
166.9598033608
 31
0.0
  0
LINE
  5
1B0
330
1F
100
AcDbEntity
  8
0
  6
Continuous
 62
     7
370
    25
100
AcDbLine
 10
67.9745106425
 20
172.9418562499
 30
0.0
 11
67.9745106425
 21
173.3087219073
 31
0.0
  0
LINE
  5
1B1
330
1F
100
AcDbEntity
  8
0
  6
Continuous
 62
     7
370
    25
100
AcDbLine
 10
67.9745106425
 20
172.9418562499
 30
0.0
 11
67.9745106425
 21
172.2248210929
 31
0.0
  0
LINE
  5
1B2
330
1F
100
AcDbEntity
  8
0
  6
Continuous
 62
     7
370
    25
100
AcDbLine
 10
67.9745106425
 20
168.6342126871
 30
0.0
 11
67.9745106425
 21
168.7780500021
 31
0.0
  0
LINE
  5
1B3
330
1F
100
AcDbEntity
  8
0
  6
Continuous
 62
     7
370
    25
100
AcDbLine
 10
67.9745106425
 20
165.2859382098
 30
0.0
 11
67.9745106425
 21
165.2980628588
 31
0.0
  0
LINE
  5
1B4
330
1F
100
AcDbEntity
  8
0
  6
Continuous
 62
     7
370
    25
100
AcDbLine
 10
67.9745106425
 20
173.766279814
 30
0.0
 11
67.9745106425
 21
173.3087219073
 31
0.0
  0
LINE
  5
1B5
330
1F
100
AcDbEntity
  8
0
  6
Continuous
 62
     7
370
    25
100
AcDbLine
 10
67.9745106425
 20
163.403377955
 30
0.0
 11
67.9745106425
 21
163.620772137
 31
0.0
  0
LINE
  5
1B6
330
1F
100
AcDbEntity
  8
0
  6
Continuous
 62
     7
370
    25
100
AcDbLine
 10
67.9745106425
 20
160.0053039382
 30
0.0
 11
67.9745106425
 21
159.2580985254
 31
0.0
  0
LINE
  5
1B7
330
1F
100
AcDbEntity
  8
0
  6
Continuous
 62
     7
370
    25
100
AcDbLine
 10
67.9745106425
 20
171.9520707418
 30
0.0
 11
67.9745106425
 21
172.2248210929
 31
0.0
  0
LINE
  5
1B8
330
1F
100
AcDbEntity
  8
0
  6
Continuous
 62
     7
370
    25
100
AcDbLine
 10
67.9745106425
 20
158.8994670792
 30
0.0
 11
67.9745106425
 21
159.2580985254
 31
0.0
  0
LINE
  5
1B9
330
1F
100
AcDbEntity
  8
0
  6
Continuous
 62
     7
370
    25
100
AcDbLine
 10
67.9745106425
 20
158.8994670792
 30
0.0
 11
67.9745106425
 21
158.487531016
 31
0.0
  0
LINE
  5
1BA
330
1F
100
AcDbEntity
  8
0
  6
Continuous
 62
     7
370
    25
100
AcDbLine
 10
67.9745106425
 20
160.0053039382
 30
0.0
 11
67.9745106425
 21
160.3489054081
 31
0.0
  0
LINE
  5
1BB
330
1F
100
AcDbEntity
  8
0
  6
Continuous
 62
     7
370
    25
100
AcDbLine
 10
67.9745106425
 20
176.3384199991
 30
0.0
 11
67.9745106425
 21
175.5712886528
 31
0.0
  0
LINE
  5
1BC
330
1F
100
AcDbEntity
  8
0
  6
Continuous
 62
     7
370
    25
100
AcDbLine
 10
67.9745106425
 20
176.3384199991
 30
0.0
 11
67.9745106425
 21
176.6892373048
 31
0.0
  0
LINE
  5
1BD
330
1F
100
AcDbEntity
  8
0
  6
Continuous
 62
     7
370
    25
100
AcDbLine
 10
67.9745106425
 20
177.0670648687
 30
0.0
 11
67.9745106425
 21
176.6892373048
 31
0.0
  0
LINE
  5
1BE
330
1F
100
AcDbEntity
  8
0
  6
Continuous
 62
     7
370
    25
100
AcDbLine
 10
67.9745106425
 20
175.1749340407
 30
0.0
 11
67.9745106425
 21
175.5712886528
 31
0.0
  0
LINE
  5
1BF
330
1F
100
AcDbEntity
  8
0
  6
Continuous
 62
     7
370
    25
100
AcDbLine
 10
67.9745106425
 20
156.7447653923
 30
0.0
 11
67.9745106425
 21
155.9558233939
 31
0.0
  0
LINE
  5
1C0
330
1F
100
AcDbEntity
  8
0
  6
Continuous
 62
     7
370
    25
100
AcDbLine
 10
67.9745106425
 20
155.6171566743
 30
0.0
 11
67.9745106425
 21
155.9558233939
 31
0.0
  0
LINE
  5
1C1
330
1F
100
AcDbEntity
  8
0
  6
Continuous
 62
     7
370
    25
100
AcDbLine
 10
67.9745106425
 20
155.6171566743
 30
0.0
 11
67.9745106425
 21
155.2826863232
 31
0.0
  0
LINE
  5
1C2
330
1F
100
AcDbEntity
  8
0
  6
Continuous
 62
     7
370
    25
100
AcDbLine
 10
67.9745106425
 20
156.7447653923
 30
0.0
 11
67.9745106425
 21
157.2078863383
 31
0.0
  0
LINE
  5
1C3
330
1F
100
AcDbEntity
  8
0
  6
Continuous
 62
     7
370
    25
100
AcDbLine
 10
67.9745106425
 20
179.5546136938
 30
0.0
 11
67.9745106425
 21
178.7523174971
 31
0.0
  0
LINE
  5
1C4
330
1F
100
AcDbEntity
  8
0
  6
Continuous
 62
     7
370
    25
100
AcDbLine
 10
67.9745106425
 20
179.5546136938
 30
0.0
 11
67.9745106425
 21
179.882554388
 31
0.0
  0
LINE
  5
1C5
330
1F
100
AcDbEntity
  8
0
  6
Continuous
 62
     7
370
    25
100
AcDbLine
 10
67.9745106425
 20
180.1849759426
 30
0.0
 11
67.9745106425
 21
179.882554388
 31
0.0
  0
LINE
  5
1C6
330
1F
100
AcDbEntity
  8
0
  6
Continuous
 62
     7
370
    25
100
AcDbLine
 10
67.9745106425
 20
178.2400732158
 30
0.0
 11
67.9745106425
 21
178.7523174971
 31
0.0
  0
LINE
  5
1C7
330
1F
100
AcDbEntity
  8
0
  6
Continuous
 62
     7
370
    25
100
AcDbLine
 10
67.9745106425
 20
153.6852249912
 30
0.0
 11
67.9745106425
 21
152.8699022658
 31
0.0
  0
LINE
  5
1C8
330
1F
100
AcDbEntity
  8
0
  6
Continuous
 62
     7
370
    25
100
AcDbLine
 10
67.9745106425
 20
152.5577920353
 30
0.0
 11
67.9745106425
 21
152.8699022658
 31
0.0
  0
LINE
  5
1C9
330
1F
100
AcDbEntity
  8
0
  6
Continuous
 62
     7
370
    25
100
AcDbLine
 10
67.9745106425
 20
153.6852249912
 30
0.0
 11
67.9745106425
 21
154.258851291
 31
0.0
  0
LINE
  5
1CA
330
1F
100
AcDbEntity
  8
0
  6
Continuous
 62
     7
370
    25
100
AcDbLine
 10
67.9745106425
 20
152.5577920353
 30
0.0
 11
67.9745106425
 21
152.2956191638
 31
0.0
  0
LINE
  5
1CB
330
1F
100
AcDbEntity
  8
0
  6
Continuous
 62
     7
370
    25
100
AcDbLine
 10
67.9745106425
 20
182.5278377819
 30
0.0
 11
67.9745106425
 21
181.7059925178
 31
0.0
  0
LINE
  5
1CC
330
1F
100
AcDbEntity
  8
0
  6
Continuous
 62
     7
370
    25
100
AcDbLine
 10
67.9745106425
 20
182.5278377819
 30
0.0
 11
67.9745106425
 21
182.826518872
 31
0.0
  0
LINE
  5
1CD
330
1F
100
AcDbEntity
  8
0
  6
Continuous
 62
     7
370
    25
100
AcDbLine
 10
67.9745106425
 20
181.0878288196
 30
0.0
 11
67.9745106425
 21
181.7059925178
 31
0.0
  0
LINE
  5
1CE
330
1F
100
AcDbEntity
  8
0
  6
Continuous
 62
     7
370
    25
100
AcDbLine
 10
67.9745106425
 20
183.0593264435
 30
0.0
 11
67.9745106425
 21
182.826518872
 31
0.0
  0
LINE
  5
1CF
330
1F
100
AcDbEntity
  8
0
  6
Continuous
 62
     7
370
    25
100
AcDbLine
 10
67.9745106425
 20
150.8862332088
 30
0.0
 11
67.9745106425
 21
150.0603990858
 31
0.0
  0
LINE
  5
1D0
330
1F
100
AcDbEntity
  8
0
  6
Continuous
 62
     7
370
    25
100
AcDbLine
 10
67.9745106425
 20
150.8862332088
 30
0.0
 11
67.9745106425
 21
151.5591998789
 31
0.0
  0
LINE
  5
1D1
330
1F
100
AcDbEntity
  8
0
  6
Continuous
 62
     7
370
    25
100
AcDbLine
 10
67.9745106425
 20
149.7809202149
 30
0.0
 11
67.9745106425
 21
150.0603990858
 31
0.0
  0
LINE
  5
1D2
330
1F
100
AcDbEntity
  8
0
  6
Continuous
 62
     7
370
    25
100
AcDbLine
 10
67.9745106425
 20
149.7809202149
 30
0.0
 11
67.9745106425
 21
149.5844694023
 31
0.0
  0
LINE
  5
1D3
330
1F
100
AcDbEntity
  8
0
  6
Continuous
 62
     7
370
    25
100
AcDbLine
 10
67.9745106425
 20
185.2002218387
 30
0.0
 11
67.9745106425
 21
184.3748237903
 31
0.0
  0
LINE
  5
1D4
330
1F
100
AcDbEntity
  8
0
  6
Continuous
 62
     7
370
    25
100
AcDbLine
 10
67.9745106425
 20
185.2002218387
 30
0.0
 11
67.9745106425
 21
185.4638298371
 31
0.0
  0
LINE
  5
1D5
330
1F
100
AcDbEntity
  8
0
  6
Continuous
 62
     7
370
    25
100
AcDbLine
 10
67.9745106425
 20
183.6627725284
 30
0.0
 11
67.9745106425
 21
184.3748237903
 31
0.0
  0
LINE
  5
1D6
330
1F
100
AcDbEntity
  8
0
  6
Continuous
 62
     7
370
    25
100
AcDbLine
 10
67.9745106425
 20
185.6341704083
 30
0.0
 11
67.9745106425
 21
185.4638298371
 31
0.0
  0
LINE
  5
1D7
330
1F
100
AcDbEntity
  8
0
  6
Continuous
 62
     7
370
    25
100
AcDbLine
 10
67.9745106425
 20
148.4022692363
 30
0.0
 11
67.9745106425
 21
147.5819976375
 31
0.0
  0
LINE
  5
1D8
330
1F
100
AcDbEntity
  8
0
  6
Continuous
 62
     7
370
    25
100
AcDbLine
 10
67.9745106425
 20
148.4022692363
 30
0.0
 11
67.9745106425
 21
149.1614777459
 31
0.0
  0
LINE
  5
1D9
330
1F
100
AcDbEntity
  8
0
  6
Continuous
 62
     7
370
    25
100
AcDbLine
 10
67.9745106425
 20
147.3405898646
 30
0.0
 11
67.9745106425
 21
147.5819976375
 31
0.0
  0
LINE
  5
1DA
330
1F
100
AcDbEntity
  8
0
  6
Continuous
 62
     7
370
    25
100
AcDbLine
 10
67.9745106425
 20
147.3405898646
 30
0.0
 11
67.9745106425
 21
147.2020064849
 31
0.0
  0
LINE
  5
1DB
330
1F
100
AcDbEntity
  8
0
  6
Continuous
 62
     7
370
    25
100
AcDbLine
 10
67.9745106425
 20
187.5197509482
 30
0.0
 11
67.9745106425
 21
186.7068655498
 31
0.0
  0
LINE
  5
1DC
330
1F
100
AcDbEntity
  8
0
  6
Continuous
 62
     7
370
    25
100
AcDbLine
 10
67.9745106425
 20
185.9147859921
 30
0.0
 11
67.9745106425
 21
186.7068655498
 31
0.0
  0
LINE
  5
1DD
330
1F
100
AcDbEntity
  8
0
  6
Continuous
 62
     7
370
    25
100
AcDbLine
 10
67.9745106425
 20
187.5197509482
 30
0.0
 11
67.9745106425
 21
187.743155025
 31
0.0
  0
LINE
  5
1DE
330
1F
100
AcDbEntity
  8
0
  6
Continuous
 62
     7
370
    25
100
AcDbLine
 10
67.9745106425
 20
187.859391428
 30
0.0
 11
67.9745106425
 21
187.743155025
 31
0.0
  0
LINE
  5
1DF
330
1F
100
AcDbEntity
  8
0
  6
Continuous
 62
     7
370
    25
100
AcDbLine
 10
67.9745106425
 20
146.2816806068
 30
0.0
 11
67.9745106425
 21
147.112353826
 31
0.0
  0
LINE
  5
1E0
330
1F
100
AcDbEntity
  8
0
  6
Continuous
 62
     7
370
    25
100
AcDbLine
 10
67.9745106425
 20
146.2816806068
 30
0.0
 11
67.9745106425
 21
145.4829371859
 31
0.0
  0
LINE
  5
1E1
330
1F
100
AcDbEntity
  8
0
  6
Continuous
 62
     7
370
    25
100
AcDbLine
 10
67.9745106425
 20
145.2842992387
 30
0.0
 11
67.9745106425
 21
145.4829371859
 31
0.0
  0
LINE
  5
1E2
330
1F
100
AcDbEntity
  8
0
  6
Continuous
 62
     7
370
    25
100
AcDbLine
 10
67.9745106425
 20
145.2842992387
 30
0.0
 11
67.9745106425
 21
145.1946023423
 31
0.0
  0
LINE
  5
1E3
330
1F
100
AcDbEntity
  8
0
  6
Continuous
 62
     7
370
    25
100
AcDbLine
 10
67.9745106425
 20
189.4412781148
 30
0.0
 11
67.9745106425
 21
188.656727256
 31
0.0
  0
LINE
  5
1E4
330
1F
100
AcDbEntity
  8
0
  6
Continuous
 62
     7
370
    25
100
AcDbLine
 10
67.9745106425
 20
187.859391428
 30
0.0
 11
67.9745106425
 21
188.656727256
 31
0.0
  0
LINE
  5
1E5
330
1F
100
AcDbEntity
  8
0
  6
Continuous
 62
     7
370
    25
100
AcDbLine
 10
67.9745106425
 20
189.4412781148
 30
0.0
 11
67.9745106425
 21
189.6201299638
 31
0.0
  0
LINE
  5
1E6
330
1F
100
AcDbEntity
  8
0
  6
Continuous
 62
     7
370
    25
100
AcDbLine
 10
67.9745106425
 20
189.6916781067
 30
0.0
 11
67.9745106425
 21
189.6201299638
 31
0.0
  0
LINE
  5
1E7
330
1F
100
AcDbEntity
  8
0
  6
Continuous
 62
     7
370
    25
100
AcDbLine
 10
67.9745106425
 20
144.565742166
 30
0.0
 11
67.9745106425
 21
145.1946023423
 31
0.0
  0
LINE
  5
1E8
330
1F
100
AcDbEntity
  8
0
  6
Continuous
 62
     7
370
    25
100
AcDbLine
 10
67.9745106425
 20
144.565742166
 30
0.0
 11
67.9745106425
 21
143.8040735551
 31
0.0
  0
LINE
  5
1E9
330
1F
100
AcDbEntity
  8
0
  6
Continuous
 62
     7
370
    25
100
AcDbLine
 10
67.9745106425
 20
143.6520716953
 30
0.0
 11
67.9745106425
 21
143.8040735551
 31
0.0
  0
LINE
  5
1EA
330
1F
100
AcDbEntity
  8
0
  6
Continuous
 62
     7
370
    25
100
AcDbLine
 10
67.9745106425
 20
143.6520716953
 30
0.0
 11
67.9745106425
 21
143.6013288127
 31
0.0
  0
LINE
  5
1EB
330
1F
100
AcDbEntity
  8
0
  6
Continuous
 62
     7
370
    25
100
AcDbLine
 10
67.9745106425
 20
190.9274029979
 30
0.0
 11
67.9745106425
 21
190.1864570686
 31
0.0
  0
LINE
  5
1EC
330
1F
100
AcDbEntity
  8
0
  6
Continuous
 62
     7
370
    25
100
AcDbLine
 10
67.9745106425
 20
189.6916781067
 30
0.0
 11
67.9745106425
 21
190.1864570686
 31
0.0
  0
LINE
  5
1ED
330
1F
100
AcDbEntity
  8
0
  6
Continuous
 62
     7
370
    25
100
AcDbLine
 10
117.9745106425
 20
191.0445416936
 30
0.0
 11
117.9745106425
 21
190.9410827755
 31
0.0
  0
LINE
  5
1EE
330
1F
100
AcDbEntity
  8
0
  6
Continuous
 62
     7
370
    25
100
AcDbLine
 10
117.9745106425
 20
190.9410827755
 30
0.0
 11
123.9161640469
 21
190.9410827755
 31
0.0
  0
LINE
  5
1EF
330
1F
100
AcDbEntity
  8
0
  6
Continuous
 62
     7
370
    25
100
AcDbLine
 10
123.974739245
 20
191.0445416936
 30
0.0
 11
117.9745106425
 21
191.0445416936
 31
0.0
  0
LINE
  5
1F0
330
1F
100
AcDbEntity
  8
0
  6
Continuous
 62
     7
370
    25
100
AcDbLine
 10
67.9745106425
 20
190.9274029979
 30
0.0
 11
67.9745106425
 21
191.0582214712
 31
0.0
  0
LINE
  5
1F1
330
1F
100
AcDbEntity
  8
0
  6
Continuous
 62
     7
370
    25
100
AcDbLine
 10
123.9216274902
 20
190.9507326265
 30
0.0
 11
117.9745106425
 21
190.9507326265
 31
0.0
  0
LINE
  5
1F2
330
1F
100
AcDbEntity
  8
0
  6
Continuous
 62
     7
370
    25
100
AcDbLine
 10
67.9745106425
 20
191.0953670684
 30
0.0
 11
67.9745106425
 21
191.0582214712
 31
0.0
  0
LINE
  5
1F3
330
1F
100
AcDbEntity
  8
0
  6
Continuous
 62
     7
370
    25
100
AcDbLine
 10
67.9745106425
 20
143.2878527038
 30
0.0
 11
67.9745106425
 21
143.6013288127
 31
0.0
  0
LINE
  5
1F4
330
1F
100
AcDbEntity
  8
0
  6
Continuous
 62
     7
370
    25
100
AcDbLine
 10
67.9745106425
 20
143.2878527038
 30
0.0
 11
67.9745106425
 21
142.578083916
 31
0.0
  0
LINE
  5
1F5
330
1F
100
AcDbEntity
  8
0
  6
Continuous
 62
     7
370
    25
100
AcDbLine
 10
67.9745106425
 20
142.4756766868
 30
0.0
 11
67.9745106425
 21
142.578083916
 31
0.0
  0
LINE
  5
1F6
330
1F
100
AcDbEntity
  8
0
  6
Continuous
 62
     7
370
    25
100
AcDbLine
 10
67.9745106425
 20
142.4756766868
 30
0.0
 11
67.9745106425
 21
142.453197153
 31
0.0
  0
LINE
  5
1F7
330
1F
100
AcDbEntity
  8
0
  6
Continuous
 62
     7
370
    25
100
AcDbLine
 10
67.9745106425
 20
191.0953670684
 30
0.0
 11
67.9745106425
 21
191.2662805371
 31
0.0
  0
LINE
  5
1F8
330
1F
100
AcDbEntity
  8
0
  6
Continuous
 62
     7
370
    25
100
AcDbLine
 10
67.9745106425
 20
191.949199867
 30
0.0
 11
67.9745106425
 21
191.2662805371
 31
0.0
  0
LINE
  5
1F9
330
1F
100
AcDbEntity
  8
0
  6
Continuous
 62
     7
370
    25
100
AcDbLine
 10
67.9745106425
 20
191.949199867
 30
0.0
 11
67.9745106425
 21
192.029438732
 31
0.0
  0
LINE
  5
1FA
330
1F
100
AcDbEntity
  8
0
  6
Continuous
 62
     7
370
    25
100
AcDbLine
 10
67.9745106425
 20
192.0431371041
 30
0.0
 11
67.9745106425
 21
192.029438732
 31
0.0
  0
LINE
  5
1FB
330
1F
100
AcDbEntity
  8
0
  6
Continuous
 62
     7
370
    25
100
AcDbLine
 10
67.9745106425
 20
142.453197153
 30
0.0
 11
67.9745106425
 21
141.8288307624
 31
0.0
  0
LINE
  5
1FC
330
1F
100
AcDbEntity
  8
0
  6
Continuous
 62
     7
370
    25
100
AcDbLine
 10
67.9745106425
 20
141.7780114041
 30
0.0
 11
67.9745106425
 21
141.8288307624
 31
0.0
  0
LINE
  5
1FD
330
1F
100
AcDbEntity
  8
0
  6
Continuous
 62
     7
370
    25
100
AcDbLine
 10
67.9745106425
 20
141.7780114041
 30
0.0
 11
67.9745106425
 21
141.7725544401
 31
0.0
  0
LINE
  5
1FE
330
1F
100
AcDbEntity
  8
0
  6
Continuous
 62
     7
370
    25
100
AcDbLine
 10
67.9745106425
 20
192.4867806085
 30
0.0
 11
67.9745106425
 21
192.0431371041
 31
0.0
  0
LINE
  5
1FF
330
1F
100
AcDbEntity
  8
0
  6
Continuous
 62
     7
370
    25
100
AcDbLine
 10
67.9745106425
 20
192.4867806085
 30
0.0
 11
67.9745106425
 21
192.5148781068
 31
0.0
  0
LINE
  5
200
330
1F
100
AcDbEntity
  8
0
  6
Continuous
 62
     7
370
    25
100
AcDbLine
 10
67.9745106425
 20
192.5165409481
 30
0.0
 11
67.9745106425
 21
192.5148781068
 31
0.0
  0
LINE
  5
201
330
1F
100
AcDbEntity
  8
0
  6
Continuous
 62
     7
370
    25
100
AcDbLine
 10
67.9745106425
 20
141.5708974546
 30
0.0
 11
78.9545130847
 21
141.5708974546
 31
0.0
  0
LINE
  5
202
330
1F
100
AcDbEntity
  8
0
  6
Continuous
 62
     7
370
    25
100
AcDbLine
 10
67.9745106425
 20
141.7725544401
 30
0.0
 11
67.9745106425
 21
141.5708974546
 31
0.0
  0
LINE
  5
203
330
1F
100
AcDbEntity
  8
0
  6
Continuous
 62
     7
370
    25
100
AcDbLine
 10
67.9745106425
 20
192.5309550873
 30
0.0
 11
67.9745106425
 21
192.5165409481
 31
0.0
  0
LINE
  5
204
330
1F
100
AcDbEntity
  8
0
  6
Continuous
 62
     8
370
    25
100
AcDbLine
 10
181.9745106425
 20
118.5715001148
 30
0.0
 11
131.9745106425
 21
118.5715001148
 31
0.0
  0
LINE
  5
205
330
1F
100
AcDbEntity
  8
0
  6
Continuous
 62
     8
370
    25
100
AcDbLine
 10
143.0745106425
 20
194.5715001148
 30
0.0
 11
143.0745106425
 21
140.9381155859
 31
0.0
  0
LINE
  5
206
330
1F
100
AcDbEntity
  8
0
  6
Continuous
 62
     8
370
    25
100
AcDbLine
 10
151.9745106425
 20
140.9381155859
 30
0.0
 11
151.9745106425
 21
140.8884204778
 31
0.0
  0
SPLINE
  5
207
330
1F
100
AcDbEntity
  8
0
  6
Continuous
 62
     8
370
    25
100
AcDbSpline
210
0.0
220
0.0
230
1.0
 70
     8
 71
     3
 72
    36
 73
    32
 74
     0
 42
0.000000001
 43
0.00000001
 40
0.0
 40
0.0
 40
0.0
 40
0.0
 40
0.0244866043721696
 40
0.0435156230883957
 40
0.057086974751055
 40
0.0761405096908192
 40
0.0950397425711121
 40
0.1124714306282761
 40
0.1320427965693872
 40
0.153959072575876
 40
0.1750047456813546
 40
0.1951811092101747
 40
0.2144896314383119
 40
0.232931988190345
 40
0.281650522729572
 40
0.3276622341929667
 40
0.3737908506178486
 40
0.4207545125185777
 40
0.4660974682820387
 40
0.5246754707481226
 40
0.5822430534659802
 40
0.6208503888499142
 40
0.6596347905881135
 40
0.6986866597712916
 40
0.736771818540646
 40
0.7754620286554921
 40
0.8148298021687785
 40
0.8725555442014828
 40
0.9316112359203963
 40
0.9899418180785202
 40
1.0
 40
1.0
 40
1.0
 40
1.0
 10
102.6470419316383
 20
167.0715001147757
 30
0.0
 10
102.3319203452095
 20
166.7955901539056
 30
0.0
 10
101.7719116166149
 20
166.3052651712711
 30
0.0
 10
101.0376440061503
 20
165.66210198313
 30
0.0
 10
100.3737622734952
 20
165.0802105106936
 30
0.0
 10
99.71307747518193
 20
164.4988556108772
 30
0.0
 10
99.00471887394507
 20
163.8732724673565
 30
0.0
 10
98.29208159770519
 20
163.2409064093597
 30
0.0
 10
97.5443005787733
 20
162.5728990910358
 30
0.0
 10
96.75532929975583
 20
161.8618754505713
 30
0.0
 10
95.96420673834028
 20
161.1419122931488
 30
0.0
 10
95.2115387007544
 20
160.449681587515
 30
0.0
 10
94.49729599966388
 20
159.7852299711248
 30
0.0
 10
93.44123450378919
 20
158.7901169932966
 30
0.0
 10
92.08530263710679
 20
157.4790639427841
 30
0.0
 10
90.45366143181606
 20
155.836608170589
 30
0.0
 10
88.90919524677247
 20
154.2069155390478
 30
0.0
 10
87.45181861524611
 20
152.5848209983251
 30
0.0
 10
85.96227369038208
 20
150.8299475271646
 30
0.0
 10
84.5044352687899
 20
148.9849563644755
 30
0.0
 10
83.26965193839736
 20
147.2887332184028
 30
0.0
 10
82.32047623701976
 20
145.8903149255833
 30
0.0
 10
81.59058928594747
 20
144.7536932147431
 30
0.0
 10
80.95351802540246
 20
143.7060787983112
 30
0.0
 10
80.40473588198165
 20
142.7553950034536
 30
0.0
 10
79.93882374251253
 20
141.9089842568428
 30
0.0
 10
79.49159487184119
 20
141.0600432638432
 30
0.0
 10
79.1051717497067
 20
140.2898158434888
 30
0.0
 10
78.85368313390457
 20
139.7661298916504
 30
0.0
 10
78.74610137152968
 20
139.5390731350586
 30
0.0
 10
78.76922432127967
 20
139.5876902476358
 30
0.0
 10
78.77262509680584
 20
139.5948405415383
 30
0.0
  0
LINE
  5
208
330
1F
100
AcDbEntity
  8
0
  6
Continuous
 62
     8
370
    25
100
AcDbLine
 10
140.8745106425
 20
167.0715001148
 30
0.0
 11
140.8745106425
 21
194.5715001148
 31
0.0
  0
LINE
  5
209
330
1F
100
AcDbEntity
  8
0
  6
Continuous
 62
     8
370
    25
100
AcDbLine
 10
140.8745106425
 20
139.5715001148
 30
0.0
 11
140.8745106425
 21
167.0715001148
 31
0.0
  0
LINE
  5
20A
330
1F
100
AcDbEntity
  8
0
  6
Continuous
 62
     8
370
    25
100
AcDbLine
 10
141.0745106425
 20
194.2715001148
 30
0.0
 11
141.0745106425
 21
139.8715001148
 31
0.0
  0
LINE
  5
20B
330
1F
100
AcDbEntity
  8
0
  6
Continuous
 62
     8
370
    25
100
AcDbLine
 10
142.8745106425
 20
139.8715001148
 30
0.0
 11
142.8745106425
 21
140.9128768993
 31
0.0
  0
LINE
  5
20C
330
1F
100
AcDbEntity
  8
0
  6
Continuous
 62
     8
370
    25
100
AcDbLine
 10
142.8745106425
 20
141.0575302552
 30
0.0
 11
142.8745106425
 21
194.2715001148
 31
0.0
  0
LINE
  5
20D
330
1F
100
AcDbEntity
  8
0
  6
Continuous
 62
     8
370
    25
100
AcDbLine
 10
101.6480013468
 20
166.8728477973
 30
0.0
 11
67.9745106425
 21
166.8728477973
 31
0.0
  0
LINE
  5
20E
330
1F
100
AcDbEntity
  8
0
  6
Continuous
 62
     8
370
    25
100
AcDbLine
 10
67.9745106425
 20
166.251650638
 30
0.0
 11
100.9270850546
 21
166.251650638
 31
0.0
  0
LINE
  5
20F
330
1F
100
AcDbEntity
  8
0
  6
Continuous
 62
     8
370
    25
100
AcDbLine
 10
100.4911217818
 20
165.8742835243
 30
0.0
 11
67.9745106425
 21
165.8742835243
 31
0.0
  0
LINE
  5
210
330
1F
100
AcDbEntity
  8
0
  6
Continuous
 62
     8
370
    25
100
AcDbLine
 10
104.613912837
 20
169.431032696
 30
0.0
 11
67.9745106425
 21
169.431032696
 31
0.0
  0
LINE
  5
211
330
1F
100
AcDbEntity
  8
0
  6
Continuous
 62
     8
370
    25
100
AcDbLine
 10
67.9745106425
 20
169.8068060823
 30
0.0
 11
105.0432563239
 21
169.8068060823
 31
0.0
  0
LINE
  5
212
330
1F
100
AcDbEntity
  8
0
  6
Continuous
 62
     8
370
    25
100
AcDbLine
 10
67.9745106425
 20
165.2980628588
 30
0.0
 11
99.8254277189
 21
165.2980628588
 31
0.0
  0
LINE
  5
213
330
1F
100
AcDbEntity
  8
0
  6
Continuous
 62
     8
370
    25
100
AcDbLine
 10
67.9745106425
 20
168.7780500021
 30
0.0
 11
103.8615816823
 21
168.7780500021
 31
0.0
  0
LINE
  5
214
330
1F
100
AcDbEntity
  8
0
  6
Continuous
 62
     8
370
    25
100
AcDbLine
 10
97.6430068866
 20
163.403377955
 30
0.0
 11
67.9745106425
 21
163.403377955
 31
0.0
  0
LINE
  5
215
330
1F
100
AcDbEntity
  8
0
  6
Continuous
 62
     8
370
    25
100
AcDbLine
 10
67.9745106425
 20
162.7124526313
 30
0.0
 11
96.8628182927
 21
162.7124526313
 31
0.0
  0
LINE
  5
216
330
1F
100
AcDbEntity
  8
0
  6
Continuous
 62
     8
370
    25
100
AcDbLine
 10
96.4431920122
 20
162.3408368117
 30
0.0
 11
67.9745106425
 21
162.3408368117
 31
0.0
  0
LINE
  5
217
330
1F
100
AcDbEntity
  8
0
  6
Continuous
 62
     8
370
    25
100
AcDbLine
 10
108.5854604185
 20
172.9418562499
 30
0.0
 11
67.9745106425
 21
172.9418562499
 31
0.0
  0
LINE
  5
218
330
1F
100
AcDbEntity
  8
0
  6
Continuous
 62
     8
370
    25
100
AcDbLine
 10
67.9745106425
 20
173.3087219073
 30
0.0
 11
108.9911270602
 21
173.3087219073
 31
0.0
  0
LINE
  5
219
330
1F
100
AcDbEntity
  8
0
  6
Continuous
 62
     8
370
    25
100
AcDbLine
 10
67.9745106425
 20
172.2248210929
 30
0.0
 11
107.7925891366
 21
172.2248210929
 31
0.0
  0
LINE
  5
21A
330
1F
100
AcDbEntity
  8
0
  6
Continuous
 62
     8
370
    25
100
AcDbLine
 10
93.8646449749
 20
160.0053039382
 30
0.0
 11
67.9745106425
 21
160.0053039382
 31
0.0
  0
LINE
  5
21B
330
1F
100
AcDbEntity
  8
0
  6
Continuous
 62
     8
370
    25
100
AcDbLine
 10
67.9745106425
 20
159.2580985254
 30
0.0
 11
93.0598385965
 21
159.2580985254
 31
0.0
  0
LINE
  5
21C
330
1F
100
AcDbEntity
  8
0
  6
Continuous
 62
     8
370
    25
100
AcDbLine
 10
92.6857954707
 20
158.8994670792
 30
0.0
 11
67.9745106425
 21
158.8994670792
 31
0.0
  0
LINE
  5
21D
330
1F
100
AcDbEntity
  8
0
  6
Continuous
 62
     8
370
    25
100
AcDbLine
 10
112.218979059
 20
176.3384199991
 30
0.0
 11
67.9745106425
 21
176.3384199991
 31
0.0
  0
LINE
  5
21E
330
1F
100
AcDbEntity
  8
0
  6
Continuous
 62
     8
370
    25
100
AcDbLine
 10
67.9745106425
 20
175.5712886528
 30
0.0
 11
111.4202902118
 21
175.5712886528
 31
0.0
  0
LINE
  5
21F
330
1F
100
AcDbEntity
  8
0
  6
Continuous
 62
     8
370
    25
100
AcDbLine
 10
67.9745106425
 20
176.6892373048
 30
0.0
 11
112.5717174945
 21
176.6892373048
 31
0.0
  0
LINE
  5
220
330
1F
100
AcDbEntity
  8
0
  6
Continuous
 62
     8
370
    25
100
AcDbLine
 10
90.4735935422
 20
156.7447653923
 30
0.0
 11
67.9745106425
 21
156.7447653923
 31
0.0
  0
LINE
  5
221
330
1F
100
AcDbEntity
  8
0
  6
Continuous
 62
     8
370
    25
100
AcDbLine
 10
67.9745106425
 20
155.9558233939
 30
0.0
 11
89.6969872726
 21
155.9558233939
 31
0.0
  0
LINE
  5
222
330
1F
100
AcDbEntity
  8
0
  6
Continuous
 62
     8
370
    25
100
AcDbLine
 10
89.3636158736
 20
155.6171566743
 30
0.0
 11
67.9745106425
 21
155.6171566743
 31
0.0
  0
LINE
  5
223
330
1F
100
AcDbEntity
  8
0
  6
Continuous
 62
     8
370
    25
100
AcDbLine
 10
115.3676254398
 20
179.5546136938
 30
0.0
 11
67.9745106425
 21
179.5546136938
 31
0.0
  0
LINE
  5
224
330
1F
100
AcDbEntity
  8
0
  6
Continuous
 62
     8
370
    25
100
AcDbLine
 10
67.9745106425
 20
178.7523174971
 30
0.0
 11
114.6112352153
 21
178.7523174971
 31
0.0
  0
LINE
  5
225
330
1F
100
AcDbEntity
  8
0
  6
Continuous
 62
     8
370
    25
100
AcDbLine
 10
67.9745106425
 20
179.882554388
 30
0.0
 11
115.6768019464
 21
179.882554388
 31
0.0
  0
LINE
  5
226
330
1F
100
AcDbEntity
  8
0
  6
Continuous
 62
     8
370
    25
100
AcDbLine
 10
87.5599006663
 20
153.6852249912
 30
0.0
 11
67.9745106425
 21
153.6852249912
 31
0.0
  0
LINE
  5
227
330
1F
100
AcDbEntity
  8
0
  6
Continuous
 62
     8
370
    25
100
AcDbLine
 10
67.9745106425
 20
152.8699022658
 30
0.0
 11
86.8216194462
 21
152.8699022658
 31
0.0
  0
LINE
  5
228
330
1F
100
AcDbEntity
  8
0
  6
Continuous
 62
     8
370
    25
100
AcDbLine
 10
86.5562677036
 20
152.5577920353
 30
0.0
 11
67.9745106425
 21
152.5577920353
 31
0.0
  0
LINE
  5
229
330
1F
100
AcDbEntity
  8
0
  6
Continuous
 62
     8
370
    25
100
AcDbLine
 10
118.0213169108
 20
182.5278377819
 30
0.0
 11
67.9745106425
 21
182.5278377819
 31
0.0
  0
LINE
  5
22A
330
1F
100
AcDbEntity
  8
0
  6
Continuous
 62
     8
370
    25
100
AcDbLine
 10
67.9745106425
 20
181.7059925178
 30
0.0
 11
117.3036786163
 21
181.7059925178
 31
0.0
  0
LINE
  5
22B
330
1F
100
AcDbEntity
  8
0
  6
Continuous
 62
     8
370
    25
100
AcDbLine
 10
67.9745106425
 20
182.826518872
 30
0.0
 11
118.2617709173
 21
182.826518872
 31
0.0
  0
LINE
  5
22C
330
1F
100
AcDbEntity
  8
0
  6
Continuous
 62
     8
370
    25
100
AcDbLine
 10
85.1351318227
 20
150.8862332088
 30
0.0
 11
67.9745106425
 21
150.8862332088
 31
0.0
  0
LINE
  5
22D
330
1F
100
AcDbEntity
  8
0
  6
Continuous
 62
     8
370
    25
100
AcDbLine
 10
67.9745106425
 20
150.0603990858
 30
0.0
 11
84.490029067
 21
150.0603990858
 31
0.0
  0
LINE
  5
22E
330
1F
100
AcDbEntity
  8
0
  6
Continuous
 62
     8
370
    25
100
AcDbLine
 10
84.2718695834
 20
149.7809202149
 30
0.0
 11
67.9745106425
 21
149.7809202149
 31
0.0
  0
LINE
  5
22F
330
1F
100
AcDbEntity
  8
0
  6
Continuous
 62
     8
370
    25
100
AcDbLine
 10
120.1330108164
 20
185.2002218387
 30
0.0
 11
67.9745106425
 21
185.2002218387
 31
0.0
  0
LINE
  5
230
330
1F
100
AcDbEntity
  8
0
  6
Continuous
 62
     8
370
    25
100
AcDbLine
 10
67.9745106425
 20
184.3748237903
 30
0.0
 11
119.5082379124
 21
184.3748237903
 31
0.0
  0
LINE
  5
231
330
1F
100
AcDbEntity
  8
0
  6
Continuous
 62
     8
370
    25
100
AcDbLine
 10
67.9745106425
 20
185.4638298371
 30
0.0
 11
120.3272220462
 21
185.4638298371
 31
0.0
  0
LINE
  5
232
330
1F
100
AcDbEntity
  8
0
  6
Continuous
 62
     8
370
    25
100
AcDbLine
 10
83.2221114318
 20
148.4022692363
 30
0.0
 11
67.9745106425
 21
148.4022692363
 31
0.0
  0
LINE
  5
233
330
1F
100
AcDbEntity
  8
0
  6
Continuous
 62
     8
370
    25
100
AcDbLine
 10
67.9745106425
 20
147.5819976375
 30
0.0
 11
82.6359944796
 21
147.5819976375
 31
0.0
  0
LINE
  5
234
330
1F
100
AcDbEntity
  8
0
  6
Continuous
 62
     8
370
    25
100
AcDbLine
 10
82.4634989448
 20
147.3405898646
 30
0.0
 11
67.9745106425
 21
147.3405898646
 31
0.0
  0
LINE
  5
235
330
1F
100
AcDbEntity
  8
0
  6
Continuous
 62
     8
370
    25
100
AcDbLine
 10
121.7865087951
 20
187.5197509482
 30
0.0
 11
67.9745106425
 21
187.5197509482
 31
0.0
  0
LINE
  5
236
330
1F
100
AcDbEntity
  8
0
  6
Continuous
 62
     8
370
    25
100
AcDbLine
 10
67.9745106425
 20
186.7068655498
 30
0.0
 11
121.239756972
 21
186.7068655498
 31
0.0
  0
LINE
  5
237
330
1F
100
AcDbEntity
  8
0
  6
Continuous
 62
     8
370
    25
100
AcDbLine
 10
67.9745106425
 20
187.743155025
 30
0.0
 11
121.9367717799
 21
187.743155025
 31
0.0
  0
LINE
  5
238
330
1F
100
AcDbEntity
  8
0
  6
Continuous
 62
     8
370
    25
100
AcDbLine
 10
81.7414374192
 20
146.2816806068
 30
0.0
 11
67.9745106425
 21
146.2816806068
 31
0.0
  0
LINE
  5
239
330
1F
100
AcDbEntity
  8
0
  6
Continuous
 62
     8
370
    25
100
AcDbLine
 10
67.9745106425
 20
145.4829371859
 30
0.0
 11
81.2195621697
 21
145.4829371859
 31
0.0
  0
LINE
  5
23A
330
1F
100
AcDbEntity
  8
0
  6
Continuous
 62
     8
370
    25
100
AcDbLine
 10
81.0897780294
 20
145.2842992387
 30
0.0
 11
67.9745106425
 21
145.2842992387
 31
0.0
  0
LINE
  5
23B
330
1F
100
AcDbEntity
  8
0
  6
Continuous
 62
     8
370
    25
100
AcDbLine
 10
123.0277067357
 20
189.4412781148
 30
0.0
 11
67.9745106425
 21
189.4412781148
 31
0.0
  0
LINE
  5
23C
330
1F
100
AcDbEntity
  8
0
  6
Continuous
 62
     8
370
    25
100
AcDbLine
 10
67.9745106425
 20
188.656727256
 30
0.0
 11
122.5450016589
 21
188.656727256
 31
0.0
  0
LINE
  5
23D
330
1F
100
AcDbEntity
  8
0
  6
Continuous
 62
     8
370
    25
100
AcDbLine
 10
67.9745106425
 20
189.6201299638
 30
0.0
 11
123.1377476522
 21
189.6201299638
 31
0.0
  0
LINE
  5
23E
330
1F
100
AcDbEntity
  8
0
  6
Continuous
 62
     8
370
    25
100
AcDbLine
 10
80.6458799574
 20
144.565742166
 30
0.0
 11
67.9745106425
 21
144.565742166
 31
0.0
  0
LINE
  5
23F
330
1F
100
AcDbEntity
  8
0
  6
Continuous
 62
     8
370
    25
100
AcDbLine
 10
67.9745106425
 20
143.8040735551
 30
0.0
 11
80.1891444129
 21
143.8040735551
 31
0.0
  0
LINE
  5
240
330
1F
100
AcDbEntity
  8
0
  6
Continuous
 62
     8
370
    25
100
AcDbLine
 10
80.0979963057
 20
143.6520716953
 30
0.0
 11
67.9745106425
 21
143.6520716953
 31
0.0
  0
LINE
  5
241
330
1F
100
AcDbEntity
  8
0
  6
Continuous
 62
     8
370
    25
100
AcDbLine
 10
123.9084189854
 20
190.9274029979
 30
0.0
 11
67.9745106425
 21
190.9274029979
 31
0.0
  0
LINE
  5
242
330
1F
100
AcDbEntity
  8
0
  6
Continuous
 62
     8
370
    25
100
AcDbLine
 10
67.9745106425
 20
190.1864570686
 30
0.0
 11
123.4861877381
 21
190.1864570686
 31
0.0
  0
LINE
  5
243
330
1F
100
AcDbEntity
  8
0
  6
Continuous
 62
     8
370
    25
100
AcDbLine
 10
67.9745106425
 20
191.0582214712
 30
0.0
 11
123.9824843065
 21
191.0582214712
 31
0.0
  0
LINE
  5
244
330
1F
100
AcDbEntity
  8
0
  6
Continuous
 62
     8
370
    25
100
AcDbLine
 10
79.8872967257
 20
143.2878527038
 30
0.0
 11
67.9745106425
 21
143.2878527038
 31
0.0
  0
LINE
  5
245
330
1F
100
AcDbEntity
  8
0
  6
Continuous
 62
     8
370
    25
100
AcDbLine
 10
67.9745106425
 20
142.578083916
 30
0.0
 11
79.4932090587
 21
142.578083916
 31
0.0
  0
LINE
  5
246
330
1F
100
AcDbEntity
  8
0
  6
Continuous
 62
     8
370
    25
100
AcDbLine
 10
79.436349097
 20
142.4756766868
 30
0.0
 11
67.9745106425
 21
142.4756766868
 31
0.0
  0
LINE
  5
247
330
1F
100
AcDbEntity
  8
0
  6
Continuous
 62
     8
370
    25
100
AcDbLine
 10
67.9745106425
 20
191.2662805371
 30
0.0
 11
124.1002808311
 21
191.2662805371
 31
0.0
  0
LINE
  5
248
330
1F
100
AcDbEntity
  8
0
  6
Continuous
 62
     8
370
    25
100
AcDbLine
 10
124.4771172617
 20
191.949199867
 30
0.0
 11
67.9745106425
 21
191.949199867
 31
0.0
  0
LINE
  5
249
330
1F
100
AcDbEntity
  8
0
  6
Continuous
 62
     8
370
    25
100
AcDbLine
 10
67.9745106425
 20
192.029438732
 30
0.0
 11
124.5193941472
 21
192.029438732
 31
0.0
  0
LINE
  5
24A
330
1F
100
AcDbEntity
  8
0
  6
Continuous
 62
     8
370
    25
100
AcDbLine
 10
67.9745106425
 20
141.8288307624
 30
0.0
 11
79.0888768447
 21
141.8288307624
 31
0.0
  0
LINE
  5
24B
330
1F
100
AcDbEntity
  8
0
  6
Continuous
 62
     8
370
    25
100
AcDbLine
 10
79.0624037997
 20
141.7780114041
 30
0.0
 11
67.9745106425
 21
141.7780114041
 31
0.0
  0
LINE
  5
24C
330
1F
100
AcDbEntity
  8
0
  6
Continuous
 62
     8
370
    25
100
AcDbLine
 10
124.7603620392
 20
192.4867806085
 30
0.0
 11
67.9745106425
 21
192.4867806085
 31
0.0
  0
LINE
  5
24D
330
1F
100
AcDbEntity
  8
0
  6
Continuous
 62
     8
370
    25
100
AcDbLine
 10
67.9745106425
 20
192.5148781068
 30
0.0
 11
124.7751662705
 21
192.5148781068
 31
0.0
  0
ARC
  5
24E
330
1F
100
AcDbEntity
  8
0
  6
Continuous
 62
     7
370
    25
100
AcDbCircle
 10
269.1237043331
 20
118.5715001148
 30
0.0
 40
1.0
100
AcDbArc
 50
0.0
 51
90.0
  0
ARC
  5
24F
330
1F
100
AcDbEntity
  8
0
  6
Continuous
 62
     7
370
    25
100
AcDbCircle
 10
221.1237043331
 20
118.5715001148
 30
0.0
 40
1.0
100
AcDbArc
 50
90.0
 51
180.0
  0
LINE
  5
250
330
1F
100
AcDbEntity
  8
0
  6
Continuous
 62
     7
370
    25
100
AcDbLine
 10
270.1237043331
 20
99.5715001148
 30
0.0
 11
270.1237043331
 21
118.5715001148
 31
0.0
  0
LINE
  5
251
330
1F
100
AcDbEntity
  8
0
  6
Continuous
 62
     7
370
    25
100
AcDbLine
 10
220.1237043331
 20
118.5715001148
 30
0.0
 11
220.1237043331
 21
99.5715001148
 31
0.0
  0
LINE
  5
252
330
1F
100
AcDbEntity
  8
0
  6
Continuous
 62
     7
370
    25
100
AcDbLine
 10
254.1237043331
 20
119.5715001148
 30
0.0
 11
254.1237043331
 21
120.0715001148
 31
0.0
  0
LINE
  5
253
330
1F
100
AcDbEntity
  8
0
  6
Continuous
 62
     7
370
    25
100
AcDbLine
 10
236.1237043331
 20
120.0715001148
 30
0.0
 11
236.1237043331
 21
119.5715001148
 31
0.0
  0
LINE
  5
254
330
1F
100
AcDbEntity
  8
0
  6
Continuous
 62
     7
370
    25
100
AcDbLine
 10
236.1237043331
 20
122.4715001148
 30
0.0
 11
236.1237043331
 21
120.0715001148
 31
0.0
  0
LINE
  5
255
330
1F
100
AcDbEntity
  8
0
  6
Continuous
 62
     7
370
    25
100
AcDbLine
 10
236.1237043331
 20
130.9984177439
 30
0.0
 11
236.1237043331
 21
125.6715001148
 31
0.0
  0
LINE
  5
256
330
1F
100
AcDbEntity
  8
0
  6
Continuous
 62
     7
370
    25
100
AcDbLine
 10
254.1237043331
 20
120.0715001148
 30
0.0
 11
254.1237043331
 21
130.9984177439
 31
0.0
  0
SPLINE
  5
257
330
1F
100
AcDbEntity
  8
0
  6
Continuous
 62
     7
370
    25
100
AcDbSpline
210
0.0
220
0.0
230
1.0
 70
    24
 71
     3
 72
    24
 73
    20
 74
     0
 42
0.000000001
 43
0.00000001
 40
0.0
 40
0.0
 40
0.0
 40
0.0
 40
0.0582394337789576
 40
0.1164929648625539
 40
0.1782295044067553
 40
0.2399799602121968
 40
0.3042899007679739
 40
0.3686138139061544
 40
0.4342921524110409
 40
0.4999847608215452
 40
0.5656630997345372
 40
0.631355708553005
 40
0.6742701705637926
 40
0.7170931420887847
 40
0.7600200118132571
 40
0.8217565504517511
 40
0.8835070055838794
 40
0.9417499837598716
 40
1.0
 40
1.0
 40
1.0
 40
1.0
 10
269.1237043330528
 20
119.5715001147757
 30
0.0
 10
269.1044795328671
 20
119.5715001147757
 30
0.0
 10
269.0660252789843
 20
119.5715001147757
 30
0.0
 10
268.7472251309785
 20
119.5715001147757
 30
0.0
 10
268.2266474732447
 20
119.5715001147757
 30
0.0
 10
267.46280611177
 20
119.5715001147757
 30
0.0
 10
266.4707115258964
 20
119.5715001147757
 30
0.0
 10
265.236938017871
 20
119.5715001147757
 30
0.0
 10
263.7856897365255
 20
119.5715001147757
 30
0.0
 10
262.1242801677092
 20
119.5715001147757
 30
0.0
 10
260.2834261013087
 20
119.5715001147757
 30
0.0
 10
258.5112712216431
 20
119.5715001147757
 30
0.0
 10
256.8841575018076
 20
119.5715001147757
 30
0.0
 10
255.4478950806828
 20
119.5715001147757
 30
0.0
 10
253.7478904906921
 20
119.5715001147757
 30
0.0
 10
251.7661704708493
 20
119.5715001147757
 30
0.0
 10
249.540559075188
 20
119.5715001147757
 30
0.0
 10
247.3195827353821
 20
119.5715001147757
 30
0.0
 10
245.8556932813756
 20
119.5715001147757
 30
0.0
 10
245.1237043330528
 20
119.5715001147757
 30
0.0
  0
SPLINE
  5
258
330
1F
100
AcDbEntity
  8
0
  6
Continuous
 62
     7
370
    25
100
AcDbSpline
210
0.0
220
0.0
230
1.0
 70
    24
 71
     3
 72
    24
 73
    20
 74
     0
 42
0.000000001
 43
0.00000001
 40
0.0
 40
0.0
 40
0.0
 40
0.0
 40
0.0582429512189781
 40
0.1164929420874702
 40
0.178229485301726
 40
0.2399799447741862
 40
0.3042898891536039
 40
0.3686138061109638
 40
0.4342921485186197
 40
0.4999847608318295
 40
0.5656631036475378
 40
0.631355716368758
 40
0.674270180929929
 40
0.7170931549992694
 40
0.7600200272736718
 40
0.821756569580354
 40
0.8835070283813259
 40
0.9417464654840544
 40
1.0
 40
1.0
 40
1.0
 40
1.0
 10
245.1237043330528
 20
119.5715001147757
 30
0.0
 10
244.3918042142628
 20
119.5715001147757
 30
0.0
 10
242.927915514127
 20
119.5715001147757
 30
0.0
 10
240.7071189156914
 20
119.5715001147757
 30
0.0
 10
238.4813612814905
 20
119.5715001147757
 30
0.0
 10
236.2452161066048
 20
119.5715001147757
 30
0.0
 10
234.0647347953938
 20
119.5715001147757
 30
0.0
 10
231.953774383291
 20
119.5715001147757
 30
0.0
 10
229.9641824012284
 20
119.5715001147757
 30
0.0
 10
228.1233596909014
 20
119.5715001147757
 30
0.0
 10
226.4618623704013
 20
119.5715001147757
 30
0.0
 10
225.1692519006098
 20
119.5715001147757
 30
0.0
 10
224.1814307317646
 20
119.5715001147757
 30
0.0
 10
223.4373435129126
 20
119.5715001147757
 30
0.0
 10
222.6978188914387
 20
119.5715001147757
 30
0.0
 10
222.0207741189127
 20
119.5715001147757
 30
0.0
 10
221.5002576954301
 20
119.5715001147757
 30
0.0
 10
221.1813982536637
 20
119.5715001147757
 30
0.0
 10
221.14293719138
 20
119.5715001147757
 30
0.0
 10
221.1237043330528
 20
119.5715001147757
 30
0.0
  0
SPLINE
  5
259
330
1F
100
AcDbEntity
  8
0
  6
Continuous
 62
     7
370
    25
100
AcDbSpline
210
0.0
220
0.0
230
1.0
 70
    11
 71
     3
 72
    27
 73
    23
 74
     0
 42
0.000000001
 43
0.00000001
 40
0.0
 40
0.0
 40
0.0
 40
0.0
 40
0.053627765095195
 40
0.1072539055187773
 40
0.1609222001607876
 40
0.2146180037290487
 40
0.2499999999896715
 40
0.3036278123240288
 40
0.3572540054425673
 40
0.4109222396546027
 40
0.4646180656696489
 40
0.5
 40
0.553627765095195
 40
0.607253905518777
 40
0.6609222001607876
 40
0.7146180037290489
 40
0.7499999999896383
 40
0.8036278123239955
 40
0.8572540054425339
 40
0.9109222396545692
 40
0.9646180656696156
 40
1.0
 40
1.0
 40
1.0
 40
1.0
 10
243.8737043330528
 20
102.5715001147757
 30
0.0
 10
243.8875041193231
 20
102.7119626538651
 30
0.0
 10
243.9151032737944
 20
102.992883476683
 30
0.0
 10
244.1303234266355
 20
103.3668202146077
 30
0.0
 10
244.447168697564
 20
103.6513408123007
 30
0.0
 10
244.7989008661871
 20
103.7956771420421
 30
0.0
 10
245.1710780922172
 20
103.8371394655861
 30
0.0
 10
245.5452182522074
 20
103.7737373769501
 30
0.0
 10
245.9189900515234
 20
103.5665887438573
 30
0.0
 10
246.2035548454545
 20
103.2475712152708
 30
0.0
 10
246.3478798340983
 20
102.8963800867281
 30
0.0
 10
246.3893442201572
 20
102.5240993308319
 30
0.0
 10
246.3259413632317
 20
102.149995032637
 30
0.0
 10
246.1187939338703
 20
101.7762126959191
 30
0.0
 10
245.7997741771155
 20
101.4916505083913
 30
0.0
 10
245.4485904128056
 20
101.3473246675869
 30
0.0
 10
245.0762870015772
 20
101.3058599305889
 30
0.0
 10
244.7022989879744
 20
101.3692649292199
 30
0.0
 10
244.3280472384324
 20
101.576404382648
 30
0.0
 10
244.0452322159732
 20
101.8954553778616
 30
0.0
 10
243.8951259443948
 20
102.2465359319415
 30
0.0
 10
243.8797941603477
 20
102.4791179069717
 30
0.0
 10
243.8737043330528
 20
102.5715001147757
 30
0.0
  0
LINE
  5
25A
330
1F
100
AcDbEntity
  8
0
  6
Continuous
 62
     7
370
    25
100
AcDbLine
 10
245.1237043331
 20
99.5715001148
 30
0.0
 11
270.1237043331
 21
99.5715001148
 31
0.0
  0
LINE
  5
25B
330
1F
100
AcDbEntity
  8
0
  6
Continuous
 62
     7
370
    25
100
AcDbLine
 10
220.1237043331
 20
99.5715001148
 30
0.0
 11
245.1237043331
 21
99.5715001148
 31
0.0
  0
LINE
  5
25C
330
1F
100
AcDbEntity
  8
0
  6
Continuous
 62
     7
370
    25
100
AcDbLine
 10
245.1237043331
 20
120.0715001148
 30
0.0
 11
236.1237043331
 21
120.0715001148
 31
0.0
  0
LINE
  5
25D
330
1F
100
AcDbEntity
  8
0
  6
Continuous
 62
     7
370
    25
100
AcDbLine
 10
254.1237043331
 20
120.0715001148
 30
0.0
 11
245.1237043331
 21
120.0715001148
 31
0.0
  0
LINE
  5
25E
330
1F
100
AcDbEntity
  8
0
  6
Continuous
 62
     7
370
    25
100
AcDbLine
 10
253.6850250878
 20
173.9026687783
 30
0.0
 11
253.6850250878
 21
140.9381155859
 31
0.0
  0
SPLINE
  5
25F
330
1F
100
AcDbEntity
  8
0
  6
Continuous
 62
     7
370
    25
100
AcDbSpline
210
0.0
220
0.0
230
1.0
 70
     8
 71
     3
 72
    15
 73
    11
 74
     0
 42
0.000000001
 43
0.00000001
 40
0.0
 40
0.0
 40
0.0
 40
0.0
 40
0.1256281791853959
 40
0.2513724109608341
 40
0.3758804455125017
 40
0.5008311625986644
 40
0.6254290940352057
 40
0.7509427651050444
 40
0.8748177766903569
 40
1.0
 40
1.0
 40
1.0
 40
1.0
 10
245.1237043330497
 20
178.2271604921342
 30
0.0
 10
245.5404350239491
 20
178.2131918103241
 30
0.0
 10
246.3742813725311
 20
178.1852415427384
 30
0.0
 10
247.6037084121691
 20
177.9569872226506
 30
0.0
 10
248.7973325859809
 20
177.5994510691136
 30
0.0
 10
249.9366881443101
 20
177.1025530888531
 30
0.0
 10
251.0146648583844
 20
176.477125132686
 30
0.0
 10
252.0063621006123
 20
175.7294279650093
 30
0.0
 10
252.9149078841494
 20
174.8769981370434
 30
0.0
 10
253.4274226846949
 20
174.2285796695424
 30
0.0
 10
253.6850250877667
 20
173.9026687782927
 30
0.0
  0
SPLINE
  5
260
330
1F
100
AcDbEntity
  8
0
  6
Continuous
 62
     7
370
    25
100
AcDbSpline
210
0.0
220
0.0
230
1.0
 70
     8
 71
     3
 72
    15
 73
    11
 74
     0
 42
0.000000001
 43
0.00000001
 40
0.0
 40
0.0
 40
0.0
 40
0.0
 40
0.1246196247460532
 40
0.2493473980705692
 40
0.3742476063873535
 40
0.4995805380457417
 40
0.6241316939722837
 40
0.7495854003282768
 40
0.8741348937826753
 40
1.0
 40
1.0
 40
1.0
 40
1.0
 10
245.1237043330497
 20
178.2271604921342
 30
0.0
 10
244.7103229807244
 20
178.2134137453501
 30
0.0
 10
243.8832015315683
 20
178.1859083219504
 30
0.0
 10
242.6588547510216
 20
177.9604837589994
 30
0.0
 10
241.4653614274829
 20
177.6052165386133
 30
0.0
 10
240.3231065237212
 20
177.108881084884
 30
0.0
 10
239.2435925534674
 20
176.4842824281514
 30
0.0
 10
238.2494692438635
 20
175.736688543728
 30
0.0
 10
237.3368880974633
 20
174.88218005523
 30
0.0
 10
236.8214544026171
 20
174.2303141149486
 30
0.0
 10
236.5623835783328
 20
173.9026687782927
 30
0.0
  0
LINE
  5
261
330
1F
100
AcDbEntity
  8
0
  6
Continuous
 62
     7
370
    25
100
AcDbLine
 10
236.5623835783
 20
140.9381155859
 30
0.0
 11
236.5623835783
 21
173.9026687783
 31
0.0
  0
ARC
  5
262
330
1F
100
AcDbEntity
  8
0
  6
Continuous
 62
     7
370
    25
100
AcDbCircle
 10
245.123704333
 20
167.0715001148
 30
0.0
 40
27.5
100
AcDbArc
 50
90.0
 51
251.8611566644
  0
ARC
  5
263
330
1F
100
AcDbEntity
  8
0
  6
Continuous
 62
     7
370
    25
100
AcDbCircle
 10
245.123704333
 20
167.0715001148
 30
0.0
 40
27.5
100
AcDbArc
 50
288.1388433356
 51
90.0
  0
SPLINE
  5
264
330
1F
100
AcDbEntity
  8
0
  6
Continuous
 62
     7
370
    25
100
AcDbSpline
210
0.0
220
0.0
230
1.0
 70
    24
 71
     3
 72
    23
 73
    19
 74
     0
 42
0.000000001
 43
0.00000001
 40
0.0
 40
0.0
 40
0.0
 40
0.0
 40
0.0616829100373219
 40
0.1233601935079248
 40
0.1866857811966949
 40
0.2500000363330494
 40
0.3133256235157772
 40
0.3766398781438303
 40
0.4383257233699508
 40
0.5000000375835726
 40
0.5616858811099219
 40
0.6233601934972093
 40
0.6866857811863265
 40
0.7500000363223287
 40
0.8133256235043669
 40
0.8766398781331006
 40
0.9383227528407874
 40
1.0
 40
1.0
 40
1.0
 40
1.0
 10
252.3737043330497
 20
173.3230660685172
 30
0.0
 10
252.3737043330497
 20
172.4017987474808
 30
0.0
 10
252.3737043330497
 20
170.5593481411975
 30
0.0
 10
252.3737043330497
 20
167.7052403260902
 30
0.0
 10
252.3737043330497
 20
164.8232585542398
 30
0.0
 10
252.3737043330497
 20
161.9447082599898
 30
0.0
 10
252.3737043330497
 20
159.1342088903482
 30
0.0
 10
252.3737043330497
 20
156.4532706662847
 30
0.0
 10
252.3737043330497
 20
153.9318628949074
 30
0.0
 10
252.3737043330497
 20
151.5996885464502
 30
0.0
 10
252.3737043330497
 20
149.46093047308
 30
0.0
 10
252.3737043330497
 20
147.5293221763864
 30
0.0
 10
252.3737043330497
 20
145.832137744804
 30
0.0
 10
252.3737043330497
 20
144.4056199761721
 30
0.0
 10
252.3737043330497
 20
143.2757650050671
 30
0.0
 10
252.3737043330497
 20
142.4784521336755
 30
0.0
 10
252.3737043330497
 20
141.9794596152208
 30
0.0
 10
252.3737043330497
 20
141.9187659340446
 30
0.0
 10
252.3737043330497
 20
141.8884204778449
 30
0.0
  0
SPLINE
  5
265
330
1F
100
AcDbEntity
  8
0
  6
Continuous
 62
     7
370
    25
100
AcDbSpline
210
0.0
220
0.0
230
1.0
 70
     8
 71
     3
 72
    15
 73
    11
 74
     0
 42
0.000000001
 43
0.00000001
 40
0.0
 40
0.0
 40
0.0
 40
0.0
 40
0.1395926492352277
 40
0.2630422871997067
 40
0.3961046080939731
 40
0.5140792648222738
 40
0.6270685884913713
 40
0.7543213062446136
 40
0.8783303463515458
 40
0.9999999999999999
 40
0.9999999999999999
 40
0.9999999999999999
 40
0.9999999999999999
 10
253.6850250877667
 20
173.9026687782927
 30
0.0
 10
253.602201442258
 20
173.8791331813926
 30
0.0
 10
253.4461321845415
 20
173.834783731238
 30
0.0
 10
253.2014088005921
 20
173.7520673172322
 30
0.0
 10
252.9775576492035
 20
173.6683609566659
 30
0.0
 10
252.7788621487332
 20
173.5834022293849
 30
0.0
 10
252.6099693615815
 20
173.502585738918
 30
0.0
 10
252.4776874518517
 20
173.4288223137934
 30
0.0
 10
252.3898476587349
 20
173.3643925412069
 30
0.0
 10
252.3790511730689
 20
173.3367538328809
 30
0.0
 10
252.3737043330497
 20
173.3230660685171
 30
0.0
  0
ARC
  5
266
330
1F
100
AcDbEntity
  8
0
  6
Continuous
 62
     7
370
    25
100
AcDbCircle
 10
253.373704333
 20
141.8884204778
 30
0.0
 40
1.0
100
AcDbArc
 50
180.0
 51
288.1388433356
  0
SPLINE
  5
267
330
1F
100
AcDbEntity
  8
0
  6
Continuous
 62
     7
370
    25
100
AcDbSpline
210
0.0
220
0.0
230
1.0
 70
     8
 71
     3
 72
    15
 73
    11
 74
     0
 42
0.000000001
 43
0.00000001
 40
0.0
 40
0.0
 40
0.0
 40
0.0
 40
0.1396087478377045
 40
0.2609975162462306
 40
0.3891373157610024
 40
0.5002052836708891
 40
0.6289902509727086
 40
0.750198119845813
 40
0.8753772687828768
 40
0.9999999999999999
 40
0.9999999999999999
 40
0.9999999999999999
 40
0.9999999999999999
 10
236.5623835783328
 20
173.9026687782927
 30
0.0
 10
236.6452216982743
 20
173.8791335599939
 30
0.0
 10
236.8000869476953
 20
173.8351346443425
 30
0.0
 10
237.0404371626522
 20
173.7539307955174
 30
0.0
 10
237.2561604695256
 20
173.6731026205644
 30
0.0
 10
237.4588325041153
 20
173.5874859351099
 30
0.0
 10
237.6313721075628
 20
173.5060579796788
 30
0.0
 10
237.7677693187366
 20
173.4292777928687
 30
0.0
 10
237.8568733773131
 20
173.3650897317511
 30
0.0
 10
237.8681023517451
 20
173.3370531396896
 30
0.0
 10
237.8737043330497
 20
173.3230660685172
 30
0.0
  0
SPLINE
  5
268
330
1F
100
AcDbEntity
  8
0
  6
Continuous
 62
     7
370
    25
100
AcDbSpline
210
0.0
220
0.0
230
1.0
 70
    24
 71
     3
 72
    23
 73
    19
 74
     0
 42
0.000000001
 43
0.00000001
 40
0.0
 40
0.0
 40
0.0
 40
0.0
 40
0.0616829100377703
 40
0.1233601935079306
 40
0.1866857811970052
 40
0.2500000363330473
 40
0.313325623514827
 40
0.3766398781438193
 40
0.4383257233686484
 40
0.5000000375835659
 40
0.5616858811102733
 40
0.6233601934972198
 40
0.6866857811853365
 40
0.7500000363223034
 40
0.8133256235024532
 40
0.8766398781330993
 40
0.9383227528407069
 40
1.0
 40
1.0
 40
1.0
 40
1.0
 10
237.8737043330497
 20
141.8884204778449
 30
0.0
 10
237.8737043330497
 20
141.9187556631823
 30
0.0
 10
237.8737043330497
 20
141.9794232667541
 30
0.0
 10
237.8737043330497
 20
142.4785187334463
 30
0.0
 10
237.8737043330497
 20
143.2758196060784
 30
0.0
 10
237.8737043330497
 20
144.4057731857406
 30
0.0
 10
237.8737043330497
 20
145.8322327997247
 30
0.0
 10
237.8737043330497
 20
147.5295434140746
 30
0.0
 10
237.8737043330497
 20
149.4610567638541
 30
0.0
 10
237.8737043330497
 20
151.5999667638545
 30
0.0
 10
237.8737043330497
 20
153.9320165067416
 30
0.0
 10
237.8737043330497
 20
156.4535871729676
 30
0.0
 10
237.8737043330497
 20
159.1343754434115
 30
0.0
 10
237.8737043330497
 20
161.9450471889561
 30
0.0
 10
237.8737043330497
 20
164.8234331566882
 30
0.0
 10
237.8737043330497
 20
167.7055000135151
 30
0.0
 10
237.8737043330497
 20
170.5594281643811
 30
0.0
 10
237.8737043330497
 20
172.4018814506789
 30
0.0
 10
237.8737043330497
 20
173.3230660685171
 30
0.0
  0
ARC
  5
269
330
1F
100
AcDbEntity
  8
0
  6
Continuous
 62
     7
370
    25
100
AcDbCircle
 10
236.873704333
 20
141.8884204778
 30
0.0
 40
1.000000000000004
100
AcDbArc
 50
251.8611566644
 51
0.0
  0
SPLINE
  5
26A
330
1F
100
AcDbEntity
  8
0
  6
Continuous
 62
     7
370
    25
100
AcDbSpline
210
0.0
220
0.0
230
1.0
 70
     8
 71
     3
 72
    21
 73
    17
 74
     0
 42
0.000000001
 43
0.00000001
 40
0.0
 40
0.0
 40
0.0
 40
0.0
 40
0.0666296955451842
 40
0.1320811422561028
 40
0.1963545353695573
 40
0.2594500864943898
 40
0.3213680247550557
 40
0.3821085980454101
 40
0.4998924034104703
 40
0.6177260152834626
 40
0.6784925550582811
 40
0.7404370985414379
 40
0.803559893982947
 40
0.8678611708339825
 40
0.9333411410027589
 40
1.0
 40
1.0
 40
1.0
 40
1.0
 10
237.8737043330497
 20
173.3160627613137
 30
0.0
 10
238.1135087311364
 20
173.5980797678859
 30
0.0
 10
238.5888769368315
 20
174.1571267222343
 30
0.0
 10
239.4144539788906
 20
174.874209914364
 30
0.0
 10
240.2950634292334
 20
175.4853842566588
 30
0.0
 10
241.2241579757334
 20
175.9808198006292
 30
0.0
 10
242.1843654027396
 20
176.3619160582331
 30
0.0
 10
243.4735877939883
 20
176.7150553587191
 30
0.0
 10
245.1221705091214
 20
176.8915469189811
 30
0.0
 10
246.7709719267598
 20
176.7156048596353
 30
0.0
 10
248.0608418240685
 20
176.3626688646184
 30
0.0
 10
249.0215503544568
 20
175.9816266308216
 30
0.0
 10
249.951136661984
 20
175.486142520865
 30
0.0
 10
250.8322080481847
 20
174.8748152893826
 30
0.0
 10
251.6582056093352
 20
174.1574843479258
 30
0.0
 10
252.1337904337612
 20
173.5981998596745
 30
0.0
 10
252.3737043330497
 20
173.3160627613137
 30
0.0
  0
LINE
  5
26B
330
1F
100
AcDbEntity
  8
0
  6
Continuous
 62
     7
370
    25
100
AcDbLine
 10
245.123704333
 20
167.0715001148
 30
0.0
 11
245.123704333
 21
167.1589827897
 31
0.0
  0
LINE
  5
26C
330
1F
100
AcDbEntity
  8
0
  6
Continuous
 62
     7
370
    25
100
AcDbLine
 10
237.873704333
 20
151.0715001148
 30
0.0
 11
245.123704333
 21
151.0715001148
 31
0.0
  0
LINE
  5
26D
330
1F
100
AcDbEntity
  8
0
  6
Continuous
 62
     7
370
    25
100
AcDbLine
 10
252.4176946332
 20
141.5950854239
 30
0.0
 11
252.0237043331
 21
141.4855664793
 31
0.0
  0
LINE
  5
26E
330
1F
100
AcDbEntity
  8
0
  6
Continuous
 62
     7
370
    25
100
AcDbLine
 10
238.1237043331
 20
141.5127442765
 30
0.0
 11
237.8297140329
 21
141.5950854239
 31
0.0
  0
LINE
  5
26F
330
1F
100
AcDbEntity
  8
0
  6
Continuous
 62
     7
370
    25
100
AcDbLine
 10
252.9011355844
 20
141.0071266688
 30
0.0
 11
252.0237043331
 21
140.761235958
 31
0.0
  0
LWPOLYLINE
  5
270
330
1F
100
AcDbEntity
  8
0
  6
Continuous
 62
     7
370
    25
100
AcDbPolyline
 90
        3
 70
   128
 43
0.0
 10
238.1237043331
 20
140.7876647782
 10
237.5783452147
 20
140.9390001239
 10
237.3462730817
 20
141.0071266688
  0
LWPOLYLINE
  5
271
330
1F
100
AcDbEntity
  8
0
  6
Continuous
 62
     7
370
    25
100
AcDbPolyline
 90
        3
 70
   128
 43
0.0
 10
253.6850250878
 20
140.9381155859
 10
252.2412280734
 20
140.5085398918
 10
252.0237043331
 20
140.4512071036
  0
LWPOLYLINE
  5
272
330
1F
100
AcDbEntity
  8
0
  6
Continuous
 62
     7
370
    25
100
AcDbPolyline
 90
        3
 70
   128
 43
0.0
 10
238.1237043331
 20
140.4773278208
 10
238.0061805927
 20
140.5085398918
 10
236.5623835783
 20
140.9381155859
  0
SPLINE
  5
273
330
1F
100
AcDbEntity
  8
0
  6
Continuous
 62
     7
370
    25
100
AcDbSpline
210
0.0
220
0.0
230
1.0
 70
     8
 71
     3
 72
    10
 73
     6
 74
     0
 42
0.000000001
 43
0.00000001
 40
0.0
 40
0.0
 40
0.0
 40
0.0
 40
0.4250051278973428
 40
0.8500113469839795
 40
1.0
 40
1.0
 40
1.0
 40
1.0
 10
243.7163411660311
 20
151.0715001147757
 30
0.0
 10
243.9391481476345
 20
151.0474748969132
 30
0.0
 10
244.3847626828923
 20
150.9994243995042
 30
0.0
 10
244.8797406988132
 20
150.7513895369403
 30
0.0
 10
245.073231769723
 20
150.517146653523
 30
0.0
 10
245.1237043330526
 20
150.4560438919734
 30
0.0
  0
SPLINE
  5
274
330
1F
100
AcDbEntity
  8
0
  6
Continuous
 62
     7
370
    25
100
AcDbSpline
210
0.0
220
0.0
230
1.0
 70
     8
 71
     3
 72
    10
 73
     6
 74
     0
 42
0.000000001
 43
0.00000001
 40
0.0
 40
0.0
 40
0.0
 40
0.0
 40
0.4565185991709915
 40
0.9130383721838041
 40
1.0
 40
1.0
 40
1.0
 40
1.0
 10
243.7888817655411
 20
151.0715001147757
 30
0.0
 10
244.0110564563678
 20
151.0468389957595
 30
0.0
 10
244.4554064092968
 20
150.9975166943162
 30
0.0
 10
244.9231424892584
 20
150.7735681776343
 30
0.0
 10
245.0960393679063
 20
150.5700963936737
 30
0.0
 10
245.1237043330526
 20
150.5375391846857
 30
0.0
  0
LINE
  5
275
330
1F
100
AcDbEntity
  8
0
  6
Continuous
 62
     7
370
    25
100
AcDbLine
 10
252.3872912563
 20
145.8635102563
 30
0.0
 11
252.0237043331
 21
145.7761805079
 31
0.0
  0
LINE
  5
276
330
1F
100
AcDbEntity
  8
0
  6
Continuous
 62
     7
370
    25
100
AcDbLine
 10
252.3880123126
 20
145.827493434
 30
0.0
 11
252.0237043331
 21
145.7405557598
 31
0.0
  0
LWPOLYLINE
  5
277
330
1F
100
AcDbEntity
  8
0
  6
Continuous
 62
     7
370
    25
100
AcDbPolyline
 90
        3
 70
   128
 43
0.0
 10
252.3737043536
 20
142.4153142844
 10
252.0574813518
 20
142.3245258299
 10
252.0237043331
 20
142.3150868043
  0
LINE
  5
278
330
1F
100
AcDbEntity
  8
0
  6
Continuous
 62
     7
370
    25
100
AcDbLine
 10
238.1237043331
 20
142.3431762735
 30
0.0
 11
237.8737043125
 21
142.4153142844
 31
0.0
  0
LINE
  5
279
330
1F
100
AcDbEntity
  8
0
  6
Continuous
 62
     7
370
    25
100
AcDbLine
 10
238.1237043331
 20
144.6382658406
 30
0.0
 11
237.8565233869
 21
144.7233887607
 31
0.0
  0
LWPOLYLINE
  5
27A
330
1F
100
AcDbEntity
  8
0
  6
Continuous
 62
     7
370
    25
100
AcDbPolyline
 90
        3
 70
   128
 43
0.0
 10
252.378891597
 20
146.8336320622
 10
252.2362345738
 20
146.7880472925
 10
252.0237043331
 20
146.7296501493
  0
LINE
  5
27B
330
1F
100
AcDbEntity
  8
0
  6
Continuous
 62
     7
370
    25
100
AcDbLine
 10
252.0237043331
 20
146.1035667599
 30
0.0
 11
252.373704333
 21
146.260622488
 31
0.0
  0
LINE
  5
27C
330
1F
100
AcDbEntity
  8
0
  6
Continuous
 62
     7
370
    25
100
AcDbLine
 10
252.0237043331
 20
146.4323863575
 30
0.0
 11
252.373704333
 21
146.5894420856
 31
0.0
  0
LINE
  5
27D
330
1F
100
AcDbEntity
  8
0
  6
Continuous
 62
     7
370
    25
100
AcDbLine
 10
245.1237043331
 20
167.9445901101
 30
0.0
 11
245.1237043331
 21
167.1589827897
 31
0.0
  0
LINE
  5
27E
330
1F
100
AcDbEntity
  8
0
  6
Continuous
 62
     7
370
    25
100
AcDbLine
 10
252.373704333
 20
167.9445901101
 30
0.0
 11
245.1237043331
 21
167.9445901101
 31
0.0
  0
LINE
  5
27F
330
1F
100
AcDbEntity
  8
0
  6
Continuous
 62
     7
370
    25
100
AcDbLine
 10
252.373704333
 20
167.1589827897
 30
0.0
 11
245.1237043331
 21
167.1589827897
 31
0.0
  0
LINE
  5
280
330
1F
100
AcDbEntity
  8
0
  6
Continuous
 62
     7
370
    25
100
AcDbLine
 10
252.373704333
 20
168.642887775
 30
0.0
 11
245.1237043331
 21
168.642887775
 31
0.0
  0
LINE
  5
281
330
1F
100
AcDbEntity
  8
0
  6
Continuous
 62
     7
370
    25
100
AcDbLine
 10
245.1237043331
 20
168.642887775
 30
0.0
 11
245.1237043331
 21
167.9445901101
 31
0.0
  0
LINE
  5
282
330
1F
100
AcDbEntity
  8
0
  6
Continuous
 62
     7
370
    25
100
AcDbLine
 10
252.373704333
 20
169.4690945664
 30
0.0
 11
245.1237043331
 21
169.4690945664
 31
0.0
  0
LINE
  5
283
330
1F
100
AcDbEntity
  8
0
  6
Continuous
 62
     7
370
    25
100
AcDbLine
 10
245.1237043331
 20
169.4690945664
 30
0.0
 11
245.1237043331
 21
168.642887775
 31
0.0
  0
LINE
  5
284
330
1F
100
AcDbEntity
  8
0
  6
Continuous
 62
     7
370
    25
100
AcDbLine
 10
252.373704333
 20
170.0980590795
 30
0.0
 11
245.1237043331
 21
170.0980590795
 31
0.0
  0
LINE
  5
285
330
1F
100
AcDbEntity
  8
0
  6
Continuous
 62
     7
370
    25
100
AcDbLine
 10
245.1237043331
 20
170.0980590795
 30
0.0
 11
245.1237043331
 21
169.4690945664
 31
0.0
  0
LINE
  5
286
330
1F
100
AcDbEntity
  8
0
  6
Continuous
 62
     7
370
    25
100
AcDbLine
 10
252.373704333
 20
170.9733819697
 30
0.0
 11
245.1237043331
 21
170.9733819697
 31
0.0
  0
LINE
  5
287
330
1F
100
AcDbEntity
  8
0
  6
Continuous
 62
     7
370
    25
100
AcDbLine
 10
245.1237043331
 20
170.9733819697
 30
0.0
 11
245.1237043331
 21
170.0980590795
 31
0.0
  0
LINE
  5
288
330
1F
100
AcDbEntity
  8
0
  6
Continuous
 62
     7
370
    25
100
AcDbLine
 10
252.373704333
 20
171.5277097615
 30
0.0
 11
245.1237043331
 21
171.5277097615
 31
0.0
  0
LINE
  5
289
330
1F
100
AcDbEntity
  8
0
  6
Continuous
 62
     7
370
    25
100
AcDbLine
 10
245.1237043331
 20
171.5277097615
 30
0.0
 11
245.1237043331
 21
170.9733819697
 31
0.0
  0
SPLINE
  5
28A
330
1F
100
AcDbEntity
  8
0
  6
Continuous
 62
     7
370
    25
100
AcDbSpline
210
0.0
220
0.0
230
1.0
 70
     8
 71
     3
 72
    12
 73
     8
 74
     0
 42
0.000000001
 43
0.00000001
 40
0.0
 40
0.0
 40
0.0
 40
0.0
 40
0.227121944582045
 40
0.4146912780505343
 40
0.6077765249592578
 40
0.8023475260686319
 40
0.9999999999999999
 40
0.9999999999999999
 40
0.9999999999999999
 40
0.9999999999999999
 10
251.4584130044349
 20
163.4362910493911
 30
0.0
 10
250.9891133351016
 20
163.2717882223439
 30
0.0
 10
250.1322411379979
 20
162.9714302462943
 30
0.0
 10
248.8755032912195
 20
162.5326378884237
 30
0.0
 10
247.670629922535
 20
162.1664755347338
 30
0.0
 10
246.4163325625707
 20
161.8798993107909
 30
0.0
 10
245.5568312775958
 20
161.8395568857202
 30
0.0
 10
245.1237043330527
 20
161.8192271996432
 30
0.0
  0
LINE
  5
28B
330
1F
100
AcDbEntity
  8
0
  6
Continuous
 62
     7
370
    25
100
AcDbLine
 10
245.1237043331
 20
161.8192271996
 30
0.0
 11
245.1237043331
 21
167.0715001148
 31
0.0
  0
SPLINE
  5
28C
330
1F
100
AcDbEntity
  8
0
  6
Continuous
 62
     7
370
    25
100
AcDbSpline
210
0.0
220
0.0
230
1.0
 70
    24
 71
     3
 72
    13
 73
     9
 74
     0
 42
0.000000001
 43
0.00000001
 40
0.0
 40
0.0
 40
0.0
 40
0.0
 40
0.133105286574682
 40
0.2683576695659863
 40
0.4448657928091594
 40
0.6264926635838944
 40
0.8103412990052136
 40
1.0
 40
1.0
 40
1.0
 40
1.0
 10
245.1237043330527
 20
153.732328914427
 30
0.0
 10
245.1237043330527
 20
153.9903321895257
 30
0.0
 10
245.1237043330527
 20
154.5105005421704
 30
0.0
 10
245.1237043330527
 20
155.5389877979374
 30
0.0
 10
245.1237043330527
 20
156.81408698491
 30
0.0
 10
245.1237043330527
 20
158.3621787901142
 30
0.0
 10
245.1237043330527
 20
160.0505333861155
 30
0.0
 10
245.1237043330527
 20
161.2235801810954
 30
0.0
 10
245.1237043330527
 20
161.8192271996432
 30
0.0
  0
LINE
  5
28D
330
1F
100
AcDbEntity
  8
0
  6
Continuous
 62
     7
370
    25
100
AcDbLine
 10
252.373704333
 20
172.4447678319
 30
0.0
 11
245.1237043331
 21
172.4447678319
 31
0.0
  0
LINE
  5
28E
330
1F
100
AcDbEntity
  8
0
  6
Continuous
 62
     7
370
    25
100
AcDbLine
 10
245.1237043331
 20
172.4447678319
 30
0.0
 11
245.1237043331
 21
171.5277097615
 31
0.0
  0
LINE
  5
28F
330
1F
100
AcDbEntity
  8
0
  6
Continuous
 62
     7
370
    25
100
AcDbLine
 10
252.373704333
 20
172.9197846864
 30
0.0
 11
245.1237043331
 21
172.9197846864
 31
0.0
  0
LINE
  5
290
330
1F
100
AcDbEntity
  8
0
  6
Continuous
 62
     7
370
    25
100
AcDbLine
 10
245.1237043331
 20
172.9197846864
 30
0.0
 11
245.1237043331
 21
172.4447678319
 31
0.0
  0
LINE
  5
291
330
1F
100
AcDbEntity
  8
0
  6
Continuous
 62
     7
370
    25
100
AcDbLine
 10
251.8771378229
 20
173.8708450982
 30
0.0
 11
245.1237043331
 21
173.8708450982
 31
0.0
  0
LINE
  5
292
330
1F
100
AcDbEntity
  8
0
  6
Continuous
 62
     7
370
    25
100
AcDbLine
 10
245.1237043331
 20
173.8708450982
 30
0.0
 11
245.1237043331
 21
172.9197846864
 31
0.0
  0
LINE
  5
293
330
1F
100
AcDbEntity
  8
0
  6
Continuous
 62
     7
370
    25
100
AcDbLine
 10
251.4977010731
 20
174.2625455669
 30
0.0
 11
245.1237043331
 21
174.2625455669
 31
0.0
  0
LINE
  5
294
330
1F
100
AcDbEntity
  8
0
  6
Continuous
 62
     7
370
    25
100
AcDbLine
 10
245.1237043331
 20
174.2625455669
 30
0.0
 11
245.1237043331
 21
173.8708450982
 31
0.0
  0
LINE
  5
295
330
1F
100
AcDbEntity
  8
0
  6
Continuous
 62
     7
370
    25
100
AcDbLine
 10
250.2707855675
 20
175.2395887659
 30
0.0
 11
245.1237043331
 21
175.2395887659
 31
0.0
  0
LINE
  5
296
330
1F
100
AcDbEntity
  8
0
  6
Continuous
 62
     7
370
    25
100
AcDbLine
 10
245.1237043331
 20
175.2395887659
 30
0.0
 11
245.1237043331
 21
174.2625455669
 31
0.0
  0
LINE
  5
297
330
1F
100
AcDbEntity
  8
0
  6
Continuous
 62
     7
370
    25
100
AcDbLine
 10
249.7983780084
 20
175.5446699429
 30
0.0
 11
245.1237043331
 21
175.5446699429
 31
0.0
  0
LINE
  5
298
330
1F
100
AcDbEntity
  8
0
  6
Continuous
 62
     7
370
    25
100
AcDbLine
 10
245.1237043331
 20
175.5446699429
 30
0.0
 11
245.1237043331
 21
175.2395887659
 31
0.0
  0
LINE
  5
299
330
1F
100
AcDbEntity
  8
0
  6
Continuous
 62
     7
370
    25
100
AcDbLine
 10
245.7433211966
 20
176.7553466545
 30
0.0
 11
245.1237043331
 21
176.7553466545
 31
0.0
  0
LINE
  5
29A
330
1F
100
AcDbEntity
  8
0
  6
Continuous
 62
     7
370
    25
100
AcDbLine
 10
247.3446378494
 20
176.539457282
 30
0.0
 11
245.1237043331
 21
176.539457282
 31
0.0
  0
LINE
  5
29B
330
1F
100
AcDbEntity
  8
0
  6
Continuous
 62
     7
370
    25
100
AcDbLine
 10
245.1237043331
 20
176.7553466545
 30
0.0
 11
245.1237043331
 21
176.539457282
 31
0.0
  0
LINE
  5
29C
330
1F
100
AcDbEntity
  8
0
  6
Continuous
 62
     7
370
    25
100
AcDbLine
 10
245.1237043331
 20
176.539457282
 30
0.0
 11
245.1237043331
 21
175.5446699429
 31
0.0
  0
LINE
  5
29D
330
1F
100
AcDbEntity
  8
0
  6
Continuous
 62
     7
370
    25
100
AcDbLine
 10
251.8737043331
 20
148.0715001148
 30
0.0
 11
245.1237043331
 21
148.0715001148
 31
0.0
  0
SPLINE
  5
29E
330
1F
100
AcDbEntity
  8
0
  6
Continuous
 62
     7
370
    25
100
AcDbSpline
210
0.0
220
0.0
230
1.0
 70
    24
 71
     3
 72
    13
 73
     9
 74
     0
 42
0.000000001
 43
0.00000001
 40
0.0
 40
0.0
 40
0.0
 40
0.0
 40
0.1765037563988075
 40
0.3581261336903943
 40
0.5346298900891994
 40
0.7162522673807866
 40
0.8568564423611942
 40
1.0
 40
1.0
 40
1.0
 40
1.0
 10
245.1237043330527
 20
148.0715001147757
 30
0.0
 10
245.1237043330527
 20
148.4594572801507
 30
0.0
 10
245.1237043330528
 20
149.2466223949785
 30
0.0
 10
245.1237043330527
 20
150.3888525763117
 30
0.0
 10
245.1237043330527
 20
151.4760996883958
 30
0.0
 10
245.1237043330527
 20
152.3890435404978
 30
0.0
 10
245.1237043330527
 20
153.1510065527844
 30
0.0
 10
245.1237043330527
 20
153.5374021195275
 30
0.0
 10
245.1237043330527
 20
153.732328914427
 30
0.0
  0
LINE
  5
29F
330
1F
100
AcDbEntity
  8
0
  6
Continuous
 62
     7
370
    25
100
AcDbLine
 10
245.1237043331
 20
176.8206217155
 30
0.0
 11
245.1237043331
 21
176.7553466545
 31
0.0
  0
SPLINE
  5
2A0
330
1F
100
AcDbEntity
  8
0
  6
Continuous
 62
     7
370
    25
100
AcDbSpline
210
0.0
220
0.0
230
1.0
 70
     8
 71
     3
 72
     9
 73
     5
 74
     0
 42
0.000000001
 43
0.00000001
 40
0.0
 40
0.0
 40
0.0
 40
0.0
 40
0.8430475497922123
 40
0.9999999999999999
 40
0.9999999999999999
 40
0.9999999999999999
 40
0.9999999999999999
 10
252.089968927169
 20
148.0820560666868
 30
0.0
 10
252.1532242664324
 20
148.2782580554166
 30
0.0
 10
252.2282560238687
 20
148.5109875008414
 30
0.0
 10
252.3539727801233
 20
148.6613685499788
 30
0.0
 10
252.3737043330497
 20
148.6849712241058
 30
0.0
  0
LINE
  5
2A1
330
1F
100
AcDbEntity
  8
0
  6
Continuous
 62
     7
370
    25
100
AcDbLine
 10
252.0899717498
 20
148.0820667571
 30
0.0
 11
251.8737043331
 21
148.0715001148
 31
0.0
  0
LINE
  5
2A2
330
1F
100
AcDbEntity
  8
0
  6
Continuous
 62
     7
370
    25
100
AcDbLine
 10
245.1237043331
 20
150.0715001148
 30
0.0
 11
237.8535440326
 21
150.0715001148
 31
0.0
  0
LINE
  5
2A3
330
1F
100
AcDbEntity
  8
0
  6
Continuous
 62
     7
370
    25
100
AcDbLine
 10
252.0237043331
 20
147.5715001148
 30
0.0
 11
252.0899717497
 21
148.0820667569
 31
0.0
  0
LINE
  5
2A4
330
1F
100
AcDbEntity
  8
0
  6
Continuous
 62
     7
370
    25
100
AcDbLine
 10
252.0237043331
 20
147.5715001148
 30
0.0
 11
252.0237043331
 21
135.0715001148
 31
0.0
  0
SPLINE
  5
2A5
330
1F
100
AcDbEntity
  8
0
  6
Continuous
 62
     7
370
    25
100
AcDbSpline
210
0.0
220
0.0
230
1.0
 70
     8
 71
     3
 72
    16
 73
    12
 74
     0
 42
0.000000001
 43
0.00000001
 40
0.0
 40
0.0
 40
0.0
 40
0.0
 40
0.1510018041512597
 40
0.3069673334129236
 40
0.4137023534625022
 40
0.5230868743377904
 40
0.606043433936911
 40
0.6911590487562769
 40
0.7742458215972681
 40
0.8606566454818024
 40
1.0
 40
1.0
 40
1.0
 40
1.0
 10
254.1237043330528
 20
130.9984177438924
 30
0.0
 10
254.1067752293085
 20
131.0102148760988
 30
0.0
 10
254.0723605290164
 20
131.0341969353572
 30
0.0
 10
253.8230218206442
 20
131.2232653941917
 30
0.0
 10
253.5029768807104
 20
131.5124735626445
 30
0.0
 10
253.1885105477997
 20
131.8502687984695
 30
0.0
 10
252.8752478971209
 20
132.2652354893952
 30
0.0
 10
252.5937209435485
 20
132.7283853987817
 30
0.0
 10
252.3404962581686
 20
133.2858161318873
 30
0.0
 10
252.0922407676412
 20
134.0543779887854
 30
0.0
 10
252.0498619918731
 20
134.6833046431266
 30
0.0
 10
252.0237043330527
 20
135.0715001147757
 30
0.0
  0
ARC
  5
2A6
330
1F
100
AcDbEntity
  8
0
  6
Continuous
 62
     7
370
    25
100
AcDbCircle
 10
227.2026573939
 20
124.0715001148
 30
0.0
 40
9.063392217620036
100
AcDbArc
 50
349.832040174
 51
10.167959826
  0
LINE
  5
2A7
330
1F
100
AcDbEntity
  8
0
  6
Continuous
 62
     7
370
    25
100
AcDbLine
 10
236.1237043331
 20
120.0715001148
 30
0.0
 11
254.1237043331
 21
120.0715001148
 31
0.0
  0
SPLINE
  5
2A8
330
1F
100
AcDbEntity
  8
0
  6
Continuous
 62
     7
370
    25
100
AcDbSpline
210
0.0
220
0.0
230
1.0
 70
     8
 71
     3
 72
    15
 73
    11
 74
     0
 42
0.000000001
 43
0.00000001
 40
0.0
 40
0.0
 40
0.0
 40
0.0
 40
0.1385761222398607
 40
0.276900143828353
 40
0.4170428887371752
 40
0.5165875243916248
 40
0.6189837709898138
 40
0.7490771688722074
 40
0.882888953265023
 40
1.0
 40
1.0
 40
1.0
 40
1.0
 10
238.2237043330527
 20
135.0715001147757
 30
0.0
 10
238.1971467990426
 20
134.6859371504522
 30
0.0
 10
238.1440800450574
 20
133.9155126462128
 30
0.0
 10
237.7621437432168
 20
132.9018998820078
 30
0.0
 10
237.3346711543321
 20
132.1967511540597
 30
0.0
 10
236.9528057208275
 20
131.7294047896878
 30
0.0
 10
236.6227578617159
 20
131.39605477829
 30
0.0
 10
236.3406627702284
 20
131.1577930194492
 30
0.0
 10
236.1559022328999
 20
131.021056427401
 30
0.0
 10
236.1339499380923
 20
131.0056215370263
 30
0.0
 10
236.1237043330527
 20
130.9984177438924
 30
0.0
  0
LINE
  5
2A9
330
1F
100
AcDbEntity
  8
0
  6
Continuous
 62
     7
370
    25
100
AcDbLine
 10
238.2237043331
 20
147.5715001148
 30
0.0
 11
238.2237043331
 21
135.0715001148
 31
0.0
  0
SPLINE
  5
2AA
330
1F
100
AcDbEntity
  8
0
  6
Continuous
 62
     7
370
    25
100
AcDbSpline
210
0.0
220
0.0
230
1.0
 70
     8
 71
     3
 72
    10
 73
     6
 74
     0
 42
0.000000001
 43
0.00000001
 40
0.0
 40
0.0
 40
0.0
 40
0.0
 40
0.3633360264761431
 40
0.7356645383077011
 40
0.9999999999999999
 40
0.9999999999999999
 40
0.9999999999999999
 40
0.9999999999999999
 10
237.8737043330497
 20
148.6872758425567
 30
0.0
 10
237.9424067318202
 20
148.5798941419606
 30
0.0
 10
238.081511898358
 20
148.3624730677061
 30
0.0
 10
238.2033546829095
 20
147.9591163358306
 30
0.0
 10
238.2177341471063
 20
147.6852190681371
 30
0.0
 10
238.2237043330527
 20
147.5715001147757
 30
0.0
  0
LINE
  5
2AB
330
1F
100
AcDbEntity
  8
0
  6
Continuous
 62
     7
370
    25
100
AcDbLine
 10
238.1237043331
 20
148.1959999146
 30
0.0
 11
238.1237043331
 21
134.0765126777
 31
0.0
  0
LINE
  5
2AC
330
1F
100
AcDbEntity
  8
0
  6
Continuous
 62
     8
370
    25
100
AcDbLine
 10
245.1237043331
 20
118.5715001148
 30
0.0
 11
220.1237043331
 21
118.5715001148
 31
0.0
  0
LINE
  5
2AD
330
1F
100
AcDbEntity
  8
0
  6
Continuous
 62
     8
370
    25
100
AcDbLine
 10
270.1237043331
 20
118.5715001148
 30
0.0
 11
245.1237043331
 21
118.5715001148
 31
0.0
  0
SPLINE
  5
2AE
330
1F
100
AcDbEntity
  8
0
  6
Continuous
 62
     8
370
    25
100
AcDbSpline
210
0.0
220
0.0
230
1.0
 70
     8
 71
     3
 72
     9
 73
     5
 74
     0
 42
0.000000001
 43
0.00000001
 40
0.0
 40
0.0
 40
0.0
 40
0.0
 40
0.2489948951116472
 40
1.0
 40
1.0
 40
1.0
 40
1.0
 10
252.8016827361146
 20
141.0909820456657
 30
0.0
 10
252.7386822317538
 20
141.0686502883005
 30
0.0
 10
252.4856629707263
 20
140.9789626770139
 30
0.0
 10
252.2218381329894
 20
140.9268574066365
 30
0.0
 10
252.0237043330526
 20
140.8877260825915
 30
0.0
  0
SPLINE
  5
2AF
330
1F
100
AcDbEntity
  8
0
  6
Continuous
 62
     8
370
    25
100
AcDbSpline
210
0.0
220
0.0
230
1.0
 70
     8
 71
     3
 72
     9
 73
     5
 74
     0
 42
0.000000001
 43
0.00000001
 40
0.0
 40
0.0
 40
0.0
 40
0.0
 40
0.7159612359230482
 40
0.9999999999999999
 40
0.9999999999999999
 40
0.9999999999999999
 40
0.9999999999999999
 10
238.1237043330526
 20
140.9113053497826
 30
0.0
 10
237.9591579963021
 20
140.9440943915507
 30
0.0
 10
237.7293322341036
 20
140.989891622075
 30
0.0
 10
237.5089243330865
 20
141.0684434512317
 30
0.0
 10
237.4463199452888
 20
141.0907552157013
 30
0.0
  0
SPLINE
  5
2B0
330
1F
100
AcDbEntity
  8
0
  6
Continuous
 62
     8
370
    25
100
AcDbSpline
210
0.0
220
0.0
230
1.0
 70
     8
 71
     3
 72
     9
 73
     5
 74
     0
 42
0.000000001
 43
0.00000001
 40
0.0
 40
0.0
 40
0.0
 40
0.0
 40
0.360162599015691
 40
1.0
 40
1.0
 40
1.0
 40
1.0
 10
253.0203289712094
 20
140.9544462667895
 30
0.0
 10
252.9034136741466
 20
140.9122918991798
 30
0.0
 10
252.5787955783689
 20
140.7952492975191
 30
0.0
 10
252.2402917456211
 20
140.7265002301677
 30
0.0
 10
252.0237043330526
 20
140.6825120055935
 30
0.0
  0
SPLINE
  5
2B1
330
1F
100
AcDbEntity
  8
0
  6
Continuous
 62
     8
370
    25
100
AcDbSpline
210
0.0
220
0.0
230
1.0
 70
     8
 71
     3
 72
     9
 73
     5
 74
     0
 42
0.000000001
 43
0.00000001
 40
0.0
 40
0.0
 40
0.0
 40
0.0
 40
0.5826002121005666
 40
0.9999999999999999
 40
0.9999999999999999
 40
0.9999999999999999
 40
0.9999999999999999
 10
238.1237043330526
 20
140.706049433007
 30
0.0
 10
237.9410571961372
 20
140.7436691925972
 30
0.0
 10
237.6275538140205
 20
140.8082413620005
 30
0.0
 10
237.3269203032424
 20
140.9175755871765
 30
0.0
 10
237.2014359396082
 20
140.9632116695751
 30
0.0
  0
SPLINE
  5
2B2
330
1F
100
AcDbEntity
  8
0
  6
Continuous
 62
     8
370
    25
100
AcDbSpline
210
0.0
220
0.0
230
1.0
 70
     8
 71
     3
 72
     9
 73
     5
 74
     0
 42
0.000000001
 43
0.00000001
 40
0.0
 40
0.0
 40
0.0
 40
0.0
 40
0.4490113834678514
 40
0.9999999999999999
 40
0.9999999999999999
 40
0.9999999999999999
 40
0.9999999999999999
 10
253.2267995223729
 20
140.9193330437461
 30
0.0
 10
253.050632431938
 20
140.8549592640881
 30
0.0
 10
252.658288057338
 20
140.711591451983
 30
0.0
 10
252.24914016449
 20
140.6266671123404
 30
0.0
 10
252.0237043330526
 20
140.5798747679308
 30
0.0
  0
SPLINE
  5
2B3
330
1F
100
AcDbEntity
  8
0
  6
Continuous
 62
     8
370
    25
100
AcDbSpline
210
0.0
220
0.0
230
1.0
 70
     8
 71
     3
 72
     9
 73
     5
 74
     0
 42
0.000000001
 43
0.00000001
 40
0.0
 40
0.0
 40
0.0
 40
0.0
 40
0.5180351645910172
 40
1.0
 40
1.0
 40
1.0
 40
1.0
 10
238.1237043330526
 20
140.6034532365004
 30
0.0
 10
237.9317723326807
 20
140.6436126543156
 30
0.0
 10
237.5612723869415
 20
140.7211352252919
 30
0.0
 10
237.2059960417513
 20
140.8516043215917
 30
0.0
 10
237.034765336517
 20
140.9144858381157
 30
0.0
  0
LINE
  5
2B4
330
1F
100
AcDbEntity
  8
0
  6
Continuous
 62
     8
370
    25
100
AcDbLine
 10
252.373704333
 20
147.3664943888
 30
0.0
 11
252.0237043331
 21
147.2689426049
 31
0.0
  0
SPLINE
  5
2B5
330
1F
100
AcDbEntity
  8
0
  6
Continuous
 62
     8
370
    25
100
AcDbSpline
210
0.0
220
0.0
230
1.0
 70
     8
 71
     3
 72
     9
 73
     5
 74
     0
 42
0.000000001
 43
0.00000001
 40
0.0
 40
0.0
 40
0.0
 40
0.0
 40
0.1716876124358492
 40
1.0
 40
1.0
 40
1.0
 40
1.0
 10
252.3737043330497
 20
163.8893074949574
 30
0.0
 10
252.3207610365139
 20
163.8645399702322
 30
0.0
 10
252.0123911093849
 20
163.7202807288471
 30
0.0
 10
251.7093914093784
 20
163.5649518685343
 30
0.0
 10
251.4584130044349
 20
163.4362910493911
 30
0.0
  0
LINE
  5
2B6
330
1F
100
AcDbEntity
  8
0
  6
Continuous
 62
     8
370
    25
100
AcDbLine
 10
245.1237043331
 20
167.0715001148
 30
0.0
 11
252.373704333
 21
167.0715001148
 31
0.0
  0
SPLINE
  5
2B7
330
1F
100
AcDbEntity
  8
0
  6
Continuous
 62
     8
370
    25
100
AcDbSpline
210
0.0
220
0.0
230
1.0
 70
    24
 71
     3
 72
     9
 73
     5
 74
     0
 42
0.000000001
 43
0.00000001
 40
0.0
 40
0.0
 40
0.0
 40
0.0
 40
0.3605825723865743
 40
1.0
 40
1.0
 40
1.0
 40
1.0
 10
252.3737043330497
 20
161.1068203266738
 30
0.0
 10
252.266072365717
 20
161.3807500678302
 30
0.0
 10
251.9675777196215
 20
162.1404366476428
 30
0.0
 10
251.6570011046548
 20
162.9308725548862
 30
0.0
 10
251.458413004436
 20
163.436291049389
 30
0.0
  0
SPLINE
  5
2B8
330
1F
100
AcDbEntity
  8
0
  6
Continuous
 62
     8
370
    25
100
AcDbSpline
210
0.0
220
0.0
230
1.0
 70
     8
 71
     3
 72
     9
 73
     5
 74
     0
 42
0.000000001
 43
0.00000001
 40
0.0
 40
0.0
 40
0.0
 40
0.0
 40
0.1889859679487497
 40
1.0
 40
1.0
 40
1.0
 40
1.0
 10
252.3737043330497
 20
161.7408517061674
 30
0.0
 10
252.3173431813336
 20
161.8452523473115
 30
0.0
 10
252.019113887763
 20
162.3976777060685
 30
0.0
 10
251.7095078474983
 20
162.9711759368603
 30
0.0
 10
251.458413004436
 20
163.4362910493891
 30
0.0
  0
SPLINE
  5
2B9
330
1F
100
AcDbEntity
  8
0
  6
Continuous
 62
     8
370
    25
100
AcDbSpline
210
0.0
220
0.0
230
1.0
 70
     8
 71
     3
 72
    13
 73
     9
 74
     0
 42
0.000000001
 43
0.00000001
 40
0.0
 40
0.0
 40
0.0
 40
0.0
 40
0.1752430723948006
 40
0.3482217033576723
 40
0.5260649226614474
 40
0.6975043114397786
 40
0.9488664961776645
 40
1.0
 40
1.0
 40
1.0
 40
1.0
 10
245.1237043330527
 20
153.732328914427
 30
0.0
 10
245.5643734479807
 20
153.7344318782685
 30
0.0
 10
246.4400174761316
 20
153.7386106320474
 30
0.0
 10
247.7521244400497
 20
153.7734491069767
 30
0.0
 10
249.0354628956321
 20
153.8283522059522
 30
0.0
 10
250.4752109345373
 20
153.9214258531873
 30
0.0
 10
251.5873709270809
 20
154.0118371575689
 30
0.0
 10
252.2600033629775
 20
154.0950107962117
 30
0.0
 10
252.3737043330497
 20
154.109070367076
 30
0.0
  0
ARC
  5
2BA
330
1F
100
AcDbEntity
  8
0
  6
Continuous
 62
     8
370
    25
100
AcDbCircle
 10
260.8875963868
 20
148.0939798036
 30
0.0
 40
9.013920084634249
100
AcDbArc
 50
161.5703271727
 51
180.1428892888
  0
ENDSEC
  0
SECTION
  2
OBJECTS
  0
DICTIONARY
  5
C
330
0
100
AcDbDictionary
281
     1
  3
ACAD_DETAILVIEWSTYLE
350
2E5
  3
ACAD_GROUP
350
D
  3
ACAD_LAYOUT
350
1A
  3
ACAD_MATERIAL
350
2D5
  3
ACAD_MLEADERSTYLE
350
2DB
  3
ACAD_MLINESTYLE
350
17
  3
ACAD_PLOTSETTINGS
350
19
  3
ACAD_PLOTSTYLENAME
350
E
  3
ACAD_SCALELIST
350
47
  3
ACAD_SECTIONVIEWSTYLE
350
2E6
  3
ACAD_TABLESTYLE
350
2D9
  3
ACAD_VISUALSTYLE
350
2BC
  3
ACDB_RECOMPOSE_DATA
350
2E9
  3
AcDbVariableDictionary
350
2E0
  3
APPDATA
350
2DD
  0
DICTIONARY
  5
2DE
330
1F
100
AcDbDictionary
280
     1
281
     1
  3
DIM_BOUNDING_BOXES_V1
360
2DF
  0
DICTIONARY
  5
2E5
102
{ACAD_REACTORS
330
C
102
}
330
C
100
AcDbDictionary
281
     1
  0
DICTIONARY
  5
D
102
{ACAD_REACTORS
330
C
102
}
330
C
100
AcDbDictionary
281
     1
  0
DICTIONARY
  5
1A
102
{ACAD_REACTORS
330
C
102
}
330
C
100
AcDbDictionary
281
     1
  3
Layout1
350
1E
  3
Layout2
350
26
  3
Model
350
22
  0
DICTIONARY
  5
2D5
102
{ACAD_REACTORS
330
C
102
}
330
C
100
AcDbDictionary
281
     1
  3
ByBlock
350
2D7
  3
ByLayer
350
2D6
  3
Global
350
2D8
  0
DICTIONARY
  5
2DB
102
{ACAD_REACTORS
330
C
102
}
330
C
100
AcDbDictionary
281
     1
  3
Standard
350
2DC
  0
DICTIONARY
  5
17
102
{ACAD_REACTORS
330
C
102
}
330
C
100
AcDbDictionary
281
     1
  3
Standard
350
18
  0
DICTIONARY
  5
19
102
{ACAD_REACTORS
330
C
102
}
330
C
100
AcDbDictionary
281
     1
  0
ACDBDICTIONARYWDFLT
  5
E
102
{ACAD_REACTORS
330
C
102
}
330
C
100
AcDbDictionary
281
     1
  3
Normal
350
F
100
AcDbDictionaryWithDefault
340
F
  0
DICTIONARY
  5
47
102
{ACAD_REACTORS
330
C
102
}
330
C
100
AcDbDictionary
281
     1
  3
A0
350
48
  3
A1
350
49
  3
A2
350
4A
  3
A3
350
4B
  3
A4
350
4C
  3
A5
350
4D
  3
A6
350
4E
  3
A7
350
4F
  3
A8
350
50
  3
A9
350
51
  3
B0
350
52
  3
B1
350
53
  3
B2
350
54
  3
B3
350
55
  3
B4
350
56
  3
B5
350
57
  3
B6
350
58
  3
B7
350
59
  3
B8
350
5A
  3
B9
350
5B
  3
C0
350
5C
  3
C1
350
5D
  3
C2
350
5E
  3
C3
350
5F
  3
C4
350
60
  3
C5
350
61
  3
C6
350
62
  3
C7
350
63
  3
C8
350
64
  3
C9
350
65
  3
D0
350
66
  3
D1
350
67
  3
D2
350
68
  0
DICTIONARY
  5
2E6
102
{ACAD_REACTORS
330
C
102
}
330
C
100
AcDbDictionary
281
     1
  0
DICTIONARY
  5
2D9
102
{ACAD_REACTORS
330
C
102
}
330
C
100
AcDbDictionary
281
     1
  3
Standard
350
2DA
  0
DICTIONARY
  5
2BC
102
{ACAD_REACTORS
330
C
102
}
330
C
100
AcDbDictionary
281
     1
  3
2dWireframe
350
2C1
  3
Basic
350
2C4
  3
Brighten
350
2C8
  3
ColorChange
350
2CC
  3
Conceptual
350
2C6
  3
Dim
350
2C7
  3
EdgeColorOff
350
2CF
  3
Facepattern
350
2CB
  3
Flat
350
2BD
  3
FlatWithEdges
350
2BE
  3
Gouraud
350
2BF
  3
GouraudWithEdges
350
2C0
  3
Hidden
350
2C3
  3
JitterOff
350
2CD
  3
Linepattern
350
2CA
  3
OverhangOff
350
2CE
  3
Realistic
350
2C5
  3
Shaded
350
2D4
  3
Shaded with edges
350
2D3
  3
Shades of Gray
350
2D0
  3
Sketchy
350
2D1
  3
Thicken
350
2C9
  3
Wireframe
350
2C2
  3
X-Ray
350
2D2
  0
XRECORD
  5
2E9
102
{ACAD_REACTORS
330
C
102
}
330
C
100
AcDbXrecord
280
     1
 90
        1
330
2DA
  0
DICTIONARY
  5
2E0
102
{ACAD_REACTORS
330
C
102
}
330
C
100
AcDbDictionary
281
     1
  3
CANNOSCALE
350
2E1
  3
CMLEADERSTYLE
350
2E3
  3
CTABLESTYLE
350
2E2
  3
MSLTSCALE
350
2E4
  0
DICTIONARY
  5
2DD
102
{ACAD_REACTORS
330
C
102
}
330
C
100
AcDbDictionary
281
     1
  0
DICTIONARY
  5
2DF
102
{ACAD_REACTORS
330
2DE
102
}
330
2DE
100
AcDbDictionary
281
     1
  0
LAYOUT
  5
1E
102
{ACAD_REACTORS
330
1A
102
}
330
1A
100
AcDbPlotSettings
  1

  2
none_device
  4

  6

 40
0.0
 41
0.0
 42
0.0
 43
0.0
 44
0.0
 45
0.0
 46
0.0
 47
0.0
 48
0.0
 49
0.0
140
0.0
141
0.0
142
1.0
143
1.0
 70
   688
 72
     1
 73
     0
 74
     5
  7

 75
    16
 76
     0
 77
     2
 78
   300
147
1.0
148
0.0
149
0.0
100
AcDbLayout
  1
Layout1
 70
     1
 71
     1
 10
0.0
 20
0.0
 11
420.0
 21
297.0
 12
0.0
 22
0.0
 32
0.0
 14
1.000000000000000E+20
 24
1.000000000000000E+20
 34
1.000000000000000E+20
 15
-1.000000000000000E+20
 25
-1.000000000000000E+20
 35
-1.000000000000000E+20
146
0.0
 13
0.0
 23
0.0
 33
0.0
 16
1.0
 26
0.0
 36
0.0
 17
0.0
 27
1.0
 37
0.0
 76
     0
330
1B
  0
LAYOUT
  5
26
102
{ACAD_REACTORS
330
1A
102
}
330
1A
100
AcDbPlotSettings
  1

  2
none_device
  4

  6

 40
0.0
 41
0.0
 42
0.0
 43
0.0
 44
0.0
 45
0.0
 46
0.0
 47
0.0
 48
0.0
 49
0.0
140
0.0
141
0.0
142
1.0
143
1.0
 70
   688
 72
     1
 73
     0
 74
     5
  7

 75
    16
 76
     0
 77
     2
 78
   300
147
1.0
148
0.0
149
0.0
100
AcDbLayout
  1
Layout2
 70
     1
 71
     2
 10
0.0
 20
0.0
 11
0.0
 21
0.0
 12
0.0
 22
0.0
 32
0.0
 14
0.0
 24
0.0
 34
0.0
 15
0.0
 25
0.0
 35
0.0
146
0.0
 13
0.0
 23
0.0
 33
0.0
 16
1.0
 26
0.0
 36
0.0
 17
0.0
 27
1.0
 37
0.0
 76
     0
330
23
  0
LAYOUT
  5
22
102
{ACAD_REACTORS
330
1A
102
}
330
1A
100
AcDbPlotSettings
  1

  2
none_device
  4
Letter_(8.50_x_11.00_Inches)
  6

 40
6.35
 41
6.35
 42
6.35000508
 43
6.35000508
 44
215.9
 45
279.4
 46
0.0
 47
0.0
 48
0.0
 49
0.0
140
0.0
141
0.0
142
1.0
143
1.0
 70
  1712
 72
     1
 73
     0
 74
     0
  7

 75
     0
 76
     0
 77
     2
 78
   300
147
1.0
148
0.0
149
0.0
100
AcDbLayout
  1
Model
 70
     1
 71
     0
 10
0.0
 20
0.0
 11
420.0
 21
297.0
 12
0.0
 22
0.0
 32
0.0
 14
67.97451064249998
 24
99.5715001148
 34
0.0
 15
272.623704333
 25
194.57151477
 35
0.0
146
0.0
 13
0.0
 23
0.0
 33
0.0
 16
1.0
 26
0.0
 36
0.0
 17
0.0
 27
1.0
 37
0.0
 76
     0
330
1F
331
29
  0
MATERIAL
  5
2D7
102
{ACAD_REACTORS
330
2D5
102
}
330
2D5
100
AcDbMaterial
  1
ByBlock
 72
     1
 94
      127
  0
MATERIAL
  5
2D6
102
{ACAD_REACTORS
330
2D5
102
}
330
2D5
100
AcDbMaterial
  1
ByLayer
 72
     1
 94
      127
  0
MATERIAL
  5
2D8
102
{ACAD_REACTORS
330
2D5
102
}
330
2D5
100
AcDbMaterial
  1
Global
 72
     1
 94
      127
  0
MLEADERSTYLE
  5
2DC
102
{ACAD_REACTORS
330
2DB
102
}
330
2DB
100
AcDbMLeaderStyle
179
     2
170
     2
171
     1
172
     0
 90
        2
 40
0.0
 41
0.0
173
     1
 91
-1056964608
340
14
 92
       -2
290
     1
 42
2.0
291
     1
 43
8.0
  3
Standard
341
0
 44
4.0
300

342
11
174
     1
178
     1
175
     1
176
     0
 93
-1056964608
 45
4.0
292
     0
297
     0
 46
4.0
343
0
 94
-1056964608
 47
1.0
 49
1.0
140
1.0
293
     1
141
0.0
294
     1
177
     0
142
1.0
295
     0
296
     0
143
3.75
271
     0
272
     9
273
     9
298
     0
  0
MLINESTYLE
  5
18
102
{ACAD_REACTORS
330
17
102
}
330
17
100
AcDbMlineStyle
  2
Standard
 70
     0
  3

 62
   256
 51
90.0
 52
90.0
 71
     2
 49
0.5
 62
   256
  6
BYLAYER
 49
-0.5
 62
   256
  6
BYLAYER
  0
ACDBPLACEHOLDER
  5
F
102
{ACAD_REACTORS
330
E
102
}
330
E
  0
SCALE
  5
48
102
{ACAD_REACTORS
330
47
102
}
330
47
100
AcDbScale
 70
     0
300
1:1
140
1.0
141
1.0
290
     1
  0
SCALE
  5
49
102
{ACAD_REACTORS
330
47
102
}
330
47
100
AcDbScale
 70
     0
300
1:2
140
1.0
141
2.0
290
     0
  0
SCALE
  5
4A
102
{ACAD_REACTORS
330
47
102
}
330
47
100
AcDbScale
 70
     0
300
1:4
140
1.0
141
4.0
290
     0
  0
SCALE
  5
4B
102
{ACAD_REACTORS
330
47
102
}
330
47
100
AcDbScale
 70
     0
300
1:5
140
1.0
141
5.0
290
     0
  0
SCALE
  5
4C
102
{ACAD_REACTORS
330
47
102
}
330
47
100
AcDbScale
 70
     0
300
1:8
140
1.0
141
8.0
290
     0
  0
SCALE
  5
4D
102
{ACAD_REACTORS
330
47
102
}
330
47
100
AcDbScale
 70
     0
300
1:10
140
1.0
141
10.0
290
     0
  0
SCALE
  5
4E
102
{ACAD_REACTORS
330
47
102
}
330
47
100
AcDbScale
 70
     0
300
1:16
140
1.0
141
16.0
290
     0
  0
SCALE
  5
4F
102
{ACAD_REACTORS
330
47
102
}
330
47
100
AcDbScale
 70
     0
300
1:20
140
1.0
141
20.0
290
     0
  0
SCALE
  5
50
102
{ACAD_REACTORS
330
47
102
}
330
47
100
AcDbScale
 70
     0
300
1:30
140
1.0
141
30.0
290
     0
  0
SCALE
  5
51
102
{ACAD_REACTORS
330
47
102
}
330
47
100
AcDbScale
 70
     0
300
1:40
140
1.0
141
40.0
290
     0
  0
SCALE
  5
52
102
{ACAD_REACTORS
330
47
102
}
330
47
100
AcDbScale
 70
     0
300
1:50
140
1.0
141
50.0
290
     0
  0
SCALE
  5
53
102
{ACAD_REACTORS
330
47
102
}
330
47
100
AcDbScale
 70
     0
300
1:100
140
1.0
141
100.0
290
     0
  0
SCALE
  5
54
102
{ACAD_REACTORS
330
47
102
}
330
47
100
AcDbScale
 70
     0
300
2:1
140
2.0
141
1.0
290
     0
  0
SCALE
  5
55
102
{ACAD_REACTORS
330
47
102
}
330
47
100
AcDbScale
 70
     0
300
4:1
140
4.0
141
1.0
290
     0
  0
SCALE
  5
56
102
{ACAD_REACTORS
330
47
102
}
330
47
100
AcDbScale
 70
     0
300
8:1
140
8.0
141
1.0
290
     0
  0
SCALE
  5
57
102
{ACAD_REACTORS
330
47
102
}
330
47
100
AcDbScale
 70
     0
300
10:1
140
10.0
141
1.0
290
     0
  0
SCALE
  5
58
102
{ACAD_REACTORS
330
47
102
}
330
47
100
AcDbScale
 70
     0
300
100:1
140
100.0
141
1.0
290
     0
  0
SCALE
  5
59
102
{ACAD_REACTORS
330
47
102
}
330
47
100
AcDbScale
 70
     0
300
1/128" = 1'-0"
140
0.0078125
141
12.0
290
     0
  0
SCALE
  5
5A
102
{ACAD_REACTORS
330
47
102
}
330
47
100
AcDbScale
 70
     0
300
1/64" = 1'-0"
140
0.015625
141
12.0
290
     0
  0
SCALE
  5
5B
102
{ACAD_REACTORS
330
47
102
}
330
47
100
AcDbScale
 70
     0
300
1/32" = 1'-0"
140
0.03125
141
12.0
290
     0
  0
SCALE
  5
5C
102
{ACAD_REACTORS
330
47
102
}
330
47
100
AcDbScale
 70
     0
300
1/16" = 1'-0"
140
0.0625
141
12.0
290
     0
  0
SCALE
  5
5D
102
{ACAD_REACTORS
330
47
102
}
330
47
100
AcDbScale
 70
     0
300
3/32" = 1'-0"
140
0.09375
141
12.0
290
     0
  0
SCALE
  5
5E
102
{ACAD_REACTORS
330
47
102
}
330
47
100
AcDbScale
 70
     0
300
1/8" = 1'-0"
140
0.125
141
12.0
290
     0
  0
SCALE
  5
5F
102
{ACAD_REACTORS
330
47
102
}
330
47
100
AcDbScale
 70
     0
300
3/16" = 1'-0"
140
0.1875
141
12.0
290
     0
  0
SCALE
  5
60
102
{ACAD_REACTORS
330
47
102
}
330
47
100
AcDbScale
 70
     0
300
1/4" = 1'-0"
140
0.25
141
12.0
290
     0
  0
SCALE
  5
61
102
{ACAD_REACTORS
330
47
102
}
330
47
100
AcDbScale
 70
     0
300
3/8" = 1'-0"
140
0.375
141
12.0
290
     0
  0
SCALE
  5
62
102
{ACAD_REACTORS
330
47
102
}
330
47
100
AcDbScale
 70
     0
300
1/2" = 1'-0"
140
0.5
141
12.0
290
     0
  0
SCALE
  5
63
102
{ACAD_REACTORS
330
47
102
}
330
47
100
AcDbScale
 70
     0
300
3/4" = 1'-0"
140
0.75
141
12.0
290
     0
  0
SCALE
  5
64
102
{ACAD_REACTORS
330
47
102
}
330
47
100
AcDbScale
 70
     0
300
1" = 1'-0"
140
1.0
141
12.0
290
     0
  0
SCALE
  5
65
102
{ACAD_REACTORS
330
47
102
}
330
47
100
AcDbScale
 70
     0
300
1-1/2" = 1'-0"
140
1.5
141
12.0
290
     0
  0
SCALE
  5
66
102
{ACAD_REACTORS
330
47
102
}
330
47
100
AcDbScale
 70
     0
300
3" = 1'-0"
140
3.0
141
12.0
290
     0
  0
SCALE
  5
67
102
{ACAD_REACTORS
330
47
102
}
330
47
100
AcDbScale
 70
     0
300
6" = 1'-0"
140
6.0
141
12.0
290
     0
  0
SCALE
  5
68
102
{ACAD_REACTORS
330
47
102
}
330
47
100
AcDbScale
 70
     0
300
1'-0" = 1'-0"
140
12.0
141
12.0
290
     0
  0
TABLESTYLE
  5
2DA
102
{ACAD_REACTORS
330
2D9
102
}
102
{ACAD_XDICTIONARY
360
2E7
102
}
330
2D9
100
AcDbTableStyle
  3
Standard
 70
     0
 71
     0
 40
0.06
 41
0.06
280
     0
281
     0
  7
Standard
140
4.5
170
     2
 62
     0
 63
   257
283
     0
 90
        4
 91
        0
  1

274
    -2
284
     1
 64
     0
275
    -2
285
     1
 65
     0
276
    -2
286
     1
 66
     0
277
    -2
287
     1
 67
     0
278
    -2
288
     1
 68
     0
279
    -2
289
     1
 69
     0
  7
Standard
140
6.0
170
     5
 62
     0
 63
   257
283
     0
 90
        4
 91
        0
  1

274
    -2
284
     1
 64
     0
275
    -2
285
     1
 65
     0
276
    -2
286
     1
 66
     0
277
    -2
287
     1
 67
     0
278
    -2
288
     1
 68
     0
279
    -2
289
     1
 69
     0
  7
Standard
140
4.5
170
     5
 62
     0
 63
   257
283
     0
 90
        4
 91
        0
  1

274
    -2
284
     1
 64
     0
275
    -2
285
     1
 65
     0
276
    -2
286
     1
 66
     0
277
    -2
287
     1
 67
     0
278
    -2
288
     1
 68
     0
279
    -2
289
     1
 69
     0
  0
VISUALSTYLE
  5
2C1
102
{ACAD_REACTORS
330
2BC
102
}
330
2BC
100
AcDbVisualStyle
  2
2dWireframe
 70
     4
177
     3
291
     0
 70
    58
 90
        0
176
     1
 90
        2
176
     1
 90
        0
176
     1
 90
        0
176
     1
 40
0.6
176
     1
 40
30.0
176
     1
 62
     7
420
 16777215
176
     1
 90
        1
176
     1
 90
        4
176
     1
 62
     7
176
     1
 62
   257
176
     1
 90
        1
176
     1
 90
        1
176
     1
 40
1.0
176
     1
 90
        0
176
     1
 62
   257
176
     1
 40
1.0
176
     1
 90
        1
176
     1
 90
        6
176
     1
 90
        2
176
     1
 62
     7
176
     1
 90
        5
176
     1
 90
        0
176
     1
 90
        0
176
     1
290
     0
176
     1
 90
        1
176
     1
 40
0.0
176
     1
 90
        0
176
     1
290
     1
176
     1
290
     1
176
     1
290
     0
176
     1
290
     0
176
     1
290
     0
176
     1
290
     0
176
     1
290
     0
176
     1
290
     0
176
     1
290
     0
176
     1
 90
       50
176
     1
 40
0.0
176
     1
 40
1.0
176
     1
 90
        0
176
     1
 62
    18
420
        0
176
     1
 90
       50
176
     1
 90
        3
176
     1
 62
     5
420
      255
176
     1
290
     0
176
     1
 90
       50
176
     1
 90
       50
176
     1
 90
       50
176
     1
290
     0
176
     1
 90
       50
176
     1
 62
   256
176
     0
 40
1.0
176
     0
 90
        2
176
     1
  1
strokes_ogs.tif
176
     1
290
     0
176
     1
 40
1.0
176
     1
 40
1.0
176
     1
  0
VISUALSTYLE
  5
2C4
102
{ACAD_REACTORS
330
2BC
102
}
330
2BC
100
AcDbVisualStyle
  2
Basic
 70
     7
177
     3
291
     1
 70
    58
 90
        1
176
     1
 90
        0
176
     1
 90
        1
176
     1
 90
        0
176
     1
 40
0.6
176
     1
 40
30.0
176
     1
 62
     7
420
 16777215
176
     1
 90
        0
176
     1
 90
        4
176
     1
 62
     7
176
     1
 62
   257
176
     1
 90
        1
176
     1
 90
        1
176
     1
 40
1.0
176
     1
 90
        8
176
     1
 62
     7
176
     1
 40
1.0
176
     1
 90
        1
176
     1
 90
        6
176
     1
 90
        2
176
     1
 62
     7
176
     1
 90
        5
176
     1
 90
        0
176
     1
 90
        0
176
     1
290
     0
176
     1
 90
        1
176
     1
 40
0.0
176
     1
 90
        0
176
     1
290
     0
176
     1
290
     1
176
     1
290
     1
176
     1
290
     0
176
     1
290
     0
176
     1
290
     0
176
     1
290
     0
176
     1
290
     0
176
     1
290
     0
176
     1
 90
       50
176
     1
 40
0.0
176
     1
 40
1.0
176
     1
 90
        0
176
     1
 62
    18
420
        0
176
     1
 90
       50
176
     1
 90
        3
176
     1
 62
     5
420
      255
176
     1
290
     0
176
     1
 90
       50
176
     1
 90
       50
176
     1
 90
       50
176
     1
290
     0
176
     1
 90
       50
176
     1
 62
   256
176
     0
 40
1.0
176
     0
 90
        2
176
     1
  1
strokes_ogs.tif
176
     1
290
     0
176
     1
 40
1.0
176
     1
 40
1.0
176
     1
  0
VISUALSTYLE
  5
2C8
102
{ACAD_REACTORS
330
2BC
102
}
330
2BC
100
AcDbVisualStyle
  2
Brighten
 70
    12
177
     3
291
     1
 70
    58
 90
        2
176
     1
 90
        2
176
     1
 90
        0
176
     1
 90
        0
176
     1
 40
0.6
176
     1
 40
30.0
176
     1
 62
     7
420
 16777215
176
     1
 90
        1
176
     1
 90
        4
176
     1
 62
     7
176
     1
 62
   257
176
     1
 90
        1
176
     1
 90
        1
176
     1
 40
1.0
176
     1
 90
        8
176
     1
 62
     7
176
     1
 40
1.0
176
     1
 90
        1
176
     1
 90
        6
176
     1
 90
        2
176
     1
 62
     7
176
     1
 90
        5
176
     1
 90
        0
176
     1
 90
        0
176
     1
290
     0
176
     1
 90
        1
176
     1
 40
50.0
176
     1
 90
        0
176
     1
290
     0
176
     1
290
     1
176
     1
290
     1
176
     1
290
     0
176
     1
290
     0
176
     1
290
     0
176
     1
290
     0
176
     1
290
     0
176
     1
290
     0
176
     1
 90
       50
176
     1
 40
0.0
176
     1
 40
1.0
176
     1
 90
        0
176
     1
 62
    18
420
        0
176
     1
 90
       50
176
     1
 90
        3
176
     1
 62
     5
420
      255
176
     1
290
     0
176
     1
 90
       50
176
     1
 90
       50
176
     1
 90
       50
176
     1
290
     0
176
     1
 90
       50
176
     1
 62
   256
176
     0
 40
1.0
176
     0
 90
        2
176
     1
  1
strokes_ogs.tif
176
     1
290
     0
176
     1
 40
1.0
176
     1
 40
1.0
176
     1
  0
VISUALSTYLE
  5
2CC
102
{ACAD_REACTORS
330
2BC
102
}
330
2BC
100
AcDbVisualStyle
  2
ColorChange
 70
    16
177
     3
291
     1
 70
    58
 90
        2
176
     1
 90
        2
176
     1
 90
        3
176
     1
 90
        0
176
     1
 40
0.6
176
     1
 40
30.0
176
     1
 62
     8
420
  8421504
176
     1
 90
        1
176
     1
 90
        4
176
     1
 62
     7
176
     1
 62
   257
176
     1
 90
        1
176
     1
 90
        1
176
     1
 40
1.0
176
     1
 90
        8
176
     1
 62
     8
420
  8421504
176
     1
 40
1.0
176
     1
 90
        1
176
     1
 90
        6
176
     1
 90
        2
176
     1
 62
     7
176
     1
 90
        5
176
     1
 90
        0
176
     1
 90
        0
176
     1
290
     0
176
     1
 90
        1
176
     1
 40
0.0
176
     1
 90
        0
176
     1
290
     0
176
     1
290
     1
176
     1
290
     1
176
     1
290
     0
176
     1
290
     0
176
     1
290
     0
176
     1
290
     0
176
     1
290
     0
176
     1
290
     0
176
     1
 90
       50
176
     1
 40
0.0
176
     1
 40
1.0
176
     1
 90
        0
176
     1
 62
    18
420
        0
176
     1
 90
       50
176
     1
 90
        3
176
     1
 62
     5
420
      255
176
     1
290
     0
176
     1
 90
       50
176
     1
 90
       50
176
     1
 90
       50
176
     1
290
     0
176
     1
 90
       50
176
     1
 62
   256
176
     0
 40
1.0
176
     0
 90
        2
176
     1
  1
strokes_ogs.tif
176
     1
290
     0
176
     1
 40
1.0
176
     1
 40
1.0
176
     1
  0
VISUALSTYLE
  5
2C6
102
{ACAD_REACTORS
330
2BC
102
}
330
2BC
100
AcDbVisualStyle
  2
Conceptual
 70
     9
177
     3
291
     0
 70
    58
 90
        3
176
     1
 90
        2
176
     1
 90
        0
176
     1
 90
        0
176
     1
 40
0.6
176
     1
 40
30.0
176
     1
 62
     7
420
 16777215
176
     1
 90
        2
176
     1
 90
        2
176
     1
 62
     7
176
     1
 62
   257
176
     1
 90
        1
176
     1
 90
        1
176
     1
 40
179.0
176
     1
 90
        8
176
     1
 62
     7
176
     1
 40
1.0
176
     1
 90
        1
176
     1
 90
        6
176
     1
 90
        2
176
     1
 62
     7
176
     1
 90
        3
176
     1
 90
        0
176
     1
 90
        0
176
     1
290
     0
176
     1
 90
        1
176
     1
 40
0.0
176
     1
 90
        0
176
     1
290
     0
176
     1
290
     1
176
     1
290
     1
176
     1
290
     0
176
     1
290
     0
176
     1
290
     0
176
     1
290
     0
176
     1
290
     0
176
     1
290
     0
176
     1
 90
       50
176
     1
 40
0.0
176
     1
 40
1.0
176
     1
 90
        0
176
     1
 62
    18
420
        0
176
     1
 90
       50
176
     1
 90
        3
176
     1
 62
     5
420
      255
176
     1
290
     0
176
     1
 90
       50
176
     1
 90
       50
176
     1
 90
       50
176
     1
290
     0
176
     1
 90
       50
176
     1
 62
   256
176
     0
 40
1.0
176
     0
 90
        2
176
     1
  1
strokes_ogs.tif
176
     1
290
     0
176
     1
 40
1.0
176
     1
 40
1.0
176
     1
  0
VISUALSTYLE
  5
2C7
102
{ACAD_REACTORS
330
2BC
102
}
330
2BC
100
AcDbVisualStyle
  2
Dim
 70
    11
177
     3
291
     1
 70
    58
 90
        2
176
     1
 90
        2
176
     1
 90
        0
176
     1
 90
        0
176
     1
 40
0.6
176
     1
 40
30.0
176
     1
 62
     7
420
 16777215
176
     1
 90
        1
176
     1
 90
        4
176
     1
 62
     7
176
     1
 62
   257
176
     1
 90
        1
176
     1
 90
        1
176
     1
 40
1.0
176
     1
 90
        8
176
     1
 62
     7
176
     1
 40
1.0
176
     1
 90
        1
176
     1
 90
        6
176
     1
 90
        2
176
     1
 62
     7
176
     1
 90
        5
176
     1
 90
        0
176
     1
 90
        0
176
     1
290
     0
176
     1
 90
        1
176
     1
 40
-50.0
176
     1
 90
        0
176
     1
290
     0
176
     1
290
     1
176
     1
290
     1
176
     1
290
     0
176
     1
290
     0
176
     1
290
     0
176
     1
290
     0
176
     1
290
     0
176
     1
290
     0
176
     1
 90
       50
176
     1
 40
0.0
176
     1
 40
1.0
176
     1
 90
        0
176
     1
 62
    18
420
        0
176
     1
 90
       50
176
     1
 90
        3
176
     1
 62
     5
420
      255
176
     1
290
     0
176
     1
 90
       50
176
     1
 90
       50
176
     1
 90
       50
176
     1
290
     0
176
     1
 90
       50
176
     1
 62
   256
176
     0
 40
1.0
176
     0
 90
        2
176
     1
  1
strokes_ogs.tif
176
     1
290
     0
176
     1
 40
1.0
176
     1
 40
1.0
176
     1
  0
VISUALSTYLE
  5
2CF
102
{ACAD_REACTORS
330
2BC
102
}
330
2BC
100
AcDbVisualStyle
  2
EdgeColorOff
 70
    22
177
     3
291
     1
 70
    58
 90
        2
176
     0
 90
        2
176
     0
 90
        0
176
     0
 90
        0
176
     0
 40
0.6
176
     0
 40
30.0
176
     0
 62
     7
420
 16777215
176
     0
 90
        1
176
     0
 90
        4
176
     0
 62
     7
176
     0
 62
   257
176
     0
 90
        1
176
     0
 90
        1
176
     0
 40
1.0
176
     0
 90
        8
176
     2
 62
     7
176
     0
 40
1.0
176
     0
 90
        1
176
     0
 90
        6
176
     0
 90
        2
176
     0
 62
     7
176
     0
 90
        5
176
     0
 90
        0
176
     0
 90
        0
176
     0
290
     0
176
     0
 90
        1
176
     0
 40
0.0
176
     0
 90
        0
176
     0
290
     0
176
     0
290
     1
176
     0
290
     1
176
     0
290
     0
176
     0
290
     0
176
     0
290
     0
176
     0
290
     0
176
     0
290
     0
176
     0
290
     0
176
     0
 90
       50
176
     0
 40
0.0
176
     0
 40
1.0
176
     0
 90
        0
176
     0
 62
    18
420
        0
176
     0
 90
       50
176
     0
 90
        3
176
     0
 62
     5
420
      255
176
     0
290
     0
176
     0
 90
       50
176
     0
 90
       50
176
     0
 90
       50
176
     0
290
     0
176
     0
 90
       50
176
     0
 62
   256
176
     0
 40
1.0
176
     0
 90
        2
176
     0
  1
strokes_ogs.tif
176
     0
290
     0
176
     0
 40
1.0
176
     0
 40
1.0
176
     0
  0
VISUALSTYLE
  5
2CB
102
{ACAD_REACTORS
330
2BC
102
}
330
2BC
100
AcDbVisualStyle
  2
Facepattern
 70
    15
177
     3
291
     1
 70
    58
 90
        2
176
     1
 90
        2
176
     1
 90
        0
176
     1
 90
        0
176
     1
 40
0.6
176
     1
 40
30.0
176
     1
 62
     7
420
 16777215
176
     1
 90
        1
176
     1
 90
        4
176
     1
 62
     7
176
     1
 62
   257
176
     1
 90
        1
176
     1
 90
        1
176
     1
 40
1.0
176
     1
 90
        8
176
     1
 62
     7
176
     1
 40
1.0
176
     1
 90
        1
176
     1
 90
        6
176
     1
 90
        2
176
     1
 62
     7
176
     1
 90
        5
176
     1
 90
        0
176
     1
 90
        0
176
     1
290
     0
176
     1
 90
        1
176
     1
 40
0.0
176
     1
 90
        0
176
     1
290
     0
176
     1
290
     1
176
     1
290
     1
176
     1
290
     0
176
     1
290
     0
176
     1
290
     0
176
     1
290
     0
176
     1
290
     0
176
     1
290
     0
176
     1
 90
       50
176
     1
 40
0.0
176
     1
 40
1.0
176
     1
 90
        0
176
     1
 62
    18
420
        0
176
     1
 90
       50
176
     1
 90
        3
176
     1
 62
     5
420
      255
176
     1
290
     0
176
     1
 90
       50
176
     1
 90
       50
176
     1
 90
       50
176
     1
290
     0
176
     1
 90
       50
176
     1
 62
   256
176
     0
 40
1.0
176
     0
 90
        2
176
     1
  1
strokes_ogs.tif
176
     1
290
     0
176
     1
 40
1.0
176
     1
 40
1.0
176
     1
  0
VISUALSTYLE
  5
2BD
102
{ACAD_REACTORS
330
2BC
102
}
330
2BC
100
AcDbVisualStyle
  2
Flat
 70
     0
177
     3
291
     1
 70
    58
 90
        2
176
     1
 90
        1
176
     1
 90
        1
176
     1
 90
        2
176
     1
 40
0.6
176
     1
 40
30.0
176
     1
 62
     7
420
 16777215
176
     1
 90
        0
176
     1
 90
        0
176
     1
 62
     7
176
     1
 62
   257
176
     1
 90
        1
176
     1
 90
        1
176
     1
 40
1.0
176
     1
 90
        8
176
     1
 62
     7
176
     1
 40
1.0
176
     1
 90
        1
176
     1
 90
        6
176
     1
 90
        2
176
     1
 62
     7
176
     1
 90
        5
176
     1
 90
        0
176
     1
 90
        0
176
     1
290
     0
176
     1
 90
       13
176
     1
 40
0.0
176
     1
 90
        0
176
     1
290
     0
176
     1
290
     1
176
     1
290
     1
176
     1
290
     0
176
     1
290
     0
176
     1
290
     0
176
     1
290
     0
176
     1
290
     0
176
     1
290
     0
176
     1
 90
       50
176
     1
 40
0.0
176
     1
 40
1.0
176
     1
 90
        0
176
     1
 62
    18
420
        0
176
     1
 90
       50
176
     1
 90
        3
176
     1
 62
     5
420
      255
176
     1
290
     0
176
     1
 90
       50
176
     1
 90
       50
176
     1
 90
       50
176
     1
290
     0
176
     1
 90
       50
176
     1
 62
   256
176
     0
 40
1.0
176
     0
 90
        2
176
     1
  1
strokes_ogs.tif
176
     1
290
     0
176
     1
 40
1.0
176
     1
 40
1.0
176
     1
  0
VISUALSTYLE
  5
2BE
102
{ACAD_REACTORS
330
2BC
102
}
330
2BC
100
AcDbVisualStyle
  2
FlatWithEdges
 70
     1
177
     3
291
     1
 70
    58
 90
        2
176
     1
 90
        1
176
     1
 90
        1
176
     1
 90
        2
176
     1
 40
0.6
176
     1
 40
30.0
176
     1
 62
     7
420
 16777215
176
     1
 90
        1
176
     1
 90
        0
176
     1
 62
     7
176
     1
 62
   257
176
     1
 90
        1
176
     1
 90
        1
176
     1
 40
1.0
176
     1
 90
        0
176
     1
 62
   257
176
     1
 40
1.0
176
     1
 90
        1
176
     1
 90
        6
176
     1
 90
        2
176
     1
 62
     7
176
     1
 90
        5
176
     1
 90
        0
176
     1
 90
        0
176
     1
290
     0
176
     1
 90
       13
176
     1
 40
0.0
176
     1
 90
        0
176
     1
290
     0
176
     1
290
     1
176
     1
290
     1
176
     1
290
     0
176
     1
290
     0
176
     1
290
     0
176
     1
290
     0
176
     1
290
     0
176
     1
290
     0
176
     1
 90
       50
176
     1
 40
0.0
176
     1
 40
1.0
176
     1
 90
        0
176
     1
 62
    18
420
        0
176
     1
 90
       50
176
     1
 90
        3
176
     1
 62
     5
420
      255
176
     1
290
     0
176
     1
 90
       50
176
     1
 90
       50
176
     1
 90
       50
176
     1
290
     0
176
     1
 90
       50
176
     1
 62
   256
176
     0
 40
1.0
176
     0
 90
        2
176
     1
  1
strokes_ogs.tif
176
     1
290
     0
176
     1
 40
1.0
176
     1
 40
1.0
176
     1
  0
VISUALSTYLE
  5
2BF
102
{ACAD_REACTORS
330
2BC
102
}
330
2BC
100
AcDbVisualStyle
  2
Gouraud
 70
     2
177
     3
291
     1
 70
    58
 90
        2
176
     1
 90
        2
176
     1
 90
        1
176
     1
 90
        2
176
     1
 40
0.6
176
     1
 40
30.0
176
     1
 62
     7
420
 16777215
176
     1
 90
        0
176
     1
 90
        0
176
     1
 62
     7
176
     1
 62
   257
176
     1
 90
        1
176
     1
 90
        1
176
     1
 40
1.0
176
     1
 90
        0
176
     1
 62
     7
176
     1
 40
1.0
176
     1
 90
        1
176
     1
 90
        6
176
     1
 90
        2
176
     1
 62
     7
176
     1
 90
        5
176
     1
 90
        0
176
     1
 90
        0
176
     1
290
     0
176
     1
 90
       13
176
     1
 40
0.0
176
     1
 90
        0
176
     1
290
     0
176
     1
290
     1
176
     1
290
     1
176
     1
290
     0
176
     1
290
     0
176
     1
290
     0
176
     1
290
     0
176
     1
290
     0
176
     1
290
     0
176
     1
 90
       50
176
     1
 40
0.0
176
     1
 40
1.0
176
     1
 90
        0
176
     1
 62
    18
420
        0
176
     1
 90
       50
176
     1
 90
        3
176
     1
 62
     5
420
      255
176
     1
290
     0
176
     1
 90
       50
176
     1
 90
       50
176
     1
 90
       50
176
     1
290
     0
176
     1
 90
       50
176
     1
 62
   256
176
     0
 40
1.0
176
     0
 90
        2
176
     1
  1
strokes_ogs.tif
176
     1
290
     0
176
     1
 40
1.0
176
     1
 40
1.0
176
     1
  0
VISUALSTYLE
  5
2C0
102
{ACAD_REACTORS
330
2BC
102
}
330
2BC
100
AcDbVisualStyle
  2
GouraudWithEdges
 70
     3
177
     3
291
     1
 70
    58
 90
        2
176
     1
 90
        2
176
     1
 90
        1
176
     1
 90
        2
176
     1
 40
0.6
176
     1
 40
30.0
176
     1
 62
     7
420
 16777215
176
     1
 90
        1
176
     1
 90
        0
176
     1
 62
     7
176
     1
 62
   257
176
     1
 90
        1
176
     1
 90
        1
176
     1
 40
1.0
176
     1
 90
        0
176
     1
 62
   257
176
     1
 40
1.0
176
     1
 90
        1
176
     1
 90
        6
176
     1
 90
        2
176
     1
 62
     7
176
     1
 90
        5
176
     1
 90
        0
176
     1
 90
        0
176
     1
290
     0
176
     1
 90
       13
176
     1
 40
0.0
176
     1
 90
        0
176
     1
290
     0
176
     1
290
     1
176
     1
290
     1
176
     1
290
     0
176
     1
290
     0
176
     1
290
     0
176
     1
290
     0
176
     1
290
     0
176
     1
290
     0
176
     1
 90
       50
176
     1
 40
0.0
176
     1
 40
1.0
176
     1
 90
        0
176
     1
 62
    18
420
        0
176
     1
 90
       50
176
     1
 90
        3
176
     1
 62
     5
420
      255
176
     1
290
     0
176
     1
 90
       50
176
     1
 90
       50
176
     1
 90
       50
176
     1
290
     0
176
     1
 90
       50
176
     1
 62
   256
176
     0
 40
1.0
176
     0
 90
        2
176
     1
  1
strokes_ogs.tif
176
     1
290
     0
176
     1
 40
1.0
176
     1
 40
1.0
176
     1
  0
VISUALSTYLE
  5
2C3
102
{ACAD_REACTORS
330
2BC
102
}
330
2BC
100
AcDbVisualStyle
  2
Hidden
 70
     6
177
     3
291
     0
 70
    58
 90
        1
176
     1
 90
        2
176
     1
 90
        2
176
     1
 90
        0
176
     1
 40
0.6
176
     1
 40
30.0
176
     1
 62
     7
420
 16777215
176
     1
 90
        2
176
     1
 90
        2
176
     1
 62
     7
176
     1
 62
   257
176
     1
 90
        2
176
     1
 90
        1
176
     1
 40
40.0
176
     1
 90
        0
176
     1
 62
   257
176
     1
 40
1.0
176
     1
 90
        1
176
     1
 90
        6
176
     1
 90
        2
176
     1
 62
     7
176
     1
 90
        3
176
     1
 90
        0
176
     1
 90
        0
176
     1
290
     0
176
     1
 90
        1
176
     1
 40
0.0
176
     1
 90
        0
176
     1
290
     0
176
     1
290
     1
176
     1
290
     1
176
     1
290
     0
176
     1
290
     0
176
     1
290
     0
176
     1
290
     0
176
     1
290
     0
176
     1
290
     0
176
     1
 90
       50
176
     1
 40
0.0
176
     1
 40
1.0
176
     1
 90
        0
176
     1
 62
    18
420
        0
176
     1
 90
       50
176
     1
 90
        3
176
     1
 62
     5
420
      255
176
     1
290
     0
176
     1
 90
       50
176
     1
 90
       50
176
     1
 90
       50
176
     1
290
     0
176
     1
 90
       50
176
     1
 62
   256
176
     0
 40
1.0
176
     0
 90
        2
176
     1
  1
strokes_ogs.tif
176
     1
290
     0
176
     1
 40
1.0
176
     1
 40
1.0
176
     1
  0
VISUALSTYLE
  5
2CD
102
{ACAD_REACTORS
330
2BC
102
}
330
2BC
100
AcDbVisualStyle
  2
JitterOff
 70
    20
177
     3
291
     1
 70
    58
 90
        2
176
     0
 90
        2
176
     0
 90
        0
176
     0
 90
        0
176
     0
 40
0.6
176
     0
 40
30.0
176
     0
 62
     7
420
 16777215
176
     0
 90
        1
176
     0
 90
        4
176
     0
 62
     7
176
     0
 62
   257
176
     0
 90
        1
176
     0
 90
        1
176
     0
 40
1.0
176
     0
 90
       10
176
     2
 62
     7
176
     0
 40
1.0
176
     0
 90
        1
176
     0
 90
        6
176
     0
 90
        2
176
     0
 62
     7
176
     0
 90
        5
176
     0
 90
        0
176
     0
 90
        0
176
     0
290
     0
176
     0
 90
        1
176
     0
 40
0.0
176
     0
 90
        0
176
     0
290
     0
176
     0
290
     1
176
     0
290
     1
176
     0
290
     0
176
     0
290
     0
176
     0
290
     0
176
     0
290
     0
176
     0
290
     0
176
     0
290
     0
176
     0
 90
       50
176
     0
 40
0.0
176
     0
 40
1.0
176
     0
 90
        0
176
     0
 62
    18
420
        0
176
     0
 90
       50
176
     0
 90
        3
176
     0
 62
     5
420
      255
176
     0
290
     0
176
     0
 90
       50
176
     0
 90
       50
176
     0
 90
       50
176
     0
290
     0
176
     0
 90
       50
176
     0
 62
   256
176
     0
 40
1.0
176
     0
 90
        2
176
     0
  1
strokes_ogs.tif
176
     0
290
     0
176
     0
 40
1.0
176
     0
 40
1.0
176
     0
  0
VISUALSTYLE
  5
2CA
102
{ACAD_REACTORS
330
2BC
102
}
330
2BC
100
AcDbVisualStyle
  2
Linepattern
 70
    14
177
     3
291
     1
 70
    58
 90
        2
176
     1
 90
        2
176
     1
 90
        0
176
     1
 90
        0
176
     1
 40
0.6
176
     1
 40
30.0
176
     1
 62
     7
420
 16777215
176
     1
 90
        1
176
     1
 90
        4
176
     1
 62
     7
176
     1
 62
   257
176
     1
 90
        7
176
     1
 90
        7
176
     1
 40
1.0
176
     1
 90
        8
176
     1
 62
     7
176
     1
 40
1.0
176
     1
 90
        1
176
     1
 90
        6
176
     1
 90
        2
176
     1
 62
     7
176
     1
 90
        5
176
     1
 90
        0
176
     1
 90
        0
176
     1
290
     0
176
     1
 90
        1
176
     1
 40
0.0
176
     1
 90
        0
176
     1
290
     0
176
     1
290
     1
176
     1
290
     1
176
     1
290
     0
176
     1
290
     0
176
     1
290
     0
176
     1
290
     0
176
     1
290
     0
176
     1
290
     0
176
     1
 90
       50
176
     1
 40
0.0
176
     1
 40
1.0
176
     1
 90
        0
176
     1
 62
    18
420
        0
176
     1
 90
       50
176
     1
 90
        3
176
     1
 62
     5
420
      255
176
     1
290
     0
176
     1
 90
       50
176
     1
 90
       50
176
     1
 90
       50
176
     1
290
     0
176
     1
 90
       50
176
     1
 62
   256
176
     0
 40
1.0
176
     0
 90
        2
176
     1
  1
strokes_ogs.tif
176
     1
290
     0
176
     1
 40
1.0
176
     1
 40
1.0
176
     1
  0
VISUALSTYLE
  5
2CE
102
{ACAD_REACTORS
330
2BC
102
}
330
2BC
100
AcDbVisualStyle
  2
OverhangOff
 70
    21
177
     3
291
     1
 70
    58
 90
        2
176
     0
 90
        2
176
     0
 90
        0
176
     0
 90
        0
176
     0
 40
0.6
176
     0
 40
30.0
176
     0
 62
     7
420
 16777215
176
     0
 90
        1
176
     0
 90
        4
176
     0
 62
     7
176
     0
 62
   257
176
     0
 90
        1
176
     0
 90
        1
176
     0
 40
1.0
176
     0
 90
        9
176
     2
 62
     7
176
     0
 40
1.0
176
     0
 90
        1
176
     0
 90
        6
176
     0
 90
        2
176
     0
 62
     7
176
     0
 90
        5
176
     0
 90
        0
176
     0
 90
        0
176
     0
290
     0
176
     0
 90
        1
176
     0
 40
0.0
176
     0
 90
        0
176
     0
290
     0
176
     0
290
     1
176
     0
290
     1
176
     0
290
     0
176
     0
290
     0
176
     0
290
     0
176
     0
290
     0
176
     0
290
     0
176
     0
290
     0
176
     0
 90
       50
176
     0
 40
0.0
176
     0
 40
1.0
176
     0
 90
        0
176
     0
 62
    18
420
        0
176
     0
 90
       50
176
     0
 90
        3
176
     0
 62
     5
420
      255
176
     0
290
     0
176
     0
 90
       50
176
     0
 90
       50
176
     0
 90
       50
176
     0
290
     0
176
     0
 90
       50
176
     0
 62
   256
176
     0
 40
1.0
176
     0
 90
        2
176
     0
  1
strokes_ogs.tif
176
     0
290
     0
176
     0
 40
1.0
176
     0
 40
1.0
176
     0
  0
VISUALSTYLE
  5
2C5
102
{ACAD_REACTORS
330
2BC
102
}
330
2BC
100
AcDbVisualStyle
  2
Realistic
 70
     8
177
     3
291
     0
 70
    58
 90
        2
176
     1
 90
        3
176
     1
 90
        0
176
     1
 90
        2
176
     1
 40
0.6
176
     1
 40
30.0
176
     1
 62
     7
420
 16777215
176
     1
 90
        0
176
     1
 90
        0
176
     1
 62
     7
176
     1
 62
   257
176
     1
 90
        1
176
     1
 90
        1
176
     1
 40
1.0
176
     1
 90
        8
176
     1
 62
   257
176
     1
 40
1.0
176
     1
 90
        1
176
     1
 90
        6
176
     1
 90
        2
176
     1
 62
     7
176
     1
 90
        3
176
     1
 90
        0
176
     1
 90
        0
176
     1
290
     0
176
     1
 90
       13
176
     1
 40
0.0
176
     1
 90
        0
176
     1
290
     0
176
     1
290
     1
176
     1
290
     1
176
     1
290
     0
176
     1
290
     0
176
     1
290
     0
176
     1
290
     0
176
     1
290
     0
176
     1
290
     0
176
     1
 90
       50
176
     1
 40
0.0
176
     1
 40
1.0
176
     1
 90
        0
176
     1
 62
    18
420
        0
176
     1
 90
       50
176
     1
 90
        3
176
     1
 62
     5
420
      255
176
     1
290
     0
176
     1
 90
       50
176
     1
 90
       50
176
     1
 90
       50
176
     1
290
     0
176
     1
 90
       50
176
     1
 62
   256
176
     0
 40
1.0
176
     0
 90
        2
176
     1
  1
strokes_ogs.tif
176
     1
290
     0
176
     1
 40
1.0
176
     1
 40
1.0
176
     1
  0
VISUALSTYLE
  5
2D4
102
{ACAD_REACTORS
330
2BC
102
}
330
2BC
100
AcDbVisualStyle
  2
Shaded
 70
    27
177
     3
291
     0
 70
    58
 90
        2
176
     1
 90
        2
176
     1
 90
        1
176
     1
 90
        2
176
     1
 40
0.6
176
     1
 40
30.0
176
     1
 62
     7
420
 16777215
176
     1
 90
        0
176
     1
 90
        4
176
     1
 62
     7
176
     1
 62
   257
176
     1
 90
        1
176
     1
 90
        1
176
     1
 40
1.0
176
     1
 90
        8
176
     1
 62
   257
176
     1
 40
1.0
176
     1
 90
        1
176
     1
 90
        6
176
     1
 90
        2
176
     1
 62
     8
420
  7895160
176
     1
 90
        3
176
     1
 90
        0
176
     1
 90
        0
176
     1
290
     0
176
     1
 90
        5
176
     1
 40
0.0
176
     1
 90
        0
176
     1
290
     0
176
     1
290
     1
176
     1
290
     1
176
     1
290
     0
176
     1
290
     0
176
     1
290
     0
176
     1
290
     0
176
     1
290
     0
176
     1
290
     0
176
     1
 90
       50
176
     1
 40
0.0
176
     1
 40
1.0
176
     1
 90
        0
176
     1
 62
    18
420
        0
176
     1
 90
       50
176
     1
 90
        3
176
     1
 62
     5
420
      255
176
     1
290
     0
176
     1
 90
       50
176
     1
 90
       50
176
     1
 90
       50
176
     1
290
     0
176
     1
 90
       50
176
     1
 62
   256
176
     0
 40
1.0
176
     0
 90
        2
176
     1
  1
strokes_ogs.tif
176
     1
290
     0
176
     1
 40
1.0
176
     1
 40
1.0
176
     1
  0
VISUALSTYLE
  5
2D3
102
{ACAD_REACTORS
330
2BC
102
}
330
2BC
100
AcDbVisualStyle
  2
Shaded with edges
 70
    26
177
     3
291
     0
 70
    58
 90
        2
176
     1
 90
        2
176
     1
 90
        1
176
     1
 90
        2
176
     1
 40
0.6
176
     1
 40
30.0
176
     1
 62
     7
420
 16777215
176
     1
 90
        1
176
     1
 90
       10
176
     1
 62
     7
176
     1
 62
   257
176
     1
 90
        2
176
     1
 90
        1
176
     1
 40
1.0
176
     1
 90
        8
176
     1
 62
   257
176
     1
 40
1.0
176
     1
 90
        1
176
     1
 90
        6
176
     1
 90
        2
176
     1
 62
     7
176
     1
 90
        3
176
     1
 90
        0
176
     1
 90
        0
176
     1
290
     0
176
     1
 90
        5
176
     1
 40
0.0
176
     1
 90
        0
176
     1
290
     0
176
     1
290
     1
176
     1
290
     1
176
     1
290
     0
176
     1
290
     0
176
     1
290
     0
176
     1
290
     0
176
     1
290
     0
176
     1
290
     0
176
     1
 90
       50
176
     1
 40
0.0
176
     1
 40
1.0
176
     1
 90
        0
176
     1
 62
    18
420
        0
176
     1
 90
       50
176
     1
 90
        3
176
     1
 62
     5
420
      255
176
     1
290
     0
176
     1
 90
       50
176
     1
 90
       50
176
     1
 90
       50
176
     1
290
     0
176
     1
 90
       50
176
     1
 62
   256
176
     0
 40
1.0
176
     0
 90
        2
176
     1
  1
strokes_ogs.tif
176
     1
290
     0
176
     1
 40
1.0
176
     1
 40
1.0
176
     1
  0
VISUALSTYLE
  5
2D0
102
{ACAD_REACTORS
330
2BC
102
}
330
2BC
100
AcDbVisualStyle
  2
Shades of Gray
 70
    23
177
     3
291
     0
 70
    58
 90
        2
176
     1
 90
        2
176
     1
 90
        3
176
     1
 90
        0
176
     1
 40
0.6
176
     1
 40
30.0
176
     1
 62
     7
420
 16777215
176
     1
 90
        2
176
     1
 90
        2
176
     1
 62
     7
176
     1
 62
     7
176
     1
 90
        1
176
     1
 90
        1
176
     1
 40
40.0
176
     1
 90
        8
176
     1
 62
     7
176
     1
 40
1.0
176
     1
 90
        1
176
     1
 90
        6
176
     1
 90
        2
176
     1
 62
     7
176
     1
 90
        3
176
     1
 90
        0
176
     1
 90
        0
176
     1
290
     0
176
     1
 90
        1
176
     1
 40
0.0
176
     1
 90
        0
176
     1
290
     0
176
     1
290
     1
176
     1
290
     1
176
     1
290
     0
176
     1
290
     0
176
     1
290
     0
176
     1
290
     0
176
     1
290
     0
176
     1
290
     0
176
     1
 90
       50
176
     1
 40
0.0
176
     1
 40
1.0
176
     1
 90
        0
176
     1
 62
    18
420
        0
176
     1
 90
       50
176
     1
 90
        3
176
     1
 62
     5
420
      255
176
     1
290
     0
176
     1
 90
       50
176
     1
 90
       50
176
     1
 90
       50
176
     1
290
     0
176
     1
 90
       50
176
     1
 62
   256
176
     0
 40
1.0
176
     0
 90
        2
176
     1
  1
strokes_ogs.tif
176
     1
290
     0
176
     1
 40
1.0
176
     1
 40
1.0
176
     1
  0
VISUALSTYLE
  5
2D1
102
{ACAD_REACTORS
330
2BC
102
}
330
2BC
100
AcDbVisualStyle
  2
Sketchy
 70
    24
177
     3
291
     0
 70
    58
 90
        1
176
     1
 90
        2
176
     1
 90
        2
176
     1
 90
        0
176
     1
 40
0.6
176
     1
 40
30.0
176
     1
 62
     7
420
 16777215
176
     1
 90
        2
176
     1
 90
        2
176
     1
 62
     7
176
     1
 62
     7
176
     1
 90
        1
176
     1
 90
        1
176
     1
 40
40.0
176
     1
 90
       11
176
     1
 62
     7
176
     1
 40
1.0
176
     1
 90
        1
176
     1
 90
        6
176
     1
 90
        2
176
     1
 62
     7
176
     1
 90
        6
176
     1
 90
        0
176
     1
 90
        0
176
     1
290
     0
176
     1
 90
        1
176
     1
 40
0.0
176
     1
 90
        0
176
     1
290
     0
176
     1
290
     1
176
     1
290
     1
176
     1
290
     0
176
     1
290
     0
176
     1
290
     0
176
     1
290
     0
176
     1
290
     0
176
     1
290
     0
176
     1
 90
       50
176
     1
 40
0.0
176
     1
 40
1.0
176
     1
 90
        0
176
     1
 62
    18
420
        0
176
     1
 90
       50
176
     1
 90
        3
176
     1
 62
     5
420
      255
176
     1
290
     0
176
     1
 90
       50
176
     1
 90
       50
176
     1
 90
       50
176
     1
290
     0
176
     1
 90
       50
176
     1
 62
   256
176
     0
 40
1.0
176
     0
 90
        2
176
     1
  1
strokes_ogs.tif
176
     1
290
     0
176
     1
 40
1.0
176
     1
 40
1.0
176
     1
  0
VISUALSTYLE
  5
2C9
102
{ACAD_REACTORS
330
2BC
102
}
330
2BC
100
AcDbVisualStyle
  2
Thicken
 70
    13
177
     3
291
     1
 70
    58
 90
        2
176
     1
 90
        2
176
     1
 90
        0
176
     1
 90
        0
176
     1
 40
0.6
176
     1
 40
30.0
176
     1
 62
     7
420
 16777215
176
     1
 90
        1
176
     1
 90
        4
176
     1
 62
     7
176
     1
 62
   257
176
     1
 90
        1
176
     1
 90
        1
176
     1
 40
1.0
176
     1
 90
       12
176
     1
 62
     7
176
     1
 40
1.0
176
     1
 90
        1
176
     1
 90
        6
176
     1
 90
        2
176
     1
 62
     7
176
     1
 90
        5
176
     1
 90
        0
176
     1
 90
        0
176
     1
290
     0
176
     1
 90
        1
176
     1
 40
0.0
176
     1
 90
        0
176
     1
290
     0
176
     1
290
     1
176
     1
290
     1
176
     1
290
     0
176
     1
290
     0
176
     1
290
     0
176
     1
290
     0
176
     1
290
     0
176
     1
290
     0
176
     1
 90
       50
176
     1
 40
0.0
176
     1
 40
1.0
176
     1
 90
        0
176
     1
 62
    18
420
        0
176
     1
 90
       50
176
     1
 90
        3
176
     1
 62
     5
420
      255
176
     1
290
     0
176
     1
 90
       50
176
     1
 90
       50
176
     1
 90
       50
176
     1
290
     0
176
     1
 90
       50
176
     1
 62
   256
176
     0
 40
1.0
176
     0
 90
        2
176
     1
  1
strokes_ogs.tif
176
     1
290
     0
176
     1
 40
1.0
176
     1
 40
1.0
176
     1
  0
VISUALSTYLE
  5
2C2
102
{ACAD_REACTORS
330
2BC
102
}
330
2BC
100
AcDbVisualStyle
  2
Wireframe
 70
     5
177
     3
291
     0
 70
    58
 90
        0
176
     1
 90
        2
176
     1
 90
        0
176
     1
 90
        0
176
     1
 40
0.6
176
     1
 40
30.0
176
     1
 62
     7
420
 16777215
176
     1
 90
        1
176
     1
 90
        4
176
     1
 62
     7
176
     1
 62
   257
176
     1
 90
        1
176
     1
 90
        1
176
     1
 40
1.0
176
     1
 90
        0
176
     1
 62
   257
176
     1
 40
1.0
176
     1
 90
        1
176
     1
 90
        6
176
     1
 90
        2
176
     1
 62
     7
176
     1
 90
        3
176
     1
 90
        0
176
     1
 90
        0
176
     1
290
     0
176
     1
 90
        1
176
     1
 40
0.0
176
     1
 90
        0
176
     1
290
     0
176
     1
290
     1
176
     1
290
     1
176
     1
290
     0
176
     1
290
     0
176
     1
290
     0
176
     1
290
     0
176
     1
290
     0
176
     1
290
     0
176
     1
 90
       50
176
     1
 40
0.0
176
     1
 40
1.0
176
     1
 90
        0
176
     1
 62
    18
420
        0
176
     1
 90
       50
176
     1
 90
        3
176
     1
 62
     5
420
      255
176
     1
290
     0
176
     1
 90
       50
176
     1
 90
       50
176
     1
 90
       50
176
     1
290
     0
176
     1
 90
       50
176
     1
 62
   256
176
     0
 40
1.0
176
     0
 90
        2
176
     1
  1
strokes_ogs.tif
176
     1
290
     0
176
     1
 40
1.0
176
     1
 40
1.0
176
     1
  0
VISUALSTYLE
  5
2D2
102
{ACAD_REACTORS
330
2BC
102
}
330
2BC
100
AcDbVisualStyle
  2
X-Ray
 70
    25
177
     3
291
     0
 70
    58
 90
        2
176
     1
 90
        2
176
     1
 90
        1
176
     1
 90
        1
176
     1
 40
0.5
176
     1
 40
30.0
176
     1
 62
     7
420
 16777215
176
     1
 90
        1
176
     1
 90
        0
176
     1
 62
     7
176
     1
 62
   257
176
     1
 90
        1
176
     1
 90
        1
176
     1
 40
1.0
176
     1
 90
        8
176
     1
 62
     7
176
     1
 40
1.0
176
     1
 90
        1
176
     1
 90
        6
176
     1
 90
        2
176
     1
 62
     7
176
     1
 90
        3
176
     1
 90
        0
176
     1
 90
        0
176
     1
290
     0
176
     1
 90
       13
176
     1
 40
0.0
176
     1
 90
        0
176
     1
290
     0
176
     1
290
     1
176
     1
290
     1
176
     1
290
     0
176
     1
290
     0
176
     1
290
     0
176
     1
290
     0
176
     1
290
     0
176
     1
290
     0
176
     1
 90
       50
176
     1
 40
0.0
176
     1
 40
1.0
176
     1
 90
        0
176
     1
 62
    18
420
        0
176
     1
 90
       50
176
     1
 90
        3
176
     1
 62
     5
420
      255
176
     1
290
     0
176
     1
 90
       50
176
     1
 90
       50
176
     1
 90
       50
176
     1
290
     0
176
     1
 90
       50
176
     1
 62
   256
176
     0
 40
1.0
176
     0
 90
        2
176
     1
  1
strokes_ogs.tif
176
     1
290
     0
176
     1
 40
1.0
176
     1
 40
1.0
176
     1
  0
DICTIONARYVAR
  5
2E1
102
{ACAD_REACTORS
330
2E0
102
}
330
2E0
100
DictionaryVariables
280
     0
  1
1:1
  0
DICTIONARYVAR
  5
2E3
102
{ACAD_REACTORS
330
2E0
102
}
330
2E0
100
DictionaryVariables
280
     0
  1
Standard
  0
DICTIONARYVAR
  5
2E2
102
{ACAD_REACTORS
330
2E0
102
}
330
2E0
100
DictionaryVariables
280
     0
  1
Standard
  0
DICTIONARYVAR
  5
2E4
102
{ACAD_REACTORS
330
2E0
102
}
330
2E0
100
DictionaryVariables
280
     0
  1
0
  0
DICTIONARY
  5
2E7
330
2DA
100
AcDbDictionary
280
     1
281
     1
  3
ACAD_ROUNDTRIP_2008_TABLESTYLE_CELLSTYLEMAP
360
2E8
  0
CELLSTYLEMAP
  5
2E8
102
{ACAD_REACTORS
330
2E7
102
}
330
2E7
100
AcDbCellStyleMap
 90
        3
300
CELLSTYLE
  1
TABLEFORMAT_BEGIN
 90
        5
170
     1
 91
        0
 92
    32768
 62
   257
 93
        1
300
CONTENTFORMAT
  1
CONTENTFORMAT_BEGIN
 90
        0
 91
        0
 92
        4
 93
        0
300

 40
0.0
140
1.0
 94
        5
 62
     0
340
11
144
6.0
309
CONTENTFORMAT_END
171
     1
301
MARGIN
  1
CELLMARGIN_BEGIN
 40
1.5
 40
1.5
 40
1.5
 40
1.5
 40
1.5
 40
1.5
309
CELLMARGIN_END
 94
        6
 95
        1
302
GRIDFORMAT
  1
GRIDFORMAT_BEGIN
 90
        0
 91
        1
 62
     0
 92
       -2
340
14
 93
        0
 40
0.045
309
GRIDFORMAT_END
 95
        2
302
GRIDFORMAT
  1
GRIDFORMAT_BEGIN
 90
        0
 91
        1
 62
     0
 92
       -2
340
14
 93
        0
 40
0.045
309
GRIDFORMAT_END
 95
        4
302
GRIDFORMAT
  1
GRIDFORMAT_BEGIN
 90
        0
 91
        1
 62
     0
 92
       -2
340
14
 93
        0
 40
0.045
309
GRIDFORMAT_END
 95
        8
302
GRIDFORMAT
  1
GRIDFORMAT_BEGIN
 90
        0
 91
        1
 62
     0
 92
       -2
340
14
 93
        0
 40
0.045
309
GRIDFORMAT_END
 95
       16
302
GRIDFORMAT
  1
GRIDFORMAT_BEGIN
 90
        0
 91
        1
 62
     0
 92
       -2
340
14
 93
        0
 40
0.045
309
GRIDFORMAT_END
 95
       32
302
GRIDFORMAT
  1
GRIDFORMAT_BEGIN
 90
        0
 91
        1
 62
     0
 92
       -2
340
14
 93
        0
 40
0.045
309
GRIDFORMAT_END
309
TABLEFORMAT_END
  1
CELLSTYLE_BEGIN
 90
        1
 91
        1
300
_TITLE
309
CELLSTYLE_END
300
CELLSTYLE
  1
TABLEFORMAT_BEGIN
 90
        5
170
     1
 91
        0
 92
        0
 62
   257
 93
        1
300
CONTENTFORMAT
  1
CONTENTFORMAT_BEGIN
 90
        0
 91
        0
 92
        4
 93
        0
300

 40
0.0
140
1.0
 94
        5
 62
     0
340
11
144
4.5
309
CONTENTFORMAT_END
171
     1
301
MARGIN
  1
CELLMARGIN_BEGIN
 40
1.5
 40
1.5
 40
1.5
 40
1.5
 40
1.5
 40
1.5
309
CELLMARGIN_END
 94
        6
 95
        1
302
GRIDFORMAT
  1
GRIDFORMAT_BEGIN
 90
        0
 91
        1
 62
     0
 92
       -2
340
14
 93
        0
 40
0.045
309
GRIDFORMAT_END
 95
        2
302
GRIDFORMAT
  1
GRIDFORMAT_BEGIN
 90
        0
 91
        1
 62
     0
 92
       -2
340
14
 93
        0
 40
0.045
309
GRIDFORMAT_END
 95
        4
302
GRIDFORMAT
  1
GRIDFORMAT_BEGIN
 90
        0
 91
        1
 62
     0
 92
       -2
340
14
 93
        0
 40
0.045
309
GRIDFORMAT_END
 95
        8
302
GRIDFORMAT
  1
GRIDFORMAT_BEGIN
 90
        0
 91
        1
 62
     0
 92
       -2
340
14
 93
        0
 40
0.045
309
GRIDFORMAT_END
 95
       16
302
GRIDFORMAT
  1
GRIDFORMAT_BEGIN
 90
        0
 91
        1
 62
     0
 92
       -2
340
14
 93
        0
 40
0.045
309
GRIDFORMAT_END
 95
       32
302
GRIDFORMAT
  1
GRIDFORMAT_BEGIN
 90
        0
 91
        1
 62
     0
 92
       -2
340
14
 93
        0
 40
0.045
309
GRIDFORMAT_END
309
TABLEFORMAT_END
  1
CELLSTYLE_BEGIN
 90
        2
 91
        1
300
_HEADER
309
CELLSTYLE_END
300
CELLSTYLE
  1
TABLEFORMAT_BEGIN
 90
        5
170
     1
 91
        0
 92
        0
 62
   257
 93
        1
300
CONTENTFORMAT
  1
CONTENTFORMAT_BEGIN
 90
        0
 91
        0
 92
        4
 93
        0
300

 40
0.0
140
1.0
 94
        2
 62
     0
340
11
144
4.5
309
CONTENTFORMAT_END
171
     1
301
MARGIN
  1
CELLMARGIN_BEGIN
 40
1.5
 40
1.5
 40
1.5
 40
1.5
 40
1.5
 40
1.5
309
CELLMARGIN_END
 94
        6
 95
        1
302
GRIDFORMAT
  1
GRIDFORMAT_BEGIN
 90
        0
 91
        1
 62
     0
 92
       -2
340
14
 93
        0
 40
0.045
309
GRIDFORMAT_END
 95
        2
302
GRIDFORMAT
  1
GRIDFORMAT_BEGIN
 90
        0
 91
        1
 62
     0
 92
       -2
340
14
 93
        0
 40
0.045
309
GRIDFORMAT_END
 95
        4
302
GRIDFORMAT
  1
GRIDFORMAT_BEGIN
 90
        0
 91
        1
 62
     0
 92
       -2
340
14
 93
        0
 40
0.045
309
GRIDFORMAT_END
 95
        8
302
GRIDFORMAT
  1
GRIDFORMAT_BEGIN
 90
        0
 91
        1
 62
     0
 92
       -2
340
14
 93
        0
 40
0.045
309
GRIDFORMAT_END
 95
       16
302
GRIDFORMAT
  1
GRIDFORMAT_BEGIN
 90
        0
 91
        1
 62
     0
 92
       -2
340
14
 93
        0
 40
0.045
309
GRIDFORMAT_END
 95
       32
302
GRIDFORMAT
  1
GRIDFORMAT_BEGIN
 90
        0
 91
        1
 62
     0
 92
       -2
340
14
 93
        0
 40
0.045
309
GRIDFORMAT_END
309
TABLEFORMAT_END
  1
CELLSTYLE_BEGIN
 90
        3
 91
        2
300
_DATA
309
CELLSTYLE_END
  0
ENDSEC
  0
EOF
