  0
SECTION
  2
HEADER
  9
$ACADVER
  1
AC1015
  9
$ACADMAINTVER
 70
     6
  9
$DWGCODEPAGE
  3
ANSI_1254
  9
$INSBASE
 10
0.0
 20
0.0
 30
0.0
  9
$EXTMIN
 10
0.0
 20
0.0
 30
0.0
  9
$EXTMAX
 10
210.0
 20
297.0
 30
0.0
  9
$LIMMIN
 10
0.0
 20
0.0
  9
$LIMMAX
 10
210.0
 20
297.0
  9
$ORTHOMODE
 70
     0
  9
$REGENMODE
 70
     1
  9
$FILLMODE
 70
     1
  9
$QTEXTMODE
 70
     0
  9
$MIRRTEXT
 70
     1
  9
$LTSCALE
 40
1.0
  9
$ATTMODE
 70
     1
  9
$TEXTSIZE
 40
3.5
  9
$TRACEWID
 40
1.0
  9
$TEXTSTYLE
  7
Standard
  9
$CLAYER
  8
0
  9
$CELTYPE
  6
ByLayer
  9
$CECOLOR
 62
   256
  9
$CELTSCALE
 40
1.0
  9
$DISPSILH
 70
     0
  9
$DIMSCALE
 40
1.0
  9
$DIMASZ
 40
3.302
  9
$DIMEXO
 40
1.0
  9
$DIMDLI
 40
3.75
  9
$DIMRND
 40
0.0
  9
$DIMDLE
 40
0.0
  9
$DIMEXE
 40
1.0
  9
$DIMTP
 40
0.0
  9
$DIMTM
 40
0.0
  9
$DIMTXT
 40
3.5
  9
$DIMCEN
 40
2.5
  9
$DIMTSZ
 40
0.0
  9
$DIMTOL
 70
     0
  9
$DIMLIM
 70
     0
  9
$DIMTIH
 70
     1
  9
$DIMTOH
 70
     1
  9
$DIMSE1
 70
     0
  9
$DIMSE2
 70
     0
  9
$DIMTAD
 70
     1
  9
$DIMZIN
 70
     1
  9
$DIMBLK
  1

  9
$DIMASO
 70
     1
  9
$DIMSHO
 70
     1
  9
$DIMPOST
  1

  9
$DIMAPOST
  1

  9
$DIMALT
 70
     0
  9
$DIMALTD
 70
     3
  9
$DIMALTF
 40
0.0393700787
  9
$DIMLFAC
 40
0.5
  9
$DIMTOFL
 70
     1
  9
$DIMTVP
 40
0.0
  9
$DIMTIX
 70
     0
  9
$DIMSOXD
 70
     0
  9
$DIMSAH
 70
     0
  9
$DIMBLK1
  1

  9
$DIMBLK2
  1

  9
$DIMSTYLE
  2
ISO-25
  9
$DIMCLRD
 70
     0
  9
$DIMCLRE
 70
     0
  9
$DIMCLRT
 70
     0
  9
$DIMTFAC
 40
1.0
  9
$DIMGAP
 40
1.524
  9
$DIMJUST
 70
     0
  9
$DIMSD1
 70
     0
  9
$DIMSD2
 70
     0
  9
$DIMTOLJ
 70
     0
  9
$DIMTZIN
 70
     1
  9
$DIMALTZ
 70
     0
  9
$DIMALTTZ
 70
     0
  9
$DIMUPT
 70
     0
  9
$DIMDEC
 70
     2
  9
$DIMTDEC
 70
     2
  9
$DIMALTU
 70
     2
  9
$DIMALTTD
 70
     3
  9
$DIMTXSTY
  7
Standard
  9
$DIMAUNIT
 70
     0
  9
$DIMADEC
 70
     2
  9
$DIMALTRND
 40
0.0
  9
$DIMAZIN
 70
     0
  9
$DIMDSEP
 70
    44
  9
$DIMATFIT
 70
     3
  9
$DIMFRAC
 70
     0
  9
$DIMLDRBLK
  1

  9
$DIMLUNIT
 70
     2
  9
$DIMLWD
 70
    -2
  9
$DIMLWE
 70
    -2
  9
$DIMTMOVE
 70
     0
  9
$LUNITS
 70
     2
  9
$LUPREC
 70
     2
  9
$SKETCHINC
 40
1.0
  9
$FILLETRAD
 40
10.0
  9
$AUNITS
 70
     0
  9
$AUPREC
 70
     2
  9
$MENU
  1
.
  9
$ELEVATION
 40
0.0
  9
$PELEVATION
 40
0.0
  9
$THICKNESS
 40
0.0
  9
$LIMCHECK
 70
     0
  9
$CHAMFERA
 40
0.0
  9
$CHAMFERB
 40
0.0
  9
$CHAMFERC
 40
0.0
  9
$CHAMFERD
 40
0.0
  9
$SKPOLY
 70
     0
  9
$TDCREATE
 40
2459783.338405845
  9
$TDUCREATE
 40
2459783.213405845
  9
$TDUPDATE
 40
2459783.338406921
  9
$TDUUPDATE
 40
2459783.213406921
  9
$TDINDWG
 40
0.0000000116
  9
$TDUSRTIMER
 40
0.0000000116
  9
$USRTIMER
 70
     1
  9
$ANGBASE
 50
0.0
  9
$ANGDIR
 70
     0
  9
$PDMODE
 70
     0
  9
$PDSIZE
 40
-1.0
  9
$PLINEWID
 40
0.0
  9
$SPLFRAME
 70
     0
  9
$SPLINETYPE
 70
     6
  9
$SPLINESEGS
 70
     8
  9
$HANDSEED
  5
21A
  9
$SURFTAB1
 70
     6
  9
$SURFTAB2
 70
     6
  9
$SURFTYPE
 70
     6
  9
$SURFU
 70
     6
  9
$SURFV
 70
     6
  9
$UCSBASE
  2

  9
$UCSNAME
  2

  9
$UCSORG
 10
0.0
 20
0.0
 30
0.0
  9
$UCSXDIR
 10
1.0
 20
0.0
 30
0.0
  9
$UCSYDIR
 10
0.0
 20
1.0
 30
0.0
  9
$UCSORTHOREF
  2

  9
$UCSORTHOVIEW
 70
     0
  9
$UCSORGTOP
 10
0.0
 20
0.0
 30
0.0
  9
$UCSORGBOTTOM
 10
0.0
 20
0.0
 30
0.0
  9
$UCSORGLEFT
 10
0.0
 20
0.0
 30
0.0
  9
$UCSORGRIGHT
 10
0.0
 20
0.0
 30
0.0
  9
$UCSORGFRONT
 10
0.0
 20
0.0
 30
0.0
  9
$UCSORGBACK
 10
0.0
 20
0.0
 30
0.0
  9
$PUCSBASE
  2

  9
$PUCSNAME
  2

  9
$PUCSORG
 10
0.0
 20
0.0
 30
0.0
  9
$PUCSXDIR
 10
1.0
 20
0.0
 30
0.0
  9
$PUCSYDIR
 10
0.0
 20
1.0
 30
0.0
  9
$PUCSORTHOREF
  2

  9
$PUCSORTHOVIEW
 70
     0
  9
$PUCSORGTOP
 10
0.0
 20
0.0
 30
0.0
  9
$PUCSORGBOTTOM
 10
0.0
 20
0.0
 30
0.0
  9
$PUCSORGLEFT
 10
0.0
 20
0.0
 30
0.0
  9
$PUCSORGRIGHT
 10
0.0
 20
0.0
 30
0.0
  9
$PUCSORGFRONT
 10
0.0
 20
0.0
 30
0.0
  9
$PUCSORGBACK
 10
0.0
 20
0.0
 30
0.0
  9
$USERI1
 70
     0
  9
$USERI2
 70
     0
  9
$USERI3
 70
     0
  9
$USERI4
 70
     0
  9
$USERI5
 70
     0
  9
$USERR1
 40
0.0
  9
$USERR2
 40
0.0
  9
$USERR3
 40
0.0
  9
$USERR4
 40
0.0
  9
$USERR5
 40
0.0
  9
$WORLDVIEW
 70
     1
  9
$SHADEDGE
 70
     3
  9
$SHADEDIF
 70
    70
  9
$TILEMODE
 70
     1
  9
$MAXACTVP
 70
    64
  9
$PINSBASE
 10
0.0
 20
0.0
 30
0.0
  9
$PLIMCHECK
 70
     0
  9
$PEXTMIN
 10
1.0000000000E+20
 20
1.0000000000E+20
 30
1.0000000000E+20
  9
$PEXTMAX
 10
-1.0000000000E+20
 20
-1.0000000000E+20
 30
-1.0000000000E+20
  9
$PLIMMIN
 10
0.0
 20
0.0
  9
$PLIMMAX
 10
420.0
 20
297.0
  9
$UNITMODE
 70
     0
  9
$VISRETAIN
 70
     1
  9
$PLINEGEN
 70
     0
  9
$PSLTSCALE
 70
     1
  9
$TREEDEPTH
 70
  3020
  9
$CMLSTYLE
  2
Standard
  9
$CMLJUST
 70
     0
  9
$CMLSCALE
 40
20.0
  9
$PROXYGRAPHICS
 70
     1
  9
$MEASUREMENT
 70
     1
  9
$CELWEIGHT
370
    -1
  9
$ENDCAPS
280
     0
  9
$JOINSTYLE
280
     0
  9
$LWDISPLAY
290
     1
  9
$INSUNITS
 70
     4
  9
$HYPERLINKBASE
  1

  9
$STYLESHEET
  1

  9
$XEDIT
290
     1
  9
$CEPSNTYPE
380
     0
  9
$PSTYLEMODE
290
     1
  9
$FINGERPRINTGUID
  2
{aadab5bb-7e5b-4db1-910a-5e54e0ddd490}
  9
$VERSIONGUID
  2
{FAEB1C32-E019-11D5-929B-00C0DF256EC4}
  9
$EXTNAMES
290
     1
  9
$PSVPSCALE
 40
0.0
  9
$OLESTARTUP
290
     0
  0
ENDSEC
  0
SECTION
  2
CLASSES
  0
CLASS
  1
ACDBDICTIONARYWDFLT
  2
AcDbDictionaryWithDefault
  3
ObjectDBX Classes
 90
        0
280
     0
281
     0
  0
CLASS
  1
VISUALSTYLE
  2
AcDbVisualStyle
  3
ObjectDBX Classes
 90
     4095
280
     0
281
     0
  0
CLASS
  1
MATERIAL
  2
AcDbMaterial
  3
ObjectDBX Classes
 90
     1153
280
     0
281
     0
  0
CLASS
  1
SCALE
  2
AcDbScale
  3
ObjectDBX Classes
 90
     1153
280
     0
281
     0
  0
CLASS
  1
TABLESTYLE
  2
AcDbTableStyle
  3
ObjectDBX Classes
 90
     4095
280
     0
281
     0
  0
CLASS
  1
MLEADERSTYLE
  2
AcDbMLeaderStyle
  3
ACDB_MLEADERSTYLE_CLASS
 90
     4095
280
     0
281
     0
  0
CLASS
  1
SUN
  2
AcDbSun
  3
SCENEOE
 90
     1153
280
     0
281
     0
  0
CLASS
  1
ACDBPLACEHOLDER
  2
AcDbPlaceHolder
  3
ObjectDBX Classes
 90
        0
280
     0
281
     0
  0
CLASS
  1
LAYOUT
  2
AcDbLayout
  3
ObjectDBX Classes
 90
        0
280
     0
281
     0
  0
ENDSEC
  0
SECTION
  2
TABLES
  0
TABLE
  2
VPORT
  5
8
330
0
100
AcDbSymbolTable
 70
     1
  0
VPORT
  5
29
330
8
100
AcDbSymbolTableRecord
100
AcDbViewportTableRecord
  2
*Active
 70
     0
 10
0.0
 20
0.0
 11
1.0
 21
1.0
 12
105.0
 22
148.5
 13
0.0
 23
0.0
 14
10.0
 24
10.0
 15
10.0
 25
10.0
 16
0.0
 26
0.0
 36
1.0
 17
0.0
 27
0.0
 37
0.0
 40
297.0
 41
0.7070707071
 42
50.0
 43
0.0
 44
0.0
 50
0.0
 51
0.0
 71
     0
 72
  2000
 73
     1
 74
     3
 75
     0
 76
     0
 77
     0
 78
     0
281
     0
 65
     1
110
0.0
120
0.0
130
0.0
111
1.0
121
0.0
131
0.0
112
0.0
122
1.0
132
0.0
 79
     0
146
0.0
  0
ENDTAB
  0
TABLE
  2
LTYPE
  5
5
330
0
100
AcDbSymbolTable
 70
     6
  0
LTYPE
  5
14
330
5
100
AcDbSymbolTableRecord
100
AcDbLinetypeTableRecord
  2
ByBlock
 70
     0
  3

 72
    65
 73
     0
 40
0.0
  0
LTYPE
  5
15
330
5
100
AcDbSymbolTableRecord
100
AcDbLinetypeTableRecord
  2
ByLayer
 70
     0
  3

 72
    65
 73
     0
 40
0.0
  0
LTYPE
  5
16
330
5
100
AcDbSymbolTableRecord
100
AcDbLinetypeTableRecord
  2
Continuous
 70
     0
  3
Solid line
 72
    65
 73
     0
 40
0.0
  0
LTYPE
  5
6E
330
5
100
AcDbSymbolTableRecord
100
AcDbLinetypeTableRecord
  2
HIDDEN
 70
     0
  3
Hidden __ __ __ __ __ __ __ __ __ __ __ __ __ __
 72
    65
 73
     2
 40
1.905
 49
1.27
 74
     0
 49
-0.635
 74
     0
  0
LTYPE
  5
6F
330
5
100
AcDbSymbolTableRecord
100
AcDbLinetypeTableRecord
  2
PHANTOM
 70
     0
  3
Phantom ______  __  __  ______  __  __  ______
 72
    65
 73
     6
 40
12.7
 49
6.35
 74
     0
 49
-1.27
 74
     0
 49
1.27
 74
     0
 49
-1.27
 74
     0
 49
1.27
 74
     0
 49
-1.27
 74
     0
  0
LTYPE
  5
70
330
5
100
AcDbSymbolTableRecord
100
AcDbLinetypeTableRecord
  2
CENTER
 70
     0
  3
Center ____ _ ____ _ ____ _ ____ _ ____ _ ____
 72
    65
 73
     4
 40
10.16
 49
6.35
 74
     0
 49
-1.27
 74
     0
 49
1.27
 74
     0
 49
-1.27
 74
     0
  0
LTYPE
  5
71
330
5
100
AcDbSymbolTableRecord
100
AcDbLinetypeTableRecord
  2
CENTERX2
 70
     0
  3
Center (2x) ________  __  ________  __  _____
 72
    65
 73
     4
 40
20.32
 49
12.7
 74
     0
 49
-2.54
 74
     0
 49
2.54
 74
     0
 49
-2.54
 74
     0
  0
LTYPE
  5
72
330
5
100
AcDbSymbolTableRecord
100
AcDbLinetypeTableRecord
  2
DOT2
 70
     0
  3
Dot (.5x) ........................................
 72
    65
 73
     2
 40
0.635
 49
0.0
 74
     0
 49
-0.635
 74
     0
  0
ENDTAB
  0
TABLE
  2
LAYER
  5
2
330
0
100
AcDbSymbolTable
 70
     5
  0
LAYER
  5
10
330
2
100
AcDbSymbolTableRecord
100
AcDbLayerTableRecord
  2
0
 70
     0
 62
     7
  6
Continuous
370
    -3
390
F
  0
LAYER
  5
73
330
2
100
AcDbSymbolTableRecord
100
AcDbLayerTableRecord
  2
FORMAT
 70
     0
 62
     7
  6
Continuous
370
    -3
390
F
  0
LAYER
  5
74
330
2
100
AcDbSymbolTableRecord
100
AcDbLayerTableRecord
  2
SLD-0
 70
     0
 62
   179
  6
Continuous
370
    -3
390
F
  0
LAYER
  5
75
330
2
100
AcDbSymbolTableRecord
100
AcDbLayerTableRecord
  2
AAA_EKSEN
 70
     0
 62
     1
  6
CENTER
370
    -3
390
F
  0
LAYER
  5
76
330
2
100
AcDbSymbolTableRecord
100
AcDbLayerTableRecord
  2
03
 70
     0
 62
     3
  6
HIDDEN
370
    -3
390
F
  0
ENDTAB
  0
TABLE
  2
STYLE
  5
3
330
0
100
AcDbSymbolTable
 70
     1
  0
STYLE
  5
11
330
3
100
AcDbSymbolTableRecord
100
AcDbTextStyleTableRecord
  2
Standard
 70
     0
 40
0.0
 41
1.0
 50
0.0
 71
     0
 42
3.5
  3
txt
  4

  0
ENDTAB
  0
TABLE
  2
VIEW
  5
6
330
0
100
AcDbSymbolTable
 70
     0
  0
ENDTAB
  0
TABLE
  2
UCS
  5
7
330
0
100
AcDbSymbolTable
 70
     0
  0
ENDTAB
  0
TABLE
  2
APPID
  5
9
330
0
100
AcDbSymbolTable
 70
     1
  0
APPID
  5
12
330
9
100
AcDbSymbolTableRecord
100
AcDbRegAppTableRecord
  2
ACAD
 70
     0
  0
ENDTAB
  0
TABLE
  2
DIMSTYLE
  5
A
330
0
100
AcDbSymbolTable
 70
     1
100
AcDbDimStyleTable
  0
DIMSTYLE
105
27
330
A
100
AcDbSymbolTableRecord
100
AcDbDimStyleTableRecord
  2
ISO-25
 70
     0
 41
2.5
 42
0.625
 43
3.75
 44
1.25
 73
     0
 74
     0
 77
     1
 78
     8
140
2.5
141
2.5
143
0.0393700787
147
0.625
171
     3
172
     1
178
     0
271
     2
272
     2
274
     3
278
    44
283
     0
284
     8
340
11
  0
ENDTAB
  0
TABLE
  2
BLOCK_RECORD
  5
1
330
0
100
AcDbSymbolTable
 70
     1
  0
BLOCK_RECORD
  5
1F
330
1
100
AcDbSymbolTableRecord
100
AcDbBlockTableRecord
  2
*Model_Space
340
22
  0
BLOCK_RECORD
  5
1B
330
1
100
AcDbSymbolTableRecord
100
AcDbBlockTableRecord
  2
*Paper_Space
340
1E
  0
BLOCK_RECORD
  5
23
330
1
100
AcDbSymbolTableRecord
100
AcDbBlockTableRecord
  2
*Paper_Space0
340
26
  0
ENDTAB
  0
ENDSEC
  0
SECTION
  2
BLOCKS
  0
BLOCK
  5
20
330
1F
100
AcDbEntity
  8
0
100
AcDbBlockBegin
  2
*Model_Space
 70
     0
 10
0.0
 20
0.0
 30
0.0
  3
*Model_Space
  1

  0
ENDBLK
  5
21
330
1F
100
AcDbEntity
  8
0
100
AcDbBlockEnd
  0
BLOCK
  5
1C
330
1B
100
AcDbEntity
 67
     1
  8
0
100
AcDbBlockBegin
  2
*Paper_Space
 70
     0
 10
0.0
 20
0.0
 30
0.0
  3
*Paper_Space
  1

  0
ENDBLK
  5
1D
330
1B
100
AcDbEntity
 67
     1
  8
0
100
AcDbBlockEnd
  0
BLOCK
  5
24
330
23
100
AcDbEntity
  8
0
100
AcDbBlockBegin
  2
*Paper_Space0
 70
     0
 10
0.0
 20
0.0
 30
0.0
  3
*Paper_Space0
  1

  0
ENDBLK
  5
25
330
23
100
AcDbEntity
  8
0
100
AcDbBlockEnd
  0
ENDSEC
  0
SECTION
  2
ENTITIES
  0
LINE
  5
77
330
1F
100
AcDbEntity
  8
0
  6
Continuous
 62
     7
370
    25
100
AcDbLine
 10
68.189757279
 20
115.6572706782
 30
0.0
 11
64.7353150067
 21
115.6572706782
 31
0.0
  0
LINE
  5
78
330
1F
100
AcDbEntity
  8
0
  6
Continuous
 62
     7
370
    25
100
AcDbLine
 10
153.2808673152
 20
95.6495974234
 30
0.0
 11
156.7353150067
 21
95.6495974234
 31
0.0
  0
LINE
  5
79
330
1F
100
AcDbEntity
  8
0
  6
Continuous
 62
     7
370
    25
100
AcDbLine
 10
64.7353150067
 20
95.6495974234
 30
0.0
 11
68.189757279
 21
95.6495974234
 31
0.0
  0
LINE
  5
7A
330
1F
100
AcDbEntity
  8
0
  6
Continuous
 62
     7
370
    25
100
AcDbLine
 10
156.7353150067
 20
115.6572706782
 30
0.0
 11
153.2808727344
 21
115.6572706782
 31
0.0
  0
SPLINE
  5
7B
330
1F
100
AcDbEntity
  8
0
  6
Continuous
 62
     7
370
    25
100
AcDbSpline
210
0.0
220
0.0
230
1.0
 70
     8
 71
     3
 72
    60
 73
    56
 74
     0
 42
0.00000001
 43
0.00000001
 40
0.0
 40
0.0
 40
0.0
 40
0.0
 40
0.0625
 40
0.0625
 40
0.09375
 40
0.09375
 40
0.125
 40
0.125
 40
0.15625
 40
0.15625
 40
0.1875
 40
0.1875
 40
0.21875
 40
0.21875
 40
0.25
 40
0.25
 40
0.3125000000000001
 40
0.3125000000000001
 40
0.3437500000000001
 40
0.3437500000000001
 40
0.3750000000000001
 40
0.3750000000000001
 40
0.4062500000000001
 40
0.4062500000000001
 40
0.4375000000000001
 40
0.4375000000000001
 40
0.5
 40
0.5
 40
0.515625
 40
0.515625
 40
0.53125
 40
0.53125
 40
0.5625
 40
0.5625
 40
0.59375
 40
0.59375
 40
0.625
 40
0.625
 40
0.6875
 40
0.6875
 40
0.75
 40
0.75
 40
0.78125
 40
0.78125
 40
0.8125
 40
0.8125
 40
0.875
 40
0.875
 40
0.90625
 40
0.90625
 40
0.9375
 40
0.9375
 40
0.96875
 40
0.96875
 40
1.0
 40
1.0
 40
1.0
 40
1.0
 10
105.8279909266187
 20
139.8622315622049
 30
0.0
 10
108.3561067439628
 20
140.219993150957
 30
0.0
 10
110.8855273331266
 20
140.2991956749607
 30
0.0
 10
114.6816072079044
 20
140.0078245328066
 30
0.0
 10
115.9553345096216
 20
139.8394967526022
 30
0.0
 10
118.4330511342249
 20
139.3744773669424
 30
0.0
 10
119.6438939220869
 20
139.0781738697432
 30
0.0
 10
122.0147670216198
 20
138.3638279561054
 30
0.0
 10
123.1747912071727
 20
137.9457665299683
 30
0.0
 10
125.4473570358167
 20
136.9880093109132
 30
0.0
 10
126.5452434048194
 20
136.4542982015585
 30
0.0
 10
128.661253962603
 20
135.2869740498039
 30
0.0
 10
129.68138331097
 20
134.6524788199366
 30
0.0
 10
131.6512566578204
 20
133.2811758692696
 30
0.0
 10
132.6049773552577
 20
132.5408010395458
 30
0.0
 10
135.3328866926247
 20
130.185010192638
 30
0.0
 10
136.9649977519486
 20
128.4495770408185
 30
0.0
 10
139.1483944790896
 20
125.5818708612536
 30
0.0
 10
139.8315320913909
 20
124.5814778071931
 30
0.0
 10
141.1043918109226
 20
122.4831619633447
 30
0.0
 10
141.6858054647494
 20
121.3981435295677
 30
0.0
 10
142.7293453516908
 20
119.1721220805217
 30
0.0
 10
143.1931472693045
 20
118.0284015587462
 30
0.0
 10
144.0012145540722
 20
115.6760219507915
 30
0.0
 10
144.3464665753914
 20
114.4630613006491
 30
0.0
 10
145.1833225743677
 20
110.7455616325052
 30
0.0
 10
145.463312514696
 20
108.2386166234478
 30
0.0
 10
145.4678566877702
 20
105.0689132645624
 30
0.0
 10
145.4512953148643
 20
104.4331544661345
 30
0.0
 10
145.3824655335361
 20
103.1579235919109
 30
0.0
 10
145.329880626683
 20
102.5164246698887
 30
0.0
 10
145.1204298931857
 20
100.6134409352799
 30
0.0
 10
144.9121380859429
 20
99.36667419882326
 30
0.0
 10
144.364536058964
 20
96.91450673827872
 30
0.0
 10
144.0252065881824
 20
95.70911371082462
 30
0.0
 10
143.2165651492791
 20
93.33869323421474
 30
0.0
 10
142.746176522245
 20
92.17389064019643
 30
0.0
 10
141.178521938797
 20
88.82027977317581
 30
0.0
 10
139.9178072933068
 20
86.74040435816632
 30
0.0
 10
136.9733654692068
 20
82.86351416934504
 30
0.0
 10
135.3341731961428
 20
81.12450995536355
 30
0.0
 10
132.623434258348
 20
78.78124382426321
 30
0.0
 10
131.677372049107
 20
78.0448715028786
 30
0.0
 10
129.6934717546589
 20
76.66182419458066
 30
0.0
 10
128.6695945182421
 20
76.02507304522804
 30
0.0
 10
125.5086710148051
 20
74.27958629739193
 30
0.0
 10
123.279664235815
 20
73.32980698052947
 30
0.0
 10
119.7116449864535
 20
72.24640728611057
 30
0.0
 10
118.4774833871579
 20
71.94242098729372
 30
0.0
 10
115.9999396821382
 20
71.47411139227981
 30
0.0
 10
114.7490999603982
 20
71.30682014107245
 30
0.0
 10
112.2222195514956
 20
71.10781399755658
 30
0.0
 10
110.9431590014522
 20
71.07618587435284
 30
0.0
 10
108.3711555156157
 20
71.15537663199267
 30
0.0
 10
107.0948785774415
 20
71.265355299278
 30
0.0
 10
105.8279909266142
 20
71.44463653933089
 30
0.0
  0
ARC
  5
7C
330
1F
100
AcDbEntity
  8
0
  6
Continuous
 62
     7
370
    25
100
AcDbCircle
 10
104.1973291151
 20
71.9153361414
 30
0.0
 40
1.697237773255708
100
AcDbArc
 50
343.8989214018
 51
6.0317400871
  0
SPLINE
  5
7D
330
1F
100
AcDbEntity
  8
0
  6
Continuous
 62
     7
370
    25
100
AcDbSpline
210
0.0
220
0.0
230
1.0
 70
     8
 71
     3
 72
    62
 73
    58
 74
     0
 42
0.00000001
 43
0.00000001
 40
0.0
 40
0.0
 40
0.0
 40
0.0
 40
0.0312500000000001
 40
0.0312500000000001
 40
0.0625000000000002
 40
0.0625000000000002
 40
0.0937500000000003
 40
0.0937500000000003
 40
0.1250000000000004
 40
0.1250000000000004
 40
0.1875000000000005
 40
0.1875000000000005
 40
0.2187500000000005
 40
0.2187500000000005
 40
0.2500000000000005
 40
0.2500000000000005
 40
0.3125000000000004
 40
0.3125000000000004
 40
0.3750000000000004
 40
0.3750000000000004
 40
0.3906250000000004
 40
0.3906250000000004
 40
0.4062500000000004
 40
0.4062500000000004
 40
0.4375000000000004
 40
0.4375000000000004
 40
0.4687500000000003
 40
0.4687500000000003
 40
0.4843750000000003
 40
0.4843750000000003
 40
0.5000000000000003
 40
0.5000000000000003
 40
0.5625000000000003
 40
0.5625000000000003
 40
0.5937500000000002
 40
0.5937500000000002
 40
0.6250000000000002
 40
0.6250000000000002
 40
0.6562500000000002
 40
0.6562500000000002
 40
0.6875000000000002
 40
0.6875000000000002
 40
0.7500000000000002
 40
0.7500000000000002
 40
0.7812500000000002
 40
0.7812500000000002
 40
0.8125000000000002
 40
0.8125000000000002
 40
0.8437500000000002
 40
0.8437500000000002
 40
0.8750000000000002
 40
0.8750000000000002
 40
0.9062500000000002
 40
0.9062500000000002
 40
0.9375000000000001
 40
0.9375000000000001
 40
1.0
 40
1.0
 40
1.0
 40
1.0
 10
105.8851707037898
 20
72.09368083694534
 30
0.0
 10
107.1337300779774
 20
71.91836177938276
 30
0.0
 10
108.3914630341157
 20
71.81062936249278
 30
0.0
 10
110.9259302121162
 20
71.7323968749175
 30
0.0
 10
112.1866306198443
 20
71.76272099195819
 30
0.0
 10
114.6772803952115
 20
71.9557941197223
 30
0.0
 10
115.9102891272148
 20
72.11845334481353
 30
0.0
 10
118.3527176910367
 20
72.57422730405119
 30
0.0
 10
119.5696562540033
 20
72.87024827743885
 30
0.0
 10
123.0899471268831
 20
73.92631551281131
 30
0.0
 10
125.2903297107826
 20
74.85288744111301
 30
0.0
 10
128.4122381801575
 20
76.55703752650241
 30
0.0
 10
129.4232559863343
 20
77.1785361335758
 30
0.0
 10
131.3849106710181
 20
78.53040516677657
 30
0.0
 10
132.3207499579028
 20
79.25047138839513
 30
0.0
 10
135.00327199778
 20
81.54287540809723
 30
0.0
 10
136.6269000558496
 20
83.24538307064599
 30
0.0
 10
139.5462203974255
 20
87.04483323395438
 30
0.0
 10
140.7990464397822
 20
89.08702827706853
 30
0.0
 10
142.0977311921987
 20
91.83278917744384
 30
0.0
 10
142.3439669168754
 20
92.39176908639367
 30
0.0
 10
142.8085114770525
 20
93.53035134285
 30
0.0
 10
143.0267298746874
 20
94.11012013209526
 30
0.0
 10
143.6305517251647
 20
95.85932638646972
 30
0.0
 10
143.9685283229234
 20
97.04570796685594
 30
0.0
 10
144.5141097680401
 20
99.46003940012213
 30
0.0
 10
144.7217351112317
 20
100.6879810852571
 30
0.0
 10
144.9305576045394
 20
102.5629336886258
 30
0.0
 10
144.9829995685558
 20
103.1951876163953
 30
0.0
 10
145.0516180992559
 20
104.4519507903265
 30
0.0
 10
145.068115279341
 20
105.0784615723626
 30
0.0
 10
145.0634895803361
 20
108.2018592652655
 30
0.0
 10
144.7842188621123
 20
110.6715539717912
 30
0.0
 10
143.949968709615
 20
114.3329148900494
 30
0.0
 10
143.6061435946768
 20
115.5261928674905
 30
0.0
 10
142.8018130123118
 20
117.8398734683312
 30
0.0
 10
142.340385110792
 20
118.9642145878804
 30
0.0
 10
141.3027756191915
 20
121.1515520962378
 30
0.0
 10
140.7246287313612
 20
122.2176896193847
 30
0.0
 10
139.4610154760486
 20
124.2763983109237
 30
0.0
 10
138.7832307239188
 20
125.257364111876
 30
0.0
 10
136.6181663129921
 20
128.0681095007284
 30
0.0
 10
135.001277098009
 20
129.7673193578264
 30
0.0
 10
132.3013955813903
 20
132.0721162438835
 30
0.0
 10
131.3585166543822
 20
132.7956159725487
 30
0.0
 10
129.4113823233222
 20
134.1355318664142
 30
0.0
 10
128.4033624574859
 20
134.7552707480262
 30
0.0
 10
126.3131561943537
 20
135.8950495151699
 30
0.0
 10
125.2285967361819
 20
136.4161088312332
 30
0.0
 10
122.9861361271104
 20
137.3500908080415
 30
0.0
 10
121.8416958346681
 20
137.7576468728814
 30
0.0
 10
119.5031095892379
 20
138.453793702389
 30
0.0
 10
118.3089693551043
 20
138.7424024724511
 30
0.0
 10
115.8658942869872
 20
139.1950424861975
 30
0.0
 10
114.6105242336484
 20
139.3586499324896
 30
0.0
 10
110.869452492795
 20
139.6412482364298
 30
0.0
 10
108.3766742425701
 20
139.5630369083975
 30
0.0
 10
105.8851707037951
 20
139.2131872645905
 30
0.0
  0
ARC
  5
7E
330
1F
100
AcDbEntity
  8
0
  6
Continuous
 62
     7
370
    25
100
AcDbCircle
 10
104.1973291153
 20
139.3915319601
 30
0.0
 40
1.69723777302068
100
AcDbArc
 50
353.968259911
 51
16.1010785993
  0
SPLINE
  5
7F
330
1F
100
AcDbEntity
  8
0
  6
Continuous
 62
     7
370
    25
100
AcDbSpline
210
0.0
220
0.0
230
1.0
 70
     8
 71
     3
 72
    64
 73
    60
 74
     0
 42
0.00000001
 43
0.00000001
 40
0.0
 40
0.0
 40
0.0
 40
0.0
 40
0.0624999999999997
 40
0.0624999999999997
 40
0.0937499999999995
 40
0.0937499999999995
 40
0.1249999999999993
 40
0.1249999999999993
 40
0.1562499999999991
 40
0.1562499999999991
 40
0.1874999999999989
 40
0.1874999999999989
 40
0.2499999999999987
 40
0.2499999999999987
 40
0.2812499999999986
 40
0.2812499999999986
 40
0.3124999999999984
 40
0.3124999999999984
 40
0.3437499999999983
 40
0.3437499999999983
 40
0.3593749999999983
 40
0.3593749999999983
 40
0.3749999999999982
 40
0.3749999999999982
 40
0.4374999999999983
 40
0.4374999999999983
 40
0.4687499999999984
 40
0.4687499999999984
 40
0.4999999999999984
 40
0.4999999999999984
 40
0.5312499999999984
 40
0.5312499999999984
 40
0.5468749999999986
 40
0.5468749999999986
 40
0.5624999999999986
 40
0.5624999999999986
 40
0.5937499999999986
 40
0.5937499999999986
 40
0.6249999999999987
 40
0.6249999999999987
 40
0.6874999999999989
 40
0.6874999999999989
 40
0.7187499999999989
 40
0.7187499999999989
 40
0.7499999999999989
 40
0.7499999999999989
 40
0.781249999999999
 40
0.781249999999999
 40
0.812499999999999
 40
0.812499999999999
 40
0.8749999999999993
 40
0.8749999999999993
 40
0.9062499999999996
 40
0.9062499999999996
 40
0.9374999999999997
 40
0.9374999999999997
 40
0.9687499999999999
 40
0.9687499999999999
 40
1.0
 40
1.0
 40
1.0
 40
1.0
 10
106.012460721836
 20
139.1093621302885
 30
0.0
 10
108.4963240837688
 20
139.4496965973525
 30
0.0
 10
110.9810190550812
 20
139.5196737794647
 30
0.0
 10
114.7093049218801
 20
139.226176878066
 30
0.0
 10
115.9592265343283
 20
139.0592314520093
 30
0.0
 10
118.3886965791094
 20
138.6015192038494
 30
0.0
 10
119.5760372514242
 20
138.3109097799244
 30
0.0
 10
121.9012194485283
 20
137.611647994548
 30
0.0
 10
123.0395392324255
 20
137.2027747028702
 30
0.0
 10
125.2681656727989
 20
136.2676473413763
 30
0.0
 10
126.3395790171403
 20
135.7494582744026
 30
0.0
 10
129.4407342098681
 20
134.0499487070592
 30
0.0
 10
131.3590620544576
 20
132.7257917584949
 30
0.0
 10
134.0370132408961
 20
130.4375461920306
 30
0.0
 10
134.8947506755249
 20
129.6238118052599
 30
0.0
 10
136.5083545159918
 20
127.9253117462097
 30
0.0
 10
137.2691546396107
 20
127.0365584175092
 30
0.0
 10
138.7002256844738
 20
125.1767796971729
 30
0.0
 10
139.3705012052959
 20
124.2057745768204
 30
0.0
 10
140.3058847892269
 20
122.6826112764941
 30
0.0
 10
140.6059738642263
 20
122.1637530098784
 30
0.0
 10
141.1819377175604
 20
121.1025412687983
 30
0.0
 10
141.4577559216381
 20
120.5599844873177
 30
0.0
 10
142.7573830960988
 20
117.821707701404
 30
0.0
 10
143.5612973206742
 20
115.5236636893031
 30
0.0
 10
144.3899121041336
 20
111.8974012437813
 30
0.0
 10
144.6018843525564
 20
110.654650379601
 30
0.0
 10
144.8820130503967
 20
108.1816811012436
 30
0.0
 10
144.952713246342
 20
106.9425573410659
 30
0.0
 10
144.9562306871649
 20
104.4590472120826
 30
0.0
 10
144.8890579618662
 20
103.2146611824449
 30
0.0
 10
144.6816526534417
 20
101.3440238849384
 30
0.0
 10
144.5946276412848
 20
100.7206222372564
 30
0.0
 10
144.387873915417
 20
99.49118787445289
 30
0.0
 10
144.2679145798011
 20
98.88279398868838
 30
0.0
 10
143.8596871739519
 20
97.07594472646744
 30
0.0
 10
143.5232250071418
 20
95.89577237455235
 30
0.0
 10
142.7251075790235
 20
93.58213319538686
 30
0.0
 10
142.2601010219221
 20
92.4421975210323
 30
0.0
 10
140.7042608332999
 20
89.15002150032898
 30
0.0
 10
139.4586300444798
 20
87.12135130473803
 30
0.0
 10
137.2921545605298
 20
84.29745463973242
 30
0.0
 10
136.5191592780068
 20
83.39361442418772
 30
0.0
 10
134.9025756617947
 20
81.69061598424784
 30
0.0
 10
134.0554694957888
 20
80.88656824324178
 30
0.0
 10
132.2822490148969
 20
79.36848193638787
 30
0.0
 10
131.3561528158258
 20
78.65444729830078
 30
0.0
 10
129.4194524906786
 20
77.31543568412188
 30
0.0
 10
128.4054942895154
 20
76.6893717081917
 30
0.0
 10
125.2947748257753
 20
74.98525411835259
 30
0.0
 10
123.1112485761366
 20
74.0635027070225
 30
0.0
 10
119.6375052505207
 20
73.01233077631977
 30
0.0
 10
118.4413719128336
 20
72.71689587942842
 30
0.0
 10
115.9923482323852
 20
72.25230970312693
 30
0.0
 10
114.7601799047578
 20
72.08666724180752
 30
0.0
 10
112.2801485920722
 20
71.88757634234145
 30
0.0
 10
111.0322847006646
 20
71.85412524027868
 30
0.0
 10
108.5202832854062
 20
71.92336411905659
 30
0.0
 10
107.2573646485702
 20
72.02693148597325
 30
0.0
 10
106.0124607218333
 20
72.19750597124707
 30
0.0
  0
LWPOLYLINE
  5
80
330
1F
100
AcDbEntity
  8
0
  6
Continuous
 62
     7
370
    25
100
AcDbPolyline
 90
        3
 70
   128
 43
0.0
 10
105.8851707038
 20
139.2131872646
 10
106.0027853679
 20
139.1172652538
 10
106.0124607218
 20
139.1093621303
  0
LWPOLYLINE
  5
81
330
1F
100
AcDbEntity
  8
0
  6
Continuous
 62
     7
370
    25
100
AcDbPolyline
 90
        3
 70
   128
 43
0.0
 10
106.0124607218
 20
72.1975059712
 10
105.896596609
 20
72.1029873079
 10
105.8851707038
 20
72.0936808369
  0
ELLIPSE
  5
82
330
1F
100
AcDbEntity
  8
0
  6
Continuous
 62
     7
370
    25
100
AcDbEllipse
 10
88.9948307882
 20
105.6534340508
 30
0.0
 11
0.0
 21
54.59999999999999
 31
0.0
210
0.0
220
0.0
230
1.0
 40
0.0349207695
 41
4.637893357461574
 42
4.712005238226764
  0
LINE
  5
83
330
1F
100
AcDbEntity
  8
0
  6
Continuous
 62
     7
370
    25
100
AcDbLine
 10
90.8751495616
 20
101.568667074
 30
0.0
 11
90.8962166117
 21
101.5897341242
 31
0.0
  0
ELLIPSE
  5
84
330
1F
100
AcDbEntity
  8
0
  6
Continuous
 62
     7
370
    25
100
AcDbEllipse
 10
88.9948307882
 20
105.6534340508
 30
0.0
 11
0.0
 21
54.0
 31
0.0
210
0.0
220
0.0
230
1.0
 40
0.0349207695
 41
4.636672822227902
 42
4.71238898038469
  0
LINE
  5
85
330
1F
100
AcDbEntity
  8
0
  6
Continuous
 62
     7
370
    25
100
AcDbLine
 10
90.8805523407
 20
105.6534340508
 30
0.0
 11
90.901504662
 21
105.6324817295
 31
0.0
  0
ELLIPSE
  5
86
330
1F
100
AcDbEntity
  8
0
  6
Continuous
 62
     7
370
    25
100
AcDbEllipse
 10
84.7915350187
 20
105.6534340508
 30
0.0
 11
0.0
 21
54.0
 31
0.0
210
0.0
220
0.0
230
1.0
 40
0.0349207695
 41
4.71238898038469
 42
4.73720078729064
  0
LINE
  5
87
330
1F
100
AcDbEntity
  8
0
  6
Continuous
 62
     7
370
    25
100
AcDbLine
 10
86.6976528317
 20
106.9721574748
 30
0.0
 11
86.6766761517
 21
106.9931341548
 31
0.0
  0
ELLIPSE
  5
88
330
1F
100
AcDbEntity
  8
0
  6
Continuous
 62
     7
370
    25
100
AcDbEllipse
 10
84.7915350187
 20
105.6534340508
 30
0.0
 11
0.0
 21
54.59999999999999
 31
0.0
210
0.0
220
0.0
230
1.0
 40
0.0349207695
 41
4.712772722542615
 42
4.736543772847715
  0
LINE
  5
89
330
1F
100
AcDbEntity
  8
0
  6
Continuous
 62
     7
370
    25
100
AcDbLine
 10
86.6982088926
 20
105.6743863721
 30
0.0
 11
86.6772565713
 21
105.6534340508
 31
0.0
  0
LINE
  5
8A
330
1F
100
AcDbEntity
  8
0
  6
Continuous
 62
     7
370
    25
100
AcDbLine
 10
90.7196180632
 20
109.7045783207
 30
0.0
 11
90.7406845743
 21
109.7256448319
 31
0.0
  0
ELLIPSE
  5
8B
330
1F
100
AcDbEntity
  8
0
  6
Continuous
 62
     7
370
    25
100
AcDbEllipse
 10
92.6210365593
 20
105.6534340508
 30
0.0
 11
0.0
 21
54.0
 31
0.0
210
0.0
220
0.0
230
1.0
 40
0.0349207695
 41
1.495313356832345
 42
1.570796326794897
  0
LINE
  5
8C
330
1F
100
AcDbEntity
  8
0
  6
Continuous
 62
     7
370
    25
100
AcDbLine
 10
90.7143626854
 20
105.6743863721
 30
0.0
 11
90.7353150067
 21
105.6534340508
 31
0.0
  0
ELLIPSE
  5
8D
330
1F
100
AcDbEntity
  8
0
  6
Continuous
 62
     7
370
    25
100
AcDbEllipse
 10
92.6210365593
 20
105.6534340508
 30
0.0
 11
0.0
 21
54.59999999999999
 31
0.0
210
0.0
220
0.0
230
1.0
 40
0.0349207695
 41
1.4965312985339
 42
1.570412584636971
  0
LINE
  5
8E
330
1F
100
AcDbEntity
  8
0
  6
Continuous
 62
     7
370
    25
100
AcDbLine
 10
90.7353150067
 20
105.6534340508
 30
0.0
 11
86.6772565713
 21
105.6534340508
 31
0.0
  0
LINE
  5
8F
330
1F
100
AcDbEntity
  8
0
  6
Continuous
 62
     7
370
    25
100
AcDbLine
 10
90.7143626854
 20
105.6743863721
 30
0.0
 11
86.6982088926
 21
105.6743863721
 31
0.0
  0
LINE
  5
90
330
1F
100
AcDbEntity
  8
0
  6
Continuous
 62
     7
370
    25
100
AcDbLine
 10
92.2220982488
 20
101.5897341242
 30
0.0
 11
90.8962166117
 21
101.5897341242
 31
0.0
  0
LINE
  5
91
330
1F
100
AcDbEntity
  8
0
  6
Continuous
 62
     7
370
    25
100
AcDbLine
 10
90.901504662
 20
105.6324817295
 30
0.0
 11
94.9166743439
 21
105.6324817295
 31
0.0
  0
ELLIPSE
  5
92
330
1F
100
AcDbEntity
  8
0
  6
Continuous
 62
     7
370
    25
100
AcDbEllipse
 10
96.8233482178
 20
105.6534340508
 30
0.0
 11
0.0
 21
54.59999999999999
 31
0.0
210
0.0
220
0.0
230
1.0
 40
0.0349207695
 41
1.571180068952822
 42
1.595288068237336
  0
LINE
  5
93
330
1F
100
AcDbEntity
  8
0
  6
Continuous
 62
     7
370
    25
100
AcDbLine
 10
94.9172460298
 20
104.3163186545
 30
0.0
 11
92.2173818844
 21
104.3163186545
 31
0.0
  0
ELLIPSE
  5
94
330
1F
100
AcDbEntity
  8
0
  6
Continuous
 62
     7
370
    25
100
AcDbEllipse
 10
94.1234840724
 20
105.6534340508
 30
0.0
 11
0.0
 21
54.59999999999999
 31
0.0
210
0.0
220
0.0
230
1.0
 40
0.0349207695
 41
1.595288068237336
 42
1.645291949718015
  0
LINE
  5
95
330
1F
100
AcDbEntity
  8
0
  6
Continuous
 62
     7
370
    25
100
AcDbLine
 10
86.6976528317
 20
106.9721574748
 30
0.0
 11
89.4437414274
 21
106.9721574748
 31
0.0
  0
ELLIPSE
  5
96
330
1F
100
AcDbEntity
  8
0
  6
Continuous
 62
     7
370
    25
100
AcDbEllipse
 10
87.5376236144
 20
105.6534340508
 30
0.0
 11
0.0
 21
54.59999999999999
 31
0.0
210
0.0
220
0.0
230
1.0
 40
0.0349207695
 41
4.736543772847714
 42
4.786654008645689
  0
LINE
  5
97
330
1F
100
AcDbEntity
  8
0
  6
Continuous
 62
     7
370
    25
100
AcDbLine
 10
89.4390421105
 20
109.7045783207
 30
0.0
 11
90.7196180632
 21
109.7045783207
 31
0.0
  0
LINE
  5
98
330
1F
100
AcDbEntity
  8
0
  6
Continuous
 62
     7
370
    25
100
AcDbLine
 10
94.9376266652
 20
105.6534340508
 30
0.0
 11
94.9166743439
 21
105.6324817295
 31
0.0
  0
ELLIPSE
  5
99
330
1F
100
AcDbEntity
  8
0
  6
Continuous
 62
     7
370
    25
100
AcDbEllipse
 10
96.8233482178
 20
105.6534340508
 30
0.0
 11
0.0
 21
54.0
 31
0.0
210
0.0
220
0.0
230
1.0
 40
0.0349207695
 41
1.570796326794897
 42
1.595948839943823
  0
LINE
  5
9A
330
1F
100
AcDbEntity
  8
0
  6
Continuous
 62
     7
370
    25
100
AcDbLine
 10
94.9382231336
 20
104.2953415506
 30
0.0
 11
94.9172460298
 21
104.3163186545
 31
0.0
  0
LINE
  5
9B
330
1F
100
AcDbEntity
  8
0
  6
Continuous
 62
     7
370
    25
100
AcDbLine
 10
90.8805523407
 20
105.6534340508
 30
0.0
 11
94.9376266652
 21
105.6534340508
 31
0.0
  0
LINE
  5
9C
330
1F
100
AcDbEntity
  8
0
  6
Continuous
 62
     7
370
    25
100
AcDbLine
 10
86.6766761517
 20
106.9931341548
 30
0.0
 11
89.4227647473
 21
106.9931341548
 31
0.0
  0
LINE
  5
9D
330
1F
100
AcDbEntity
  8
0
  6
Continuous
 62
     7
370
    25
100
AcDbLine
 10
89.4437414274
 20
106.9721574748
 30
0.0
 11
89.4227647473
 21
106.9931341548
 31
0.0
  0
ELLIPSE
  5
9E
330
1F
100
AcDbEntity
  8
0
  6
Continuous
 62
     7
370
    25
100
AcDbEllipse
 10
87.5376236144
 20
105.6534340508
 30
0.0
 11
0.0
 21
54.0
 31
0.0
210
0.0
220
0.0
230
1.0
 40
0.0349207695
 41
4.73720078729064
 42
4.787871950347244
  0
LINE
  5
9F
330
1F
100
AcDbEntity
  8
0
  6
Continuous
 62
     7
370
    25
100
AcDbLine
 10
89.4390421105
 20
109.7045783207
 30
0.0
 11
89.4179755994
 21
109.7256448319
 31
0.0
  0
LINE
  5
A0
330
1F
100
AcDbEntity
  8
0
  6
Continuous
 62
     7
370
    25
100
AcDbLine
 10
92.2383589882
 20
104.2953415506
 30
0.0
 11
92.2173818844
 21
104.3163186545
 31
0.0
  0
LINE
  5
A1
330
1F
100
AcDbEntity
  8
0
  6
Continuous
 62
     7
370
    25
100
AcDbLine
 10
94.9382231336
 20
104.2953415506
 30
0.0
 11
92.2383589882
 21
104.2953415506
 31
0.0
  0
ELLIPSE
  5
A2
330
1F
100
AcDbEntity
  8
0
  6
Continuous
 62
     7
370
    25
100
AcDbEllipse
 10
94.1234840724
 20
105.6534340508
 30
0.0
 11
0.0
 21
54.0
 31
0.0
210
0.0
220
0.0
230
1.0
 40
0.0349207695
 41
1.595948839943823
 42
1.646512484951688
  0
LINE
  5
A3
330
1F
100
AcDbEntity
  8
0
  6
Continuous
 62
     7
370
    25
100
AcDbLine
 10
92.243165299
 20
101.568667074
 30
0.0
 11
92.2220982488
 21
101.5897341242
 31
0.0
  0
LINE
  5
A4
330
1F
100
AcDbEntity
  8
0
  6
Continuous
 62
     7
370
    25
100
AcDbLine
 10
89.4179755994
 20
109.7256448319
 30
0.0
 11
90.7406845743
 21
109.7256448319
 31
0.0
  0
LINE
  5
A5
330
1F
100
AcDbEntity
  8
0
  6
Continuous
 62
     7
370
    25
100
AcDbLine
 10
92.243165299
 20
101.568667074
 30
0.0
 11
90.8751495616
 21
101.568667074
 31
0.0
  0
CIRCLE
  5
A6
330
1F
100
AcDbEntity
  8
0
  6
Continuous
 62
     7
370
    25
100
AcDbCircle
 10
64.7353150067
 20
105.6534340508
 30
0.0
 40
4.293718054084138
  0
SPLINE
  5
A7
330
1F
100
AcDbEntity
  8
0
  6
Continuous
 62
     7
370
    25
100
AcDbSpline
210
0.0
220
0.0
230
1.0
 70
    11
 71
     3
 72
    70
 73
    66
 74
     0
 42
0.00000001
 43
0.00000001
 40
0.0
 40
0.0
 40
0.0
 40
0.0
 40
0.03125
 40
0.03125
 40
0.0625000000000001
 40
0.0625000000000001
 40
0.0937500000000001
 40
0.0937500000000001
 40
0.1250000000000002
 40
0.1250000000000002
 40
0.1562500000000002
 40
0.1562500000000002
 40
0.1875000000000002
 40
0.1875000000000002
 40
0.2187500000000003
 40
0.2187500000000003
 40
0.2500000000000003
 40
0.2500000000000003
 40
0.2812500000000004
 40
0.2812500000000004
 40
0.3125000000000004
 40
0.3125000000000004
 40
0.3437500000000004
 40
0.3437500000000004
 40
0.3750000000000005
 40
0.3750000000000005
 40
0.4062500000000006
 40
0.4062500000000006
 40
0.4375000000000006
 40
0.4375000000000006
 40
0.4687500000000006
 40
0.4687500000000006
 40
0.5000000000000007
 40
0.5000000000000007
 40
0.5312500000000006
 40
0.5312500000000006
 40
0.5625000000000006
 40
0.5625000000000006
 40
0.5937500000000004
 40
0.5937500000000004
 40
0.6250000000000003
 40
0.6250000000000003
 40
0.6562500000000003
 40
0.6562500000000003
 40
0.6875000000000002
 40
0.6875000000000002
 40
0.7187500000000002
 40
0.7187500000000002
 40
0.7500000000000001
 40
0.7500000000000001
 40
0.78125
 40
0.78125
 40
0.8125
 40
0.8125
 40
0.8437499999999999
 40
0.8437499999999999
 40
0.8749999999999998
 40
0.8749999999999998
 40
0.9062499999999999
 40
0.9062499999999999
 40
0.9374999999999999
 40
0.9374999999999999
 40
0.96875
 40
0.96875
 40
1.0
 40
1.0
 40
1.0
 40
1.0
 10
70.40971659408498
 20
111.3060347664423
 30
0.0
 10
70.01309942765447
 20
111.6563732555807
 30
0.0
 10
69.58608604599281
 20
111.9645155504369
 30
0.0
 10
68.68737284416724
 20
112.4943215704397
 30
0.0
 10
68.2137374983438
 20
112.7175803527262
 30
0.0
 10
67.21761104319886
 20
113.0787980650072
 30
0.0
 10
66.71042883249208
 20
113.2112243646268
 30
0.0
 10
65.67930688050595
 20
113.384847647694
 30
0.0
 10
65.15156144165829
 20
113.4259618067258
 30
0.0
 10
64.09511830105768
 20
113.4125253679125
 30
0.0
 10
63.57409643050612
 20
113.3587810791217
 30
0.0
 10
62.54614423670252
 20
113.1591075778544
 30
0.0
 10
62.03431243529985
 20
113.0109471254642
 30
0.0
 10
61.05606124571237
 20
112.6270861632755
 30
0.0
 10
60.58893839019683
 20
112.3924948809572
 30
0.0
 10
59.69951872616748
 20
111.8358900049098
 30
0.0
 10
59.27685095032178
 20
111.511994623065
 30
0.0
 10
58.51249362537821
 20
110.798073462016
 30
0.0
 10
58.16578742886536
 20
110.4053011640535
 30
0.0
 10
57.55005108656281
 20
109.5439737897342
 30
0.0
 10
57.2906297473712
 20
109.0889260712427
 30
0.0
 10
56.86889301947028
 20
108.1297004218643
 30
0.0
 10
56.70618180922649
 20
107.6197433904216
 30
0.0
 10
56.49703116777019
 20
106.5915867767312
 30
0.0
 10
56.44787513083659
 20
106.0700765992144
 30
0.0
 10
56.46427376952251
 20
105.011657383371
 30
0.0
 10
56.53046797327662
 20
104.4872521672987
 30
0.0
 10
56.77048233890098
 20
103.4702019598824
 30
0.0
 10
56.94712003374183
 20
102.9684825617319
 30
0.0
 10
57.39955870204596
 20
102.0176717698885
 30
0.0
 10
57.67226753950783
 20
101.5716629515131
 30
0.0
 10
58.30668510942727
 20
100.7356160701319
 30
0.0
 10
58.66973584212985
 20
100.3461662651701
 30
0.0
 10
59.45558705461915
 20
99.65241317410914
 30
0.0
 10
59.88550224312865
 20
99.34137499489847
 30
0.0
 10
60.79212577013433
 20
98.80773548197548
 30
0.0
 10
61.26495640968167
 20
98.5862546191528
 30
0.0
 10
62.24813540322817
 20
98.22995026143792
 30
0.0
 10
62.76400217411679
 20
98.09460561029735
 30
0.0
 10
63.80051252862143
 20
97.92087624255677
 30
0.0
 10
64.32202527739872
 20
97.88097490315361
 30
0.0
 10
65.37151537444868
 20
97.89426093334652
 30
0.0
 10
65.90292134832262
 20
97.94889184083458
 30
0.0
 10
66.93220870668851
 20
98.14970264001323
 30
0.0
 10
67.43466737938914
 20
98.29533110610683
 30
0.0
 10
68.41458913779302
 20
98.67973236728808
 30
0.0
 10
68.88889884707882
 20
98.91841659298522
 30
0.0
 10
69.77469283062489
 20
99.47369212891887
 30
0.0
 10
70.19243101350881
 20
99.79333826709846
 30
0.0
 10
70.96400115048266
 20
100.5145501489442
 30
0.0
 10
71.30930835002253
 20
100.9076104238286
 30
0.0
 10
71.91815716540943
 20
101.75971077987
 30
0.0
 10
72.1830246683196
 20
102.2236630374044
 30
0.0
 10
72.6041098256631
 20
103.1837374164753
 30
0.0
 10
72.76363142969595
 20
103.682798087029
 30
0.0
 10
72.97475791298868
 20
104.7212911199695
 30
0.0
 10
73.02286064520078
 20
105.2460781976944
 30
0.0
 10
73.00614110100904
 20
106.2928763954058
 30
0.0
 10
72.93966350927097
 20
106.8238690441312
 30
0.0
 10
72.69746126682273
 20
107.8458806750968
 30
0.0
 10
72.5235512612557
 20
108.3378916097652
 30
0.0
 10
72.07318419069009
 20
109.285161298311
 30
0.0
 10
71.7948015669011
 20
109.7403486912688
 30
0.0
 10
71.16256222202024
 20
110.5726196997264
 30
0.0
 10
70.80633376051549
 20
110.9556962773038
 30
0.0
 10
70.40971659408498
 20
111.3060347664423
 30
0.0
  0
SPLINE
  5
A8
330
1F
100
AcDbEntity
  8
0
  6
Continuous
 62
     7
370
    25
100
AcDbSpline
210
0.0
220
0.0
230
1.0
 70
     8
 71
     3
 72
    38
 73
    34
 74
     0
 42
0.00000001
 43
0.00000001
 40
0.0
 40
0.0
 40
0.0
 40
0.0
 40
0.0625
 40
0.0625
 40
0.125
 40
0.125
 40
0.1874999999999999
 40
0.1874999999999999
 40
0.2499999999999999
 40
0.2499999999999999
 40
0.3124999999999999
 40
0.3124999999999999
 40
0.3749999999999999
 40
0.3749999999999999
 40
0.4374999999999999
 40
0.4374999999999999
 40
0.5
 40
0.5
 40
0.5625000000000001
 40
0.5625000000000001
 40
0.6250000000000001
 40
0.6250000000000001
 40
0.6875000000000001
 40
0.6875000000000001
 40
0.75
 40
0.75
 40
0.8125
 40
0.8125
 40
0.875
 40
0.875
 40
0.9375
 40
0.9375
 40
1.0
 40
1.0
 40
1.0
 40
1.0
 10
61.9525481216368
 20
113.3463256841222
 30
0.0
 10
61.52391658207407
 20
113.2240954664024
 30
0.0
 10
61.09927660436871
 20
113.0808722332754
 30
0.0
 10
60.2845874784668
 20
112.7308341830703
 30
0.0
 10
59.89344834634083
 20
112.5286334401687
 30
0.0
 10
59.145320696646
 20
112.0667726234027
 30
0.0
 10
58.78831648137141
 20
111.8071401610079
 30
0.0
 10
58.11246925771068
 20
111.2236553800135
 30
0.0
 10
57.80261077457314
 20
110.9072213380445
 30
0.0
 10
57.24352359384866
 20
110.2309478149804
 30
0.0
 10
56.99332790863266
 20
109.8703216469419
 30
0.0
 10
56.55394850670763
 20
109.1023448311182
 30
0.0
 10
56.36500998808158
 20
108.6930925346882
 30
0.0
 10
56.06542894672306
 20
107.8615011810553
 30
0.0
 10
55.95206853112858
 20
107.4351749244167
 30
0.0
 10
55.79843421291906
 20
106.5613973374126
 30
0.0
 10
55.75872128574922
 20
106.1132753803031
 30
0.0
 10
55.75729440549512
 20
105.2183914148323
 30
0.0
 10
55.79559958148178
 20
104.770394674874
 30
0.0
 10
55.94601343211712
 20
103.8978291829161
 30
0.0
 10
56.05779123395455
 20
103.4711200466551
 30
0.0
 10
56.35509397316292
 20
102.6370087820478
 30
0.0
 10
56.54271590851565
 20
102.2271686606875
 30
0.0
 10
56.97960771058731
 20
101.4576820347597
 30
0.0
 10
57.22967878784232
 20
101.0943923851674
 30
0.0
 10
57.79242930693252
 20
100.4103089334123
 30
0.0
 10
58.1073302944784
 20
100.0884723736611
 30
0.0
 10
58.77646189427158
 20
99.50916009600633
 30
0.0
 10
59.13285179974029
 20
99.24848260462683
 30
0.0
 10
59.88674055656892
 20
98.78170367726929
 30
0.0
 10
60.28529969109901
 20
98.57564408816307
 30
0.0
 10
61.10154868067127
 20
98.22510378067253
 30
0.0
 10
61.52391656871025
 20
98.08277263885152
 30
0.0
 10
61.95254810838641
 20
97.96054242151693
 30
0.0
  0
SPLINE
  5
A9
330
1F
100
AcDbEntity
  8
0
  6
Continuous
 62
     7
370
    25
100
AcDbSpline
210
0.0
220
0.0
230
1.0
 70
     8
 71
     3
 72
    50
 73
    46
 74
     0
 42
0.00000001
 43
0.00000001
 40
0.0
 40
0.0
 40
0.0
 40
0.0
 40
0.0624999999999999
 40
0.0624999999999999
 40
0.1249999999999998
 40
0.1249999999999998
 40
0.1874999999999996
 40
0.1874999999999996
 40
0.2499999999999995
 40
0.2499999999999995
 40
0.2812499999999994
 40
0.2812499999999994
 40
0.3124999999999994
 40
0.3124999999999994
 40
0.3749999999999993
 40
0.3749999999999993
 40
0.4374999999999993
 40
0.4374999999999993
 40
0.4999999999999993
 40
0.4999999999999993
 40
0.5312499999999992
 40
0.5312499999999992
 40
0.5624999999999992
 40
0.5624999999999992
 40
0.6249999999999993
 40
0.6249999999999993
 40
0.6874999999999994
 40
0.6874999999999994
 40
0.7187499999999994
 40
0.7187499999999994
 40
0.7499999999999994
 40
0.7499999999999994
 40
0.7812499999999996
 40
0.7812499999999996
 40
0.8124999999999996
 40
0.8124999999999996
 40
0.8749999999999998
 40
0.8749999999999998
 40
0.9062499999999999
 40
0.9062499999999999
 40
0.9374999999999999
 40
0.9374999999999999
 40
0.96875
 40
0.96875
 40
1.0
 40
1.0
 40
1.0
 40
1.0
 10
61.95254812163782
 20
113.3463256841225
 30
0.0
 10
62.59083017427844
 20
113.5539544469029
 30
0.0
 10
63.24065751672487
 20
113.68668362186
 30
0.0
 10
64.56242053460345
 20
113.8091868060518
 30
0.0
 10
65.24028779921449
 20
113.7967268299826
 30
0.0
 10
66.55528025462549
 20
113.6260433486055
 30
0.0
 10
67.19961617487589
 20
113.4696451291129
 30
0.0
 10
68.45957194739663
 20
113.0075037033722
 30
0.0
 10
69.04991754143178
 20
112.7110843945834
 30
0.0
 10
69.87780142494567
 20
112.1708139809225
 30
0.0
 10
70.1440592031308
 20
111.9746205344542
 30
0.0
 10
70.65620935152747
 20
111.548310417559
 30
0.0
 10
70.90142730331208
 20
111.3183034992684
 30
0.0
 10
71.58533001981196
 20
110.5951873696131
 30
0.0
 10
71.98032414816674
 20
110.0638342811492
 30
0.0
 10
72.63958075817756
 20
108.8946799464019
 30
0.0
 10
72.88968126367551
 20
108.2818498096449
 30
0.0
 10
73.23160619168279
 20
107.0001416881936
 30
0.0
 10
73.32083472639417
 20
106.3264006571816
 30
0.0
 10
73.3221369959694
 20
105.3320407185647
 30
0.0
 10
73.30119766732243
 20
105.0009012992472
 30
0.0
 10
73.21587534848436
 20
104.3392602155485
 30
0.0
 10
73.1508645327098
 20
104.0075608341238
 30
0.0
 10
72.89589490314108
 20
103.0416314403686
 30
0.0
 10
72.64617685106215
 20
102.4266402971729
 30
0.0
 10
71.98936872742195
 20
101.2563842276646
 30
0.0
 10
71.59519507300993
 20
100.7238207878144
 30
0.0
 10
70.91147269135033
 20
99.99835904171869
 30
0.0
 10
70.66633327728626
 20
99.7677054231459
 30
0.0
 10
70.15516813722452
 20
99.34080321333633
 30
0.0
 10
69.88873212330147
 20
99.14374178465539
 30
0.0
 10
69.33486552456861
 20
98.78120368288913
 30
0.0
 10
69.04743272951788
 20
98.61573062588143
 30
0.0
 10
68.45136914372397
 20
98.31656590261315
 30
0.0
 10
68.14234193712645
 20
98.18303508582206
 30
0.0
 10
67.2060773170112
 20
97.83953685689275
 30
0.0
 10
66.56252941166579
 20
97.68189598830858
 30
0.0
 10
65.56800017395258
 20
97.55261280463192
 30
0.0
 10
65.23229001302508
 20
97.52793831839348
 30
0.0
 10
64.567523082184
 20
97.51583062133174
 30
0.0
 10
64.23642389900192
 20
97.52808378009912
 30
0.0
 10
63.57676829473866
 20
97.58884746903139
 30
0.0
 10
63.24821169333119
 20
97.63735533087147
 30
0.0
 10
62.59371638357131
 20
97.77174476173326
 30
0.0
 10
62.26834127198639
 20
97.85781707705252
 30
0.0
 10
61.9525481215676
 20
97.96054241743543
 30
0.0
  0
CIRCLE
  5
AA
330
1F
100
AcDbEntity
  8
0
  6
Continuous
 62
     7
370
    25
100
AcDbCircle
 10
156.7353150067
 20
105.6534340508
 30
0.0
 40
4.29371805408411
  0
SPLINE
  5
AB
330
1F
100
AcDbEntity
  8
0
  6
Continuous
 62
     7
370
    25
100
AcDbSpline
210
0.0
220
0.0
230
1.0
 70
    11
 71
     3
 72
    70
 73
    66
 74
     0
 42
0.00000001
 43
0.00000001
 40
0.0
 40
0.0
 40
0.0
 40
0.0
 40
0.03125
 40
0.03125
 40
0.0625
 40
0.0625
 40
0.09375
 40
0.09375
 40
0.125
 40
0.125
 40
0.15625
 40
0.15625
 40
0.1875000000000001
 40
0.1875000000000001
 40
0.2187500000000001
 40
0.2187500000000001
 40
0.2500000000000001
 40
0.2500000000000001
 40
0.2812500000000001
 40
0.2812500000000001
 40
0.3125000000000001
 40
0.3125000000000001
 40
0.3437500000000001
 40
0.3437500000000001
 40
0.3750000000000001
 40
0.3750000000000001
 40
0.4062500000000001
 40
0.4062500000000001
 40
0.4375000000000001
 40
0.4375000000000001
 40
0.4687500000000001
 40
0.4687500000000001
 40
0.5
 40
0.5
 40
0.53125
 40
0.53125
 40
0.5625
 40
0.5625
 40
0.59375
 40
0.59375
 40
0.625
 40
0.625
 40
0.65625
 40
0.65625
 40
0.6875
 40
0.6875
 40
0.71875
 40
0.71875
 40
0.75
 40
0.75
 40
0.78125
 40
0.78125
 40
0.8125
 40
0.8125
 40
0.84375
 40
0.84375
 40
0.875
 40
0.875
 40
0.90625
 40
0.90625
 40
0.9375
 40
0.9375
 40
0.96875
 40
0.96875
 40
1.0
 40
1.0
 40
1.0
 40
1.0
 10
162.409716594085
 20
111.3060347664423
 30
0.0
 10
162.0130994276545
 20
111.6563732555807
 30
0.0
 10
161.5860860459928
 20
111.9645155504369
 30
0.0
 10
160.6873728441673
 20
112.4943215704397
 30
0.0
 10
160.2137374983439
 20
112.7175803527262
 30
0.0
 10
159.2176110431989
 20
113.0787980650072
 30
0.0
 10
158.7104288324921
 20
113.2112243646268
 30
0.0
 10
157.679306880506
 20
113.384847647694
 30
0.0
 10
157.1515614416583
 20
113.4259618067258
 30
0.0
 10
156.0951183010577
 20
113.4125253679125
 30
0.0
 10
155.5740964305061
 20
113.3587810791217
 30
0.0
 10
154.5461442367025
 20
113.1591075778544
 30
0.0
 10
154.0343124352999
 20
113.0109471254642
 30
0.0
 10
153.0560612457124
 20
112.6270861632755
 30
0.0
 10
152.5889383901969
 20
112.3924948809572
 30
0.0
 10
151.6995187261675
 20
111.8358900049098
 30
0.0
 10
151.2768509503218
 20
111.511994623065
 30
0.0
 10
150.5124936253783
 20
110.798073462016
 30
0.0
 10
150.1657874288654
 20
110.4053011640535
 30
0.0
 10
149.5500510865629
 20
109.5439737897341
 30
0.0
 10
149.2906297473712
 20
109.0889260712427
 30
0.0
 10
148.8688930194703
 20
108.1297004218642
 30
0.0
 10
148.7061818092265
 20
107.6197433904216
 30
0.0
 10
148.4970311677702
 20
106.5915867767312
 30
0.0
 10
148.4478751308366
 20
106.0700765992144
 30
0.0
 10
148.4642737695225
 20
105.011657383371
 30
0.0
 10
148.5304679732766
 20
104.4872521672987
 30
0.0
 10
148.770482338901
 20
103.4702019598824
 30
0.0
 10
148.9471200337419
 20
102.9684825617319
 30
0.0
 10
149.399558702046
 20
102.0176717698884
 30
0.0
 10
149.6722675395079
 20
101.5716629515131
 30
0.0
 10
150.3066851094273
 20
100.7356160701319
 30
0.0
 10
150.6697358421299
 20
100.3461662651701
 30
0.0
 10
151.4555870546192
 20
99.65241317410913
 30
0.0
 10
151.8855022431287
 20
99.34137499489847
 30
0.0
 10
152.7921257701344
 20
98.80773548197547
 30
0.0
 10
153.2649564096817
 20
98.58625461915278
 30
0.0
 10
154.2481354032282
 20
98.2299502614379
 30
0.0
 10
154.7640021741168
 20
98.09460561029735
 30
0.0
 10
155.8005125286214
 20
97.92087624255677
 30
0.0
 10
156.3220252773988
 20
97.88097490315361
 30
0.0
 10
157.3715153744487
 20
97.89426093334652
 30
0.0
 10
157.9029213483227
 20
97.94889184083459
 30
0.0
 10
158.9322087066886
 20
98.14970264001323
 30
0.0
 10
159.4346673793892
 20
98.29533110610683
 30
0.0
 10
160.4145891377931
 20
98.67973236728808
 30
0.0
 10
160.8888988470789
 20
98.91841659298524
 30
0.0
 10
161.7746928306249
 20
99.47369212891887
 30
0.0
 10
162.1924310135088
 20
99.79333826709848
 30
0.0
 10
162.9640011504827
 20
100.5145501489442
 30
0.0
 10
163.3093083500225
 20
100.9076104238286
 30
0.0
 10
163.9181571654095
 20
101.75971077987
 30
0.0
 10
164.1830246683196
 20
102.2236630374044
 30
0.0
 10
164.6041098256632
 20
103.1837374164753
 30
0.0
 10
164.763631429696
 20
103.682798087029
 30
0.0
 10
164.9747579129887
 20
104.7212911199695
 30
0.0
 10
165.0228606452008
 20
105.2460781976944
 30
0.0
 10
165.006141101009
 20
106.2928763954059
 30
0.0
 10
164.939663509271
 20
106.8238690441312
 30
0.0
 10
164.6974612668228
 20
107.8458806750968
 30
0.0
 10
164.5235512612557
 20
108.3378916097652
 30
0.0
 10
164.0731841906901
 20
109.285161298311
 30
0.0
 10
163.7948015669011
 20
109.7403486912688
 30
0.0
 10
163.1625622220203
 20
110.5726196997264
 30
0.0
 10
162.8063337605155
 20
110.9556962773038
 30
0.0
 10
162.409716594085
 20
111.3060347664423
 30
0.0
  0
SPLINE
  5
AC
330
1F
100
AcDbEntity
  8
0
  6
Continuous
 62
     7
370
    25
100
AcDbSpline
210
0.0
220
0.0
230
1.0
 70
     8
 71
     3
 72
    38
 73
    34
 74
     0
 42
0.00000001
 43
0.00000001
 40
0.0
 40
0.0
 40
0.0
 40
0.0
 40
0.0625
 40
0.0625
 40
0.125
 40
0.125
 40
0.1875
 40
0.1875
 40
0.25
 40
0.25
 40
0.3125
 40
0.3125
 40
0.375
 40
0.375
 40
0.4375
 40
0.4375
 40
0.5
 40
0.5
 40
0.5625
 40
0.5625
 40
0.625
 40
0.625
 40
0.6875
 40
0.6875
 40
0.75
 40
0.75
 40
0.8125
 40
0.8125
 40
0.875
 40
0.875
 40
0.9375
 40
0.9375
 40
1.0
 40
1.0
 40
1.0
 40
1.0
 10
159.5180818926306
 20
97.96054241767476
 30
0.0
 10
159.9467134332173
 20
98.08277263566428
 30
0.0
 10
160.3713534118949
 20
98.2259958692733
 30
0.0
 10
161.1860425395428
 20
98.57603392064591
 30
0.0
 10
161.5771816724607
 20
98.77823466426108
 30
0.0
 10
162.325309323557
 20
99.24009548274738
 30
0.0
 10
162.6823135394415
 20
99.49972794614845
 30
0.0
 10
163.3581607640954
 20
100.0832127295206
 30
0.0
 10
163.6680192473095
 20
100.399646772539
 30
0.0
 10
164.2271064281617
 20
101.0759202981279
 30
0.0
 10
164.4773021132983
 20
101.436546467532
 30
0.0
 10
164.9166815147188
 20
102.2045232863378
 30
0.0
 10
165.1056200327733
 20
102.6137755841245
 30
0.0
 10
165.4052010726586
 20
103.4453669403702
 30
0.0
 10
165.5185614873648
 20
103.8716931983534
 30
0.0
 10
165.6721958033936
 20
104.7454707881523
 30
0.0
 10
165.7119087292312
 20
105.1935927464426
 30
0.0
 10
165.713335606456
 20
106.0884767142045
 30
0.0
 10
165.6750304287769
 20
106.5364734548537
 30
0.0
 10
165.5246165745415
 20
107.4090389480319
 30
0.0
 10
165.4128387707614
 20
107.8357480848655
 30
0.0
 10
165.1155360272261
 20
108.669859350502
 30
0.0
 10
164.9279140895981
 20
109.0796994719634
 30
0.0
 10
164.4910222830872
 20
109.8491860974075
 30
0.0
 10
164.2409512035005
 20
110.2124757466815
 30
0.0
 10
163.6782006794097
 20
110.8965591975698
 30
0.0
 10
163.3632996895118
 20
111.2183957563852
 30
0.0
 10
162.6941680853696
 20
111.7977080317467
 30
0.0
 10
162.3377781776708
 20
112.0583855219053
 30
0.0
 10
161.5838894162512
 20
112.5251644466482
 30
0.0
 10
161.1853302797886
 20
112.7312240341302
 30
0.0
 10
160.3690812867375
 20
113.081764338132
 30
0.0
 10
159.946713396437
 20
113.2240954760946
 30
0.0
 10
159.518081856165
 20
113.3463256951532
 30
0.0
  0
SPLINE
  5
AD
330
1F
100
AcDbEntity
  8
0
  6
Continuous
 62
     7
370
    25
100
AcDbSpline
210
0.0
220
0.0
230
1.0
 70
     8
 71
     3
 72
    48
 73
    44
 74
     0
 42
0.00000001
 43
0.00000001
 40
0.0
 40
0.0
 40
0.0
 40
0.0
 40
0.0625000000000004
 40
0.0625000000000004
 40
0.1250000000000009
 40
0.1250000000000009
 40
0.1875000000000013
 40
0.1875000000000013
 40
0.2500000000000017
 40
0.2500000000000017
 40
0.3125000000000022
 40
0.3125000000000022
 40
0.3437500000000024
 40
0.3437500000000024
 40
0.3750000000000026
 40
0.3750000000000026
 40
0.4375000000000026
 40
0.4375000000000026
 40
0.4687500000000027
 40
0.4687500000000027
 40
0.5000000000000027
 40
0.5000000000000027
 40
0.5625000000000028
 40
0.5625000000000028
 40
0.5937500000000028
 40
0.5937500000000028
 40
0.6250000000000028
 40
0.6250000000000028
 40
0.6875000000000026
 40
0.6875000000000026
 40
0.7187500000000024
 40
0.7187500000000024
 40
0.7500000000000022
 40
0.7500000000000022
 40
0.812500000000002
 40
0.812500000000002
 40
0.8437500000000019
 40
0.8437500000000019
 40
0.8750000000000018
 40
0.8750000000000018
 40
0.9375000000000009
 40
0.9375000000000009
 40
1.0
 40
1.0
 40
1.0
 40
1.0
 10
159.5180818918314
 20
97.96054241742725
 30
0.0
 10
158.8876255626982
 20
97.75545930868908
 30
0.0
 10
158.23671932936
 20
97.62077807409655
 30
0.0
 10
156.9006162410673
 20
97.49700927493335
 30
0.0
 10
156.2377969071127
 20
97.50971434613588
 30
0.0
 10
154.9222750368922
 20
97.67939106425308
 30
0.0
 10
154.2640627747328
 20
97.83989731887856
 30
0.0
 10
153.0209555801909
 20
98.29560961328127
 30
0.0
 10
152.4287108393632
 20
98.59042869504898
 30
0.0
 10
151.3064203215223
 20
99.32309750612286
 30
0.0
 10
150.7961412142676
 20
99.74810853116136
 30
0.0
 10
150.109301461874
 20
100.4750907303457
 30
0.0
 10
149.8935207390578
 20
100.7330431855071
 30
0.0
 10
149.4993162714419
 20
101.2675149908754
 30
0.0
 10
149.3194266254775
 20
101.5454456201188
 30
0.0
 10
148.8319943023957
 20
102.4117999316801
 30
0.0
 10
148.5756505050913
 20
103.0400310212785
 30
0.0
 10
148.3214422422295
 20
104.0002865659236
 30
0.0
 10
148.2573099298967
 20
104.3249479353941
 30
0.0
 10
148.1709873557497
 20
104.9835979307177
 30
0.0
 10
148.148874602752
 20
105.3201681656162
 30
0.0
 10
148.1490125718023
 20
106.3231357987773
 30
0.0
 10
148.2351124309039
 20
106.9803798853657
 30
0.0
 10
148.4916013529386
 20
107.9493948621925
 30
0.0
 10
148.5987455508052
 20
108.2687932364014
 30
0.0
 10
148.8495280160465
 20
108.8841277024052
 30
0.0
 10
148.9937165307337
 20
109.1824000410712
 30
0.0
 10
149.4814932800503
 20
110.0496976677386
 30
0.0
 10
149.8840491697075
 20
110.5934358993328
 30
0.0
 10
150.5660211797659
 20
111.3151522204245
 30
0.0
 10
150.807364461346
 20
111.541910045671
 30
0.0
 10
151.3179958850345
 20
111.9679937932347
 30
0.0
 10
151.5887244258938
 20
112.1680479935244
 30
0.0
 10
152.4241471024642
 20
112.713500345318
 30
0.0
 10
153.0161496431429
 20
113.0095182066471
 30
0.0
 10
153.9560678678986
 20
113.3540517533278
 30
0.0
 10
154.2781050530166
 20
113.4518093836778
 30
0.0
 10
154.9239247726668
 20
113.6092080365123
 30
0.0
 10
155.2496551009962
 20
113.6696326204709
 30
0.0
 10
156.2351850351969
 20
113.796956424845
 30
0.0
 10
156.9117317255052
 20
113.8091843011863
 30
0.0
 10
158.2352040627712
 20
113.6858726591672
 30
0.0
 10
158.8835082423785
 20
113.5527481288376
 30
0.0
 10
159.5180818918647
 20
113.3463256840972
 30
0.0
  0
SPLINE
  5
AE
330
1F
100
AcDbEntity
  8
0
  6
Continuous
 62
     7
370
    25
100
AcDbSpline
210
0.0
220
0.0
230
1.0
 70
     8
 71
     3
 72
    10
 73
     6
 74
     0
 42
0.00000001
 43
0.00000001
 40
0.0
 40
0.0
 40
0.0
 40
0.0
 40
0.5
 40
0.5
 40
1.0
 40
1.0
 40
1.0
 40
1.0
 10
156.735315006712
 20
97.43362315668776
 30
0.0
 10
157.2150359550044
 20
97.43362315668776
 30
0.0
 10
157.6866532178107
 20
97.47871024620262
 30
0.0
 10
158.6145109739811
 20
97.65453400534638
 30
0.0
 10
159.0739931047734
 20
97.78660625877193
 30
0.0
 10
159.5180818918314
 20
97.96054241742723
 30
0.0
  0
SPLINE
  5
AF
330
1F
100
AcDbEntity
  8
0
  6
Continuous
 62
     7
370
    25
100
AcDbSpline
210
0.0
220
0.0
230
1.0
 70
     8
 71
     3
 72
    10
 73
     6
 74
     0
 42
0.00000001
 43
0.00000001
 40
0.0
 40
0.0
 40
0.0
 40
0.0
 40
0.5
 40
0.5
 40
1.0
 40
1.0
 40
1.0
 40
1.0
 10
159.5180818918641
 20
113.3463256840951
 30
0.0
 10
159.0782876945208
 20
113.5185797817331
 30
0.0
 10
158.6256716158861
 20
113.6496129358155
 30
0.0
 10
157.694119454477
 20
113.8273373266947
 30
0.0
 10
157.2143646262779
 20
113.8732449448474
 30
0.0
 10
156.7353150067121
 20
113.8732449448474
 30
0.0
  0
LINE
  5
B0
330
1F
100
AcDbEntity
  8
0
  6
Continuous
 62
     7
370
    25
100
AcDbLine
 10
156.7353150067
 20
113.8732449448
 30
0.0
 11
156.7353150067
 21
115.5681221543
 31
0.0
  0
SPLINE
  5
B1
330
1F
100
AcDbEntity
  8
0
  6
Continuous
 62
     7
370
    25
100
AcDbSpline
210
0.0
220
0.0
230
1.0
 70
     8
 71
     3
 72
    40
 73
    36
 74
     0
 42
0.00000001
 43
0.00000001
 40
0.0
 40
0.0
 40
0.0
 40
0.0
 40
0.0624999999999996
 40
0.0624999999999996
 40
0.1249999999999991
 40
0.1249999999999991
 40
0.1874999999999987
 40
0.1874999999999987
 40
0.2499999999999982
 40
0.2499999999999982
 40
0.3124999999999978
 40
0.3124999999999978
 40
0.3437499999999978
 40
0.3437499999999978
 40
0.3749999999999978
 40
0.3749999999999978
 40
0.437499999999998
 40
0.437499999999998
 40
0.4999999999999982
 40
0.4999999999999982
 40
0.5624999999999984
 40
0.5624999999999984
 40
0.6249999999999987
 40
0.6249999999999987
 40
0.6874999999999989
 40
0.6874999999999989
 40
0.7499999999999991
 40
0.7499999999999991
 40
0.8124999999999993
 40
0.8124999999999993
 40
0.8749999999999996
 40
0.8749999999999996
 40
0.9374999999999998
 40
0.9374999999999998
 40
1.0
 40
1.0
 40
1.0
 40
1.0
 10
156.7353150067121
 20
115.568122154277
 30
0.0
 10
157.3903764292936
 20
115.568122154277
 30
0.0
 10
158.0461601587351
 20
115.5022034753396
 30
0.0
 10
159.3166090166734
 20
115.24705273901
 30
0.0
 10
159.9337421745106
 20
115.0587599591538
 30
0.0
 10
161.1317775466505
 20
114.5602774674242
 30
0.0
 10
161.7109403685469
 20
114.2488531841069
 30
0.0
 10
162.78195561816
 20
113.529869199715
 30
0.0
 10
163.2808170420755
 20
113.1197960886783
 30
0.0
 10
164.2027302181053
 20
112.1945670006757
 30
0.0
 10
164.6122174385122
 20
111.6926574583019
 30
0.0
 10
165.1485475172533
 20
110.887464656514
 30
0.0
 10
165.3144797939854
 20
110.6100429860483
 30
0.0
 10
165.6201136072589
 20
110.0367364525064
 30
0.0
 10
165.7601685643641
 20
109.7396235413431
 30
0.0
 10
166.1317461979038
 20
108.8388386567487
 30
0.0
 10
166.3183341540079
 20
108.2208426381917
 30
0.0
 10
166.5703934472329
 20
106.9501525275361
 30
0.0
 10
166.6345947959009
 20
106.2931262584426
 30
0.0
 10
166.633670869723
 20
104.9995564424901
 30
0.0
 10
166.5706301903526
 20
104.3565626226611
 30
0.0
 10
166.3165376911807
 20
103.0783238000269
 30
0.0
 10
166.1262342801635
 20
102.4526944103346
 30
0.0
 10
165.6328999729087
 20
101.2607268579221
 30
0.0
 10
165.3265691619342
 20
100.6856193498715
 30
0.0
 10
164.6030951053463
 20
99.60157783599544
 30
0.0
 10
164.1937134314619
 20
99.10275033791459
 30
0.0
 10
163.2821278632102
 20
98.1888933526063
 30
0.0
 10
162.7736758359236
 20
97.77043326464963
 30
0.0
 10
161.697762987116
 20
97.05019643199289
 30
0.0
 10
161.1292972987083
 20
96.74534453193819
 30
0.0
 10
159.9306469531393
 20
96.24703538329318
 30
0.0
 10
159.3011974360462
 20
96.0558059464426
 30
0.0
 10
158.0343778315421
 20
95.80323239164649
 30
0.0
 10
157.3903769238576
 20
95.73874594725812
 30
0.0
 10
156.7353150067121
 20
95.73874594725812
 30
0.0
  0
LINE
  5
B2
330
1F
100
AcDbEntity
  8
0
  6
Continuous
 62
     7
370
    25
100
AcDbLine
 10
156.7353150067
 20
97.4336231567
 30
0.0
 11
156.7353150067
 21
95.7387459473
 31
0.0
  0
SPLINE
  5
B3
330
1F
100
AcDbEntity
  8
0
  6
Continuous
 62
     7
370
    25
100
AcDbSpline
210
0.0
220
0.0
230
1.0
 70
     8
 71
     3
 72
    10
 73
     6
 74
     0
 42
0.00000001
 43
0.00000001
 40
0.0
 40
0.0
 40
0.0
 40
0.0
 40
0.5
 40
0.5
 40
1.0
 40
1.0
 40
1.0
 40
1.0
 10
61.95254812156821
 20
97.96054241743738
 30
0.0
 10
62.39234231891036
 20
97.78828831980034
 30
0.0
 10
62.84495839754383
 20
97.65725516571855
 30
0.0
 10
63.77651055895034
 20
97.47953077484026
 30
0.0
 10
64.25626538714793
 20
97.43362315668779
 30
0.0
 10
64.7353150067124
 20
97.43362315668774
 30
0.0
  0
LINE
  5
B4
330
1F
100
AcDbEntity
  8
0
  6
Continuous
 62
     7
370
    25
100
AcDbLine
 10
64.7353150067
 20
95.7387459473
 30
0.0
 11
64.7353150067
 21
97.4336231567
 31
0.0
  0
SPLINE
  5
B5
330
1F
100
AcDbEntity
  8
0
  6
Continuous
 62
     7
370
    25
100
AcDbSpline
210
0.0
220
0.0
230
1.0
 70
     8
 71
     3
 72
    40
 73
    36
 74
     0
 42
0.00000001
 43
0.00000001
 40
0.0
 40
0.0
 40
0.0
 40
0.0
 40
0.0625000000000001
 40
0.0625000000000001
 40
0.1250000000000002
 40
0.1250000000000002
 40
0.1875000000000002
 40
0.1875000000000002
 40
0.2500000000000003
 40
0.2500000000000003
 40
0.3125000000000003
 40
0.3125000000000003
 40
0.3437500000000003
 40
0.3437500000000003
 40
0.3750000000000003
 40
0.3750000000000003
 40
0.4375000000000003
 40
0.4375000000000003
 40
0.5000000000000002
 40
0.5000000000000002
 40
0.5625000000000003
 40
0.5625000000000003
 40
0.6250000000000002
 40
0.6250000000000002
 40
0.6875000000000002
 40
0.6875000000000002
 40
0.7500000000000002
 40
0.7500000000000002
 40
0.8125000000000002
 40
0.8125000000000002
 40
0.8750000000000001
 40
0.8750000000000001
 40
0.9375000000000001
 40
0.9375000000000001
 40
1.0
 40
1.0
 40
1.0
 40
1.0
 10
64.7353150067122
 20
95.7387459472581
 30
0.0
 10
64.08025358413077
 20
95.73874594725818
 30
0.0
 10
63.42446985468934
 20
95.80466462619562
 30
0.0
 10
62.15402099675123
 20
96.05981536252541
 30
0.0
 10
61.53688783891408
 20
96.24810814238155
 30
0.0
 10
60.33885246677432
 20
96.74659063411127
 30
0.0
 10
59.759689644878
 20
97.0580149174286
 30
0.0
 10
58.68867439526521
 20
97.77699890182053
 30
0.0
 10
58.18981297134982
 20
98.18707201285723
 30
0.0
 10
57.26789979532018
 20
99.11230110085984
 30
0.0
 10
56.85841257491341
 20
99.6142106432336
 30
0.0
 10
56.32208249617241
 20
100.4194034450215
 30
0.0
 10
56.15615021944037
 20
100.6968251154872
 30
0.0
 10
55.85051640616701
 20
101.2701316490291
 30
0.0
 10
55.71046144906187
 20
101.5672445601923
 30
0.0
 10
55.33888381552224
 20
102.4680294447867
 30
0.0
 10
55.15229585941821
 20
103.0860254633436
 30
0.0
 10
54.90023656619343
 20
104.3567155739991
 30
0.0
 10
54.83603521752555
 20
105.0137418430925
 30
0.0
 10
54.83695914370354
 20
106.3073116590448
 30
0.0
 10
54.89999982307405
 20
106.9503054788738
 30
0.0
 10
55.15409232224601
 20
108.2285443015078
 30
0.0
 10
55.34439573326333
 20
108.8541736912001
 30
0.0
 10
55.83773004051815
 20
110.0461412436123
 30
0.0
 10
56.14406085149266
 20
110.6212487516629
 30
0.0
 10
56.86753490808059
 20
111.7052902655387
 30
0.0
 10
57.276916581965
 20
112.2041177636195
 30
0.0
 10
58.18850215021673
 20
113.1179747489275
 30
0.0
 10
58.69695417750336
 20
113.5364348368841
 30
0.0
 10
59.77286702631091
 20
114.2566716695406
 30
0.0
 10
60.34133271471853
 20
114.5615235695952
 30
0.0
 10
61.53998306028747
 20
115.05983271824
 30
0.0
 10
62.16943257738052
 20
115.2510621550905
 30
0.0
 10
63.43625218188452
 20
115.5036357098864
 30
0.0
 10
64.08025308956894
 20
115.5681221542747
 30
0.0
 10
64.73531500671442
 20
115.5681221542747
 30
0.0
  0
LINE
  5
B6
330
1F
100
AcDbEntity
  8
0
  6
Continuous
 62
     7
370
    25
100
AcDbLine
 10
64.7353150067
 20
115.5681221543
 30
0.0
 11
64.7353150067
 21
113.8732449448
 31
0.0
  0
SPLINE
  5
B7
330
1F
100
AcDbEntity
  8
0
  6
Continuous
 62
     7
370
    25
100
AcDbSpline
210
0.0
220
0.0
230
1.0
 70
     8
 71
     3
 72
    10
 73
     6
 74
     0
 42
0.00000001
 43
0.00000001
 40
0.0
 40
0.0
 40
0.0
 40
0.0
 40
0.5
 40
0.5
 40
1.0
 40
1.0
 40
1.0
 40
1.0
 10
64.7353150067144
 20
113.8732449448449
 30
0.0
 10
64.25559405842976
 20
113.873244944845
 30
0.0
 10
63.78397679563086
 20
113.8281578553316
 30
0.0
 10
62.85611903947488
 20
113.6523340961936
 30
0.0
 10
62.39663690869017
 20
113.5202618427725
 30
0.0
 10
61.95254812163782
 20
113.3463256841226
 30
0.0
  0
SPLINE
  5
B8
330
1F
100
AcDbEntity
  8
0
  6
Continuous
 62
     7
370
    25
100
AcDbSpline
210
0.0
220
0.0
230
1.0
 70
     8
 71
     3
 72
    14
 73
    10
 74
     0
 42
0.00000001
 43
0.00000001
 40
0.0
 40
0.0
 40
0.0
 40
0.0
 40
0.25
 40
0.25
 40
0.5
 40
0.5
 40
0.75
 40
0.75
 40
1.0
 40
1.0
 40
1.0
 40
1.0
 10
103.7098334253856
 20
137.5252877727847
 30
0.0
 10
103.7165679479827
 20
137.791018999207
 30
0.0
 10
103.7673501804306
 20
138.0480491590641
 30
0.0
 10
103.9548347351228
 20
138.545586907674
 30
0.0
 10
104.0924195400916
 20
138.7839177124975
 30
0.0
 10
104.4485601968117
 20
139.2098083767174
 30
0.0
 10
104.6735522526853
 20
139.4039088157556
 30
0.0
 10
105.1982976461775
 20
139.7059416304831
 30
0.0
 10
105.5021172794944
 20
139.8161161615861
 30
0.0
 10
105.8279909266187
 20
139.8622315622049
 30
0.0
  0
ELLIPSE
  5
B9
330
1F
100
AcDbEntity
  8
0
  6
Continuous
 62
     7
370
    25
100
AcDbEllipse
 10
105.2207927415
 20
105.6534340508
 30
0.0
 11
0.0
 21
54.0
 31
0.0
210
0.0
220
0.0
230
1.0
 40
0.0346620971
 41
0.9394655832416098
 42
2.202127070347808
  0
SPLINE
  5
BA
330
1F
100
AcDbEntity
  8
0
  6
Continuous
 62
     7
370
    25
100
AcDbSpline
210
0.0
220
0.0
230
1.0
 70
     8
 71
     3
 72
    12
 73
     8
 74
     0
 42
0.00000001
 43
0.00000001
 40
0.0
 40
0.0
 40
0.0
 40
0.0
 40
0.5000000000000019
 40
0.5000000000000019
 40
0.7500000000000009
 40
0.7500000000000009
 40
1.0
 40
1.0
 40
1.0
 40
1.0
 10
105.8279909266142
 20
71.44463653933089
 30
0.0
 10
105.1785499663293
 20
71.53654096402589
 30
0.0
 10
104.632476090506
 20
71.87882828429576
 30
0.0
 10
104.0941125448836
 20
72.5200845809566
 30
0.0
 10
103.956219331513
 20
72.75876408858359
 30
0.0
 10
103.7685487776162
 20
73.2544967419261
 30
0.0
 10
103.7165517568792
 20
73.51648797184981
 30
0.0
 10
103.7098334253849
 20
73.78158032876698
 30
0.0
  0
LINE
  5
BB
330
1F
100
AcDbEntity
  8
0
  6
Continuous
 62
     7
370
    25
100
AcDbLine
 10
68.189757279
 20
113.8732449448
 30
0.0
 11
64.7353150067
 21
113.8732449448
 31
0.0
  0
SPLINE
  5
BC
330
1F
100
AcDbEntity
  8
0
  6
Continuous
 62
     7
370
    25
100
AcDbSpline
210
0.0
220
0.0
230
1.0
 70
     8
 71
     3
 72
    10
 73
     6
 74
     0
 42
0.00000001
 43
0.00000001
 40
0.0
 40
0.0
 40
0.0
 40
0.0
 40
0.5
 40
0.5
 40
1.0
 40
1.0
 40
1.0
 40
1.0
 10
73.60783226297843
 20
115.7452126902977
 30
0.0
 10
72.83616725343278
 20
115.1452571147152
 30
0.0
 10
71.98337261778593
 20
114.679004417603
 30
0.0
 10
70.12964523502097
 20
114.0357821927554
 30
0.0
 10
69.17422642005457
 20
113.8732449448449
 30
0.0
 10
68.18975727900867
 20
113.8732449448449
 30
0.0
  0
SPLINE
  5
BD
330
1F
100
AcDbEntity
  8
0
  6
Continuous
 62
     7
370
    25
100
AcDbSpline
210
0.0
220
0.0
230
1.0
 70
     8
 71
     3
 72
    20
 73
    16
 74
     0
 42
0.00000001
 43
0.00000001
 40
0.0
 40
0.0
 40
0.0
 40
0.0
 40
0.0001864626979824
 40
0.0001864626979824
 40
0.0001864626979824
 40
0.00034642733994
 40
0.00034642733994
 40
0.00034642733994
 40
0.00038639309083
 40
0.00038639309083
 40
0.00038639309083
 40
0.0004663147102965
 40
0.0004663147102965
 40
0.0004663147102965
 40
0.0005730347191901
 40
0.0005730347191901
 40
0.0005730347191901
 40
0.0005730347191901
 10
74.31081021178527
 20
116.6329121675057
 30
0.0
 10
74.23539637920862
 20
116.5361565791337
 30
0.0
 10
74.15994949748867
 20
116.4393701597369
 30
0.0
 10
74.08447071668517
 20
116.3425543672533
 30
0.0
 10
74.01971816033932
 20
116.2594969835592
 30
0.0
 10
73.9555520957535
 20
116.1759531874641
 30
0.0
 10
73.88991898236836
 20
116.0934852166605
 30
0.0
 10
73.87352070612513
 20
116.0728807915965
 30
0.0
 10
73.85692745116967
 20
116.0524238780907
 30
0.0
 10
73.84033842200924
 20
116.03196230291
 30
0.0
 10
73.80716432898855
 20
115.9910440435092
 30
0.0
 10
73.77398461746647
 20
115.9501208614393
 30
0.0
 10
73.74079937451468
 20
115.9091928628116
 30
0.0
 10
73.69648685574795
 20
115.8545413808287
 30
0.0
 10
73.65216441627281
 20
115.7998812392778
 30
0.0
 10
73.60783226298138
 20
115.7452126902941
 30
0.0
  0
SPLINE
  5
BE
330
1F
100
AcDbEntity
  8
0
  6
Continuous
 62
     7
370
    25
100
AcDbSpline
210
0.0
220
0.0
230
1.0
 70
     8
 71
     3
 72
    52
 73
    48
 74
     0
 42
0.00000001
 43
0.00000001
 40
0.0
 40
0.0
 40
0.0
 40
0.0
 40
0.0624999999999999
 40
0.0624999999999999
 40
0.0937499999999998
 40
0.0937499999999998
 40
0.1249999999999998
 40
0.1249999999999998
 40
0.1874999999999998
 40
0.1874999999999998
 40
0.2499999999999998
 40
0.2499999999999998
 40
0.3124999999999998
 40
0.3124999999999998
 40
0.3437499999999998
 40
0.3437499999999998
 40
0.3749999999999998
 40
0.3749999999999998
 40
0.4062499999999999
 40
0.4062499999999999
 40
0.4375
 40
0.4375
 40
0.5000000000000001
 40
0.5000000000000001
 40
0.5312500000000002
 40
0.5312500000000002
 40
0.5625000000000002
 40
0.5625000000000002
 40
0.6250000000000003
 40
0.6250000000000003
 40
0.6562500000000004
 40
0.6562500000000004
 40
0.6875000000000004
 40
0.6875000000000004
 40
0.7500000000000003
 40
0.7500000000000003
 40
0.7812500000000003
 40
0.7812500000000003
 40
0.8125000000000003
 40
0.8125000000000003
 40
0.8750000000000002
 40
0.8750000000000002
 40
0.9062500000000001
 40
0.9062500000000001
 40
0.9375000000000001
 40
0.9375000000000001
 40
1.0
 40
1.0
 40
1.0
 40
1.0
 10
147.1596941790102
 20
116.6333705271652
 30
0.0
 10
146.5839618938084
 20
118.7339992024127
 30
0.0
 10
145.8555000433936
 20
120.7450548481046
 30
0.0
 10
144.5480568676771
 20
123.6402684101687
 30
0.0
 10
144.0749559874261
 20
124.5867752137906
 30
0.0
 10
143.0708583168253
 20
126.4158927563984
 30
0.0
 10
142.5386433883372
 20
127.3016232173614
 30
0.0
 10
140.8539728263821
 20
129.8777186913542
 30
0.0
 10
139.6143393614941
 20
131.4875179075549
 30
0.0
 10
136.8950088706134
 20
134.506064359586
 30
0.0
 10
135.4389175388309
 20
135.888113052519
 30
0.0
 10
132.337830377446
 20
138.4062245324249
 30
0.0
 10
130.6909735912009
 20
139.5448942634628
 30
0.0
 10
128.0454736037919
 20
141.0701309957308
 30
0.0
 10
127.1328448252359
 20
141.5480168776558
 30
0.0
 10
125.2726022891932
 20
142.4248665739641
 30
0.0
 10
124.3214998708613
 20
142.8260258767752
 30
0.0
 10
122.3720740913173
 20
143.5518243523231
 30
0.0
 10
121.3737681628562
 20
143.8764882980819
 30
0.0
 10
119.3226116329439
 20
144.4443085921055
 30
0.0
 10
118.2619493550844
 20
144.6886951716723
 30
0.0
 10
115.053710386889
 20
145.2746182761669
 30
0.0
 10
112.8815977347963
 20
145.4732404896332
 30
0.0
 10
109.5679783268396
 20
145.467438750078
 30
0.0
 10
108.4454125035343
 20
145.4131966577422
 30
0.0
 10
106.2513856792636
 20
145.2052018975531
 30
0.0
 10
105.177239844657
 20
145.0526196354816
 30
0.0
 10
102.0153605756454
 20
144.4609011023025
 30
0.0
 10
99.98771068352558
 20
143.8891415147928
 30
0.0
 10
97.04363789314708
 20
142.7833705098685
 30
0.0
 10
96.08597539866061
 20
142.37544615108
 30
0.0
 10
94.23640323970235
 20
141.4964165670709
 30
0.0
 10
93.34023506572112
 20
141.0237105488933
 30
0.0
 10
90.72721841116343
 20
139.5092431268836
 30
0.0
 10
89.08500988171704
 20
138.3720189519778
 30
0.0
 10
86.7501181416871
 20
136.4690436833224
 30
0.0
 10
85.99201470402946
 20
135.7998789415762
 30
0.0
 10
84.53885071325844
 20
134.4129461064285
 30
0.0
 10
83.84107374578295
 20
133.6931840559597
 30
0.0
 10
81.83038129240182
 20
131.4535145729776
 30
0.0
 10
80.59932609902587
 20
129.8538826141034
 30
0.0
 10
78.91712338398048
 20
127.2775343287873
 30
0.0
 10
78.38265163826135
 20
126.3866484020923
 30
0.0
 10
77.37745558077897
 20
124.5515756238814
 30
0.0
 10
76.90978497235109
 20
123.6133976357994
 30
0.0
 10
75.6119301055867
 20
120.7350254548046
 30
0.0
 10
74.88596042180376
 20
118.7315118373619
 30
0.0
 10
74.31081021178525
 20
116.6329121675056
 30
0.0
  0
SPLINE
  5
BF
330
1F
100
AcDbEntity
  8
0
  6
Continuous
 62
     7
370
    25
100
AcDbSpline
210
0.0
220
0.0
230
1.0
 70
     8
 71
     3
 72
    14
 73
    10
 74
     0
 42
0.00000001
 43
0.00000001
 40
0.0
 40
0.0
 40
0.0
 40
0.0
 40
0.0001248731765614
 40
0.0001248731765614
 40
0.0001248731765614
 40
0.0002287801116808
 40
0.0002287801116808
 40
0.0002287801116808
 40
0.0005732702455341
 40
0.0005732702455341
 40
0.0005732702455341
 40
0.0005732702455341
 10
147.8627976790667
 20
115.7452127457877
 30
0.0
 10
147.8109261276788
 20
115.8091785705185
 30
0.0
 10
147.7590678673106
 20
115.8731328945398
 30
0.0
 10
147.7072232294443
 20
115.9370753138811
 30
0.0
 10
147.6640833551545
 20
115.9902817407306
 30
0.0
 10
147.6206349931496
 20
116.0432359975252
 30
0.0
 10
147.5780473193986
 20
116.0968378287802
 30
0.0
 10
147.4368555699438
 20
116.2745450304727
 30
0.0
 10
147.2989679961071
 20
116.4545795726679
 30
0.0
 10
147.1596941790102
 20
116.6333705271652
 30
0.0
  0
SPLINE
  5
C0
330
1F
100
AcDbEntity
  8
0
  6
Continuous
 62
     7
370
    25
100
AcDbSpline
210
0.0
220
0.0
230
1.0
 70
     8
 71
     3
 72
    10
 73
     6
 74
     0
 42
0.00000001
 43
0.00000001
 40
0.0
 40
0.0
 40
0.0
 40
0.0
 40
0.5
 40
0.5
 40
1.0
 40
1.0
 40
1.0
 40
1.0
 10
153.2808727344178
 20
113.8732449448474
 30
0.0
 10
152.2964035777984
 20
113.8732449448467
 30
0.0
 10
151.3409847481529
 20
114.0357821977656
 30
0.0
 10
149.487257337919
 20
114.6790044431197
 30
0.0
 10
148.6344626946231
 20
115.1452571531831
 30
0.0
 10
147.8627976790703
 20
115.7452127457906
 30
0.0
  0
LINE
  5
C1
330
1F
100
AcDbEntity
  8
0
  6
Continuous
 62
     7
370
    25
100
AcDbLine
 10
156.7353150067
 20
113.8732449448
 30
0.0
 11
153.2808727344
 21
113.8732449448
 31
0.0
  0
LINE
  5
C2
330
1F
100
AcDbEntity
  8
0
  6
Continuous
 62
     7
370
    25
100
AcDbLine
 10
153.2808559255
 20
97.4336231567
 30
0.0
 11
156.7353150067
 21
97.4336231567
 31
0.0
  0
SPLINE
  5
C3
330
1F
100
AcDbEntity
  8
0
  6
Continuous
 62
     7
370
    25
100
AcDbSpline
210
0.0
220
0.0
230
1.0
 70
     8
 71
     3
 72
    10
 73
     6
 74
     0
 42
0.00000001
 43
0.00000001
 40
0.0
 40
0.0
 40
0.0
 40
0.0
 40
0.5
 40
0.5
 40
1.0
 40
1.0
 40
1.0
 40
1.0
 10
147.862803091761
 20
95.56166199792057
 30
0.0
 10
148.634467507199
 20
96.16161068942468
 30
0.0
 10
149.4872614934972
 20
96.62785985089798
 30
0.0
 10
151.3409780044536
 20
97.27107828045398
 30
0.0
 10
152.2963916342254
 20
97.43361756315757
 30
0.0
 10
153.2808559255121
 20
97.43362315663998
 30
0.0
  0
SPLINE
  5
C4
330
1F
100
AcDbEntity
  8
0
  6
Continuous
 62
     7
370
    25
100
AcDbSpline
210
0.0
220
0.0
230
1.0
 70
     8
 71
     3
 72
    20
 73
    16
 74
     0
 42
0.00000001
 43
0.00000001
 40
0.0
 40
0.0
 40
0.0
 40
0.0
 40
0.0001864663540625
 40
0.0001864663540625
 40
0.0001864663540625
 40
0.0003464309962154
 40
0.0003464309962154
 40
0.0003464309962154
 40
0.0003863967452833
 40
0.0003863967452833
 40
0.0003863967452833
 40
0.0004663183639314
 40
0.0004663183639314
 40
0.0004663183639314
 40
0.0005730390029174
 40
0.0005730390029174
 40
0.0005730390029174
 40
0.0005730390029174
 10
147.1598198016373
 20
94.67395593402372
 30
0.0
 10
147.2352351128954
 20
94.77071341953774
 30
0.0
 10
147.3106834745965
 20
94.86750173729023
 30
0.0
 10
147.3861637366131
 20
94.96431942925749
 30
0.0
 10
147.4509162941064
 20
95.04737681403573
 30
0.0
 10
147.5150823106522
 20
95.13092064974475
 30
0.0
 10
147.5807155317083
 20
95.21338853993483
 30
0.0
 10
147.5971138342886
 20
95.23399294414861
 30
0.0
 10
147.6137071138286
 20
95.25444983763069
 30
0.0
 10
147.6302961426921
 20
95.27491141235319
 30
0.0
 10
147.6634702362106
 20
95.31582967218407
 30
0.0
 10
147.6966499482277
 20
95.3567528546807
 30
0.0
 10
147.7298351916718
 20
95.39768085373187
 30
0.0
 10
147.774147973178
 20
95.452332659511
 30
0.0
 10
147.8184706755054
 20
95.50699312495505
 30
0.0
 10
147.862803091758
 20
95.56166199792422
 30
0.0
  0
SPLINE
  5
C5
330
1F
100
AcDbEntity
  8
0
  6
Continuous
 62
     7
370
    25
100
AcDbSpline
210
0.0
220
0.0
230
1.0
 70
     8
 71
     3
 72
    52
 73
    48
 74
     0
 42
0.00000001
 43
0.00000001
 40
0.0
 40
0.0
 40
0.0
 40
0.0
 40
0.0625000000000001
 40
0.0625000000000001
 40
0.0937500000000001
 40
0.0937500000000001
 40
0.1250000000000001
 40
0.1250000000000001
 40
0.1875
 40
0.1875
 40
0.25
 40
0.25
 40
0.3124999999999999
 40
0.3124999999999999
 40
0.34375
 40
0.34375
 40
0.375
 40
0.375
 40
0.4062500000000001
 40
0.4062500000000001
 40
0.4375000000000001
 40
0.4375000000000001
 40
0.5000000000000001
 40
0.5000000000000001
 40
0.5312500000000001
 40
0.5312500000000001
 40
0.5625000000000002
 40
0.5625000000000002
 40
0.6250000000000002
 40
0.6250000000000002
 40
0.6562500000000002
 40
0.6562500000000002
 40
0.6875000000000003
 40
0.6875000000000003
 40
0.7500000000000002
 40
0.7500000000000002
 40
0.7812500000000003
 40
0.7812500000000003
 40
0.8125000000000003
 40
0.8125000000000003
 40
0.8750000000000003
 40
0.8750000000000003
 40
0.9062500000000003
 40
0.9062500000000003
 40
0.9375000000000002
 40
0.9375000000000002
 40
1.0
 40
1.0
 40
1.0
 40
1.0
 10
74.31088961199767
 20
94.67366622383092
 30
0.0
 10
74.88661431391566
 20
92.57303031479474
 30
0.0
 10
75.61506952120848
 20
90.56196748858687
 30
0.0
 10
76.92250377022381
 20
87.66674312991462
 30
0.0
 10
77.39560216000729
 20
86.7202320539476
 30
0.0
 10
78.39969557578019
 20
84.89110576076627
 30
0.0
 10
78.93190853970225
 20
84.00537112666157
 30
0.0
 10
80.61657355935886
 20
81.4292636118334
 30
0.0
 10
81.85620379689692
 20
79.81945700205294
 30
0.0
 10
84.57552817053543
 20
76.80089654880183
 30
0.0
 10
86.03161913405633
 20
75.41883902878409
 30
0.0
 10
89.13270353793651
 20
72.90071341572175
 30
0.0
 10
90.77955904008536
 20
71.76203713627504
 30
0.0
 10
93.42505683024305
 20
70.23679094086312
 30
0.0
 10
94.3376855573612
 20
69.758901562186
 30
0.0
 10
96.1979282140127
 20
68.88204505736697
 30
0.0
 10
97.14903068551726
 20
68.48088246376261
 30
0.0
 10
99.09845651899457
 20
67.75507754895402
 30
0.0
 10
100.0967624483293
 20
67.4304104550974
 30
0.0
 10
102.1479188859806
 20
66.86258391854075
 30
0.0
 10
103.2085810340033
 20
66.61819418339994
 30
0.0
 10
106.4168240443426
 20
66.03226116389915
 30
0.0
 10
108.5889398114343
 20
65.83363292178271
 30
0.0
 10
111.9025646661621
 20
65.83942646337037
 30
0.0
 10
113.0251324821979
 20
65.89366592266241
 30
0.0
 10
115.2191652390171
 20
66.10165616638156
 30
0.0
 10
116.2933138903399
 20
66.25423645334847
 30
0.0
 10
119.4552012403653
 20
66.84594971261556
 30
0.0
 10
121.4828560313178
 20
67.4177066407112
 30
0.0
 10
124.4269356777562
 20
68.52347447816412
 30
0.0
 10
125.3846012958821
 20
68.93139832725414
 30
0.0
 10
127.2341786314449
 20
69.81042693722402
 30
0.0
 10
128.1303492227934
 20
70.28313260923544
 30
0.0
 10
130.7433727420043
 20
71.79759933570786
 30
0.0
 10
132.3855853390401
 20
72.93482349822824
 30
0.0
 10
134.7204826920348
 20
74.83779928368055
 30
0.0
 10
135.4785880652998
 20
75.50696441233002
 30
0.0
 10
136.931755816172
 20
76.89389832673551
 30
0.0
 10
137.6295345479902
 20
77.61366100178276
 30
0.0
 10
139.6402319968763
 20
79.85333260135191
 30
0.0
 10
140.8712901288571
 20
81.45296629167144
 30
0.0
 10
142.5534967440612
 20
84.02931767435435
 30
0.0
 10
143.0879696713078
 20
84.9202046532649
 30
0.0
 10
144.0931680978831
 20
86.75528006954163
 30
0.0
 10
144.560839773482
 20
87.69345944297821
 30
0.0
 10
145.8586974983179
 20
90.57183598359948
 30
0.0
 10
146.5846686355355
 20
92.575352775626
 30
0.0
 10
147.1598198016373
 20
94.67395593402372
 30
0.0
  0
SPLINE
  5
C6
330
1F
100
AcDbEntity
  8
0
  6
Continuous
 62
     7
370
    25
100
AcDbSpline
210
0.0
220
0.0
230
1.0
 70
     8
 71
     3
 72
    14
 73
    10
 74
     0
 42
0.00000001
 43
0.00000001
 40
0.0
 40
0.0
 40
0.0
 40
0.0
 40
0.0001248036853715
 40
0.0001248036853715
 40
0.0001248036853715
 40
0.0002287105784906
 40
0.0002287105784906
 40
0.0002287105784906
 40
0.0005731877918602
 40
0.0005731877918602
 40
0.0005731877918602
 40
0.0005731877918602
 10
73.60783223477505
 20
95.56165543316634
 30
0.0
 10
73.65967492462816
 20
95.49772520868588
 30
0.0
 10
73.71150433822174
 20
95.43380647215132
 30
0.0
 10
73.76332014462692
 20
95.36989962685881
 30
0.0
 10
73.80646001852875
 20
95.31669321285793
 30
0.0
 10
73.84990735107527
 20
95.26373820409384
 30
0.0
 10
73.89249765484082
 20
95.21013839648211
 30
0.0
 10
74.03369290730063
 20
95.03244446855905
 30
0.0
 10
74.17160220264381
 20
94.85243658721625
 30
0.0
 10
74.31088961199767
 20
94.67366622383092
 30
0.0
  0
SPLINE
  5
C7
330
1F
100
AcDbEntity
  8
0
  6
Continuous
 62
     7
370
    25
100
AcDbSpline
210
0.0
220
0.0
230
1.0
 70
     8
 71
     3
 72
    10
 73
     6
 74
     0
 42
0.00000001
 43
0.00000001
 40
0.0
 40
0.0
 40
0.0
 40
0.0
 40
0.5
 40
0.5
 40
1.0
 40
1.0
 40
1.0
 40
1.0
 10
68.18975727900636
 20
97.43362315668772
 30
0.0
 10
69.17422641389892
 20
97.4336231566877
 30
0.0
 10
70.12964522306545
 20
97.27108591075634
 30
0.0
 10
71.98337259497717
 20
96.62786369401171
 30
0.0
 10
72.83616722759893
 20
96.16161100201882
 30
0.0
 10
73.60783223477144
 20
95.56165543316351
 30
0.0
  0
LINE
  5
C8
330
1F
100
AcDbEntity
  8
0
  6
Continuous
 62
     7
370
    25
100
AcDbLine
 10
64.7353150067
 20
97.4336231567
 30
0.0
 11
68.189757279
 21
97.4336231567
 31
0.0
  0
SPLINE
  5
C9
330
1F
100
AcDbEntity
  8
0
  6
Continuous
 62
     7
370
    25
100
AcDbSpline
210
0.0
220
0.0
230
1.0
 70
     8
 71
     3
 72
     8
 73
     4
 74
     0
 42
0.00000001
 43
0.00000001
 40
0.0
 40
0.0
 40
0.0
 40
0.0
 40
0.0000711123862601
 40
0.0000711123862601
 40
0.0000711123862601
 40
0.0000711123862601
 10
148.9531191226367
 20
94.11832924452318
 30
0.0
 10
148.9597522831826
 20
94.12452724598107
 30
0.0
 10
148.9635935545199
 20
94.12726199586791
 30
0.0
 10
148.9647106097282
 20
94.12666794809503
 30
0.0
  0
SPLINE
  5
CA
330
1F
100
AcDbEntity
  8
0
  6
Continuous
 62
     7
370
    25
100
AcDbSpline
210
0.0
220
0.0
230
1.0
 70
     8
 71
     3
 72
    52
 73
    48
 74
     0
 42
0.00000001
 43
0.00000001
 40
0.0
 40
0.0
 40
0.0
 40
0.0
 40
0.0625
 40
0.0625
 40
0.125
 40
0.125
 40
0.1875
 40
0.1875
 40
0.2187500000000001
 40
0.2187500000000001
 40
0.2500000000000001
 40
0.2500000000000001
 40
0.3125
 40
0.3125
 40
0.34375
 40
0.34375
 40
0.375
 40
0.375
 40
0.4375000000000001
 40
0.4375000000000001
 40
0.4687500000000001
 40
0.4687500000000001
 40
0.4843750000000001
 40
0.4843750000000001
 40
0.5000000000000001
 40
0.5000000000000001
 40
0.5625000000000001
 40
0.5625000000000001
 40
0.5937500000000001
 40
0.5937500000000001
 40
0.6250000000000001
 40
0.6250000000000001
 40
0.6562500000000001
 40
0.6562500000000001
 40
0.6875000000000001
 40
0.6875000000000001
 40
0.7500000000000001
 40
0.7500000000000001
 40
0.8125000000000001
 40
0.8125000000000001
 40
0.8750000000000001
 40
0.8750000000000001
 40
0.9062500000000001
 40
0.9062500000000001
 40
0.9375000000000001
 40
0.9375000000000001
 40
1.0
 40
1.0
 40
1.0
 40
1.0
 10
148.9647106097278
 20
94.1266679480945
 30
0.0
 10
148.3336155167696
 20
91.99400688564168
 30
0.0
 10
147.5430306659589
 20
89.9610690687917
 30
0.0
 10
145.6679327008769
 20
86.07276083823129
 30
0.0
 10
144.5745861080256
 20
84.20864918366105
 30
0.0
 10
142.1695908882551
 20
80.7520357779275
 30
0.0
 10
140.853069212019
 20
79.14530610250034
 30
0.0
 10
138.7083373051797
 20
76.90059906221914
 30
0.0
 10
137.9649042674709
 20
76.18009741115424
 30
0.0
 10
136.418608933941
 20
74.79364500525934
 30
0.0
 10
135.6144109292618
 20
74.12708228585485
 30
0.0
 10
133.1451632434367
 20
72.23716760719113
 30
0.0
 10
131.4132302014618
 20
71.11196092184316
 30
0.0
 10
128.6681610109408
 20
69.62008786079949
 30
0.0
 10
127.728414646492
 20
69.15567272166564
 30
0.0
 10
125.7934242334227
 20
68.2945663101949
 30
0.0
 10
124.7927793364429
 20
67.89606045276084
 30
0.0
 10
121.738531018442
 20
66.82376099055593
 30
0.0
 10
119.6422540496263
 20
66.27302149483825
 30
0.0
 10
116.389703258572
 20
65.70660371508674
 30
0.0
 10
115.2874074082386
 20
65.56137797951897
 30
0.0
 10
113.6037318024711
 20
65.4137030405802
 30
0.0
 10
113.0358028151286
 20
65.37620292028211
 30
0.0
 10
111.906988250129
 20
65.32621933799344
 30
0.0
 10
111.3443056294603
 20
65.31350780190266
 30
0.0
 10
108.5393639539341
 20
65.31007679692482
 30
0.0
 10
106.3225184258486
 20
65.49842785109183
 30
0.0
 10
103.0349356469196
 20
66.05924135410906
 30
0.0
 10
101.9431521049399
 20
66.29403722715452
 30
0.0
 10
99.82397290588055
 20
66.84258557987452
 30
0.0
 10
98.78945698685473
 20
67.15727367991425
 30
0.0
 10
96.76460956673836
 20
67.86323279444726
 30
0.0
 10
95.77428870223368
 20
68.2545216329963
 30
0.0
 10
93.8335280718045
 20
69.11217048652071
 30
0.0
 10
92.87967020737284
 20
69.58046007864175
 30
0.0
 10
90.10017105883367
 20
71.08429723269319
 30
0.0
 10
88.36287655088323
 20
72.21213090270656
 30
0.0
 10
85.08275656466598
 20
74.71557380735618
 30
0.0
 10
83.54026442687764
 20
76.09121996892952
 30
0.0
 10
80.6424386876783
 20
79.11455664821945
 30
0.0
 10
79.3145074366787
 20
80.73453759163085
 30
0.0
 10
77.5079356302202
 20
83.32828283157708
 30
0.0
 10
76.93637746101733
 20
84.22078527646437
 30
0.0
 10
75.85631516454812
 20
86.06522120642441
 30
0.0
 10
75.346183312858
 20
87.02071145427622
 30
0.0
 10
73.93025815784534
 20
89.95299743579793
 30
0.0
 10
73.13737666819794
 20
91.99280417525
 30
0.0
 10
72.50595050879699
 20
94.1265628350798
 30
0.0
  0
SPLINE
  5
CB
330
1F
100
AcDbEntity
  8
0
  6
Continuous
 62
     7
370
    25
100
AcDbSpline
210
0.0
220
0.0
230
1.0
 70
     8
 71
     3
 72
     8
 73
     4
 74
     0
 42
0.00000001
 43
0.00000001
 40
0.0
 40
0.0
 40
0.0
 40
0.0
 40
0.0000710847669618
 40
0.0000710847669618
 40
0.0000710847669618
 40
0.0000710847669618
 10
72.50595050879699
 20
94.1265628350798
 30
0.0
 10
72.5070671621533
 20
94.12715654371357
 30
0.0
 10
72.51090652266937
 20
94.12442209179235
 30
0.0
 10
72.51753621496377
 20
94.11822505813176
 30
0.0
  0
SPLINE
  5
CC
330
1F
100
AcDbEntity
  8
0
  6
Continuous
 62
     7
370
    25
100
AcDbSpline
210
0.0
220
0.0
230
1.0
 70
     8
 71
     3
 72
    16
 73
    12
 74
     0
 42
0.00000001
 43
0.00000001
 40
0.0
 40
0.0
 40
0.0
 40
0.0
 40
0.2500000000000016
 40
0.2500000000000016
 40
0.5000000000000031
 40
0.5000000000000031
 40
0.7500000000000047
 40
0.7500000000000047
 40
0.8750000000000023
 40
0.8750000000000023
 40
1.0
 40
1.0
 40
1.0
 40
1.0
 10
72.51753621496313
 20
94.11822505813234
 30
0.0
 10
72.55123125477677
 20
94.08672898159553
 30
0.0
 10
72.6223045667553
 20
94.07665287323009
 30
0.0
 10
72.83436225421298
 20
94.09866829792642
 30
0.0
 10
72.97223669980873
 20
94.1306462905578
 30
0.0
 10
73.29917905969124
 20
94.23269224768127
 30
0.0
 10
73.48587437145065
 20
94.30210732995015
 30
0.0
 10
73.78573969379795
 20
94.42774348311664
 30
0.0
 10
73.88792478880072
 20
94.47273295211293
 30
0.0
 10
74.0967044002643
 20
94.56883397824043
 30
0.0
 10
74.2051410349922
 20
94.62087770594785
 30
0.0
 10
74.3108896119976
 20
94.6736662238309
 30
0.0
  0
SPLINE
  5
CD
330
1F
100
AcDbEntity
  8
0
  6
Continuous
 62
     7
370
    25
100
AcDbSpline
210
0.0
220
0.0
230
1.0
 70
     8
 71
     3
 72
    16
 73
    12
 74
     0
 42
0.00000001
 43
0.00000001
 40
0.0
 40
0.0
 40
0.0
 40
0.0
 40
0.25
 40
0.25
 40
0.5
 40
0.5
 40
0.75
 40
0.75
 40
0.875
 40
0.875
 40
1.0
 40
1.0
 40
1.0
 40
1.0
 10
148.9531191226367
 20
94.11832924452318
 30
0.0
 10
148.919419781062
 20
94.0868407004481
 30
0.0
 10
148.8483441193474
 20
94.07677545577886
 30
0.0
 10
148.636286501194
 20
94.09881806668926
 30
0.0
 10
148.4984145482345
 20
94.1308119452714
 30
0.0
 10
148.1714823282687
 20
94.23289220866171
 30
0.0
 10
147.984794683263
 20
94.30232540182986
 30
0.0
 10
147.6849431193699
 20
94.4279888223166
 30
0.0
 10
147.5827629568613
 20
94.47298729855453
 30
0.0
 10
147.3739939227021
 20
94.56910611964862
 30
0.0
 10
147.2655629818695
 20
94.62115879900205
 30
0.0
 10
147.1598198016372
 20
94.6739559340237
 30
0.0
  0
SPLINE
  5
CE
330
1F
100
AcDbEntity
  8
0
  6
Continuous
 62
     7
370
    25
100
AcDbSpline
210
0.0
220
0.0
230
1.0
 70
     8
 71
     3
 72
     8
 73
     4
 74
     0
 42
0.00000001
 43
0.00000001
 40
0.0
 40
0.0
 40
0.0
 40
0.0
 40
0.0000710686756821
 40
0.0000710686756821
 40
0.0000710686756821
 40
0.0000710686756821
 10
148.9646614167847
 20
117.1803663899588
 30
0.0
 10
148.9635449975654
 20
117.1797728788601
 30
0.0
 10
148.9597067502115
 20
117.1825071567883
 30
0.0
 10
148.953079078335
 20
117.1887036258439
 30
0.0
  0
SPLINE
  5
CF
330
1F
100
AcDbEntity
  8
0
  6
Continuous
 62
     7
370
    25
100
AcDbSpline
210
0.0
220
0.0
230
1.0
 70
     8
 71
     3
 72
    16
 73
    12
 74
     0
 42
0.00000001
 43
0.00000001
 40
0.0
 40
0.0
 40
0.0
 40
0.0
 40
0.2499999999999999
 40
0.2499999999999999
 40
0.4999999999999998
 40
0.4999999999999998
 40
0.7499999999999997
 40
0.7499999999999997
 40
0.8749999999999998
 40
0.8749999999999998
 40
1.0
 40
1.0
 40
1.0
 40
1.0
 10
148.9530790783357
 20
117.1887036258434
 30
0.0
 10
148.9193865451502
 20
117.2202040898342
 30
0.0
 10
148.8483146022369
 20
117.2302865260065
 30
0.0
 10
148.6362568746125
 20
117.2082869367181
 30
0.0
 10
148.4983809766865
 20
117.176318197366
 30
0.0
 10
148.1714327096605
 20
117.074292223459
 30
0.0
 10
147.984732931255
 20
117.0048876907457
 30
0.0
 10
147.6848595938351
 20
116.8792674210962
 30
0.0
 10
147.5826716253323
 20
116.8342831989317
 30
0.0
 10
147.3738858518004
 20
116.7381925386106
 30
0.0
 10
147.2654458999744
 20
116.6861540254272
 30
0.0
 10
147.1596941790102
 20
116.6333705271651
 30
0.0
  0
SPLINE
  5
D0
330
1F
100
AcDbEntity
  8
0
  6
Continuous
 62
     7
370
    25
100
AcDbSpline
210
0.0
220
0.0
230
1.0
 70
     8
 71
     3
 72
    16
 73
    12
 74
     0
 42
0.00000001
 43
0.00000001
 40
0.0
 40
0.0
 40
0.0
 40
0.0
 40
0.2499999999999984
 40
0.2499999999999984
 40
0.4999999999999968
 40
0.4999999999999968
 40
0.7499999999999953
 40
0.7499999999999953
 40
0.8749999999999977
 40
0.8749999999999977
 40
1.0
 40
1.0
 40
1.0
 40
1.0
 10
72.51751089078701
 20
117.1885388570101
 30
0.0
 10
72.5512102323617
 20
117.220027401085
 30
0.0
 10
72.62228589407643
 20
117.2300926457541
 30
0.0
 10
72.83434351222989
 20
117.2080500348431
 30
0.0
 10
72.97221546518931
 20
117.1760561562605
 30
0.0
 10
73.29914768515486
 20
117.0739758928695
 30
0.0
 10
73.48583533016043
 20
117.0045426997011
 30
0.0
 10
73.7856868940533
 20
116.8788792792138
 30
0.0
 10
73.8878670565618
 20
116.8338808029757
 30
0.0
 10
74.09663609072089
 20
116.7377619818813
 30
0.0
 10
74.20506703155566
 20
116.6857093025321
 30
0.0
 10
74.3108102117854
 20
116.6329121675057
 30
0.0
  0
SPLINE
  5
D1
330
1F
100
AcDbEntity
  8
0
  6
Continuous
 62
     7
370
    25
100
AcDbSpline
210
0.0
220
0.0
230
1.0
 70
     8
 71
     3
 72
     8
 73
     4
 74
     0
 42
0.00000001
 43
0.00000001
 40
0.0
 40
0.0
 40
0.0
 40
0.0
 40
0.0000711123862607
 40
0.0000711123862607
 40
0.0000711123862607
 40
0.0000711123862607
 10
72.51751089078701
 20
117.1885388570101
 30
0.0
 10
72.51087773024095
 20
117.1823408555522
 30
0.0
 10
72.50703645890366
 20
117.1796061056654
 30
0.0
 10
72.50591940369536
 20
117.1802001534382
 30
0.0
  0
SPLINE
  5
D2
330
1F
100
AcDbEntity
  8
0
  6
Continuous
 62
     7
370
    25
100
AcDbSpline
210
0.0
220
0.0
230
1.0
 70
     8
 71
     3
 72
    52
 73
    48
 74
     0
 42
0.00000001
 43
0.00000001
 40
0.0
 40
0.0
 40
0.0
 40
0.0
 40
0.0624999999999999
 40
0.0624999999999999
 40
0.1249999999999999
 40
0.1249999999999999
 40
0.1874999999999998
 40
0.1874999999999998
 40
0.2187499999999998
 40
0.2187499999999998
 40
0.2499999999999998
 40
0.2499999999999998
 40
0.3124999999999997
 40
0.3124999999999997
 40
0.3437499999999997
 40
0.3437499999999997
 40
0.3749999999999997
 40
0.3749999999999997
 40
0.4374999999999996
 40
0.4374999999999996
 40
0.4687499999999996
 40
0.4687499999999996
 40
0.4843749999999996
 40
0.4843749999999996
 40
0.4999999999999996
 40
0.4999999999999996
 40
0.5624999999999996
 40
0.5624999999999996
 40
0.5937499999999994
 40
0.5937499999999994
 40
0.6249999999999994
 40
0.6249999999999994
 40
0.6562499999999994
 40
0.6562499999999994
 40
0.6874999999999993
 40
0.6874999999999993
 40
0.7499999999999994
 40
0.7499999999999994
 40
0.8124999999999994
 40
0.8124999999999994
 40
0.8749999999999996
 40
0.8749999999999996
 40
0.9062499999999997
 40
0.9062499999999997
 40
0.9374999999999997
 40
0.9374999999999997
 40
1.0
 40
1.0
 40
1.0
 40
1.0
 10
72.5059194036958
 20
117.1802001534387
 30
0.0
 10
73.13701411588534
 20
119.3128599291597
 30
0.0
 10
73.92759839504224
 20
121.3457965787678
 30
0.0
 10
75.80269487097202
 20
125.2341026792936
 30
0.0
 10
76.89604055561901
 20
127.0982134083675
 30
0.0
 10
79.30103376868605
 20
130.5548253199128
 30
0.0
 10
80.61755431411643
 20
132.1615543735746
 30
0.0
 10
82.76228430575539
 20
134.4062606630331
 30
0.0
 10
83.50571666811358
 20
135.1267620944485
 30
0.0
 10
85.05201056535938
 20
136.5132141254904
 30
0.0
 10
85.85620787190412
 20
137.1797767454541
 30
0.0
 10
88.32545343906392
 20
139.0696912682599
 30
0.0
 10
90.05738495287316
 20
140.1948979829493
 30
0.0
 10
92.80245158864359
 20
141.686771337372
 30
0.0
 10
93.74219705714081
 20
142.1511866163823
 30
0.0
 10
95.67718556334707
 20
143.0122934098365
 30
0.0
 10
96.67782939737671
 20
143.4107995007155
 30
0.0
 10
99.7320752145584
 20
144.4831001162532
 30
0.0
 10
101.8283504112998
 20
145.0338405732701
 30
0.0
 10
105.08089832044
 20
145.6002602264868
 30
0.0
 10
106.183193172625
 20
145.7454866593441
 30
0.0
 10
107.8668672145072
 20
145.8931627828165
 30
0.0
 10
108.4347958047687
 20
145.9306633344045
 30
0.0
 10
109.5636098177297
 20
145.980647805728
 30
0.0
 10
110.1262921638974
 20
145.9933597957123
 30
0.0
 10
112.9312324741816
 20
145.9967931214958
 30
0.0
 10
115.1480769331007
 20
145.8084440853883
 30
0.0
 10
118.4356581379136
 20
145.2476339657686
 30
0.0
 10
119.5274415311042
 20
145.012839211856
 30
0.0
 10
121.6466206048324
 20
144.464293049119
 30
0.0
 10
122.6811364519594
 20
144.1496060596987
 30
0.0
 10
124.7059837202926
 20
143.4436492252219
 30
0.0
 10
125.6963045048922
 20
143.0523615560118
 30
0.0
 10
127.6370649780705
 20
142.1947151274084
 30
0.0
 10
128.5909226928427
 20
141.7264268421119
 30
0.0
 10
131.37042249903
 20
140.2225931143813
 30
0.0
 10
133.1077174010261
 20
139.0947618207615
 30
0.0
 10
136.3878382645714
 20
136.5913240481043
 30
0.0
 10
137.9303308828416
 20
135.2156806385342
 30
0.0
 10
140.8281578421749
 20
132.1923500879105
 30
0.0
 10
142.1560907088247
 20
130.5723713938283
 30
0.0
 10
143.9626645376546
 20
127.9786305548151
 30
0.0
 10
144.5342234255215
 20
127.0861296348454
 30
0.0
 10
145.6142872820685
 20
125.2416969017125
 30
0.0
 10
146.1244199720202
 20
124.2862083710208
 30
0.0
 10
147.5403484428027
 20
121.3539264102562
 30
0.0
 10
148.3332324129451
 20
119.3141223480104
 30
0.0
 10
148.9646614167847
 20
117.1803663899588
 30
0.0
  0
ELLIPSE
  5
D3
330
1F
100
AcDbEntity
  8
0
  6
Continuous
 62
     7
370
    25
100
AcDbEllipse
 10
105.6205490724
 20
105.6534340508
 30
0.0
 11
0.0
 21
53.60000000000002
 31
0.0
210
0.0
220
0.0
230
1.0
 40
0.0349207695
 41
0.9394655832418628
 42
2.202127070347808
  0
LWPOLYLINE
  5
D4
330
1F
100
AcDbEntity
  8
0
  6
Continuous
 62
     7
370
    25
100
AcDbPolyline
 90
        9
 70
   128
 43
0.0
 10
104.1095897562
 20
74.0176681341
 10
104.1000217312
 20
73.9724075342
 10
104.0759904451
 20
73.9288246265
 10
104.0383866749
 20
73.8885349156
 10
103.9886042942
 20
73.8530318356
 10
103.9284886056
 20
73.8236313931
 10
103.8602679408
 20
73.8014233857
 10
103.7864710616
 20
73.7872310061
 10
103.7098334254
 20
73.7815803288
  0
LWPOLYLINE
  5
D5
330
1F
100
AcDbEntity
  8
0
  6
Continuous
 62
     7
370
    25
100
AcDbPolyline
 90
        9
 70
   128
 43
0.0
 10
104.1095897562
 20
137.2891999674
 10
104.1000217312
 20
137.3344605673
 10
104.0759904451
 20
137.378043475
 10
104.0383866749
 20
137.418333186
 10
103.9886042942
 20
137.4538362659
 10
103.9284886056
 20
137.4832367084
 10
103.8602679408
 20
137.5054447159
 10
103.7864710616
 20
137.5196370955
 10
103.7098334254
 20
137.5252877728
  0
LWPOLYLINE
  5
D6
330
1F
100
AcDbEntity
  8
0
  6
Continuous
 62
     7
370
    25
100
AcDbPolyline
 90
        9
 70
   128
 43
0.0
 10
153.2808559255
 20
97.4336231567
 10
153.280857842
 20
97.0960548332
 10
153.2808597006
 20
96.7778694289
 10
153.2808614453
 20
96.4886733404
 10
153.2808630233
 20
96.2371977422
 10
153.280864387
 20
96.0310349824
 10
153.2808654953
 20
95.8764093605
 10
153.2808663146
 20
95.7779892082
 10
153.2808668203
 20
95.7387459472
  0
SPLINE
  5
D7
330
1F
100
AcDbEntity
  8
0
  6
Continuous
 62
     7
370
    25
100
AcDbSpline
210
0.0
220
0.0
230
1.0
 70
     8
 71
     3
 72
    12
 73
     8
 74
     0
 42
0.00000001
 43
0.00000001
 40
0.0
 40
0.0
 40
0.0
 40
0.0
 40
0.5
 40
0.5
 40
0.75
 40
0.75
 40
1.0
 40
1.0
 40
1.0
 40
1.0
 10
153.2808668202804
 20
95.73874594724178
 30
0.0
 10
152.5526118701137
 20
95.7387419581936
 30
0.0
 10
151.8436342212894
 20
95.62851762467142
 30
0.0
 10
150.8087421840966
 20
95.30083497282627
 30
0.0
 10
150.4721174048269
 20
95.16475499174202
 30
0.0
 10
149.8294057008337
 20
94.84598132006786
 30
0.0
 10
149.5210558081864
 20
94.6625935065838
 30
0.0
 10
149.2261442742521
 20
94.45488746820186
 30
0.0
  0
SPLINE
  5
D8
330
1F
100
AcDbEntity
  8
0
  6
Continuous
 62
     7
370
    25
100
AcDbSpline
210
0.0
220
0.0
230
1.0
 70
     8
 71
     3
 72
    12
 73
     8
 74
     0
 42
0.00000001
 43
0.00000001
 40
0.0
 40
0.0
 40
0.0
 40
0.0
 40
0.4999999999999984
 40
0.4999999999999984
 40
0.7499999999999992
 40
0.7499999999999992
 40
1.0
 40
1.0
 40
1.0
 40
1.0
 10
149.2261442742511
 20
94.45488746820313
 30
0.0
 10
149.1682550907222
 20
94.42931788834171
 30
0.0
 10
148.9986710303115
 20
94.52952865323229
 30
0.0
 10
148.6267958731988
 20
94.83314616605865
 30
0.0
 10
148.4865428024044
 20
94.95699936725616
 30
0.0
 10
148.1831946369706
 20
95.24063469748334
 30
0.0
 10
148.0233617390011
 20
95.39739313333811
 30
0.0
 10
147.8628030917319
 20
95.56166199789244
 30
0.0
  0
SPLINE
  5
D9
330
1F
100
AcDbEntity
  8
0
  6
Continuous
 62
     7
370
    25
100
AcDbSpline
210
0.0
220
0.0
230
1.0
 70
     8
 71
     3
 72
    12
 73
     8
 74
     0
 42
0.00000001
 43
0.00000001
 40
0.0
 40
0.0
 40
0.0
 40
0.0
 40
0.4999999999999979
 40
0.4999999999999979
 40
0.7499999999999989
 40
0.7499999999999989
 40
1.0
 40
1.0
 40
1.0
 40
1.0
 10
68.18975727900867
 20
115.5681221542747
 30
0.0
 10
68.91801421055204
 20
115.5681221542747
 30
0.0
 10
69.62699407928419
 20
115.6783447947773
 30
0.0
 10
70.66188973269682
 20
116.0060286778925
 30
0.0
 10
70.9985146547286
 20
116.1421093252857
 30
0.0
 10
71.6412266372323
 20
116.460885334756
 30
0.0
 10
71.94957642541755
 20
116.6442747620824
 30
0.0
 10
72.24448757154774
 20
116.8519829135054
 30
0.0
  0
SPLINE
  5
DA
330
1F
100
AcDbEntity
  8
0
  6
Continuous
 62
     7
370
    25
100
AcDbSpline
210
0.0
220
0.0
230
1.0
 70
     8
 71
     3
 72
    12
 73
     8
 74
     0
 42
0.00000001
 43
0.00000001
 40
0.0
 40
0.0
 40
0.0
 40
0.0
 40
0.4999999999999976
 40
0.4999999999999976
 40
0.7499999999999988
 40
0.7499999999999988
 40
1.0
 40
1.0
 40
1.0
 40
1.0
 10
72.2444875715487
 20
116.8519829135041
 30
0.0
 10
72.30237675548494
 20
116.877552898326
 30
0.0
 10
72.47196116652896
 20
116.7773428319157
 30
0.0
 10
72.84383730046507
 20
116.4737265042145
 30
0.0
 10
72.98409076591997
 20
116.3498737073594
 30
0.0
 10
73.28743979241975
 20
116.0662391997023
 30
0.0
 10
73.44727315314658
 20
115.9094811681111
 30
0.0
 10
73.60783226300724
 20
115.7452126903262
 30
0.0
  0
LINE
  5
DB
330
1F
100
AcDbEntity
  8
0
  6
Continuous
 62
     7
370
    25
100
AcDbLine
 10
68.189757279
 20
115.5681221543
 30
0.0
 11
68.189757279
 21
113.8732449448
 31
0.0
  0
SPLINE
  5
DC
330
1F
100
AcDbEntity
  8
0
  6
Continuous
 62
     7
370
    25
100
AcDbSpline
210
0.0
220
0.0
230
1.0
 70
     8
 71
     3
 72
    12
 73
     8
 74
     0
 42
0.00000001
 43
0.00000001
 40
0.0
 40
0.0
 40
0.0
 40
0.0
 40
0.2500000000000012
 40
0.2500000000000012
 40
0.5000000000000023
 40
0.5000000000000023
 40
1.0
 40
1.0
 40
1.0
 40
1.0
 10
72.24448756163282
 20
94.4548851950108
 30
0.0
 10
71.94957641596791
 20
94.66259334534485
 30
0.0
 10
71.64122662835193
 20
94.84598277170224
 30
0.0
 10
70.99851464716589
 20
95.16475877947475
 30
0.0
 10
70.66188972585064
 20
95.30083942614154
 30
0.0
 10
69.62699407522763
 20
95.62852330737056
 30
0.0
 10
68.9180142084689
 20
95.73874594725808
 30
0.0
 10
68.18975727900634
 20
95.73874594725807
 30
0.0
  0
LINE
  5
DD
330
1F
100
AcDbEntity
  8
0
  6
Continuous
 62
     7
370
    25
100
AcDbLine
 10
68.189757279
 20
95.7387459473
 30
0.0
 11
68.189757279
 21
97.4336231567
 31
0.0
  0
SPLINE
  5
DE
330
1F
100
AcDbEntity
  8
0
  6
Continuous
 62
     7
370
    25
100
AcDbSpline
210
0.0
220
0.0
230
1.0
 70
     8
 71
     3
 72
    12
 73
     8
 74
     0
 42
0.00000001
 43
0.00000001
 40
0.0
 40
0.0
 40
0.0
 40
0.0
 40
0.5
 40
0.5
 40
0.75
 40
0.75
 40
1.0
 40
1.0
 40
1.0
 40
1.0
 10
72.24448756163282
 20
94.4548851950108
 30
0.0
 10
72.30237674472079
 20
94.42931521090837
 30
0.0
 10
72.47196115333402
 20
94.52952527895567
 30
0.0
 10
72.84383728230509
 20
94.83314161063151
 30
0.0
 10
72.98409074587214
 20
94.956994408985
 30
0.0
 10
73.28743976841601
 20
95.2406289200663
 30
0.0
 10
73.447273127235
 20
95.39738695333385
 30
0.0
 10
73.60783223477198
 20
95.56165543316425
 30
0.0
  0
LINE
  5
DF
330
1F
100
AcDbEntity
  8
0
  6
Continuous
 62
     7
370
    25
100
AcDbLine
 10
153.2808727344
 20
113.8732449448
 30
0.0
 11
153.2808727344
 21
115.5681221543
 31
0.0
  0
SPLINE
  5
E0
330
1F
100
AcDbEntity
  8
0
  6
Continuous
 62
     7
370
    25
100
AcDbSpline
210
0.0
220
0.0
230
1.0
 70
     8
 71
     3
 72
    12
 73
     8
 74
     0
 42
0.00000001
 43
0.00000001
 40
0.0
 40
0.0
 40
0.0
 40
0.0
 40
0.4999999999999986
 40
0.4999999999999986
 40
0.7499999999999992
 40
0.7499999999999992
 40
1.0
 40
1.0
 40
1.0
 40
1.0
 10
149.2261424168177
 20
116.8519829311523
 30
0.0
 10
149.1682532307351
 20
116.8775529177941
 30
0.0
 10
148.9986688135403
 20
116.7773428555232
 30
0.0
 10
148.6267926670332
 20
116.4737265378818
 30
0.0
 10
148.4865391967967
 20
116.3498737448202
 30
0.0
 10
148.1831901602752
 20
116.0662392458355
 30
0.0
 10
148.023356794079
 20
115.90948121909
 30
0.0
 10
147.8627976790697
 20
115.74521274579
 30
0.0
  0
SPLINE
  5
E1
330
1F
100
AcDbEntity
  8
0
  6
Continuous
 62
     7
370
    25
100
AcDbSpline
210
0.0
220
0.0
230
1.0
 70
     8
 71
     3
 72
    12
 73
     8
 74
     0
 42
0.00000001
 43
0.00000001
 40
0.0
 40
0.0
 40
0.0
 40
0.0
 40
0.2499999999999999
 40
0.2499999999999999
 40
0.4999999999999998
 40
0.4999999999999998
 40
1.0
 40
1.0
 40
1.0
 40
1.0
 10
149.2261424168177
 20
116.8519829311523
 30
0.0
 10
149.5210535641245
 20
116.6442747769767
 30
0.0
 10
149.8294033537514
 20
116.4608853472062
 30
0.0
 10
150.4721153395859
 20
116.1421093334449
 30
0.0
 10
150.8087402634291
 20
116.0060286842157
 30
0.0
 10
151.8436359238937
 20
115.6783447963333
 30
0.0
 10
152.5526157976144
 20
115.5681221542765
 30
0.0
 10
153.2808727344178
 20
115.568122154277
 30
0.0
  0
ELLIPSE
  5
E2
330
1F
100
AcDbEntity
  8
0
  6
Continuous
 62
     7
370
    25
100
AcDbEllipse
 10
105.6215240462
 20
105.6534340508
 30
0.0
 11
0.0
 21
50.40000000000001
 31
0.0
210
0.0
220
0.0
230
1.0
 40
0.0349207695
 41
0.8952619851309096
 42
2.246330668458883
  0
LWPOLYLINE
  5
E3
330
1F
100
AcDbEntity
  8
0
  6
Continuous
 62
     7
370
    25
100
AcDbPolyline
 90
        3
 70
   128
 43
0.0
 10
104.1095897562
 20
74.0176681341
 10
104.2234943531
 20
74.1162789277
 10
104.2480623948
 20
74.1375887066
  0
LWPOLYLINE
  5
E4
330
1F
100
AcDbEntity
  8
0
  6
Continuous
 62
     7
370
    25
100
AcDbPolyline
 90
        3
 70
   128
 43
0.0
 10
104.2480623948
 20
137.1692793949
 10
104.2234943531
 20
137.1905891738
 10
104.1095897562
 20
137.2891999674
  0
LINE
  5
E5
330
1F
100
AcDbEntity
  8
0
  6
Continuous
 62
     7
370
    25
100
AcDbLine
 10
148.9646614168
 20
117.18036639
 30
0.0
 11
149.0387431651
 21
117.2197594501
 31
0.0
  0
LWPOLYLINE
  5
E6
330
1F
100
AcDbEntity
  8
0
  6
Continuous
 62
     7
370
    25
100
AcDbPolyline
 90
        3
 70
   128
 43
0.0
 10
72.5059194037
 20
117.1802001534
 10
72.498767538
 20
117.1840035922
 10
72.4318414159
 20
117.2196043907
  0
SPLINE
  5
E7
330
1F
100
AcDbEntity
  8
0
  6
Continuous
 62
     7
370
    25
100
AcDbSpline
210
0.0
220
0.0
230
1.0
 70
     8
 71
     3
 72
    12
 73
     8
 74
     0
 42
0.00000001
 43
0.00000001
 40
0.0
 40
0.0
 40
0.0
 40
0.0
 40
0.25
 40
0.25
 40
0.5
 40
0.5
 40
1.0
 40
1.0
 40
1.0
 40
1.0
 10
81.2926418024362
 20
132.9503619200071
 30
0.0
 10
80.28871522502276
 20
131.8466333826779
 30
0.0
 10
79.343866984479
 20
130.6847837577168
 30
0.0
 10
77.58351923094806
 20
128.2549007118314
 30
0.0
 10
76.76340543335982
 20
126.9796575389042
 30
0.0
 10
74.52322368269148
 20
123.0215105592852
 30
0.0
 10
73.31984508984512
 20
120.2152101959962
 30
0.0
 10
72.43030391302553
 20
117.2172047199717
 30
0.0
  0
SPLINE
  5
E8
330
1F
100
AcDbEntity
  8
0
  6
Continuous
 62
     7
370
    25
100
AcDbSpline
210
0.0
220
0.0
230
1.0
 70
     8
 71
     3
 72
    34
 73
    30
 74
     0
 42
0.00000001
 43
0.00000001
 40
0.0
 40
0.0
 40
0.0
 40
0.0
 40
0.125
 40
0.125
 40
0.1875000000000001
 40
0.1875000000000001
 40
0.2500000000000002
 40
0.2500000000000002
 40
0.3125000000000002
 40
0.3125000000000002
 40
0.3437500000000002
 40
0.3437500000000002
 40
0.3750000000000001
 40
0.3750000000000001
 40
0.4999999999999999
 40
0.4999999999999999
 40
0.5312499999999999
 40
0.5312499999999999
 40
0.5624999999999999
 40
0.5624999999999999
 40
0.6249999999999998
 40
0.6249999999999998
 40
0.7499999999999997
 40
0.7499999999999997
 40
0.8124999999999997
 40
0.8124999999999997
 40
0.8749999999999998
 40
0.8749999999999998
 40
1.0
 40
1.0
 40
1.0
 40
1.0
 10
140.1779882110148
 20
132.9503619199775
 30
0.0
 10
138.3475523903005
 20
134.9627643172537
 30
0.0
 10
136.3468325935146
 20
136.758454275744
 30
0.0
 10
133.0853946567576
 20
139.1442314603291
 30
0.0
 10
131.9538208202619
 20
139.8882546970558
 30
0.0
 10
129.5922503786186
 20
141.271709418357
 30
0.0
 10
128.3773219736884
 20
141.9021567103276
 30
0.0
 10
125.879308029489
 20
143.0385787260252
 30
0.0
 10
124.5954046729764
 20
143.5450690285947
 30
0.0
 10
122.6109145045763
 20
144.2085595970732
 30
0.0
 10
121.9396168950186
 20
144.4136341039027
 30
0.0
 10
120.5759836283931
 20
144.790339543093
 30
0.0
 10
119.8842975899638
 20
144.96161192968
 30
0.0
 10
116.4204931162686
 20
145.7207851702271
 30
0.0
 10
113.5947776754698
 20
146.0316395135136
 30
0.0
 10
109.9868197084336
 20
146.0291797756532
 30
0.0
 10
109.2588983576214
 20
146.0086891355188
 30
0.0
 10
107.8140539203966
 20
145.9280626717663
 30
0.0
 10
107.0958552235265
 20
145.8680749528646
 30
0.0
 10
104.9535380286415
 20
145.6303385014398
 30
0.0
 10
103.5393958139927
 20
145.3944844592383
 30
0.0
 10
99.35766872147919
 20
144.4627952959263
 30
0.0
 10
96.74904112076364
 20
143.5705299853308
 30
0.0
 10
93.04175251147252
 20
141.8759626603147
 30
0.0
 10
91.84081885991822
 20
141.2508496711446
 30
0.0
 10
89.5035915643729
 20
139.8793423258493
 30
0.0
 10
88.36229518152494
 20
139.1287176248676
 30
0.0
 10
85.09531029787672
 20
136.73503758222
 30
0.0
 10
83.1071181029219
 20
134.9452182354095
 30
0.0
 10
81.2926418024362
 20
132.9503619200071
 30
0.0
  0
SPLINE
  5
E9
330
1F
100
AcDbEntity
  8
0
  6
Continuous
 62
     7
370
    25
100
AcDbSpline
210
0.0
220
0.0
230
1.0
 70
     8
 71
     3
 72
    12
 73
     8
 74
     0
 42
0.00000001
 43
0.00000001
 40
0.0
 40
0.0
 40
0.0
 40
0.0
 40
0.5
 40
0.5
 40
0.75
 40
0.75
 40
1.0
 40
1.0
 40
1.0
 40
1.0
 10
149.0402795968448
 20
117.2173614489502
 30
0.0
 10
148.1507346573481
 20
120.2153353615161
 30
0.0
 10
146.9473586372397
 20
123.0216070989454
 30
0.0
 10
144.7071887637771
 20
126.9797146866401
 30
0.0
 10
143.8870806309355
 20
128.2549448601154
 30
0.0
 10
142.1267462676584
 20
130.6848043651408
 30
0.0
 10
141.1819058702932
 20
131.8466431873474
 30
0.0
 10
140.1779882110148
 20
132.9503619199775
 30
0.0
  0
LINE
  5
EA
330
1F
100
AcDbEntity
  8
0
  6
Continuous
 62
     7
370
    25
100
AcDbLine
 10
72.5059505088
 20
94.1265628351
 30
0.0
 11
72.4318701448
 21
94.0871656608
 31
0.0
  0
LWPOLYLINE
  5
EB
330
1F
100
AcDbEntity
  8
0
  6
Continuous
 62
     7
370
    25
100
AcDbPolyline
 90
        3
 70
   128
 43
0.0
 10
148.9647106097
 20
94.1266679481
 10
148.9718624754
 20
94.1228645094
 10
149.0387885975
 20
94.0872637109
  0
SPLINE
  5
EC
330
1F
100
AcDbEntity
  8
0
  6
Continuous
 62
     7
370
    25
100
AcDbSpline
210
0.0
220
0.0
230
1.0
 70
     8
 71
     3
 72
    12
 73
     8
 74
     0
 42
0.00000001
 43
0.00000001
 40
0.0
 40
0.0
 40
0.0
 40
0.0
 40
0.2500000000000001
 40
0.2500000000000001
 40
0.5000000000000001
 40
0.5000000000000001
 40
1.0
 40
1.0
 40
1.0
 40
1.0
 10
140.177988210992
 20
78.35650618153254
 30
0.0
 10
141.1819147884048
 20
79.46023471886137
 30
0.0
 10
142.126763028948
 20
80.62208434382212
 30
0.0
 10
143.8871107824779
 20
83.05196738970655
 30
0.0
 10
144.7072245800657
 20
84.32721056263327
 30
0.0
 10
146.9474063307329
 20
88.2853575422507
 30
0.0
 10
148.1507849235796
 20
91.0916579055414
 30
0.0
 10
149.0403261003981
 20
94.0896633815616
 30
0.0
  0
SPLINE
  5
ED
330
1F
100
AcDbEntity
  8
0
  6
Continuous
 62
     7
370
    25
100
AcDbSpline
210
0.0
220
0.0
230
1.0
 70
     8
 71
     3
 72
    34
 73
    30
 74
     0
 42
0.00000001
 43
0.00000001
 40
0.0
 40
0.0
 40
0.0
 40
0.0
 40
0.1249999999999999
 40
0.1249999999999999
 40
0.1874999999999999
 40
0.1874999999999999
 40
0.2499999999999999
 40
0.2499999999999999
 40
0.3124999999999999
 40
0.3124999999999999
 40
0.3437499999999998
 40
0.3437499999999998
 40
0.3749999999999998
 40
0.3749999999999998
 40
0.4999999999999999
 40
0.4999999999999999
 40
0.5312499999999999
 40
0.5312499999999999
 40
0.5624999999999999
 40
0.5624999999999999
 40
0.6249999999999998
 40
0.6249999999999998
 40
0.7499999999999999
 40
0.7499999999999999
 40
0.8124999999999999
 40
0.8124999999999999
 40
0.8749999999999998
 40
0.8749999999999998
 40
1.0
 40
1.0
 40
1.0
 40
1.0
 10
81.29264180240924
 20
78.35650618155773
 30
0.0
 10
83.12307762312382
 20
76.34410378428133
 30
0.0
 10
85.12379741990976
 20
74.54841382579094
 30
0.0
 10
88.38523535666718
 20
72.16263664120565
 30
0.0
 10
89.51680919316293
 20
71.41861340447883
 30
0.0
 10
91.87837963480655
 20
70.03515868317756
 30
0.0
 10
93.09330803973693
 20
69.40471139120697
 30
0.0
 10
95.5913219839365
 20
68.2682893755093
 30
0.0
 10
96.8752253404493
 20
67.76179907293987
 30
0.0
 10
98.85971550884965
 20
67.09830850446133
 30
0.0
 10
99.53101311840747
 20
66.89323399763188
 30
0.0
 10
100.8946463850332
 20
66.51652855844156
 30
0.0
 10
101.5863324234626
 20
66.34525617185467
 30
0.0
 10
105.050136897158
 20
65.58608293130767
 30
0.0
 10
107.8758523379571
 20
65.27522858802132
 30
0.0
 10
111.4838103049938
 20
65.27768832588195
 30
0.0
 10
112.2117316558061
 20
65.29817896601642
 30
0.0
 10
113.6565760930309
 20
65.37880542976909
 30
0.0
 10
114.3747747899011
 20
65.43879314867083
 30
0.0
 10
116.5170919847863
 20
65.67652960009583
 30
0.0
 10
117.9312341994353
 20
65.91238364229758
 30
0.0
 10
122.1129612919489
 20
66.84407280560998
 30
0.0
 10
124.7215888926645
 20
67.73633811620583
 30
0.0
 10
128.4288775019557
 20
69.43090544122249
 30
0.0
 10
129.6298111535101
 20
70.05601843039285
 30
0.0
 10
131.9670384490555
 20
71.42752577568855
 30
0.0
 10
133.1083348319035
 20
72.17815047667047
 30
0.0
 10
136.3753197155516
 20
74.57183051931865
 30
0.0
 10
138.3635119105063
 20
76.36164986612955
 30
0.0
 10
140.177988210992
 20
78.35650618153254
 30
0.0
  0
SPLINE
  5
EE
330
1F
100
AcDbEntity
  8
0
  6
Continuous
 62
     7
370
    25
100
AcDbSpline
210
0.0
220
0.0
230
1.0
 70
     8
 71
     3
 72
    12
 73
     8
 74
     0
 42
0.00000001
 43
0.00000001
 40
0.0
 40
0.0
 40
0.0
 40
0.0
 40
0.5000000000000002
 40
0.5000000000000002
 40
0.7500000000000001
 40
0.7500000000000001
 40
1.0
 40
1.0
 40
1.0
 40
1.0
 10
72.43033331871146
 20
94.08956427654344
 30
0.0
 10
73.31987687482328
 20
91.09157875916557
 30
0.0
 10
74.52325384086367
 20
88.28529649696148
 30
0.0
 10
76.76342808119121
 20
84.32717442619054
 30
0.0
 10
77.58353829677284
 20
83.05193947325786
 30
0.0
 10
79.3438775831972
 20
80.62207131305794
 30
0.0
 10
80.28872086423462
 20
79.46022851904448
 30
0.0
 10
81.29264180240925
 20
78.35650618155772
 30
0.0
  0
LINE
  5
EF
330
1F
100
AcDbEntity
  8
0
  6
Continuous
 62
     7
370
    25
100
AcDbLine
 10
64.7353150067
 20
115.5681221543
 30
0.0
 11
68.189757279
 21
115.5681221543
 31
0.0
  0
LINE
  5
F0
330
1F
100
AcDbEntity
  8
0
  6
Continuous
 62
     7
370
    25
100
AcDbLine
 10
156.7353150067
 20
95.7387459473
 30
0.0
 11
153.2808668203
 21
95.7387459472
 31
0.0
  0
LINE
  5
F1
330
1F
100
AcDbEntity
  8
0
  6
Continuous
 62
     7
370
    25
100
AcDbLine
 10
153.2808727344
 20
115.5681221543
 30
0.0
 11
156.7353150067
 21
115.5681221543
 31
0.0
  0
LINE
  5
F2
330
1F
100
AcDbEntity
  8
0
  6
Continuous
 62
     7
370
    25
100
AcDbLine
 10
68.189757279
 20
95.7387459473
 30
0.0
 11
64.7353150067
 21
95.7387459473
 31
0.0
  0
SPLINE
  5
F3
330
1F
100
AcDbEntity
  8
0
  6
Continuous
 62
     7
370
    25
100
AcDbSpline
210
0.0
220
0.0
230
1.0
 70
     8
 71
     3
 72
     8
 73
     4
 74
     0
 42
0.00000001
 43
0.00000001
 40
0.0
 40
0.0
 40
0.0
 40
0.0
 40
0.0000328506523558
 40
0.0000328506523558
 40
0.0000328506523558
 40
0.0000328506523558
 10
149.2261442742511
 20
94.45488746820313
 30
0.0
 10
149.2288397555988
 20
94.45607805893844
 30
0.0
 10
149.230369099576
 20
94.45644451669999
 30
0.0
 10
149.230758131823
 20
94.45601693532143
 30
0.0
  0
SPLINE
  5
F4
330
1F
100
AcDbEntity
  8
0
  6
Continuous
 62
     7
370
    25
100
AcDbSpline
210
0.0
220
0.0
230
1.0
 70
     8
 71
     3
 72
    14
 73
    10
 74
     0
 42
0.00000001
 43
0.00000001
 40
0.0000000000000037
 40
0.0000000000000037
 40
0.0000000000000037
 40
0.0000000000000037
 40
0.0000597228126904
 40
0.0000597228126904
 40
0.0000597228126904
 40
0.000073402037781
 40
0.000073402037781
 40
0.000073402037781
 40
0.000073462037781
 40
0.000073462037781
 40
0.000073462037781
 40
0.000073462037781
 10
149.230758131823
 20
94.45601693532141
 30
0.0
 10
149.2053916823279
 20
94.42589001083287
 30
0.0
 10
149.1800283796773
 20
94.39576569494145
 30
0.0
 10
149.1546682617377
 20
94.36564403204395
 30
0.0
 10
149.1488596464984
 20
94.35874480742065
 30
0.0
 10
149.1430511979452
 20
94.3518457215155
 30
0.0
 10
149.1372429165335
 20
94.3449467748625
 30
0.0
 10
149.1372174401776
 20
94.34491651461728
 30
0.0
 10
149.1371919638282
 20
94.34488625437214
 30
0.0
 10
149.1371664874756
 20
94.34485599413486
 30
0.0
  0
SPLINE
  5
F5
330
1F
100
AcDbEntity
  8
0
  6
Continuous
 62
     7
370
    25
100
AcDbSpline
210
0.0
220
0.0
230
1.0
 70
     8
 71
     3
 72
    17
 73
    13
 74
     0
 42
0.00000001
 43
0.00000001
 40
-0.000000059799363
 40
-0.000000059799363
 40
-0.000000059799363
 40
-0.000000059799363
 40
0.0
 40
0.0
 40
0.0
 40
0.0000163688124661
 40
0.0000163688124661
 40
0.0000163688124661
 40
0.0000343480201969
 40
0.0000343480201969
 40
0.0000343480201969
 40
0.0000344080201968
 40
0.0000344080201968
 40
0.0000344080201968
 40
0.0000344080201968
 10
149.1371664874756
 20
94.34485599413486
 30
0.0
 10
149.1371414773087
 20
94.34482553008162
 30
0.0
 10
149.1371166300662
 20
94.34479650588551
 30
0.0
 10
149.1370917021488
 20
94.34476676119596
 30
0.0
 10
149.1302682113372
 20
94.3366247807296
 30
0.0
 10
149.1234839769435
 20
94.3284544924197
 30
0.0
 10
149.116739536618
 20
94.32025638982988
 30
0.0
 10
149.1093315822673
 20
94.31125176278651
 30
0.0
 10
149.1019714511557
 20
94.30221335302593
 30
0.0
 10
149.09465984464
 20
94.29314182918738
 30
0.0
 10
149.094635444377
 20
94.29311155573559
 30
0.0
 10
149.0946110451855
 20
94.29308128150902
 30
0.0
 10
149.094586645469
 20
94.2930510077217
 30
0.0
  0
SPLINE
  5
F6
330
1F
100
AcDbEntity
  8
0
  6
Continuous
 62
     7
370
    25
100
AcDbSpline
210
0.0
220
0.0
230
1.0
 70
     8
 71
     3
 72
    14
 73
    10
 74
     0
 42
0.00000001
 43
0.00000001
 40
-0.0000000597867095
 40
-0.0000000597867095
 40
-0.0000000597867095
 40
-0.0000000597867095
 40
0.0
 40
0.0
 40
0.0
 40
0.0001070908858366
 40
0.0001070908858366
 40
0.0001070908858366
 40
0.0001136923637934
 40
0.0001136923637934
 40
0.0001136923637934
 40
0.0001136923637934
 10
149.094586645469
 20
94.2930510077217
 30
0.0
 10
149.0945619458598
 20
94.29302113926865
 30
0.0
 10
149.094537063815
 20
94.29298977564586
 30
0.0
 10
149.094512272993
 20
94.29295915961225
 30
0.0
 10
149.0501065661769
 20
94.23811924305075
 30
0.0
 10
149.005711417885
 20
94.18328852937711
 30
0.0
 10
148.9613270551624
 20
94.12846729551457
 30
0.0
 10
148.9585910367974
 20
94.12508790931999
 30
0.0
 10
148.955855059271
 20
94.12170855896791
 30
0.0
 10
148.9531191226366
 20
94.11832924452328
 30
0.0
  0
SPLINE
  5
F7
330
1F
100
AcDbEntity
  8
0
  6
Continuous
 62
     7
370
    25
100
AcDbSpline
210
0.0
220
0.0
230
1.0
 70
     8
 71
     3
 72
    14
 73
    10
 74
     0
 42
0.00000001
 43
0.00000001
 40
-0.0000065992839883
 40
-0.0000065992839883
 40
-0.0000065992839883
 40
-0.0000065992839883
 40
0.0
 40
0.0
 40
0.0
 40
0.0001070402760906
 40
0.0001070402760906
 40
0.0001070402760906
 40
0.0001071002760906
 40
0.0001071002760906
 40
0.0001071002760906
 40
0.0001071002760906
 10
72.51753621496313
 20
94.11822505813234
 30
0.0
 10
72.51480180305182
 20
94.12160372315432
 30
0.0
 10
72.5120673502648
 20
94.12498242408476
 30
0.0
 10
72.50933285665512
 20
94.12836116085852
 30
0.0
 10
72.46497945201743
 20
94.18316417036644
 30
0.0
 10
72.42061526909137
 20
94.2379766572489
 30
0.0
 10
72.37624053467331
 20
94.29279834478342
 30
0.0
 10
72.37621566100741
 20
94.29282907434964
 30
0.0
 10
72.37619078733488
 20
94.29285980391617
 30
0.0
 10
72.37616591366563
 20
94.29289053349079
 30
0.0
  0
SPLINE
  5
F8
330
1F
100
AcDbEntity
  8
0
  6
Continuous
 62
     7
370
    25
100
AcDbSpline
210
0.0
220
0.0
230
1.0
 70
     8
 71
     3
 72
    17
 73
    13
 74
     0
 42
0.00000001
 43
0.00000001
 40
-0.0000000597845265
 40
-0.0000000597845265
 40
-0.0000000597845265
 40
-0.0000000597845265
 40
0.0
 40
0.0
 40
0.0
 40
0.0000167985471317
 40
0.0000167985471317
 40
0.0000167985471317
 40
0.0000344561719588
 40
0.0000344561719588
 40
0.0000344561719588
 40
0.0000345161719587
 40
0.0000345161719587
 40
0.0000345161719587
 40
0.0000345161719587
 10
72.37616591366563
 20
94.29289053349079
 30
0.0
 10
72.3761415244094
 20
94.29292145649029
 30
0.0
 10
72.37611730703333
 20
94.29295086650055
 30
0.0
 10
72.3760930029115
 20
94.29298103245019
 30
0.0
 10
72.3692639125147
 20
94.3014572077448
 30
0.0
 10
72.3623923374271
 20
94.30990425227466
 30
0.0
 10
72.35547880310311
 20
94.31832158755768
 30
0.0
 10
72.34821171926552
 20
94.32716937485783
 30
0.0
 10
72.34089809391669
 20
94.33598455676928
 30
0.0
 10
72.33353855017648
 20
94.34476647333312
 30
0.0
 10
72.33351354267106
 20
94.34479631401807
 30
0.0
 10
72.33348853410997
 20
94.34482615390517
 30
0.0
 10
72.3334635260665
 20
94.34485599423958
 30
0.0
  0
SPLINE
  5
F9
330
1F
100
AcDbEntity
  8
0
  6
Continuous
 62
     7
370
    25
100
AcDbSpline
210
0.0
220
0.0
230
1.0
 70
     8
 71
     3
 72
    11
 73
     7
 74
     0
 42
0.00000001
 43
0.00000001
 40
-0.0000000597964491
 40
-0.0000000597964491
 40
-0.0000000597964491
 40
-0.0000000597964491
 40
0.0
 40
0.0
 40
0.0
 40
0.0000734007460241
 40
0.0000734007460241
 40
0.0000734007460241
 40
0.0000734007460241
 10
72.3334635260665
 20
94.34485599423958
 30
0.0
 10
72.33343822499694
 20
94.34488543057626
 30
0.0
 10
72.33341274622101
 20
94.34491630940435
 30
0.0
 10
72.3333873562935
 20
94.3449464669907
 30
0.0
 10
72.30222096347026
 20
94.38196520924821
 30
0.0
 10
72.27104974912665
 20
94.4189879717367
 30
0.0
 10
72.23987378357054
 20
94.45601467202313
 30
0.0
  0
SPLINE
  5
FA
330
1F
100
AcDbEntity
  8
0
  6
Continuous
 62
     7
370
    25
100
AcDbSpline
210
0.0
220
0.0
230
1.0
 70
     8
 71
     3
 72
     8
 73
     4
 74
     0
 42
0.00000001
 43
0.00000001
 40
0.0
 40
0.0
 40
0.0
 40
0.0
 40
0.0000328500805612
 40
0.0000328500805612
 40
0.0000328500805612
 40
0.0000328500805612
 10
72.23987378357054
 20
94.45601467202313
 30
0.0
 10
72.24026281005696
 20
94.45644224476798
 30
0.0
 10
72.241792127671
 20
94.4560757836442
 30
0.0
 10
72.24448756163702
 20
94.45488519500596
 30
0.0
  0
SPLINE
  5
FB
330
1F
100
AcDbEntity
  8
0
  6
Continuous
 62
     7
370
    25
100
AcDbSpline
210
0.0
220
0.0
230
1.0
 70
     8
 71
     3
 72
     8
 73
     4
 74
     0
 42
0.00000001
 43
0.00000001
 40
0.0
 40
0.0
 40
0.0
 40
0.0
 40
0.0000328500834861
 40
0.0000328500834861
 40
0.0000328500834861
 40
0.0000328500834861
 10
72.2444875715487
 20
116.8519829135041
 30
0.0
 10
72.24179213730467
 20
116.850792324727
 30
0.0
 10
72.24026281953984
 20
116.8504258635595
 30
0.0
 10
72.23987379301778
 20
116.8508534363416
 30
0.0
  0
SPLINE
  5
FC
330
1F
100
AcDbEntity
  8
0
  6
Continuous
 62
     7
370
    25
100
AcDbSpline
210
0.0
220
0.0
230
1.0
 70
     8
 71
     3
 72
    14
 73
    10
 74
     0
 42
0.00000001
 43
0.00000001
 40
0.0000000000000037
 40
0.0000000000000037
 40
0.0000000000000037
 40
0.0000000000000037
 40
0.0000597248853423
 40
0.0000597248853423
 40
0.0000597248853423
 40
0.0000734005377008
 40
0.0000734005377008
 40
0.0000734005377008
 40
0.0000734605377008
 40
0.0000734605377008
 40
0.0000734605377008
 40
0.0000734605377008
 10
72.23987379301775
 20
116.8508534363416
 30
0.0
 10
72.26524112268493
 20
116.8809814062394
 30
0.0
 10
72.29060530528874
 20
116.9111067673586
 30
0.0
 10
72.31596630295884
 20
116.9412294752977
 30
0.0
 10
72.3217734010204
 20
116.9481268979132
 30
0.0
 10
72.32758033248282
 20
116.9550241818828
 30
0.0
 10
72.33338709689107
 20
116.9619213266731
 30
0.0
 10
72.3334125732469
 20
116.9619515869183
 30
0.0
 10
72.33343804959632
 20
116.9619818471635
 30
0.0
 10
72.33346352594897
 20
116.9620121074008
 30
0.0
  0
SPLINE
  5
FD
330
1F
100
AcDbEntity
  8
0
  6
Continuous
 62
     7
370
    25
100
AcDbSpline
210
0.0
220
0.0
230
1.0
 70
     8
 71
     3
 72
    17
 73
    13
 74
     0
 42
0.00000001
 43
0.00000001
 40
-0.000000059799363
 40
-0.000000059799363
 40
-0.000000059799363
 40
-0.000000059799363
 40
0.0
 40
0.0
 40
0.0
 40
0.0000163711291295
 40
0.0000163711291295
 40
0.0000163711291295
 40
0.0000343480200803
 40
0.0000343480200803
 40
0.0000343480200803
 40
0.0000344080200802
 40
0.0000344080200802
 40
0.0000344080200802
 40
0.0000344080200802
 10
72.33346352594897
 20
116.9620121074008
 30
0.0
 10
72.33348853611587
 20
116.962042571454
 30
0.0
 10
72.33351338335835
 20
116.9620715956502
 30
0.0
 10
72.33353831127567
 20
116.9621013403397
 30
0.0
 10
72.34036276780989
 20
116.9702444731333
 30
0.0
 10
72.34714795682365
 20
116.9784159217967
 30
0.0
 10
72.35389334043919
 20
116.9866151925558
 30
0.0
 10
72.36130032790989
 20
116.9956186680057
 30
0.0
 10
72.3686595043866
 20
117.0046559173971
 30
0.0
 10
72.37597016878462
 20
117.0137262723484
 30
0.0
 10
72.37599456904762
 20
117.0137565458002
 30
0.0
 10
72.37601896823914
 20
117.0137868200267
 30
0.0
 10
72.37604336795562
 20
117.013817093814
 30
0.0
  0
SPLINE
  5
FE
330
1F
100
AcDbEntity
  8
0
  6
Continuous
 62
     7
370
    25
100
AcDbSpline
210
0.0
220
0.0
230
1.0
 70
     8
 71
     3
 72
    14
 73
    10
 74
     0
 42
0.00000001
 43
0.00000001
 40
-0.0000000597867095
 40
-0.0000000597867095
 40
-0.0000000597867095
 40
-0.0000000597867095
 40
0.0
 40
0.0
 40
0.0
 40
0.0001070908858353
 40
0.0001070908858353
 40
0.0001070908858353
 40
0.0001136923637921
 40
0.0001136923637921
 40
0.0001136923637921
 40
0.0001136923637921
 10
72.37604336795562
 20
117.013817093814
 30
0.0
 10
72.37606806756483
 20
117.0138469622671
 30
0.0
 10
72.37609294960961
 20
117.0138783258899
 30
0.0
 10
72.37611774043165
 20
117.0139089419235
 30
0.0
 10
72.42052344724742
 20
117.0687488584842
 30
0.0
 10
72.46491859553895
 20
117.123579572157
 30
0.0
 10
72.50930295826119
 20
117.1784008060187
 30
0.0
 10
72.51203897662623
 20
117.1817801922132
 30
0.0
 10
72.51477495415261
 20
117.1851595425653
 30
0.0
 10
72.51751089078711
 20
117.18853885701
 30
0.0
  0
SPLINE
  5
FF
330
1F
100
AcDbEntity
  8
0
  6
Continuous
 62
     7
370
    25
100
AcDbSpline
210
0.0
220
0.0
230
1.0
 70
     8
 71
     3
 72
    17
 73
    13
 74
     0
 42
0.00000001
 43
0.00000001
 40
-0.0000000597831281
 40
-0.0000000597831281
 40
-0.0000000597831281
 40
-0.0000000597831281
 40
0.0
 40
0.0
 40
0.0
 40
0.0000168410041685
 40
0.0000168410041685
 40
0.0000168410041685
 40
0.0000345190804984
 40
0.0000345190804984
 40
0.0000345190804984
 40
0.0000345790804984
 40
0.0000345790804984
 40
0.0000345790804984
 40
0.0000345790804984
 10
149.0943928172542
 20
117.0140708790149
 30
0.0
 10
149.0944172013988
 20
117.0140399533231
 30
0.0
 10
149.0944414125858
 20
117.0140105462439
 30
0.0
 10
149.0944657110592
 20
117.0139803804157
 30
0.0
 10
149.1013106304339
 20
117.005482617685
 30
0.0
 10
149.1081983541181
 20
116.9970142456871
 30
0.0
 10
149.1151283671929
 20
116.9885758631969
 30
0.0
 10
149.1224028239588
 20
116.979718066258
 30
0.0
 10
149.1297240610361
 20
116.9708930919875
 30
0.0
 10
149.1370914703817
 20
116.9621016222628
 30
0.0
 10
149.1371164756521
 20
116.9620717836769
 30
0.0
 10
149.1371414819816
 20
116.962041945892
 30
0.0
 10
149.1371664877916
 20
116.9620121076589
 30
0.0
  0
SPLINE
  5
100
330
1F
100
AcDbEntity
  8
0
  6
Continuous
 62
     7
370
    25
100
AcDbSpline
210
0.0
220
0.0
230
1.0
 70
     8
 71
     3
 72
    11
 73
     7
 74
     0
 42
0.00000001
 43
0.00000001
 40
-0.0000000597948073
 40
-0.0000000597948073
 40
-0.0000000597948073
 40
-0.0000000597948073
 40
0.0
 40
0.0
 40
0.0
 40
0.0000734007276197
 40
0.0000734007276197
 40
0.0000734007276197
 40
0.0000734007276197
 10
149.1371664877916
 20
116.9620121076589
 30
0.0
 10
149.1371917874472
 20
116.9619826754178
 30
0.0
 10
149.1372172662384
 20
116.9619517941466
 30
0.0
 10
149.1372426554665
 20
116.9619216373865
 30
0.0
 10
149.1684090377372
 20
116.9249029022104
 30
0.0
 10
149.1995802415263
 20
116.887880146804
 30
0.0
 10
149.230756196526
 20
116.8508534536004
 30
0.0
  0
SPLINE
  5
101
330
1F
100
AcDbEntity
  8
0
  6
Continuous
 62
     7
370
    25
100
AcDbSpline
210
0.0
220
0.0
230
1.0
 70
     8
 71
     3
 72
     8
 73
     4
 74
     0
 42
0.00000001
 43
0.00000001
 40
0.0
 40
0.0
 40
0.0
 40
0.0
 40
0.0000328500906488
 40
0.0000328500906488
 40
0.0000328500906488
 40
0.0000328500906488
 10
149.230756196526
 20
116.8508534536004
 30
0.0
 10
149.2303671699001
 20
116.8504258807388
 30
0.0
 10
149.2288378517417
 20
116.8507923420373
 30
0.0
 10
149.2261424168135
 20
116.8519829311572
 30
0.0
  0
SPLINE
  5
102
330
1F
100
AcDbEntity
  8
0
  6
Continuous
 62
     7
370
    25
100
AcDbSpline
210
0.0
220
0.0
230
1.0
 70
     8
 71
     3
 72
    14
 73
    10
 74
     0
 42
0.00000001
 43
0.00000001
 40
-0.000006598005544
 40
-0.000006598005544
 40
-0.000006598005544
 40
-0.000006598005544
 40
0.0
 40
0.0
 40
0.0
 40
0.0001070109673391
 40
0.0001070109673391
 40
0.0001070109673391
 40
0.0001070709673391
 40
0.0001070709673391
 40
0.0001070709673391
 40
0.0001070709673391
 10
148.9530790783357
 20
117.1887036258434
 30
0.0
 10
148.9558126020464
 20
117.1853253395324
 30
0.0
 10
148.9585461666234
 20
117.1819470173125
 30
0.0
 10
148.9612797720137
 20
117.1785686592487
 30
0.0
 10
149.005615218156
 20
117.1237761816968
 30
0.0
 10
149.0499614383791
 20
117.068974228162
 30
0.0
 10
149.0943182060303
 20
117.0141630752514
 30
0.0
 10
149.0943430764349
 20
117.0141323431755
 30
0.0
 10
149.0943679468462
 20
117.0141016110992
 30
0.0
 10
149.0943928172542
 20
117.0140708790149
 30
0.0
  0
LINE
  5
103
330
1F
100
AcDbEntity
  8
0
  6
Continuous
 62
     7
370
    25
100
AcDbLine
 10
156.7353150067
 20
115.5681221543
 30
0.0
 11
156.7353150067
 21
115.6571336081
 31
0.0
  0
SPLINE
  5
104
330
1F
100
AcDbEntity
  8
0
  6
Continuous
 62
     7
370
    25
100
AcDbSpline
210
0.0
220
0.0
230
1.0
 70
     8
 71
     3
 72
    42
 73
    38
 74
     0
 42
0.00000001
 43
0.00000001
 40
0.0
 40
0.0
 40
0.0
 40
0.0
 40
0.0624999999999999
 40
0.0624999999999999
 40
0.1249999999999998
 40
0.1249999999999998
 40
0.1874999999999997
 40
0.1874999999999997
 40
0.2499999999999996
 40
0.2499999999999996
 40
0.3124999999999994
 40
0.3124999999999994
 40
0.3437499999999993
 40
0.3437499999999993
 40
0.3749999999999992
 40
0.3749999999999992
 40
0.4374999999999991
 40
0.4374999999999991
 40
0.499999999999999
 40
0.499999999999999
 40
0.5624999999999989
 40
0.5624999999999989
 40
0.6249999999999988
 40
0.6249999999999988
 40
0.6874999999999987
 40
0.6874999999999987
 40
0.7499999999999986
 40
0.7499999999999986
 40
0.8124999999999984
 40
0.8124999999999984
 40
0.8749999999999983
 40
0.8749999999999983
 40
0.9062499999999986
 40
0.9062499999999986
 40
0.9374999999999989
 40
0.9374999999999989
 40
1.0
 40
1.0
 40
1.0
 40
1.0
 10
156.7353150067121
 20
95.64973449338643
 30
0.0
 10
157.3965070487338
 20
95.64973449338643
 30
0.0
 10
158.0584372421024
 20
95.71635859125678
 30
0.0
 10
159.3404917932774
 20
95.9741340377254
 30
0.0
 10
159.9630463482383
 20
96.16431206215313
 30
0.0
 10
161.1712696609176
 20
96.66751825062596
 30
0.0
 10
161.755358584879
 20
96.98188258349407
 30
0.0
 10
162.8351385152232
 20
97.70733221117153
 30
0.0
 10
163.3379384464647
 20
98.12096043894785
 30
0.0
 10
164.2670237395102
 20
99.05392442987095
 30
0.0
 10
164.6799614779663
 20
99.56028501536609
 30
0.0
 10
165.2206551434278
 20
100.372363132297
 30
0.0
 10
165.387943718459
 20
100.652153935234
 30
0.0
 10
165.6960954308421
 20
101.2303652554158
 30
0.0
 10
165.8373421234596
 20
101.5300763678373
 30
0.0
 10
166.2121472116214
 20
102.438904266409
 30
0.0
 10
166.400383564465
 20
103.0624590999783
 30
0.0
 10
166.6546966609801
 20
104.344715386027
 30
0.0
 10
166.7194974456336
 20
105.0079017972546
 30
0.0
 10
166.7185514172863
 20
106.313492214869
 30
0.0
 10
166.6549235065677
 20
106.9624024534069
 30
0.0
 10
166.3985424408816
 20
108.2522897036381
 30
0.0
 10
166.2065218878818
 20
108.8836110722908
 30
0.0
 10
165.7089563182669
 20
110.0860578689891
 30
0.0
 10
165.4001084780484
 20
110.6660453047844
 30
0.0
 10
164.6707055523627
 20
111.7594052616165
 30
0.0
 10
164.2580362530935
 20
112.2624720802511
 30
0.0
 10
163.339192009707
 20
113.1841412081442
 30
0.0
 10
162.8267188574088
 20
113.6062162552572
 30
0.0
 10
161.7419808972655
 20
114.3329289019697
 30
0.0
 10
161.1687738039471
 20
114.6406095696235
 30
0.0
 10
160.2620516624377
 20
115.0179140822842
 30
0.0
 10
159.950185202713
 20
115.1299888561443
 30
0.0
 10
159.3220077799867
 20
115.3211225212688
 30
0.0
 10
159.0051489302689
 20
115.4006217215424
 30
0.0
 10
158.0464302267083
 20
115.5919685551652
 30
0.0
 10
157.3965074569322
 20
115.6571336081487
 30
0.0
 10
156.7353150067121
 20
115.6571336081487
 30
0.0
  0
LINE
  5
105
330
1F
100
AcDbEntity
  8
0
  6
Continuous
 62
     7
370
    25
100
AcDbLine
 10
156.7353150067
 20
95.7387459473
 30
0.0
 11
156.7353150067
 21
95.6497344934
 31
0.0
  0
LINE
  5
106
330
1F
100
AcDbEntity
  8
0
  6
Continuous
 62
     7
370
    25
100
AcDbLine
 10
64.7353150067
 20
95.7387459473
 30
0.0
 11
64.7353150067
 21
95.6497344934
 31
0.0
  0
SPLINE
  5
107
330
1F
100
AcDbEntity
  8
0
  6
Continuous
 62
     7
370
    25
100
AcDbSpline
210
0.0
220
0.0
230
1.0
 70
     8
 71
     3
 72
    42
 73
    38
 74
     0
 42
0.00000001
 43
0.00000001
 40
0.0
 40
0.0
 40
0.0
 40
0.0
 40
0.0624999999999998
 40
0.0624999999999998
 40
0.1249999999999996
 40
0.1249999999999996
 40
0.1874999999999994
 40
0.1874999999999994
 40
0.2499999999999992
 40
0.2499999999999992
 40
0.3124999999999989
 40
0.3124999999999989
 40
0.343749999999999
 40
0.343749999999999
 40
0.3749999999999991
 40
0.3749999999999991
 40
0.4374999999999993
 40
0.4374999999999993
 40
0.4999999999999996
 40
0.4999999999999996
 40
0.5624999999999998
 40
0.5624999999999998
 40
0.625
 40
0.625
 40
0.6875000000000002
 40
0.6875000000000002
 40
0.7500000000000004
 40
0.7500000000000004
 40
0.8125000000000008
 40
0.8125000000000008
 40
0.875000000000001
 40
0.875000000000001
 40
0.9062500000000008
 40
0.9062500000000008
 40
0.9375000000000006
 40
0.9375000000000006
 40
1.0
 40
1.0
 40
1.0
 40
1.0
 10
64.7353150067144
 20
115.6571336081464
 30
0.0
 10
64.07412296469275
 20
115.6571336081464
 30
0.0
 10
63.41219277132426
 20
115.5905095102761
 30
0.0
 10
62.1301382201493
 20
115.3327340638077
 30
0.0
 10
61.5075836651885
 20
115.1425560393801
 30
0.0
 10
60.29936035250928
 20
114.6393498509074
 30
0.0
 10
59.71527142854782
 20
114.3249855180395
 30
0.0
 10
58.63549149820363
 20
113.5995358903622
 30
0.0
 10
58.13269156696221
 20
113.185907662586
 30
0.0
 10
57.20360627391675
 20
112.2529436716631
 30
0.0
 10
56.79066853546068
 20
111.746583086168
 30
0.0
 10
56.24997486999907
 20
110.9345049692373
 30
0.0
 10
56.08268629496783
 20
110.6547141663003
 30
0.0
 10
55.77453458258478
 20
110.0765028461186
 30
0.0
 10
55.63328788996722
 20
109.7767917336972
 30
0.0
 10
55.2584828018054
 20
108.8679638351256
 30
0.0
 10
55.0702464489617
 20
108.2444090015565
 30
0.0
 10
54.81593335244651
 20
106.9621527155079
 30
0.0
 10
54.75113256779289
 20
106.2989663042804
 30
0.0
 10
54.75207859614009
 20
104.9933758866661
 30
0.0
 10
54.81570650685866
 20
104.3444656481283
 30
0.0
 10
55.0720875725446
 20
103.0545783978972
 30
0.0
 10
55.26410812554427
 20
102.4232570292445
 30
0.0
 10
55.76167369515891
 20
101.2208102325463
 30
0.0
 10
56.07052153537737
 20
100.6408227967511
 30
0.0
 10
56.79992446106286
 20
99.54746283991906
 30
0.0
 10
57.21259376033199
 20
99.04439602128446
 30
0.0
 10
58.13143800371823
 20
98.1227268933914
 30
0.0
 10
58.64391115601633
 20
97.70065184627838
 30
0.0
 10
59.72864911615945
 20
96.9739391995658
 30
0.0
 10
60.3018562094778
 20
96.66625853191194
 30
0.0
 10
61.20857835098701
 20
96.28895401925129
 30
0.0
 10
61.52044481071166
 20
96.17687924539116
 30
0.0
 10
62.14862223343792
 20
95.98574558026652
 30
0.0
 10
62.46548108315564
 20
95.90624637999292
 30
0.0
 10
63.42419978671612
 20
95.71489954637005
 30
0.0
 10
64.07412255649213
 20
95.64973449338649
 30
0.0
 10
64.73531500671217
 20
95.64973449338642
 30
0.0
  0
LINE
  5
108
330
1F
100
AcDbEntity
  8
0
  6
Continuous
 62
     7
370
    25
100
AcDbLine
 10
64.7353150067
 20
115.5681221543
 30
0.0
 11
64.7353150067
 21
115.6571336081
 31
0.0
  0
LINE
  5
109
330
1F
100
AcDbEntity
  8
0
  6
Continuous
 62
     7
370
    25
100
AcDbLine
 10
153.2808668203
 20
95.7387459472
 30
0.0
 11
153.2808673053
 21
95.6497344934
 31
0.0
  0
SPLINE
  5
10A
330
1F
100
AcDbEntity
  8
0
  6
Continuous
 62
     7
370
    25
100
AcDbSpline
210
0.0
220
0.0
230
1.0
 70
     8
 71
     3
 72
    12
 73
     8
 74
     0
 42
0.00000001
 43
0.00000001
 40
0.0
 40
0.0
 40
0.0
 40
0.0
 40
0.25
 40
0.25
 40
0.5
 40
0.5
 40
1.0
 40
1.0
 40
1.0
 40
1.0
 10
149.2890415388665
 20
94.39190728493377
 30
0.0
 10
149.580446992361
 20
94.59587142486677
 30
0.0
 10
149.8847155206673
 20
94.77571706254272
 30
0.0
 10
150.5183249923314
 20
95.08814111497301
 30
0.0
 10
150.84989331081
 20
95.22138228653832
 30
0.0
 10
151.8679854745672
 20
95.54195257298245
 30
0.0
 10
152.5651017204197
 20
95.64973057564029
 30
0.0
 10
153.2808673053262
 20
95.64973449337153
 30
0.0
  0
LINE
  5
10B
330
1F
100
AcDbEntity
  8
0
  6
Continuous
 62
     7
370
    25
100
AcDbLine
 10
149.2307581318
 20
94.4560169353
 30
0.0
 11
149.2890415389
 21
94.3919072849
 31
0.0
  0
LINE
  5
10C
330
1F
100
AcDbEntity
  8
0
  6
Continuous
 62
     7
370
    25
100
AcDbLine
 10
68.189757279
 20
115.5681221543
 30
0.0
 11
68.189757279
 21
115.6571336081
 31
0.0
  0
SPLINE
  5
10D
330
1F
100
AcDbEntity
  8
0
  6
Continuous
 62
     7
370
    25
100
AcDbSpline
210
0.0
220
0.0
230
1.0
 70
     8
 71
     3
 72
    12
 73
     8
 74
     0
 42
0.00000001
 43
0.00000001
 40
0.0
 40
0.0
 40
0.0
 40
0.0
 40
0.2499999999999989
 40
0.2499999999999989
 40
0.4999999999999979
 40
0.4999999999999979
 40
1.0
 40
1.0
 40
1.0
 40
1.0
 10
72.18159023122523
 20
116.9149629111316
 30
0.0
 10
71.89018516221098
 20
116.7109966958657
 30
0.0
 10
71.58591675079596
 20
116.5311494854366
 30
0.0
 10
70.95230704839419
 20
116.2187231669426
 30
0.0
 10
70.6207385951436
 20
116.0854813513508
 30
0.0
 10
69.60264302832702
 20
115.7649099253536
 30
0.0
 10
68.90552470469463
 20
115.6571336081463
 30
0.0
 10
68.18975727900867
 20
115.6571336081463
 30
0.0
  0
LINE
  5
10E
330
1F
100
AcDbEntity
  8
0
  6
Continuous
 62
     7
370
    25
100
AcDbLine
 10
72.239873793
 20
116.8508534363
 30
0.0
 11
72.1815902312
 21
116.9149629111
 31
0.0
  0
LINE
  5
10F
330
1F
100
AcDbEntity
  8
0
  6
Continuous
 62
     7
370
    25
100
AcDbLine
 10
149.2307561965
 20
116.8508534536
 30
0.0
 11
149.2890397608
 21
116.9149629261
 31
0.0
  0
SPLINE
  5
110
330
1F
100
AcDbEntity
  8
0
  6
Continuous
 62
     7
370
    25
100
AcDbSpline
210
0.0
220
0.0
230
1.0
 70
     8
 71
     3
 72
    12
 73
     8
 74
     0
 42
0.00000001
 43
0.00000001
 40
0.0
 40
0.0
 40
0.0
 40
0.0
 40
0.5
 40
0.5
 40
0.75
 40
0.75
 40
1.0
 40
1.0
 40
1.0
 40
1.0
 10
153.2808727344178
 20
115.6571336081487
 30
0.0
 10
152.5651053042698
 20
115.6571336081481
 30
0.0
 10
151.8679869764021
 20
115.7649099266672
 30
0.0
 10
150.8498914035907
 20
116.0854813566902
 30
0.0
 10
150.5183229487807
 20
116.2187231738402
 30
0.0
 10
149.884713243521
 20
116.5311494959742
 30
0.0
 10
149.5804448308706
 20
116.7109967084757
 30
0.0
 10
149.2890397608294
 20
116.9149629260889
 30
0.0
  0
LINE
  5
111
330
1F
100
AcDbEntity
  8
0
  6
Continuous
 62
     7
370
    25
100
AcDbLine
 10
153.2808727344
 20
115.5681221543
 30
0.0
 11
153.2808727344
 21
115.6571336081
 31
0.0
  0
LINE
  5
112
330
1F
100
AcDbEntity
  8
0
  6
Continuous
 62
     7
370
    25
100
AcDbLine
 10
72.2398737836
 20
94.456014672
 30
0.0
 11
72.1815902219
 21
94.391905197
 31
0.0
  0
SPLINE
  5
113
330
1F
100
AcDbEntity
  8
0
  6
Continuous
 62
     7
370
    25
100
AcDbSpline
210
0.0
220
0.0
230
1.0
 70
     8
 71
     3
 72
    12
 73
     8
 74
     0
 42
0.00000001
 43
0.00000001
 40
0.0
 40
0.0
 40
0.0
 40
0.0
 40
0.5000000000000024
 40
0.5000000000000024
 40
0.7500000000000012
 40
0.7500000000000012
 40
1.0
 40
1.0
 40
1.0
 40
1.0
 10
68.18975727900636
 20
95.64973449338639
 30
0.0
 10
68.90552470273673
 20
95.64973449338639
 30
0.0
 10
69.60264302451306
 20
95.54195817675438
 30
0.0
 10
70.62073858870241
 20
95.22138675252187
 30
0.0
 10
70.95230704126953
 20
95.0881449376131
 30
0.0
 10
71.58591674241887
 20
94.77571862071456
 30
0.0
 10
71.89018515329234
 20
94.59587141119408
 30
0.0
 10
72.18159022185657
 20
94.39190519695698
 30
0.0
  0
LINE
  5
114
330
1F
100
AcDbEntity
  8
0
  6
Continuous
 62
     7
370
    25
100
AcDbLine
 10
68.189757279
 20
95.7387459473
 30
0.0
 11
68.189757279
 21
95.6497344934
 31
0.0
  0
LINE
  5
115
330
1F
100
AcDbEntity
  8
0
  6
Continuous
 62
     7
370
    25
100
AcDbLine
 10
153.2808673053
 20
95.6497344934
 30
0.0
 11
156.7353150067
 21
95.6497344934
 31
0.0
  0
LINE
  5
116
330
1F
100
AcDbEntity
  8
0
  6
Continuous
 62
     7
370
    25
100
AcDbLine
 10
68.189757279
 20
115.6571336081
 30
0.0
 11
64.7353150067
 21
115.6571336081
 31
0.0
  0
LINE
  5
117
330
1F
100
AcDbEntity
  8
0
  6
Continuous
 62
     7
370
    25
100
AcDbLine
 10
156.7353150067
 20
115.6571336081
 30
0.0
 11
153.2808727344
 21
115.6571336081
 31
0.0
  0
LINE
  5
118
330
1F
100
AcDbEntity
  8
0
  6
Continuous
 62
     7
370
    25
100
AcDbLine
 10
64.7353150067
 20
95.6497344934
 30
0.0
 11
68.189757279
 21
95.6497344934
 31
0.0
  0
SPLINE
  5
119
330
1F
100
AcDbEntity
  8
0
  6
Continuous
 62
     7
370
    25
100
AcDbSpline
210
0.0
220
0.0
230
1.0
 70
     8
 71
     3
 72
    14
 73
    10
 74
     0
 42
0.00000001
 43
0.00000001
 40
-0.00000006
 40
-0.00000006
 40
-0.00000006
 40
-0.00000006
 40
0.0
 40
0.0
 40
0.0
 40
0.0000676582076282
 40
0.0000676582076282
 40
0.0000676582076282
 40
0.0000680556069674
 40
0.0000680556069674
 40
0.0000680556069674
 40
0.0000680556069674
 10
149.2028771595371
 20
94.2890907092094
 30
0.0
 10
149.2029026716157
 20
94.2891209989308
 30
0.0
 10
149.2029281836917
 20
94.28915128865005
 30
0.0
 10
149.202953695773
 20
94.2891815783736
 30
0.0
 10
149.2317220572839
 20
94.3233373851108
 30
0.0
 10
149.2604937595522
 20
94.35749592333303
 30
0.0
 10
149.2892687626105
 20
94.39165714617654
 30
0.0
 10
149.2894377763953
 20
94.39185779663535
 30
0.0
 10
149.2896067902942
 20
94.39205844718704
 30
0.0
 10
149.2897758043071
 20
94.39225909783158
 30
0.0
  0
SPLINE
  5
11A
330
1F
100
AcDbEntity
  8
0
  6
Continuous
 62
     7
370
    25
100
AcDbSpline
210
0.0
220
0.0
230
1.0
 70
     8
 71
     3
 72
    11
 73
     7
 74
     0
 42
0.00000001
 43
0.00000001
 40
0.0000181668979453
 40
0.0000181668979453
 40
0.0000181668979453
 40
0.0000181668979453
 40
0.0000330069006181
 40
0.0000330069006181
 40
0.0000330069006181
 40
0.0000330668928345
 40
0.0000330668928345
 40
0.0000330668928345
 40
0.0000330668928345
 10
149.1840251092541
 20
94.26649262596287
 30
0.0
 10
149.1902507828381
 20
94.27402087407665
 30
0.0
 10
149.1965095173206
 20
94.28152345639462
 30
0.0
 10
149.202800858833
 20
94.28900003722646
 30
0.0
 10
149.2028262918672
 20
94.28903026164457
 30
0.0
 10
149.2028517254525
 20
94.28906048565348
 30
0.0
 10
149.2028771595371
 20
94.2890907092094
 30
0.0
  0
SPLINE
  5
11B
330
1F
100
AcDbEntity
  8
0
  6
Continuous
 62
     7
370
    25
100
AcDbSpline
210
0.0
220
0.0
230
1.0
 70
     8
 71
     3
 72
    11
 73
     7
 74
     0
 42
0.00000001
 43
0.00000001
 40
-0.0000000599999999
 40
-0.0000000599999999
 40
-0.0000000599999999
 40
-0.0000000599999999
 40
0.0
 40
0.0
 40
0.0
 40
0.0000181798095262
 40
0.0000181798095262
 40
0.0000181798095262
 40
0.0000181798095262
 10
149.1612386719211
 20
94.23863471777916
 30
0.0
 10
149.1612634717317
 20
94.23866537147546
 30
0.0
 10
149.1612882709648
 20
94.23869602574885
 30
0.0
 10
149.1613130714054
 20
94.23872667920276
 30
0.0
 10
149.1688275261757
 20
94.24801457843549
 30
0.0
 10
149.1763984264682
 20
94.25727024070191
 30
0.0
 10
149.1840251092536
 20
94.26649262596172
 30
0.0
  0
SPLINE
  5
11C
330
1F
100
AcDbEntity
  8
0
  6
Continuous
 62
     7
370
    25
100
AcDbSpline
210
0.0
220
0.0
230
1.0
 70
     8
 71
     3
 72
    11
 73
     7
 74
     0
 42
0.00000001
 43
0.00000001
 40
0.0
 40
0.0
 40
0.0
 40
0.0
 40
0.0000987203542948
 40
0.0000987203542948
 40
0.0000987203542948
 40
0.0000987803452235
 40
0.0000987803452235
 40
0.0000987803452235
 40
0.0000987803452235
 10
149.0387885974825
 20
94.08726371085675
 30
0.0
 10
149.0794191774752
 20
94.13754187116454
 30
0.0
 10
149.1202223580694
 20
94.1879831042402
 30
0.0
 10
149.1611640327728
 20
94.23854254492055
 30
0.0
 10
149.1611889124353
 20
94.23857326915997
 30
0.0
 10
149.1612138091548
 20
94.23860412100987
 30
0.0
 10
149.1612386719211
 20
94.23863471777916
 30
0.0
  0
SPLINE
  5
11D
330
1F
100
AcDbEntity
  8
0
  6
Continuous
 62
     7
370
    25
100
AcDbSpline
210
0.0
220
0.0
230
1.0
 70
     8
 71
     3
 72
    11
 73
     7
 74
     0
 42
0.00000001
 43
0.00000001
 40
-0.00000006
 40
-0.00000006
 40
-0.00000006
 40
-0.00000006
 40
0.0
 40
0.0
 40
0.0
 40
0.0000986742497343
 40
0.0000986742497343
 40
0.0000986742497343
 40
0.0000986742497343
 10
72.30950515055237
 20
94.23848687083795
 30
0.0
 10
72.30953002826877
 20
94.23845613766352
 30
0.0
 10
72.30955490602126
 20
94.23842540460646
 30
0.0
 10
72.30957978367526
 20
94.2383946715609
 30
0.0
 10
72.35049284773423
 20
94.18785200131524
 30
0.0
 10
72.3912676299508
 20
94.13742742280387
 30
0.0
 10
72.43187014478502
 20
94.08716566080234
 30
0.0
  0
SPLINE
  5
11E
330
1F
100
AcDbEntity
  8
0
  6
Continuous
 62
     7
370
    25
100
AcDbSpline
210
0.0
220
0.0
230
1.0
 70
     8
 71
     3
 72
    11
 73
     7
 74
     0
 42
0.00000001
 43
0.00000001
 40
0.0
 40
0.0
 40
0.0
 40
0.0
 40
0.0000182848510628
 40
0.0000182848510628
 40
0.0000182848510628
 40
0.0000183448418992
 40
0.0000183448418992
 40
0.0000183448418992
 40
0.0000183448418992
 10
72.28659143642166
 20
94.26650732364682
 30
0.0
 10
72.29426150533297
 20
94.25723137577575
 30
0.0
 10
72.30187482258101
 20
94.24792150681861
 30
0.0
 10
72.30943078127902
 20
94.23857882918185
 30
0.0
 10
72.30945557165228
 20
94.23854817675574
 30
0.0
 10
72.3094803438455
 20
94.23851765198256
 30
0.0
 10
72.30950515055237
 20
94.23848687083795
 30
0.0
  0
SPLINE
  5
11F
330
1F
100
AcDbEntity
  8
0
  6
Continuous
 62
     7
370
    25
100
AcDbSpline
210
0.0
220
0.0
230
1.0
 70
     8
 71
     3
 72
    11
 73
     7
 74
     0
 42
0.00000001
 43
0.00000001
 40
-0.00000006
 40
-0.00000006
 40
-0.00000006
 40
-0.00000006
 40
0.0
 40
0.0
 40
0.0
 40
0.0000148301903303
 40
0.0000148301903303
 40
0.0000148301903303
 40
0.0000148301903303
 10
72.26775285390713
 20
94.28909070923073
 30
0.0
 10
72.26777829069452
 20
94.28906048226126
 30
0.0
 10
72.26780372697843
 20
94.28903025483535
 30
0.0
 10
72.2678291627073
 20
94.28900002699675
 30
0.0
 10
72.274116196836
 20
94.28152851108969
 30
0.0
 10
72.28037042899882
 20
94.27403082066193
 30
0.0
 10
72.28659143642166
 20
94.26650732364683
 30
0.0
  0
SPLINE
  5
120
330
1F
100
AcDbEntity
  8
0
  6
Continuous
 62
     7
370
    25
100
AcDbSpline
210
0.0
220
0.0
230
1.0
 70
     8
 71
     3
 72
    14
 73
    10
 74
     0
 42
0.00000001
 43
0.00000001
 40
-0.0000003973934787
 40
-0.0000003973934787
 40
-0.0000003973934787
 40
-0.0000003973934787
 40
0.0
 40
0.0
 40
0.0
 40
0.0000676568416362
 40
0.0000676568416362
 40
0.0000676568416362
 40
0.0000677168337387
 40
0.0000677168337387
 40
0.0000677168337387
 40
0.0000677168337387
 10
72.18085596726839
 20
94.39225700603768
 30
0.0
 10
72.18102497879258
 20
94.3920563583564
 30
0.0
 10
72.18119399020267
 20
94.391855710768
 30
0.0
 10
72.18136300149868
 20
94.39165506327248
 30
0.0
 10
72.2101374242256
 20
94.35749453085855
 30
0.0
 10
72.23890854629542
 20
94.32333668295831
 30
0.0
 10
72.26767632774327
 20
94.28918156643265
 30
0.0
 10
72.26770183646718
 20
94.28915128069654
 30
0.0
 10
72.26772734518585
 20
94.2891209949647
 30
0.0
 10
72.26775285390713
 20
94.28909070923073
 30
0.0
  0
SPLINE
  5
121
330
1F
100
AcDbEntity
  8
0
  6
Continuous
 62
     7
370
    25
100
AcDbSpline
210
0.0
220
0.0
230
1.0
 70
     8
 71
     3
 72
    14
 73
    10
 74
     0
 42
0.00000001
 43
0.00000001
 40
-0.00000006
 40
-0.00000006
 40
-0.00000006
 40
-0.00000006
 40
0.0
 40
0.0
 40
0.0
 40
0.0000676568281858
 40
0.0000676568281858
 40
0.0000676568281858
 40
0.0000680542217075
 40
0.0000680542217075
 40
0.0000680542217075
 40
0.0000680542217075
 10
72.26775285388742
 20
117.0177773923262
 30
0.0
 10
72.26772734180878
 20
117.0177471026048
 30
0.0
 10
72.26770182973277
 20
117.0177168128855
 30
0.0
 10
72.26767631765152
 20
117.017686523162
 30
0.0
 10
72.23890854268156
 20
116.9835314128068
 30
0.0
 10
72.21013742709056
 20
116.9493735710782
 30
0.0
 10
72.18136301084344
 20
116.915213044837
 30
0.0
 10
72.18119399953362
 20
116.9150123973161
 30
0.0
 10
72.1810249881097
 20
116.9148117497024
 30
0.0
 10
72.1808559765717
 20
116.9146111019958
 30
0.0
  0
SPLINE
  5
122
330
1F
100
AcDbEntity
  8
0
  6
Continuous
 62
     7
370
    25
100
AcDbSpline
210
0.0
220
0.0
230
1.0
 70
     8
 71
     3
 72
    11
 73
     7
 74
     0
 42
0.00000001
 43
0.00000001
 40
0.0000181668979734
 40
0.0000181668979734
 40
0.0000181668979734
 40
0.0000181668979734
 40
0.0000330069006181
 40
0.0000330069006181
 40
0.0000330069006181
 40
0.0000330668928346
 40
0.0000330668928346
 40
0.0000330668928346
 40
0.0000330668928346
 10
72.28660490413498
 20
117.04037547553
 30
0.0
 10
72.28037923056267
 20
117.0328472274306
 30
0.0
 10
72.27412049609198
 20
117.0253446451269
 30
0.0
 10
72.26782915459154
 20
117.0178680643092
 30
0.0
 10
72.2678037215573
 20
117.0178378398911
 30
0.0
 10
72.26777828797204
 20
117.0178076158821
 30
0.0
 10
72.26775285388742
 20
117.0177773923262
 30
0.0
  0
SPLINE
  5
123
330
1F
100
AcDbEntity
  8
0
  6
Continuous
 62
     7
370
    25
100
AcDbSpline
210
0.0
220
0.0
230
1.0
 70
     8
 71
     3
 72
    11
 73
     7
 74
     0
 42
0.00000001
 43
0.00000001
 40
-0.0000000599999999
 40
-0.0000000599999999
 40
-0.0000000599999999
 40
-0.0000000599999999
 40
0.0
 40
0.0
 40
0.0
 40
0.0000181798095543
 40
0.0000181798095543
 40
0.0000181798095543
 40
0.0000181798095543
 10
72.3093913415035
 20
117.0682333837566
 30
0.0
 10
72.30936654169282
 20
117.0682027300603
 30
0.0
 10
72.30934174245976
 20
117.0681720757869
 30
0.0
 10
72.30931694201918
 20
117.0681414223329
 30
0.0
 10
72.30180248723717
 20
117.0588535230859
 30
0.0
 10
72.29423158693231
 20
117.049597860804
 30
0.0
 10
72.28660490413499
 20
117.04037547553
 30
0.0
  0
SPLINE
  5
124
330
1F
100
AcDbEntity
  8
0
  6
Continuous
 62
     7
370
    25
100
AcDbSpline
210
0.0
220
0.0
230
1.0
 70
     8
 71
     3
 72
    11
 73
     7
 74
     0
 42
0.00000001
 43
0.00000001
 40
0.0
 40
0.0
 40
0.0
 40
0.0
 40
0.0000987203542935
 40
0.0000987203542935
 40
0.0000987203542935
 40
0.0000987803452223
 40
0.0000987803452223
 40
0.0000987803452223
 40
0.0000987803452223
 10
72.43184141594112
 20
117.2196043906766
 30
0.0
 10
72.39121083594874
 20
117.1693262303696
 30
0.0
 10
72.35040765535486
 20
117.1188849972947
 30
0.0
 10
72.30946598065174
 20
117.0683255566152
 30
0.0
 10
72.30944110098932
 20
117.0682948323757
 30
0.0
 10
72.3094162042698
 20
117.0682639805258
 30
0.0
 10
72.3093913415035
 20
117.0682333837566
 30
0.0
  0
SPLINE
  5
125
330
1F
100
AcDbEntity
  8
0
  6
Continuous
 62
     7
370
    25
100
AcDbSpline
210
0.0
220
0.0
230
1.0
 70
     8
 71
     3
 72
    11
 73
     7
 74
     0
 42
0.00000001
 43
0.00000001
 40
-0.00000006
 40
-0.00000006
 40
-0.00000006
 40
-0.00000006
 40
0.0
 40
0.0
 40
0.0
 40
0.0000986474421291
 40
0.0000986474421291
 40
0.0000986474421291
 40
0.0000986474421291
 10
149.1610586639295
 20
117.0684671911565
 30
0.0
 10
149.1610337895747
 20
117.068497926754
 30
0.0
 10
149.1610089151839
 20
117.0685286622342
 30
0.0
 10
149.1609840408914
 20
117.0685593977029
 30
0.0
 10
149.1200876188201
 20
117.1190923205178
 30
0.0
 10
149.079329355121
 20
117.1695072190489
 30
0.0
 10
149.0387431650991
 20
117.2197594500612
 30
0.0
  0
SPLINE
  5
126
330
1F
100
AcDbEntity
  8
0
  6
Continuous
 62
     7
370
    25
100
AcDbSpline
210
0.0
220
0.0
230
1.0
 70
     8
 71
     3
 72
    11
 73
     7
 74
     0
 42
0.00000001
 43
0.00000001
 40
0.0
 40
0.0
 40
0.0
 40
0.0
 40
0.0000183457521044
 40
0.0000183457521044
 40
0.0000183457521044
 40
0.0000184057428763
 40
0.0000184057428763
 40
0.0000184057428763
 40
0.0000184057428763
 10
149.1840461607555
 20
117.0403524967057
 30
0.0
 10
149.1763509316504
 20
117.0496594940813
 30
0.0
 10
149.1687130226922
 20
117.0590007862374
 30
0.0
 10
149.1611330220862
 20
117.0683752265763
 30
0.0
 10
149.1611082354171
 20
117.0684058810792
 30
0.0
 10
149.1610834670496
 20
117.0684364074772
 30
0.0
 10
149.1610586639295
 20
117.0684671911565
 30
0.0
  0
SPLINE
  5
127
330
1F
100
AcDbEntity
  8
0
  6
Continuous
 62
     7
370
    25
100
AcDbSpline
210
0.0
220
0.0
230
1.0
 70
     8
 71
     3
 72
    11
 73
     7
 74
     0
 42
0.00000001
 43
0.00000001
 40
-0.00000006
 40
-0.00000006
 40
-0.00000006
 40
-0.00000006
 40
0.0
 40
0.0
 40
0.0
 40
0.0000148246669845
 40
0.0000148246669845
 40
0.0000148246669845
 40
0.0000148246669845
 10
149.2028771595992
 20
117.0177773923691
 30
0.0
 10
149.2028517231435
 20
117.0178076190608
 30
0.0
 10
149.2028262871935
 20
117.0178378462107
 30
0.0
 10
149.2028008518006
 20
117.0178680737752
 30
0.0
 10
149.1965162410113
 20
117.0253367407263
 30
0.0
 10
149.1902645402266
 20
117.0328316756064
 30
0.0
 10
149.1840461607555
 20
117.0403524967057
 30
0.0
  0
SPLINE
  5
128
330
1F
100
AcDbEntity
  8
0
  6
Continuous
 62
     7
370
    25
100
AcDbSpline
210
0.0
220
0.0
230
1.0
 70
     8
 71
     3
 72
    14
 73
    10
 74
     0
 42
0.00000001
 43
0.00000001
 40
-0.0000003973936171
 40
-0.0000003973936171
 40
-0.0000003973936171
 40
-0.0000003973936171
 40
0.0
 40
0.0
 40
0.0
 40
0.0000676568234786
 40
0.0000676568234786
 40
0.0000676568234786
 40
0.0000677168155148
 40
0.0000677168155148
 40
0.0000677168155148
 40
0.0000677168155148
 10
149.2897740156298
 20
116.9146111168293
 30
0.0
 10
149.2896050040614
 20
116.9148117645924
 30
0.0
 10
149.2894359926071
 20
116.9150124122626
 30
0.0
 10
149.2892669812669
 20
116.9152130598399
 30
0.0
 10
149.260492568758
 20
116.9493735851141
 30
0.0
 10
149.2317214569047
 20
116.9835314258752
 30
0.0
 10
149.2029536856718
 20
117.0176865352622
 30
0.0
 10
149.2029281769784
 20
117.0177168209667
 30
0.0
 10
149.2029026682901
 20
117.0177471066668
 30
0.0
 10
149.2028771595992
 20
117.0177773923691
 30
0.0
  0
LINE
  5
129
330
1F
100
AcDbEntity
  8
0
  6
Continuous
 62
     7
370
    25
100
AcDbLine
 10
156.7353150067
 20
115.6571336081
 30
0.0
 11
156.7353150067
 21
115.6572706782
 31
0.0
  0
LINE
  5
12A
330
1F
100
AcDbEntity
  8
0
  6
Continuous
 62
     7
370
    25
100
AcDbLine
 10
156.7353150067
 20
95.6497344934
 30
0.0
 11
156.7353150067
 21
95.6495974234
 31
0.0
  0
LINE
  5
12B
330
1F
100
AcDbEntity
  8
0
  6
Continuous
 62
     7
370
    25
100
AcDbLine
 10
64.7353150067
 20
115.6572706782
 30
0.0
 11
64.7353150067
 21
115.6571336081
 31
0.0
  0
LINE
  5
12C
330
1F
100
AcDbEntity
  8
0
  6
Continuous
 62
     7
370
    25
100
AcDbLine
 10
64.7353150067
 20
95.6495974234
 30
0.0
 11
64.7353150067
 21
95.6497344934
 31
0.0
  0
CIRCLE
  5
12D
330
1F
100
AcDbEntity
  8
0
  6
Continuous
 62
     7
370
    25
100
AcDbCircle
 10
156.7353150067
 20
105.6534340508
 30
0.0
 40
4.200000000000017
  0
CIRCLE
  5
12E
330
1F
100
AcDbEntity
  8
0
  6
Continuous
 62
     7
370
    25
100
AcDbCircle
 10
64.7353150067
 20
105.6534340508
 30
0.0
 40
4.199999999999996
  0
LINE
  5
12F
330
1F
100
AcDbEntity
  8
0
  6
Continuous
 62
     7
370
    25
100
AcDbLine
 10
153.2808673053
 20
95.6497344934
 30
0.0
 11
153.2808673152
 21
95.6495974234
 31
0.0
  0
LINE
  5
130
330
1F
100
AcDbEntity
  8
0
  6
Continuous
 62
     7
370
    25
100
AcDbLine
 10
68.189757279
 20
115.6572706782
 30
0.0
 11
68.189757279
 21
115.6571336081
 31
0.0
  0
LINE
  5
131
330
1F
100
AcDbEntity
  8
0
  6
Continuous
 62
     7
370
    25
100
AcDbLine
 10
68.189757279
 20
95.6495974234
 30
0.0
 11
68.189757279
 21
95.6497344934
 31
0.0
  0
LINE
  5
132
330
1F
100
AcDbEntity
  8
0
  6
Continuous
 62
     7
370
    25
100
AcDbLine
 10
153.2808727344
 20
115.6571336081
 30
0.0
 11
153.2808727344
 21
115.6572706782
 31
0.0
  0
SPLINE
  5
133
330
1F
100
AcDbEntity
  8
0
  6
Continuous
 62
     7
370
    25
100
AcDbSpline
210
0.0
220
0.0
230
1.0
 70
     8
 71
     3
 72
    14
 73
    10
 74
     0
 42
0.00000001
 43
0.00000001
 40
0.0
 40
0.0
 40
0.0
 40
0.0
 40
0.25
 40
0.25
 40
0.5
 40
0.5
 40
0.75
 40
0.75
 40
1.0
 40
1.0
 40
1.0
 40
1.0
 10
105.8851707037951
 20
139.2131872645908
 30
0.0
 10
105.6026566855137
 20
139.1737922963244
 30
0.0
 10
105.3436334822229
 20
139.0782054225062
 30
0.0
 10
104.9030280893974
 20
138.8231597272431
 30
0.0
 10
104.7174704605192
 20
138.6617915474192
 30
0.0
 10
104.424770974174
 20
138.3118394714538
 30
0.0
 10
104.3125314951985
 20
138.1179664985476
 30
0.0
 10
104.1586037685132
 20
137.7141483100341
 30
0.0
 10
104.116162390943
 20
137.5043212334657
 30
0.0
 10
104.1095897561933
 20
137.2891999674352
 30
0.0
  0
SPLINE
  5
134
330
1F
100
AcDbEntity
  8
0
  6
Continuous
 62
     7
370
    25
100
AcDbSpline
210
0.0
220
0.0
230
1.0
 70
     8
 71
     3
 72
    14
 73
    10
 74
     0
 42
0.00000001
 43
0.00000001
 40
0.0
 40
0.0
 40
0.0
 40
0.0
 40
0.25
 40
0.25
 40
0.5
 40
0.5
 40
0.75
 40
0.75
 40
1.0
 40
1.0
 40
1.0
 40
1.0
 10
104.1095897561928
 20
74.01766813411515
 30
0.0
 10
104.1161543316633
 20
73.80281064692787
 30
0.0
 10
104.1591530439716
 20
73.59086434240712
 30
0.0
 10
104.3129430564202
 20
73.18823896693628
 30
0.0
 10
104.4253103480958
 20
72.9939323182221
 30
0.0
 10
104.7202573755627
 20
72.64220107240024
 30
0.0
 10
104.9053321857553
 20
72.48193940911074
 30
0.0
 10
105.3467345195913
 20
72.22730823183649
 30
0.0
 10
105.603346004237
 20
72.13297968364752
 30
0.0
 10
105.8851707037923
 20
72.09368083694476
 30
0.0
  0
SPLINE
  5
135
330
1F
100
AcDbEntity
  8
0
  6
Continuous
 62
     7
370
    25
100
AcDbSpline
210
0.0
220
0.0
230
1.0
 70
     8
 71
     3
 72
    12
 73
     8
 74
     0
 42
0.00000001
 43
0.00000001
 40
0.0
 40
0.0
 40
0.0
 40
0.0
 40
0.2499999999999989
 40
0.2499999999999989
 40
0.4999999999999978
 40
0.4999999999999978
 40
1.0
 40
1.0
 40
1.0
 40
1.0
 10
104.2480623947904
 20
137.1692793948945
 30
0.0
 10
104.253081307009
 20
137.3923725010931
 30
0.0
 10
104.2956857119233
 20
137.6085151321084
 30
0.0
 10
104.4550616521743
 20
138.0273325476751
 30
0.0
 10
104.5717992530034
 20
138.2266752411508
 30
0.0
 10
105.0273972573096
 20
138.761277249841
 30
0.0
 10
105.4866372684817
 20
139.036788217838
 30
0.0
 10
106.012460721836
 20
139.1093621302885
 30
0.0
  0
SPLINE
  5
136
330
1F
100
AcDbEntity
  8
0
  6
Continuous
 62
     7
370
    25
100
AcDbSpline
210
0.0
220
0.0
230
1.0
 70
     8
 71
     3
 72
    12
 73
     8
 74
     0
 42
0.00000001
 43
0.00000001
 40
0.0
 40
0.0
 40
0.0
 40
0.0
 40
0.4999999999999993
 40
0.4999999999999993
 40
0.7499999999999997
 40
0.7499999999999997
 40
1.0
 40
1.0
 40
1.0
 40
1.0
 10
106.0124607218329
 20
72.19750597124694
 30
0.0
 10
105.486871215212
 20
72.27004759447716
 30
0.0
 10
105.0283429079238
 20
72.54551334020026
 30
0.0
 10
104.5741620094811
 20
73.07690914581296
 30
0.0
 10
104.4562575772487
 20
73.27740455854861
 30
0.0
 10
104.2967417917489
 20
73.6945802276156
 30
0.0
 10
104.2530771695035
 20
73.91467951458702
 30
0.0
 10
104.2480623947904
 20
74.13758870664064
 30
0.0
  0
SPLINE
  5
137
330
1F
100
AcDbEntity
  8
0
  6
Continuous
 62
     7
370
    25
100
AcDbSpline
210
0.0
220
0.0
230
1.0
 70
     8
 71
     3
 72
    48
 73
    44
 74
     0
 42
0.00000001
 43
0.00000001
 40
0.0
 40
0.0
 40
0.0
 40
0.0
 40
0.0625000000000002
 40
0.0625000000000002
 40
0.1250000000000004
 40
0.1250000000000004
 40
0.1562500000000005
 40
0.1562500000000005
 40
0.1875000000000006
 40
0.1875000000000006
 40
0.2500000000000006
 40
0.2500000000000006
 40
0.3125000000000006
 40
0.3125000000000006
 40
0.3750000000000006
 40
0.3750000000000006
 40
0.4062500000000006
 40
0.4062500000000006
 40
0.4375000000000006
 40
0.4375000000000006
 40
0.5000000000000004
 40
0.5000000000000004
 40
0.5312500000000004
 40
0.5312500000000004
 40
0.5625000000000004
 40
0.5625000000000004
 40
0.6250000000000003
 40
0.6250000000000003
 40
0.6562500000000003
 40
0.6562500000000003
 40
0.6875000000000003
 40
0.6875000000000003
 40
0.7500000000000001
 40
0.7500000000000001
 40
0.7812500000000001
 40
0.7812500000000001
 40
0.8125000000000001
 40
0.8125000000000001
 40
0.8750000000000001
 40
0.8750000000000001
 40
0.9375000000000001
 40
0.9375000000000001
 40
1.0
 40
1.0
 40
1.0
 40
1.0
 10
120.8722939852617
 20
77.73692178314285
 30
0.0
 10
122.3150026631197
 20
78.26079480135573
 30
0.0
 10
123.6860582400518
 20
78.88416193953817
 30
0.0
 10
126.3034133493739
 20
80.31670194786707
 30
0.0
 10
127.5496122951473
 20
81.12596938699596
 30
0.0
 10
129.330105233432
 20
82.48275094779473
 30
0.0
 10
129.9105330791829
 20
82.96076375756574
 30
0.0
 10
131.0253782667043
 20
83.95183028357347
 30
0.0
 10
131.5614573560776
 20
84.46590944988341
 30
0.0
 10
133.1079001935408
 20
86.0637671946281
 30
0.0
 10
134.0569229950605
 20
87.20277708929592
 30
0.0
 10
135.7915157653095
 20
89.63747497811252
 30
0.0
 10
136.581412512294
 20
90.9446277322794
 30
0.0
 10
137.9398292493502
 20
93.64160053523204
 30
0.0
 10
138.5149669365777
 20
95.03775527732287
 30
0.0
 10
139.2190879957713
 20
97.20697913766344
 30
0.0
 10
139.4272370490839
 20
97.94260272972068
 30
0.0
 10
139.7883558629247
 20
99.44021208833782
 30
0.0
 10
139.9419299056572
 20
100.2065486771711
 30
0.0
 10
140.3095078045429
 20
102.5107000705731
 30
0.0
 10
140.432113852516
 20
104.0501857507309
 30
0.0
 10
140.4368233358985
 20
106.3643979536464
 30
0.0
 10
140.4083876405687
 20
107.1366358603443
 30
0.0
 10
140.2905861733774
 20
108.6828025339575
 30
0.0
 10
140.200676295684
 20
109.460018264544
 30
0.0
 10
139.840320453347
 20
111.7705457071157
 30
0.0
 10
139.483575117725
 20
113.2668200998206
 30
0.0
 10
138.7835203387459
 20
115.4499744752063
 30
0.0
 10
138.5225322101763
 20
116.1674343286153
 30
0.0
 10
137.9452457482537
 20
117.5821100374641
 30
0.0
 10
137.627478194069
 20
118.281983248572
 30
0.0
 10
136.6048377239147
 20
120.3221960070934
 30
0.0
 10
135.8300020546501
 20
121.6090387148533
 30
0.0
 10
134.5333023022658
 20
123.4383844369311
 30
0.0
 10
134.0785330361598
 20
124.0312553722551
 30
0.0
 10
133.1232654815227
 20
125.1836623656717
 30
0.0
 10
132.620936638397
 20
125.7449157553745
 30
0.0
 10
131.0643041530166
 20
127.3572237073407
 30
0.0
 10
129.9572095162174
 20
128.3428149433269
 30
0.0
 10
127.6013808697127
 20
130.1447601914059
 30
0.0
 10
126.3525854929361
 20
130.9612300964268
 30
0.0
 10
123.6972354088666
 20
132.4185661747976
 30
0.0
 10
122.3148855517213
 20
133.0461158253979
 30
0.0
 10
120.8722939852618
 20
133.5699463183923
 30
0.0
  0
SPLINE
  5
138
330
1F
100
AcDbEntity
  8
0
  6
Continuous
 62
     7
370
    25
100
AcDbSpline
210
0.0
220
0.0
230
1.0
 70
     8
 71
     3
 72
    16
 73
    12
 74
     0
 42
0.00000001
 43
0.00000001
 40
0.0
 40
0.0
 40
0.0
 40
0.0
 40
0.1250000000000006
 40
0.1250000000000006
 40
0.2500000000000012
 40
0.2500000000000012
 40
0.5000000000000008
 40
0.5000000000000008
 40
0.7500000000000003
 40
0.7500000000000003
 40
1.0
 40
1.0
 40
1.0
 40
1.0
 10
120.8722939852618
 20
133.5699463183923
 30
0.0
 10
120.7438377452894
 20
133.6165910493594
 30
0.0
 10
120.6116321262901
 20
133.6498522506512
 30
0.0
 10
120.3395643640502
 20
133.6891519912252
 30
0.0
 10
120.1987977132097
 20
133.6947491222485
 30
0.0
 10
119.787039707661
 20
133.6683167674029
 30
0.0
 10
119.5170930355007
 20
133.592439030339
 30
0.0
 10
119.0410928741579
 20
133.3490306825366
 30
0.0
 10
118.8351216337598
 20
133.1830796425866
 30
0.0
 10
118.5061364826374
 20
132.7989489765283
 30
0.0
 10
118.3829215452244
 20
132.5821412744796
 30
0.0
 10
118.3019047406883
 20
132.3506110937868
 30
0.0
  0
SPLINE
  5
139
330
1F
100
AcDbEntity
  8
0
  6
Continuous
 62
     7
370
    25
100
AcDbSpline
210
0.0
220
0.0
230
1.0
 70
     8
 71
     3
 72
    20
 73
    16
 74
     0
 42
0.00000001
 43
0.00000001
 40
0.0
 40
0.0
 40
0.0
 40
0.0
 40
0.2500000000000002
 40
0.2500000000000002
 40
0.3750000000000001
 40
0.3750000000000001
 40
0.5000000000000001
 40
0.5000000000000001
 40
0.6250000000000001
 40
0.6250000000000001
 40
0.75
 40
0.75
 40
0.875
 40
0.875
 40
1.0
 40
1.0
 40
1.0
 40
1.0
 10
118.3019047406883
 20
132.3506110937868
 30
0.0
 10
118.0088985632748
 20
131.5132567499681
 30
0.0
 10
117.6051029692757
 20
130.710836889216
 30
0.0
 10
116.8156781075627
 20
129.5731977751253
 30
0.0
 10
116.5193691778206
 20
129.2034144305905
 30
0.0
 10
115.8797818760482
 20
128.5128872694526
 30
0.0
 10
115.5349501862563
 20
128.1892585427541
 30
0.0
 10
114.7938516070857
 20
127.5878459221345
 30
0.0
 10
114.3964094091285
 20
127.3093141712301
 30
0.0
 10
113.5506492629028
 20
126.8064706924896
 30
0.0
 10
113.1121313981148
 20
126.5877743639804
 30
0.0
 10
112.2045095844313
 20
126.2154540404401
 30
0.0
 10
111.7354130574813
 20
126.0618109364139
 30
0.0
 10
110.7652677729067
 20
125.8233166813846
 30
0.0
 10
110.2666477368844
 20
125.7395830139179
 30
0.0
 10
109.764282724836
 20
125.6941249075186
 30
0.0
  0
SPLINE
  5
13A
330
1F
100
AcDbEntity
  8
0
  6
Continuous
 62
     7
370
    25
100
AcDbSpline
210
0.0
220
0.0
230
1.0
 70
     8
 71
     3
 72
    12
 73
     8
 74
     0
 42
0.00000001
 43
0.00000001
 40
0.0
 40
0.0
 40
0.0
 40
0.0
 40
0.2500000000000001
 40
0.2500000000000001
 40
0.5000000000000001
 40
0.5000000000000001
 40
1.0
 40
1.0
 40
1.0
 40
1.0
 10
109.764282724836
 20
125.6941249075186
 30
0.0
 10
109.5050489429473
 20
125.6706673088467
 30
0.0
 10
109.2563391312081
 20
125.5972403054856
 30
0.0
 10
108.8044397283714
 20
125.3650156504206
 30
0.0
 10
108.603654868682
 20
125.2066181034129
 30
0.0
 10
108.1150911672049
 20
124.6494814941512
 30
0.0
 10
107.9380325192839
 20
124.1652063110685
 30
0.0
 10
107.9447081654224
 20
123.675027981945
 30
0.0
  0
SPLINE
  5
13B
330
1F
100
AcDbEntity
  8
0
  6
Continuous
 62
     7
370
    25
100
AcDbSpline
210
0.0
220
0.0
230
1.0
 70
     8
 71
     3
 72
    20
 73
    16
 74
     0
 42
0.00000001
 43
0.00000001
 40
0.0
 40
0.0
 40
0.0
 40
0.0
 40
0.125
 40
0.125
 40
0.25
 40
0.25
 40
0.375
 40
0.375
 40
0.5
 40
0.5
 40
0.625
 40
0.625
 40
0.75
 40
0.75
 40
1.0
 40
1.0
 40
1.0
 40
1.0
 10
107.9447081654224
 20
123.675027981945
 30
0.0
 10
107.9644213741622
 20
122.2275294894711
 30
0.0
 10
107.9816408828655
 20
120.7626987903844
 30
0.0
 10
108.0112168823813
 20
117.7986395343268
 30
0.0
 10
108.0235907134457
 20
116.2963103674812
 30
0.0
 10
108.0433608685947
 20
113.2737623190833
 30
0.0
 10
108.0507630814516
 20
111.7545920019657
 30
0.0
 10
108.0606405857092
 20
108.7004834680696
 30
0.0
 10
108.0631058234061
 20
107.1639176156609
 30
0.0
 10
108.0630593559729
 20
104.0998699602036
 30
0.0
 10
108.0605627834194
 20
102.5694763998914
 30
0.0
 10
108.0505900795067
 20
99.51196478689724
 30
0.0
 10
108.0431235592519
 20
97.99094068041302
 30
0.0
 10
108.0134938116601
 20
93.47887479066556
 30
0.0
 10
107.984134560758
 20
90.52683547855388
 30
0.0
 10
107.9447081654224
 20
87.63184011959002
 30
0.0
  0
SPLINE
  5
13C
330
1F
100
AcDbEntity
  8
0
  6
Continuous
 62
     7
370
    25
100
AcDbSpline
210
0.0
220
0.0
230
1.0
 70
     8
 71
     3
 72
    14
 73
    10
 74
     0
 42
0.00000001
 43
0.00000001
 40
0.0
 40
0.0
 40
0.0
 40
0.0
 40
0.25
 40
0.25
 40
0.5
 40
0.5
 40
0.75
 40
0.75
 40
1.0
 40
1.0
 40
1.0
 40
1.0
 10
107.9447081654224
 20
87.6318401195901
 30
0.0
 10
107.9413647970932
 20
87.38634377852667
 30
0.0
 10
107.9820553826668
 20
87.14733484098676
 30
0.0
 10
108.1511014219889
 20
86.68590261343797
 30
0.0
 10
108.2756075025932
 20
86.47453823682447
 30
0.0
 10
108.6046214040245
 20
86.09895120911071
 30
0.0
 10
108.8025850492615
 20
85.94294722802665
 30
0.0
 10
109.256440622648
 20
85.7094345034479
 30
0.0
 10
109.5045437378537
 20
85.63624650778873
 30
0.0
 10
109.764282724836
 20
85.6127431940166
 30
0.0
  0
SPLINE
  5
13D
330
1F
100
AcDbEntity
  8
0
  6
Continuous
 62
     7
370
    25
100
AcDbSpline
210
0.0
220
0.0
230
1.0
 70
     8
 71
     3
 72
    20
 73
    16
 74
     0
 42
0.00000001
 43
0.00000001
 40
0.0
 40
0.0
 40
0.0
 40
0.0
 40
0.2499999999999999
 40
0.2499999999999999
 40
0.3749999999999998
 40
0.3749999999999998
 40
0.4999999999999997
 40
0.4999999999999997
 40
0.6249999999999998
 40
0.6249999999999998
 40
0.7499999999999998
 40
0.7499999999999998
 40
0.8749999999999998
 40
0.8749999999999998
 40
1.0
 40
1.0
 40
1.0
 40
1.0
 10
109.764282724836
 20
85.6127431940166
 30
0.0
 10
110.7671824259663
 20
85.52199260385112
 30
0.0
 10
111.7270686987844
 20
85.28573549316401
 30
0.0
 10
113.1042473120486
 20
84.72307763951682
 30
0.0
 10
113.5461104717072
 20
84.50243942349695
 30
0.0
 10
114.3811909746334
 20
84.00724314334046
 30
0.0
 10
114.7770723673067
 20
83.7315906684602
 30
0.0
 10
115.5259106909375
 20
83.12595781236057
 30
0.0
 10
115.8770010236311
 20
82.7966713820727
 30
0.0
 10
116.5160511822729
 20
82.10734474886566
 30
0.0
 10
116.8070240015555
 20
81.7449596269716
 30
0.0
 10
117.3341998614862
 20
80.98757515692387
 30
0.0
 10
117.570769172019
 20
80.59108850385091
 30
0.0
 10
117.9806516744593
 20
79.78552446997183
 30
0.0
 10
118.1555507144392
 20
79.37450818830989
 30
0.0
 10
118.3019047406883
 20
78.95625700774836
 30
0.0
  0
SPLINE
  5
13E
330
1F
100
AcDbEntity
  8
0
  6
Continuous
 62
     7
370
    25
100
AcDbSpline
210
0.0
220
0.0
230
1.0
 70
     8
 71
     3
 72
    16
 73
    12
 74
     0
 42
0.00000001
 43
0.00000001
 40
0.0
 40
0.0
 40
0.0
 40
0.0
 40
0.2499999999999996
 40
0.2499999999999996
 40
0.4999999999999997
 40
0.4999999999999997
 40
0.6249999999999998
 40
0.6249999999999998
 40
0.7499999999999999
 40
0.7499999999999999
 40
1.0
 40
1.0
 40
1.0
 40
1.0
 10
118.3019047406883
 20
78.95625700774836
 30
0.0
 10
118.3830499679489
 20
78.72435982002798
 30
0.0
 10
118.5045992155613
 20
78.5098890759402
 30
0.0
 10
118.8354973235613
 20
78.1231754055761
 30
0.0
 10
119.0366687802636
 20
77.96067067733011
 30
0.0
 10
119.3952909428515
 20
77.77643449094138
 30
0.0
 10
119.5202787159814
 20
77.72729479839516
 30
0.0
 10
119.7815076594452
 20
77.65422146784424
 30
0.0
 10
119.9199722166013
 20
77.63026819756286
 30
0.0
 10
120.3340147469652
 20
77.60294778663676
 30
0.0
 10
120.6144422086224
 20
77.6432912459784
 30
0.0
 10
120.8722939852618
 20
77.73692178314285
 30
0.0
  0
SPLINE
  5
13F
330
1F
100
AcDbEntity
  8
0
  6
Continuous
 62
     7
370
    25
100
AcDbSpline
210
0.0
220
0.0
230
1.0
 70
     8
 71
     3
 72
    12
 73
     8
 74
     0
 42
0.00000001
 43
0.00000001
 40
0.0
 40
0.0
 40
0.0
 40
0.0
 40
0.25
 40
0.25
 40
0.5
 40
0.5
 40
1.0
 40
1.0
 40
1.0
 40
1.0
 10
104.586888066283
 20
74.25838094521431
 30
0.0
 10
104.5918609313976
 20
74.05909358499478
 30
0.0
 10
104.6303099668788
 20
73.86619628362433
 30
0.0
 10
104.7728453684298
 20
73.49266247262162
 30
0.0
 10
104.8776848401848
 20
73.31368404682084
 30
0.0
 10
105.2840263621335
 20
72.83584716463508
 30
0.0
 10
105.7006372687961
 20
72.58064348466098
 30
0.0
 10
106.1865131555253
 20
72.51572590368355
 30
0.0
  0
ELLIPSE
  5
140
330
1F
100
AcDbEntity
  8
0
  6
Continuous
 62
     7
370
    25
100
AcDbEllipse
 10
106.1211584681
 20
105.6534340508
 30
0.0
 11
0.0
 21
54.0
 31
0.0
210
0.0
220
0.0
230
1.0
 40
0.0349207695
 41
0.9503604300142794
 42
2.191232223575515
  0
SPLINE
  5
141
330
1F
100
AcDbEntity
  8
0
  6
Continuous
 62
     7
370
    25
100
AcDbSpline
210
0.0
220
0.0
230
1.0
 70
     8
 71
     3
 72
    10
 73
     6
 74
     0
 42
0.00000001
 43
0.00000001
 40
0.0
 40
0.0
 40
0.0
 40
0.0
 40
0.5
 40
0.5
 40
1.0
 40
1.0
 40
1.0
 40
1.0
 10
106.1865131555253
 20
138.7911421978516
 30
0.0
 10
105.7024364483442
 20
138.7264650041566
 30
0.0
 10
105.288507155337
 20
138.4749471727355
 30
0.0
 10
104.742655506418
 20
137.8357273879599
 30
0.0
 10
104.5968083790012
 20
137.4460432710791
 30
0.0
 10
104.586888066283
 20
137.0484871563208
 30
0.0
  0
SPLINE
  5
142
330
1F
100
AcDbEntity
  8
0
  6
Continuous
 62
     7
370
    25
100
AcDbSpline
210
0.0
220
0.0
230
1.0
 70
     8
 71
     3
 72
    60
 73
    56
 74
     0
 42
0.00000001
 43
0.00000001
 40
0.0
 40
0.0
 40
0.0
 40
0.0
 40
0.0625
 40
0.0625
 40
0.09375
 40
0.09375
 40
0.125
 40
0.125
 40
0.1562499999999999
 40
0.1562499999999999
 40
0.1874999999999999
 40
0.1874999999999999
 40
0.2499999999999999
 40
0.2499999999999999
 40
0.3124999999999998
 40
0.3124999999999998
 40
0.3437499999999999
 40
0.3437499999999999
 40
0.3593749999999999
 40
0.3593749999999999
 40
0.3749999999999999
 40
0.3749999999999999
 40
0.4375
 40
0.4375
 40
0.453125
 40
0.453125
 40
0.46875
 40
0.46875
 40
0.5
 40
0.5
 40
0.53125
 40
0.53125
 40
0.5625
 40
0.5625
 40
0.625
 40
0.625
 40
0.65625
 40
0.65625
 40
0.6875
 40
0.6875
 40
0.71875
 40
0.71875
 40
0.75
 40
0.75
 40
0.8125
 40
0.8125
 40
0.875
 40
0.875
 40
0.90625
 40
0.90625
 40
0.9375
 40
0.9375
 40
0.96875
 40
0.96875
 40
1.0
 40
1.0
 40
1.0
 40
1.0
 10
106.1865131555253
 20
138.7911421978516
 30
0.0
 10
108.6319877099508
 20
139.1178805620125
 30
0.0
 10
111.0747302227591
 20
139.1790659900346
 30
0.0
 10
114.7348015659375
 20
138.8819880114492
 30
0.0
 10
115.9626884307355
 20
138.7154796231299
 30
0.0
 10
118.3573700472261
 20
138.25933657218
 30
0.0
 10
119.5278250238177
 20
137.9704707690936
 30
0.0
 10
121.8196955742806
 20
137.2766439990583
 30
0.0
 10
122.9411049115508
 20
136.8716656058923
 30
0.0
 10
125.1378309599406
 20
135.9458131397171
 30
0.0
 10
126.2067258615764
 20
135.4270140287637
 30
0.0
 10
129.2873855850309
 20
133.730646456943
 30
0.0
 10
131.1959926187815
 20
132.4060131656861
 30
0.0
 10
134.7416163581035
 20
129.3562172316843
 30
0.0
 10
136.3287395142542
 20
127.6741712867554
 30
0.0
 10
138.4475369131052
 20
124.9028528948866
 30
0.0
 10
139.1096363614816
 20
123.9373319542043
 30
0.0
 10
140.0338994828215
 20
122.4210027320593
 30
0.0
 10
140.3313815232873
 20
121.9023965004202
 30
0.0
 10
140.8961919598244
 20
120.8531236343375
 30
0.0
 10
141.1639191564762
 20
120.3220366399445
 30
0.0
 10
142.429873484814
 20
117.6341869829891
 30
0.0
 10
143.212997745035
 20
115.3813277186266
 30
0.0
 10
143.8870596810739
 20
112.4234609251501
 30
0.0
 10
144.0064403713096
 20
111.8247226008282
 30
0.0
 10
144.2130643943131
 20
110.6122385392881
 30
0.0
 10
144.3000647496378
 20
109.9987851918252
 30
0.0
 10
144.5079752266237
 20
108.166521915894
 30
0.0
 10
144.577863222111
 20
106.9455865208871
 30
0.0
 10
144.5831529311312
 20
104.5048415828657
 30
0.0
 10
144.518551887818
 20
103.2850320595997
 30
0.0
 10
144.2528709212492
 20
100.8465521915379
 30
0.0
 10
144.0495845914085
 20
99.62149889322554
 30
0.0
 10
143.2514043305553
 20
96.04836021946302
 30
0.0
 10
142.470342588071
 20
93.77216346301046
 30
0.0
 10
140.9405962727689
 20
90.50422397286465
 30
0.0
 10
140.3761457211322
 20
89.45255249625872
 30
0.0
 10
139.1525660406542
 20
87.43507890231878
 30
0.0
 10
138.4920658769678
 20
86.46638730297319
 30
0.0
 10
137.0748937718019
 20
84.60475132970218
 30
0.0
 10
136.3154472826451
 20
83.70891933712295
 30
0.0
 10
134.7098979361296
 20
82.00479492601661
 30
0.0
 10
133.8699186486975
 20
81.2023055132962
 30
0.0
 10
131.2383310340526
 20
78.93442676405532
 30
0.0
 10
129.3371370485084
 20
77.6066185188026
 30
0.0
 10
125.1955959301341
 20
75.32012051277597
 30
0.0
 10
123.0173443684261
 20
74.39670341958058
 30
0.0
 10
119.5777435687488
 20
73.34961800789586
 30
0.0
 10
118.3975824646033
 20
73.05642028046222
 30
0.0
 10
115.9878721336395
 20
72.59498939639154
 30
0.0
 10
114.7764640977984
 20
72.42985279873405
 30
0.0
 10
112.3403642832102
 20
72.22899508498712
 30
0.0
 10
111.1156719993403
 20
72.1932742004257
 30
0.0
 10
108.6526092024652
 20
72.2543072559946
 30
0.0
 10
107.411452085751
 20
72.35206256008644
 30
0.0
 10
106.1865131555253
 20
72.51572590368355
 30
0.0
  0
ARC
  5
143
330
1F
100
AcDbEntity
  8
0
  6
Continuous
 62
     8
370
    25
100
AcDbCircle
 10
106.981380199
 20
138.9385646459
 30
0.0
 40
0.9838580862794759
100
AcDbArc
 50
170.002819472
 51
191.5087542579
  0
ARC
  5
144
330
1F
100
AcDbEntity
  8
0
  6
Continuous
 62
     8
370
    25
100
AcDbCircle
 10
106.9767011533
 20
72.3677837824
 30
0.0
 40
0.9791599168355679
100
AcDbArc
 50
168.5752370454
 51
190.0147642646
  0
ARC
  5
145
330
1F
100
AcDbEntity
  8
0
  6
Continuous
 62
     8
370
    25
100
AcDbCircle
 10
104.5794825635
 20
137.2697651504
 30
0.0
 40
0.3463188058849
100
AcDbArc
 50
196.8671705978
 51
270.7106520312
  0
ARC
  5
146
330
1F
100
AcDbEntity
  8
0
  6
Continuous
 62
     8
370
    25
100
AcDbCircle
 10
104.5794825635
 20
74.0371029511
 30
0.0
 40
0.3463188058848577
100
AcDbArc
 50
89.2893479688
 51
163.1328294022
  0
SPLINE
  5
147
330
1F
100
AcDbEntity
  8
0
  6
Continuous
 62
     7
370
    25
100
AcDbSpline
210
0.0
220
0.0
230
1.0
 70
     8
 71
     3
 72
    44
 73
    40
 74
     0
 42
0.00000001
 43
0.00000001
 40
0.0
 40
0.0
 40
0.0
 40
0.0
 40
0.0243907513572127
 40
0.0543356082149968
 40
0.084426635303959
 40
0.1145594028276069
 40
0.1445993628259778
 40
0.1744979822045987
 40
0.2040992757272523
 40
0.2332610333109598
 40
0.261912685447389
 40
0.2900155018491849
 40
0.3175592812097197
 40
0.3445323739220562
 40
0.3707222818527847
 40
0.3965601717287935
 40
0.4220515522464058
 40
0.4472117838310554
 40
0.4720669992426708
 40
0.4966530779668821
 40
0.5209890682346703
 40
0.5449820184230284
 40
0.5693340246029907
 40
0.5941402372483796
 40
0.6193406207543429
 40
0.6448540667070172
 40
0.6705770871361734
 40
0.6963975053873211
 40
0.7225813063018993
 40
0.7498724123803253
 40
0.7776197084293942
 40
0.8058769628178134
 40
0.8346783018184225
 40
0.864041659379194
 40
0.8938457127567689
 40
0.9241579507095796
 40
0.9543729870897076
 40
0.9844424703701488
 40
1.0
 40
1.0
 40
1.0
 40
1.0
 10
81.39891338793656
 20
235.7393312705316
 30
0.0
 10
81.75453478187136
 20
235.5458987247503
 30
0.0
 10
82.54675739325059
 20
235.1149864141916
 30
0.0
 10
83.85461064376452
 20
234.4334207473309
 30
0.0
 10
85.30680457849412
 20
233.7038386633772
 30
0.0
 10
86.82341063892461
 20
232.9758742748828
 30
0.0
 10
88.39542841287769
 20
232.2580934984651
 30
0.0
 10
90.01544056652786
 20
231.5591484379974
 30
0.0
 10
91.67454749164295
 20
230.8888414317183
 30
0.0
 10
93.36260730147968
 20
230.2562449195916
 30
0.0
 10
95.07074619606294
 20
229.6687852216843
 30
0.0
 10
96.79211582272897
 20
229.1322676237496
 30
0.0
 10
98.52041811163868
 20
228.6509185381643
 30
0.0
 10
100.2459487714482
 20
228.230692019433
 30
0.0
 10
101.9673854444176
 20
227.8735839591018
 30
0.0
 10
103.6835320334266
 20
227.5786527616508
 30
0.0
 10
105.3989602533785
 20
227.3456201857798
 30
0.0
 10
107.1092912771503
 20
227.1755747656399
 30
0.0
 10
108.8107889194566
 20
227.0694542056877
 30
0.0
 10
110.4997623855579
 20
227.0275794069276
 30
0.0
 10
112.169784138794
 20
227.0513944624061
 30
0.0
 10
113.8296162421403
 20
227.1381954648841
 30
0.0
 10
115.4905436698652
 20
227.2846414458706
 30
0.0
 10
117.1644062016375
 20
227.4911217726109
 30
0.0
 10
118.845160359832
 20
227.7567741751995
 30
0.0
 10
120.52231615305
 20
228.0798286755334
 30
0.0
 10
122.1845419950486
 20
228.4575059313397
 30
0.0
 10
123.8273603626392
 20
228.8890932818917
 30
0.0
 10
125.4679133944139
 20
229.3716802395825
 30
0.0
 10
127.1082447047124
 20
229.9057330953575
 30
0.0
 10
128.7459130225835
 20
230.4890542267707
 30
0.0
 10
130.365389068146
 20
231.1134594457072
 30
0.0
 10
131.9648390134974
 20
231.7745409052519
 30
0.0
 10
133.5392475195558
 20
232.4665427721643
 30
0.0
 10
135.0854028465046
 20
233.1814607148375
 30
0.0
 10
136.589095081969
 20
233.9091292570602
 30
0.0
 10
138.032325136452
 20
234.6390353675237
 30
0.0
 10
139.1978189156745
 20
235.2482268554317
 30
0.0
 10
139.8555225507375
 20
235.6075441036107
 30
0.0
 10
140.0797810138166
 20
235.7300611911538
 30
0.0
  0
LINE
  5
148
330
1F
100
AcDbEntity
  8
0
  6
Continuous
 62
     7
370
    25
100
AcDbLine
 10
86.6772565713
 20
247.6281687656
 30
0.0
 11
73.3145739849
 21
247.6281687656
 31
0.0
  0
LINE
  5
149
330
1F
100
AcDbEntity
  8
0
  6
Continuous
 62
     7
370
    25
100
AcDbLine
 10
90.8805523407
 20
247.6281687656
 30
0.0
 11
90.7353150067
 21
247.6281687656
 31
0.0
  0
LINE
  5
14A
330
1F
100
AcDbEntity
  8
0
  6
Continuous
 62
     7
370
    25
100
AcDbLine
 10
103.3490394968
 20
247.6281687656
 30
0.0
 11
94.9376266652
 21
247.6281687656
 31
0.0
  0
LINE
  5
14B
330
1F
100
AcDbEntity
  8
0
  6
Continuous
 62
     7
370
    25
100
AcDbLine
 10
148.1677301464
 20
247.6281687656
 30
0.0
 11
145.4625849855
 21
247.6281687656
 31
0.0
  0
LINE
  5
14C
330
1F
100
AcDbEntity
  8
0
  6
Continuous
 62
     7
370
    25
100
AcDbLine
 10
71.4252299586
 20
241.1440960256
 30
0.0
 11
72.7218341858
 21
204.0142089669
 31
0.0
  0
LINE
  5
14D
330
1F
100
AcDbEntity
  8
0
  6
Continuous
 62
     7
370
    25
100
AcDbLine
 10
148.7487958276
 20
204.0142089669
 30
0.0
 11
150.0454096097
 21
241.1443696427
 31
0.0
  0
ARC
  5
14E
330
1F
100
AcDbEntity
  8
0
  6
Continuous
 62
     7
370
    25
100
AcDbCircle
 10
148.3490394968
 20
204.0281687656
 30
0.0
 40
0.3999999999999989
100
AcDbArc
 50
270.0
 51
358.0
  0
ARC
  5
14F
330
1F
100
AcDbEntity
  8
0
  6
Continuous
 62
     7
370
    25
100
AcDbCircle
 10
73.1215905166
 20
204.0281687656
 30
0.0
 40
0.3999999999999847
100
AcDbArc
 50
182.0
 51
270.0
  0
SPLINE
  5
150
330
1F
100
AcDbEntity
  8
0
  6
Continuous
 62
     7
370
    25
100
AcDbSpline
210
0.0
220
0.0
230
1.0
 70
     8
 71
     3
 72
    43
 73
    39
 74
     0
 42
0.00000001
 43
0.00000001
 40
0.0
 40
0.0
 40
0.0
 40
0.0
 40
0.014067464228541
 40
0.0412988134186812
 40
0.068305191017487
 40
0.0956495904242636
 40
0.1232041478720099
 40
0.1508875396310647
 40
0.1786149562949848
 40
0.2063797876868228
 40
0.2347281017283725
 40
0.2634884941926525
 40
0.292651592246452
 40
0.3221865457850328
 40
0.3520471567057381
 40
0.382172385670542
 40
0.4128756571223621
 40
0.4438943126253324
 40
0.4751609978716151
 40
0.5065897099069976
 40
0.5380816660390413
 40
0.5694970011855209
 40
0.6007280679557571
 40
0.6316781837664754
 40
0.6622653096906431
 40
0.6924306441964891
 40
0.7220507482283564
 40
0.7509902847367705
 40
0.779561686955553
 40
0.8076131916951017
 40
0.8350326358270688
 40
0.8617549322563055
 40
0.887831517697424
 40
0.9138564710544729
 40
0.9402127375305805
 40
0.9667733269669204
 40
0.9934032436749441
 40
1.0
 40
1.0
 40
1.0
 40
1.0
 10
145.2510282942854
 20
247.5648631181895
 30
0.0
 10
145.2489096300326
 20
247.563499658659
 30
0.0
 10
145.2426897230012
 20
247.559496857597
 30
0.0
 10
145.1716776621859
 20
247.5141300641433
 30
0.0
 10
145.0116363333807
 20
247.4126295173646
 30
0.0
 10
144.7721450803001
 20
247.2617255633763
 30
0.0
 10
144.4531509425059
 20
247.0620531083873
 30
0.0
 10
144.0553459286205
 20
246.814749832952
 30
0.0
 10
143.5792683718845
 20
246.5207485826904
 30
0.0
 10
143.0248834606751
 20
246.1812010328451
 30
0.0
 10
142.3906681299963
 20
245.7972822442982
 30
0.0
 10
141.6734486502638
 20
245.3692247606728
 30
0.0
 10
140.8748069841315
 20
244.9003652511047
 30
0.0
 10
139.9957633381162
 20
244.3937460804445
 30
0.0
 10
139.0375711711899
 20
243.8530248797239
 30
0.0
 10
137.999874438629
 20
243.2794257529019
 30
0.0
 10
136.8830389656554
 20
242.6781458669591
 30
0.0
 10
135.6868506772341
 20
242.054412791876
 30
0.0
 10
134.4170192233773
 20
241.4167160651773
 30
0.0
 10
133.0778151417264
 20
240.7727802687482
 30
0.0
 10
131.6752128512914
 20
240.1310565382911
 30
0.0
 10
130.2163281324291
 20
239.500205752866
 30
0.0
 10
128.7090872704384
 20
238.8887802116083
 30
0.0
 10
127.1613270254685
 20
238.3045922618955
 30
0.0
 10
125.5805889673323
 20
237.7550482031772
 30
0.0
 10
123.976178970687
 20
237.2460674149034
 30
0.0
 10
122.3565008387326
 20
236.7879253313863
 30
0.0
 10
120.7268309178007
 20
236.3834253493458
 30
0.0
 10
119.092692921137
 20
236.0348933956594
 30
0.0
 10
117.4586555809165
 20
235.7449377266964
 30
0.0
 10
115.8368271542818
 20
235.5170262775207
 30
0.0
 10
114.23565252908
 20
235.3529841332395
 30
0.0
 10
112.6495622267464
 20
235.254065786645
 30
0.0
 10
111.0645529707044
 20
235.2151335495842
 30
0.0
 10
109.4684028191426
 20
235.2332232134769
 30
0.0
 10
107.8658541436535
 20
235.3145218286027
 30
0.0
 10
106.664767570483
 20
235.4062068358239
 30
0.0
 10
106.0064329224071
 20
235.4890947705301
 30
0.0
 10
105.8757284955938
 20
235.5055511731016
 30
0.0
  0
ARC
  5
151
330
1F
100
AcDbEntity
  8
0
  6
Continuous
 62
     7
370
    25
100
AcDbCircle
 10
145.4669832321
 20
247.2281687365
 30
0.0
 40
0.4000000000000263
100
AcDbArc
 50
90.6430066835
 51
122.3600349728
  0
LINE
  5
152
330
1F
100
AcDbEntity
  8
0
  6
Continuous
 62
     7
370
    25
100
AcDbLine
 10
104.3751199935
 20
243.6281687656
 30
0.0
 11
104.2612735946
 21
243.6281687656
 31
0.0
  0
SPLINE
  5
153
330
1F
100
AcDbEntity
  8
0
  6
Continuous
 62
     7
370
    25
100
AcDbSpline
210
0.0
220
0.0
230
1.0
 70
     8
 71
     3
 72
    16
 73
    12
 74
     0
 42
0.00000001
 43
0.00000001
 40
0.0
 40
0.0
 40
0.0
 40
0.0
 40
0.0353820289704993
 40
0.1457231281273812
 40
0.2613461169089242
 40
0.3836761348077213
 40
0.5159932804695689
 40
0.6576459617876469
 40
0.8076648664119471
 40
0.9670641845435268
 40
1.0
 40
1.0
 40
1.0
 40
1.0
 10
105.8752561107309
 20
235.5041910738588
 30
0.0
 10
105.8343575514787
 20
235.507232965041
 30
0.0
 10
105.6659142438579
 20
235.5197611866097
 30
0.0
 10
105.3853375493784
 20
235.5964869465672
 30
0.0
 10
105.0502380815221
 20
235.726877447474
 30
0.0
 10
104.750263804182
 20
235.9036190820286
 30
0.0
 10
104.4947783531199
 20
236.1154439420127
 30
0.0
 10
104.2934885084085
 20
236.354940229663
 30
0.0
 10
104.1642759463772
 20
236.609194725706
 30
0.0
 10
104.1062401613934
 20
236.7957332910874
 30
0.0
 10
104.1145885576213
 20
236.8928123866561
 30
0.0
 10
104.1160181520609
 20
236.9094363862171
 30
0.0
  0
ARC
  5
154
330
1F
100
AcDbEntity
  8
0
  6
Continuous
 62
     7
370
    25
100
AcDbCircle
 10
103.3490394968
 20
247.2281687656
 30
0.0
 40
0.4000000000000035
100
AcDbArc
 50
2.0
 51
88.9721253466
  0
ARC
  5
155
330
1F
100
AcDbEntity
  8
0
  6
Continuous
 62
     7
370
    25
100
AcDbCircle
 10
104.2612735946
 20
244.0281687656
 30
0.0
 40
0.4000000000000076
100
AcDbArc
 50
182.0
 51
271.236237185
  0
SPLINE
  5
156
330
1F
100
AcDbEntity
  8
0
  6
Continuous
 62
     7
370
    25
100
AcDbSpline
210
0.0
220
0.0
230
1.0
 70
     8
 71
     3
 72
    18
 73
    14
 74
     0
 42
0.00000001
 43
0.00000001
 40
0.0
 40
0.0
 40
0.0
 40
0.0
 40
0.0552185540826514
 40
0.1638990795572704
 40
0.2714756013870076
 40
0.3782004301852172
 40
0.483662551378544
 40
0.5872643861769044
 40
0.6896313082107249
 40
0.7909896025604463
 40
0.891232866843289
 40
0.9906395544585711
 40
0.9999999999999999
 40
0.9999999999999999
 40
0.9999999999999999
 40
0.9999999999999999
 10
140.0680501437045
 20
235.7388710345898
 30
0.0
 10
140.2892376250063
 20
235.8590358719091
 30
0.0
 10
140.9457637727337
 20
236.2157077652423
 30
0.0
 10
141.9616895153007
 20
236.7896213507591
 30
0.0
 10
143.1153201729098
 20
237.4536217733782
 30
0.0
 10
144.1848900248634
 20
238.0843184505382
 30
0.0
 10
145.1715400673622
 20
238.6772604075709
 30
0.0
 10
146.073188525402
 20
239.2285027332775
 30
0.0
 10
146.8900686160743
 20
239.7353484373061
 30
0.0
 10
147.626773953376
 20
240.1983081260618
 30
0.0
 10
148.2727353461414
 20
240.6089777302522
 30
0.0
 10
148.6896088244655
 20
240.8759233086817
 30
0.0
 10
148.8678536235876
 20
240.991152973604
 30
0.0
 10
148.8831932826078
 20
241.0010695814243
 30
0.0
  0
SPLINE
  5
157
330
1F
100
AcDbEntity
  8
0
  6
Continuous
 62
     7
370
    25
100
AcDbSpline
210
0.0
220
0.0
230
1.0
 70
     8
 71
     3
 72
    18
 73
    14
 74
     0
 42
0.00000001
 43
0.00000001
 40
0.0
 40
0.0
 40
0.0
 40
0.0
 40
0.029360860843201
 40
0.1260941245540157
 40
0.2237712470201815
 40
0.3228007575178316
 40
0.4236656343999829
 40
0.5257276973668578
 40
0.6290741973771623
 40
0.7338438183856238
 40
0.839580188873214
 40
0.9460161119897645
 40
1.0
 40
1.0
 40
1.0
 40
1.0
 10
72.59128334083209
 20
240.9986269180105
 30
0.0
 10
72.64054000041081
 20
240.9668035033953
 30
0.0
 10
72.85207928058388
 20
240.8301336139241
 30
0.0
 10
73.30319222010473
 20
240.54151883078
 30
0.0
 10
73.94730470224623
 20
240.1328863405324
 30
0.0
 10
74.67809769658876
 20
239.6745441441606
 30
0.0
 10
75.48907488187803
 20
239.1720815877165
 30
0.0
 10
76.38315845097881
 20
238.6262092021394
 30
0.0
 10
77.35786376548178
 20
238.041319377334
 30
0.0
 10
78.41141187226549
 20
237.4210065854641
 30
0.0
 10
79.54598680273065
 20
236.7686264931731
 30
0.0
 10
80.54360548288888
 20
236.2053803224637
 30
0.0
 10
81.18620921188855
 20
235.8562556056998
 30
0.0
 10
81.40245586806907
 20
235.7387694331441
 30
0.0
  0
SPLINE
  5
158
330
1F
100
AcDbEntity
  8
0
  6
Continuous
 62
     7
370
    25
100
AcDbSpline
210
0.0
220
0.0
230
1.0
 70
     8
 71
     3
 72
     9
 73
     5
 74
     0
 42
0.00000001
 43
0.00000001
 40
0.0
 40
0.0
 40
0.0
 40
0.0
 40
0.7356226096355173
 40
1.0
 40
1.0
 40
1.0
 40
1.0
 10
72.50653039778754
 20
241.007923972241
 30
0.0
 10
72.53621938319819
 20
241.0029691179992
 30
0.0
 10
72.57657837301412
 20
240.9962335253504
 30
0.0
 10
72.6161114079927
 20
240.9801153081222
 30
0.0
 10
72.62656304861353
 20
240.9758540159141
 30
0.0
  0
LINE
  5
159
330
1F
100
AcDbEntity
  8
0
  6
Continuous
 62
     7
370
    25
100
AcDbLine
 10
148.8119902558
 20
240.9579260074
 30
0.0
 11
148.9647531245
 21
241.0024525707
 31
0.0
  0
LINE
  5
15A
330
1F
100
AcDbEntity
  8
0
  6
Continuous
 62
     7
370
    25
100
AcDbLine
 10
148.9661079945
 20
241.0103507701
 30
0.0
 11
149.0943879401
 21
241.0386338667
 31
0.0
  0
LINE
  5
15B
330
1F
100
AcDbEntity
  8
0
  6
Continuous
 62
     7
370
    25
100
AcDbLine
 10
72.3773653999
 20
241.0381974988
 30
0.0
 11
72.5046575545
 21
241.0099284707
 31
0.0
  0
LINE
  5
15C
330
1F
100
AcDbEntity
  8
0
  6
Continuous
 62
     7
370
    25
100
AcDbLine
 10
55.0815200522
 20
242.0343317677
 30
0.0
 11
55.0889314537
 21
242.0330871975
 31
0.0
  0
ARC
  5
15D
330
1F
100
AcDbEntity
  8
0
  6
Continuous
 62
     7
370
    25
100
AcDbCircle
 10
55.1514658952
 20
242.4281687632
 30
0.0
 40
0.3999999999998482
100
AcDbArc
 50
179.1412291003
 51
259.9292207998
  0
LINE
  5
15E
330
1F
100
AcDbEntity
  8
0
  6
Continuous
 62
     7
370
    25
100
AcDbLine
 10
54.8364178892
 20
245.6775913768
 30
0.0
 11
54.75150064
 21
242.4347324619
 31
0.0
  0
ARC
  5
15F
330
1F
100
AcDbEntity
  8
0
  6
Continuous
 62
     7
370
    25
100
AcDbCircle
 10
166.3191641318
 20
242.4281687654
 30
0.0
 40
0.4000000000000293
100
AcDbArc
 50
278.9942980907
 51
0.5441826175
  0
LINE
  5
160
330
1F
100
AcDbEntity
  8
0
  6
Continuous
 62
     7
370
    25
100
AcDbLine
 10
166.7191293734
 20
242.4347324619
 30
0.0
 11
166.6342121242
 21
245.6775913768
 31
0.0
  0
ARC
  5
161
330
1F
100
AcDbEntity
  8
0
  6
Continuous
 62
     7
370
    25
100
AcDbCircle
 10
56.8358092985
 20
245.6281687654
 30
0.0
 40
1.999999999927826
100
AcDbArc
 50
122.6158171491
 51
178.6032473715
  0
ARC
  5
162
330
1F
100
AcDbEntity
  8
0
  6
Continuous
 62
     7
370
    25
100
AcDbCircle
 10
164.634820715
 20
245.6281687654
 30
0.0
 40
1.999999999927769
100
AcDbArc
 50
1.3558763645
 51
57.3626441174
  0
LINE
  5
163
330
1F
100
AcDbEntity
  8
0
  6
Continuous
 62
     7
370
    25
100
AcDbLine
 10
153.2808654765
 20
241.2648768868
 30
0.0
 11
156.7353150067
 21
241.2648768868
 31
0.0
  0
LINE
  5
164
330
1F
100
AcDbEntity
  8
0
  6
Continuous
 62
     7
370
    25
100
AcDbLine
 10
64.7353150067
 20
241.2648768868
 30
0.0
 11
68.189757279
 21
241.2648768868
 31
0.0
  0
SPLINE
  5
165
330
1F
100
AcDbEntity
  8
0
  6
Continuous
 62
     7
370
    25
100
AcDbSpline
210
0.0
220
0.0
230
1.0
 70
     8
 71
     3
 72
    28
 73
    24
 74
     0
 42
0.00000001
 43
0.00000001
 40
0.0
 40
0.0
 40
0.0
 40
0.0
 40
0.0262209185469519
 40
0.1124665926868485
 40
0.1981226181686835
 40
0.2828271841059921
 40
0.3663837916665824
 40
0.4487592585197901
 40
0.5312670814605336
 40
0.6138975776315136
 40
0.6960360231566907
 40
0.7773169697828393
 40
0.8576032626884234
 40
0.9373645513429273
 40
0.9429180979879812
 40
0.9462081574532544
 40
0.948456792009853
 40
0.9535427622296083
 40
0.9619926500397775
 40
0.9723487841068494
 40
0.9858614078323462
 40
0.9992922277426866
 40
1.0
 40
1.0
 40
1.0
 40
1.0
 10
61.87393962234797
 20
247.0901322593145
 30
0.0
 10
61.78498965703366
 20
247.0940459971043
 30
0.0
 10
61.40346604638665
 20
247.1108327756872
 30
0.0
 10
60.76298322285728
 20
247.1504892350478
 30
0.0
 10
59.96789009471089
 20
247.2067835857304
 30
0.0
 10
59.23481231716627
 20
247.2691720042004
 30
0.0
 10
58.57064659870443
 20
247.3342134081697
 30
0.0
 10
57.98013864544156
 20
247.3973691560527
 30
0.0
 10
57.46426841422959
 20
247.457174351393
 30
0.0
 10
57.02788106483442
 20
247.5113322293924
 30
0.0
 10
56.67706406138302
 20
247.5575221807428
 30
0.0
 10
56.42213563454664
 20
247.5929134577585
 30
0.0
 10
56.2498915492962
 20
247.617477128647
 30
0.0
 10
56.22984463545227
 20
247.6212694046793
 30
0.0
 10
56.19255173619219
 20
247.625721734847
 30
0.0
 10
56.1776505269295
 20
247.627157451682
 30
0.0
 10
56.14741679686478
 20
247.6285333189995
 30
0.0
 10
56.09062369518662
 20
247.6260172479117
 30
0.0
 10
56.00831883286079
 20
247.6066508663011
 30
0.0
 10
55.90402962791126
 20
247.5533675739208
 30
0.0
 10
55.81448401531669
 20
247.4560150804088
 30
0.0
 10
55.761210018756
 20
247.3655555704174
 30
0.0
 10
55.75997948520912
 20
247.3153569429644
 30
0.0
 10
55.75991788519296
 20
247.3128440197931
 30
0.0
  0
SPLINE
  5
166
330
1F
100
AcDbEntity
  8
0
  6
Continuous
 62
     7
370
    25
100
AcDbSpline
210
0.0
220
0.0
230
1.0
 70
     8
 71
     3
 72
    14
 73
    10
 74
     0
 42
0.00000001
 43
0.00000001
 40
0.0
 40
0.0
 40
0.0
 40
0.0
 40
0.0163844375965992
 40
0.2273110247786068
 40
0.438460892800147
 40
0.6480900743659995
 40
0.8549976933969554
 40
0.9560087876498561
 40
1.0
 40
1.0
 40
1.0
 40
1.0
 10
57.41510395516833
 20
247.4639433677689
 30
0.0
 10
57.40226968077629
 20
247.4654376127103
 30
0.0
 10
57.22421217668795
 20
247.4861681594188
 30
0.0
 10
56.95404215886624
 20
247.5207381954517
 30
0.0
 10
56.61851066109462
 20
247.5645624053026
 30
0.0
 10
56.38216915055111
 20
247.597542035897
 30
0.0
 10
56.26473531189139
 20
247.6147213253888
 30
0.0
 10
56.22373151385344
 20
247.6210607939946
 30
0.0
 10
56.22036338743317
 20
247.621613061345
 30
0.0
 10
56.21934155565653
 20
247.621780609785
 30
0.0
  0
ARC
  5
167
330
1F
100
AcDbEntity
  8
0
  6
Continuous
 62
     7
370
    25
100
AcDbCircle
 10
165.3217093192
 20
247.2281687463
 30
0.0
 40
0.3999999946317931
100
AcDbArc
 50
12.2120755284
 51
98.0233114073
  0
SPLINE
  5
168
330
1F
100
AcDbEntity
  8
0
  6
Continuous
 62
     7
370
    25
100
AcDbSpline
210
0.0
220
0.0
230
1.0
 70
     8
 71
     3
 72
    20
 73
    16
 74
     0
 42
0.00000001
 43
0.00000001
 40
0.0
 40
0.0
 40
0.0
 40
0.0
 40
0.04354887402431
 40
0.126903133801264
 40
0.2099097679909958
 40
0.2928599490122942
 40
0.3772765331518456
 40
0.4622344669210038
 40
0.5471748872676951
 40
0.633840176495719
 40
0.7211473655227665
 40
0.8085714749952244
 40
0.8974620598715379
 40
0.9869055713701936
 40
1.0
 40
1.0
 40
1.0
 40
1.0
 10
165.2658800186421
 20
247.6242455177689
 30
0.0
 10
165.2632888681983
 20
247.6238759130389
 30
0.0
 10
165.255738153769
 20
247.6227988703013
 30
0.0
 10
165.171881472296
 20
247.6110085309359
 30
0.0
 10
164.9857456694686
 20
247.5851860072217
 30
0.0
 10
164.7089594074931
 20
247.547831548919
 30
0.0
 10
164.3448917733559
 20
247.5005714643451
 30
0.0
 10
163.8963510873419
 20
247.4453095838899
 30
0.0
 10
163.3682200232006
 20
247.3844248110711
 30
0.0
 10
162.7649043546959
 20
247.320454276558
 30
0.0
 10
162.0921303072299
 20
247.2562713817977
 30
0.0
 10
161.357976981045
 20
247.194435553572
 30
0.0
 10
160.5665629780466
 20
247.1390700629248
 30
0.0
 10
159.9747192991958
 20
247.1024115456025
 30
0.0
 10
159.6425559853417
 20
247.0883769164269
 30
0.0
 10
159.6001376492483
 20
247.0865846486101
 30
0.0
  0
LINE
  5
169
330
1F
100
AcDbEntity
  8
0
  6
Continuous
 62
     7
370
    25
100
AcDbLine
 10
144.5632311639
 20
247.1311953151
 30
0.0
 11
144.5805858592
 21
247.6281687656
 31
0.0
  0
LINE
  5
16A
330
1F
100
AcDbEntity
  8
0
  6
Continuous
 62
     7
370
    25
100
AcDbLine
 10
108.0618590619
 20
247.6281687656
 30
0.0
 11
104.2354369156
 21
247.6281687656
 31
0.0
  0
LINE
  5
16B
330
1F
100
AcDbEntity
  8
0
  6
Continuous
 62
     7
370
    25
100
AcDbLine
 10
144.5763751571
 20
247.6281687656
 30
0.0
 11
140.4145131876
 21
247.6281687656
 31
0.0
  0
LINE
  5
16C
330
1F
100
AcDbEntity
  8
0
  6
Continuous
 62
     7
370
    25
100
AcDbLine
 10
140.4353150067
 20
247.6281687656
 30
0.0
 11
108.0618590619
 21
247.6281687656
 31
0.0
  0
ARC
  5
16D
330
1F
100
AcDbEntity
  8
0
  6
Continuous
 62
     7
370
    25
100
AcDbCircle
 10
83.7353150067
 20
195.6281687656
 30
0.0
 40
1.0
100
AcDbArc
 50
180.0
 51
270.0
  0
ARC
  5
16E
330
1F
100
AcDbEntity
  8
0
  6
Continuous
 62
     7
370
    25
100
AcDbCircle
 10
99.7353150067
 20
195.6281687656
 30
0.0
 40
1.0
100
AcDbArc
 50
270.0
 51
0.0
  0
LINE
  5
16F
330
1F
100
AcDbEntity
  8
0
  6
Continuous
 62
     7
370
    25
100
AcDbLine
 10
100.7353150067
 20
197.8281687656
 30
0.0
 11
100.7353150067
 21
198.6281687656
 31
0.0
  0
LINE
  5
170
330
1F
100
AcDbEntity
  8
0
  6
Continuous
 62
     7
370
    25
100
AcDbLine
 10
100.7353150067
 20
195.6281687656
 30
0.0
 11
100.7353150067
 21
197.0281687656
 31
0.0
  0
LINE
  5
171
330
1F
100
AcDbEntity
  8
0
  6
Continuous
 62
     7
370
    25
100
AcDbLine
 10
82.7353150067
 20
197.0281687656
 30
0.0
 11
82.7353150067
 21
195.6281687656
 31
0.0
  0
LINE
  5
172
330
1F
100
AcDbEntity
  8
0
  6
Continuous
 62
     7
370
    25
100
AcDbLine
 10
82.7353150067
 20
198.6281687656
 30
0.0
 11
82.7353150067
 21
197.8281687656
 31
0.0
  0
LINE
  5
173
330
1F
100
AcDbEntity
  8
0
  6
Continuous
 62
     7
370
    25
100
AcDbLine
 10
72.5059505088
 20
244.514605166
 30
0.0
 11
72.4318701448
 21
241.3715812165
 31
0.0
  0
SPLINE
  5
174
330
1F
100
AcDbEntity
  8
0
  6
Continuous
 62
     7
370
    25
100
AcDbSpline
210
0.0
220
0.0
230
1.0
 70
     8
 71
     3
 72
    52
 73
    48
 74
     0
 42
0.00000001
 43
0.00000001
 40
0.0
 40
0.0
 40
0.0
 40
0.0
 40
0.0625
 40
0.0625
 40
0.125
 40
0.125
 40
0.1875
 40
0.1875
 40
0.2187500000000001
 40
0.2187500000000001
 40
0.2500000000000001
 40
0.2500000000000001
 40
0.3125
 40
0.3125
 40
0.34375
 40
0.34375
 40
0.375
 40
0.375
 40
0.4375000000000001
 40
0.4375000000000001
 40
0.4687500000000001
 40
0.4687500000000001
 40
0.4843750000000001
 40
0.4843750000000001
 40
0.5000000000000001
 40
0.5000000000000001
 40
0.5625000000000001
 40
0.5625000000000001
 40
0.5937500000000001
 40
0.5937500000000001
 40
0.6250000000000001
 40
0.6250000000000001
 40
0.6562500000000001
 40
0.6562500000000001
 40
0.6875000000000001
 40
0.6875000000000001
 40
0.7500000000000001
 40
0.7500000000000001
 40
0.8125000000000001
 40
0.8125000000000001
 40
0.8750000000000001
 40
0.8750000000000001
 40
0.9062500000000001
 40
0.9062500000000001
 40
0.9375000000000001
 40
0.9375000000000001
 40
1.0
 40
1.0
 40
1.0
 40
1.0
 10
148.9647106097278
 20
244.5146266754137
 30
0.0
 10
148.3336155167696
 20
244.078219813169
 30
0.0
 10
147.5430306659589
 20
243.5361775349084
 30
0.0
 10
145.6679327008769
 20
242.2787400574991
 30
0.0
 10
144.5745861080256
 20
241.5577197717079
 30
0.0
 10
142.1695908882551
 20
240.0224920505779
 30
0.0
 10
140.853069212019
 20
239.2045546174091
 30
0.0
 10
138.7083373051797
 20
237.9336603867189
 30
0.0
 10
137.9649042674709
 20
237.5026911196969
 30
0.0
 10
136.418608933941
 20
236.6318078111084
 30
0.0
 10
135.6144109292618
 20
236.1912906342052
 30
0.0
 10
133.1451632434367
 20
234.8861727578357
 30
0.0
 10
131.4132302014618
 20
234.0308784758173
 30
0.0
 10
128.6681610109408
 20
232.818932351601
 30
0.0
 10
127.728414646492
 20
232.4269286241244
 30
0.0
 10
125.7934242334227
 20
231.677670226135
 30
0.0
 10
124.7927793364429
 20
231.3187068081467
 30
0.0
 10
121.738531018442
 20
230.3280768943544
 30
0.0
 10
119.6422540496263
 20
229.7839843446746
 30
0.0
 10
116.389703258572
 20
229.2137815280793
 30
0.0
 10
115.2874074082386
 20
229.0648217922918
 30
0.0
 10
113.6037318024711
 20
228.9126552598783
 30
0.0
 10
113.0358028151286
 20
228.8738213679758
 30
0.0
 10
111.906988250129
 20
228.8220037391848
 30
0.0
 10
111.3443056294603
 20
228.808785610019
 30
0.0
 10
108.5393639539341
 20
228.8052212605727
 30
0.0
 10
106.3225184258486
 20
229.0037343933939
 30
0.0
 10
103.0349356469196
 20
229.5689941321856
 30
0.0
 10
101.9431521049399
 20
229.8028391040992
 30
0.0
 10
99.82397290588055
 20
230.3357191664533
 30
0.0
 10
98.78945698685473
 20
230.6356954194248
 30
0.0
 10
96.76460956673836
 20
231.2888341661946
 30
0.0
 10
95.77428870223368
 20
231.6420101375654
 30
0.0
 10
93.8335280718045
 20
232.3898177679561
 30
0.0
 10
92.87967020737284
 20
232.7860056665384
 30
0.0
 10
90.10017105883367
 20
234.0097987288066
 30
0.0
 10
88.36287655088323
 20
234.8674949287619
 30
0.0
 10
85.08275656466598
 20
236.599036914043
 30
0.0
 10
83.54026442687764
 20
237.473474674669
 30
0.0
 10
80.6424386876783
 20
239.1890236274013
 30
0.0
 10
79.3145074366787
 20
240.0140441338945
 30
0.0
 10
77.5079356302202
 20
241.1670452243939
 30
0.0
 10
76.93637746101733
 20
241.5376013537936
 30
0.0
 10
75.85631516454812
 20
242.2459845267519
 30
0.0
 10
75.346183312858
 20
242.5849177636966
 30
0.0
 10
73.93025815784534
 20
243.5343152847845
 30
0.0
 10
73.13737666819794
 20
244.0779695344722
 30
0.0
 10
72.50595050879699
 20
244.5146051660136
 30
0.0
  0
LWPOLYLINE
  5
175
330
1F
100
AcDbEntity
  8
0
  6
Continuous
 62
     7
370
    25
100
AcDbPolyline
 90
        3
 70
   128
 43
0.0
 10
148.9647106097
 20
244.5146266754
 10
148.9718624754
 20
244.2112046335
 10
149.0387885975
 20
241.3716133373
  0
SPLINE
  5
176
330
1F
100
AcDbEntity
  8
0
  6
Continuous
 62
     7
370
    25
100
AcDbSpline
210
0.0
220
0.0
230
1.0
 70
     8
 71
     3
 72
     8
 73
     4
 74
     0
 42
0.00000001
 43
0.00000001
 40
0.0
 40
0.0
 40
0.0
 40
0.0
 40
0.000014928912291
 40
0.000014928912291
 40
0.000014928912291
 40
0.000014928912291
 10
149.0403261003981
 20
241.3418918408067
 30
0.0
 10
149.0395358658234
 20
241.351660579972
 30
0.0
 10
149.0390230704593
 20
241.3616642735896
 30
0.0
 10
149.0387885974825
 20
241.3716133373044
 30
0.0
  0
SPLINE
  5
177
330
1F
100
AcDbEntity
  8
0
  6
Continuous
 62
     7
370
    25
100
AcDbSpline
210
0.0
220
0.0
230
1.0
 70
     8
 71
     3
 72
    12
 73
     8
 74
     0
 42
0.00000001
 43
0.00000001
 40
0.0
 40
0.0
 40
0.0
 40
0.0
 40
0.2500000000000001
 40
0.2500000000000001
 40
0.5000000000000001
 40
0.5000000000000001
 40
1.0
 40
1.0
 40
1.0
 40
1.0
 10
140.177988210992
 20
236.1022571136133
 30
0.0
 10
141.1819147884048
 20
236.644524959302
 30
0.0
 10
142.126763028948
 20
237.1738266906728
 30
0.0
 10
143.8871107824779
 20
238.1848100370023
 30
0.0
 10
144.7072245800657
 20
238.6692198942907
 30
0.0
 10
146.9474063307329
 20
240.0167646906132
 30
0.0
 10
148.1507849235796
 20
240.7746228218521
 30
0.0
 10
149.0403261003981
 20
241.3418918408067
 30
0.0
  0
SPLINE
  5
178
330
1F
100
AcDbEntity
  8
0
  6
Continuous
 62
     7
370
    25
100
AcDbSpline
210
0.0
220
0.0
230
1.0
 70
     8
 71
     3
 72
    34
 73
    30
 74
     0
 42
0.00000001
 43
0.00000001
 40
0.0
 40
0.0
 40
0.0
 40
0.0
 40
0.1249999999999999
 40
0.1249999999999999
 40
0.1874999999999999
 40
0.1874999999999999
 40
0.2499999999999999
 40
0.2499999999999999
 40
0.3124999999999999
 40
0.3124999999999999
 40
0.3437499999999998
 40
0.3437499999999998
 40
0.3749999999999998
 40
0.3749999999999998
 40
0.4999999999999999
 40
0.4999999999999999
 40
0.5312499999999999
 40
0.5312499999999999
 40
0.5624999999999999
 40
0.5624999999999999
 40
0.6249999999999998
 40
0.6249999999999998
 40
0.7499999999999999
 40
0.7499999999999999
 40
0.8124999999999999
 40
0.8124999999999999
 40
0.8749999999999998
 40
0.8749999999999998
 40
1.0
 40
1.0
 40
1.0
 40
1.0
 10
81.29264180240924
 20
236.1022571136257
 30
0.0
 10
83.12307762312382
 20
235.1135528482912
 30
0.0
 10
85.12379741990976
 20
234.0955813685349
 30
0.0
 10
88.38523535666718
 20
232.6097287777417
 30
0.0
 10
89.51680919316293
 20
232.121108670387
 30
0.0
 10
91.87837963480655
 20
231.1738403534218
 30
0.0
 10
93.09330803973693
 20
230.7213860664694
 30
0.0
 10
95.5913219839365
 20
229.8784003709035
 30
0.0
 10
96.8752253404493
 20
229.4874963584892
 30
0.0
 10
98.85971550884965
 20
228.96248755196
 30
0.0
 10
99.53101311840747
 20
228.7977366365295
 30
0.0
 10
100.8946463850332
 20
228.4916975808795
 30
0.0
 10
101.5863324234626
 20
228.3506944170319
 30
0.0
 10
105.050136897158
 20
227.7201927068398
 30
0.0
 10
107.8758523379571
 20
227.4466481334145
 30
0.0
 10
111.4838103049938
 20
227.448773875424
 30
0.0
 10
112.2117316558061
 20
227.4665044647622
 30
0.0
 10
113.6565760930309
 20
227.5359969087874
 30
0.0
 10
114.3747747899011
 20
227.587628964492
 30
0.0
 10
116.5170919847863
 20
227.790938599214
 30
0.0
 10
117.9312341994353
 20
227.9915020830413
 30
0.0
 10
122.1129612919489
 20
228.7642941158501
 30
0.0
 10
124.7215888926645
 20
229.4848407782497
 30
0.0
 10
128.4288775019557
 20
230.7402778510135
 30
0.0
 10
129.6298111535101
 20
231.1884159389781
 30
0.0
 10
131.9670384490555
 20
232.1269119939799
 30
0.0
 10
133.1083348319035
 20
232.6197713430122
 30
0.0
 10
136.3753197155516
 20
234.1093908364363
 30
0.0
 10
138.3635119105063
 20
235.1221733339279
 30
0.0
 10
140.177988210992
 20
236.1022571136133
 30
0.0
  0
SPLINE
  5
179
330
1F
100
AcDbEntity
  8
0
  6
Continuous
 62
     7
370
    25
100
AcDbSpline
210
0.0
220
0.0
230
1.0
 70
     8
 71
     3
 72
    12
 73
     8
 74
     0
 42
0.00000001
 43
0.00000001
 40
0.0
 40
0.0
 40
0.0
 40
0.0
 40
0.5000000000000002
 40
0.5000000000000002
 40
0.7500000000000001
 40
0.7500000000000001
 40
1.0
 40
1.0
 40
1.0
 40
1.0
 10
72.43033331871146
 20
241.3418730885205
 30
0.0
 10
73.31987687482328
 20
240.7746028004509
 30
0.0
 10
74.52325384086367
 20
240.016746147671
 30
0.0
 10
76.76342808119121
 20
238.6692064717541
 30
0.0
 10
77.58353829677284
 20
238.1847989364111
 30
0.0
 10
79.3438775831972
 20
237.1738207546532
 30
0.0
 10
80.28872086423462
 20
236.6445219132975
 30
0.0
 10
81.29264180240925
 20
236.1022571136257
 30
0.0
  0
SPLINE
  5
17A
330
1F
100
AcDbEntity
  8
0
  6
Continuous
 62
     7
370
    25
100
AcDbSpline
210
0.0
220
0.0
230
1.0
 70
     8
 71
     3
 72
     8
 73
     4
 74
     0
 42
0.00000001
 43
0.00000001
 40
0.0
 40
0.0
 40
0.0
 40
0.0
 40
0.000014922198712
 40
0.000014922198712
 40
0.000014922198712
 40
0.000014922198712
 10
72.43187014478502
 20
241.3715812164614
 30
0.0
 10
72.43163577050869
 20
241.3616366267453
 30
0.0
 10
72.43112320193526
 20
241.3516374349614
 30
0.0
 10
72.43033331871146
 20
241.3418730885205
 30
0.0
  0
LINE
  5
17B
330
1F
100
AcDbEntity
  8
0
  6
Continuous
 62
     7
370
    25
100
AcDbLine
 10
140.0690882984
 20
235.736890493
 30
0.0
 11
140.0750707579
 21
235.7399635309
 31
0.0
  0
SPLINE
  5
17C
330
1F
100
AcDbEntity
  8
0
  6
Continuous
 62
     7
370
    25
100
AcDbSpline
210
0.0
220
0.0
230
1.0
 70
     8
 71
     3
 72
     8
 73
     4
 74
     0
 42
0.00000001
 43
0.00000001
 40
0.0
 40
0.0
 40
0.0
 40
0.0
 40
0.0000711123862601
 40
0.0000711123862601
 40
0.0000711123862601
 40
0.0000711123862601
 10
148.9531191226367
 20
244.6561328214576
 30
0.0
 10
148.9597522831826
 20
244.609601876497
 30
0.0
 10
148.9635935545199
 20
244.5620180477797
 30
0.0
 10
148.9647106097282
 20
244.5146266754138
 30
0.0
  0
SPLINE
  5
17D
330
1F
100
AcDbEntity
  8
0
  6
Continuous
 62
     7
370
    25
100
AcDbSpline
210
0.0
220
0.0
230
1.0
 70
     8
 71
     3
 72
     8
 73
     4
 74
     0
 42
0.00000001
 43
0.00000001
 40
0.0
 40
0.0
 40
0.0
 40
0.0
 40
0.0000710847669618
 40
0.0000710847669618
 40
0.0000710847669618
 40
0.0000710847669618
 10
72.50595050879699
 20
244.5146051660136
 30
0.0
 10
72.5070671621533
 20
244.5619781326767
 30
0.0
 10
72.51090652266937
 20
244.6095435128357
 30
0.0
 10
72.51753621496377
 20
244.6560563210611
 30
0.0
  0
SPLINE
  5
17E
330
1F
100
AcDbEntity
  8
0
  6
Continuous
 62
     7
370
    25
100
AcDbSpline
210
0.0
220
0.0
230
1.0
 70
     8
 71
     3
 72
    16
 73
    12
 74
     0
 42
0.00000001
 43
0.00000001
 40
0.0
 40
0.0
 40
0.0
 40
0.0
 40
0.2500000000000016
 40
0.2500000000000016
 40
0.5000000000000031
 40
0.5000000000000031
 40
0.7500000000000047
 40
0.7500000000000047
 40
0.8750000000000023
 40
0.8750000000000023
 40
1.0
 40
1.0
 40
1.0
 40
1.0
 10
72.51753621496313
 20
244.6560563210611
 30
0.0
 10
72.55123125477677
 20
244.8924550640803
 30
0.0
 10
72.6223045667553
 20
245.120538849753
 30
0.0
 10
72.83436225421298
 20
245.5504738343715
 30
0.0
 10
72.97223669980873
 20
245.7449967460043
 30
0.0
 10
73.29917905969124
 20
246.0789894564481
 30
0.0
 10
73.48587437145065
 20
246.2155900534331
 30
0.0
 10
73.78573969379795
 20
246.3654445205416
 30
0.0
 10
73.88792478880072
 20
246.4058093808074
 30
0.0
 10
74.0967044002643
 20
246.4676172260922
 30
0.0
 10
74.2051410349922
 20
246.4891714736106
 30
0.0
 10
74.3108896119976
 20
246.500133912186
 30
0.0
  0
SPLINE
  5
17F
330
1F
100
AcDbEntity
  8
0
  6
Continuous
 62
     7
370
    25
100
AcDbSpline
210
0.0
220
0.0
230
1.0
 70
     8
 71
     3
 72
    52
 73
    48
 74
     0
 42
0.00000001
 43
0.00000001
 40
0.0
 40
0.0
 40
0.0
 40
0.0
 40
0.0625000000000001
 40
0.0625000000000001
 40
0.0937500000000001
 40
0.0937500000000001
 40
0.1250000000000001
 40
0.1250000000000001
 40
0.1875
 40
0.1875
 40
0.25
 40
0.25
 40
0.3124999999999999
 40
0.3124999999999999
 40
0.34375
 40
0.34375
 40
0.375
 40
0.375
 40
0.4062500000000001
 40
0.4062500000000001
 40
0.4375000000000001
 40
0.4375000000000001
 40
0.5000000000000001
 40
0.5000000000000001
 40
0.5312500000000001
 40
0.5312500000000001
 40
0.5625000000000002
 40
0.5625000000000002
 40
0.6250000000000002
 40
0.6250000000000002
 40
0.6562500000000002
 40
0.6562500000000002
 40
0.6875000000000003
 40
0.6875000000000003
 40
0.7500000000000002
 40
0.7500000000000002
 40
0.7812500000000003
 40
0.7812500000000003
 40
0.8125000000000003
 40
0.8125000000000003
 40
0.8750000000000003
 40
0.8750000000000003
 40
0.9062500000000003
 40
0.9062500000000003
 40
0.9375000000000002
 40
0.9375000000000002
 40
1.0
 40
1.0
 40
1.0
 40
1.0
 10
74.31088961199767
 20
246.500133912186
 30
0.0
 10
74.88661431391566
 20
246.0639009386966
 30
0.0
 10
75.61506952120848
 20
245.5163573773914
 30
0.0
 10
76.92250377022381
 20
244.5547145920828
 30
0.0
 10
77.39560216000729
 20
244.209795205399
 30
0.0
 10
78.39969557578019
 20
243.4868971401388
 30
0.0
 10
78.93190853970225
 20
243.1080006574343
 30
0.0
 10
80.61657355935886
 20
241.9268140488776
 30
0.0
 10
81.85620379689692
 20
241.0799231496795
 30
0.0
 10
84.57552817053543
 20
239.3074249326869
 30
0.0
 10
86.03161913405633
 20
238.3972613826287
 30
0.0
 10
89.13270353793651
 20
236.5893335647328
 30
0.0
 10
90.77955904008536
 20
235.6894268895032
 30
0.0
 10
93.42505683024305
 20
234.3970962198298
 30
0.0
 10
94.3376855573612
 20
233.9758298334164
 30
0.0
 10
96.1979282140127
 20
233.1783415555299
 30
0.0
 10
97.14903068551726
 20
232.8003045947121
 30
0.0
 10
99.09845651899457
 20
232.0985390700884
 30
0.0
 10
100.0967624483293
 20
231.7747868136976
 30
0.0
 10
102.1479188859806
 20
231.1972244806665
 30
0.0
 10
103.2085810340033
 20
230.9421183180375
 30
0.0
 10
106.4168240443426
 20
230.3226614027537
 30
0.0
 10
108.5889398114343
 20
230.1025909095476
 30
0.0
 10
111.9025646661621
 20
230.1089144816612
 30
0.0
 10
113.0251324821979
 20
230.1683427278034
 30
0.0
 10
115.2191652390171
 20
230.3933743406127
 30
0.0
 10
116.2933138903399
 20
230.5576350376982
 30
0.0
 10
119.4552012403653
 20
231.1822386010259
 30
0.0
 10
121.4828560313178
 20
231.773662386047
 30
0.0
 10
124.4269356777562
 20
232.8407749741282
 30
0.0
 10
125.3846012958821
 20
233.2241817281265
 30
0.0
 10
127.2341786314449
 20
234.0216210972089
 30
0.0
 10
128.1303492227934
 20
234.4372217869866
 30
0.0
 10
130.7433727420043
 20
235.7177231232578
 30
0.0
 10
132.3855853390401
 20
236.6157036948132
 30
0.0
 10
134.7204826920348
 20
237.9791052026499
 30
0.0
 10
135.4785880652998
 20
238.4374859682002
 30
0.0
 10
136.931755816172
 20
239.3400232976852
 30
0.0
 10
137.6295345479902
 20
239.785721848776
 30
0.0
 10
139.6402319968763
 20
241.0976229679747
 30
0.0
 10
140.8712901288571
 20
241.938685379502
 30
0.0
 10
142.5534967440612
 20
243.1184683681611
 30
0.0
 10
143.0879696713078
 20
243.4990628831413
 30
0.0
 10
144.0931680978831
 20
244.2229576023399
 30
0.0
 10
144.560839773482
 20
244.5640220757815
 30
0.0
 10
145.8586974983179
 20
245.5187532790655
 30
0.0
 10
146.5846686355355
 20
246.0643952316989
 30
0.0
 10
147.1598198016373
 20
246.5001940746345
 30
0.0
  0
SPLINE
  5
180
330
1F
100
AcDbEntity
  8
0
  6
Continuous
 62
     7
370
    25
100
AcDbSpline
210
0.0
220
0.0
230
1.0
 70
     8
 71
     3
 72
    16
 73
    12
 74
     0
 42
0.00000001
 43
0.00000001
 40
0.0
 40
0.0
 40
0.0
 40
0.0
 40
0.25
 40
0.25
 40
0.5
 40
0.5
 40
0.75
 40
0.75
 40
0.875
 40
0.875
 40
1.0
 40
1.0
 40
1.0
 40
1.0
 10
148.9531191226367
 20
244.6561328214576
 30
0.0
 10
148.919419781062
 20
244.8925302668601
 30
0.0
 10
148.8483441193474
 20
245.1206120091846
 30
0.0
 10
148.636286501194
 20
245.5505419287784
 30
0.0
 10
148.4984145482345
 20
245.7450618529782
 30
0.0
 10
148.1714823282687
 20
246.0790492785913
 30
0.0
 10
147.984794683263
 20
246.215647651682
 30
0.0
 10
147.6849431193699
 20
246.3655011826505
 30
0.0
 10
147.5827629568613
 20
246.4058660952495
 30
0.0
 10
147.3739939227021
 20
246.4676749141873
 30
0.0
 10
147.2655629818695
 20
246.4892301483387
 30
0.0
 10
147.1598198016372
 20
246.5001940746345
 30
0.0
  0
LINE
  5
181
330
1F
100
AcDbEntity
  8
0
  6
Continuous
 62
     7
370
    25
100
AcDbLine
 10
90.7353150067
 20
247.6281687656
 30
0.0
 11
86.6772565713
 21
247.6281687656
 31
0.0
  0
LINE
  5
182
330
1F
100
AcDbEntity
  8
0
  6
Continuous
 62
     7
370
    25
100
AcDbLine
 10
92.243165299
 20
247.4734534128
 30
0.0
 11
90.8751495616
 21
247.4734534128
 31
0.0
  0
LINE
  5
183
330
1F
100
AcDbEntity
  8
0
  6
Continuous
 62
     7
370
    25
100
AcDbLine
 10
94.9382231336
 20
247.6110881453
 30
0.0
 11
92.2383589882
 21
247.6110881453
 31
0.0
  0
SPLINE
  5
184
330
1F
100
AcDbEntity
  8
0
  6
Continuous
 62
     7
370
    25
100
AcDbSpline
210
0.0
220
0.0
230
1.0
 70
     8
 71
     3
 72
    12
 73
     8
 74
     0
 42
0.00000001
 43
0.00000001
 40
0.0
 40
0.0
 40
0.0
 40
0.0
 40
0.5000000000000019
 40
0.5000000000000019
 40
0.7500000000000009
 40
0.7500000000000009
 40
1.0
 40
1.0
 40
1.0
 40
1.0
 10
105.8279909266142
 20
235.4104398003076
 30
0.0
 10
105.1785499663293
 20
235.4856855870237
 30
0.0
 10
104.632476090506
 20
235.7656986476108
 30
0.0
 10
104.0941125448836
 20
236.2691702514701
 30
0.0
 10
103.956219331513
 20
236.4538330039142
 30
0.0
 10
103.7685487776162
 20
236.8300864386798
 30
0.0
 10
103.7165517568792
 20
237.0254559878651
 30
0.0
 10
103.7098334253849
 20
237.219279560342
 30
0.0
  0
SPLINE
  5
185
330
1F
100
AcDbEntity
  8
0
  6
Continuous
 62
     7
370
    25
100
AcDbSpline
210
0.0
220
0.0
230
1.0
 70
     8
 71
     3
 72
    20
 73
    16
 74
     0
 42
0.00000001
 43
0.00000001
 40
0.0
 40
0.0
 40
0.0
 40
0.0
 40
0.0604355936096522
 40
0.1215965386992407
 40
0.2144918646710575
 40
0.3100803342574671
 40
0.4037136497024461
 40
0.5001779978465899
 40
0.5732569386351659
 40
0.647751537615622
 40
0.7283162645459041
 40
0.8110020790915163
 40
0.8948920700901943
 40
0.9814511516322095
 40
1.0
 40
1.0
 40
1.0
 40
1.0
 10
159.5180818918314
 20
247.0773915692374
 30
0.0
 10
159.2092542667693
 20
247.0642991702551
 30
0.0
 10
158.5878924496785
 20
247.0379572365629
 30
0.0
 10
157.4559714799186
 20
247.0125256705034
 30
0.0
 10
156.1221883202
 20
247.0088667190312
 30
0.0
 10
154.6309250928675
 20
247.0434097987679
 30
0.0
 10
153.1823309156315
 20
247.1129371245014
 30
0.0
 10
151.9429143322104
 20
247.2016806215667
 30
0.0
 10
150.9066896020151
 20
247.2951867531696
 30
0.0
 10
150.0481570858325
 20
247.3852883728266
 30
0.0
 10
149.2973278558182
 20
247.4741212369013
 30
0.0
 10
148.6920785711249
 20
247.5526208231895
 30
0.0
 10
148.3009848198182
 20
247.6064898029196
 30
0.0
 10
148.1297706375223
 20
247.6308850409937
 30
0.0
 10
148.1620361183009
 20
247.6263081917076
 30
0.0
 10
148.1677301464393
 20
247.6255004954331
 30
0.0
  0
SPLINE
  5
186
330
1F
100
AcDbEntity
  8
0
  6
Continuous
 62
     7
370
    25
100
AcDbSpline
210
0.0
220
0.0
230
1.0
 70
     8
 71
     3
 72
    10
 73
     6
 74
     0
 42
0.00000001
 43
0.00000001
 40
0.0
 40
0.0
 40
0.0
 40
0.0
 40
0.5
 40
0.5
 40
1.0
 40
1.0
 40
1.0
 40
1.0
 10
156.735315006712
 20
246.9988977175336
 30
0.0
 10
157.2150359550044
 20
246.9988977175336
 30
0.0
 10
157.6866532178107
 20
247.00589629792
 30
0.0
 10
158.6145109739811
 20
247.0325272380961
 30
0.0
 10
159.0739931047734
 20
247.0523571169205
 30
0.0
 10
159.5180818918314
 20
247.0773915692374
 30
0.0
  0
LINE
  5
187
330
1F
100
AcDbEntity
  8
0
  6
Continuous
 62
     7
370
    25
100
AcDbLine
 10
153.2808559255
 20
246.9988977175
 30
0.0
 11
156.7353150067
 21
246.9988977175
 31
0.0
  0
SPLINE
  5
188
330
1F
100
AcDbEntity
  8
0
  6
Continuous
 62
     7
370
    25
100
AcDbSpline
210
0.0
220
0.0
230
1.0
 70
     8
 71
     3
 72
    10
 73
     6
 74
     0
 42
0.00000001
 43
0.00000001
 40
0.0
 40
0.0
 40
0.0
 40
0.0
 40
0.5
 40
0.5
 40
1.0
 40
1.0
 40
1.0
 40
1.0
 10
147.862803091761
 20
246.6767892644273
 30
0.0
 10
148.634467507199
 20
246.7909212697674
 30
0.0
 10
149.4872614934972
 20
246.8695549397544
 30
0.0
 10
151.3409780044536
 20
246.9746054143835
 30
0.0
 10
152.2963916342254
 20
246.9988968560546
 30
0.0
 10
153.2808559255121
 20
246.9988977175262
 30
0.0
  0
SPLINE
  5
189
330
1F
100
AcDbEntity
  8
0
  6
Continuous
 62
     7
370
    25
100
AcDbSpline
210
0.0
220
0.0
230
1.0
 70
     8
 71
     3
 72
    20
 73
    16
 74
     0
 42
0.00000001
 43
0.00000001
 40
0.0
 40
0.0
 40
0.0
 40
0.0
 40
0.0001864663540625
 40
0.0001864663540625
 40
0.0001864663540625
 40
0.0003464309962154
 40
0.0003464309962154
 40
0.0003464309962154
 40
0.0003863967452833
 40
0.0003863967452833
 40
0.0003863967452833
 40
0.0004663183639314
 40
0.0004663183639314
 40
0.0004663183639314
 40
0.0005730390029174
 40
0.0005730390029174
 40
0.0005730390029174
 40
0.0005730390029174
 10
147.1598198016373
 20
246.5001940746345
 30
0.0
 10
147.2352351128954
 20
246.5202868682928
 30
0.0
 10
147.3106834745965
 20
246.5401090064842
 30
0.0
 10
147.3861637366131
 20
246.5596606074464
 30
0.0
 10
147.4509162941064
 20
246.5764334183982
 30
0.0
 10
147.5150823106522
 20
246.5930984526191
 30
0.0
 10
147.5807155317083
 20
246.6093489122046
 30
0.0
 10
147.5971138342886
 20
246.6134090504862
 30
0.0
 10
147.6137071138286
 20
246.6174276966778
 30
0.0
 10
147.6302961426921
 20
246.62143501556
 30
0.0
 10
147.6634702362106
 20
246.6294486957128
 30
0.0
 10
147.6966499482277
 20
246.6374141302016
 30
0.0
 10
147.7298351916718
 20
246.6453313297803
 30
0.0
 10
147.774147973178
 20
246.6559032918532
 30
0.0
 10
147.8184706755054
 20
246.6663892615777
 30
0.0
 10
147.862803091758
 20
246.676789264428
 30
0.0
  0
SPLINE
  5
18A
330
1F
100
AcDbEntity
  8
0
  6
Continuous
 62
     7
370
    25
100
AcDbSpline
210
0.0
220
0.0
230
1.0
 70
     8
 71
     3
 72
    14
 73
    10
 74
     0
 42
0.00000001
 43
0.00000001
 40
0.0
 40
0.0
 40
0.0
 40
0.0
 40
0.0001248036853715
 40
0.0001248036853715
 40
0.0001248036853715
 40
0.0002287105784906
 40
0.0002287105784906
 40
0.0002287105784906
 40
0.0005731877918602
 40
0.0005731877918602
 40
0.0005731877918602
 40
0.0005731877918602
 10
73.60783223477505
 20
246.6767880155725
 30
0.0
 10
73.65967492462816
 20
246.664626159495
 30
0.0
 10
73.71150433822174
 20
246.652346740564
 30
0.0
 10
73.76332014462692
 20
246.6399497180214
 30
0.0
 10
73.80646001852875
 20
246.6296284275437
 30
0.0
 10
73.84990735107527
 20
246.619273724594
 30
0.0
 10
73.89249765484082
 20
246.608708361497
 30
0.0
 10
74.03369290730063
 20
246.5736821001674
 30
0.0
 10
74.17160220264381
 20
246.5372586356357
 30
0.0
 10
74.31088961199767
 20
246.500133912186
 30
0.0
  0
SPLINE
  5
18B
330
1F
100
AcDbEntity
  8
0
  6
Continuous
 62
     7
370
    25
100
AcDbSpline
210
0.0
220
0.0
230
1.0
 70
     8
 71
     3
 72
    10
 73
     6
 74
     0
 42
0.00000001
 43
0.00000001
 40
0.0
 40
0.0
 40
0.0
 40
0.0
 40
0.5
 40
0.5
 40
1.0
 40
1.0
 40
1.0
 40
1.0
 10
68.18975727900636
 20
246.9988977175336
 30
0.0
 10
69.17422641389892
 20
246.9988977175336
 30
0.0
 10
70.12964522306545
 20
246.9746066250221
 30
0.0
 10
71.98337259497717
 20
246.8695556029542
 30
0.0
 10
72.83616722759893
 20
246.790921406165
 30
0.0
 10
73.60783223477144
 20
246.6767880155719
 30
0.0
  0
LINE
  5
18C
330
1F
100
AcDbEntity
  8
0
  6
Continuous
 62
     7
370
    25
100
AcDbLine
 10
64.7353150067
 20
246.9988977175
 30
0.0
 11
68.189757279
 21
246.9988977175
 31
0.0
  0
SPLINE
  5
18D
330
1F
100
AcDbEntity
  8
0
  6
Continuous
 62
     7
370
    25
100
AcDbSpline
210
0.0
220
0.0
230
1.0
 70
     8
 71
     3
 72
    10
 73
     6
 74
     0
 42
0.00000001
 43
0.00000001
 40
0.0
 40
0.0
 40
0.0
 40
0.0
 40
0.5
 40
0.5
 40
1.0
 40
1.0
 40
1.0
 40
1.0
 10
61.95254812156821
 20
247.0773915692389
 30
0.0
 10
62.39234231891036
 20
247.0525992142333
 30
0.0
 10
62.84495839754383
 20
247.0329363505057
 30
0.0
 10
63.77651055895034
 20
247.0060235632152
 30
0.0
 10
64.25626538714793
 20
246.9988977175336
 30
0.0
 10
64.7353150067124
 20
246.9988977175336
 30
0.0
  0
SPLINE
  5
18E
330
1F
100
AcDbEntity
  8
0
  6
Continuous
 62
     7
370
    25
100
AcDbSpline
210
0.0
220
0.0
230
1.0
 70
     8
 71
     3
 72
    20
 73
    16
 74
     0
 42
0.00000001
 43
0.00000001
 40
0.0
 40
0.0
 40
0.0
 40
0.0
 40
0.0057280263872004
 40
0.0890358733852709
 40
0.1677119378831052
 40
0.2485355728395722
 40
0.3292018801881672
 40
0.4119491845951055
 40
0.4972494274364285
 40
0.5847751791086423
 40
0.6748046752009035
 40
0.7673120961299879
 40
0.8602108376332339
 40
0.9558028217713049
 40
1.0
 40
1.0
 40
1.0
 40
1.0
 10
73.31457398492651
 20
247.6271587260212
 30
0.0
 10
73.31692288251516
 20
247.6274911857836
 30
0.0
 10
73.35343391339387
 20
247.6326589073183
 30
0.0
 10
73.21622471208478
 20
247.6131054258998
 30
0.0
 10
72.8932474710666
 20
247.5682280864163
 30
0.0
 10
72.35543223600557
 20
247.4971415956447
 30
0.0
 10
71.63261511403982
 20
247.4091110792614
 30
0.0
 10
70.73027866174876
 20
247.3111210012766
 30
0.0
 10
69.65709155590895
 20
247.2120913263369
 30
0.0
 10
68.42936950076627
 20
247.1223357856699
 30
0.0
 10
67.07181000934122
 20
247.0525900468884
 30
0.0
 10
65.62363517157114
 20
247.0126226508569
 30
0.0
 10
64.12282201137185
 20
247.0091792483269
 30
0.0
 10
62.89003969457688
 20
247.0366725159361
 30
0.0
 10
62.17775224273274
 20
247.0676100427933
 30
0.0
 10
61.95254812156761
 20
247.0773915692386
 30
0.0
  0
LINE
  5
18F
330
1F
100
AcDbEntity
  8
0
  6
Continuous
 62
     7
370
    25
100
AcDbLine
 10
110.7353150067
 20
203.6281687656
 30
0.0
 11
73.1215905166
 21
203.6281687656
 31
0.0
  0
LINE
  5
190
330
1F
100
AcDbEntity
  8
0
  6
Continuous
 62
     7
370
    25
100
AcDbLine
 10
148.3490394968
 20
203.6281687656
 30
0.0
 11
110.7353150067
 21
203.6281687656
 31
0.0
  0
ARC
  5
191
330
1F
100
AcDbEntity
  8
0
  6
Continuous
 62
     7
370
    25
100
AcDbCircle
 10
103.7484466957
 20
236.8561385948
 30
0.0
 40
0.3651880960381713
100
AcDbArc
 50
8.535759859
 51
96.0695315808
  0
LINE
  5
192
330
1F
100
AcDbEntity
  8
0
  6
Continuous
 62
     7
370
    25
100
AcDbLine
 10
104.1095897562
 20
236.910342242
 30
0.0
 11
103.7487958276
 21
247.2421285642
 31
0.0
  0
SPLINE
  5
193
330
1F
100
AcDbEntity
  8
0
  6
Continuous
 62
     7
370
    25
100
AcDbSpline
210
0.0
220
0.0
230
1.0
 70
     8
 71
     3
 72
    11
 73
     7
 74
     0
 42
0.00000001
 43
0.00000001
 40
0.0
 40
0.0
 40
0.0
 40
0.0
 40
0.0621745728017698
 40
0.3766466513102804
 40
0.6882729088502827
 40
1.0
 40
1.0
 40
1.0
 40
1.0
 10
148.8816292900079
 20
241.0041877921156
 30
0.0
 10
148.8886441917877
 20
241.0072904893518
 30
0.0
 10
148.9311396870613
 20
241.0260862843431
 30
0.0
 10
148.9870036711883
 20
241.0979167892659
 30
0.0
 10
149.0394897424259
 20
241.2107448470223
 30
0.0
 10
149.0400472843447
 20
241.2981714621701
 30
0.0
 10
149.0403261003981
 20
241.3418918408067
 30
0.0
  0
SPLINE
  5
194
330
1F
100
AcDbEntity
  8
0
  6
Continuous
 62
     7
370
    25
100
AcDbSpline
210
0.0
220
0.0
230
1.0
 70
     8
 71
     3
 72
    11
 73
     7
 74
     0
 42
0.00000001
 43
0.00000001
 40
0.0
 40
0.0
 40
0.0
 40
0.0
 40
0.0734439129742653
 40
0.3841355568307923
 40
0.6920180099119361
 40
0.9999999999999999
 40
0.9999999999999999
 40
0.9999999999999999
 40
0.9999999999999999
 10
72.5930939545372
 20
241.0022320982098
 30
0.0
 10
72.58468634946458
 20
241.0059076203947
 30
0.0
 10
72.54071183986412
 20
241.0251317971031
 30
0.0
 10
72.48358240491196
 20
241.0977613057717
 30
0.0
 10
72.43118925506805
 20
241.2107571884279
 30
0.0
 10
72.43061866157039
 20
241.2981630795958
 30
0.0
 10
72.43033331871146
 20
241.3418730885205
 30
0.0
  0
SPLINE
  5
195
330
1F
100
AcDbEntity
  8
0
  6
Continuous
 62
     7
370
    25
100
AcDbSpline
210
0.0
220
0.0
230
1.0
 70
     8
 71
     3
 72
    14
 73
    10
 74
     0
 42
0.00000001
 43
0.00000001
 40
-0.0000065992839883
 40
-0.0000065992839883
 40
-0.0000065992839883
 40
-0.0000065992839883
 40
0.0
 40
0.0
 40
0.0
 40
0.0001070402760906
 40
0.0001070402760906
 40
0.0001070402760906
 40
0.0001071002760906
 40
0.0001071002760906
 40
0.0001071002760906
 40
0.0001071002760906
 10
72.51753621496313
 20
244.6560563210611
 30
0.0
 10
72.51480180305182
 20
244.6567370891991
 30
0.0
 10
72.5120673502648
 20
244.6574175150273
 30
0.0
 10
72.50933285665512
 20
244.6580975985527
 30
0.0
 10
72.46497945201743
 20
244.6691285330124
 30
0.0
 10
72.42061526909137
 20
244.6800694213517
 30
0.0
 10
72.37624053467331
 20
244.6909202918388
 30
0.0
 10
72.37621566100741
 20
244.6909263741496
 30
0.0
 10
72.37619078733488
 20
244.6909324564316
 30
0.0
 10
72.37616591366563
 20
244.6909385386864
 30
0.0
  0
SPLINE
  5
196
330
1F
100
AcDbEntity
  8
0
  6
Continuous
 62
     7
370
    25
100
AcDbSpline
210
0.0
220
0.0
230
1.0
 70
     8
 71
     3
 72
    17
 73
    13
 74
     0
 42
0.00000001
 43
0.00000001
 40
-0.0000000597845265
 40
-0.0000000597845265
 40
-0.0000000597845265
 40
-0.0000000597845265
 40
0.0
 40
0.0
 40
0.0
 40
0.0000167985471317
 40
0.0000167985471317
 40
0.0000167985471317
 40
0.0000344561719588
 40
0.0000344561719588
 40
0.0000344561719588
 40
0.0000345161719587
 40
0.0000345161719587
 40
0.0000345161719587
 40
0.0000345161719587
 10
72.37616591366563
 20
244.6909385386864
 30
0.0
 10
72.3761415244094
 20
244.6909446592254
 30
0.0
 10
72.37611730703333
 20
244.6909572853685
 30
0.0
 10
72.3760930029115
 20
244.6909666584076
 30
0.0
 10
72.3692639125147
 20
244.6936003405255
 30
0.0
 10
72.3623923374271
 20
244.6962181643039
 30
0.0
 10
72.35547880310311
 20
244.698820051053
 30
0.0
 10
72.34821171926552
 20
244.701554995042
 30
0.0
 10
72.34089809391669
 20
244.7042723983188
 30
0.0
 10
72.33353855017648
 20
244.7069721804648
 30
0.0
 10
72.33351354267106
 20
244.7069813542423
 30
0.0
 10
72.33348853410997
 20
244.7069905277371
 30
0.0
 10
72.3334635260665
 20
244.7069997011881
 30
0.0
  0
SPLINE
  5
197
330
1F
100
AcDbEntity
  8
0
  6
Continuous
 62
     7
370
    25
100
AcDbSpline
210
0.0
220
0.0
230
1.0
 70
     8
 71
     3
 72
    11
 73
     7
 74
     0
 42
0.00000001
 43
0.00000001
 40
-0.0000000597964491
 40
-0.0000000597964491
 40
-0.0000000597964491
 40
-0.0000000597964491
 40
0.0
 40
0.0
 40
0.0
 40
0.0000734007460241
 40
0.0000734007460241
 40
0.0000734007460241
 40
0.0000734007460241
 10
72.3334635260665
 20
244.7069997011881
 30
0.0
 10
72.33343822499694
 20
244.7070087852581
 30
0.0
 10
72.33341274622101
 20
244.7070115391634
 30
0.0
 10
72.3333873562935
 20
244.7070174581102
 30
0.0
 10
72.30222096347026
 20
244.7142830252149
 30
0.0
 10
72.27104974912665
 20
244.7215075449753
 30
0.0
 10
72.23987378357054
 20
244.7286910276148
 30
0.0
  0
SPLINE
  5
198
330
1F
100
AcDbEntity
  8
0
  6
Continuous
 62
     7
370
    25
100
AcDbSpline
210
0.0
220
0.0
230
1.0
 70
     8
 71
     3
 72
     8
 73
     4
 74
     0
 42
0.00000001
 43
0.00000001
 40
0.0
 40
0.0
 40
0.0
 40
0.0
 40
0.0000328500805612
 40
0.0000328500805612
 40
0.0000328500805612
 40
0.0000328500805612
 10
72.23987378357054
 20
244.7286910276148
 30
0.0
 10
72.24026281005696
 20
244.7505834507866
 30
0.0
 10
72.241792127671
 20
244.7725183445811
 30
0.0
 10
72.24448756163702
 20
244.7942192543967
 30
0.0
  0
SPLINE
  5
199
330
1F
100
AcDbEntity
  8
0
  6
Continuous
 62
     7
370
    25
100
AcDbSpline
210
0.0
220
0.0
230
1.0
 70
     8
 71
     3
 72
    12
 73
     8
 74
     0
 42
0.00000001
 43
0.00000001
 40
0.0
 40
0.0
 40
0.0
 40
0.0
 40
0.5
 40
0.5
 40
0.75
 40
0.75
 40
1.0
 40
1.0
 40
1.0
 40
1.0
 10
72.24448756163282
 20
244.7942192543966
 30
0.0
 10
72.30237674472079
 20
245.2602844436633
 30
0.0
 10
72.47196115333402
 20
245.7064907316268
 30
0.0
 10
72.84383728230509
 20
246.2194450803148
 30
0.0
 10
72.98409074587214
 20
246.3608101463162
 30
0.0
 10
73.28743976841601
 20
246.5751754504373
 30
0.0
 10
73.447273127235
 20
246.64553817051
 30
0.0
 10
73.60783223477198
 20
246.6767880155721
 30
0.0
  0
SPLINE
  5
19A
330
1F
100
AcDbEntity
  8
0
  6
Continuous
 62
     7
370
    25
100
AcDbSpline
210
0.0
220
0.0
230
1.0
 70
     8
 71
     3
 72
     8
 73
     4
 74
     0
 42
0.00000001
 43
0.00000001
 40
0.0
 40
0.0
 40
0.0
 40
0.0
 40
0.0000328506523558
 40
0.0000328506523558
 40
0.0000328506523558
 40
0.0000328506523558
 10
149.2261442742511
 20
244.7942208284814
 30
0.0
 10
149.2288397555988
 20
244.7725195399717
 30
0.0
 10
149.230369099576
 20
244.7505842647674
 30
0.0
 10
149.230758131823
 20
244.7286914605373
 30
0.0
  0
SPLINE
  5
19B
330
1F
100
AcDbEntity
  8
0
  6
Continuous
 62
     7
370
    25
100
AcDbSpline
210
0.0
220
0.0
230
1.0
 70
     8
 71
     3
 72
    14
 73
    10
 74
     0
 42
0.00000001
 43
0.00000001
 40
0.0000000000000037
 40
0.0000000000000037
 40
0.0000000000000037
 40
0.0000000000000037
 40
0.0000597228126904
 40
0.0000597228126904
 40
0.0000597228126904
 40
0.000073402037781
 40
0.000073402037781
 40
0.000073402037781
 40
0.000073462037781
 40
0.000073462037781
 40
0.000073462037781
 40
0.000073462037781
 10
149.230758131823
 20
244.7286914605373
 30
0.0
 10
149.2053916823279
 20
244.7228465922234
 30
0.0
 10
149.1800283796773
 20
244.7169745563069
 30
0.0
 10
149.1546682617377
 20
244.7110753472829
 30
0.0
 10
149.1488596464984
 20
244.7097241613177
 30
0.0
 10
149.1430511979452
 20
244.7083715497138
 30
0.0
 10
149.1372429165335
 20
244.7070175124046
 30
0.0
 10
149.1372174401776
 20
244.7070115733094
 30
0.0
 10
149.1371919638282
 20
244.7070056341861
 30
0.0
 10
149.1371664874756
 20
244.7069996950366
 30
0.0
  0
SPLINE
  5
19C
330
1F
100
AcDbEntity
  8
0
  6
Continuous
 62
     7
370
    25
100
AcDbSpline
210
0.0
220
0.0
230
1.0
 70
     8
 71
     3
 72
    17
 73
    13
 74
     0
 42
0.00000001
 43
0.00000001
 40
-0.000000059799363
 40
-0.000000059799363
 40
-0.000000059799363
 40
-0.000000059799363
 40
0.0
 40
0.0
 40
0.0
 40
0.0000163688124661
 40
0.0000163688124661
 40
0.0000163688124661
 40
0.0000343480201969
 40
0.0000343480201969
 40
0.0000343480201969
 40
0.0000344080201968
 40
0.0000344080201968
 40
0.0000344080201968
 40
0.0000344080201968
 10
149.1371664874756
 20
244.7069996950366
 30
0.0
 10
149.1371414773087
 20
244.7069937158843
 30
0.0
 10
149.1371166300662
 20
244.7069814561791
 30
0.0
 10
149.1370917021488
 20
244.7069723364406
 30
0.0
 10
149.1302682113372
 20
244.7044760006534
 30
0.0
 10
149.1234839769435
 20
244.7019641693849
 30
0.0
 10
149.116739536618
 20
244.699436877602
 30
0.0
 10
149.1093315822673
 20
244.6966609523575
 30
0.0
 10
149.1019714511557
 20
244.6938663049903
 30
0.0
 10
149.09465984464
 20
244.6910529933792
 30
0.0
 10
149.094635444377
 20
244.6910436048073
 30
0.0
 10
149.0946110451855
 20
244.6910342159492
 30
0.0
 10
149.094586645469
 20
244.6910248270389
 30
0.0
  0
SPLINE
  5
19D
330
1F
100
AcDbEntity
  8
0
  6
Continuous
 62
     7
370
    25
100
AcDbSpline
210
0.0
220
0.0
230
1.0
 70
     8
 71
     3
 72
    14
 73
    10
 74
     0
 42
0.00000001
 43
0.00000001
 40
-0.0000000597867095
 40
-0.0000000597867095
 40
-0.0000000597867095
 40
-0.0000000597867095
 40
0.0
 40
0.0
 40
0.0
 40
0.0001070908858366
 40
0.0001070908858366
 40
0.0001070908858366
 40
0.0001136923637934
 40
0.0001136923637934
 40
0.0001136923637934
 40
0.0001136923637934
 10
149.094586645469
 20
244.6910248270389
 30
0.0
 10
149.0945619458598
 20
244.6910155292144
 30
0.0
 10
149.094537063815
 20
244.6910127079888
 30
0.0
 10
149.094512272993
 20
244.6910066484216
 30
0.0
 10
149.0501065661769
 20
244.6801526573467
 30
0.0
 10
149.005711417885
 20
244.6692085881619
 30
0.0
 10
148.9613270551624
 20
244.6581744125216
 30
0.0
 10
148.9585910367974
 20
244.6574942246053
 30
0.0
 10
148.955855059271
 20
244.6568136942529
 30
0.0
 10
148.9531191226366
 20
244.6561328214574
 30
0.0
  0
SPLINE
  5
19E
330
1F
100
AcDbEntity
  8
0
  6
Continuous
 62
     7
370
    25
100
AcDbSpline
210
0.0
220
0.0
230
1.0
 70
     8
 71
     3
 72
    12
 73
     8
 74
     0
 42
0.00000001
 43
0.00000001
 40
0.0
 40
0.0
 40
0.0
 40
0.0
 40
0.4999999999999984
 40
0.4999999999999984
 40
0.7499999999999992
 40
0.7499999999999992
 40
1.0
 40
1.0
 40
1.0
 40
1.0
 10
149.2261442742511
 20
244.7942208284814
 30
0.0
 10
149.1682550907222
 20
245.2602859616863
 30
0.0
 10
148.9986710303115
 20
245.7064921261191
 30
0.0
 10
148.6267958731988
 20
246.2194463235028
 30
0.0
 10
148.4865428024044
 20
246.3608113459987
 30
0.0
 10
148.1831946369706
 20
246.5751766296992
 30
0.0
 10
148.0233617390011
 20
246.6455393672351
 30
0.0
 10
147.8628030917319
 20
246.676789264422
 30
0.0
  0
SPLINE
  5
19F
330
1F
100
AcDbEntity
  8
0
  6
Continuous
 62
     7
370
    25
100
AcDbSpline
210
0.0
220
0.0
230
1.0
 70
     8
 71
     3
 72
    12
 73
     8
 74
     0
 42
0.00000001
 43
0.00000001
 40
0.0
 40
0.0
 40
0.0
 40
0.0
 40
0.5000000000000002
 40
0.5000000000000002
 40
0.7500000000000001
 40
0.7500000000000001
 40
1.0
 40
1.0
 40
1.0
 40
1.0
 10
153.2808651263725
 20
241.269898543884
 30
0.0
 10
152.5160103574049
 20
241.2698978787639
 30
0.0
 10
151.770957300215
 20
241.2517511268277
 30
0.0
 10
150.6827722809555
 20
241.1946122263449
 30
0.0
 10
150.3290240058612
 20
241.1705636868279
 30
0.0
 10
149.6528546250546
 20
241.1124342131713
 30
0.0
 10
149.3282456301427
 20
241.0782492465778
 30
0.0
 10
149.0175243253224
 20
241.0380448599881
 30
0.0
  0
SPLINE
  5
1A0
330
1F
100
AcDbEntity
  8
0
  6
Continuous
 62
     7
370
    25
100
AcDbSpline
210
0.0
220
0.0
230
1.0
 70
     8
 71
     3
 72
    10
 73
     6
 74
     0
 42
0.00000001
 43
0.00000001
 40
0.0
 40
0.0
 40
0.0
 40
0.0
 40
0.5
 40
0.5
 40
1.0
 40
1.0
 40
1.0
 40
1.0
 10
149.2897758043071
 20
241.4348454136143
 30
0.0
 10
149.3010959987976
 20
241.3199288513636
 30
0.0
 10
149.2763971728649
 20
241.2075001037095
 30
0.0
 10
149.1737339038116
 20
241.0585729979952
 30
0.0
 10
149.0955280275317
 20
241.0230130241511
 30
0.0
 10
149.0175243253235
 20
241.0380448599882
 30
0.0
  0
SPLINE
  5
1A1
330
1F
100
AcDbEntity
  8
0
  6
Continuous
 62
     7
370
    25
100
AcDbSpline
210
0.0
220
0.0
230
1.0
 70
     8
 71
     3
 72
     8
 73
     4
 74
     0
 42
0.00000001
 43
0.00000001
 40
0.0
 40
0.0
 40
0.0
 40
0.0
 40
0.000006356117152
 40
0.000006356117152
 40
0.000006356117152
 40
0.000006356117152
 10
149.2897758043071
 20
241.4348454136143
 30
0.0
 10
149.2893615671931
 20
241.4390505273288
 30
0.0
 10
149.2891167529242
 20
241.443295612404
 30
0.0
 10
149.2890415388672
 20
241.447531547114
 30
0.0
  0
SPLINE
  5
1A2
330
1F
100
AcDbEntity
  8
0
  6
Continuous
 62
     7
370
    25
100
AcDbSpline
210
0.0
220
0.0
230
1.0
 70
     8
 71
     3
 72
    12
 73
     8
 74
     0
 42
0.00000001
 43
0.00000001
 40
0.0
 40
0.0
 40
0.0
 40
0.0
 40
0.25
 40
0.25
 40
0.5
 40
0.5
 40
1.0
 40
1.0
 40
1.0
 40
1.0
 10
149.2890415388665
 20
241.4475315471138
 30
0.0
 10
149.580446992361
 20
241.4869408110749
 30
0.0
 10
149.8847155206673
 20
241.5205037413209
 30
0.0
 10
150.5183249923314
 20
241.5776192836135
 30
0.0
 10
150.84989331081
 20
241.6012828380299
 30
0.0
 10
151.8679854745672
 20
241.6574511625385
 30
0.0
 10
152.5651017204197
 20
241.6753470037467
 30
0.0
 10
153.2808673053262
 20
241.67534766611
 30
0.0
  0
SPLINE
  5
1A3
330
1F
100
AcDbEntity
  8
0
  6
Continuous
 62
     7
370
    25
100
AcDbSpline
210
0.0
220
0.0
230
1.0
 70
     8
 71
     3
 72
    12
 73
     8
 74
     0
 42
0.00000001
 43
0.00000001
 40
0.0
 40
0.0
 40
0.0
 40
0.0
 40
0.5
 40
0.5
 40
0.75
 40
0.75
 40
1.0
 40
1.0
 40
1.0
 40
1.0
 10
153.2808668202804
 20
245.0745579492541
 30
0.0
 10
152.5526118701137
 20
245.0745571624246
 30
0.0
 10
151.8436342212894
 20
245.0533997025543
 30
0.0
 10
150.8087421840966
 20
244.9852361593491
 30
0.0
 10
150.4721174048269
 20
244.9563592724518
 30
0.0
 10
149.8294057008337
 20
244.8858015393451
 30
0.0
 10
149.5210558081864
 20
244.8439847295101
 30
0.0
 10
149.2261442742521
 20
244.7942208284809
 30
0.0
  0
LINE
  5
1A4
330
1F
100
AcDbEntity
  8
0
  6
Continuous
 62
     7
370
    25
100
AcDbLine
 10
153.2808668203
 20
245.0745579493
 30
0.0
 11
153.2808673053
 21
241.6753476661
 31
0.0
  0
LINE
  5
1A5
330
1F
100
AcDbEntity
  8
0
  6
Continuous
 62
     7
370
    25
100
AcDbLine
 10
149.2307581318
 20
244.7286914605
 30
0.0
 11
149.2890415389
 21
241.4475315471
 31
0.0
  0
SPLINE
  5
1A6
330
1F
100
AcDbEntity
  8
0
  6
Continuous
 62
     7
370
    25
100
AcDbSpline
210
0.0
220
0.0
230
1.0
 70
     8
 71
     3
 72
    10
 73
     6
 74
     0
 42
0.00000001
 43
0.00000001
 40
0.0
 40
0.0
 40
0.0
 40
0.0
 40
0.5
 40
0.5
 40
1.0
 40
1.0
 40
1.0
 40
1.0
 10
72.18085596726839
 20
241.4348450299756
 30
0.0
 10
72.1695357429302
 20
241.3199284907032
 30
0.0
 10
72.19423461784955
 20
241.2074997428541
 30
0.0
 10
72.29689813344415
 20
241.0585725672926
 30
0.0
 10
72.37510422213455
 20
241.0230125295499
 30
0.0
 10
72.45310813644024
 20
241.0380443294868
 30
0.0
  0
SPLINE
  5
1A7
330
1F
100
AcDbEntity
  8
0
  6
Continuous
 62
     7
370
    25
100
AcDbSpline
210
0.0
220
0.0
230
1.0
 70
     8
 71
     3
 72
    12
 73
     8
 74
     0
 42
0.00000001
 43
0.00000001
 40
0.0
 40
0.0
 40
0.0
 40
0.0
 40
0.25
 40
0.25
 40
0.5
 40
0.5
 40
1.0
 40
1.0
 40
1.0
 40
1.0
 10
72.45310813644116
 20
241.0380443294866
 30
0.0
 10
72.14238705845231
 20
241.0782491533387
 30
0.0
 10
71.81777799692257
 20
241.1124344283305
 30
0.0
 10
71.14160797726973
 20
241.17056433332
 30
0.0
 10
70.7878594084072
 20
241.1946129835978
 30
0.0
 10
69.69967013338062
 20
241.2517520850457
 30
0.0
 10
68.95461443822428
 20
241.2698985438873
 30
0.0
 10
68.18975727900636
 20
241.2698985438873
 30
0.0
  0
SPLINE
  5
1A8
330
1F
100
AcDbEntity
  8
0
  6
Continuous
 62
     7
370
    25
100
AcDbSpline
210
0.0
220
0.0
230
1.0
 70
     8
 71
     3
 72
    12
 73
     8
 74
     0
 42
0.00000001
 43
0.00000001
 40
0.0
 40
0.0
 40
0.0
 40
0.0
 40
0.5000000000000024
 40
0.5000000000000024
 40
0.7500000000000012
 40
0.7500000000000012
 40
1.0
 40
1.0
 40
1.0
 40
1.0
 10
68.18975727900636
 20
241.6753476661133
 30
0.0
 10
68.90552470273673
 20
241.6753476661133
 30
0.0
 10
69.60264302451306
 20
241.6574521099598
 30
0.0
 10
70.62073858870241
 20
241.6012835674152
 30
0.0
 10
70.95230704126953
 20
241.5776198906864
 30
0.0
 10
71.58591674241887
 20
241.5205038993767
 30
0.0
 10
71.89018515329234
 20
241.4869406511602
 30
0.0
 10
72.18159022185657
 20
241.4475309411678
 30
0.0
  0
SPLINE
  5
1A9
330
1F
100
AcDbEntity
  8
0
  6
Continuous
 62
     7
370
    25
100
AcDbSpline
210
0.0
220
0.0
230
1.0
 70
     8
 71
     3
 72
     8
 73
     4
 74
     0
 42
0.00000001
 43
0.00000001
 40
0.0
 40
0.0
 40
0.0
 40
0.0
 40
0.0000063560058647
 40
0.0000063560058647
 40
0.0000063560058647
 40
0.0000063560058647
 10
72.18159022185657
 20
241.4475309411678
 30
0.0
 10
72.1815150089207
 20
241.4432950806253
 30
0.0
 10
72.18127019828316
 20
241.4390500698453
 30
0.0
 10
72.18085596726839
 20
241.4348450299756
 30
0.0
  0
SPLINE
  5
1AA
330
1F
100
AcDbEntity
  8
0
  6
Continuous
 62
     7
370
    25
100
AcDbSpline
210
0.0
220
0.0
230
1.0
 70
     8
 71
     3
 72
    12
 73
     8
 74
     0
 42
0.00000001
 43
0.00000001
 40
0.0
 40
0.0
 40
0.0
 40
0.0
 40
0.2500000000000012
 40
0.2500000000000012
 40
0.5000000000000023
 40
0.5000000000000023
 40
1.0
 40
1.0
 40
1.0
 40
1.0
 10
72.24448756163282
 20
244.7942192543966
 30
0.0
 10
71.94957641596791
 20
244.8439838736383
 30
0.0
 10
71.64122662835193
 20
244.8858012004996
 30
0.0
 10
70.99851464716589
 20
244.9563596851049
 30
0.0
 10
70.66188972585064
 20
244.9852367946335
 30
0.0
 10
69.62699407522763
 20
245.0534007810428
 30
0.0
 10
68.9180142084689
 20
245.0745579492612
 30
0.0
 10
68.18975727900634
 20
245.0745579492612
 30
0.0
  0
LINE
  5
1AB
330
1F
100
AcDbEntity
  8
0
  6
Continuous
 62
     7
370
    25
100
AcDbLine
 10
72.2398737836
 20
244.7286910276
 30
0.0
 11
72.1815902219
 21
241.4475309412
 31
0.0
  0
LINE
  5
1AC
330
1F
100
AcDbEntity
  8
0
  6
Continuous
 62
     7
370
    25
100
AcDbLine
 10
68.189757279
 20
245.0745579493
 30
0.0
 11
68.189757279
 21
241.6753476661
 31
0.0
  0
LWPOLYLINE
  5
1AD
330
1F
100
AcDbEntity
  8
0
  6
Continuous
 62
     7
370
    25
100
AcDbPolyline
 90
        9
 70
   128
 43
0.0
 10
153.2808559255
 20
246.9988977175
 10
153.280857842
 20
246.9163604873
 10
153.2808597006
 20
246.7766364168
 10
153.2808614453
 20
246.5839439422
 10
153.2808630233
 20
246.3441006789
 10
153.280864387
 20
246.064347781
 10
153.2808654953
 20
245.7531313219
 10
153.2808663146
 20
245.4198472973
 10
153.2808668203
 20
245.0745579493
  0
LINE
  5
1AE
330
1F
100
AcDbEntity
  8
0
  6
Continuous
 62
     7
370
    25
100
AcDbLine
 10
68.189757279
 20
245.0745579493
 30
0.0
 11
68.189757279
 21
246.9988977175
 31
0.0
  0
SPLINE
  5
1AF
330
1F
100
AcDbEntity
  8
0
  6
Continuous
 62
     7
370
    25
100
AcDbSpline
210
0.0
220
0.0
230
1.0
 70
     8
 71
     3
 72
    11
 73
     7
 74
     0
 42
0.00000001
 43
0.00000001
 40
0.0
 40
0.0
 40
0.0
 40
0.0
 40
0.0000182848510628
 40
0.0000182848510628
 40
0.0000182848510628
 40
0.0000183448418992
 40
0.0000183448418992
 40
0.0000183448418992
 40
0.0000183448418992
 10
72.28659143642166
 20
241.4110806548079
 30
0.0
 10
72.29426150533297
 20
241.4091517916007
 30
0.0
 10
72.30187482258101
 20
241.407158330251
 30
0.0
 10
72.30943078127902
 20
241.4051051517364
 30
0.0
 10
72.30945557165228
 20
241.4050984154553
 30
0.0
 10
72.3094803438455
 20
241.4050909956763
 30
0.0
 10
72.30950515055237
 20
241.4050849409473
 30
0.0
  0
SPLINE
  5
1B0
330
1F
100
AcDbEntity
  8
0
  6
Continuous
 62
     7
370
    25
100
AcDbSpline
210
0.0
220
0.0
230
1.0
 70
     8
 71
     3
 72
    11
 73
     7
 74
     0
 42
0.00000001
 43
0.00000001
 40
-0.00000006
 40
-0.00000006
 40
-0.00000006
 40
-0.00000006
 40
0.0
 40
0.0
 40
0.0
 40
0.0000986742497343
 40
0.0000986742497343
 40
0.0000986742497343
 40
0.0000986742497343
 10
72.30950515055237
 20
241.4050849409473
 30
0.0
 10
72.30953002826877
 20
241.4050788935332
 30
0.0
 10
72.30955490602126
 20
241.4050728456712
 30
0.0
 10
72.30957978367526
 20
241.4050667973457
 30
0.0
 10
72.35049284773423
 20
241.395119897738
 30
0.0
 10
72.3912676299508
 20
241.3839332287548
 30
0.0
 10
72.43187014478502
 20
241.3715812164614
 30
0.0
  0
SPLINE
  5
1B1
330
1F
100
AcDbEntity
  8
0
  6
Continuous
 62
     7
370
    25
100
AcDbSpline
210
0.0
220
0.0
230
1.0
 70
     8
 71
     3
 72
    11
 73
     7
 74
     0
 42
0.00000001
 43
0.00000001
 40
-0.0000000599999999
 40
-0.0000000599999999
 40
-0.0000000599999999
 40
-0.0000000599999999
 40
0.0
 40
0.0
 40
0.0
 40
0.0000181798095262
 40
0.0000181798095262
 40
0.0000181798095262
 40
0.0000181798095262
 10
149.1612386719211
 20
241.4051247623798
 30
0.0
 10
149.1612634717317
 20
241.4051314944145
 30
0.0
 10
149.1612882709648
 20
241.4051382259494
 30
0.0
 10
149.1613130714054
 20
241.4051449567671
 30
0.0
 10
149.1688275261757
 20
241.4071843731804
 30
0.0
 10
149.1763984264682
 20
241.4091646557734
 30
0.0
 10
149.1840251092536
 20
241.411081069552
 30
0.0
  0
SPLINE
  5
1B2
330
1F
100
AcDbEntity
  8
0
  6
Continuous
 62
     7
370
    25
100
AcDbSpline
210
0.0
220
0.0
230
1.0
 70
     8
 71
     3
 72
    11
 73
     7
 74
     0
 42
0.00000001
 43
0.00000001
 40
0.0
 40
0.0
 40
0.0
 40
0.0
 40
0.0000987203542948
 40
0.0000987203542948
 40
0.0000987203542948
 40
0.0000987803452235
 40
0.0000987803452235
 40
0.0000987803452235
 40
0.0000987803452235
 10
149.0387885974825
 20
241.3716133373044
 30
0.0
 10
149.0794191774752
 20
241.3839700561157
 30
0.0
 10
149.1202223580694
 20
241.3951593601069
 30
0.0
 10
149.1611640327728
 20
241.4051066293216
 30
0.0
 10
149.1611889124353
 20
241.4051126741329
 30
0.0
 10
149.1612138091548
 20
241.4051180395235
 30
0.0
 10
149.1612386719211
 20
241.4051247623798
 30
0.0
  0
SPLINE
  5
1B3
330
1F
100
AcDbEntity
  8
0
  6
Continuous
 62
     7
370
    25
100
AcDbSpline
210
0.0
220
0.0
230
1.0
 70
     8
 71
     3
 72
    11
 73
     7
 74
     0
 42
0.00000001
 43
0.00000001
 40
-0.00000006
 40
-0.00000006
 40
-0.00000006
 40
-0.00000006
 40
0.0
 40
0.0
 40
0.0
 40
0.0000148301903303
 40
0.0000148301903303
 40
0.0000148301903303
 40
0.0000148301903303
 10
72.26775285390713
 20
241.4157704897263
 30
0.0
 10
72.26777829069452
 20
241.4157642207422
 30
0.0
 10
72.26780372697843
 20
241.4157579519159
 30
0.0
 10
72.2678291627073
 20
241.4157516828276
 30
0.0
 10
72.274116196836
 20
241.4142021313184
 30
0.0
 10
72.28037042899882
 20
241.4126451091131
 30
0.0
 10
72.28659143642166
 20
241.4110806548078
 30
0.0
  0
SPLINE
  5
1B4
330
1F
100
AcDbEntity
  8
0
  6
Continuous
 62
     7
370
    25
100
AcDbSpline
210
0.0
220
0.0
230
1.0
 70
     8
 71
     3
 72
    14
 73
    10
 74
     0
 42
0.00000001
 43
0.00000001
 40
-0.0000003973934787
 40
-0.0000003973934787
 40
-0.0000003973934787
 40
-0.0000003973934787
 40
0.0
 40
0.0
 40
0.0
 40
0.0000676568416362
 40
0.0000676568416362
 40
0.0000676568416362
 40
0.0000677168337387
 40
0.0000677168337387
 40
0.0000677168337387
 40
0.0000677168337387
 10
72.18085596726839
 20
241.4348450299756
 30
0.0
 10
72.18102497879258
 20
241.4348081109909
 30
0.0
 10
72.18119399020267
 20
241.4347711909792
 30
0.0
 10
72.18136300149868
 20
241.4347342699404
 30
0.0
 10
72.2101374242256
 20
241.4284484085735
 30
0.0
 10
72.23890854629542
 20
241.4221327769775
 30
0.0
 10
72.26767632774327
 20
241.4157873694349
 30
0.0
 10
72.26770183646718
 20
241.4157817428888
 30
0.0
 10
72.26772734518585
 20
241.4157761162958
 30
0.0
 10
72.26775285390713
 20
241.4157704897263
 30
0.0
  0
SPLINE
  5
1B5
330
1F
100
AcDbEntity
  8
0
  6
Continuous
 62
     7
370
    25
100
AcDbSpline
210
0.0
220
0.0
230
1.0
 70
     8
 71
     3
 72
    14
 73
    10
 74
     0
 42
0.00000001
 43
0.00000001
 40
-0.00000006
 40
-0.00000006
 40
-0.00000006
 40
-0.00000006
 40
0.0
 40
0.0
 40
0.0
 40
0.0000676582076282
 40
0.0000676582076282
 40
0.0000676582076282
 40
0.0000680556069674
 40
0.0000680556069674
 40
0.0000680556069674
 40
0.0000680556069674
 10
149.2028771595371
 20
241.4157704884837
 30
0.0
 10
149.2029026716157
 20
241.415776115794
 30
0.0
 10
149.2029281836917
 20
241.4157817431278
 30
0.0
 10
149.202953695773
 20
241.4157873704147
 30
0.0
 10
149.2317220572839
 20
241.4221329061756
 30
0.0
 10
149.2604937595522
 20
241.4284486647865
 30
0.0
 10
149.2892687626105
 20
241.4347346519652
 30
0.0
 10
149.2894377763953
 20
241.434771573542
 30
0.0
 10
149.2896067902942
 20
241.4348084940917
 30
0.0
 10
149.2897758043071
 20
241.4348454136143
 30
0.0
  0
SPLINE
  5
1B6
330
1F
100
AcDbEntity
  8
0
  6
Continuous
 62
     7
370
    25
100
AcDbSpline
210
0.0
220
0.0
230
1.0
 70
     8
 71
     3
 72
    11
 73
     7
 74
     0
 42
0.00000001
 43
0.00000001
 40
0.0000181668979453
 40
0.0000181668979453
 40
0.0000181668979453
 40
0.0000181668979453
 40
0.0000330069006181
 40
0.0000330069006181
 40
0.0000330069006181
 40
0.0000330668928345
 40
0.0000330668928345
 40
0.0000330668928345
 40
0.0000330668928345
 10
149.1840251092541
 20
241.4110810695447
 30
0.0
 10
149.1902507828381
 20
241.4126454412346
 30
0.0
 10
149.1965095173206
 20
241.4142023274586
 30
0.0
 10
149.202800858833
 20
241.415751698641
 30
0.0
 10
149.2028262918672
 20
241.4157579620445
 30
0.0
 10
149.2028517254525
 20
241.4157642251851
 30
0.0
 10
149.2028771595371
 20
241.4157704884837
 30
0.0
  0
SPLINE
  5
1B7
330
1F
100
AcDbEntity
  8
0
  6
Continuous
 62
     7
370
    25
100
AcDbSpline
210
0.0
220
0.0
230
1.0
 70
     8
 71
     3
 72
    17
 73
    13
 74
     0
 42
0.00000001
 43
0.00000001
 40
0.0
 40
0.0
 40
0.0
 40
0.0
 40
0.0686137701812675
 40
0.1731054163968074
 40
0.2806425800375854
 40
0.3857284093611388
 40
0.4938223787305761
 40
0.6001150326292928
 40
0.7094845717611373
 40
0.8158198526321409
 40
0.9252813939170581
 40
1.0
 40
1.0
 40
1.0
 40
1.0
 10
166.286659764508
 20
242.0230687747734
 30
0.0
 10
166.288676221223
 20
242.0233783136968
 30
0.0
 10
166.2937635320993
 20
242.0241592482538
 30
0.0
 10
165.9961701085477
 20
241.9777135410887
 30
0.0
 10
165.444850838363
 20
241.8955929657198
 30
0.0
 10
164.6330982994334
 20
241.7836155840612
 30
0.0
 10
163.6079744547164
 20
241.6575529487174
 30
0.0
 10
162.3745193694753
 20
241.5288188809997
 30
0.0
 10
160.9874745368508
 20
241.4139414399234
 30
0.0
 10
159.4649212035832
 20
241.3254571900802
 30
0.0
 10
158.0326334119049
 20
241.2770968692421
 30
0.0
 10
157.1097232322819
 20
241.2719759924244
 30
0.0
 10
156.7353150067121
 20
241.2698985438871
 30
0.0
  0
SPLINE
  5
1B8
330
1F
100
AcDbEntity
  8
0
  6
Continuous
 62
     7
370
    25
100
AcDbSpline
210
0.0
220
0.0
230
1.0
 70
     8
 71
     3
 72
    17
 73
    13
 74
     0
 42
0.00000001
 43
0.00000001
 40
0.0
 40
0.0
 40
0.0
 40
0.0
 40
0.1049799075062138
 40
0.2129895952421414
 40
0.3178144668657285
 40
0.4256039943037298
 40
0.5311451589061413
 40
0.6397018921891306
 40
0.7457611160434003
 40
0.854959464377576
 40
0.9602145593568656
 40
1.0
 40
1.0
 40
1.0
 40
1.0
 10
64.73531500671223
 20
241.2698985438874
 30
0.0
 10
64.20889368338231
 20
241.2739306227568
 30
0.0
 10
63.14085821596456
 20
241.2821111486
 30
0.0
 10
61.59145061205307
 20
241.3461137898989
 30
0.0
 10
60.11771769867499
 20
241.4412007001403
 30
0.0
 10
58.78297331849737
 20
241.5592240331158
 30
0.0
 10
57.59936138472887
 20
241.6882784935869
 30
0.0
 10
56.62196922808906
 20
241.8122648430906
 30
0.0
 10
55.85879065374048
 20
241.919930184461
 30
0.0
 10
55.37234271571648
 20
241.9934670080065
 30
0.0
 10
55.14394778846315
 20
242.0293454458065
 30
0.0
 10
55.17535505717428
 20
242.0244198842217
 30
0.0
 10
55.1839702489185
 20
242.0230687747734
 30
0.0
  0
LINE
  5
1B9
330
1F
100
AcDbEntity
  8
0
  6
Continuous
 62
     7
370
    25
100
AcDbLine
 10
64.7353150067
 20
245.0745579493
 30
0.0
 11
64.7353150067
 21
241.6753476661
 31
0.0
  0
LINE
  5
1BA
330
1F
100
AcDbEntity
  8
0
  6
Continuous
 62
     7
370
    25
100
AcDbLine
 10
156.7353150067
 20
245.0745579493
 30
0.0
 11
156.7353150067
 21
241.6753476661
 31
0.0
  0
LINE
  5
1BB
330
1F
100
AcDbEntity
  8
0
  6
Continuous
 62
     7
370
    25
100
AcDbLine
 10
64.7353150067
 20
245.0745579493
 30
0.0
 11
64.7353150067
 21
246.9988977175
 31
0.0
  0
SPLINE
  5
1BC
330
1F
100
AcDbEntity
  8
0
  6
Continuous
 62
     7
370
    25
100
AcDbSpline
210
0.0
220
0.0
230
1.0
 70
     8
 71
     3
 72
    22
 73
    18
 74
     0
 42
0.00000001
 43
0.00000001
 40
0.0
 40
0.0
 40
0.0
 40
0.0
 40
0.125
 40
0.125
 40
0.25
 40
0.25
 40
0.375
 40
0.375
 40
0.5
 40
0.5
 40
0.625
 40
0.625
 40
0.75
 40
0.75
 40
0.875
 40
0.875
 40
1.0
 40
1.0
 40
1.0
 40
1.0
 10
55.75799796344337
 20
247.3129010057029
 30
0.0
 10
55.75798532437868
 20
247.3129013237965
 30
0.0
 10
55.79689873933492
 20
247.3119233592873
 30
0.0
 10
55.94831055593364
 20
247.3081081964119
 30
0.0
 10
56.06049454272608
 20
247.3052891788739
 30
0.0
 10
56.35847019708471
 20
247.297614721428
 30
0.0
 10
56.54632264045625
 20
247.2927102235332
 30
0.0
 10
56.98343946197794
 20
247.2805112097772
 30
0.0
 10
57.23354394925476
 20
247.2731916827599
 30
0.0
 10
57.79622678421659
 20
247.2549717392803
 30
0.0
 10
58.11097642742946
 20
247.2439428042752
 30
0.0
 10
58.77964719297167
 20
247.2180453305323
 30
0.0
 10
59.13575104585464
 20
247.20308233879
 30
0.0
 10
59.88897197169744
 20
247.169540202612
 30
0.0
 10
60.28712400551525
 20
247.150890729737
 30
0.0
 10
61.10250164356587
 20
247.1133662433598
 30
0.0
 10
61.52440269037562
 20
247.0949640871325
 30
0.0
 10
61.95254810838641
 20
247.077391569826
 30
0.0
  0
SPLINE
  5
1BD
330
1F
100
AcDbEntity
  8
0
  6
Continuous
 62
     7
370
    25
100
AcDbSpline
210
0.0
220
0.0
230
1.0
 70
     8
 71
     3
 72
    16
 73
    12
 74
     0
 42
0.00000001
 43
0.00000001
 40
0.0
 40
0.0
 40
0.0
 40
0.0
 40
0.0183325838986316
 40
0.0908909660449407
 40
0.2335481373072509
 40
0.3806145001676426
 40
0.5234526092837497
 40
0.6721066745970979
 40
0.7935558312011769
 40
0.9186003550575621
 40
1.0
 40
1.0
 40
1.0
 40
1.0
 10
159.5180818918314
 20
247.0773915692374
 30
0.0
 10
159.5805647336252
 20
247.0798946661981
 30
0.0
 10
159.8903478980322
 20
247.0923047499111
 30
0.0
 10
160.673864675486
 20
247.1268444311691
 30
0.0
 10
161.8368497750379
 20
247.1819876900666
 30
0.0
 10
163.0885389224446
 20
247.2350313013092
 30
0.0
 10
164.1610908965914
 20
247.2715645996857
 30
0.0
 10
164.9388186829952
 20
247.2932197185821
 30
0.0
 10
165.4409785451767
 20
247.3060748742408
 30
0.0
 10
165.6787811588274
 20
247.3120474566572
 30
0.0
 10
165.703029819588
 20
247.3126588872115
 30
0.0
 10
165.7125909149084
 20
247.312899970456
 30
0.0
  0
LINE
  5
1BE
330
1F
100
AcDbEntity
  8
0
  6
Continuous
 62
     7
370
    25
100
AcDbLine
 10
156.7353150067
 20
246.9988977175
 30
0.0
 11
156.7353150067
 21
245.0745579493
 31
0.0
  0
LINE
  5
1BF
330
1F
100
AcDbEntity
  8
0
  6
Continuous
 62
     7
370
    25
100
AcDbLine
 10
153.2808673053
 20
241.6753476661
 30
0.0
 11
156.7353150067
 21
241.6753476661
 31
0.0
  0
LINE
  5
1C0
330
1F
100
AcDbEntity
  8
0
  6
Continuous
 62
     7
370
    25
100
AcDbLine
 10
64.7353150067
 20
241.6753476661
 30
0.0
 11
68.189757279
 21
241.6753476661
 31
0.0
  0
LINE
  5
1C1
330
1F
100
AcDbEntity
  8
0
  6
Continuous
 62
     7
370
    25
100
AcDbLine
 10
156.7353150067
 20
245.0745579493
 30
0.0
 11
153.2808668203
 21
245.0745579493
 31
0.0
  0
LINE
  5
1C2
330
1F
100
AcDbEntity
  8
0
  6
Continuous
 62
     7
370
    25
100
AcDbLine
 10
68.189757279
 20
245.0745579493
 30
0.0
 11
64.7353150067
 21
245.0745579493
 31
0.0
  0
LINE
  5
1C3
330
1F
100
AcDbEntity
  8
0
  6
Continuous
 62
     7
370
    25
100
AcDbLine
 10
92.2220982488
 20
248.0767347972
 30
0.0
 11
90.8962166117
 21
248.0767347972
 31
0.0
  0
LINE
  5
1C4
330
1F
100
AcDbEntity
  8
0
  6
Continuous
 62
     7
370
    25
100
AcDbLine
 10
92.243165299
 20
247.4734534128
 30
0.0
 11
92.2220982488
 21
248.0767347972
 31
0.0
  0
LINE
  5
1C5
330
1F
100
AcDbEntity
  8
0
  6
Continuous
 62
     7
370
    25
100
AcDbLine
 10
90.8751495616
 20
247.4734534128
 30
0.0
 11
90.8962166117
 21
248.0767347972
 31
0.0
  0
LINE
  5
1C6
330
1F
100
AcDbEntity
  8
0
  6
Continuous
 62
     7
370
    25
100
AcDbLine
 10
90.901504662
 20
248.2281647454
 30
0.0
 11
94.9166743439
 21
248.2281647454
 31
0.0
  0
LINE
  5
1C7
330
1F
100
AcDbEntity
  8
0
  6
Continuous
 62
     7
370
    25
100
AcDbLine
 10
94.9172460298
 20
248.2117938047
 30
0.0
 11
94.9166743439
 21
248.2281647454
 31
0.0
  0
LINE
  5
1C8
330
1F
100
AcDbEntity
  8
0
  6
Continuous
 62
     7
370
    25
100
AcDbLine
 10
94.9172460298
 20
248.2117938047
 30
0.0
 11
92.2173818844
 21
248.2117938047
 31
0.0
  0
LINE
  5
1C9
330
1F
100
AcDbEntity
  8
0
  6
Continuous
 62
     7
370
    25
100
AcDbLine
 10
90.8962166117
 20
248.0767347972
 30
0.0
 11
90.901504662
 21
248.2281647454
 31
0.0
  0
LINE
  5
1CA
330
1F
100
AcDbEntity
  8
0
  6
Continuous
 62
     7
370
    25
100
AcDbLine
 10
92.2220982488
 20
248.0767347972
 30
0.0
 11
92.2173818844
 21
248.2117938047
 31
0.0
  0
LINE
  5
1CB
330
1F
100
AcDbEntity
  8
0
  6
Continuous
 62
     7
370
    25
100
AcDbLine
 10
94.9382231336
 20
247.6110881453
 30
0.0
 11
94.9172460298
 21
248.2117938047
 31
0.0
  0
LINE
  5
1CC
330
1F
100
AcDbEntity
  8
0
  6
Continuous
 62
     7
370
    25
100
AcDbLine
 10
90.7143626854
 20
248.2281647454
 30
0.0
 11
86.6982088926
 21
248.2281647454
 31
0.0
  0
LINE
  5
1CD
330
1F
100
AcDbEntity
  8
0
  6
Continuous
 62
     7
370
    25
100
AcDbLine
 10
90.7143626854
 20
248.2281647454
 30
0.0
 11
90.7353150067
 21
247.6281687656
 31
0.0
  0
LINE
  5
1CE
330
1F
100
AcDbEntity
  8
0
  6
Continuous
 62
     7
370
    25
100
AcDbLine
 10
86.6982088926
 20
248.2281647454
 30
0.0
 11
86.6772565713
 21
247.6281687656
 31
0.0
  0
SPLINE
  5
1CF
330
1F
100
AcDbEntity
  8
0
  6
Continuous
 62
     7
370
    25
100
AcDbSpline
210
0.0
220
0.0
230
1.0
 70
     8
 71
     3
 72
    31
 73
    27
 74
     0
 42
0.00000001
 43
0.00000001
 40
0.0
 40
0.0
 40
0.0
 40
0.0
 40
0.0019223507878787
 40
0.0469913020585276
 40
0.0920616866659559
 40
0.1321277943983833
 40
0.1721960302001534
 40
0.213289489989066
 40
0.2543857611231728
 40
0.2972288262122639
 40
0.340074846014073
 40
0.3838673469725019
 40
0.4276619786845501
 40
0.4767904265092617
 40
0.5259196465851728
 40
0.576277911838402
 40
0.6266331257325268
 40
0.6709944643364633
 40
0.7153514152556583
 40
0.7609093883644447
 40
0.8064608073745622
 40
0.8451864241238246
 40
0.8839094994655248
 40
0.9237553954273187
 40
0.9636013448962814
 40
1.0
 40
1.0
 40
1.0
 40
1.0
 10
144.5763782234817
 20
247.6255877221685
 30
0.0
 10
144.5777712908364
 20
247.6264423063014
 30
0.0
 10
144.6118244143686
 20
247.6473323651693
 30
0.0
 10
144.4847186879149
 20
247.5692073937985
 30
0.0
 10
144.1883904190643
 20
247.388241232466
 30
0.0
 10
143.699698811093
 20
247.0916705037708
 30
0.0
 10
143.0737832175354
 20
246.7160820567001
 30
0.0
 10
142.2847257032321
 20
246.2489789743542
 30
0.0
 10
141.3258862855277
 20
245.691751263887
 30
0.0
 10
140.2032478838404
 20
245.0537864600024
 30
0.0
 10
138.9106755261274
 20
244.3398352885299
 30
0.0
 10
137.4679385128413
 20
243.5695406796265
 30
0.0
 10
135.8163725378554
 20
242.7235910950696
 30
0.0
 10
133.9546527657575
 20
241.8181816172726
 30
0.0
 10
131.8558795168155
 20
240.86408625143
 30
0.0
 10
129.5933050232249
 20
239.9177146940565
 30
0.0
 10
127.2672544623329
 20
239.0418406155145
 30
0.0
 10
124.9223394614345
 20
238.2625589752657
 30
0.0
 10
122.5614243622468
 20
237.5843793962251
 30
0.0
 10
120.0889839584581
 20
236.998279392169
 30
0.0
 10
117.6444297908561
 20
236.5507486210346
 30
0.0
 10
115.2772180122682
 20
236.2455799058156
 30
0.0
 10
112.9881504383725
 20
236.0653649109199
 30
0.0
 10
110.6608828336518
 20
236.008843851871
 30
0.0
 10
108.3776179467672
 20
236.0676418813496
 30
0.0
 10
106.8945294879862
 20
236.201171063124
 30
0.0
 10
106.1865131555253
 20
236.2649169853557
 30
0.0
  0
SPLINE
  5
1D0
330
1F
100
AcDbEntity
  8
0
  6
Continuous
 62
     7
370
    25
100
AcDbSpline
210
0.0
220
0.0
230
1.0
 70
     8
 71
     3
 72
    14
 73
    10
 74
     0
 42
0.00000001
 43
0.00000001
 40
0.0
 40
0.0
 40
0.0
 40
0.0
 40
0.25
 40
0.25
 40
0.5
 40
0.5
 40
0.75
 40
0.75
 40
1.0
 40
1.0
 40
1.0
 40
1.0
 10
107.9447081654224
 20
244.5322172507172
 30
0.0
 10
107.9413647970932
 20
244.4453040188252
 30
0.0
 10
107.9820553826668
 20
244.3586803701909
 30
0.0
 10
108.1511014219889
 20
244.1879676852923
 30
0.0
 10
108.2756075025932
 20
244.1079709389028
 30
0.0
 10
108.6046214040245
 20
243.9636698845244
 30
0.0
 10
108.8025850492615
 20
243.9025406206852
 30
0.0
 10
109.256440622648
 20
243.8103632001736
 30
0.0
 10
109.5045437378537
 20
243.7810634328889
 30
0.0
 10
109.764282724836
 20
243.7716699395271
 30
0.0
  0
SPLINE
  5
1D1
330
1F
100
AcDbEntity
  8
0
  6
Continuous
 62
     7
370
    25
100
AcDbSpline
210
0.0
220
0.0
230
1.0
 70
     8
 71
     3
 72
    20
 73
    16
 74
     0
 42
0.00000001
 43
0.00000001
 40
0.0
 40
0.0
 40
0.0
 40
0.0
 40
0.2499999999999999
 40
0.2499999999999999
 40
0.3749999999999998
 40
0.3749999999999998
 40
0.4999999999999997
 40
0.4999999999999997
 40
0.6249999999999998
 40
0.6249999999999998
 40
0.7499999999999998
 40
0.7499999999999998
 40
0.8749999999999998
 40
0.8749999999999998
 40
1.0
 40
1.0
 40
1.0
 40
1.0
 10
109.764282724836
 20
243.771669939527
 30
0.0
 10
110.7671824259663
 20
243.735399944812
 30
0.0
 10
111.7270686987844
 20
243.6413861614936
 30
0.0
 10
113.1042473120486
 20
243.4072953670205
 30
0.0
 10
113.5461104717072
 20
243.3142649203427
 30
0.0
 10
114.3811909746334
 20
243.1005362450364
 30
0.0
 10
114.7770723673067
 20
242.9793914514026
 30
0.0
 10
115.5259106909375
 20
242.7058949984862
 30
0.0
 10
115.8770010236311
 20
242.5537662336846
 30
0.0
 10
116.5160511822729
 20
242.2257753516139
 30
0.0
 10
116.8070240015555
 20
242.048873265058
 30
0.0
 10
117.3341998614862
 20
241.6674774463685
 30
0.0
 10
117.570769172019
 20
241.4621260021413
 30
0.0
 10
117.9806516744593
 20
241.031331984315
 30
0.0
 10
118.1555507144392
 20
240.8049594522172
 30
0.0
 10
118.3019047406883
 20
240.5670730767305
 30
0.0
  0
SPLINE
  5
1D2
330
1F
100
AcDbEntity
  8
0
  6
Continuous
 62
     7
370
    25
100
AcDbSpline
210
0.0
220
0.0
230
1.0
 70
     8
 71
     3
 72
    16
 73
    12
 74
     0
 42
0.00000001
 43
0.00000001
 40
0.0
 40
0.0
 40
0.0
 40
0.0
 40
0.2499999999999996
 40
0.2499999999999996
 40
0.4999999999999997
 40
0.4999999999999997
 40
0.6249999999999998
 40
0.6249999999999998
 40
0.7499999999999999
 40
0.7499999999999999
 40
1.0
 40
1.0
 40
1.0
 40
1.0
 10
118.3019047406883
 20
240.5670730767305
 30
0.0
 10
118.3830499679489
 20
240.435178215374
 30
0.0
 10
118.5045992155613
 20
240.3109090036388
 30
0.0
 10
118.8354973235613
 20
240.0839017687672
 30
0.0
 10
119.0366687802636
 20
239.9868938435547
 30
0.0
 10
119.3952909428515
 20
239.8761744422341
 30
0.0
 10
119.5202787159814
 20
239.8464829980191
 30
0.0
 10
119.7815076594452
 20
239.8022515260166
 30
0.0
 10
119.9199722166013
 20
239.7876996242109
 30
0.0
 10
120.3340147469652
 20
239.7711061932427
 30
0.0
 10
120.6144422086224
 20
239.7957316674894
 30
0.0
 10
120.8722939852618
 20
239.8522787387233
 30
0.0
  0
SPLINE
  5
1D3
330
1F
100
AcDbEntity
  8
0
  6
Continuous
 62
     7
370
    25
100
AcDbSpline
210
0.0
220
0.0
230
1.0
 70
     8
 71
     3
 72
    12
 73
     8
 74
     0
 42
0.00000001
 43
0.00000001
 40
0.0
 40
0.0
 40
0.0
 40
0.0
 40
0.25
 40
0.25
 40
0.5
 40
0.5
 40
1.0
 40
1.0
 40
1.0
 40
1.0
 10
104.586888066283
 20
237.5639245972178
 30
0.0
 10
104.5918609313976
 20
237.4215203722551
 30
0.0
 10
104.6303099668788
 20
237.2816363115048
 30
0.0
 10
104.7728453684298
 20
237.0071784954751
 30
0.0
 10
104.8776848401848
 20
236.8737505856479
 30
0.0
 10
105.2840263621335
 20
236.5136569879784
 30
0.0
 10
105.7006372687961
 20
236.315371580086
 30
0.0
 10
106.1865131555253
 20
236.2649169853557
 30
0.0
  0
LINE
  5
1D4
330
1F
100
AcDbEntity
  8
0
  6
Continuous
 62
     7
370
    25
100
AcDbLine
 10
104.5868880663
 20
237.5639245972
 30
0.0
 11
104.2354369156
 21
247.6281687656
 31
0.0
  0
LINE
  5
1D5
330
1F
100
AcDbEntity
  8
0
  6
Continuous
 62
     7
370
    25
100
AcDbLine
 10
104.6412871307
 20
236.0061392105
 30
0.0
 11
104.5868880663
 21
237.5639245972
 31
0.0
  0
LINE
  5
1D6
330
1F
100
AcDbEntity
  8
0
  6
Continuous
 62
     7
370
    25
100
AcDbLine
 10
92.2353150067
 20
199.2281687656
 30
0.0
 11
101.2353150067
 21
199.2281687656
 31
0.0
  0
LINE
  5
1D7
330
1F
100
AcDbEntity
  8
0
  6
Continuous
 62
     7
370
    25
100
AcDbLine
 10
101.2353150067
 20
199.2281687656
 30
0.0
 11
100.9353150067
 21
198.6281687656
 31
0.0
  0
LINE
  5
1D8
330
1F
100
AcDbEntity
  8
0
  6
Continuous
 62
     7
370
    25
100
AcDbLine
 10
100.9353150067
 20
198.6281687656
 30
0.0
 11
91.9353150067
 21
198.6281687656
 31
0.0
  0
LINE
  5
1D9
330
1F
100
AcDbEntity
  8
0
  6
Continuous
 62
     7
370
    25
100
AcDbLine
 10
91.9353150067
 20
198.6281687656
 30
0.0
 11
92.2353150067
 21
199.2281687656
 31
0.0
  0
LINE
  5
1DA
330
1F
100
AcDbEntity
  8
0
  6
Continuous
 62
     7
370
    25
100
AcDbLine
 10
101.2353150067
 20
199.2281687656
 30
0.0
 11
101.2353150067
 21
203.6281687656
 31
0.0
  0
LINE
  5
1DB
330
1F
100
AcDbEntity
  8
0
  6
Continuous
 62
     7
370
    25
100
AcDbLine
 10
92.2353150067
 20
203.6281687656
 30
0.0
 11
92.2353150067
 21
199.2281687656
 31
0.0
  0
LINE
  5
1DC
330
1F
100
AcDbEntity
  8
0
  6
Continuous
 62
     7
370
    25
100
AcDbLine
 10
99.7353150067
 20
194.6281687656
 30
0.0
 11
83.7353150067
 21
194.6281687656
 31
0.0
  0
LINE
  5
1DD
330
1F
100
AcDbEntity
  8
0
  6
Continuous
 62
     7
370
    25
100
AcDbLine
 10
100.7353150067
 20
197.0281687656
 30
0.0
 11
100.3452432063
 21
197.0281687656
 31
0.0
  0
LINE
  5
1DE
330
1F
100
AcDbEntity
  8
0
  6
Continuous
 62
     7
370
    25
100
AcDbLine
 10
100.3452432063
 20
197.8281687656
 30
0.0
 11
100.7353150067
 21
197.8281687656
 31
0.0
  0
LINE
  5
1DF
330
1F
100
AcDbEntity
  8
0
  6
Continuous
 62
     7
370
    25
100
AcDbLine
 10
100.3452432063
 20
197.0281687656
 30
0.0
 11
100.3452432063
 21
197.8281687656
 31
0.0
  0
LINE
  5
1E0
330
1F
100
AcDbEntity
  8
0
  6
Continuous
 62
     7
370
    25
100
AcDbLine
 10
83.1253868071
 20
197.0281687656
 30
0.0
 11
82.7353150067
 21
197.0281687656
 31
0.0
  0
LINE
  5
1E1
330
1F
100
AcDbEntity
  8
0
  6
Continuous
 62
     7
370
    25
100
AcDbLine
 10
83.1253868071
 20
197.8281687656
 30
0.0
 11
83.1253868071
 21
197.0281687656
 31
0.0
  0
LINE
  5
1E2
330
1F
100
AcDbEntity
  8
0
  6
Continuous
 62
     7
370
    25
100
AcDbLine
 10
82.7353150067
 20
197.8281687656
 30
0.0
 11
83.1253868071
 21
197.8281687656
 31
0.0
  0
LINE
  5
1E3
330
1F
100
AcDbEntity
  8
0
  6
Continuous
 62
     7
370
    25
100
AcDbLine
 10
98.3100483234
 20
197.8281687656
 30
0.0
 11
98.3100483234
 21
197.0281687656
 31
0.0
  0
LINE
  5
1E4
330
1F
100
AcDbEntity
  8
0
  6
Continuous
 62
     7
370
    25
100
AcDbLine
 10
93.7705098896
 20
197.8281687656
 30
0.0
 11
98.3100483234
 21
197.8281687656
 31
0.0
  0
LINE
  5
1E5
330
1F
100
AcDbEntity
  8
0
  6
Continuous
 62
     7
370
    25
100
AcDbLine
 10
93.7705098896
 20
197.0281687656
 30
0.0
 11
93.7705098896
 21
197.8281687656
 31
0.0
  0
LINE
  5
1E6
330
1F
100
AcDbEntity
  8
0
  6
Continuous
 62
     7
370
    25
100
AcDbLine
 10
98.3100483234
 20
197.0281687656
 30
0.0
 11
93.7705098896
 21
197.0281687656
 31
0.0
  0
LINE
  5
1E7
330
1F
100
AcDbEntity
  8
0
  6
Continuous
 62
     7
370
    25
100
AcDbLine
 10
89.7001201238
 20
197.0281687656
 30
0.0
 11
85.16058169
 21
197.0281687656
 31
0.0
  0
LINE
  5
1E8
330
1F
100
AcDbEntity
  8
0
  6
Continuous
 62
     7
370
    25
100
AcDbLine
 10
89.7001201238
 20
197.8281687656
 30
0.0
 11
89.7001201238
 21
197.0281687656
 31
0.0
  0
LINE
  5
1E9
330
1F
100
AcDbEntity
  8
0
  6
Continuous
 62
     7
370
    25
100
AcDbLine
 10
85.16058169
 20
197.8281687656
 30
0.0
 11
89.7001201238
 21
197.8281687656
 31
0.0
  0
LINE
  5
1EA
330
1F
100
AcDbEntity
  8
0
  6
Continuous
 62
     7
370
    25
100
AcDbLine
 10
85.16058169
 20
197.0281687656
 30
0.0
 11
85.16058169
 21
197.8281687656
 31
0.0
  0
LINE
  5
1EB
330
1F
100
AcDbEntity
  8
0
  6
Continuous
 62
     7
370
    25
100
AcDbLine
 10
91.5353150067
 20
198.6281687656
 30
0.0
 11
91.2353150067
 21
199.2281687656
 31
0.0
  0
LINE
  5
1EC
330
1F
100
AcDbEntity
  8
0
  6
Continuous
 62
     7
370
    25
100
AcDbLine
 10
91.2353150067
 20
199.2281687656
 30
0.0
 11
92.2353150067
 21
199.2281687656
 31
0.0
  0
LINE
  5
1ED
330
1F
100
AcDbEntity
  8
0
  6
Continuous
 62
     7
370
    25
100
AcDbLine
 10
91.9353150067
 20
198.6281687656
 30
0.0
 11
91.5353150067
 21
198.6281687656
 31
0.0
  0
LINE
  5
1EE
330
1F
100
AcDbEntity
  8
0
  6
Continuous
 62
     7
370
    25
100
AcDbLine
 10
91.2353150067
 20
199.2281687656
 30
0.0
 11
91.2353150067
 21
203.6281687656
 31
0.0
  0
LINE
  5
1EF
330
1F
100
AcDbEntity
  8
0
  6
Continuous
 62
     7
370
    25
100
AcDbLine
 10
82.5353150067
 20
198.6281687656
 30
0.0
 11
82.2353150067
 21
199.2281687656
 31
0.0
  0
LINE
  5
1F0
330
1F
100
AcDbEntity
  8
0
  6
Continuous
 62
     7
370
    25
100
AcDbLine
 10
82.2353150067
 20
199.2281687656
 30
0.0
 11
91.2353150067
 21
199.2281687656
 31
0.0
  0
LINE
  5
1F1
330
1F
100
AcDbEntity
  8
0
  6
Continuous
 62
     7
370
    25
100
AcDbLine
 10
91.5353150067
 20
198.6281687656
 30
0.0
 11
82.5353150067
 21
198.6281687656
 31
0.0
  0
LINE
  5
1F2
330
1F
100
AcDbEntity
  8
0
  6
Continuous
 62
     7
370
    25
100
AcDbLine
 10
82.2353150067
 20
203.6281687656
 30
0.0
 11
82.2353150067
 21
199.2281687656
 31
0.0
  0
LINE
  5
1F3
330
1F
100
AcDbEntity
  8
0
  6
Continuous
 62
     7
370
    25
100
AcDbLine
 10
87.1957765729
 20
197.8281687656
 30
0.0
 11
87.1957765729
 21
197.0281687656
 31
0.0
  0
LINE
  5
1F4
330
1F
100
AcDbEntity
  8
0
  6
Continuous
 62
     7
370
    25
100
AcDbLine
 10
96.2748534405
 20
197.0281687656
 30
0.0
 11
96.2748534405
 21
197.8281687656
 31
0.0
  0
LINE
  5
1F5
330
1F
100
AcDbEntity
  8
0
  6
Continuous
 62
     7
370
    25
100
AcDbLine
 10
101.2353150067
 20
199.2281687656
 30
0.0
 11
101.7353150067
 21
199.2281687656
 31
0.0
  0
LINE
  5
1F6
330
1F
100
AcDbEntity
  8
0
  6
Continuous
 62
     7
370
    25
100
AcDbLine
 10
101.7353150067
 20
199.2281687656
 30
0.0
 11
101.1353150067
 21
198.6281687656
 31
0.0
  0
LINE
  5
1F7
330
1F
100
AcDbEntity
  8
0
  6
Continuous
 62
     7
370
    25
100
AcDbLine
 10
101.1353150067
 20
198.6281687656
 30
0.0
 11
100.9353150067
 21
198.6281687656
 31
0.0
  0
LINE
  5
1F8
330
1F
100
AcDbEntity
  8
0
  6
Continuous
 62
     7
370
    25
100
AcDbLine
 10
101.7353150067
 20
203.6281687656
 30
0.0
 11
101.7353150067
 21
199.2281687656
 31
0.0
  0
LINE
  5
1F9
330
1F
100
AcDbEntity
  8
0
  6
Continuous
 62
     7
370
    25
100
AcDbLine
 10
82.3353150067
 20
198.6281687656
 30
0.0
 11
81.7353150067
 21
199.2281687656
 31
0.0
  0
LINE
  5
1FA
330
1F
100
AcDbEntity
  8
0
  6
Continuous
 62
     7
370
    25
100
AcDbLine
 10
81.7353150067
 20
199.2281687656
 30
0.0
 11
82.2353150067
 21
199.2281687656
 31
0.0
  0
LINE
  5
1FB
330
1F
100
AcDbEntity
  8
0
  6
Continuous
 62
     7
370
    25
100
AcDbLine
 10
82.5353150067
 20
198.6281687656
 30
0.0
 11
82.3353150067
 21
198.6281687656
 31
0.0
  0
LINE
  5
1FC
330
1F
100
AcDbEntity
  8
0
  6
Continuous
 62
     7
370
    25
100
AcDbLine
 10
81.7353150067
 20
199.2281687656
 30
0.0
 11
81.7353150067
 21
203.6281687656
 31
0.0
  0
ARC
  5
1FD
330
1F
100
AcDbEntity
  8
0
  6
Continuous
 62
     8
370
    25
100
AcDbCircle
 10
81.5682643546
 20
235.9851183065
 30
0.0
 40
0.2994817046194098
100
AcDbArc
 50
156.9746449031
 51
235.4432345471
  0
ARC
  5
1FE
330
1F
100
AcDbEntity
  8
0
  6
Continuous
 62
     8
370
    25
100
AcDbCircle
 10
139.9012317643
 20
235.9851110903
 30
0.0
 40
0.3005284039488149
100
AcDbArc
 50
305.3412092237
 51
22.9420660413
  0
SPLINE
  5
1FF
330
1F
100
AcDbEntity
  8
0
  6
Continuous
 62
     8
370
    25
100
AcDbSpline
210
0.0
220
0.0
230
1.0
 70
     8
 71
     3
 72
    22
 73
    18
 74
     0
 42
0.00000001
 43
0.00000001
 40
0.0
 40
0.0
 40
0.0
 40
0.0
 40
0.029358029011913
 40
0.0936611542505803
 40
0.1579689174796451
 40
0.2236054921371138
 40
0.2892470313011845
 40
0.3563312994511001
 40
0.423419725444322
 40
0.49904599230033
 40
0.5746755971535974
 40
0.6520349343334889
 40
0.7293927775941781
 40
0.8139745099557524
 40
0.8985439183968539
 40
0.9569900657581187
 40
1.0
 40
1.0
 40
1.0
 40
1.0
 10
149.1543736585052
 20
241.0527940437667
 30
0.0
 10
149.0696779733522
 20
240.9980969889734
 30
0.0
 10
148.7994726530882
 20
240.8235965385525
 30
0.0
 10
148.1466644975777
 20
240.406579196961
 30
0.0
 10
147.2054407166123
 20
239.8133266949819
 30
0.0
 10
146.0751801079287
 20
239.1131118415616
 30
0.0
 10
144.7673625811624
 20
238.3205480734146
 30
0.0
 10
143.2910621964754
 20
237.4490575611187
 30
0.0
 10
141.5847528171053
 20
236.4737850820713
 30
0.0
 10
139.645115856558
 20
235.40881002682
 30
0.0
 10
137.4444014770431
 20
234.2622621593189
 30
0.0
 10
135.0627936633178
 20
233.0981489790253
 30
0.0
 10
132.4244903328043
 20
231.9081843443236
 30
0.0
 10
129.5380800272404
 20
230.7325609525386
 30
0.0
 10
126.7147291769836
 20
229.738373323111
 30
0.0
 10
124.3165741739311
 20
229.0013571433332
 30
0.0
 10
122.9573800041563
 20
228.6625181591061
 30
0.0
 10
122.3811814072834
 20
228.518875292164
 30
0.0
  0
SPLINE
  5
200
330
1F
100
AcDbEntity
  8
0
  6
Continuous
 62
     8
370
    25
100
AcDbSpline
210
0.0
220
0.0
230
1.0
 70
     8
 71
     3
 72
    21
 73
    17
 74
     0
 42
0.00000001
 43
0.00000001
 40
0.0
 40
0.0
 40
0.0
 40
0.0
 40
0.0230329550914498
 40
0.1043128537594397
 40
0.1879111225375223
 40
0.2715164187286732
 40
0.3424002343948064
 40
0.4132841793532516
 40
0.4854080880479884
 40
0.5575294233287134
 40
0.6336192135375628
 40
0.709703100868064
 40
0.7877519973028386
 40
0.8657924949739338
 40
0.9419391706304812
 40
1.0
 40
1.0
 40
1.0
 40
1.0
 10
96.70749028739809
 20
229.1684362237776
 30
0.0
 10
96.42231881327218
 20
229.2468472801478
 30
0.0
 10
95.13081930056302
 20
229.6019593803448
 30
0.0
 10
92.93151950183781
 20
230.3745196947891
 30
0.0
 10
90.13088144900495
 20
231.4498019123768
 30
0.0
 10
87.60250746274582
 20
232.549345895941
 30
0.0
 10
85.34087918349974
 20
233.6128057502304
 30
0.0
 10
83.31602406659277
 20
234.6275977606019
 30
0.0
 10
81.40792383317947
 20
235.6356071239215
 30
0.0
 10
79.59333535486262
 20
236.6385725644228
 30
0.0
 10
77.90106708725592
 20
237.6108356928882
 30
0.0
 10
76.33847487730507
 20
238.5390296934142
 30
0.0
 10
74.9520519798949
 20
239.3854939548747
 30
0.0
 10
73.77959982135472
 20
240.1179175230729
 30
0.0
 10
72.88329476282384
 20
240.6872626739072
 30
0.0
 10
72.48750833049137
 20
240.9424485503324
 30
0.0
 10
72.31628326740741
 20
241.0528470233966
 30
0.0
  0
LINE
  5
201
330
1F
100
AcDbEntity
  8
0
  6
Continuous
 62
     8
370
    25
100
AcDbLine
 10
103.7098334254
 20
237.2192795603
 30
0.0
 11
103.3490394968
 21
247.6281687656
 31
0.0
  0
SPLINE
  5
202
330
1F
100
AcDbEntity
  8
0
  6
Continuous
 62
     8
370
    25
100
AcDbSpline
210
0.0
220
0.0
230
1.0
 70
     8
 71
     3
 72
    31
 73
    27
 74
     0
 42
0.00000001
 43
0.00000001
 40
0.0
 40
0.0
 40
0.0
 40
0.0
 40
0.0017390780295881
 40
0.0469673747502923
 40
0.0867596680826779
 40
0.1265535442071128
 40
0.167426554609116
 40
0.2083022708898486
 40
0.2494146560646172
 40
0.2905299101486788
 40
0.3325560199777577
 40
0.3745846283849968
 40
0.4214993826969893
 40
0.4684161947541429
 40
0.516403991598309
 40
0.5643911938189636
 40
0.6167033681645809
 40
0.6694060681207756
 40
0.7234783047043544
 40
0.7781089615937551
 40
0.8160944424560076
 40
0.8540764828042343
 40
0.8931553961395027
 40
0.9322330627952299
 40
0.9660186428256146
 40
1.0
 40
1.0
 40
1.0
 40
1.0
 10
145.4625849855355
 20
247.6252988076197
 30
0.0
 10
145.4639373323224
 20
247.6261604557901
 30
0.0
 10
145.5004602354087
 20
247.6494310347011
 30
0.0
 10
145.3754408406589
 20
247.5697512910329
 30
0.0
 10
145.0924498437564
 20
247.3895419531939
 30
0.0
 10
144.6311010318053
 20
247.0979283955473
 30
0.0
 10
144.0041872411948
 20
246.7052865858068
 30
0.0
 10
143.2067605358512
 20
246.2126487834277
 30
0.0
 10
142.2519537018856
 20
245.6325424003167
 30
0.0
 10
141.140030274984
 20
244.9712240924293
 30
0.0
 10
139.8768774153031
 20
244.2388812788808
 30
0.0
 10
138.4137841114268
 20
243.4168694648883
 30
0.0
 10
136.7489784931718
 20
242.5172660101296
 30
0.0
 10
134.859665102562
 20
241.5465987357293
 30
0.0
 10
132.8095095375429
 20
240.5558924734554
 30
0.0
 10
130.5361480071315
 20
239.5380458741479
 30
0.0
 10
128.0399744290343
 20
238.5246524534988
 30
0.0
 10
125.2893520509723
 20
237.5452116026269
 30
0.0
 10
122.3491282464269
 20
236.6662515984024
 30
0.0
 10
119.5527476646
 20
236.0116287523145
 30
0.0
 10
116.987407321763
 20
235.5679519330833
 30
0.0
 10
114.6842872537234
 20
235.2887259584335
 30
0.0
 10
112.329253375936
 20
235.133049667316
 30
0.0
 10
110.0479941123226
 20
235.1123181577144
 30
0.0
 10
107.8741338536157
 20
235.2014637650543
 30
0.0
 10
106.5113509186076
 20
235.3406470894011
 30
0.0
 10
105.8279909266142
 20
235.4104398003076
 30
0.0
  0
LINE
  5
203
330
1F
100
AcDbEntity
  8
0
  6
Continuous
 62
     8
370
    25
100
AcDbLine
 10
110.7353150067
 20
204.0142089669
 30
0.0
 11
148.7487958276
 21
204.0142089669
 31
0.0
  0
LINE
  5
204
330
1F
100
AcDbEntity
  8
0
  6
Continuous
 62
     8
370
    25
100
AcDbLine
 10
72.7218341858
 20
204.0142089669
 30
0.0
 11
110.7353150067
 21
204.0142089669
 31
0.0
  0
LWPOLYLINE
  5
205
330
1F
100
AcDbEntity
  8
0
  6
Continuous
 62
     8
370
    25
100
AcDbPolyline
 90
        4
 70
   128
 43
0.0
 10
105.8279909266
 20
235.4104398003
 10
105.8475108756
 20
235.4667817536
 10
105.8655455736
 20
235.4952873318
 10
105.874914702
 20
235.4980797742
  0
LINE
  5
206
330
1F
100
AcDbEntity
  8
0
  6
Continuous
 62
     8
370
    25
100
AcDbLine
 10
104.2612735946
 20
243.6281687656
 30
0.0
 11
104.5247016448
 21
236.1444461802
 31
0.0
  0
LWPOLYLINE
  5
207
330
1F
100
AcDbEntity
  8
0
  6
Continuous
 62
     8
370
    25
100
AcDbPolyline
 90
        9
 70
   128
 43
0.0
 10
153.2808673053
 20
241.6753476661
 10
153.2808673417
 20
241.5880493254
 10
153.2808672719
 20
241.5044360387
 10
153.2808670991
 20
241.4285183389
 10
153.2808668318
 20
241.3639376382
 10
153.2808664826
 20
241.3137915667
 10
153.2808660683
 20
241.2804853937
 10
153.2808656089
 20
241.2656166586
 10
153.2808654765
 20
241.2648768868
  0
LINE
  5
208
330
1F
100
AcDbEntity
  8
0
  6
Continuous
 62
     8
370
    25
100
AcDbLine
 10
68.189757279
 20
241.2648768868
 30
0.0
 11
68.189757279
 21
241.6753476661
 31
0.0
  0
ARC
  5
209
330
1F
100
AcDbEntity
  8
0
  6
Continuous
 62
     8
370
    25
100
AcDbCircle
 10
72.6301888997
 20
241.3388539282
 30
0.0
 40
0.3511067028973744
100
AcDbArc
 50
168.1288405752
 51
249.4061769525
  0
ARC
  5
20A
330
1F
100
AcDbEntity
  8
0
  6
Continuous
 62
     8
370
    25
100
AcDbCircle
 10
148.8405765307
 20
241.3388304493
 30
0.0
 40
0.3509659217478943
100
AcDbArc
 50
290.4933309869
 51
11.8799766401
  0
SPLINE
  5
20B
330
1F
100
AcDbEntity
  8
0
  6
Continuous
 62
     8
370
    25
100
AcDbSpline
210
0.0
220
0.0
230
1.0
 70
     8
 71
     3
 72
    17
 73
    13
 74
     0
 42
0.00000001
 43
0.00000001
 40
0.0
 40
0.0
 40
0.0
 40
0.0
 40
0.0367097947894017
 40
0.145461139516417
 40
0.2517804010934394
 40
0.3612302143621525
 40
0.4668023723298891
 40
0.5753923221009393
 40
0.6800303272861438
 40
0.7876375996344244
 40
0.8922962283360324
 40
1.0
 40
1.0
 40
1.0
 40
1.0
 10
54.78277088990047
 20
242.4339147203897
 30
0.0
 10
54.77436460240633
 20
242.4351887690626
 30
0.0
 10
54.74105501391599
 20
242.4402371375652
 30
0.0
 10
54.97400202450992
 20
242.4048537844854
 30
0.0
 10
55.4815398791046
 20
242.33070683594
 30
0.0
 10
56.26562046030433
 20
242.22362819561
 30
0.0
 10
57.29019904437251
 20
242.0978769468553
 30
0.0
 10
58.50936978989806
 20
241.9690172554161
 30
0.0
 10
59.91055784678371
 20
241.8489188920701
 30
0.0
 10
61.43018061381858
 20
241.7536183568467
 30
0.0
 10
63.05803495980257
 20
241.6880932287381
 30
0.0
 10
64.17090238527398
 20
241.6796366078593
 30
0.0
 10
64.73531500671217
 20
241.6753476661134
 30
0.0
  0
LINE
  5
20C
330
1F
100
AcDbEntity
  8
0
  6
Continuous
 62
     8
370
    25
100
AcDbLine
 10
64.7353150067
 20
241.2648768868
 30
0.0
 11
64.7353150067
 21
241.6753476661
 31
0.0
  0
SPLINE
  5
20D
330
1F
100
AcDbEntity
  8
0
  6
Continuous
 62
     8
370
    25
100
AcDbSpline
210
0.0
220
0.0
230
1.0
 70
     8
 71
     3
 72
    17
 73
    13
 74
     0
 42
0.00000001
 43
0.00000001
 40
0.0
 40
0.0
 40
0.0
 40
0.0
 40
0.0739592930164695
 40
0.1799722874675521
 40
0.2891196716721766
 40
0.3952226320407918
 40
0.5044161878892761
 40
0.609647076980056
 40
0.7178772046408596
 40
0.8228061749309555
 40
0.9307395040840578
 40
1.0
 40
1.0
 40
1.0
 40
1.0
 10
64.7353150067122
 20
245.074557949261
 30
0.0
 10
64.35157622515462
 20
245.0761917679708
 30
0.0
 10
63.41778760319537
 20
245.0801674967602
 30
0.0
 10
61.94143909166458
 20
245.118070678772
 30
0.0
 10
60.38141202372091
 20
245.1876410519003
 30
0.0
 10
58.93268384949482
 20
245.2799041001221
 30
0.0
 10
57.66564919171741
 20
245.3818701990886
 30
0.0
 10
56.59222660081969
 20
245.4836666643914
 30
0.0
 10
55.7560557968193
 20
245.5727798256385
 30
0.0
 10
55.1755554375103
 20
245.6395557293438
 30
0.0
 10
54.86435837227855
 20
245.677122266991
 30
0.0
 10
54.86648542848254
 20
245.6768778108865
 30
0.0
 10
54.86731683989023
 20
245.6767822593005
 30
0.0
  0
SPLINE
  5
20E
330
1F
100
AcDbEntity
  8
0
  6
Continuous
 62
     8
370
    25
100
AcDbSpline
210
0.0
220
0.0
230
1.0
 70
     8
 71
     3
 72
    17
 73
    13
 74
     0
 42
0.00000001
 43
0.00000001
 40
0.0
 40
0.0
 40
0.0
 40
0.0
 40
0.0744755430580111
 40
0.1804962633514996
 40
0.2896755115225205
 40
0.3958340733052158
 40
0.505085068972259
 40
0.6102864551270896
 40
0.7184774070370825
 40
0.8232858785427198
 40
0.9311010774011171
 40
1.0
 40
1.0
 40
1.0
 40
1.0
 10
156.7353150067121
 20
241.6753476661131
 30
0.0
 10
157.125330711916
 20
241.6774364515427
 30
0.0
 10
158.0705588303987
 20
241.6824987572274
 30
0.0
 10
159.562989652557
 20
241.7305744606173
 30
0.0
 10
161.1365094468985
 20
241.8184431014171
 30
0.0
 10
162.5969956077868
 20
241.9348175601835
 30
0.0
 10
163.8733241575025
 20
242.063265883662
 30
0.0
 10
164.9539137141145
 20
242.1913647913553
 30
0.0
 10
165.7951093413541
 20
242.3033968826958
 30
0.0
 10
166.3787934011154
 20
242.3872853364681
 30
0.0
 10
166.6913427993811
 20
242.4344193642196
 30
0.0
 10
166.688829488088
 20
242.4340552423307
 30
0.0
 10
166.6878495752275
 20
242.4339132751488
 30
0.0
  0
LINE
  5
20F
330
1F
100
AcDbEntity
  8
0
  6
Continuous
 62
     8
370
    25
100
AcDbLine
 10
156.7353150067
 20
241.6753476661
 30
0.0
 11
156.7353150067
 21
241.2648768868
 31
0.0
  0
SPLINE
  5
210
330
1F
100
AcDbEntity
  8
0
  6
Continuous
 62
     8
370
    25
100
AcDbSpline
210
0.0
220
0.0
230
1.0
 70
     8
 71
     3
 72
    17
 73
    13
 74
     0
 42
0.00000001
 43
0.00000001
 40
0.0
 40
0.0
 40
0.0
 40
0.0
 40
0.036458145709027
 40
0.1452768095906874
 40
0.2515760387581165
 40
0.3609951809273763
 40
0.466539165052528
 40
0.5751075545632479
 40
0.6797954803142034
 40
0.7874558447612086
 40
0.8922141378401952
 40
1.0
 40
1.0
 40
1.0
 40
1.0
 10
166.6033131735363
 20
245.6767822593005
 30
0.0
 10
166.611663284451
 20
245.6777953641512
 30
0.0
 10
166.6449364378118
 20
245.6818323396373
 30
0.0
 10
166.4145513568098
 20
245.6538165469048
 30
0.0
 10
165.9120393387405
 20
245.5950372489182
 30
0.0
 10
165.1351865321929
 20
245.5100810253524
 30
0.0
 10
164.1195434899117
 20
245.410246330226
 30
0.0
 10
162.910424216477
 20
245.3078827282223
 30
0.0
 10
161.5205209683345
 20
245.2124559589047
 30
0.0
 10
160.0129959798629
 20
245.1367282916208
 30
0.0
 10
158.3985295257893
 20
245.0846792289979
 30
0.0
 10
157.2949597516888
 20
245.0779635959485
 30
0.0
 10
156.7353150067121
 20
245.0745579492612
 30
0.0
  0
LINE
  5
211
330
1F
100
AcDbEntity
  8
0
  6
Continuous
 62
     8
370
    25
100
AcDbLine
 10
106.1865131555
 20
236.2649169854
 30
0.0
 11
106.2158649682
 21
235.4638564563
 31
0.0
  0
SPLINE
  5
212
330
1F
100
AcDbEntity
  8
0
  6
Continuous
 62
     8
370
    25
100
AcDbSpline
210
0.0
220
0.0
230
1.0
 70
     8
 71
     3
 72
    22
 73
    18
 74
     0
 42
0.00000001
 43
0.00000001
 40
0.0
 40
0.0
 40
0.0
 40
0.0
 40
0.069701875168009
 40
0.1394118404127009
 40
0.2112581200504156
 40
0.2831084472020712
 40
0.3527501705569761
 40
0.4223910722092131
 40
0.4939570932713495
 40
0.5655183588418181
 40
0.6364581453162439
 40
0.7073911739777627
 40
0.7809257495311027
 40
0.8544530244827357
 40
0.9175911311294427
 40
0.9807273727790992
 40
1.0
 40
1.0
 40
1.0
 40
1.0
 10
120.8722939852617
 20
239.8522787387233
 30
0.0
 10
121.6601976963053
 20
240.0364638486159
 30
0.0
 10
123.2360965678896
 20
240.4048554461856
 30
0.0
 10
125.4910071727333
 20
241.0655883049361
 30
0.0
 10
127.6533810178314
 20
241.7819348772513
 30
0.0
 10
129.6800634909121
 20
242.5337320318534
 30
0.0
 10
131.5469143706386
 20
243.2886225984503
 30
0.0
 10
133.2663082112524
 20
244.034845155687
 30
0.0
 10
134.8428524024424
 20
244.7602524758642
 30
0.0
 10
136.2574999837036
 20
245.4437778898854
 30
0.0
 10
137.4842515222049
 20
246.0599641611174
 30
0.0
 10
138.5276845336377
 20
246.6009756802536
 30
0.0
 10
139.366123922694
 20
247.0462357675985
 30
0.0
 10
139.9579603801198
 20
247.3667474290628
 30
0.0
 10
140.2983817404869
 20
247.5527386352404
 30
0.0
 10
140.4463836027442
 20
247.6342778592494
 30
0.0
 10
140.420553879921
 20
247.6200432303758
 30
0.0
 10
140.4145131876263
 20
247.6167142355762
 30
0.0
  0
SPLINE
  5
213
330
1F
100
AcDbEntity
  8
0
  6
Continuous
 62
     8
370
    25
100
AcDbSpline
210
0.0
220
0.0
230
1.0
 70
     8
 71
     3
 72
    13
 73
     9
 74
     0
 42
0.00000001
 43
0.00000001
 40
0.0
 40
0.0
 40
0.0
 40
0.0
 40
0.0729148635928039
 40
0.2881800175694458
 40
0.4648240468763902
 40
0.6414680831671914
 40
0.8207340353518957
 40
1.0
 40
1.0
 40
1.0
 40
1.0
 10
108.0618590618887
 20
247.5959846893076
 30
0.0
 10
108.0621944987081
 20
247.604806590961
 30
0.0
 10
108.063520239219
 20
247.6396732237463
 30
0.0
 10
108.0552110576428
 20
247.4211382378737
 30
0.0
 10
108.0387671990775
 20
246.9891051179617
 30
0.0
 10
108.0152588275231
 20
246.3728268689308
 30
0.0
 10
107.9848349368952
 20
245.5767406485079
 30
0.0
 10
107.9580837562233
 20
244.8803917247163
 30
0.0
 10
107.9447081654224
 20
244.5322172507172
 30
0.0
  0
LINE
  5
214
330
1F
100
AcDbEntity
  8
0
  6
Continuous
 62
     8
370
    25
100
AcDbLine
 10
82.7353150067
 20
195.6281687656
 30
0.0
 11
100.7353150067
 21
195.6281687656
 31
0.0
  0
LINE
  5
215
330
1F
100
AcDbEntity
  8
FORMAT
100
AcDbLine
 10
70.4036447008
 20
241.2474736367
 30
0.0
 11
69.4366245722
 21
241.3502952653
 31
0.0
  0
LINE
  5
216
330
1F
100
AcDbEntity
  8
FORMAT
100
AcDbLine
 10
71.4776390227
 20
239.6432967908
 30
0.0
 11
71.4952128234
 21
239.1400489848
 31
0.0
  0
LINE
  5
217
330
1F
100
AcDbEntity
  8
FORMAT
100
AcDbLine
 10
151.0065589126
 20
241.2471893327
 30
0.0
 11
152.0345057459
 21
241.3552766429
 31
0.0
  0
LINE
  5
218
330
1F
100
AcDbEntity
  8
FORMAT
100
AcDbLine
 10
149.9929906093
 20
239.6432858691
 30
0.0
 11
149.9756721652
 21
239.1473505162
 31
0.0
  0
ENDSEC
  0
SECTION
  2
OBJECTS
  0
DICTIONARY
  5
C
330
0
100
AcDbDictionary
281
     1
  3
ACAD_GROUP
350
D
  3
ACAD_LAYOUT
350
1A
  3
ACAD_MLINESTYLE
350
17
  3
ACAD_PLOTSETTINGS
350
19
  3
ACAD_PLOTSTYLENAME
350
E
  3
ACAD_SCALELIST
350
47
  3
DWGPROPS
350
219
  0
DICTIONARY
  5
D
102
{ACAD_REACTORS
330
C
102
}
330
C
100
AcDbDictionary
281
     1
  0
DICTIONARY
  5
1A
102
{ACAD_REACTORS
330
C
102
}
330
C
100
AcDbDictionary
281
     1
  3
Layout1
350
1E
  3
Layout2
350
26
  3
Model
350
22
  0
DICTIONARY
  5
17
102
{ACAD_REACTORS
330
C
102
}
330
C
100
AcDbDictionary
281
     1
  3
Standard
350
18
  0
DICTIONARY
  5
19
102
{ACAD_REACTORS
330
C
102
}
330
C
100
AcDbDictionary
281
     1
  0
ACDBDICTIONARYWDFLT
  5
E
102
{ACAD_REACTORS
330
C
102
}
330
C
100
AcDbDictionary
281
     1
  3
Normal
350
F
100
AcDbDictionaryWithDefault
340
F
  0
DICTIONARY
  5
47
102
{ACAD_REACTORS
330
C
102
}
330
C
100
AcDbDictionary
281
     1
  3
A0
350
48
  3
A1
350
49
  3
A2
350
4A
  3
A3
350
4B
  3
A4
350
4C
  3
A5
350
4D
  3
A6
350
4E
  3
A7
350
4F
  3
A8
350
50
  3
A9
350
51
  3
B0
350
52
  3
B1
350
53
  3
B2
350
54
  3
B3
350
55
  3
B4
350
56
  3
B5
350
57
  3
B6
350
58
  3
B7
350
59
  3
B8
350
5A
  3
B9
350
5B
  3
C0
350
5C
  3
C1
350
5D
  3
C2
350
5E
  3
C3
350
5F
  3
C4
350
60
  3
C5
350
61
  3
C6
350
62
  3
C7
350
63
  3
C8
350
64
  3
C9
350
65
  3
D0
350
66
  3
D1
350
67
  3
D2
350
68
  0
XRECORD
  5
219
102
{ACAD_REACTORS
330
C
102
}
330
C
100
AcDbXrecord
280
     1
  1
DWGPROPS COOKIE
  2

  3

  4

  6

  7

  8
eakin
  9

300
=
301
=
302
=
303
=
304
=
305
=
306
=
307
=
308
=
309
=
 40
0.0
 41
2459783.213405845
 42
2459783.213406921
  1

 90
        0
  0
LAYOUT
  5
1E
102
{ACAD_REACTORS
330
1A
102
}
330
1A
100
AcDbPlotSettings
  1

  2
none_device
  4

  6

 40
0.0
 41
0.0
 42
0.0
 43
0.0
 44
0.0
 45
0.0
 46
0.0
 47
0.0
 48
0.0
 49
0.0
140
0.0
141
0.0
142
1.0
143
1.0
 70
   688
 72
     1
 73
     0
 74
     5
  7

 75
    16
147
1.0
148
0.0
149
0.0
100
AcDbLayout
  1
Layout1
 70
     1
 71
     1
 10
0.0
 20
0.0
 11
420.0
 21
297.0
 12
0.0
 22
0.0
 32
0.0
 14
1.0000000000E+20
 24
1.0000000000E+20
 34
1.0000000000E+20
 15
-1.0000000000E+20
 25
-1.0000000000E+20
 35
-1.0000000000E+20
146
0.0
 13
0.0
 23
0.0
 33
0.0
 16
1.0
 26
0.0
 36
0.0
 17
0.0
 27
1.0
 37
0.0
 76
     0
330
1B
  0
LAYOUT
  5
26
102
{ACAD_REACTORS
330
1A
102
}
330
1A
100
AcDbPlotSettings
  1

  2
none_device
  4

  6

 40
0.0
 41
0.0
 42
0.0
 43
0.0
 44
0.0
 45
0.0
 46
0.0
 47
0.0
 48
0.0
 49
0.0
140
0.0
141
0.0
142
1.0
143
1.0
 70
   688
 72
     1
 73
     0
 74
     5
  7

 75
    16
147
1.0
148
0.0
149
0.0
100
AcDbLayout
  1
Layout2
 70
     1
 71
     2
 10
0.0
 20
0.0
 11
0.0
 21
0.0
 12
0.0
 22
0.0
 32
0.0
 14
0.0
 24
0.0
 34
0.0
 15
0.0
 25
0.0
 35
0.0
146
0.0
 13
0.0
 23
0.0
 33
0.0
 16
1.0
 26
0.0
 36
0.0
 17
0.0
 27
1.0
 37
0.0
 76
     0
330
23
  0
LAYOUT
  5
22
102
{ACAD_REACTORS
330
1A
102
}
330
1A
100
AcDbPlotSettings
  1

  2
none_device
  4
Letter_(8.50_x_11.00_Inches)
  6

 40
6.35
 41
6.35
 42
6.35000508
 43
6.35000508
 44
215.9
 45
279.4
 46
0.0
 47
0.0
 48
0.0
 49
0.0
140
0.0
141
0.0
142
1.0
143
1.0
 70
  1712
 72
     1
 73
     0
 74
     0
  7

 75
     0
147
1.0
148
0.0
149
0.0
100
AcDbLayout
  1
Model
 70
     1
 71
     0
 10
0.0
 20
0.0
 11
210.0
 21
297.0
 12
0.0
 22
0.0
 32
0.0
 14
0.0
 24
0.0
 34
0.0
 15
210.0
 25
297.0
 35
0.0
146
0.0
 13
0.0
 23
0.0
 33
0.0
 16
1.0
 26
0.0
 36
0.0
 17
0.0
 27
1.0
 37
0.0
 76
     0
330
1F
331
29
  0
MLINESTYLE
  5
18
102
{ACAD_REACTORS
330
17
102
}
330
17
100
AcDbMlineStyle
  2
Standard
 70
     0
  3

 62
   256
 51
90.0
 52
90.0
 71
     2
 49
0.5
 62
   256
  6
BYLAYER
 49
-0.5
 62
   256
  6
BYLAYER
  0
ACDBPLACEHOLDER
  5
F
102
{ACAD_REACTORS
330
E
102
}
330
E
  0
SCALE
  5
48
102
{ACAD_REACTORS
330
47
102
}
330
47
100
AcDbScale
 70
     0
300
1:1
140
1.0
141
1.0
290
     1
  0
SCALE
  5
49
102
{ACAD_REACTORS
330
47
102
}
330
47
100
AcDbScale
 70
     0
300
1:2
140
1.0
141
2.0
290
     0
  0
SCALE
  5
4A
102
{ACAD_REACTORS
330
47
102
}
330
47
100
AcDbScale
 70
     0
300
1:4
140
1.0
141
4.0
290
     0
  0
SCALE
  5
4B
102
{ACAD_REACTORS
330
47
102
}
330
47
100
AcDbScale
 70
     0
300
1:5
140
1.0
141
5.0
290
     0
  0
SCALE
  5
4C
102
{ACAD_REACTORS
330
47
102
}
330
47
100
AcDbScale
 70
     0
300
1:8
140
1.0
141
8.0
290
     0
  0
SCALE
  5
4D
102
{ACAD_REACTORS
330
47
102
}
330
47
100
AcDbScale
 70
     0
300
1:10
140
1.0
141
10.0
290
     0
  0
SCALE
  5
4E
102
{ACAD_REACTORS
330
47
102
}
330
47
100
AcDbScale
 70
     0
300
1:16
140
1.0
141
16.0
290
     0
  0
SCALE
  5
4F
102
{ACAD_REACTORS
330
47
102
}
330
47
100
AcDbScale
 70
     0
300
1:20
140
1.0
141
20.0
290
     0
  0
SCALE
  5
50
102
{ACAD_REACTORS
330
47
102
}
330
47
100
AcDbScale
 70
     0
300
1:30
140
1.0
141
30.0
290
     0
  0
SCALE
  5
51
102
{ACAD_REACTORS
330
47
102
}
330
47
100
AcDbScale
 70
     0
300
1:40
140
1.0
141
40.0
290
     0
  0
SCALE
  5
52
102
{ACAD_REACTORS
330
47
102
}
330
47
100
AcDbScale
 70
     0
300
1:50
140
1.0
141
50.0
290
     0
  0
SCALE
  5
53
102
{ACAD_REACTORS
330
47
102
}
330
47
100
AcDbScale
 70
     0
300
1:100
140
1.0
141
100.0
290
     0
  0
SCALE
  5
54
102
{ACAD_REACTORS
330
47
102
}
330
47
100
AcDbScale
 70
     0
300
2:1
140
2.0
141
1.0
290
     0
  0
SCALE
  5
55
102
{ACAD_REACTORS
330
47
102
}
330
47
100
AcDbScale
 70
     0
300
4:1
140
4.0
141
1.0
290
     0
  0
SCALE
  5
56
102
{ACAD_REACTORS
330
47
102
}
330
47
100
AcDbScale
 70
     0
300
8:1
140
8.0
141
1.0
290
     0
  0
SCALE
  5
57
102
{ACAD_REACTORS
330
47
102
}
330
47
100
AcDbScale
 70
     0
300
10:1
140
10.0
141
1.0
290
     0
  0
SCALE
  5
58
102
{ACAD_REACTORS
330
47
102
}
330
47
100
AcDbScale
 70
     0
300
100:1
140
100.0
141
1.0
290
     0
  0
SCALE
  5
59
102
{ACAD_REACTORS
330
47
102
}
330
47
100
AcDbScale
 70
     0
300
1/128" = 1'-0"
140
0.0078125
141
12.0
290
     0
  0
SCALE
  5
5A
102
{ACAD_REACTORS
330
47
102
}
330
47
100
AcDbScale
 70
     0
300
1/64" = 1'-0"
140
0.015625
141
12.0
290
     0
  0
SCALE
  5
5B
102
{ACAD_REACTORS
330
47
102
}
330
47
100
AcDbScale
 70
     0
300
1/32" = 1'-0"
140
0.03125
141
12.0
290
     0
  0
SCALE
  5
5C
102
{ACAD_REACTORS
330
47
102
}
330
47
100
AcDbScale
 70
     0
300
1/16" = 1'-0"
140
0.0625
141
12.0
290
     0
  0
SCALE
  5
5D
102
{ACAD_REACTORS
330
47
102
}
330
47
100
AcDbScale
 70
     0
300
3/32" = 1'-0"
140
0.09375
141
12.0
290
     0
  0
SCALE
  5
5E
102
{ACAD_REACTORS
330
47
102
}
330
47
100
AcDbScale
 70
     0
300
1/8" = 1'-0"
140
0.125
141
12.0
290
     0
  0
SCALE
  5
5F
102
{ACAD_REACTORS
330
47
102
}
330
47
100
AcDbScale
 70
     0
300
3/16" = 1'-0"
140
0.1875
141
12.0
290
     0
  0
SCALE
  5
60
102
{ACAD_REACTORS
330
47
102
}
330
47
100
AcDbScale
 70
     0
300
1/4" = 1'-0"
140
0.25
141
12.0
290
     0
  0
SCALE
  5
61
102
{ACAD_REACTORS
330
47
102
}
330
47
100
AcDbScale
 70
     0
300
3/8" = 1'-0"
140
0.375
141
12.0
290
     0
  0
SCALE
  5
62
102
{ACAD_REACTORS
330
47
102
}
330
47
100
AcDbScale
 70
     0
300
1/2" = 1'-0"
140
0.5
141
12.0
290
     0
  0
SCALE
  5
63
102
{ACAD_REACTORS
330
47
102
}
330
47
100
AcDbScale
 70
     0
300
3/4" = 1'-0"
140
0.75
141
12.0
290
     0
  0
SCALE
  5
64
102
{ACAD_REACTORS
330
47
102
}
330
47
100
AcDbScale
 70
     0
300
1" = 1'-0"
140
1.0
141
12.0
290
     0
  0
SCALE
  5
65
102
{ACAD_REACTORS
330
47
102
}
330
47
100
AcDbScale
 70
     0
300
1-1/2" = 1'-0"
140
1.5
141
12.0
290
     0
  0
SCALE
  5
66
102
{ACAD_REACTORS
330
47
102
}
330
47
100
AcDbScale
 70
     0
300
3" = 1'-0"
140
3.0
141
12.0
290
     0
  0
SCALE
  5
67
102
{ACAD_REACTORS
330
47
102
}
330
47
100
AcDbScale
 70
     0
300
6" = 1'-0"
140
6.0
141
12.0
290
     0
  0
SCALE
  5
68
102
{ACAD_REACTORS
330
47
102
}
330
47
100
AcDbScale
 70
     0
300
1'-0" = 1'-0"
140
12.0
141
12.0
290
     0
  0
ENDSEC
  0
EOF
