  0
SECTION
  2
HEADER
  9
$ACADVER
  1
AC1015
  9
$ACADMAINTVER
 70
     6
  9
$DWGCODEPAGE
  3
ANSI_1254
  9
$INSBASE
 10
0.0
 20
0.0
 30
0.0
  9
$EXTMIN
 10
0.0
 20
0.0
 30
0.0
  9
$EXTMAX
 10
1189.0
 20
841.0
 30
0.0
  9
$LIMMIN
 10
0.0
 20
0.0
  9
$LIMMAX
 10
1189.0
 20
841.0
  9
$ORTHOMODE
 70
     0
  9
$REGENMODE
 70
     1
  9
$FILLMODE
 70
     1
  9
$QTEXTMODE
 70
     0
  9
$MIRRTEXT
 70
     1
  9
$LTSCALE
 40
1.0
  9
$ATTMODE
 70
     1
  9
$TEXTSIZE
 40
4.9388888889
  9
$TRACEWID
 40
1.0
  9
$TEXTSTYLE
  7
Standard
  9
$CLAYER
  8
0
  9
$CELTYPE
  6
ByLayer
  9
$CECOLOR
 62
   256
  9
$CELTSCALE
 40
1.0
  9
$DISPSILH
 70
     0
  9
$DIMSCALE
 40
1.0
  9
$DIMASZ
 40
3.65
  9
$DIMEXO
 40
0.5
  9
$DIMDLI
 40
3.75
  9
$DIMRND
 40
0.0
  9
$DIMDLE
 40
0.0
  9
$DIMEXE
 40
1.0
  9
$DIMTP
 40
0.0
  9
$DIMTM
 40
0.0
  9
$DIMTXT
 40
4.2333333333
  9
$DIMCEN
 40
2.5
  9
$DIMTSZ
 40
0.0
  9
$DIMTOL
 70
     0
  9
$DIMLIM
 70
     0
  9
$DIMTIH
 70
     1
  9
$DIMTOH
 70
     1
  9
$DIMSE1
 70
     0
  9
$DIMSE2
 70
     0
  9
$DIMTAD
 70
     1
  9
$DIMZIN
 70
     0
  9
$DIMBLK
  1

  9
$DIMASO
 70
     1
  9
$DIMSHO
 70
     1
  9
$DIMPOST
  1

  9
$DIMAPOST
  1

  9
$DIMALT
 70
     0
  9
$DIMALTD
 70
     3
  9
$DIMALTF
 40
0.0393700787
  9
$DIMLFAC
 40
1.0
  9
$DIMTOFL
 70
     1
  9
$DIMTVP
 40
0.0
  9
$DIMTIX
 70
     0
  9
$DIMSOXD
 70
     0
  9
$DIMSAH
 70
     0
  9
$DIMBLK1
  1

  9
$DIMBLK2
  1

  9
$DIMSTYLE
  2
ISO-25
  9
$DIMCLRD
 70
     0
  9
$DIMCLRE
 70
     0
  9
$DIMCLRT
 70
     0
  9
$DIMTFAC
 40
1.0
  9
$DIMGAP
 40
1.524
  9
$DIMJUST
 70
     0
  9
$DIMSD1
 70
     0
  9
$DIMSD2
 70
     0
  9
$DIMTOLJ
 70
     0
  9
$DIMTZIN
 70
     0
  9
$DIMALTZ
 70
     0
  9
$DIMALTTZ
 70
     0
  9
$DIMUPT
 70
     0
  9
$DIMDEC
 70
     2
  9
$DIMTDEC
 70
     2
  9
$DIMALTU
 70
     2
  9
$DIMALTTD
 70
     3
  9
$DIMTXSTY
  7
Standard
  9
$DIMAUNIT
 70
     0
  9
$DIMADEC
 70
     2
  9
$DIMALTRND
 40
0.0
  9
$DIMAZIN
 70
     0
  9
$DIMDSEP
 70
    44
  9
$DIMATFIT
 70
     3
  9
$DIMFRAC
 70
     0
  9
$DIMLDRBLK
  1

  9
$DIMLUNIT
 70
     2
  9
$DIMLWD
 70
    -2
  9
$DIMLWE
 70
    -2
  9
$DIMTMOVE
 70
     0
  9
$LUNITS
 70
     2
  9
$LUPREC
 70
     2
  9
$SKETCHINC
 40
1.0
  9
$FILLETRAD
 40
10.0
  9
$AUNITS
 70
     0
  9
$AUPREC
 70
     2
  9
$MENU
  1
.
  9
$ELEVATION
 40
0.0
  9
$PELEVATION
 40
0.0
  9
$THICKNESS
 40
0.0
  9
$LIMCHECK
 70
     0
  9
$CHAMFERA
 40
0.0
  9
$CHAMFERB
 40
0.0
  9
$CHAMFERC
 40
0.0
  9
$CHAMFERD
 40
0.0
  9
$SKPOLY
 70
     0
  9
$TDCREATE
 40
2459102.34791353
  9
$TDUCREATE
 40
2459102.22291353
  9
$TDUPDATE
 40
2459102.347915208
  9
$TDUUPDATE
 40
2459102.222915208
  9
$TDINDWG
 40
0.0000000116
  9
$TDUSRTIMER
 40
0.0000000116
  9
$USRTIMER
 70
     1
  9
$ANGBASE
 50
0.0
  9
$ANGDIR
 70
     0
  9
$PDMODE
 70
     0
  9
$PDSIZE
 40
-1.0
  9
$PLINEWID
 40
0.0
  9
$SPLFRAME
 70
     0
  9
$SPLINETYPE
 70
     6
  9
$SPLINESEGS
 70
     8
  9
$HANDSEED
  5
438
  9
$SURFTAB1
 70
     6
  9
$SURFTAB2
 70
     6
  9
$SURFTYPE
 70
     6
  9
$SURFU
 70
     6
  9
$SURFV
 70
     6
  9
$UCSBASE
  2

  9
$UCSNAME
  2

  9
$UCSORG
 10
0.0
 20
0.0
 30
0.0
  9
$UCSXDIR
 10
1.0
 20
0.0
 30
0.0
  9
$UCSYDIR
 10
0.0
 20
1.0
 30
0.0
  9
$UCSORTHOREF
  2

  9
$UCSORTHOVIEW
 70
     0
  9
$UCSORGTOP
 10
0.0
 20
0.0
 30
0.0
  9
$UCSORGBOTTOM
 10
0.0
 20
0.0
 30
0.0
  9
$UCSORGLEFT
 10
0.0
 20
0.0
 30
0.0
  9
$UCSORGRIGHT
 10
0.0
 20
0.0
 30
0.0
  9
$UCSORGFRONT
 10
0.0
 20
0.0
 30
0.0
  9
$UCSORGBACK
 10
0.0
 20
0.0
 30
0.0
  9
$PUCSBASE
  2

  9
$PUCSNAME
  2

  9
$PUCSORG
 10
0.0
 20
0.0
 30
0.0
  9
$PUCSXDIR
 10
1.0
 20
0.0
 30
0.0
  9
$PUCSYDIR
 10
0.0
 20
1.0
 30
0.0
  9
$PUCSORTHOREF
  2

  9
$PUCSORTHOVIEW
 70
     0
  9
$PUCSORGTOP
 10
0.0
 20
0.0
 30
0.0
  9
$PUCSORGBOTTOM
 10
0.0
 20
0.0
 30
0.0
  9
$PUCSORGLEFT
 10
0.0
 20
0.0
 30
0.0
  9
$PUCSORGRIGHT
 10
0.0
 20
0.0
 30
0.0
  9
$PUCSORGFRONT
 10
0.0
 20
0.0
 30
0.0
  9
$PUCSORGBACK
 10
0.0
 20
0.0
 30
0.0
  9
$USERI1
 70
     0
  9
$USERI2
 70
     0
  9
$USERI3
 70
     0
  9
$USERI4
 70
     0
  9
$USERI5
 70
     0
  9
$USERR1
 40
0.0
  9
$USERR2
 40
0.0
  9
$USERR3
 40
0.0
  9
$USERR4
 40
0.0
  9
$USERR5
 40
0.0
  9
$WORLDVIEW
 70
     1
  9
$SHADEDGE
 70
     3
  9
$SHADEDIF
 70
    70
  9
$TILEMODE
 70
     1
  9
$MAXACTVP
 70
    64
  9
$PINSBASE
 10
0.0
 20
0.0
 30
0.0
  9
$PLIMCHECK
 70
     0
  9
$PEXTMIN
 10
1.0000000000E+20
 20
1.0000000000E+20
 30
1.0000000000E+20
  9
$PEXTMAX
 10
-1.0000000000E+20
 20
-1.0000000000E+20
 30
-1.0000000000E+20
  9
$PLIMMIN
 10
0.0
 20
0.0
  9
$PLIMMAX
 10
420.0
 20
297.0
  9
$UNITMODE
 70
     0
  9
$VISRETAIN
 70
     1
  9
$PLINEGEN
 70
     0
  9
$PSLTSCALE
 70
     1
  9
$TREEDEPTH
 70
  3020
  9
$CMLSTYLE
  2
Standard
  9
$CMLJUST
 70
     0
  9
$CMLSCALE
 40
20.0
  9
$PROXYGRAPHICS
 70
     1
  9
$MEASUREMENT
 70
     1
  9
$CELWEIGHT
370
    -1
  9
$ENDCAPS
280
     0
  9
$JOINSTYLE
280
     0
  9
$LWDISPLAY
290
     1
  9
$INSUNITS
 70
     4
  9
$HYPERLINKBASE
  1

  9
$STYLESHEET
  1

  9
$XEDIT
290
     1
  9
$CEPSNTYPE
380
     0
  9
$PSTYLEMODE
290
     1
  9
$FINGERPRINTGUID
  2
{b6cb13e6-9489-4bf2-b133-be394abb27d0}
  9
$VERSIONGUID
  2
{FAEB1C32-E019-11D5-929B-00C0DF256EC4}
  9
$EXTNAMES
290
     1
  9
$PSVPSCALE
 40
0.0
  9
$OLESTARTUP
290
     0
  0
ENDSEC
  0
SECTION
  2
CLASSES
  0
CLASS
  1
ACDBDICTIONARYWDFLT
  2
AcDbDictionaryWithDefault
  3
ObjectDBX Classes
 90
        0
280
     0
281
     0
  0
CLASS
  1
VISUALSTYLE
  2
AcDbVisualStyle
  3
ObjectDBX Classes
 90
     4095
280
     0
281
     0
  0
CLASS
  1
MATERIAL
  2
AcDbMaterial
  3
ObjectDBX Classes
 90
     1153
280
     0
281
     0
  0
CLASS
  1
SCALE
  2
AcDbScale
  3
ObjectDBX Classes
 90
     1153
280
     0
281
     0
  0
CLASS
  1
TABLESTYLE
  2
AcDbTableStyle
  3
ObjectDBX Classes
 90
     4095
280
     0
281
     0
  0
CLASS
  1
MLEADERSTYLE
  2
AcDbMLeaderStyle
  3
ACDB_MLEADERSTYLE_CLASS
 90
     4095
280
     0
281
     0
  0
CLASS
  1
SUN
  2
AcDbSun
  3
SCENEOE
 90
     1153
280
     0
281
     0
  0
CLASS
  1
ACDBPLACEHOLDER
  2
AcDbPlaceHolder
  3
ObjectDBX Classes
 90
        0
280
     0
281
     0
  0
CLASS
  1
LAYOUT
  2
AcDbLayout
  3
ObjectDBX Classes
 90
        0
280
     0
281
     0
  0
ENDSEC
  0
SECTION
  2
TABLES
  0
TABLE
  2
VPORT
  5
8
330
0
100
AcDbSymbolTable
 70
     1
  0
VPORT
  5
29
330
8
100
AcDbSymbolTableRecord
100
AcDbViewportTableRecord
  2
*Active
 70
     0
 10
0.0
 20
0.0
 11
1.0
 21
1.0
 12
594.5
 22
420.5
 13
0.0
 23
0.0
 14
10.0
 24
10.0
 15
10.0
 25
10.0
 16
0.0
 26
0.0
 36
1.0
 17
0.0
 27
0.0
 37
0.0
 40
841.0
 41
1.4137931034
 42
50.0
 43
0.0
 44
0.0
 50
0.0
 51
0.0
 71
     0
 72
  2000
 73
     1
 74
     3
 75
     0
 76
     0
 77
     0
 78
     0
281
     0
 65
     1
110
0.0
120
0.0
130
0.0
111
1.0
121
0.0
131
0.0
112
0.0
122
1.0
132
0.0
 79
     0
146
0.0
  0
ENDTAB
  0
TABLE
  2
LTYPE
  5
5
330
0
100
AcDbSymbolTable
 70
     6
  0
LTYPE
  5
14
330
5
100
AcDbSymbolTableRecord
100
AcDbLinetypeTableRecord
  2
ByBlock
 70
     0
  3

 72
    65
 73
     0
 40
0.0
  0
LTYPE
  5
15
330
5
100
AcDbSymbolTableRecord
100
AcDbLinetypeTableRecord
  2
ByLayer
 70
     0
  3

 72
    65
 73
     0
 40
0.0
  0
LTYPE
  5
16
330
5
100
AcDbSymbolTableRecord
100
AcDbLinetypeTableRecord
  2
Continuous
 70
     0
  3
Solid line
 72
    65
 73
     0
 40
0.0
  0
LTYPE
  5
6E
330
5
100
AcDbSymbolTableRecord
100
AcDbLinetypeTableRecord
  2
HIDDEN
 70
     0
  3
Hidden __ __ __ __ __ __ __ __ __ __ __ __ __ __
 72
    65
 73
     2
 40
1.905
 49
1.27
 74
     0
 49
-0.635
 74
     0
  0
LTYPE
  5
6F
330
5
100
AcDbSymbolTableRecord
100
AcDbLinetypeTableRecord
  2
PHANTOM
 70
     0
  3
Phantom ______  __  __  ______  __  __  ______
 72
    65
 73
     6
 40
12.7
 49
6.35
 74
     0
 49
-1.27
 74
     0
 49
1.27
 74
     0
 49
-1.27
 74
     0
 49
1.27
 74
     0
 49
-1.27
 74
     0
  0
LTYPE
  5
70
330
5
100
AcDbSymbolTableRecord
100
AcDbLinetypeTableRecord
  2
CENTER
 70
     0
  3
Center ____ _ ____ _ ____ _ ____ _ ____ _ ____
 72
    65
 73
     4
 40
10.16
 49
6.35
 74
     0
 49
-1.27
 74
     0
 49
1.27
 74
     0
 49
-1.27
 74
     0
  0
LTYPE
  5
71
330
5
100
AcDbSymbolTableRecord
100
AcDbLinetypeTableRecord
  2
CENTERX2
 70
     0
  3
Center (2x) ________  __  ________  __  _____
 72
    65
 73
     4
 40
20.32
 49
12.7
 74
     0
 49
-2.54
 74
     0
 49
2.54
 74
     0
 49
-2.54
 74
     0
  0
LTYPE
  5
72
330
5
100
AcDbSymbolTableRecord
100
AcDbLinetypeTableRecord
  2
DOT2
 70
     0
  3
Dot (.5x) ........................................
 72
    65
 73
     2
 40
0.635
 49
0.0
 74
     0
 49
-0.635
 74
     0
  0
ENDTAB
  0
TABLE
  2
LAYER
  5
2
330
0
100
AcDbSymbolTable
 70
     5
  0
LAYER
  5
10
330
2
100
AcDbSymbolTableRecord
100
AcDbLayerTableRecord
  2
0
 70
     0
 62
     7
  6
Continuous
370
    -3
390
F
  0
LAYER
  5
73
330
2
100
AcDbSymbolTableRecord
100
AcDbLayerTableRecord
  2
FORMAT
 70
     0
 62
     7
  6
Continuous
370
    -3
390
F
  0
LAYER
  5
74
330
2
100
AcDbSymbolTableRecord
100
AcDbLayerTableRecord
  2
SLD-0
 70
     0
 62
   179
  6
Continuous
370
    -3
390
F
  0
LAYER
  5
75
330
2
100
AcDbSymbolTableRecord
100
AcDbLayerTableRecord
  2
AAA_EKSEN
 70
     0
 62
     1
  6
CENTER
370
    -3
390
F
  0
LAYER
  5
76
330
2
100
AcDbSymbolTableRecord
100
AcDbLayerTableRecord
  2
03
 70
     0
 62
     3
  6
HIDDEN
370
    -3
390
F
  0
ENDTAB
  0
TABLE
  2
STYLE
  5
3
330
0
100
AcDbSymbolTable
 70
     1
  0
STYLE
  5
11
330
3
100
AcDbSymbolTableRecord
100
AcDbTextStyleTableRecord
  2
Standard
 70
     0
 40
0.0
 41
1.0
 50
0.0
 71
     0
 42
4.9388888889
  3
txt
  4

  0
ENDTAB
  0
TABLE
  2
VIEW
  5
6
330
0
100
AcDbSymbolTable
 70
     0
  0
ENDTAB
  0
TABLE
  2
UCS
  5
7
330
0
100
AcDbSymbolTable
 70
     0
  0
ENDTAB
  0
TABLE
  2
APPID
  5
9
330
0
100
AcDbSymbolTable
 70
     1
  0
APPID
  5
12
330
9
100
AcDbSymbolTableRecord
100
AcDbRegAppTableRecord
  2
ACAD
 70
     0
  0
ENDTAB
  0
TABLE
  2
DIMSTYLE
  5
A
330
0
100
AcDbSymbolTable
 70
     1
100
AcDbDimStyleTable
  0
DIMSTYLE
105
27
330
A
100
AcDbSymbolTableRecord
100
AcDbDimStyleTableRecord
  2
ISO-25
 70
     0
 41
2.5
 42
0.625
 43
3.75
 44
1.25
 73
     0
 74
     0
 77
     1
 78
     8
140
2.5
141
2.5
143
0.0393700787
147
0.625
171
     3
172
     1
178
     0
271
     2
272
     2
274
     3
278
    44
283
     0
284
     8
340
11
  0
ENDTAB
  0
TABLE
  2
BLOCK_RECORD
  5
1
330
0
100
AcDbSymbolTable
 70
     1
  0
BLOCK_RECORD
  5
1F
330
1
100
AcDbSymbolTableRecord
100
AcDbBlockTableRecord
  2
*Model_Space
340
22
  0
BLOCK_RECORD
  5
1B
330
1
100
AcDbSymbolTableRecord
100
AcDbBlockTableRecord
  2
*Paper_Space
340
1E
  0
BLOCK_RECORD
  5
23
330
1
100
AcDbSymbolTableRecord
100
AcDbBlockTableRecord
  2
*Paper_Space0
340
26
  0
ENDTAB
  0
ENDSEC
  0
SECTION
  2
BLOCKS
  0
BLOCK
  5
20
330
1F
100
AcDbEntity
  8
0
100
AcDbBlockBegin
  2
*Model_Space
 70
     0
 10
0.0
 20
0.0
 30
0.0
  3
*Model_Space
  1

  0
ENDBLK
  5
21
330
1F
100
AcDbEntity
  8
0
100
AcDbBlockEnd
  0
BLOCK
  5
1C
330
1B
100
AcDbEntity
 67
     1
  8
0
100
AcDbBlockBegin
  2
*Paper_Space
 70
     0
 10
0.0
 20
0.0
 30
0.0
  3
*Paper_Space
  1

  0
ENDBLK
  5
1D
330
1B
100
AcDbEntity
 67
     1
  8
0
100
AcDbBlockEnd
  0
BLOCK
  5
24
330
23
100
AcDbEntity
  8
0
100
AcDbBlockBegin
  2
*Paper_Space0
 70
     0
 10
0.0
 20
0.0
 30
0.0
  3
*Paper_Space0
  1

  0
ENDBLK
  5
25
330
23
100
AcDbEntity
  8
0
100
AcDbBlockEnd
  0
ENDSEC
  0
SECTION
  2
ENTITIES
  0
CIRCLE
  5
77
330
1F
100
AcDbEntity
  8
0
  6
Continuous
 62
     7
100
AcDbCircle
 10
577.7288888889
 20
-1162.9786209031
 30
0.0
 40
2.0
  0
CIRCLE
  5
78
330
1F
100
AcDbEntity
  8
0
  6
Continuous
 62
     7
100
AcDbCircle
 10
522.7288888889
 20
-1176.9786209025
 30
0.0
 40
2.000000000000209
  0
CIRCLE
  5
79
330
1F
100
AcDbEntity
  8
0
  6
Continuous
 62
     7
100
AcDbCircle
 10
547.7288888889
 20
-1162.9786209031
 30
0.0
 40
1.999999999999941
  0
CIRCLE
  5
7A
330
1F
100
AcDbEntity
  8
0
  6
Continuous
 62
     7
100
AcDbCircle
 10
538.7288888889
 20
-822.9786209025
 30
0.0
 40
2.000000000000011
  0
CIRCLE
  5
7B
330
1F
100
AcDbEntity
  8
0
  6
Continuous
 62
     7
100
AcDbCircle
 10
580.7288888889
 20
-974.9786209025
 30
0.0
 40
2.000000000000081
  0
LINE
  5
7C
330
1F
100
AcDbEntity
  8
0
  6
Continuous
 62
     7
370
    25
100
AcDbLine
 10
566.528888953
 20
2295.6995364085
 30
0.0
 11
566.528888953
 21
2296.0795756235
 31
0.0
  0
LINE
  5
7D
330
1F
100
AcDbEntity
  8
0
  6
Continuous
 62
     7
370
    25
100
AcDbLine
 10
558.9288888248
 20
2296.0795756235
 30
0.0
 11
558.9288888248
 21
2295.6995364085
 31
0.0
  0
ARC
  5
7E
330
1F
100
AcDbEntity
  8
0
  6
Continuous
 62
     7
370
    25
100
AcDbCircle
 10
563.7911006351
 20
2295.0831123708
 30
0.0
 40
2.913493405396422
100
AcDbArc
 50
20.0
 51
75.1723001232
  0
ARC
  5
7F
330
1F
100
AcDbEntity
  8
0
  6
Continuous
 62
     7
370
    25
100
AcDbCircle
 10
561.6666771426
 20
2295.0831123708
 30
0.0
 40
2.913493405396422
100
AcDbArc
 50
104.8276998768
 51
160.0
  0
LINE
  5
80
330
1F
100
AcDbEntity
  8
0
  6
Continuous
 62
     7
370
    25
100
AcDbLine
 10
667.5288896757
 20
2295.6995364085
 30
0.0
 11
667.5288896757
 21
2296.0795756235
 31
0.0
  0
LINE
  5
81
330
1F
100
AcDbEntity
  8
0
  6
Continuous
 62
     7
370
    25
100
AcDbLine
 10
659.9288876849
 20
2296.0795756235
 30
0.0
 11
659.9288876849
 21
2295.6995364085
 31
0.0
  0
ARC
  5
82
330
1F
100
AcDbEntity
  8
0
  6
Continuous
 62
     7
370
    25
100
AcDbCircle
 10
664.7911006351
 20
2295.0831123708
 30
0.0
 40
2.913493405396861
100
AcDbArc
 50
20.0
 51
75.1723001232
  0
ARC
  5
83
330
1F
100
AcDbEntity
  8
0
  6
Continuous
 62
     7
370
    25
100
AcDbCircle
 10
662.6666771426
 20
2295.0831123708
 30
0.0
 40
2.913493405396861
100
AcDbArc
 50
104.8276998768
 51
160.0
  0
ARC
  5
84
330
1F
100
AcDbEntity
  8
0
  6
Continuous
 62
     7
370
    25
100
AcDbCircle
 10
462.6911006351
 20
2295.0831123708
 30
0.0
 40
2.913493405396861
100
AcDbArc
 50
20.0
 51
75.1723001232
  0
ARC
  5
85
330
1F
100
AcDbEntity
  8
0
  6
Continuous
 62
     7
370
    25
100
AcDbCircle
 10
460.5666771426
 20
2295.0831123708
 30
0.0
 40
2.913493405396861
100
AcDbArc
 50
104.8276998768
 51
160.0
  0
LINE
  5
86
330
1F
100
AcDbEntity
  8
0
  6
Continuous
 62
     7
370
    25
100
AcDbLine
 10
465.4288884001
 20
2295.6995364085
 30
0.0
 11
465.4288884001
 21
2296.0795756235
 31
0.0
  0
LINE
  5
87
330
1F
100
AcDbEntity
  8
0
  6
Continuous
 62
     7
370
    25
100
AcDbLine
 10
457.8288864093
 20
2296.0795756235
 30
0.0
 11
457.8288864093
 21
2295.6995364085
 31
0.0
  0
LINE
  5
88
330
1F
100
AcDbEntity
  8
0
  6
Continuous
 62
     7
370
    25
100
AcDbLine
 10
671.7288862663
 20
2180.5378790751
 30
0.0
 11
672.1088882285
 21
2180.5378790751
 31
0.0
  0
LINE
  5
89
330
1F
100
AcDbEntity
  8
0
  6
Continuous
 62
     7
370
    25
100
AcDbLine
 10
672.1088882285
 20
2188.1379481211
 30
0.0
 11
671.7288862663
 21
2188.1379481211
 31
0.0
  0
ARC
  5
8A
330
1F
100
AcDbEntity
  8
0
  6
Continuous
 62
     7
370
    25
100
AcDbCircle
 10
671.1124154568
 20
2183.2756393236
 30
0.0
 40
2.913493405396399
100
AcDbArc
 50
290.0
 51
345.1723001232
  0
ARC
  5
8B
330
1F
100
AcDbEntity
  8
0
  6
Continuous
 62
     7
370
    25
100
AcDbCircle
 10
671.1124154568
 20
2185.4000628161
 30
0.0
 40
2.913493405396399
100
AcDbArc
 50
14.8276998768
 51
70.0
  0
LINE
  5
8C
330
1F
100
AcDbEntity
  8
0
  6
Continuous
 62
     7
370
    25
100
AcDbLine
 10
453.7288915115
 20
2294.9222918406
 30
0.0
 11
453.3488895493
 21
2294.9222918406
 31
0.0
  0
ARC
  5
8D
330
1F
100
AcDbEntity
  8
0
  6
Continuous
 62
     7
370
    25
100
AcDbCircle
 10
454.345362321
 20
2292.1845087979
 30
0.0
 40
2.91349340539638
100
AcDbArc
 50
110.0
 51
165.1723001232
  0
ARC
  5
8E
330
1F
100
AcDbEntity
  8
0
  6
Continuous
 62
     7
370
    25
100
AcDbCircle
 10
454.345362321
 20
2290.0600853054
 30
0.0
 40
2.913493405396253
100
AcDbArc
 50
194.8276998768
 51
236.301469044
  0
ARC
  5
8F
330
1F
100
AcDbEntity
  8
0
  6
Continuous
 62
     7
370
    25
100
AcDbCircle
 10
671.1124154568
 20
2255.1806664464
 30
0.0
 40
2.91349340539636
100
AcDbArc
 50
290.0
 51
345.1723001232
  0
ARC
  5
90
330
1F
100
AcDbEntity
  8
0
  6
Continuous
 62
     7
370
    25
100
AcDbCircle
 10
671.1124154568
 20
2257.3050899389
 30
0.0
 40
2.91349340539636
100
AcDbArc
 50
14.8276998768
 51
70.0
  0
LINE
  5
91
330
1F
100
AcDbEntity
  8
0
  6
Continuous
 62
     7
370
    25
100
AcDbLine
 10
671.7288862663
 20
2252.4427767649
 30
0.0
 11
672.1088882285
 21
2252.4427767649
 31
0.0
  0
LINE
  5
92
330
1F
100
AcDbEntity
  8
0
  6
Continuous
 62
     7
370
    25
100
AcDbLine
 10
672.1088882285
 20
2260.0428458109
 30
0.0
 11
671.7288862663
 21
2260.0428458109
 31
0.0
  0
LINE
  5
93
330
1F
100
AcDbEntity
  8
0
  6
Continuous
 62
     7
370
    25
100
AcDbLine
 10
671.7288862663
 20
2023.3055945292
 30
0.0
 11
672.1088882285
 21
2023.3055945292
 31
0.0
  0
LINE
  5
94
330
1F
100
AcDbEntity
  8
0
  6
Continuous
 62
     7
370
    25
100
AcDbLine
 10
672.1088882285
 20
2030.9056635752
 30
0.0
 11
671.7288862663
 21
2030.9056635752
 31
0.0
  0
ARC
  5
95
330
1F
100
AcDbEntity
  8
0
  6
Continuous
 62
     7
370
    25
100
AcDbCircle
 10
671.1124154568
 20
2026.0434354258
 30
0.0
 40
2.91349340539636
100
AcDbArc
 50
290.0
 51
345.1723001232
  0
ARC
  5
96
330
1F
100
AcDbEntity
  8
0
  6
Continuous
 62
     7
370
    25
100
AcDbCircle
 10
671.1124154568
 20
2028.1678589183
 30
0.0
 40
2.913493405396202
100
AcDbArc
 50
14.8276998768
 51
70.0
  0
LINE
  5
97
330
1F
100
AcDbEntity
  8
0
  6
Continuous
 62
     7
370
    25
100
AcDbLine
 10
672.1088882285
 20
2294.9222918406
 30
0.0
 11
671.7288862663
 21
2294.9222918406
 31
0.0
  0
ARC
  5
98
330
1F
100
AcDbEntity
  8
0
  6
Continuous
 62
     7
370
    25
100
AcDbCircle
 10
671.1124154568
 20
2290.0600853054
 30
0.0
 40
2.913493405396144
100
AcDbArc
 50
303.6985309559
 51
345.1723001232
  0
ARC
  5
99
330
1F
100
AcDbEntity
  8
0
  6
Continuous
 62
     7
370
    25
100
AcDbCircle
 10
671.1124154568
 20
2292.1845087979
 30
0.0
 40
2.913493405396321
100
AcDbArc
 50
14.8276998768
 51
70.0
  0
LINE
  5
9A
330
1F
100
AcDbEntity
  8
0
  6
Continuous
 62
     7
370
    25
100
AcDbLine
 10
671.7288862663
 20
2145.8644266978
 30
0.0
 11
672.1088882285
 21
2145.8644266978
 31
0.0
  0
LINE
  5
9B
330
1F
100
AcDbEntity
  8
0
  6
Continuous
 62
     7
370
    25
100
AcDbLine
 10
672.1088882285
 20
2153.4642573252
 30
0.0
 11
671.7288862663
 21
2153.4642573252
 31
0.0
  0
ARC
  5
9C
330
1F
100
AcDbEntity
  8
0
  6
Continuous
 62
     7
370
    25
100
AcDbCircle
 10
671.1124154568
 20
2148.6021628396
 30
0.0
 40
2.913493405396399
100
AcDbArc
 50
290.0
 51
345.1723001232
  0
ARC
  5
9D
330
1F
100
AcDbEntity
  8
0
  6
Continuous
 62
     7
370
    25
100
AcDbCircle
 10
671.1124154568
 20
2150.7265863321
 30
0.0
 40
2.913493405396399
100
AcDbArc
 50
14.8276998768
 51
70.0
  0
LINE
  5
9E
330
1F
100
AcDbEntity
  8
0
  6
Continuous
 62
     7
370
    25
100
AcDbLine
 10
453.7288915115
 20
2030.9056635752
 30
0.0
 11
453.3488895493
 21
2030.9056635752
 31
0.0
  0
LINE
  5
9F
330
1F
100
AcDbEntity
  8
0
  6
Continuous
 62
     7
370
    25
100
AcDbLine
 10
453.3488895493
 20
2023.3055945292
 30
0.0
 11
453.7288915115
 21
2023.3055945292
 31
0.0
  0
ARC
  5
A0
330
1F
100
AcDbEntity
  8
0
  6
Continuous
 62
     7
370
    25
100
AcDbCircle
 10
454.345362321
 20
2028.1678589183
 30
0.0
 40
2.913493405396312
100
AcDbArc
 50
110.0
 51
165.1723001232
  0
ARC
  5
A1
330
1F
100
AcDbEntity
  8
0
  6
Continuous
 62
     7
370
    25
100
AcDbCircle
 10
454.345362321
 20
2026.0434354258
 30
0.0
 40
2.913493405396399
100
AcDbArc
 50
194.8276998768
 51
250.0
  0
ARC
  5
A2
330
1F
100
AcDbEntity
  8
0
  6
Continuous
 62
     7
370
    25
100
AcDbCircle
 10
454.345362321
 20
2150.7265863321
 30
0.0
 40
2.91349340539638
100
AcDbArc
 50
110.0
 51
165.1723001232
  0
ARC
  5
A3
330
1F
100
AcDbEntity
  8
0
  6
Continuous
 62
     7
370
    25
100
AcDbCircle
 10
454.345362321
 20
2148.6021628396
 30
0.0
 40
2.91349340539638
100
AcDbArc
 50
194.8276998768
 51
250.0
  0
LINE
  5
A4
330
1F
100
AcDbEntity
  8
0
  6
Continuous
 62
     7
370
    25
100
AcDbLine
 10
453.7288915115
 20
2153.4642573252
 30
0.0
 11
453.3488895493
 21
2153.4642573252
 31
0.0
  0
LINE
  5
A5
330
1F
100
AcDbEntity
  8
0
  6
Continuous
 62
     7
370
    25
100
AcDbLine
 10
453.3488895493
 20
2145.8644266978
 30
0.0
 11
453.7288915115
 21
2145.8644266978
 31
0.0
  0
ARC
  5
A6
330
1F
100
AcDbEntity
  8
0
  6
Continuous
 62
     7
370
    25
100
AcDbCircle
 10
454.345362321
 20
2185.4000628161
 30
0.0
 40
2.913493405396341
100
AcDbArc
 50
110.0
 51
165.1723001232
  0
ARC
  5
A7
330
1F
100
AcDbEntity
  8
0
  6
Continuous
 62
     7
370
    25
100
AcDbCircle
 10
454.345362321
 20
2183.2756393236
 30
0.0
 40
2.91349340539636
100
AcDbArc
 50
194.8276998768
 51
250.0
  0
LINE
  5
A8
330
1F
100
AcDbEntity
  8
0
  6
Continuous
 62
     7
370
    25
100
AcDbLine
 10
453.7288915115
 20
2188.1379481211
 30
0.0
 11
453.3488895493
 21
2188.1379481211
 31
0.0
  0
LINE
  5
A9
330
1F
100
AcDbEntity
  8
0
  6
Continuous
 62
     7
370
    25
100
AcDbLine
 10
453.3488895493
 20
2180.5378790751
 30
0.0
 11
453.7288915115
 21
2180.5378790751
 31
0.0
  0
ARC
  5
AA
330
1F
100
AcDbEntity
  8
0
  6
Continuous
 62
     7
370
    25
100
AcDbCircle
 10
454.345362321
 20
2257.3050899389
 30
0.0
 40
2.91349340539638
100
AcDbArc
 50
110.0
 51
165.1723001232
  0
ARC
  5
AB
330
1F
100
AcDbEntity
  8
0
  6
Continuous
 62
     7
370
    25
100
AcDbCircle
 10
454.345362321
 20
2255.1806664464
 30
0.0
 40
2.91349340539638
100
AcDbArc
 50
194.8276998768
 51
250.0
  0
LINE
  5
AC
330
1F
100
AcDbEntity
  8
0
  6
Continuous
 62
     7
370
    25
100
AcDbLine
 10
453.7288915115
 20
2260.0428458109
 30
0.0
 11
453.3488895493
 21
2260.0428458109
 31
0.0
  0
LINE
  5
AD
330
1F
100
AcDbEntity
  8
0
  6
Continuous
 62
     7
370
    25
100
AcDbLine
 10
453.3488895493
 20
2252.4427767649
 30
0.0
 11
453.7288915115
 21
2252.4427767649
 31
0.0
  0
CIRCLE
  5
AE
330
1F
100
AcDbEntity
  8
0
  6
Continuous
 62
     7
370
    25
100
AcDbCircle
 10
562.7288888889
 20
-1136.644352828
 30
0.0
 40
5.7349999999999
  0
CIRCLE
  5
AF
330
1F
100
AcDbEntity
  8
0
  6
Continuous
 62
     7
370
    25
100
AcDbCircle
 10
562.7288888889
 20
-837.144352828
 30
0.0
 40
8.25
  0
ARC
  5
B0
330
1F
100
AcDbEntity
  8
0
  6
Continuous
 62
     7
370
    25
100
AcDbCircle
 10
542.7288888889
 20
-1171.894352828
 30
0.0
 40
20.0
100
AcDbArc
 50
180.0
 51
270.0
  0
LINE
  5
B1
330
1F
100
AcDbEntity
  8
0
  6
Continuous
 62
     7
370
    25
100
AcDbLine
 10
582.7288884419
 20
-781.8943266019
 30
0.0
 11
542.7288893359
 21
-781.8943266019
 31
0.0
  0
ARC
  5
B2
330
1F
100
AcDbEntity
  8
0
  6
Continuous
 62
     7
370
    25
100
AcDbCircle
 10
582.7288888889
 20
-801.894352828
 30
0.0
 40
20.00000000000011
100
AcDbArc
 50
0.0
 51
90.0
  0
LINE
  5
B3
330
1F
100
AcDbEntity
  8
0
  6
Continuous
 62
     7
370
    25
100
AcDbLine
 10
602.7288879948
 20
-1171.8943719015
 30
0.0
 11
602.7288879948
 21
-801.8943671331
 31
0.0
  0
ARC
  5
B4
330
1F
100
AcDbEntity
  8
0
  6
Continuous
 62
     7
370
    25
100
AcDbCircle
 10
582.7288888889
 20
-1171.894352828
 30
0.0
 40
20.0
100
AcDbArc
 50
270.0
 51
0.0
  0
LINE
  5
B5
330
1F
100
AcDbEntity
  8
0
  6
Continuous
 62
     7
370
    25
100
AcDbLine
 10
542.7288893359
 20
-1191.894352828
 30
0.0
 11
582.7288884419
 21
-1191.894352828
 31
0.0
  0
ARC
  5
B6
330
1F
100
AcDbEntity
  8
0
  6
Continuous
 62
     7
370
    25
100
AcDbCircle
 10
542.7288888889
 20
-801.894352828
 30
0.0
 40
20.00000000000011
100
AcDbArc
 50
90.0
 51
180.0
  0
LINE
  5
B7
330
1F
100
AcDbEntity
  8
0
  6
Continuous
 62
     7
370
    25
100
AcDbLine
 10
522.728889783
 20
-801.8943671331
 30
0.0
 11
522.728889783
 21
-1171.8943719015
 31
0.0
  0
ARC
  5
B8
330
1F
100
AcDbEntity
  8
0
  6
Continuous
 62
     7
370
    25
100
AcDbCircle
 10
490.5345633801
 20
2260.0651797933
 30
0.0
 40
10.76933602837812
100
AcDbArc
 50
180.8810395228
 51
270.4468812266
  0
LWPOLYLINE
  5
B9
330
1F
100
AcDbEntity
  8
0
  6
Continuous
 62
     7
370
    25
100
AcDbPolyline
 90
        9
 70
   128
 43
0.0
 10
490.6263570982
 20
2248.3310099497
 10
490.6261633831
 20
2248.3493681803
 10
490.6256865459
 20
2248.4039660349
 10
490.6249489384
 20
2248.4924193278
 10
490.6239803629
 20
2248.6118670359
 10
490.6228106218
 20
2248.7575407877
 10
490.6214844184
 20
2248.9244337931
 10
490.6200464564
 20
2249.1061087504
 10
490.6185563403
 20
2249.2961283579
  0
ARC
  5
BA
330
1F
100
AcDbEntity
  8
0
  6
Continuous
 62
     7
370
    25
100
AcDbCircle
 10
490.5345633801
 20
2260.10007929
 30
0.0
 40
11.76933602837861
100
AcDbArc
 50
180.9760946821
 51
270.4468812266
  0
ARC
  5
BB
330
1F
100
AcDbEntity
  8
0
  6
Continuous
 62
     7
370
    25
100
AcDbCircle
 10
636.3231101367
 20
2260.10007929
 30
0.0
 40
11.76933602837798
100
AcDbArc
 50
269.5531187734
 51
359.0239053179
  0
LWPOLYLINE
  5
BC
330
1F
100
AcDbEntity
  8
0
  6
Continuous
 62
     7
370
    25
100
AcDbPolyline
 90
        9
 70
   128
 43
0.0
 10
636.2313177186
 20
2248.3310099497
 10
636.2315114337
 20
2248.3493681803
 10
636.2319882708
 20
2248.4039660349
 10
636.2327258783
 20
2248.4924193278
 10
636.2336944538
 20
2248.6118670359
 10
636.2348641949
 20
2248.7575407877
 10
636.2361903983
 20
2248.9244337931
 10
636.2376283603
 20
2249.1061087504
 10
636.2391184764
 20
2249.2961283579
  0
ARC
  5
BD
330
1F
100
AcDbEntity
  8
0
  6
Continuous
 62
     7
370
    25
100
AcDbCircle
 10
636.3231101367
 20
2260.0651797933
 30
0.0
 40
10.76933602837803
100
AcDbArc
 50
269.5531187734
 51
359.1189604772
  0
ARC
  5
BE
330
1F
100
AcDbEntity
  8
0
  6
Continuous
 62
     7
370
    25
100
AcDbCircle
 10
635.2138249903
 20
2117.8437916803
 30
0.0
 40
131.4563780682929
100
AcDbArc
 50
89.5531187734
 51
107.8876148317
  0
ARC
  5
BF
330
1F
100
AcDbEntity
  8
0
  6
Continuous
 62
     7
370
    25
100
AcDbCircle
 10
594.6525880174
 20
2243.5166727794
 30
0.0
 40
0.6000000000000936
100
AcDbArc
 50
255.5949749034
 51
287.8876148317
  0
LINE
  5
C0
330
1F
100
AcDbEntity
  8
0
  6
Continuous
 62
     7
370
    25
100
AcDbLine
 10
571.1822850379
 20
2248.925625886
 30
0.0
 11
594.5033240812
 21
2242.9355975047
 31
0.0
  0
ARC
  5
C1
330
1F
100
AcDbEntity
  8
0
  6
Continuous
 62
     7
370
    25
100
AcDbCircle
 10
568.5203941591
 20
2238.5619347073
 30
0.0
 40
10.70000000000027
100
AcDbArc
 50
75.5949749034
 51
90.0
  0
LINE
  5
C2
330
1F
100
AcDbEntity
  8
0
  6
Continuous
 62
     7
370
    25
100
AcDbLine
 10
558.3372791978
 20
2249.2620345011
 30
0.0
 11
568.5203942219
 21
2249.2620345011
 31
0.0
  0
ARC
  5
C3
330
1F
100
AcDbEntity
  8
0
  6
Continuous
 62
     7
370
    25
100
AcDbCircle
 10
558.3372793577
 20
2238.5619347073
 30
0.0
 40
10.69999999999997
100
AcDbArc
 50
90.0
 51
104.4050250966
  0
LINE
  5
C4
330
1F
100
AcDbEntity
  8
0
  6
Continuous
 62
     7
370
    25
100
AcDbLine
 10
532.3543507355
 20
2242.9355975047
 30
0.0
 11
555.6753888475
 21
2248.925625886
 31
0.0
  0
ARC
  5
C5
330
1F
100
AcDbEntity
  8
0
  6
Continuous
 62
     7
370
    25
100
AcDbCircle
 10
532.2050854994
 20
2243.5166727794
 30
0.0
 40
0.6000000000001284
100
AcDbArc
 50
252.1123851683
 51
284.4050250966
  0
ARC
  5
C6
330
1F
100
AcDbEntity
  8
0
  6
Continuous
 62
     7
370
    25
100
AcDbCircle
 10
491.6438485264
 20
2117.8437916803
 30
0.0
 40
131.4563780682934
100
AcDbArc
 50
72.1123851683
 51
90.4468812266
  0
ARC
  5
C7
330
1F
100
AcDbEntity
  8
0
  6
Continuous
 62
     7
370
    25
100
AcDbCircle
 10
635.2138249903
 20
2117.878691177
 30
0.0
 40
130.4563780682932
100
AcDbArc
 50
89.5531187734
 51
107.8876148317
  0
ARC
  5
C8
330
1F
100
AcDbEntity
  8
0
  6
Continuous
 62
     7
370
    25
100
AcDbCircle
 10
616.1327525736
 20
2249.5710554123
 30
0.0
 40
22.30270697734799
100
AcDbArc
 50
197.2816491751
 51
199.7655762849
  0
ARC
  5
C9
330
1F
100
AcDbEntity
  8
0
  6
Continuous
 62
     7
370
    25
100
AcDbCircle
 10
491.6438485264
 20
2117.878691177
 30
0.0
 40
130.4563780682936
100
AcDbArc
 50
72.1123851683
 51
90.4468812266
  0
ARC
  5
CA
330
1F
100
AcDbEntity
  8
0
  6
Continuous
 62
     7
370
    25
100
AcDbCircle
 10
510.7279972684
 20
2249.5700677537
 30
0.0
 40
22.29947736817162
100
AcDbArc
 50
340.2341383874
 51
342.7184268188
  0
ARC
  5
CB
330
1F
100
AcDbEntity
  8
0
  6
Continuous
 62
     7
370
    25
100
AcDbCircle
 10
558.3372793577
 20
2238.596834204
 30
0.0
 40
9.700000000000273
100
AcDbArc
 50
90.0
 51
104.4050250966
  0
ARC
  5
CC
330
1F
100
AcDbEntity
  8
0
  6
Continuous
 62
     7
370
    25
100
AcDbCircle
 10
581.9419733966
 20
2255.4245065923
 30
0.0
 40
27.05861996309677
100
AcDbArc
 50
193.897036443
 51
195.9430907968
  0
LINE
  5
CD
330
1F
100
AcDbEntity
  8
0
  6
Continuous
 62
     7
370
    25
100
AcDbLine
 10
558.3372791978
 20
2248.2969160929
 30
0.0
 11
558.3372791978
 21
2249.2620345011
 31
0.0
  0
ARC
  5
CE
330
1F
100
AcDbEntity
  8
0
  6
Continuous
 62
     7
370
    25
100
AcDbCircle
 10
568.5203941591
 20
2238.596834204
 30
0.0
 40
9.700000000000273
100
AcDbArc
 50
75.5949749034
 51
90.0
  0
LINE
  5
CF
330
1F
100
AcDbEntity
  8
0
  6
Continuous
 62
     7
370
    25
100
AcDbLine
 10
568.5203942219
 20
2248.2969160929
 30
0.0
 11
568.5203942219
 21
2249.2620345011
 31
0.0
  0
ARC
  5
D0
330
1F
100
AcDbEntity
  8
0
  6
Continuous
 62
     7
370
    25
100
AcDbCircle
 10
544.9168656572
 20
2255.4242091039
 30
0.0
 40
27.05741745035911
100
AcDbArc
 50
344.0568369228
 51
346.102982473
  0
LINE
  5
D1
330
1F
100
AcDbEntity
  8
0
  6
Continuous
 62
     7
370
    25
100
AcDbLine
 10
568.5203942219
 20
2248.2969160929
 30
0.0
 11
558.3372791978
 21
2248.2969160929
 31
0.0
  0
LINE
  5
D2
330
1F
100
AcDbEntity
  8
0
  6
Continuous
 62
     7
370
    25
100
AcDbLine
 10
594.2545491951
 20
2242.0019503489
 30
0.0
 11
570.9335101517
 21
2247.9919787302
 31
0.0
  0
ARC
  5
D3
330
1F
100
AcDbEntity
  8
0
  6
Continuous
 62
     7
370
    25
100
AcDbCircle
 10
567.8089197213
 20
2249.5484858846
 30
0.0
 40
27.50130027578767
100
AcDbArc
 50
344.0733514707
 51
346.0864679251
  0
LINE
  5
D4
330
1F
100
AcDbEntity
  8
0
  6
Continuous
 62
     7
370
    25
100
AcDbLine
 10
555.924163268
 20
2247.9919787302
 30
0.0
 11
532.6031256216
 21
2242.0019503489
 31
0.0
  0
ARC
  5
D5
330
1F
100
AcDbEntity
  8
0
  6
Continuous
 62
     7
370
    25
100
AcDbCircle
 10
559.0364038383
 20
2249.5451948312
 30
0.0
 40
27.48852005108343
100
AcDbArc
 50
193.9130640481
 51
195.9271165561
  0
ARC
  5
D6
330
1F
100
AcDbEntity
  8
0
  6
Continuous
 62
     7
370
    25
100
AcDbCircle
 10
594.6525880174
 20
2243.5515722761
 30
0.0
 40
1.600000000000105
100
AcDbArc
 50
255.5949749034
 51
287.8876148317
  0
ARC
  5
D7
330
1F
100
AcDbEntity
  8
0
  6
Continuous
 62
     7
370
    25
100
AcDbCircle
 10
532.2050854994
 20
2243.5515722761
 30
0.0
 40
1.600000000000105
100
AcDbArc
 50
252.1123851683
 51
284.4050250966
  0
LINE
  5
D8
330
1F
100
AcDbEntity
  8
0
  6
Continuous
 62
     7
370
    25
100
AcDbLine
 10
566.528888953
 20
2296.0795756235
 30
0.0
 11
558.9288888248
 21
2296.0795756235
 31
0.0
  0
LINE
  5
D9
330
1F
100
AcDbEntity
  8
0
  6
Continuous
 62
     7
370
    25
100
AcDbLine
 10
564.5367018395
 20
2297.8996630564
 30
0.0
 11
560.9210759383
 21
2297.8996630564
 31
0.0
  0
LINE
  5
DA
330
1F
100
AcDbEntity
  8
0
  6
Continuous
 62
     7
370
    25
100
AcDbLine
 10
667.5288896757
 20
2296.0795756235
 30
0.0
 11
659.9288876849
 21
2296.0795756235
 31
0.0
  0
LINE
  5
DB
330
1F
100
AcDbEntity
  8
0
  6
Continuous
 62
     7
370
    25
100
AcDbLine
 10
665.5367012816
 20
2297.8996630564
 30
0.0
 11
661.9210760789
 21
2297.8996630564
 31
0.0
  0
LINE
  5
DC
330
1F
100
AcDbEntity
  8
0
  6
Continuous
 62
     7
370
    25
100
AcDbLine
 10
465.4288884001
 20
2296.0795756235
 30
0.0
 11
457.8288864093
 21
2296.0795756235
 31
0.0
  0
LINE
  5
DD
330
1F
100
AcDbEntity
  8
0
  6
Continuous
 62
     7
370
    25
100
AcDbLine
 10
463.4367000061
 20
2297.8996630564
 30
0.0
 11
459.8210748034
 21
2297.8996630564
 31
0.0
  0
LINE
  5
DE
330
1F
100
AcDbEntity
  8
0
  6
Continuous
 62
     7
370
    25
100
AcDbLine
 10
458.4788899618
 20
2295.6995364085
 30
0.0
 11
458.4788899618
 21
2293.699681367
 31
0.0
  0
LINE
  5
DF
330
1F
100
AcDbEntity
  8
0
  6
Continuous
 62
     7
370
    25
100
AcDbLine
 10
458.4788899618
 20
2293.699681367
 30
0.0
 11
455.4788913327
 21
2293.699681367
 31
0.0
  0
LINE
  5
E0
330
1F
100
AcDbEntity
  8
0
  6
Continuous
 62
     7
370
    25
100
AcDbLine
 10
455.4788913327
 20
2293.699681367
 30
0.0
 11
455.4788913327
 21
2295.6995364085
 31
0.0
  0
LINE
  5
E1
330
1F
100
AcDbEntity
  8
0
  6
Continuous
 62
     7
370
    25
100
AcDbLine
 10
455.4788913327
 20
2295.6995364085
 30
0.0
 11
458.4788899618
 21
2295.6995364085
 31
0.0
  0
LINE
  5
E2
330
1F
100
AcDbEntity
  8
0
  6
Continuous
 62
     7
370
    25
100
AcDbLine
 10
669.9788864451
 20
2295.6995364085
 30
0.0
 11
669.9788864451
 21
2293.699681367
 31
0.0
  0
LINE
  5
E3
330
1F
100
AcDbEntity
  8
0
  6
Continuous
 62
     7
370
    25
100
AcDbLine
 10
669.9788864451
 20
2293.699681367
 30
0.0
 11
666.978887816
 21
2293.699681367
 31
0.0
  0
LINE
  5
E4
330
1F
100
AcDbEntity
  8
0
  6
Continuous
 62
     7
370
    25
100
AcDbLine
 10
666.978887816
 20
2293.699681367
 30
0.0
 11
666.978887816
 21
2295.6995364085
 31
0.0
  0
LINE
  5
E5
330
1F
100
AcDbEntity
  8
0
  6
Continuous
 62
     7
370
    25
100
AcDbLine
 10
666.978887816
 20
2295.6995364085
 30
0.0
 11
669.9788864451
 21
2295.6995364085
 31
0.0
  0
LINE
  5
E6
330
1F
100
AcDbEntity
  8
0
  6
Continuous
 62
     7
370
    25
100
AcDbLine
 10
458.4788899618
 20
2293.699681367
 30
0.0
 11
666.978887816
 21
2293.699681367
 31
0.0
  0
LINE
  5
E7
330
1F
100
AcDbEntity
  8
0
  6
Continuous
 62
     7
370
    25
100
AcDbLine
 10
458.4788899618
 20
2295.6995364085
 30
0.0
 11
666.978887816
 21
2295.6995364085
 31
0.0
  0
LINE
  5
E8
330
1F
100
AcDbEntity
  8
0
  6
Continuous
 62
     7
370
    25
100
AcDbLine
 10
669.3753372627
 20
2263.599574174
 30
0.0
 11
456.0824405151
 21
2263.599574174
 31
0.0
  0
LINE
  5
E9
330
1F
100
AcDbEntity
  8
0
  6
Continuous
 62
     7
370
    25
100
AcDbLine
 10
669.3753372627
 20
2289.9996634379
 30
0.0
 11
456.0824405151
 21
2289.9996634379
 31
0.0
  0
LINE
  5
EA
330
1F
100
AcDbEntity
  8
0
  6
Continuous
 62
     7
370
    25
100
AcDbLine
 10
456.0824405151
 20
2263.599574174
 30
0.0
 11
456.0824405151
 21
2289.9996634379
 31
0.0
  0
LINE
  5
EB
330
1F
100
AcDbEntity
  8
0
  6
Continuous
 62
     7
370
    25
100
AcDbLine
 10
669.3753372627
 20
2263.599574174
 30
0.0
 11
669.3753372627
 21
2289.9996634379
 31
0.0
  0
SPLINE
  5
EC
330
1F
100
AcDbEntity
  8
0
  6
Continuous
 62
     7
370
    25
100
AcDbSpline
210
0.0
220
0.0
230
1.0
 70
     8
 71
     3
 72
    11
 73
     7
 74
     0
 42
0.000000001
 43
0.00000001
 40
0.0
 40
0.0
 40
0.0
 40
0.0
 40
0.2499943020014302
 40
0.500017205767029
 40
0.7499915981852384
 40
1.0
 40
1.0
 40
1.0
 40
1.0
 10
456.4288925128513
 20
2259.899556244888
 30
0.0
 10
456.4000201581064
 20
2259.955128321947
 30
0.0
 10
456.3422721453404
 20
2260.066278834046
 30
0.0
 10
456.2556784676776
 20
2260.922181071282
 30
0.0
 10
456.1690450533125
 20
2262.14505699606
 30
0.0
 10
456.1113100035682
 20
2263.114713128961
 30
0.0
 10
456.0824405150944
 20
2263.599574173965
 30
0.0
  0
SPLINE
  5
ED
330
1F
100
AcDbEntity
  8
0
  6
Continuous
 62
     7
370
    25
100
AcDbSpline
210
0.0
220
0.0
230
1.0
 70
     8
 71
     3
 72
    11
 73
     7
 74
     0
 42
0.000000001
 43
0.00000001
 40
0.0
 40
0.0
 40
0.0
 40
0.0
 40
0.2500084018147615
 40
0.4999827942329709
 40
0.7500056979985698
 40
1.0
 40
1.0
 40
1.0
 40
1.0
 10
669.3753372626835
 20
2263.599574173965
 30
0.0
 10
669.3464677742096
 20
2263.11471312896
 30
0.0
 10
669.2887327244653
 20
2262.145056996058
 30
0.0
 10
669.2020993101004
 20
2260.922181071283
 30
0.0
 10
669.1155056324375
 20
2260.066278834047
 30
0.0
 10
669.0577576196713
 20
2259.955128321946
 30
0.0
 10
669.0288852649265
 20
2259.899556244888
 30
0.0
  0
LINE
  5
EE
330
1F
100
AcDbEntity
  8
0
  6
Continuous
 62
     7
370
    25
100
AcDbLine
 10
669.0288852649
 20
2259.8995562449
 30
0.0
 11
456.4288925129
 21
2259.8995562449
 31
0.0
  0
SPLINE
  5
EF
330
1F
100
AcDbEntity
  8
0
  6
Continuous
 62
     7
370
    25
100
AcDbSpline
210
0.0
220
0.0
230
1.0
 70
     8
 71
     3
 72
    12
 73
     8
 74
     0
 42
0.000000001
 43
0.00000001
 40
0.0
 40
0.0
 40
0.0
 40
0.0
 40
0.216263755677858
 40
0.4325147319717761
 40
0.648755514586638
 40
0.8650175975235532
 40
1.0
 40
1.0
 40
1.0
 40
1.0
 10
456.0824405150943
 20
2289.999663437881
 30
0.0
 10
456.1329193388308
 20
2290.418676629328
 30
0.0
 10
456.2338740034264
 20
2291.256678252036
 30
0.0
 10
456.3853263075161
 20
2292.371459005202
 30
0.0
 10
456.5367352037661
 20
2293.208573460053
 30
0.0
 10
456.6693441411718
 20
2293.64044300797
 30
0.0
 10
456.751046785991
 20
2293.683236089631
 30
0.0
 10
456.7824449139172
 20
2293.699681366958
 30
0.0
  0
SPLINE
  5
F0
330
1F
100
AcDbEntity
  8
0
  6
Continuous
 62
     7
370
    25
100
AcDbSpline
210
0.0
220
0.0
230
1.0
 70
     8
 71
     3
 72
    12
 73
     8
 74
     0
 42
0.000000001
 43
0.00000001
 40
0.0
 40
0.0
 40
0.0
 40
0.0
 40
0.2162683315534384
 40
0.4325204493006192
 40
0.6487605316404439
 40
0.865048245296052
 40
1.0
 40
1.0
 40
1.0
 40
1.0
 10
668.6753328638607
 20
2293.699681366958
 30
0.0
 10
668.7258117274971
 20
2293.658132626834
 30
0.0
 10
668.82676567033
 20
2293.575038261527
 30
0.0
 10
668.9782153425285
 20
2292.92803909924
 30
0.0
 10
669.1296438240979
 20
2291.977109574621
 30
0.0
 10
669.2622100951867
 20
2290.93846629725
 30
0.0
 10
669.3439366346299
 20
2290.260246285089
 30
0.0
 10
669.3753372626835
 20
2289.999663437881
 30
0.0
  0
LINE
  5
F1
330
1F
100
AcDbEntity
  8
0
  6
Continuous
 62
     7
370
    25
100
AcDbLine
 10
455.728888114
 20
2289.9996634379
 30
0.0
 11
452.7288894849
 21
2289.9996634379
 31
0.0
  0
LINE
  5
F2
330
1F
100
AcDbEntity
  8
0
  6
Continuous
 62
     7
370
    25
100
AcDbLine
 10
456.4288925129
 20
2293.699681367
 30
0.0
 11
456.4288925129
 21
2292.5629015818
 31
0.0
  0
SPLINE
  5
F3
330
1F
100
AcDbEntity
  8
0
  6
Continuous
 62
     7
370
    25
100
AcDbSpline
210
0.0
220
0.0
230
1.0
 70
     8
 71
     3
 72
    11
 73
     7
 74
     0
 42
0.000000001
 43
0.00000001
 40
0.0
 40
0.0
 40
0.0
 40
0.0
 40
0.0311468242519266
 40
0.3716272584768954
 40
0.7119002760190014
 40
1.0
 40
1.0
 40
1.0
 40
1.0
 10
456.1612006025844
 20
2290.641009415664
 30
0.0
 10
456.1528586370599
 20
2290.639308525338
 30
0.0
 10
456.05332676334
 20
2290.619014411124
 30
0.0
 10
455.9011008535017
 20
2290.476248247345
 30
0.0
 10
455.7534427121973
 20
2290.25242616266
 30
0.0
 10
455.7366070289127
 20
2290.079121221918
 30
0.0
 10
455.7288881140286
 20
2289.999663437881
 30
0.0
  0
SPLINE
  5
F4
330
1F
100
AcDbEntity
  8
0
  6
Continuous
 62
     7
370
    25
100
AcDbSpline
210
0.0
220
0.0
230
1.0
 70
     8
 71
     3
 72
    12
 73
     8
 74
     0
 42
0.000000001
 43
0.00000001
 40
0.0
 40
0.0
 40
0.0
 40
0.0
 40
0.2162646668875969
 40
0.4325246262324722
 40
0.6487647962407906
 40
0.8650486886348587
 40
1.0
 40
1.0
 40
1.0
 40
1.0
 10
456.4288925128513
 20
2293.699681366958
 30
0.0
 10
456.0098854712321
 20
2293.658128700551
 30
0.0
 10
455.1718805087324
 20
2293.575024272233
 30
0.0
 10
454.0571330182063
 20
2292.928054887584
 30
0.0
 10
453.2197148240095
 20
2291.977121504227
 30
0.0
 10
452.7881084884299
 20
2290.938457171987
 30
0.0
 10
452.7453269671171
 20
2290.260245419442
 30
0.0
 10
452.7288894849354
 20
2289.999663437881
 30
0.0
  0
SPLINE
  5
F5
330
1F
100
AcDbEntity
  8
0
  6
Continuous
 62
     7
370
    25
100
AcDbSpline
210
0.0
220
0.0
230
1.0
 70
     8
 71
     3
 72
    12
 73
     8
 74
     0
 42
0.000000001
 43
0.00000001
 40
0.0
 40
0.0
 40
0.0
 40
0.0
 40
0.2162635528407346
 40
0.43251617406751
 40
0.6487579823348051
 40
0.8650200160014724
 40
1.0
 40
1.0
 40
1.0
 40
1.0
 10
672.7288882928425
 20
2289.999663437881
 30
0.0
 10
672.6873855811122
 20
2290.418677513478
 30
0.0
 10
672.6043822555163
 20
2291.256684484496
 30
0.0
 10
671.9573897913514
 20
2292.371456655009
 30
0.0
 10
671.006299288108
 20
2293.208571896242
 30
0.0
 10
669.9677541166424
 20
2293.640441174765
 30
0.0
 10
669.2895244423963
 20
2293.683235710105
 30
0.0
 10
669.0288852649265
 20
2293.699681366958
 30
0.0
  0
LINE
  5
F6
330
1F
100
AcDbEntity
  8
0
  6
Continuous
 62
     7
370
    25
100
AcDbLine
 10
669.7288896637
 20
2289.9996634379
 30
0.0
 11
672.7288882928
 21
2289.9996634379
 31
0.0
  0
SPLINE
  5
F7
330
1F
100
AcDbEntity
  8
0
  6
Continuous
 62
     7
370
    25
100
AcDbSpline
210
0.0
220
0.0
230
1.0
 70
     8
 71
     3
 72
    10
 73
     6
 74
     0
 42
0.000000001
 43
0.00000001
 40
0.0
 40
0.0
 40
0.0
 40
0.0
 40
0.3679713712232827
 40
0.7101219025813787
 40
1.0
 40
1.0
 40
1.0
 40
1.0
 10
669.7288896637493
 20
2289.999663437881
 30
0.0
 10
669.715939735511
 20
2290.099662866062
 30
0.0
 10
669.6909485856609
 20
2290.292644684079
 30
0.0
 10
669.5234619896189
 20
2290.525286245062
 30
0.0
 10
669.3687958509531
 20
2290.602660784584
 30
0.0
 10
669.2978586750561
 20
2290.638148392715
 30
0.0
  0
LINE
  5
F8
330
1F
100
AcDbEntity
  8
0
  6
Continuous
 62
     7
370
    25
100
AcDbLine
 10
669.0288852649
 20
2293.699681367
 30
0.0
 11
669.0288852649
 21
2292.5629015818
 31
0.0
  0
LINE
  5
F9
330
1F
100
AcDbEntity
  8
0
  6
Continuous
 62
     7
370
    25
100
AcDbLine
 10
672.7288882928
 20
2263.599574174
 30
0.0
 11
669.7288896637
 21
2263.599574174
 31
0.0
  0
LINE
  5
FA
330
1F
100
AcDbEntity
  8
0
  6
Continuous
 62
     7
370
    25
100
AcDbLine
 10
672.7288882928
 20
2263.599574174
 30
0.0
 11
672.7288882928
 21
2289.9996634379
 31
0.0
  0
LINE
  5
FB
330
1F
100
AcDbEntity
  8
0
  6
Continuous
 62
     7
370
    25
100
AcDbLine
 10
669.7288896637
 20
2263.599574174
 30
0.0
 11
669.7288896637
 21
2289.9996634379
 31
0.0
  0
LINE
  5
FC
330
1F
100
AcDbEntity
  8
0
  6
Continuous
 62
     7
370
    25
100
AcDbLine
 10
455.728888114
 20
2263.599574174
 30
0.0
 11
455.728888114
 21
2289.9996634379
 31
0.0
  0
LINE
  5
FD
330
1F
100
AcDbEntity
  8
0
  6
Continuous
 62
     7
370
    25
100
AcDbLine
 10
452.7288894849
 20
2263.599574174
 30
0.0
 11
455.728888114
 21
2263.599574174
 31
0.0
  0
LINE
  5
FE
330
1F
100
AcDbEntity
  8
0
  6
Continuous
 62
     7
370
    25
100
AcDbLine
 10
452.7288894849
 20
2263.599574174
 30
0.0
 11
452.7288894849
 21
2289.9996634379
 31
0.0
  0
SPLINE
  5
FF
330
1F
100
AcDbEntity
  8
0
  6
Continuous
 62
     7
370
    25
100
AcDbSpline
210
0.0
220
0.0
230
1.0
 70
     8
 71
     3
 72
    11
 73
     7
 74
     0
 42
0.000000001
 43
0.00000001
 40
0.0
 40
0.0
 40
0.0
 40
0.0
 40
0.2500062374999816
 40
0.4999813991789206
 40
0.7500025746761195
 40
1.0
 40
1.0
 40
1.0
 40
1.0
 10
452.7288894849354
 20
2263.599574173965
 30
0.0
 10
452.7844909294223
 20
2263.114711664232
 30
0.0
 10
452.8956869071264
 20
2262.145046913264
 30
0.0
 10
453.7514850871051
 20
2260.922188822562
 30
0.0
 10
454.9742929056342
 20
2260.066271820596
 30
0.0
 10
455.9440413310032
 20
2259.955126343707
 30
0.0
 10
456.4288925128513
 20
2259.899556244888
 30
0.0
  0
SPLINE
  5
100
330
1F
100
AcDbEntity
  8
0
  6
Continuous
 62
     7
370
    25
100
AcDbSpline
210
0.0
220
0.0
230
1.0
 70
     8
 71
     3
 72
    10
 73
     6
 74
     0
 42
0.000000001
 43
0.00000001
 40
0.0
 40
0.0
 40
0.0
 40
0.0
 40
0.3546396237316908
 40
0.7090372763629591
 40
1.0
 40
1.0
 40
1.0
 40
1.0
 10
455.7288881140286
 20
2263.599574173965
 30
0.0
 10
455.7396818614415
 20
2263.508444106717
 30
0.0
 10
455.7612619916788
 20
2263.326246150388
 30
0.0
 10
455.9095536673762
 20
2263.099767455126
 30
0.0
 10
456.0548391906347
 20
2263.017329922337
 30
0.0
 10
456.1203416185909
 20
2262.980162705459
 30
0.0
  0
SPLINE
  5
101
330
1F
100
AcDbEntity
  8
0
  6
Continuous
 62
     7
370
    25
100
AcDbSpline
210
0.0
220
0.0
230
1.0
 70
     8
 71
     3
 72
    11
 73
     7
 74
     0
 42
0.000000001
 43
0.00000001
 40
0.0
 40
0.0
 40
0.0
 40
0.0
 40
0.2499974253238806
 40
0.5000186008210795
 40
0.7499937625000185
 40
1.0
 40
1.0
 40
1.0
 40
1.0
 10
669.0288852649265
 20
2259.899556244888
 30
0.0
 10
669.5137364467747
 20
2259.955126343707
 30
0.0
 10
670.4834848721437
 20
2260.066271820597
 30
0.0
 10
671.7062926906727
 20
2260.922188822562
 30
0.0
 10
672.5620908706514
 20
2262.145046913264
 30
0.0
 10
672.6732868483556
 20
2263.114711664232
 30
0.0
 10
672.7288882928425
 20
2263.599574173965
 30
0.0
  0
SPLINE
  5
102
330
1F
100
AcDbEntity
  8
0
  6
Continuous
 62
     7
370
    25
100
AcDbSpline
210
0.0
220
0.0
230
1.0
 70
     8
 71
     3
 72
    10
 73
     6
 74
     0
 42
0.000000001
 43
0.00000001
 40
0.0
 40
0.0
 40
0.0
 40
0.0
 40
0.2909627236370409
 40
0.6453603762683091
 40
1.0
 40
1.0
 40
1.0
 40
1.0
 10
669.337436159187
 20
2262.980162705459
 30
0.0
 10
669.4029385871431
 20
2263.017329922337
 30
0.0
 10
669.5482241104017
 20
2263.099767455126
 30
0.0
 10
669.6965157860991
 20
2263.32624615039
 30
0.0
 10
669.7180959163363
 20
2263.508444106717
 30
0.0
 10
669.7288896637493
 20
2263.599574173965
 30
0.0
  0
LINE
  5
103
330
1F
100
AcDbEntity
  8
0
  6
Continuous
 62
     7
370
    25
100
AcDbLine
 10
672.1088882285
 20
2180.5378790751
 30
0.0
 11
672.1088882285
 21
2188.1379481211
 31
0.0
  0
LINE
  5
104
330
1F
100
AcDbEntity
  8
0
  6
Continuous
 62
     7
370
    25
100
AcDbLine
 10
673.9288862544
 20
2182.5301047221
 30
0.0
 11
673.9288862544
 21
2186.1457224741
 31
0.0
  0
LINE
  5
105
330
1F
100
AcDbEntity
  8
0
  6
Continuous
 62
     7
370
    25
100
AcDbLine
 10
453.3488895493
 20
2294.9222918406
 30
0.0
 11
453.3488895493
 21
2292.0333739176
 31
0.0
  0
LINE
  5
106
330
1F
100
AcDbEntity
  8
0
  6
Continuous
 62
     7
370
    25
100
AcDbLine
 10
451.5288915234
 20
2290.9421320811
 30
0.0
 11
451.5288915234
 21
2289.3144484415
 31
0.0
  0
LINE
  5
107
330
1F
100
AcDbEntity
  8
0
  6
Continuous
 62
     7
370
    25
100
AcDbLine
 10
451.5288915234
 20
2292.9300661936
 30
0.0
 11
451.5288915234
 21
2290.9421320811
 31
0.0
  0
LINE
  5
108
330
1F
100
AcDbEntity
  8
0
  6
Continuous
 62
     7
370
    25
100
AcDbLine
 10
672.1088882285
 20
2252.4427767649
 30
0.0
 11
672.1088882285
 21
2260.0428458109
 31
0.0
  0
LINE
  5
109
330
1F
100
AcDbEntity
  8
0
  6
Continuous
 62
     7
370
    25
100
AcDbLine
 10
673.9288862544
 20
2254.4350024119
 30
0.0
 11
673.9288862544
 21
2258.050620164
 31
0.0
  0
LINE
  5
10A
330
1F
100
AcDbEntity
  8
0
  6
Continuous
 62
     7
370
    25
100
AcDbLine
 10
672.1088882285
 20
2023.3055945292
 30
0.0
 11
672.1088882285
 21
2030.9056635752
 31
0.0
  0
LINE
  5
10B
330
1F
100
AcDbEntity
  8
0
  6
Continuous
 62
     7
370
    25
100
AcDbLine
 10
673.9288862544
 20
2025.2978201762
 30
0.0
 11
673.9288862544
 21
2028.9134379282
 31
0.0
  0
LINE
  5
10C
330
1F
100
AcDbEntity
  8
0
  6
Continuous
 62
     7
370
    25
100
AcDbLine
 10
672.1088882285
 20
2291.9661398783
 30
0.0
 11
672.1088882285
 21
2294.9222918406
 31
0.0
  0
LINE
  5
10D
330
1F
100
AcDbEntity
  8
0
  6
Continuous
 62
     7
370
    25
100
AcDbLine
 10
673.9288862544
 20
2289.3144484415
 30
0.0
 11
673.9288862544
 21
2292.9300661936
 31
0.0
  0
LINE
  5
10E
330
1F
100
AcDbEntity
  8
0
  6
Continuous
 62
     7
370
    25
100
AcDbLine
 10
672.1088882285
 20
2145.8644266978
 30
0.0
 11
672.1088882285
 21
2153.4642573252
 31
0.0
  0
LINE
  5
10F
330
1F
100
AcDbEntity
  8
0
  6
Continuous
 62
     7
370
    25
100
AcDbLine
 10
673.9288862544
 20
2147.8566523447
 30
0.0
 11
673.9288862544
 21
2151.4722700968
 31
0.0
  0
LINE
  5
110
330
1F
100
AcDbEntity
  8
0
  6
Continuous
 62
     7
370
    25
100
AcDbLine
 10
453.3488895493
 20
2030.9056635752
 30
0.0
 11
453.3488895493
 21
2023.3055945292
 31
0.0
  0
LINE
  5
111
330
1F
100
AcDbEntity
  8
0
  6
Continuous
 62
     7
370
    25
100
AcDbLine
 10
451.5288915234
 20
2028.9134379282
 30
0.0
 11
451.5288915234
 21
2025.2978201762
 31
0.0
  0
LINE
  5
112
330
1F
100
AcDbEntity
  8
0
  6
Continuous
 62
     7
370
    25
100
AcDbLine
 10
453.3488895493
 20
2149.2857333079
 30
0.0
 11
453.3488895493
 21
2145.8644266978
 31
0.0
  0
LINE
  5
113
330
1F
100
AcDbEntity
  8
0
  6
Continuous
 62
     7
370
    25
100
AcDbLine
 10
453.3488895493
 20
2153.4642573252
 30
0.0
 11
453.3488895493
 21
2149.2857333079
 31
0.0
  0
LINE
  5
114
330
1F
100
AcDbEntity
  8
0
  6
Continuous
 62
     7
370
    25
100
AcDbLine
 10
451.5288915234
 20
2149.4840975657
 30
0.0
 11
451.5288915234
 21
2147.8566523447
 31
0.0
  0
LINE
  5
115
330
1F
100
AcDbEntity
  8
0
  6
Continuous
 62
     7
370
    25
100
AcDbLine
 10
451.5288915234
 20
2151.4722700968
 30
0.0
 11
451.5288915234
 21
2149.4840975657
 31
0.0
  0
LINE
  5
116
330
1F
100
AcDbEntity
  8
0
  6
Continuous
 62
     7
370
    25
100
AcDbLine
 10
453.3488895493
 20
2183.9591856852
 30
0.0
 11
453.3488895493
 21
2180.5378790751
 31
0.0
  0
LINE
  5
117
330
1F
100
AcDbEntity
  8
0
  6
Continuous
 62
     7
370
    25
100
AcDbLine
 10
453.3488895493
 20
2188.1379481211
 30
0.0
 11
453.3488895493
 21
2183.9591856852
 31
0.0
  0
LINE
  5
118
330
1F
100
AcDbEntity
  8
0
  6
Continuous
 62
     7
370
    25
100
AcDbLine
 10
451.5288915234
 20
2184.1577883616
 30
0.0
 11
451.5288915234
 21
2182.5301047221
 31
0.0
  0
LINE
  5
119
330
1F
100
AcDbEntity
  8
0
  6
Continuous
 62
     7
370
    25
100
AcDbLine
 10
451.5288915234
 20
2186.1457224741
 30
0.0
 11
451.5288915234
 21
2184.1577883616
 31
0.0
  0
LINE
  5
11A
330
1F
100
AcDbEntity
  8
0
  6
Continuous
 62
     7
370
    25
100
AcDbLine
 10
453.3488895493
 20
2255.864083375
 30
0.0
 11
453.3488895493
 21
2252.4427767649
 31
0.0
  0
LINE
  5
11B
330
1F
100
AcDbEntity
  8
0
  6
Continuous
 62
     7
370
    25
100
AcDbLine
 10
453.3488895493
 20
2260.0428458109
 30
0.0
 11
453.3488895493
 21
2255.864083375
 31
0.0
  0
LINE
  5
11C
330
1F
100
AcDbEntity
  8
0
  6
Continuous
 62
     7
370
    25
100
AcDbLine
 10
451.5288915234
 20
2256.0626860514
 30
0.0
 11
451.5288915234
 21
2254.4350024119
 31
0.0
  0
LINE
  5
11D
330
1F
100
AcDbEntity
  8
0
  6
Continuous
 62
     7
370
    25
100
AcDbLine
 10
451.5288915234
 20
2258.050620164
 30
0.0
 11
451.5288915234
 21
2256.0626860514
 31
0.0
  0
LINE
  5
11E
330
1F
100
AcDbEntity
  8
0
  6
Continuous
 62
     7
370
    25
100
AcDbLine
 10
456.7288901406
 20
2259.6146460429
 30
0.0
 11
453.7288915115
 21
2259.6146460429
 31
0.0
  0
LINE
  5
11F
330
1F
100
AcDbEntity
  8
0
  6
Continuous
 62
     7
370
    25
100
AcDbLine
 10
453.7288915115
 20
2259.6146460429
 30
0.0
 11
453.7288915115
 21
2261.0775824442
 31
0.0
  0
LINE
  5
120
330
1F
100
AcDbEntity
  8
0
  6
Continuous
 62
     7
370
    25
100
AcDbLine
 10
453.7288915115
 20
2292.4515601054
 30
0.0
 11
453.7288915115
 21
2293.6844225779
 31
0.0
  0
LINE
  5
121
330
1F
100
AcDbEntity
  8
0
  6
Continuous
 62
     7
370
    25
100
AcDbLine
 10
453.7288915115
 20
2296.6844435587
 30
0.0
 11
456.7288901406
 21
2296.6844435587
 31
0.0
  0
LINE
  5
122
330
1F
100
AcDbEntity
  8
0
  6
Continuous
 62
     7
370
    25
100
AcDbLine
 10
453.7288915115
 20
2293.6844225779
 30
0.0
 11
453.7288915115
 21
2296.6844435587
 31
0.0
  0
LINE
  5
123
330
1F
100
AcDbEntity
  8
0
  6
Continuous
 62
     7
370
    25
100
AcDbLine
 10
456.7288901406
 20
2136.0492106333
 30
0.0
 11
453.7288915115
 21
2136.0492106333
 31
0.0
  0
LINE
  5
124
330
1F
100
AcDbEntity
  8
0
  6
Continuous
 62
     7
370
    25
100
AcDbLine
 10
456.7288901406
 20
2259.6146460429
 30
0.0
 11
456.7288901406
 21
2136.0492106333
 31
0.0
  0
LINE
  5
125
330
1F
100
AcDbEntity
  8
0
  6
Continuous
 62
     7
370
    25
100
AcDbLine
 10
453.7288915115
 20
2259.6146460429
 30
0.0
 11
453.7288915115
 21
2136.0492106333
 31
0.0
  0
LINE
  5
126
330
1F
100
AcDbEntity
  8
0
  6
Continuous
 62
     7
370
    25
100
AcDbLine
 10
453.7288915115
 20
2026.8639918223
 30
0.0
 11
456.7288901406
 21
2026.8639918223
 31
0.0
  0
LINE
  5
127
330
1F
100
AcDbEntity
  8
0
  6
Continuous
 62
     7
370
    25
100
AcDbLine
 10
456.7288901406
 20
2136.0492106333
 30
0.0
 11
456.7288901406
 21
2026.8639918223
 31
0.0
  0
LINE
  5
128
330
1F
100
AcDbEntity
  8
0
  6
Continuous
 62
     7
370
    25
100
AcDbLine
 10
453.7288915115
 20
2136.0492106333
 30
0.0
 11
453.7288915115
 21
2026.8639918223
 31
0.0
  0
LINE
  5
129
330
1F
100
AcDbEntity
  8
0
  6
Continuous
 62
     7
370
    25
100
AcDbLine
 10
456.7288901406
 20
2021.1641188517
 30
0.0
 11
453.7288915115
 21
2021.1641188517
 31
0.0
  0
LINE
  5
12A
330
1F
100
AcDbEntity
  8
0
  6
Continuous
 62
     7
370
    25
100
AcDbLine
 10
456.7288901406
 20
2026.8639918223
 30
0.0
 11
456.7288901406
 21
2021.2401743784
 31
0.0
  0
LINE
  5
12B
330
1F
100
AcDbEntity
  8
0
  6
Continuous
 62
     7
370
    25
100
AcDbLine
 10
453.7288915115
 20
2021.1641188517
 30
0.0
 11
453.7288915115
 21
2026.8639918223
 31
0.0
  0
LINE
  5
12C
330
1F
100
AcDbEntity
  8
0
  6
Continuous
 62
     7
370
    25
100
AcDbLine
 10
671.7288862663
 20
2259.6146460429
 30
0.0
 11
668.7288876372
 21
2259.6146460429
 31
0.0
  0
LINE
  5
12D
330
1F
100
AcDbEntity
  8
0
  6
Continuous
 62
     7
370
    25
100
AcDbLine
 10
671.7288862663
 20
2261.0790129557
 30
0.0
 11
671.7288862663
 21
2259.6146460429
 31
0.0
  0
LINE
  5
12E
330
1F
100
AcDbEntity
  8
0
  6
Continuous
 62
     7
370
    25
100
AcDbLine
 10
671.7288862663
 20
2292.4813624277
 30
0.0
 11
671.7288862663
 21
2293.6844225779
 31
0.0
  0
LINE
  5
12F
330
1F
100
AcDbEntity
  8
0
  6
Continuous
 62
     7
370
    25
100
AcDbLine
 10
668.7288876372
 20
2296.6844435587
 30
0.0
 11
671.7288862663
 21
2296.6844435587
 31
0.0
  0
LINE
  5
130
330
1F
100
AcDbEntity
  8
0
  6
Continuous
 62
     7
370
    25
100
AcDbLine
 10
671.7288862663
 20
2296.6844435587
 30
0.0
 11
671.7288862663
 21
2293.6844225779
 31
0.0
  0
LINE
  5
131
330
1F
100
AcDbEntity
  8
0
  6
Continuous
 62
     7
370
    25
100
AcDbLine
 10
671.7288862663
 20
2136.0492106333
 30
0.0
 11
668.7288876372
 21
2136.0492106333
 31
0.0
  0
LINE
  5
132
330
1F
100
AcDbEntity
  8
0
  6
Continuous
 62
     7
370
    25
100
AcDbLine
 10
671.7288862663
 20
2259.6146460429
 30
0.0
 11
671.7288862663
 21
2136.0492106333
 31
0.0
  0
LINE
  5
133
330
1F
100
AcDbEntity
  8
0
  6
Continuous
 62
     7
370
    25
100
AcDbLine
 10
668.7288876372
 20
2259.6146460429
 30
0.0
 11
668.7288876372
 21
2136.0492106333
 31
0.0
  0
LINE
  5
134
330
1F
100
AcDbEntity
  8
0
  6
Continuous
 62
     7
370
    25
100
AcDbLine
 10
671.7288862663
 20
2021.1641188517
 30
0.0
 11
668.7288876372
 21
2021.1641188517
 31
0.0
  0
LINE
  5
135
330
1F
100
AcDbEntity
  8
0
  6
Continuous
 62
     7
370
    25
100
AcDbLine
 10
668.7288876372
 20
2026.8639918223
 30
0.0
 11
671.7288862663
 21
2026.8639918223
 31
0.0
  0
LINE
  5
136
330
1F
100
AcDbEntity
  8
0
  6
Continuous
 62
     7
370
    25
100
AcDbLine
 10
671.7288862663
 20
2026.8639918223
 30
0.0
 11
671.7288862663
 21
2021.1641188517
 31
0.0
  0
LINE
  5
137
330
1F
100
AcDbEntity
  8
0
  6
Continuous
 62
     7
370
    25
100
AcDbLine
 10
668.7288876372
 20
2021.2401743784
 30
0.0
 11
668.7288876372
 21
2026.8639918223
 31
0.0
  0
LINE
  5
138
330
1F
100
AcDbEntity
  8
0
  6
Continuous
 62
     7
370
    25
100
AcDbLine
 10
671.7288862663
 20
2136.0492106333
 30
0.0
 11
671.7288862663
 21
2026.8639918223
 31
0.0
  0
LINE
  5
139
330
1F
100
AcDbEntity
  8
0
  6
Continuous
 62
     7
370
    25
100
AcDbLine
 10
668.7288876372
 20
2136.0492106333
 30
0.0
 11
668.7288876372
 21
2026.8639918223
 31
0.0
  0
CIRCLE
  5
13A
330
1F
100
AcDbEntity
  8
0
  6
Continuous
 62
     7
370
    25
100
AcDbCircle
 10
591.7288888888
 20
-931.894352828
 30
0.0
 40
3.200000000000045
  0
CIRCLE
  5
13B
330
1F
100
AcDbEntity
  8
0
  6
Continuous
 62
     7
370
    25
100
AcDbCircle
 10
591.7288888888
 20
-931.894352828
 30
0.0
 40
0.9999999999998863
  0
CIRCLE
  5
13C
330
1F
100
AcDbEntity
  8
0
  6
Continuous
 62
     7
370
    25
100
AcDbCircle
 10
533.7288888888
 20
-931.894352828
 30
0.0
 40
3.199999999999826
  0
CIRCLE
  5
13D
330
1F
100
AcDbEntity
  8
0
  6
Continuous
 62
     7
370
    25
100
AcDbCircle
 10
533.7288888888
 20
-931.894352828
 30
0.0
 40
0.9999999999998483
  0
LINE
  5
13E
330
1F
100
AcDbEntity
  8
0
  6
Continuous
 62
     7
370
    25
100
AcDbLine
 10
588.3699148642
 20
-936.0347990141
 30
0.0
 11
588.3699148642
 21
-936.8943575964
 31
0.0
  0
SPLINE
  5
13F
330
1F
100
AcDbEntity
  8
0
  6
Continuous
 62
     7
370
    25
100
AcDbSpline
210
0.0
220
0.0
230
1.0
 70
     8
 71
     3
 72
     9
 73
     5
 74
     0
 42
0.000000001
 43
0.00000001
 40
0.0
 40
0.0
 40
0.0
 40
0.0
 40
0.5596160943044645
 40
1.0
 40
1.0
 40
1.0
 40
1.0
 10
588.4260046976143
 20
-935.1570014104468
 30
0.0
 10
588.4053227723628
 20
-935.3201446292367
 30
0.0
 10
588.3683654270292
 20
-935.6116716608037
 30
0.0
 10
588.3694411383033
 20
-935.9054317837662
 30
0.0
 10
588.3699148642355
 20
-936.034799014054
 30
0.0
  0
SPLINE
  5
140
330
1F
100
AcDbEntity
  8
0
  6
Continuous
 62
     7
370
    25
100
AcDbSpline
210
0.0
220
0.0
230
1.0
 70
     8
 71
     3
 72
    10
 73
     6
 74
     0
 42
0.000000001
 43
0.00000001
 40
0.0
 40
0.0
 40
0.0
 40
0.0
 40
0.2783385144436079
 40
0.5587335116644786
 40
1.0
 40
1.0
 40
1.0
 40
1.0
 10
588.9343168335491
 20
-934.6058968648535
 30
0.0
 10
588.8603590185998
 20
-934.6219986534618
 30
0.0
 10
588.7118969570547
 20
-934.654321197509
 30
0.0
 10
588.5213508277001
 20
-934.8602917220502
 30
0.0
 10
588.4621832511825
 20
-935.0444165855968
 30
0.0
 10
588.4260046976143
 20
-935.1570014104468
 30
0.0
  0
SPLINE
  5
141
330
1F
100
AcDbEntity
  8
0
  6
Continuous
 62
     7
370
    25
100
AcDbSpline
210
0.0
220
0.0
230
1.0
 70
     8
 71
     3
 72
     9
 73
     5
 74
     0
 42
0.000000001
 43
0.00000001
 40
0.0
 40
0.0
 40
0.0
 40
0.0
 40
0.560396908945692
 40
1.0
 40
1.0
 40
1.0
 40
1.0
 10
589.0948749827677
 20
-934.651434813462
 30
0.0
 10
589.0661777139296
 20
-934.6381182940521
 30
0.0
 10
589.0149688860795
 20
-934.614355637268
 30
0.0
 10
588.9589450743556
 20
-934.6084798702134
 30
0.0
 10
588.9343168335491
 20
-934.6058968648535
 30
0.0
  0
LINE
  5
142
330
1F
100
AcDbEntity
  8
0
  6
Continuous
 62
     7
370
    25
100
AcDbLine
 10
589.2673503357
 20
-934.3793992147
 30
0.0
 11
589.0948749828
 21
-934.6514348135
 31
0.0
  0
SPLINE
  5
143
330
1F
100
AcDbEntity
  8
0
  6
Continuous
 62
     7
370
    25
100
AcDbSpline
210
0.0
220
0.0
230
1.0
 70
     8
 71
     3
 72
     9
 73
     5
 74
     0
 42
0.000000001
 43
0.00000001
 40
0.0
 40
0.0
 40
0.0
 40
0.0
 40
0.5592858204731054
 40
1.0
 40
1.0
 40
1.0
 40
1.0
 10
588.9939121650988
 20
-934.2917803868872
 30
0.0
 10
589.0482178400845
 20
-934.2982702302188
 30
0.0
 10
589.1453160910997
 20
-934.3098740347392
 30
0.0
 10
589.2300200846367
 20
-934.3581314760527
 30
0.0
 10
589.267350335651
 20
-934.3793992147071
 30
0.0
  0
SPLINE
  5
144
330
1F
100
AcDbEntity
  8
0
  6
Continuous
 62
     7
370
    25
100
AcDbSpline
210
0.0
220
0.0
230
1.0
 70
     8
 71
     3
 72
    10
 73
     6
 74
     0
 42
0.000000001
 43
0.00000001
 40
0.0
 40
0.0
 40
0.0
 40
0.0
 40
0.5588122721132801
 40
0.7794860100529064
 40
0.9999999999999999
 40
0.9999999999999999
 40
0.9999999999999999
 40
0.9999999999999999
 10
588.3699148642355
 20
-934.7131852254493
 30
0.0
 10
588.4577774037375
 20
-934.5930315164851
 30
0.0
 10
588.5803366669595
 20
-934.425429371959
 30
0.0
 10
588.8207633108775
 20
-934.3073510758569
 30
0.0
 10
588.9362098142207
 20
-934.2969693635187
 30
0.0
 10
588.9939121650988
 20
-934.2917803868872
 30
0.0
  0
LINE
  5
145
330
1F
100
AcDbEntity
  8
0
  6
Continuous
 62
     7
370
    25
100
AcDbLine
 10
588.3699148642
 20
-934.3366626844
 30
0.0
 11
588.3699148642
 21
-934.7131852254
 31
0.0
  0
LINE
  5
146
330
1F
100
AcDbEntity
  8
0
  6
Continuous
 62
     7
370
    25
100
AcDbLine
 10
588.0558114248
 20
-934.3366626844
 30
0.0
 11
588.3699148642
 21
-934.3366626844
 31
0.0
  0
LINE
  5
147
330
1F
100
AcDbEntity
  8
0
  6
Continuous
 62
     7
370
    25
100
AcDbLine
 10
588.0558114248
 20
-936.8943575964
 30
0.0
 11
588.0558114248
 21
-934.3366626844
 31
0.0
  0
LINE
  5
148
330
1F
100
AcDbEntity
  8
0
  6
Continuous
 62
     7
370
    25
100
AcDbLine
 10
588.3699148642
 20
-936.8943575964
 30
0.0
 11
588.0558114248
 21
-936.8943575964
 31
0.0
  0
LINE
  5
149
330
1F
100
AcDbEntity
  8
0
  6
Continuous
 62
     7
370
    25
100
AcDbLine
 10
586.3955557095
 20
-934.6507791624
 30
0.0
 11
586.3955557095
 21
-934.3366626844
 31
0.0
  0
LINE
  5
14A
330
1F
100
AcDbEntity
  8
0
  6
Continuous
 62
     7
370
    25
100
AcDbLine
 10
586.8442743766
 20
-934.6507791624
 30
0.0
 11
586.3955557095
 21
-934.6507791624
 31
0.0
  0
LINE
  5
14B
330
1F
100
AcDbEntity
  8
0
  6
Continuous
 62
     7
370
    25
100
AcDbLine
 10
586.8442743766
 20
-936.8943575964
 30
0.0
 11
586.8442743766
 21
-934.6507791624
 31
0.0
  0
LINE
  5
14C
330
1F
100
AcDbEntity
  8
0
  6
Continuous
 62
     7
370
    25
100
AcDbLine
 10
587.1583759534
 20
-936.8943575964
 30
0.0
 11
586.8442743766
 21
-936.8943575964
 31
0.0
  0
LINE
  5
14D
330
1F
100
AcDbEntity
  8
0
  6
Continuous
 62
     7
370
    25
100
AcDbLine
 10
587.1583759534
 20
-934.6507791624
 30
0.0
 11
587.1583759534
 21
-936.8943575964
 31
0.0
  0
LINE
  5
14E
330
1F
100
AcDbEntity
  8
0
  6
Continuous
 62
     7
370
    25
100
AcDbLine
 10
587.6070946204
 20
-934.6507791624
 30
0.0
 11
587.1583759534
 21
-934.6507791624
 31
0.0
  0
LINE
  5
14F
330
1F
100
AcDbEntity
  8
0
  6
Continuous
 62
     7
370
    25
100
AcDbLine
 10
587.6070946204
 20
-934.3366626844
 30
0.0
 11
587.6070946204
 21
-934.6507791624
 31
0.0
  0
LINE
  5
150
330
1F
100
AcDbEntity
  8
0
  6
Continuous
 62
     7
370
    25
100
AcDbLine
 10
587.1583759534
 20
-934.3366626844
 30
0.0
 11
587.6070946204
 21
-934.3366626844
 31
0.0
  0
LINE
  5
151
330
1F
100
AcDbEntity
  8
0
  6
Continuous
 62
     7
370
    25
100
AcDbLine
 10
587.1583759534
 20
-933.3046082601
 30
0.0
 11
587.1583759534
 21
-934.3366626844
 31
0.0
  0
LINE
  5
152
330
1F
100
AcDbEntity
  8
0
  6
Continuous
 62
     7
370
    25
100
AcDbLine
 10
586.8442743766
 20
-933.3046082601
 30
0.0
 11
587.1583759534
 21
-933.3046082601
 31
0.0
  0
LINE
  5
153
330
1F
100
AcDbEntity
  8
0
  6
Continuous
 62
     7
370
    25
100
AcDbLine
 10
586.8442743766
 20
-934.3366626844
 30
0.0
 11
586.8442743766
 21
-933.3046082601
 31
0.0
  0
LINE
  5
154
330
1F
100
AcDbEntity
  8
0
  6
Continuous
 62
     7
370
    25
100
AcDbLine
 10
586.3955557095
 20
-934.3366626844
 30
0.0
 11
586.8442743766
 21
-934.3366626844
 31
0.0
  0
SPLINE
  5
155
330
1F
100
AcDbEntity
  8
0
  6
Continuous
 62
     7
370
    25
100
AcDbSpline
210
0.0
220
0.0
230
1.0
 70
     8
 71
     3
 72
    11
 73
     7
 74
     0
 42
0.000000001
 43
0.00000001
 40
0.0
 40
0.0
 40
0.0
 40
0.0
 40
0.2794508193800891
 40
0.5593606384742942
 40
0.7796689448549066
 40
1.0
 40
1.0
 40
1.0
 40
1.0
 10
585.857094799214
 20
-936.647534762345
 30
0.0
 10
585.8520100432826
 20
-936.6905219955594
 30
0.0
 10
585.8418321796764
 20
-936.7765670687866
 30
0.0
 10
585.7621495526171
 20
-936.8713307520876
 30
0.0
 10
585.6667408748528
 20
-936.9300600594678
 30
0.0
 10
585.59919940099
 20
-936.9361798437584
 30
0.0
 10
585.5654269205862
 20
-936.9392398938758
 30
0.0
  0
SPLINE
  5
156
330
1F
100
AcDbEntity
  8
0
  6
Continuous
 62
     7
370
    25
100
AcDbSpline
210
0.0
220
0.0
230
1.0
 70
     8
 71
     3
 72
    11
 73
     7
 74
     0
 42
0.000000001
 43
0.00000001
 40
0.0
 40
0.0
 40
0.0
 40
0.0
 40
0.2796232655793718
 40
0.5592046107130106
 40
0.7794739169458953
 40
1.0
 40
1.0
 40
1.0
 40
1.0
 10
585.5654269205862
 20
-936.355889235459
 30
0.0
 10
585.6085682323597
 20
-936.3607891035479
 30
0.0
 10
585.6948443882652
 20
-936.3705881051488
 30
0.0
 10
585.7891767454365
 20
-936.4508299446045
 30
0.0
 10
585.849050317957
 20
-936.5457793275413
 30
0.0
 10
585.8544122642955
 20
-936.6136031142656
 30
0.0
 10
585.857094799214
 20
-936.647534762345
 30
0.0
  0
SPLINE
  5
157
330
1F
100
AcDbEntity
  8
0
  6
Continuous
 62
     7
370
    25
100
AcDbSpline
210
0.0
220
0.0
230
1.0
 70
     8
 71
     3
 72
    11
 73
     7
 74
     0
 42
0.000000001
 43
0.00000001
 40
0.0
 40
0.0
 40
0.0
 40
0.0
 40
0.279537939043503
 40
0.5592820452230204
 40
0.7795316844951452
 40
1.0
 40
1.0
 40
1.0
 40
1.0
 10
585.2737609046036
 20
-936.647534762345
 30
0.0
 10
585.2788764936017
 20
-936.6045390888675
 30
0.0
 10
585.2891114444897
 20
-936.518516031387
 30
0.0
 10
585.368274729654
 20
-936.4232398118934
 30
0.0
 10
585.464019931808
 20
-936.364826324975
 30
0.0
 10
585.5316134114418
 20
-936.3588692505616
 30
0.0
 10
585.5654269205862
 20
-936.355889235459
 30
0.0
  0
SPLINE
  5
158
330
1F
100
AcDbEntity
  8
0
  6
Continuous
 62
     7
370
    25
100
AcDbSpline
210
0.0
220
0.0
230
1.0
 70
     8
 71
     3
 72
    11
 73
     7
 74
     0
 42
0.000000001
 43
0.00000001
 40
0.0
 40
0.0
 40
0.0
 40
0.0
 40
0.2795875253747374
 40
0.5591206070720296
 40
0.7795686619033395
 40
1.0
 40
1.0
 40
1.0
 40
1.0
 10
585.5654269205862
 20
-936.9392398938758
 30
0.0
 10
585.5225174236384
 20
-936.9339269965976
 30
0.0
 10
585.4367067854473
 20
-936.9233022366143
 30
0.0
 10
585.3417777271724
 20
-936.8441464190325
 30
0.0
 10
585.2831889238654
 20
-936.7487574343775
 30
0.0
 10
585.2769034982498
 20
-936.681274800114
 30
0.0
 10
585.2737609046036
 20
-936.647534762345
 30
0.0
  0
LINE
  5
159
330
1F
100
AcDbEntity
  8
0
  6
Continuous
 62
     7
370
    25
100
AcDbLine
 10
581.0109410184
 20
-935.8181361303
 30
0.0
 11
581.0109410184
 21
-936.8943575964
 31
0.0
  0
SPLINE
  5
15A
330
1F
100
AcDbEntity
  8
0
  6
Continuous
 62
     7
370
    25
100
AcDbSpline
210
0.0
220
0.0
230
1.0
 70
     8
 71
     3
 72
    11
 73
     7
 74
     0
 42
0.000000001
 43
0.00000001
 40
0.0
 40
0.0
 40
0.0
 40
0.0
 40
0.1865478023598792
 40
0.373341708387728
 40
0.5601422939657251
 40
1.0
 40
1.0
 40
1.0
 40
1.0
 10
581.8382646637493
 20
-934.6058968648535
 30
0.0
 10
581.7351797091078
 20
-934.6189488366682
 30
0.0
 10
581.5288738047334
 20
-934.6450699991452
 30
0.0
 10
581.2692531294041
 20
-934.8311418178287
 30
0.0
 10
581.0165455678637
 20
-935.2135227875592
 30
0.0
 10
581.0132524738993
 20
-935.5687785598882
 30
0.0
 10
581.010941018396
 20
-935.8181361302954
 30
0.0
  0
SPLINE
  5
15B
330
1F
100
AcDbEntity
  8
0
  6
Continuous
 62
     7
370
    25
100
AcDbSpline
210
0.0
220
0.0
230
1.0
 70
     8
 71
     3
 72
    11
 73
     7
 74
     0
 42
0.000000001
 43
0.00000001
 40
0.0
 40
0.0
 40
0.0
 40
0.0
 40
0.5005337011332288
 40
0.6258918537618249
 40
0.7513718871172782
 40
1.0
 40
1.0
 40
1.0
 40
1.0
 10
582.4468374001318
 20
-935.5937842473609
 30
0.0
 10
582.4564047819345
 20
-935.3639830254941
 30
0.0
 10
582.4683683047074
 20
-935.0766283230528
 30
0.0
 10
582.293096319717
 20
-934.7879724773738
 30
0.0
 10
582.1184315696869
 20
-934.6428951256512
 30
0.0
 10
581.9501215985194
 20
-934.6206684597739
 30
0.0
 10
581.8382646637493
 20
-934.6058968648535
 30
0.0
  0
LINE
  5
15C
330
1F
100
AcDbEntity
  8
0
  6
Continuous
 62
     7
370
    25
100
AcDbLine
 10
582.4468374001
 20
-936.8943575964
 30
0.0
 11
582.4468374001
 21
-935.5937842474
 31
0.0
  0
LINE
  5
15D
330
1F
100
AcDbEntity
  8
0
  6
Continuous
 62
     7
370
    25
100
AcDbLine
 10
582.7609408396
 20
-936.8943575964
 30
0.0
 11
582.4468374001
 21
-936.8943575964
 31
0.0
  0
LINE
  5
15E
330
1F
100
AcDbEntity
  8
0
  6
Continuous
 62
     7
370
    25
100
AcDbLine
 10
582.7609408396
 20
-935.8994368658
 30
0.0
 11
582.7609408396
 21
-936.8943575964
 31
0.0
  0
SPLINE
  5
15F
330
1F
100
AcDbEntity
  8
0
  6
Continuous
 62
     7
370
    25
100
AcDbSpline
210
0.0
220
0.0
230
1.0
 70
     8
 71
     3
 72
    12
 73
     8
 74
     0
 42
0.000000001
 43
0.00000001
 40
0.0
 40
0.0
 40
0.0
 40
0.0
 40
0.1253158409473405
 40
0.2506580473545588
 40
0.3760831885502227
 40
0.5015233201478476
 40
1.0
 40
1.0
 40
1.0
 40
1.0
 10
583.5903674113089
 20
-934.6058968648535
 30
0.0
 10
583.5176221808312
 20
-934.6115193255066
 30
0.0
 10
583.3721164148557
 20
-934.6227654297336
 30
0.0
 10
583.1722551651138
 20
-934.7187158929723
 30
0.0
 10
583.0029594130878
 20
-934.8578507631081
 30
0.0
 10
582.7562429704916
 20
-935.2240207767741
 30
0.0
 10
582.7588544249647
 20
-935.5994715040931
 30
0.0
 10
582.7609408395821
 20
-935.8994368657691
 30
0.0
  0
SPLINE
  5
160
330
1F
100
AcDbEntity
  8
0
  6
Continuous
 62
     7
370
    25
100
AcDbSpline
210
0.0
220
0.0
230
1.0
 70
     8
 71
     3
 72
    11
 73
     7
 74
     0
 42
0.000000001
 43
0.00000001
 40
0.0
 40
0.0
 40
0.0
 40
0.0
 40
0.499429433279884
 40
0.6249383550223887
 40
0.7505578568544584
 40
1.0
 40
1.0
 40
1.0
 40
1.0
 10
584.1968372213179
 20
-935.5075363263709
 30
0.0
 10
584.2040482746858
 20
-935.2896375907359
 30
0.0
 10
584.2130714990483
 20
-935.0169798971059
 30
0.0
 10
584.0249612608574
 20
-934.7612730340412
 30
0.0
 10
583.853935773272
 20
-934.6352498991997
 30
0.0
 10
583.6956430850898
 20
-934.6176211873226
 30
0.0
 10
583.5903674113089
 20
-934.6058968648535
 30
0.0
  0
LINE
  5
161
330
1F
100
AcDbEntity
  8
0
  6
Continuous
 62
     7
370
    25
100
AcDbLine
 10
584.1968372213
 20
-936.8943575964
 30
0.0
 11
584.1968372213
 21
-935.5075363264
 31
0.0
  0
LINE
  5
162
330
1F
100
AcDbEntity
  8
0
  6
Continuous
 62
     7
370
    25
100
AcDbLine
 10
584.5109406608
 20
-936.8943575964
 30
0.0
 11
584.1968372213
 21
-936.8943575964
 31
0.0
  0
LINE
  5
163
330
1F
100
AcDbEntity
  8
0
  6
Continuous
 62
     7
370
    25
100
AcDbLine
 10
584.5109406608
 20
-935.5089072332
 30
0.0
 11
584.5109406608
 21
-936.8943575964
 31
0.0
  0
SPLINE
  5
164
330
1F
100
AcDbEntity
  8
0
  6
Continuous
 62
     7
370
    25
100
AcDbSpline
210
0.0
220
0.0
230
1.0
 70
     8
 71
     3
 72
    11
 73
     7
 74
     0
 42
0.000000001
 43
0.00000001
 40
0.0
 40
0.0
 40
0.0
 40
0.0
 40
0.1868870421979469
 40
0.3735886086409007
 40
0.5602721766423143
 40
1.0
 40
1.0
 40
1.0
 40
1.0
 10
583.6450546728903
 20
-934.2917803868872
 30
0.0
 10
583.7511905725896
 20
-934.3014578080658
 30
0.0
 10
583.9633570375794
 20
-934.3208030460822
 30
0.0
 10
584.2393623494024
 20
-934.4983826046406
 30
0.0
 10
584.5027831424662
 20
-934.8893632192846
 30
0.0
 10
584.5075761022589
 20
-935.2533770576354
 30
0.0
 10
584.5109406607681
 20
-935.5089072332007
 30
0.0
  0
SPLINE
  5
165
330
1F
100
AcDbEntity
  8
0
  6
Continuous
 62
     7
370
    25
100
AcDbSpline
210
0.0
220
0.0
230
1.0
 70
     8
 71
     3
 72
    10
 73
     6
 74
     0
 42
0.000000001
 43
0.00000001
 40
0.0
 40
0.0
 40
0.0
 40
0.0
 40
0.2812606683920541
 40
0.5620836940057417
 40
0.9999999999999999
 40
0.9999999999999999
 40
0.9999999999999999
 40
0.9999999999999999
 10
582.7069539325768
 20
-934.9094633206946
 30
0.0
 10
582.7650395213547
 20
-934.8158608853103
 30
0.0
 10
582.8811203174909
 20
-934.6288016603233
 30
0.0
 10
583.1885614628511
 20
-934.3659544871869
 30
0.0
 10
583.4722237854999
 20
-934.3198631169131
 30
0.0
 10
583.6450546728903
 20
-934.2917803868872
 30
0.0
  0
SPLINE
  5
166
330
1F
100
AcDbEntity
  8
0
  6
Continuous
 62
     7
370
    25
100
AcDbSpline
210
0.0
220
0.0
230
1.0
 70
     8
 71
     3
 72
    10
 73
     6
 74
     0
 42
0.000000001
 43
0.00000001
 40
0.0
 40
0.0
 40
0.0
 40
0.0
 40
0.2808136275785158
 40
0.5615130053763964
 40
1.0
 40
1.0
 40
1.0
 40
1.0
 10
581.8929519253307
 20
-934.2917803868872
 30
0.0
 10
581.9951381977468
 20
-934.3022834444678
 30
0.0
 10
582.1994691678187
 20
-934.3232852864321
 30
0.0
 10
582.5336460176798
 20
-934.5106648546971
 30
0.0
 10
582.641310834177
 20
-934.7584121297513
 30
0.0
 10
582.7069539325768
 20
-934.9094633206946
 30
0.0
  0
SPLINE
  5
167
330
1F
100
AcDbEntity
  8
0
  6
Continuous
 62
     7
370
    25
100
AcDbSpline
210
0.0
220
0.0
230
1.0
 70
     8
 71
     3
 72
     9
 73
     5
 74
     0
 42
0.000000001
 43
0.00000001
 40
0.0
 40
0.0
 40
0.0
 40
0.0
 40
0.5597337762224605
 40
1.0
 40
1.0
 40
1.0
 40
1.0
 10
581.3657078640991
 20
-934.4214800939185
 30
0.0
 10
581.4600782866156
 20
-934.3799264472651
 30
0.0
 10
581.6286770500373
 20
-934.3056882139863
 30
0.0
 10
581.8121673457413
 20
-934.2960317859804
 30
0.0
 10
581.8929519253307
 20
-934.2917803868872
 30
0.0
  0
SPLINE
  5
168
330
1F
100
AcDbEntity
  8
0
  6
Continuous
 62
     7
370
    25
100
AcDbSpline
210
0.0
220
0.0
230
1.0
 70
     8
 71
     3
 72
     9
 73
     5
 74
     0
 42
0.000000001
 43
0.00000001
 40
0.0
 40
0.0
 40
0.0
 40
0.0
 40
0.560150752090392
 40
1.0
 40
1.0
 40
1.0
 40
1.0
 10
581.010941018396
 20
-934.781194125138
 30
0.0
 10
581.0676380117122
 20
-934.7043877574287
 30
0.0
 10
581.1688553948982
 20
-934.5672704413804
 30
0.0
 10
581.3055728113129
 20
-934.4660165443678
 30
0.0
 10
581.3657078640991
 20
-934.4214800939185
 30
0.0
  0
LINE
  5
169
330
1F
100
AcDbEntity
  8
0
  6
Continuous
 62
     7
370
    25
100
AcDbLine
 10
581.0109410184
 20
-934.3366626844
 30
0.0
 11
581.0109410184
 21
-934.7811941251
 31
0.0
  0
LINE
  5
16A
330
1F
100
AcDbEntity
  8
0
  6
Continuous
 62
     7
370
    25
100
AcDbLine
 10
580.6968375789
 20
-934.3366626844
 30
0.0
 11
581.0109410184
 21
-934.3366626844
 31
0.0
  0
LINE
  5
16B
330
1F
100
AcDbEntity
  8
0
  6
Continuous
 62
     7
370
    25
100
AcDbLine
 10
580.6968375789
 20
-936.8943575964
 30
0.0
 11
580.6968375789
 21
-934.3366626844
 31
0.0
  0
LINE
  5
16C
330
1F
100
AcDbEntity
  8
0
  6
Continuous
 62
     7
370
    25
100
AcDbLine
 10
581.0109410184
 20
-936.8943575964
 30
0.0
 11
580.6968375789
 21
-936.8943575964
 31
0.0
  0
SPLINE
  5
16D
330
1F
100
AcDbEntity
  8
0
  6
Continuous
 62
     7
370
    25
100
AcDbSpline
210
0.0
220
0.0
230
1.0
 70
     8
 71
     3
 72
    11
 73
     7
 74
     0
 42
0.000000001
 43
0.00000001
 40
0.0
 40
0.0
 40
0.0
 40
0.0
 40
0.2797725207148343
 40
0.5591834707876276
 40
0.7795849967683197
 40
1.0
 40
1.0
 40
1.0
 40
1.0
 10
578.7463165568644
 20
-936.9392398938758
 30
0.0
 10
578.5502668651663
 20
-936.9194584859158
 30
0.0
 10
578.1584208512318
 20
-936.8799212349674
 30
0.0
 10
577.7274716104708
 20
-936.5166175591853
 30
0.0
 10
577.4634446207046
 20
-936.0825287827194
 30
0.0
 10
577.4352793864477
 20
-935.7758551770175
 30
0.0
 10
577.4211963387662
 20
-935.6225136861426
 30
0.0
  0
SPLINE
  5
16E
330
1F
100
AcDbEntity
  8
0
  6
Continuous
 62
     7
370
    25
100
AcDbSpline
210
0.0
220
0.0
230
1.0
 70
     8
 71
     3
 72
    11
 73
     7
 74
     0
 42
0.000000001
 43
0.00000001
 40
0.0
 40
0.0
 40
0.0
 40
0.0
 40
0.2795304222529308
 40
0.5593753571956677
 40
0.7795062407030912
 40
1.0
 40
1.0
 40
1.0
 40
1.0
 10
580.0686325626904
 20
-935.6225136861426
 30
0.0
 10
580.044618321726
 20
-935.8169854505715
 30
0.0
 10
579.9965628202573
 20
-936.2061477886642
 30
0.0
 10
579.6438428613905
 20
-936.6429893481652
 30
0.0
 10
579.2063164995144
 20
-936.9041325910487
 30
0.0
 10
578.8997340329305
 20
-936.9275310363482
 30
0.0
 10
578.7463165568644
 20
-936.9392398938758
 30
0.0
  0
SPLINE
  5
16F
330
1F
100
AcDbEntity
  8
0
  6
Continuous
 62
     7
370
    25
100
AcDbSpline
210
0.0
220
0.0
230
1.0
 70
     8
 71
     3
 72
     9
 73
     5
 74
     0
 42
0.000000001
 43
0.00000001
 40
0.0
 40
0.0
 40
0.0
 40
0.0
 40
0.559189411024948
 40
1.0
 40
1.0
 40
1.0
 40
1.0
 10
579.7180715697342
 20
-934.7131852254493
 30
0.0
 10
579.8311157194162
 20
-934.865536830164
 30
0.0
 10
580.0332728909455
 20
-935.1379876343301
 30
0.0
 10
580.0578144039073
 20
-935.4742747601466
 30
0.0
 10
580.0686325626904
 20
-935.6225136861426
 30
0.0
  0
SPLINE
  5
170
330
1F
100
AcDbEntity
  8
0
  6
Continuous
 62
     7
370
    25
100
AcDbSpline
210
0.0
220
0.0
230
1.0
 70
     8
 71
     3
 72
     9
 73
     5
 74
     0
 42
0.000000001
 43
0.00000001
 40
0.0
 40
0.0
 40
0.0
 40
0.0
 40
0.5591841897940059
 40
1.0
 40
1.0
 40
1.0
 40
1.0
 10
578.7463165568644
 20
-934.2917803868872
 30
0.0
 10
578.9538919299364
 20
-934.3134593028938
 30
0.0
 10
579.3251030207731
 20
-934.3522281314879
 30
0.0
 10
579.5978433295464
 20
-934.6027508502174
 30
0.0
 10
579.7180715697342
 20
-934.7131852254493
 30
0.0
  0
SPLINE
  5
171
330
1F
100
AcDbEntity
  8
0
  6
Continuous
 62
     7
370
    25
100
AcDbSpline
210
0.0
220
0.0
230
1.0
 70
     8
 71
     3
 72
     9
 73
     5
 74
     0
 42
0.000000001
 43
0.00000001
 40
0.0
 40
0.0
 40
0.0
 40
0.0
 40
0.5588891449857749
 40
1.0
 40
1.0
 40
1.0
 40
1.0
 10
577.7717573317224
 20
-934.7152713880164
 30
0.0
 10
577.9297994052033
 20
-934.5781821431706
 30
0.0
 10
578.2125783335451
 20
-934.3328933482896
 30
0.0
 10
578.5829441672782
 20
-934.3043646884303
 30
0.0
 10
578.7463165568644
 20
-934.2917803868872
 30
0.0
  0
SPLINE
  5
172
330
1F
100
AcDbEntity
  8
0
  6
Continuous
 62
     7
370
    25
100
AcDbSpline
210
0.0
220
0.0
230
1.0
 70
     8
 71
     3
 72
     9
 73
     5
 74
     0
 42
0.000000001
 43
0.00000001
 40
0.0
 40
0.0
 40
0.0
 40
0.0
 40
0.5593084673906131
 40
1.0
 40
1.0
 40
1.0
 40
1.0
 10
577.4211963387662
 20
-935.6225136861426
 30
0.0
 10
577.4397160990482
 20
-935.4340227123455
 30
0.0
 10
577.472827988751
 20
-935.0970155243866
 30
0.0
 10
577.6803181670474
 20
-934.8320426778544
 30
0.0
 10
577.7717573317224
 20
-934.7152713880164
 30
0.0
  0
LINE
  5
173
330
1F
100
AcDbEntity
  8
0
  6
Continuous
 62
     7
370
    25
100
AcDbLine
 10
564.9019657383
 20
-934.3366626844
 30
0.0
 11
564.9019657383
 21
-936.8943575964
 31
0.0
  0
LINE
  5
174
330
1F
100
AcDbEntity
  8
0
  6
Continuous
 62
     7
370
    25
100
AcDbLine
 10
564.2737607221
 20
-934.3366626844
 30
0.0
 11
564.9019657383
 21
-934.3366626844
 31
0.0
  0
LINE
  5
175
330
1F
100
AcDbEntity
  8
0
  6
Continuous
 62
     7
370
    25
100
AcDbLine
 10
564.2737607221
 20
-936.8943575964
 30
0.0
 11
564.2737607221
 21
-934.3366626844
 31
0.0
  0
LINE
  5
176
330
1F
100
AcDbEntity
  8
0
  6
Continuous
 62
     7
370
    25
100
AcDbLine
 10
564.9019657383
 20
-936.8943575964
 30
0.0
 11
564.2737607221
 21
-936.8943575964
 31
0.0
  0
SPLINE
  5
177
330
1F
100
AcDbEntity
  8
0
  6
Continuous
 62
     7
370
    25
100
AcDbSpline
210
0.0
220
0.0
230
1.0
 70
     8
 71
     3
 72
    11
 73
     7
 74
     0
 42
0.000000001
 43
0.00000001
 40
0.0
 40
0.0
 40
0.0
 40
0.0
 40
0.2798846784528974
 40
0.5595454413323832
 40
0.7798296499783022
 40
1.0
 40
1.0
 40
1.0
 40
1.0
 10
564.9917093785936
 20
-933.6881045446021
 30
0.0
 10
564.98527230171
 20
-933.748974300175
 30
0.0
 10
564.9724032977846
 20
-933.8706651138132
 30
0.0
 10
564.8653857802286
 20
-934.007834133622
 30
0.0
 10
564.7349271911966
 20
-934.0987226631667
 30
0.0
 10
564.6392133794963
 20
-934.1077822026725
 30
0.0
 10
564.5913688447782
 20
-934.1123108014685
 30
0.0
  0
SPLINE
  5
178
330
1F
100
AcDbEntity
  8
0
  6
Continuous
 62
     7
370
    25
100
AcDbSpline
210
0.0
220
0.0
230
1.0
 70
     8
 71
     3
 72
    11
 73
     7
 74
     0
 42
0.000000001
 43
0.00000001
 40
0.0
 40
0.0
 40
0.0
 40
0.0
 40
0.2791949613611197
 40
0.5588667727945562
 40
0.779323630282211
 40
1.0
 40
1.0
 40
1.0
 40
1.0
 10
564.5864610076407
 20
-933.2597259626014
 30
0.0
 10
564.6478618578608
 20
-933.2679687928978
 30
0.0
 10
564.7707684276717
 20
-933.284468531805
 30
0.0
 10
564.9010054887802
 20
-933.4047649852859
 30
0.0
 10
564.9808057764695
 20
-933.5430324635595
 30
0.0
 10
564.9880736390322
 20
-933.63973114485
 30
0.0
 10
564.9917093785936
 20
-933.6881045446021
 30
0.0
  0
SPLINE
  5
179
330
1F
100
AcDbEntity
  8
0
  6
Continuous
 62
     7
370
    25
100
AcDbSpline
210
0.0
220
0.0
230
1.0
 70
     8
 71
     3
 72
    11
 73
     7
 74
     0
 42
0.000000001
 43
0.00000001
 40
0.0
 40
0.0
 40
0.0
 40
0.0
 40
0.2797301650054459
 40
0.5596305566119916
 40
0.7798171028768563
 40
1.0
 40
1.0
 40
1.0
 40
1.0
 10
564.1840170817906
 20
-933.6789850339514
 30
0.0
 10
564.1906341755323
 20
-933.6183899619411
 30
0.0
 10
564.2038723897728
 20
-933.4971629434801
 30
0.0
 10
564.3111002998263
 20
-933.3601022035028
 30
0.0
 10
564.4436889640765
 20
-933.2735305462979
 30
0.0
 10
564.5388705893616
 20
-933.2643274650795
 30
0.0
 10
564.5864610076407
 20
-933.2597259626014
 30
0.0
  0
SPLINE
  5
17A
330
1F
100
AcDbEntity
  8
0
  6
Continuous
 62
     7
370
    25
100
AcDbSpline
210
0.0
220
0.0
230
1.0
 70
     8
 71
     3
 72
    11
 73
     7
 74
     0
 42
0.000000001
 43
0.00000001
 40
0.0
 40
0.0
 40
0.0
 40
0.0
 40
0.2792664316427941
 40
0.5589564763786804
 40
0.7794040649753706
 40
1.0
 40
1.0
 40
1.0
 40
1.0
 10
564.5913688447782
 20
-934.1123108014685
 30
0.0
 10
564.5293475753454
 20
-934.1041895963681
 30
0.0
 10
564.4052109577834
 20
-934.0879348672903
 30
0.0
 10
564.273575733562
 20
-933.9659673103903
 30
0.0
 10
564.1957792234945
 20
-933.825103840099
 30
0.0
 10
564.1879386747565
 20
-933.7277022231177
 30
0.0
 10
564.1840170817906
 20
-933.6789850339514
 30
0.0
  0
LINE
  5
17B
330
1F
100
AcDbEntity
  8
0
  6
Continuous
 62
     7
370
    25
100
AcDbLine
 10
563.7352991133
 20
-933.3046082601
 30
0.0
 11
563.7352991133
 21
-936.8943575964
 31
0.0
  0
LINE
  5
17C
330
1F
100
AcDbEntity
  8
0
  6
Continuous
 62
     7
370
    25
100
AcDbLine
 10
563.1070940097
 20
-933.3046082601
 30
0.0
 11
563.7352991133
 21
-933.3046082601
 31
0.0
  0
LINE
  5
17D
330
1F
100
AcDbEntity
  8
0
  6
Continuous
 62
     7
370
    25
100
AcDbLine
 10
563.1070940097
 20
-936.8943575964
 30
0.0
 11
563.1070940097
 21
-933.3046082601
 31
0.0
  0
LINE
  5
17E
330
1F
100
AcDbEntity
  8
0
  6
Continuous
 62
     7
370
    25
100
AcDbLine
 10
563.7352991133
 20
-936.8943575964
 30
0.0
 11
563.1070940097
 21
-936.8943575964
 31
0.0
  0
LINE
  5
17F
330
1F
100
AcDbEntity
  8
0
  6
Continuous
 62
     7
370
    25
100
AcDbLine
 10
560.8635042543
 20
-935.8763102636
 30
0.0
 11
560.8635042543
 21
-936.8943575964
 31
0.0
  0
SPLINE
  5
180
330
1F
100
AcDbEntity
  8
0
  6
Continuous
 62
     7
370
    25
100
AcDbSpline
210
0.0
220
0.0
230
1.0
 70
     8
 71
     3
 72
     9
 73
     5
 74
     0
 42
0.000000001
 43
0.00000001
 40
0.0
 40
0.0
 40
0.0
 40
0.0
 40
0.5597245404685115
 40
1.0
 40
1.0
 40
1.0
 40
1.0
 10
560.8929513935456
 20
-935.3616837606055
 30
0.0
 10
560.882104272154
 20
-935.4574186385588
 30
0.0
 10
560.8627248799579
 20
-935.6284579106148
 30
0.0
 10
560.86326600863
 20
-935.800544681476
 30
0.0
 10
560.8635042543048
 20
-935.8763102635962
 30
0.0
  0
SPLINE
  5
181
330
1F
100
AcDbEntity
  8
0
  6
Continuous
 62
     7
370
    25
100
AcDbSpline
210
0.0
220
0.0
230
1.0
 70
     8
 71
     3
 72
    10
 73
     6
 74
     0
 42
0.000000001
 43
0.00000001
 40
0.0
 40
0.0
 40
0.0
 40
0.0
 40
0.2804055650236253
 40
0.5608010026916982
 40
1.0
 40
1.0
 40
1.0
 40
1.0
 10
561.441929729701
 20
-934.875131045304
 30
0.0
 10
561.3675472404458
 20
-934.8832850386029
 30
0.0
 10
561.218784948394
 20
-934.8995927307043
 30
0.0
 10
560.9982095448179
 20
-935.0692163448961
 30
0.0
 10
560.9328457122475
 20
-935.2508344995153
 30
0.0
 10
560.8929513935456
 20
-935.3616837606055
 30
0.0
  0
SPLINE
  5
182
330
1F
100
AcDbEntity
  8
0
  6
Continuous
 62
     7
370
    25
100
AcDbSpline
210
0.0
220
0.0
230
1.0
 70
     8
 71
     3
 72
    12
 73
     8
 74
     0
 42
0.000000001
 43
0.00000001
 40
0.0
 40
0.0
 40
0.0
 40
0.0
 40
0.5005556662645856
 40
0.6255405993768313
 40
0.7502865169912364
 40
0.875013837419832
 40
1.0
 40
1.0
 40
1.0
 40
1.0
 10
561.895555535377
 20
-935.7838038549048
 30
0.0
 10
561.9016392052731
 20
-935.5885485140619
 30
0.0
 10
561.9092419211544
 20
-935.3445394034391
 30
0.0
 10
561.8156071955086
 20
-935.0664426350744
 30
0.0
 10
561.7192503083172
 20
-934.9539846911351
 30
0.0
 10
561.5873315766837
 20
-934.8848750853037
 30
0.0
 10
561.4904304931802
 20
-934.8783813023616
 30
0.0
 10
561.441929729701
 20
-934.875131045304
 30
0.0
  0
LINE
  5
183
330
1F
100
AcDbEntity
  8
0
  6
Continuous
 62
     7
370
    25
100
AcDbLine
 10
561.8955555354
 20
-936.8943575964
 30
0.0
 11
561.8955555354
 21
-935.7838038549
 31
0.0
  0
LINE
  5
184
330
1F
100
AcDbEntity
  8
0
  6
Continuous
 62
     7
370
    25
100
AcDbLine
 10
562.5237606826
 20
-936.8943575964
 30
0.0
 11
561.8955555354
 21
-936.8943575964
 31
0.0
  0
LINE
  5
185
330
1F
100
AcDbEntity
  8
0
  6
Continuous
 62
     7
370
    25
100
AcDbLine
 10
562.5237606826
 20
-935.2172617063
 30
0.0
 11
562.5237606826
 21
-936.8943575964
 31
0.0
  0
SPLINE
  5
186
330
1F
100
AcDbEntity
  8
0
  6
Continuous
 62
     7
370
    25
100
AcDbSpline
210
0.0
220
0.0
230
1.0
 70
     8
 71
     3
 72
     9
 73
     5
 74
     0
 42
0.000000001
 43
0.00000001
 40
0.0
 40
0.0
 40
0.0
 40
0.0
 40
0.557596374902464
 40
0.9999999999999999
 40
0.9999999999999999
 40
0.9999999999999999
 40
0.9999999999999999
 10
562.2958960982961
 20
-934.5554117307288
 30
0.0
 10
562.3735307585287
 20
-934.6671699925118
 30
0.0
 10
562.5127616856417
 20
-934.8675985942983
 30
0.0
 10
562.5203871496703
 20
-935.1100155613193
 30
0.0
 10
562.5237606825996
 20
-935.2172617063147
 30
0.0
  0
SPLINE
  5
187
330
1F
100
AcDbEntity
  8
0
  6
Continuous
 62
     7
370
    25
100
AcDbSpline
210
0.0
220
0.0
230
1.0
 70
     8
 71
     3
 72
     9
 73
     5
 74
     0
 42
0.000000001
 43
0.00000001
 40
0.0
 40
0.0
 40
0.0
 40
0.0
 40
0.5593240356877859
 40
1.0
 40
1.0
 40
1.0
 40
1.0
 10
561.6375427442127
 20
-934.2917803868872
 30
0.0
 10
561.7755304645935
 20
-934.3053734284911
 30
0.0
 10
562.0222348999057
 20
-934.3296760522596
 30
0.0
 10
562.2121882309596
 20
-934.4863633879693
 30
0.0
 10
562.2958960982961
 20
-934.5554117307288
 30
0.0
  0
SPLINE
  5
188
330
1F
100
AcDbEntity
  8
0
  6
Continuous
 62
     7
370
    25
100
AcDbSpline
210
0.0
220
0.0
230
1.0
 70
     8
 71
     3
 72
     9
 73
     5
 74
     0
 42
0.000000001
 43
0.00000001
 40
0.0
 40
0.0
 40
0.0
 40
0.0
 40
0.5603784719980017
 40
1.0
 40
1.0
 40
1.0
 40
1.0
 10
560.8635042543048
 20
-934.6072677716834
 30
0.0
 10
560.9934006268596
 20
-934.5098879857325
 30
0.0
 10
561.2252017738447
 20
-934.3361129554319
 30
0.0
 10
561.5116249499
 20
-934.305318355822
 30
0.0
 10
561.6375427442127
 20
-934.2917803868872
 30
0.0
  0
LINE
  5
189
330
1F
100
AcDbEntity
  8
0
  6
Continuous
 62
     7
370
    25
100
AcDbLine
 10
560.8635042543
 20
-934.3366626844
 30
0.0
 11
560.8635042543
 21
-934.6072677717
 31
0.0
  0
LINE
  5
18A
330
1F
100
AcDbEntity
  8
0
  6
Continuous
 62
     7
370
    25
100
AcDbLine
 10
560.235299238
 20
-934.3366626844
 30
0.0
 11
560.8635042543
 21
-934.3366626844
 31
0.0
  0
LINE
  5
18B
330
1F
100
AcDbEntity
  8
0
  6
Continuous
 62
     7
370
    25
100
AcDbLine
 10
560.235299238
 20
-936.8943575964
 30
0.0
 11
560.235299238
 21
-934.3366626844
 31
0.0
  0
LINE
  5
18C
330
1F
100
AcDbEntity
  8
0
  6
Continuous
 62
     7
370
    25
100
AcDbLine
 10
560.8635042543
 20
-936.8943575964
 30
0.0
 11
560.235299238
 21
-936.8943575964
 31
0.0
  0
SPLINE
  5
18D
330
1F
100
AcDbEntity
  8
0
  6
Continuous
 62
     7
370
    25
100
AcDbSpline
210
0.0
220
0.0
230
1.0
 70
     8
 71
     3
 72
    11
 73
     7
 74
     0
 42
0.000000001
 43
0.00000001
 40
0.0
 40
0.0
 40
0.0
 40
0.0
 40
0.2795298381243055
 40
0.5592712369541301
 40
0.7795731853239813
 40
1.0
 40
1.0
 40
1.0
 40
1.0
 10
558.3604993978971
 20
-936.9392398938758
 30
0.0
 10
558.1662122490143
 20
-936.9162678976198
 30
0.0
 10
557.7774909060298
 20
-936.8703065188724
 30
0.0
 10
557.3502540911431
 20
-936.5086492861367
 30
0.0
 10
557.0885344699308
 20
-936.0755549867724
 30
0.0
 10
557.0624483789574
 20
-935.770297894028
 30
0.0
 10
557.0494016381436
 20
-935.617626105271
 30
0.0
  0
SPLINE
  5
18E
330
1F
100
AcDbEntity
  8
0
  6
Continuous
 62
     7
370
    25
100
AcDbSpline
210
0.0
220
0.0
230
1.0
 70
     8
 71
     3
 72
    11
 73
     7
 74
     0
 42
0.000000001
 43
0.00000001
 40
0.0
 40
0.0
 40
0.0
 40
0.0
 40
0.2795778096058216
 40
0.5591147295174322
 40
0.7795159591264018
 40
1.0
 40
1.0
 40
1.0
 40
1.0
 10
559.6968376292372
 20
-935.613394175492
 30
0.0
 10
559.6717739072992
 20
-935.8090622518588
 30
0.0
 10
559.6216501291217
 20
-936.2003697871289
 30
0.0
 10
559.2664855977688
 20
-936.6414717769778
 30
0.0
 10
558.8227694397685
 20
-936.8981173723624
 30
0.0
 10
558.5146087057475
 20
-936.9255306703625
 30
0.0
 10
558.3604993978971
 20
-936.9392398938758
 30
0.0
  0
SPLINE
  5
18F
330
1F
100
AcDbEntity
  8
0
  6
Continuous
 62
     7
370
    25
100
AcDbSpline
210
0.0
220
0.0
230
1.0
 70
     8
 71
     3
 72
    11
 73
     7
 74
     0
 42
0.000000001
 43
0.00000001
 40
0.0
 40
0.0
 40
0.0
 40
0.0
 40
0.2796506049871073
 40
0.5592679480032716
 40
0.7796813457726882
 40
1.0
 40
1.0
 40
1.0
 40
1.0
 10
558.357695185625
 20
-934.2917803868872
 30
0.0
 10
558.5529062700748
 20
-934.3164955712392
 30
0.0
 10
558.9433052203391
 20
-934.3659230002897
 30
0.0
 10
559.3868937793749
 20
-934.7143448311512
 30
0.0
 10
559.6510939031872
 20
-935.1525905591061
 30
0.0
 10
559.6815919059246
 20
-935.4598149845624
 30
0.0
 10
559.6968376292372
 20
-935.613394175492
 30
0.0
  0
SPLINE
  5
190
330
1F
100
AcDbEntity
  8
0
  6
Continuous
 62
     7
370
    25
100
AcDbSpline
210
0.0
220
0.0
230
1.0
 70
     8
 71
     3
 72
     9
 73
     5
 74
     0
 42
0.000000001
 43
0.00000001
 40
0.0
 40
0.0
 40
0.0
 40
0.0
 40
0.5593736580368287
 40
1.0
 40
1.0
 40
1.0
 40
1.0
 10
557.4833960952693
 20
-934.6346263036353
 30
0.0
 10
557.6297431205816
 20
-934.5251479979463
 30
0.0
 10
557.8913697152728
 20
-934.3294321215973
 30
0.0
 10
558.2150660526011
 20
-934.3032964515669
 30
0.0
 10
558.357695185625
 20
-934.2917803868872
 30
0.0
  0
SPLINE
  5
191
330
1F
100
AcDbEntity
  8
0
  6
Continuous
 62
     7
370
    25
100
AcDbSpline
210
0.0
220
0.0
230
1.0
 70
     8
 71
     3
 72
     9
 73
     5
 74
     0
 42
0.000000001
 43
0.00000001
 40
0.0
 40
0.0
 40
0.0
 40
0.0
 40
0.5590733282391092
 40
1.0
 40
1.0
 40
1.0
 40
1.0
 10
557.0494016381436
 20
-935.617626105271
 30
0.0
 10
557.0725869571502
 20
-935.4071417823177
 30
0.0
 10
557.114057937495
 20
-935.0306539187027
 30
0.0
 10
557.3703778217837
 20
-934.7558116086608
 30
0.0
 10
557.4833960952693
 20
-934.6346263036353
 30
0.0
  0
LINE
  5
192
330
1F
100
AcDbEntity
  8
0
  6
Continuous
 62
     7
370
    25
100
AcDbLine
 10
550.094273475
 20
-935.7683662519
 30
0.0
 11
550.094273475
 21
-936.8943575964
 31
0.0
  0
SPLINE
  5
193
330
1F
100
AcDbEntity
  8
0
  6
Continuous
 62
     7
370
    25
100
AcDbSpline
210
0.0
220
0.0
230
1.0
 70
     8
 71
     3
 72
    12
 73
     8
 74
     0
 42
0.000000001
 43
0.00000001
 40
0.0
 40
0.0
 40
0.0
 40
0.0
 40
0.1252966678019899
 40
0.2506436727617248
 40
0.3760242464279175
 40
0.5014595143428562
 40
1.0
 40
1.0
 40
1.0
 40
1.0
 10
550.6635844456488
 20
-934.875131045304
 30
0.0
 10
550.6135794491596
 20
-934.8790532469001
 30
0.0
 10
550.5135493669844
 20
-934.8868992258132
 30
0.0
 10
550.3759453211926
 20
-934.9529127850512
 30
0.0
 10
550.2614573850523
 20
-935.0512012357951
 30
0.0
 10
550.0966061670887
 20
-935.3056317099679
 30
0.0
 10
550.0953094880515
 20
-935.562853052894
 30
0.0
 10
550.0942734750444
 20
-935.768366251908
 30
0.0
  0
SPLINE
  5
194
330
1F
100
AcDbEntity
  8
0
  6
Continuous
 62
     7
370
    25
100
AcDbSpline
210
0.0
220
0.0
230
1.0
 70
     8
 71
     3
 72
    12
 73
     8
 74
     0
 42
0.000000001
 43
0.00000001
 40
0.0
 40
0.0
 40
0.0
 40
0.0
 40
0.4994330733467087
 40
0.6246396424354163
 40
0.749667278639267
 40
0.8747242139443054
 40
1.0
 40
1.0
 40
1.0
 40
1.0
 10
551.1263251053625
 20
-935.6681112393958
 30
0.0
 10
551.1267872558689
 20
-935.4907855247626
 30
0.0
 10
551.1273652663019
 20
-935.2690047158928
 30
0.0
 10
551.009817944832
 20
-935.0327198784506
 30
0.0
 10
550.9156221661142
 20
-934.9394432579667
 30
0.0
 10
550.7945173073924
 20
-934.8829801412545
 30
0.0
 10
550.7072541625257
 20
-934.8777489350631
 30
0.0
 10
550.6635844456488
 20
-934.875131045304
 30
0.0
  0
LINE
  5
195
330
1F
100
AcDbEntity
  8
0
  6
Continuous
 62
     7
370
    25
100
AcDbLine
 10
551.1263251054
 20
-936.8943575964
 30
0.0
 11
551.1263251054
 21
-935.6681112394
 31
0.0
  0
LINE
  5
196
330
1F
100
AcDbEntity
  8
0
  6
Continuous
 62
     7
370
    25
100
AcDbLine
 10
551.7545301216
 20
-936.8943575964
 30
0.0
 11
551.1263251054
 21
-936.8943575964
 31
0.0
  0
LINE
  5
197
330
1F
100
AcDbEntity
  8
0
  6
Continuous
 62
     7
370
    25
100
AcDbLine
 10
551.7545301216
 20
-935.7522133932
 30
0.0
 11
551.7545301216
 21
-936.8943575964
 31
0.0
  0
SPLINE
  5
198
330
1F
100
AcDbEntity
  8
0
  6
Continuous
 62
     7
370
    25
100
AcDbSpline
210
0.0
220
0.0
230
1.0
 70
     8
 71
     3
 72
    11
 73
     7
 74
     0
 42
0.000000001
 43
0.00000001
 40
0.0
 40
0.0
 40
0.0
 40
0.0
 40
0.2490006518332221
 40
0.3747358375172032
 40
0.5005222827056595
 40
0.9999999999999999
 40
0.9999999999999999
 40
0.9999999999999999
 40
0.9999999999999999
 10
552.3336563008362
 20
-934.875131045304
 30
0.0
 10
552.2338575013429
 20
-934.8900267081751
 30
0.0
 10
552.0836643735901
 20
-934.9124440739947
 30
0.0
 10
551.927935890416
 20
-935.0416084284647
 30
0.0
 10
551.7563774212218
 20
-935.2889619553172
 30
0.0
 10
551.7553504742747
 20
-935.5464917294977
 30
0.0
 10
551.7545301216179
 20
-935.7522133931739
 30
0.0
  0
SPLINE
  5
199
330
1F
100
AcDbEntity
  8
0
  6
Continuous
 62
     7
370
    25
100
AcDbSpline
210
0.0
220
0.0
230
1.0
 70
     8
 71
     3
 72
    12
 73
     8
 74
     0
 42
0.000000001
 43
0.00000001
 40
0.0
 40
0.0
 40
0.0
 40
0.0
 40
0.4996638249701504
 40
0.6247536857333328
 40
0.7497705671579757
 40
0.8747523145861364
 40
1.0
 40
1.0
 40
1.0
 40
1.0
 10
552.7865808206135
 20
-935.6098775014502
 30
0.0
 10
552.7857764584827
 20
-935.4420368141979
 30
0.0
 10
552.7847707258666
 20
-935.2321775393483
 30
0.0
 10
552.669167858186
 20
-935.0102611212704
 30
0.0
 10
552.5742447962105
 20
-934.927564951559
 30
0.0
 10
552.4571206351459
 20
-934.8821970820983
 30
0.0
 10
552.3748402275033
 20
-934.8774880591154
 30
0.0
 10
552.3336563008362
 20
-934.875131045304
 30
0.0
  0
LINE
  5
19A
330
1F
100
AcDbEntity
  8
0
  6
Continuous
 62
     7
370
    25
100
AcDbLine
 10
552.7865808206
 20
-936.8943575964
 30
0.0
 11
552.7865808206
 21
-935.6098775015
 31
0.0
  0
LINE
  5
19B
330
1F
100
AcDbEntity
  8
0
  6
Continuous
 62
     7
370
    25
100
AcDbLine
 10
553.4147867682
 20
-936.8943575964
 30
0.0
 11
552.7865808206
 21
-936.8943575964
 31
0.0
  0
LINE
  5
19C
330
1F
100
AcDbEntity
  8
0
  6
Continuous
 62
     7
370
    25
100
AcDbLine
 10
553.4147867682
 20
-935.4065660581
 30
0.0
 11
553.4147867682
 21
-936.8943575964
 31
0.0
  0
SPLINE
  5
19D
330
1F
100
AcDbEntity
  8
0
  6
Continuous
 62
     7
370
    25
100
AcDbSpline
210
0.0
220
0.0
230
1.0
 70
     8
 71
     3
 72
    11
 73
     7
 74
     0
 42
0.000000001
 43
0.00000001
 40
0.0
 40
0.0
 40
0.0
 40
0.0
 40
0.1873268775168687
 40
0.3743852696016085
 40
0.5610802693942664
 40
0.9999999999999999
 40
0.9999999999999999
 40
0.9999999999999999
 40
0.9999999999999999
 10
552.5348787876302
 20
-934.2917803868872
 30
0.0
 10
552.6366952657075
 20
-934.2993801623035
 30
0.0
 10
552.840182293838
 20
-934.3145688207911
 30
0.0
 10
553.1163038962591
 20
-934.4584616004191
 30
0.0
 10
553.4150526374
 20
-934.8029480371539
 30
0.0
 10
553.4148963891062
 20
-935.1576874460546
 30
0.0
 10
553.4147867681914
 20
-935.4065660581214
 30
0.0
  0
SPLINE
  5
19E
330
1F
100
AcDbEntity
  8
0
  6
Continuous
 62
     7
370
    25
100
AcDbSpline
210
0.0
220
0.0
230
1.0
 70
     8
 71
     3
 72
     9
 73
     5
 74
     0
 42
0.000000001
 43
0.00000001
 40
0.0
 40
0.0
 40
0.0
 40
0.0
 40
0.558738031688731
 40
1.0
 40
1.0
 40
1.0
 40
1.0
 10
551.6626830893093
 20
-934.7475175008399
 30
0.0
 10
551.7959234910744
 20
-934.6024525961213
 30
0.0
 10
552.0343901681368
 20
-934.3428230443617
 30
0.0
 10
552.3816473847272
 20
-934.3074077912038
 30
0.0
 10
552.5348787876302
 20
-934.2917803868872
 30
0.0
  0
SPLINE
  5
19F
330
1F
100
AcDbEntity
  8
0
  6
Continuous
 62
     7
370
    25
100
AcDbSpline
210
0.0
220
0.0
230
1.0
 70
     8
 71
     3
 72
    10
 73
     6
 74
     0
 42
0.000000001
 43
0.00000001
 40
0.0
 40
0.0
 40
0.0
 40
0.0
 40
0.2807560497166276
 40
0.5613447269606682
 40
1.0
 40
1.0
 40
1.0
 40
1.0
 10
550.9096780540877
 20
-934.2917803868872
 30
0.0
 10
550.9961301132257
 20
-934.2983728712412
 30
0.0
 10
551.1689826931826
 20
-934.3115539098455
 30
0.0
 10
551.4560325767587
 20
-934.4497235766057
 30
0.0
 10
551.5843961925045
 20
-934.6347020912488
 30
0.0
 10
551.6626830893093
 20
-934.7475175008399
 30
0.0
  0
SPLINE
  5
1A0
330
1F
100
AcDbEntity
  8
0
  6
Continuous
 62
     7
370
    25
100
AcDbSpline
210
0.0
220
0.0
230
1.0
 70
     8
 71
     3
 72
     9
 73
     5
 74
     0
 42
0.000000001
 43
0.00000001
 40
0.0
 40
0.0
 40
0.0
 40
0.0
 40
0.5590047046342478
 40
1.0
 40
1.0
 40
1.0
 40
1.0
 10
550.0942734750444
 20
-934.6423749074561
 30
0.0
 10
550.2271317176276
 20
-934.5293643216547
 30
0.0
 10
550.4648009921109
 20
-934.3272003955473
 30
0.0
 10
550.7735300097612
 20
-934.3026201566153
 30
0.0
 10
550.9096780540877
 20
-934.2917803868872
 30
0.0
  0
LINE
  5
1A1
330
1F
100
AcDbEntity
  8
0
  6
Continuous
 62
     7
370
    25
100
AcDbLine
 10
550.094273475
 20
-934.3366626844
 30
0.0
 11
550.094273475
 21
-934.6423749075
 31
0.0
  0
LINE
  5
1A2
330
1F
100
AcDbEntity
  8
0
  6
Continuous
 62
     7
370
    25
100
AcDbLine
 10
549.4660684588
 20
-934.3366626844
 30
0.0
 11
550.094273475
 21
-934.3366626844
 31
0.0
  0
LINE
  5
1A3
330
1F
100
AcDbEntity
  8
0
  6
Continuous
 62
     7
370
    25
100
AcDbLine
 10
549.4660684588
 20
-936.8943575964
 30
0.0
 11
549.4660684588
 21
-934.3366626844
 31
0.0
  0
LINE
  5
1A4
330
1F
100
AcDbEntity
  8
0
  6
Continuous
 62
     7
370
    25
100
AcDbLine
 10
550.094273475
 20
-936.8943575964
 30
0.0
 11
549.4660684588
 21
-936.8943575964
 31
0.0
  0
SPLINE
  5
1A5
330
1F
100
AcDbEntity
  8
0
  6
Continuous
 62
     7
370
    25
100
AcDbSpline
210
0.0
220
0.0
230
1.0
 70
     8
 71
     3
 72
    11
 73
     7
 74
     0
 42
0.000000001
 43
0.00000001
 40
0.0
 40
0.0
 40
0.0
 40
0.0
 40
0.279547549095897
 40
0.559259740659405
 40
0.7795830863726307
 40
1.0
 40
1.0
 40
1.0
 40
1.0
 10
548.8378634425336
 20
-936.5563992604834
 30
0.0
 10
548.8311686671855
 20
-936.6127366337481
 30
0.0
 10
548.8177751735311
 20
-936.7254445607659
 30
0.0
 10
548.7136286958977
 20
-936.8494490119136
 30
0.0
 10
548.5894006215401
 20
-936.9278072008115
 30
0.0
 10
548.5007753592217
 20
-936.935428456864
 30
0.0
 10
548.4564533206159
 20
-936.9392398938758
 30
0.0
  0
SPLINE
  5
1A6
330
1F
100
AcDbEntity
  8
0
  6
Continuous
 62
     7
370
    25
100
AcDbSpline
210
0.0
220
0.0
230
1.0
 70
     8
 71
     3
 72
    11
 73
     7
 74
     0
 42
0.000000001
 43
0.00000001
 40
0.0
 40
0.0
 40
0.0
 40
0.0
 40
0.2795325611775802
 40
0.5594910002675758
 40
0.7796940721471131
 40
1.0
 40
1.0
 40
1.0
 40
1.0
 10
548.4564533206159
 20
-936.1764196500403
 30
0.0
 10
548.5126795380467
 20
-936.1828173524741
 30
0.0
 10
548.625217635573
 20
-936.1956225044718
 30
0.0
 10
548.7490459647462
 20
-936.2996503192302
 30
0.0
 10
548.8264427760101
 20
-936.4239403900305
 30
0.0
 10
548.8340559611494
 20
-936.5122394312494
 30
0.0
 10
548.8378634425336
 20
-936.5563992604834
 30
0.0
  0
SPLINE
  5
1A7
330
1F
100
AcDbEntity
  8
0
  6
Continuous
 62
     7
370
    25
100
AcDbSpline
210
0.0
220
0.0
230
1.0
 70
     8
 71
     3
 72
    11
 73
     7
 74
     0
 42
0.000000001
 43
0.00000001
 40
0.0
 40
0.0
 40
0.0
 40
0.0
 40
0.2796088959181941
 40
0.5591084389890483
 40
0.779480475534324
 40
1.0
 40
1.0
 40
1.0
 40
1.0
 10
548.0750431986982
 20
-936.5563992604834
 30
0.0
 10
548.0816062548291
 20
-936.500157566918
 30
0.0
 10
548.0947298003314
 20
-936.3876961754726
 30
0.0
 10
548.1993043922936
 20
-936.2643792598403
 30
0.0
 10
548.3237923466542
 20
-936.1872881053467
 30
0.0
 10
548.4122231352809
 20
-936.1800432763273
 30
0.0
 10
548.4564533206159
 20
-936.1764196500403
 30
0.0
  0
SPLINE
  5
1A8
330
1F
100
AcDbEntity
  8
0
  6
Continuous
 62
     7
370
    25
100
AcDbSpline
210
0.0
220
0.0
230
1.0
 70
     8
 71
     3
 72
    11
 73
     7
 74
     0
 42
0.000000001
 43
0.00000001
 40
0.0
 40
0.0
 40
0.0
 40
0.0
 40
0.2795682390903736
 40
0.5594285477539575
 40
0.7796577632770703
 40
1.0
 40
1.0
 40
1.0
 40
1.0
 10
548.4564533206159
 20
-936.9392398938758
 30
0.0
 10
548.4001226728119
 20
-936.9325032538162
 30
0.0
 10
548.2874025276427
 20
-936.9190229358181
 30
0.0
 10
548.1628984973835
 20
-936.8147735959203
 30
0.0
 10
548.0870166670894
 20
-936.6890975375518
 30
0.0
 10
548.0790350373462
 20
-936.6006395836396
 30
0.0
 10
548.0750431986982
 20
-936.5563992604834
 30
0.0
  0
LINE
  5
1A9
330
1F
100
AcDbEntity
  8
0
  6
Continuous
 62
     7
370
    25
100
AcDbLine
 10
545.8987612026
 20
-935.4367260084
 30
0.0
 11
545.3259438025
 21
-936.8943575964
 31
0.0
  0
LINE
  5
1AA
330
1F
100
AcDbEntity
  8
0
  6
Continuous
 62
     7
370
    25
100
AcDbLine
 10
546.4757844555
 20
-936.8943575964
 30
0.0
 11
545.8987612026
 21
-935.4367260084
 31
0.0
  0
LINE
  5
1AB
330
1F
100
AcDbEntity
  8
0
  6
Continuous
 62
     7
370
    25
100
AcDbLine
 10
546.8719169246
 20
-936.8943575964
 30
0.0
 11
546.4757844555
 21
-936.8943575964
 31
0.0
  0
LINE
  5
1AC
330
1F
100
AcDbEntity
  8
0
  6
Continuous
 62
     7
370
    25
100
AcDbLine
 10
547.8282483044
 20
-934.3366626844
 30
0.0
 11
546.8719169246
 21
-936.8943575964
 31
0.0
  0
LINE
  5
1AD
330
1F
100
AcDbEntity
  8
0
  6
Continuous
 62
     7
370
    25
100
AcDbLine
 10
547.1993420022
 20
-934.3366626844
 30
0.0
 11
547.8282483044
 21
-934.3366626844
 31
0.0
  0
LINE
  5
1AE
330
1F
100
AcDbEntity
  8
0
  6
Continuous
 62
     7
370
    25
100
AcDbLine
 10
546.6615814465
 20
-935.7753399953
 30
0.0
 11
547.1993420022
 21
-934.3366626844
 31
0.0
  0
LINE
  5
1AF
330
1F
100
AcDbEntity
  8
0
  6
Continuous
 62
     7
370
    25
100
AcDbLine
 10
546.0922695445
 20
-934.3366626844
 30
0.0
 11
546.6615814465
 21
-935.7753399953
 31
0.0
  0
LINE
  5
1B0
330
1F
100
AcDbEntity
  8
0
  6
Continuous
 62
     7
370
    25
100
AcDbLine
 10
545.7073539244
 20
-934.3366626844
 30
0.0
 11
546.0922695445
 21
-934.3366626844
 31
0.0
  0
LINE
  5
1B1
330
1F
100
AcDbEntity
  8
0
  6
Continuous
 62
     7
370
    25
100
AcDbLine
 10
545.1359409588
 20
-935.7914928541
 30
0.0
 11
545.7073539244
 21
-934.3366626844
 31
0.0
  0
LINE
  5
1B2
330
1F
100
AcDbEntity
  8
0
  6
Continuous
 62
     7
370
    25
100
AcDbLine
 10
544.596075614
 20
-934.3366626844
 30
0.0
 11
545.1359409588
 21
-935.7914928541
 31
0.0
  0
LINE
  5
1B3
330
1F
100
AcDbEntity
  8
0
  6
Continuous
 62
     7
370
    25
100
AcDbLine
 10
543.9792737114
 20
-934.3366626844
 30
0.0
 11
544.596075614
 21
-934.3366626844
 31
0.0
  0
LINE
  5
1B4
330
1F
100
AcDbEntity
  8
0
  6
Continuous
 62
     7
370
    25
100
AcDbLine
 10
544.9178904044
 20
-936.8943575964
 30
0.0
 11
543.9792737114
 21
-934.3366626844
 31
0.0
  0
LINE
  5
1B5
330
1F
100
AcDbEntity
  8
0
  6
Continuous
 62
     7
370
    25
100
AcDbLine
 10
545.3259438025
 20
-936.8943575964
 30
0.0
 11
544.9178904044
 21
-936.8943575964
 31
0.0
  0
LINE
  5
1B6
330
1F
100
AcDbEntity
  8
0
  6
Continuous
 62
     7
370
    25
100
AcDbLine
 10
542.0397869992
 20
-935.4367260084
 30
0.0
 11
541.4669695991
 21
-936.8943575964
 31
0.0
  0
LINE
  5
1B7
330
1F
100
AcDbEntity
  8
0
  6
Continuous
 62
     7
370
    25
100
AcDbLine
 10
542.616810252
 20
-936.8943575964
 30
0.0
 11
542.0397869992
 21
-935.4367260084
 31
0.0
  0
LINE
  5
1B8
330
1F
100
AcDbEntity
  8
0
  6
Continuous
 62
     7
370
    25
100
AcDbLine
 10
543.0129427212
 20
-936.8943575964
 30
0.0
 11
542.616810252
 21
-936.8943575964
 31
0.0
  0
LINE
  5
1B9
330
1F
100
AcDbEntity
  8
0
  6
Continuous
 62
     7
370
    25
100
AcDbLine
 10
543.9692731696
 20
-934.3366626844
 30
0.0
 11
543.0129427212
 21
-936.8943575964
 31
0.0
  0
LINE
  5
1BA
330
1F
100
AcDbEntity
  8
0
  6
Continuous
 62
     7
370
    25
100
AcDbLine
 10
543.3403677987
 20
-934.3366626844
 30
0.0
 11
543.9692731696
 21
-934.3366626844
 31
0.0
  0
LINE
  5
1BB
330
1F
100
AcDbEntity
  8
0
  6
Continuous
 62
     7
370
    25
100
AcDbLine
 10
542.802607243
 20
-935.7753399953
 30
0.0
 11
543.3403677987
 21
-934.3366626844
 31
0.0
  0
LINE
  5
1BC
330
1F
100
AcDbEntity
  8
0
  6
Continuous
 62
     7
370
    25
100
AcDbLine
 10
542.2332953411
 20
-934.3366626844
 30
0.0
 11
542.802607243
 21
-935.7753399953
 31
0.0
  0
LINE
  5
1BD
330
1F
100
AcDbEntity
  8
0
  6
Continuous
 62
     7
370
    25
100
AcDbLine
 10
541.848379721
 20
-934.3366626844
 30
0.0
 11
542.2332953411
 21
-934.3366626844
 31
0.0
  0
LINE
  5
1BE
330
1F
100
AcDbEntity
  8
0
  6
Continuous
 62
     7
370
    25
100
AcDbLine
 10
541.2769648927
 20
-935.7914928541
 30
0.0
 11
541.848379721
 21
-934.3366626844
 31
0.0
  0
LINE
  5
1BF
330
1F
100
AcDbEntity
  8
0
  6
Continuous
 62
     7
370
    25
100
AcDbLine
 10
540.7371014106
 20
-934.3366626844
 30
0.0
 11
541.2769648927
 21
-935.7914928541
 31
0.0
  0
LINE
  5
1C0
330
1F
100
AcDbEntity
  8
0
  6
Continuous
 62
     7
370
    25
100
AcDbLine
 10
540.1202995079
 20
-934.3366626844
 30
0.0
 11
540.7371014106
 21
-934.3366626844
 31
0.0
  0
LINE
  5
1C1
330
1F
100
AcDbEntity
  8
0
  6
Continuous
 62
     7
370
    25
100
AcDbLine
 10
541.0589162009
 20
-936.8943575964
 30
0.0
 11
540.1202995079
 21
-934.3366626844
 31
0.0
  0
LINE
  5
1C2
330
1F
100
AcDbEntity
  8
0
  6
Continuous
 62
     7
370
    25
100
AcDbLine
 10
541.4669695991
 20
-936.8943575964
 30
0.0
 11
541.0589162009
 21
-936.8943575964
 31
0.0
  0
LINE
  5
1C3
330
1F
100
AcDbEntity
  8
0
  6
Continuous
 62
     7
370
    25
100
AcDbLine
 10
538.1808127957
 20
-935.4367260084
 30
0.0
 11
537.6079953956
 21
-936.8943575964
 31
0.0
  0
LINE
  5
1C4
330
1F
100
AcDbEntity
  8
0
  6
Continuous
 62
     7
370
    25
100
AcDbLine
 10
538.7578360485
 20
-936.8943575964
 30
0.0
 11
538.1808127957
 21
-935.4367260084
 31
0.0
  0
LINE
  5
1C5
330
1F
100
AcDbEntity
  8
0
  6
Continuous
 62
     7
370
    25
100
AcDbLine
 10
539.1539685177
 20
-936.8943575964
 30
0.0
 11
538.7578360485
 21
-936.8943575964
 31
0.0
  0
LINE
  5
1C6
330
1F
100
AcDbEntity
  8
0
  6
Continuous
 62
     7
370
    25
100
AcDbLine
 10
540.1102989661
 20
-934.3366626844
 30
0.0
 11
539.1539685177
 21
-936.8943575964
 31
0.0
  0
LINE
  5
1C7
330
1F
100
AcDbEntity
  8
0
  6
Continuous
 62
     7
370
    25
100
AcDbLine
 10
539.4813935953
 20
-934.3366626844
 30
0.0
 11
540.1102989661
 21
-934.3366626844
 31
0.0
  0
LINE
  5
1C8
330
1F
100
AcDbEntity
  8
0
  6
Continuous
 62
     7
370
    25
100
AcDbLine
 10
538.9436330395
 20
-935.7753399953
 30
0.0
 11
539.4813935953
 21
-934.3366626844
 31
0.0
  0
LINE
  5
1C9
330
1F
100
AcDbEntity
  8
0
  6
Continuous
 62
     7
370
    25
100
AcDbLine
 10
538.3743211376
 20
-934.3366626844
 30
0.0
 11
538.9436330395
 21
-935.7753399953
 31
0.0
  0
LINE
  5
1CA
330
1F
100
AcDbEntity
  8
0
  6
Continuous
 62
     7
370
    25
100
AcDbLine
 10
537.9894055175
 20
-934.3366626844
 30
0.0
 11
538.3743211376
 21
-934.3366626844
 31
0.0
  0
LINE
  5
1CB
330
1F
100
AcDbEntity
  8
0
  6
Continuous
 62
     7
370
    25
100
AcDbLine
 10
537.4179906892
 20
-935.7914928541
 30
0.0
 11
537.9894055175
 21
-934.3366626844
 31
0.0
  0
LINE
  5
1CC
330
1F
100
AcDbEntity
  8
0
  6
Continuous
 62
     7
370
    25
100
AcDbLine
 10
536.8781272071
 20
-934.3366626844
 30
0.0
 11
537.4179906892
 21
-935.7914928541
 31
0.0
  0
LINE
  5
1CD
330
1F
100
AcDbEntity
  8
0
  6
Continuous
 62
     7
370
    25
100
AcDbLine
 10
536.2513247626
 20
-934.3366626844
 30
0.0
 11
536.8781272071
 21
-934.3366626844
 31
0.0
  0
LINE
  5
1CE
330
1F
100
AcDbEntity
  8
0
  6
Continuous
 62
     7
370
    25
100
AcDbLine
 10
537.1999419975
 20
-936.8943575964
 30
0.0
 11
536.2513247626
 21
-934.3366626844
 31
0.0
  0
LINE
  5
1CF
330
1F
100
AcDbEntity
  8
0
  6
Continuous
 62
     7
370
    25
100
AcDbLine
 10
537.6079953956
 20
-936.8943575964
 30
0.0
 11
537.1999419975
 21
-936.8943575964
 31
0.0
  0
LINE
  5
1D0
330
1F
100
AcDbEntity
  8
0
  6
Continuous
 62
     7
370
    25
100
AcDbLine
 10
591.8442733335
 20
-926.8943671331
 30
0.0
 11
591.3955546665
 21
-926.8943671331
 31
0.0
  0
LINE
  5
1D1
330
1F
100
AcDbEntity
  8
0
  6
Continuous
 62
     7
370
    25
100
AcDbLine
 10
591.8442733335
 20
-923.7533215627
 30
0.0
 11
591.8442733335
 21
-926.8943671331
 31
0.0
  0
LINE
  5
1D2
330
1F
100
AcDbEntity
  8
0
  6
Continuous
 62
     7
370
    25
100
AcDbLine
 10
592.8314529108
 20
-923.7533215627
 30
0.0
 11
591.8442733335
 21
-923.7533215627
 31
0.0
  0
LINE
  5
1D3
330
1F
100
AcDbEntity
  8
0
  6
Continuous
 62
     7
370
    25
100
AcDbLine
 10
592.8314529108
 20
-923.3943823919
 30
0.0
 11
592.8314529108
 21
-923.7533215627
 31
0.0
  0
LINE
  5
1D4
330
1F
100
AcDbEntity
  8
0
  6
Continuous
 62
     7
370
    25
100
AcDbLine
 10
590.4083769517
 20
-923.3943823919
 30
0.0
 11
592.8314529108
 21
-923.3943823919
 31
0.0
  0
LINE
  5
1D5
330
1F
100
AcDbEntity
  8
0
  6
Continuous
 62
     7
370
    25
100
AcDbLine
 10
590.4083769517
 20
-923.7533215627
 30
0.0
 11
590.4083769517
 21
-923.3943823919
 31
0.0
  0
LINE
  5
1D6
330
1F
100
AcDbEntity
  8
0
  6
Continuous
 62
     7
370
    25
100
AcDbLine
 10
591.3955546665
 20
-923.7533215627
 30
0.0
 11
590.4083769517
 21
-923.7533215627
 31
0.0
  0
LINE
  5
1D7
330
1F
100
AcDbEntity
  8
0
  6
Continuous
 62
     7
370
    25
100
AcDbLine
 10
591.3955546665
 20
-926.8943671331
 30
0.0
 11
591.3955546665
 21
-923.7533215627
 31
0.0
  0
LINE
  5
1D8
330
1F
100
AcDbEntity
  8
0
  6
Continuous
 62
     7
370
    25
100
AcDbLine
 10
587.0878636586
 20
-925.1891974554
 30
0.0
 11
587.0878636586
 21
-926.8943671331
 31
0.0
  0
LINE
  5
1D9
330
1F
100
AcDbEntity
  8
0
  6
Continuous
 62
     7
370
    25
100
AcDbLine
 10
589.3314532685
 20
-925.1891974554
 30
0.0
 11
587.0878636586
 21
-925.1891974554
 31
0.0
  0
LINE
  5
1DA
330
1F
100
AcDbEntity
  8
0
  6
Continuous
 62
     7
370
    25
100
AcDbLine
 10
589.3314532685
 20
-926.8943671331
 30
0.0
 11
589.3314532685
 21
-925.1891974554
 31
0.0
  0
LINE
  5
1DB
330
1F
100
AcDbEntity
  8
0
  6
Continuous
 62
     7
370
    25
100
AcDbLine
 10
589.7801700728
 20
-926.8943671331
 30
0.0
 11
589.3314532685
 21
-926.8943671331
 31
0.0
  0
LINE
  5
1DC
330
1F
100
AcDbEntity
  8
0
  6
Continuous
 62
     7
370
    25
100
AcDbLine
 10
589.7801700728
 20
-923.3943823919
 30
0.0
 11
589.7801700728
 21
-926.8943671331
 31
0.0
  0
LINE
  5
1DD
330
1F
100
AcDbEntity
  8
0
  6
Continuous
 62
     7
370
    25
100
AcDbLine
 10
589.3314532685
 20
-923.3943823919
 30
0.0
 11
589.7801700728
 21
-923.3943823919
 31
0.0
  0
LINE
  5
1DE
330
1F
100
AcDbEntity
  8
0
  6
Continuous
 62
     7
370
    25
100
AcDbLine
 10
589.3314532685
 20
-924.8302582845
 30
0.0
 11
589.3314532685
 21
-923.3943823919
 31
0.0
  0
LINE
  5
1DF
330
1F
100
AcDbEntity
  8
0
  6
Continuous
 62
     7
370
    25
100
AcDbLine
 10
587.0878636586
 20
-924.8302582845
 30
0.0
 11
589.3314532685
 21
-924.8302582845
 31
0.0
  0
LINE
  5
1E0
330
1F
100
AcDbEntity
  8
0
  6
Continuous
 62
     7
370
    25
100
AcDbLine
 10
587.0878636586
 20
-923.3943823919
 30
0.0
 11
587.0878636586
 21
-924.8302582845
 31
0.0
  0
LINE
  5
1E1
330
1F
100
AcDbEntity
  8
0
  6
Continuous
 62
     7
370
    25
100
AcDbLine
 10
586.6391449916
 20
-923.3943823919
 30
0.0
 11
587.0878636586
 21
-923.3943823919
 31
0.0
  0
LINE
  5
1E2
330
1F
100
AcDbEntity
  8
0
  6
Continuous
 62
     7
370
    25
100
AcDbLine
 10
586.6391449916
 20
-926.8943671331
 30
0.0
 11
586.6391449916
 21
-923.3943823919
 31
0.0
  0
LINE
  5
1E3
330
1F
100
AcDbEntity
  8
0
  6
Continuous
 62
     7
370
    25
100
AcDbLine
 10
587.0878636586
 20
-926.8943671331
 30
0.0
 11
586.6391449916
 21
-926.8943671331
 31
0.0
  0
SPLINE
  5
1E4
330
1F
100
AcDbEntity
  8
0
  6
Continuous
 62
     7
370
    25
100
AcDbSpline
210
0.0
220
0.0
230
1.0
 70
     8
 71
     3
 72
     9
 73
     5
 74
     0
 42
0.000000001
 43
0.00000001
 40
0.0
 40
0.0
 40
0.0
 40
0.0
 40
0.5596995831068678
 40
0.9999999999999999
 40
0.9999999999999999
 40
0.9999999999999999
 40
0.9999999999999999
 10
581.6198136406475
 20
-926.3222221479041
 30
0.0
 10
581.4483466375304
 20
-926.132288694492
 30
0.0
 10
581.1419912134916
 20
-925.7929397667014
 30
0.0
 10
581.095508462987
 20
-925.3416481416662
 30
0.0
 10
581.0750420885616
 20
-925.142944251023
 30
0.0
  0
SPLINE
  5
1E5
330
1F
100
AcDbEntity
  8
0
  6
Continuous
 62
     7
370
    25
100
AcDbSpline
210
0.0
220
0.0
230
1.0
 70
     8
 71
     3
 72
     9
 73
     5
 74
     0
 42
0.000000001
 43
0.00000001
 40
0.0
 40
0.0
 40
0.0
 40
0.0
 40
0.5603312116461961
 40
1.0
 40
1.0
 40
1.0
 40
1.0
 10
583.5422906773621
 20
-926.98407212349
 30
0.0
 10
583.1458530213491
 20
-926.961159695544
 30
0.0
 10
582.438347089548
 20
-926.9202688305166
 30
0.0
 10
581.8697903107097
 20
-926.5048630875775
 30
0.0
 10
581.6198136406475
 20
-926.3222221479041
 30
0.0
  0
SPLINE
  5
1E6
330
1F
100
AcDbEntity
  8
0
  6
Continuous
 62
     7
370
    25
100
AcDbSpline
210
0.0
220
0.0
230
1.0
 70
     8
 71
     3
 72
    10
 73
     6
 74
     0
 42
0.000000001
 43
0.00000001
 40
0.0
 40
0.0
 40
0.0
 40
0.0
 40
0.2800654525258839
 40
0.5600798550075942
 40
1.0
 40
1.0
 40
1.0
 40
1.0
 10
585.7417095201546
 20
-925.1891974553687
 30
0.0
 10
585.702777105857
 20
-925.4891270853293
 30
0.0
 10
585.6249193738223
 20
-926.0889316743837
 30
0.0
 10
584.7871376391647
 20
-926.8640804029881
 30
0.0
 10
584.0144474565574
 20
-926.9385605818942
 30
0.0
 10
583.5422906773621
 20
-926.98407212349
 30
0.0
  0
LINE
  5
1E7
330
1F
100
AcDbEntity
  8
0
  6
Continuous
 62
     7
370
    25
100
AcDbLine
 10
583.8570944714
 20
-925.1891974554
 30
0.0
 11
585.7417095202
 21
-925.1891974554
 31
0.0
  0
LINE
  5
1E8
330
1F
100
AcDbEntity
  8
0
  6
Continuous
 62
     7
370
    25
100
AcDbLine
 10
583.8570944714
 20
-925.5481962309
 30
0.0
 11
583.8570944714
 21
-925.1891974554
 31
0.0
  0
LINE
  5
1E9
330
1F
100
AcDbEntity
  8
0
  6
Continuous
 62
     7
370
    25
100
AcDbLine
 10
585.2929908531
 20
-925.5481962309
 30
0.0
 11
583.8570944714
 21
-925.5481962309
 31
0.0
  0
SPLINE
  5
1EA
330
1F
100
AcDbEntity
  8
0
  6
Continuous
 62
     7
370
    25
100
AcDbSpline
210
0.0
220
0.0
230
1.0
 70
     8
 71
     3
 72
    11
 73
     7
 74
     0
 42
0.000000001
 43
0.00000001
 40
0.0
 40
0.0
 40
0.0
 40
0.0
 40
0.280718316430528
 40
0.5608092944728882
 40
0.7807569036262366
 40
1.0
 40
1.0
 40
1.0
 40
1.0
 10
583.5731398063236
 20
-926.6251329526526
 30
0.0
 10
583.7792254146175
 20
-926.6137384262348
 30
0.0
 10
584.190936079094
 20
-926.5909748374443
 30
0.0
 10
584.7228434227773
 20
-926.3627273590171
 30
0.0
 10
585.1412897247124
 20
-926.0140206157811
 30
0.0
 10
585.2424779161814
 20
-925.7033048844826
 30
0.0
 10
585.2929908531243
 20
-925.5481962308509
 30
0.0
  0
SPLINE
  5
1EB
330
1F
100
AcDbEntity
  8
0
  6
Continuous
 62
     7
370
    25
100
AcDbSpline
210
0.0
220
0.0
230
1.0
 70
     8
 71
     3
 72
    11
 73
     7
 74
     0
 42
0.000000001
 43
0.00000001
 40
0.0
 40
0.0
 40
0.0
 40
0.0
 40
0.1864322940038352
 40
0.3735536541556648
 40
0.560948973864618
 40
1.0
 40
1.0
 40
1.0
 40
1.0
 10
581.523760755592
 20
-925.1289371595008
 30
0.0
 10
581.5493013938342
 20
-925.3030348484323
 30
0.0
 10
581.6004770702149
 20
-925.6518737029232
 30
0.0
 10
581.9391762007934
 20
-926.0716341526384
 30
0.0
 10
582.5653324060396
 20
-926.513212629301
 30
0.0
 10
583.1578606279063
 20
-926.5790148353253
 30
0.0
 10
583.5731398063236
 20
-926.6251329526526
 30
0.0
  0
SPLINE
  5
1EC
330
1F
100
AcDbEntity
  8
0
  6
Continuous
 62
     7
370
    25
100
AcDbSpline
210
0.0
220
0.0
230
1.0
 70
     8
 71
     3
 72
    11
 73
     7
 74
     0
 42
0.000000001
 43
0.00000001
 40
0.0
 40
0.0
 40
0.0
 40
0.0
 40
0.2807141586852311
 40
0.5610401008053345
 40
0.7810325433994744
 40
1.0
 40
1.0
 40
1.0
 40
1.0
 10
583.4791898476416
 20
-923.6635569676978
 30
0.0
 10
583.2271488221096
 20
-923.6854177929699
 30
0.0
 10
582.723415333803
 20
-923.7291092108585
 30
0.0
 10
582.086652454667
 20
-924.0503537210586
 30
0.0
 10
581.6235317310594
 20
-924.5365348111362
 30
0.0
 10
581.5569659362981
 20
-924.9317773448752
 30
0.0
 10
581.523760755592
 20
-925.1289371595008
 30
0.0
  0
SPLINE
  5
1ED
330
1F
100
AcDbEntity
  8
0
  6
Continuous
 62
     7
370
    25
100
AcDbSpline
210
0.0
220
0.0
230
1.0
 70
     8
 71
     3
 72
     9
 73
     5
 74
     0
 42
0.000000001
 43
0.00000001
 40
0.0
 40
0.0
 40
0.0
 40
0.0
 40
0.5595670003654449
 40
0.9999999999999999
 40
0.9999999999999999
 40
0.9999999999999999
 40
0.9999999999999999
 10
585.1282287138039
 20
-924.2469076261145
 30
0.0
 10
584.844865397179
 20
-924.0651441123558
 30
0.0
 10
584.3384679212023
 20
-923.7403152471086
 30
0.0
 10
583.741926413351
 20
-923.6870269098999
 30
0.0
 10
583.4791898476416
 20
-923.6635569676978
 30
0.0
  0
LINE
  5
1EE
330
1F
100
AcDbEntity
  8
0
  6
Continuous
 62
     7
370
    25
100
AcDbLine
 10
585.472479065
 20
-923.9916805372
 30
0.0
 11
585.1282287138
 21
-924.2469076261
 31
0.0
  0
SPLINE
  5
1EF
330
1F
100
AcDbEntity
  8
0
  6
Continuous
 62
     7
370
    25
100
AcDbSpline
210
0.0
220
0.0
230
1.0
 70
     8
 71
     3
 72
     9
 73
     5
 74
     0
 42
0.000000001
 43
0.00000001
 40
0.0
 40
0.0
 40
0.0
 40
0.0
 40
0.5593979295278985
 40
1.0
 40
1.0
 40
1.0
 40
1.0
 10
583.4714766340786
 20
-923.3046177968604
 30
0.0
 10
583.8787338058222
 20
-923.3396358822167
 30
0.0
 10
584.6067614767278
 20
-923.4022354799413
 30
0.0
 10
585.2077029900098
 20
-923.8114012512024
 30
0.0
 10
585.4724790649944
 20
-923.9916805371863
 30
0.0
  0
SPLINE
  5
1F0
330
1F
100
AcDbEntity
  8
0
  6
Continuous
 62
     7
370
    25
100
AcDbSpline
210
0.0
220
0.0
230
1.0
 70
     8
 71
     3
 72
    10
 73
     6
 74
     0
 42
0.000000001
 43
0.00000001
 40
0.0
 40
0.0
 40
0.0
 40
0.0
 40
0.2789199800998064
 40
0.559607854529324
 40
1.0
 40
1.0
 40
1.0
 40
1.0
 10
581.0750420885616
 20
-925.142944251023
 30
0.0
 10
581.1360998251307
 20
-924.8326082352004
 30
0.0
 10
581.2586023039835
 20
-924.2099691831838
 30
0.0
 10
582.1741308874915
 20
-923.4509350579347
 30
0.0
 10
582.9795656836561
 20
-923.3600965026316
 30
0.0
 10
583.4714766340786
 20
-923.3046177968604
 30
0.0
  0
LINE
  5
1F1
330
1F
100
AcDbEntity
  8
0
  6
Continuous
 62
     7
370
    25
100
AcDbLine
 10
580.3122218447
 20
-923.3943823919
 30
0.0
 11
580.3122218447
 21
-926.8943671331
 31
0.0
  0
LINE
  5
1F2
330
1F
100
AcDbEntity
  8
0
  6
Continuous
 62
     7
370
    25
100
AcDbLine
 10
579.8635050403
 20
-923.3943823919
 30
0.0
 11
580.3122218447
 21
-923.3943823919
 31
0.0
  0
LINE
  5
1F3
330
1F
100
AcDbEntity
  8
0
  6
Continuous
 62
     7
370
    25
100
AcDbLine
 10
579.8635050403
 20
-926.8943671331
 30
0.0
 11
579.8635050403
 21
-923.3943823919
 31
0.0
  0
LINE
  5
1F4
330
1F
100
AcDbEntity
  8
0
  6
Continuous
 62
     7
370
    25
100
AcDbLine
 10
580.3122218447
 20
-926.8943671331
 30
0.0
 11
579.8635050403
 21
-926.8943671331
 31
0.0
  0
LINE
  5
1F5
330
1F
100
AcDbEntity
  8
0
  6
Continuous
 62
     7
370
    25
100
AcDbLine
 10
579.1455559182
 20
-926.5353683576
 30
0.0
 11
579.1455559182
 21
-926.8943671331
 31
0.0
  0
LINE
  5
1F6
330
1F
100
AcDbEntity
  8
0
  6
Continuous
 62
     7
370
    25
100
AcDbLine
 10
577.4404272186
 20
-926.5353683576
 30
0.0
 11
579.1455559182
 21
-926.5353683576
 31
0.0
  0
LINE
  5
1F7
330
1F
100
AcDbEntity
  8
0
  6
Continuous
 62
     7
370
    25
100
AcDbLine
 10
577.4404272186
 20
-923.3943823919
 30
0.0
 11
577.4404272186
 21
-926.5353683576
 31
0.0
  0
LINE
  5
1F8
330
1F
100
AcDbEntity
  8
0
  6
Continuous
 62
     7
370
    25
100
AcDbLine
 10
576.9917094829
 20
-923.3943823919
 30
0.0
 11
577.4404272186
 21
-923.3943823919
 31
0.0
  0
LINE
  5
1F9
330
1F
100
AcDbEntity
  8
0
  6
Continuous
 62
     7
370
    25
100
AcDbLine
 10
576.9917094829
 20
-926.8943671331
 30
0.0
 11
576.9917094829
 21
-923.3943823919
 31
0.0
  0
LINE
  5
1FA
330
1F
100
AcDbEntity
  8
0
  6
Continuous
 62
     7
370
    25
100
AcDbLine
 10
579.1455559182
 20
-926.8943671331
 30
0.0
 11
576.9917094829
 21
-926.8943671331
 31
0.0
  0
LINE
  5
1FB
330
1F
100
AcDbEntity
  8
0
  6
Continuous
 62
     7
370
    25
100
AcDbLine
 10
575.8124222728
 20
-926.8943671331
 30
0.0
 11
572.863503893
 21
-924.2532257185
 31
0.0
  0
LINE
  5
1FC
330
1F
100
AcDbEntity
  8
0
  6
Continuous
 62
     7
370
    25
100
AcDbLine
 10
575.9147867309
 20
-926.8943671331
 30
0.0
 11
575.8124222728
 21
-926.8943671331
 31
0.0
  0
LINE
  5
1FD
330
1F
100
AcDbEntity
  8
0
  6
Continuous
 62
     7
370
    25
100
AcDbLine
 10
575.9147867309
 20
-923.3943823919
 30
0.0
 11
575.9147867309
 21
-926.8943671331
 31
0.0
  0
LINE
  5
1FE
330
1F
100
AcDbEntity
  8
0
  6
Continuous
 62
     7
370
    25
100
AcDbLine
 10
575.4660680639
 20
-923.3943823919
 30
0.0
 11
575.9147867309
 21
-923.3943823919
 31
0.0
  0
LINE
  5
1FF
330
1F
100
AcDbEntity
  8
0
  6
Continuous
 62
     7
370
    25
100
AcDbLine
 10
575.4660680639
 20
-926.0417822942
 30
0.0
 11
575.4660680639
 21
-923.3943823919
 31
0.0
  0
LINE
  5
200
330
1F
100
AcDbEntity
  8
0
  6
Continuous
 62
     7
370
    25
100
AcDbLine
 10
572.5094374018
 20
-923.3943823919
 30
0.0
 11
575.4660680639
 21
-926.0417822942
 31
0.0
  0
LINE
  5
201
330
1F
100
AcDbEntity
  8
0
  6
Continuous
 62
     7
370
    25
100
AcDbLine
 10
572.4147861572
 20
-923.3943823919
 30
0.0
 11
572.5094374018
 21
-923.3943823919
 31
0.0
  0
LINE
  5
202
330
1F
100
AcDbEntity
  8
0
  6
Continuous
 62
     7
370
    25
100
AcDbLine
 10
572.4147861572
 20
-926.8943671331
 30
0.0
 11
572.4147861572
 21
-923.3943823919
 31
0.0
  0
LINE
  5
203
330
1F
100
AcDbEntity
  8
0
  6
Continuous
 62
     7
370
    25
100
AcDbLine
 10
572.863503893
 20
-926.8943671331
 30
0.0
 11
572.4147861572
 21
-926.8943671331
 31
0.0
  0
LINE
  5
204
330
1F
100
AcDbEntity
  8
0
  6
Continuous
 62
     7
370
    25
100
AcDbLine
 10
572.863503893
 20
-924.2532257185
 30
0.0
 11
572.863503893
 21
-926.8943671331
 31
0.0
  0
SPLINE
  5
205
330
1F
100
AcDbEntity
  8
0
  6
Continuous
 62
     7
370
    25
100
AcDbSpline
210
0.0
220
0.0
230
1.0
 70
     8
 71
     3
 72
    10
 73
     6
 74
     0
 42
0.000000001
 43
0.00000001
 40
0.0
 40
0.0
 40
0.0
 40
0.0
 40
0.2790233879834287
 40
0.5601967369386477
 40
1.0
 40
1.0
 40
1.0
 40
1.0
 10
571.5173506858283
 20
-925.142944251023
 30
0.0
 10
571.4615920095747
 20
-925.4484651984184
 30
0.0
 10
571.3496450193276
 20
-926.061861226021
 30
0.0
 10
570.4594430747939
 20
-926.8157042362357
 30
0.0
 10
569.6720482927238
 20
-926.9202798853585
 30
0.0
 10
569.1917292522722
 20
-926.98407212349
 30
0.0
  0
SPLINE
  5
206
330
1F
100
AcDbEntity
  8
0
  6
Continuous
 62
     7
370
    25
100
AcDbSpline
210
0.0
220
0.0
230
1.0
 70
     8
 71
     3
 72
    11
 73
     7
 74
     0
 42
0.000000001
 43
0.00000001
 40
0.0
 40
0.0
 40
0.0
 40
0.0
 40
0.2807665985002926
 40
0.5608271024149744
 40
0.7807002034160914
 40
1.0
 40
1.0
 40
1.0
 40
1.0
 10
569.155271233105
 20
-923.3046177968604
 30
0.0
 10
569.4674310614907
 20
-923.3263617401267
 30
0.0
 10
570.090965673439
 20
-923.3697949432291
 30
0.0
 10
570.8630720621987
 20
-923.7956076657189
 30
0.0
 10
571.4211723527038
 20
-924.4067127368903
 30
0.0
 10
571.4853191542603
 20
-924.8977474148933
 30
0.0
 10
571.5173506858283
 20
-925.142944251023
 30
0.0
  0
SPLINE
  5
207
330
1F
100
AcDbEntity
  8
0
  6
Continuous
 62
     7
370
    25
100
AcDbSpline
210
0.0
220
0.0
230
1.0
 70
     8
 71
     3
 72
    11
 73
     7
 74
     0
 42
0.000000001
 43
0.00000001
 40
0.0
 40
0.0
 40
0.0
 40
0.0
 40
0.2782168474421212
 40
0.5579018264356335
 40
0.7788830357031704
 40
1.0
 40
1.0
 40
1.0
 40
1.0
 10
566.8506837198967
 20
-925.1597527608496
 30
0.0
 10
566.9066063334268
 20
-924.8543165771771
 30
0.0
 10
567.0187466603496
 20
-924.2418324436777
 30
0.0
 10
567.7027061557109
 20
-923.6601621603156
 30
0.0
 10
568.4316286099994
 20
-923.3542155590056
 30
0.0
 10
568.9140076507132
 20
-923.3211537683355
 30
0.0
 10
569.155271233105
 20
-923.3046177968604
 30
0.0
  0
SPLINE
  5
208
330
1F
100
AcDbEntity
  8
0
  6
Continuous
 62
     7
370
    25
100
AcDbSpline
210
0.0
220
0.0
230
1.0
 70
     8
 71
     3
 72
    11
 73
     7
 74
     0
 42
0.000000001
 43
0.00000001
 40
0.0
 40
0.0
 40
0.0
 40
0.0
 40
0.2807072996648635
 40
0.5608401565275672
 40
0.7807725268156602
 40
1.0
 40
1.0
 40
1.0
 40
1.0
 10
569.1917292522722
 20
-926.98407212349
 30
0.0
 10
568.88282976832
 20
-926.9614851490081
 30
0.0
 10
568.2656629360433
 20
-926.9163574223011
 30
0.0
 10
567.5058478574867
 20
-926.4884587812145
 30
0.0
 10
566.9506983647987
 20
-925.8875861434556
 30
0.0
 10
566.8839862415713
 20
-925.4021041387256
 30
0.0
 10
566.8506837198967
 20
-925.1597527608496
 30
0.0
  0
LINE
  5
209
330
1F
100
AcDbEntity
  8
0
  6
Continuous
 62
     7
370
    25
100
AcDbLine
 10
558.2079552794
 20
-926.8943671331
 30
0.0
 11
556.6423503431
 21
-924.3815545187
 31
0.0
  0
LINE
  5
20A
330
1F
100
AcDbEntity
  8
0
  6
Continuous
 62
     7
370
    25
100
AcDbLine
 10
558.4042696963
 20
-926.8943671331
 30
0.0
 11
558.2079552794
 21
-926.8943671331
 31
0.0
  0
LINE
  5
20B
330
1F
100
AcDbEntity
  8
0
  6
Continuous
 62
     7
370
    25
100
AcDbLine
 10
559.9628631706
 20
-924.3815545187
 30
0.0
 11
558.4042696963
 21
-926.8943671331
 31
0.0
  0
LINE
  5
20C
330
1F
100
AcDbEntity
  8
0
  6
Continuous
 62
     7
370
    25
100
AcDbLine
 10
560.3856396145
 20
-926.8943671331
 30
0.0
 11
559.9628631706
 21
-924.3815545187
 31
0.0
  0
LINE
  5
20D
330
1F
100
AcDbEntity
  8
0
  6
Continuous
 62
     7
370
    25
100
AcDbLine
 10
560.8378631976
 20
-926.8943671331
 30
0.0
 11
560.3856396145
 21
-926.8943671331
 31
0.0
  0
LINE
  5
20E
330
1F
100
AcDbEntity
  8
0
  6
Continuous
 62
     7
370
    25
100
AcDbLine
 10
560.2489209949
 20
-923.3943823919
 30
0.0
 11
560.8378631976
 21
-926.8943671331
 31
0.0
  0
LINE
  5
20F
330
1F
100
AcDbEntity
  8
0
  6
Continuous
 62
     7
370
    25
100
AcDbLine
 10
560.0841572257
 20
-923.3943823919
 30
0.0
 11
560.2489209949
 21
-923.3943823919
 31
0.0
  0
LINE
  5
210
330
1F
100
AcDbEntity
  8
0
  6
Continuous
 62
     7
370
    25
100
AcDbLine
 10
558.3026069897
 20
-926.2661341772
 30
0.0
 11
560.0841572257
 21
-923.3943823919
 31
0.0
  0
LINE
  5
211
330
1F
100
AcDbEntity
  8
0
  6
Continuous
 62
     7
370
    25
100
AcDbLine
 10
556.5140452916
 20
-923.3943823919
 30
0.0
 11
558.3026069897
 21
-926.2661341772
 31
0.0
  0
LINE
  5
212
330
1F
100
AcDbEntity
  8
0
  6
Continuous
 62
     7
370
    25
100
AcDbLine
 10
556.3548906455
 20
-923.3943823919
 30
0.0
 11
556.5140452916
 21
-923.3943823919
 31
0.0
  0
LINE
  5
213
330
1F
100
AcDbEntity
  8
0
  6
Continuous
 62
     7
370
    25
100
AcDbLine
 10
555.7673504325
 20
-926.8943671331
 30
0.0
 11
556.3548906455
 21
-923.3943823919
 31
0.0
  0
LINE
  5
214
330
1F
100
AcDbEntity
  8
0
  6
Continuous
 62
     7
370
    25
100
AcDbLine
 10
556.2202749523
 20
-926.8943671331
 30
0.0
 11
555.7673504325
 21
-926.8943671331
 31
0.0
  0
LINE
  5
215
330
1F
100
AcDbEntity
  8
0
  6
Continuous
 62
     7
370
    25
100
AcDbLine
 10
556.6423503431
 20
-924.3815545187
 30
0.0
 11
556.2202749523
 21
-926.8943671331
 31
0.0
  0
LINE
  5
216
330
1F
100
AcDbEntity
  8
0
  6
Continuous
 62
     7
370
    25
100
AcDbLine
 10
551.0109398263
 20
-925.8587960348
 30
0.0
 11
551.0109398263
 21
-926.8943671331
 31
0.0
  0
LINE
  5
217
330
1F
100
AcDbEntity
  8
0
  6
Continuous
 62
     7
370
    25
100
AcDbLine
 10
551.008135614
 20
-925.7339839086
 30
0.0
 11
551.0109398263
 21
-925.8587960348
 31
0.0
  0
SPLINE
  5
218
330
1F
100
AcDbEntity
  8
0
  6
Continuous
 62
     7
370
    25
100
AcDbSpline
210
0.0
220
0.0
230
1.0
 70
     8
 71
     3
 72
    11
 73
     7
 74
     0
 42
0.000000001
 43
0.00000001
 40
0.0
 40
0.0
 40
0.0
 40
0.0
 40
0.1247728977511053
 40
0.2498081816355143
 40
0.4983529726003116
 40
1.0
 40
1.0
 40
1.0
 40
1.0
 10
551.4379232870871
 20
-924.8302582845313
 30
0.0
 10
551.3915715111875
 20
-924.8359960304003
 30
0.0
 10
551.2987704857908
 20
-924.8474835881001
 30
0.0
 10
551.1485177173173
 20
-924.9653503896543
 30
0.0
 10
551.0080279649376
 20
-925.2678646485332
 30
0.0
 10
551.0080924760122
 20
-925.5471968137551
 30
0.0
 10
551.008135614031
 20
-925.7339839086158
 30
0.0
  0
SPLINE
  5
219
330
1F
100
AcDbEntity
  8
0
  6
Continuous
 62
     7
370
    25
100
AcDbSpline
210
0.0
220
0.0
230
1.0
 70
     8
 71
     3
 72
     9
 73
     5
 74
     0
 42
0.000000001
 43
0.00000001
 40
0.0
 40
0.0
 40
0.0
 40
0.0
 40
0.5603759345274243
 40
1.0
 40
1.0
 40
1.0
 40
1.0
 10
551.6643855469757
 20
-924.8870615110022
 30
0.0
 10
551.6234734534839
 20
-924.8706293321167
 30
0.0
 10
551.5504651549991
 20
-924.8413058407366
 30
0.0
 10
551.4722906713882
 20
-924.8336319233089
 30
0.0
 10
551.4379232870871
 20
-924.8302582845313
 30
0.0
  0
LINE
  5
21A
330
1F
100
AcDbEntity
  8
0
  6
Continuous
 62
     7
370
    25
100
AcDbLine
 10
551.908376229
 20
-924.3549112424
 30
0.0
 11
551.664385547
 21
-924.887061511
 31
0.0
  0
SPLINE
  5
21B
330
1F
100
AcDbEntity
  8
0
  6
Continuous
 62
     7
370
    25
100
AcDbSpline
210
0.0
220
0.0
230
1.0
 70
     8
 71
     3
 72
     9
 73
     5
 74
     0
 42
0.000000001
 43
0.00000001
 40
0.0
 40
0.0
 40
0.0
 40
0.0
 40
0.5596952210222208
 40
1.0
 40
1.0
 40
1.0
 40
1.0
 10
551.5949750068122
 20
-924.2917899236304
 30
0.0
 10
551.6551181924001
 20
-924.2957113146281
 30
0.0
 10
551.7625752213845
 20
-924.3027176117172
 30
0.0
 10
551.8638044957609
 20
-924.3389555187852
 30
0.0
 10
551.9083762290412
 20
-924.3549112424475
 30
0.0
  0
SPLINE
  5
21C
330
1F
100
AcDbEntity
  8
0
  6
Continuous
 62
     7
370
    25
100
AcDbSpline
210
0.0
220
0.0
230
1.0
 70
     8
 71
     3
 72
    10
 73
     6
 74
     0
 42
0.000000001
 43
0.00000001
 40
0.0
 40
0.0
 40
0.0
 40
0.0
 40
0.2804513940712486
 40
0.560873529811061
 40
0.9999999999999999
 40
0.9999999999999999
 40
0.9999999999999999
 40
0.9999999999999999
 10
550.9211966516906
 20
-924.6514443502051
 30
0.0
 10
550.9651400233477
 20
-924.5908569691302
 30
0.0
 10
551.0530221822319
 20
-924.4696885278106
 30
0.0
 10
551.285974942534
 20
-924.3261067875071
 30
0.0
 10
551.4778670182902
 20
-924.3047956778857
 30
0.0
 10
551.5949750068122
 20
-924.2917899236304
 30
0.0
  0
LINE
  5
21D
330
1F
100
AcDbEntity
  8
0
  6
Continuous
 62
     7
370
    25
100
AcDbLine
 10
550.9211966517
 20
-924.3366722211
 30
0.0
 11
550.9211966517
 21
-924.6514443502
 31
0.0
  0
LINE
  5
21E
330
1F
100
AcDbEntity
  8
0
  6
Continuous
 62
     7
370
    25
100
AcDbLine
 10
550.2032475295
 20
-924.3366722211
 30
0.0
 11
550.9211966517
 21
-924.3366722211
 31
0.0
  0
LINE
  5
21F
330
1F
100
AcDbEntity
  8
0
  6
Continuous
 62
     7
370
    25
100
AcDbLine
 10
550.2032475295
 20
-926.8943671331
 30
0.0
 11
550.2032475295
 21
-924.3366722211
 31
0.0
  0
LINE
  5
220
330
1F
100
AcDbEntity
  8
0
  6
Continuous
 62
     7
370
    25
100
AcDbLine
 10
551.0109398263
 20
-926.8943671331
 30
0.0
 11
550.2032475295
 21
-926.8943671331
 31
0.0
  0
SPLINE
  5
221
330
1F
100
AcDbEntity
  8
0
  6
Continuous
 62
     7
370
    25
100
AcDbSpline
210
0.0
220
0.0
230
1.0
 70
     8
 71
     3
 72
    10
 73
     6
 74
     0
 42
0.000000001
 43
0.00000001
 40
0.0
 40
0.0
 40
0.0
 40
0.0
 40
0.2793731590178221
 40
0.5601891070589642
 40
1.0
 40
1.0
 40
1.0
 40
1.0
 10
546.2545301514202
 20
-925.6295565709693
 30
0.0
 10
546.291303807438
 20
-925.4061305815299
 30
0.0
 10
546.3650410325899
 20
-924.9581247460449
 30
0.0
 10
547.01042177801
 20
-924.4028311679965
 30
0.0
 10
547.5850899608764
 20
-924.3338750329043
 30
0.0
 10
547.9358197870189
 20
-924.2917899236304
 30
0.0
  0
SPLINE
  5
222
330
1F
100
AcDbEntity
  8
0
  6
Continuous
 62
     7
370
    25
100
AcDbSpline
210
0.0
220
0.0
230
1.0
 70
     8
 71
     3
 72
    11
 73
     7
 74
     0
 42
0.000000001
 43
0.00000001
 40
0.0
 40
0.0
 40
0.0
 40
0.0
 40
0.2808592792597871
 40
0.5607689749528099
 40
0.7806099646909193
 40
1.0
 40
1.0
 40
1.0
 40
1.0
 10
547.9771863418156
 20
-926.9392494306189
 30
0.0
 10
547.7509174981808
 20
-926.9256158443343
 30
0.0
 10
547.2991448245373
 20
-926.8983947668399
 30
0.0
 10
546.7289825870312
 20
-926.60819420039
 30
0.0
 10
546.3225842467014
 20
-926.1639069018988
 30
0.0
 10
546.2771993177518
 20
-925.8075513923111
 30
0.0
 10
546.2545301514202
 20
-925.6295565709693
 30
0.0
  0
SPLINE
  5
223
330
1F
100
AcDbEntity
  8
0
  6
Continuous
 62
     7
370
    25
100
AcDbSpline
210
0.0
220
0.0
230
1.0
 70
     8
 71
     3
 72
    10
 73
     6
 74
     0
 42
0.000000001
 43
0.00000001
 40
0.0
 40
0.0
 40
0.0
 40
0.0
 40
0.2799805926688972
 40
0.5599939474163637
 40
1.0
 40
1.0
 40
1.0
 40
1.0
 10
549.4404272856647
 20
-926.3853434667212
 30
0.0
 10
549.3301152053439
 20
-926.4887028100072
 30
0.0
 10
549.1094781364756
 20
-926.6954335912277
 30
0.0
 10
548.6021764439953
 20
-926.9048192006229
 30
0.0
 10
548.2142496109133
 20
-926.9261897951939
 30
0.0
 10
547.9771863418156
 20
-926.9392494306189
 30
0.0
  0
LINE
  5
224
330
1F
100
AcDbEntity
  8
0
  6
Continuous
 62
     7
370
    25
100
AcDbLine
 10
548.7484201538
 20
-926.1350635633
 30
0.0
 11
549.4404272857
 21
-926.3853434667
 31
0.0
  0
SPLINE
  5
225
330
1F
100
AcDbEntity
  8
0
  6
Continuous
 62
     7
370
    25
100
AcDbSpline
210
0.0
220
0.0
230
1.0
 70
     8
 71
     3
 72
     9
 73
     5
 74
     0
 42
0.000000001
 43
0.00000001
 40
0.0
 40
0.0
 40
0.0
 40
0.0
 40
0.5597376091695113
 40
1.0
 40
1.0
 40
1.0
 40
1.0
 10
547.9561524214679
 20
-926.400781069718
 30
0.0
 10
548.1172842790114
 20
-926.3882942023379
 30
0.0
 10
548.405154622015
 20
-926.365985772145
 30
0.0
 10
548.6434900350346
 20
-926.205652342413
 30
0.0
 10
548.7484201537901
 20
-926.1350635633094
 30
0.0
  0
SPLINE
  5
226
330
1F
100
AcDbEntity
  8
0
  6
Continuous
 62
     7
370
    25
100
AcDbSpline
210
0.0
220
0.0
230
1.0
 70
     8
 71
     3
 72
    10
 73
     6
 74
     0
 42
0.000000001
 43
0.00000001
 40
0.0
 40
0.0
 40
0.0
 40
0.0
 40
0.2796808935193542
 40
0.5599303777365949
 40
1.0
 40
1.0
 40
1.0
 40
1.0
 10
547.0173503952557
 20
-925.7725481137854
 30
0.0
 10
547.0551662656162
 20
-925.8821554530475
 30
0.0
 10
547.1308748859261
 20
-926.1015929630732
 30
0.0
 10
547.4783892749126
 20
-926.3583614172516
 30
0.0
 10
547.7749639608876
 20
-926.384693701774
 30
0.0
 10
547.9561524214679
 20
-926.400781069718
 30
0.0
  0
LINE
  5
227
330
1F
100
AcDbEntity
  8
0
  6
Continuous
 62
     7
370
    25
100
AcDbLine
 10
549.6619814756
 20
-925.7725481138
 30
0.0
 11
547.0173503953
 21
-925.7725481138
 31
0.0
  0
LINE
  5
228
330
1F
100
AcDbEntity
  8
0
  6
Continuous
 62
     7
370
    25
100
AcDbLine
 10
549.6647866192
 20
-925.65405408
 30
0.0
 11
549.6619814756
 21
-925.7725481138
 31
0.0
  0
SPLINE
  5
229
330
1F
100
AcDbEntity
  8
0
  6
Continuous
 62
     7
370
    25
100
AcDbSpline
210
0.0
220
0.0
230
1.0
 70
     8
 71
     3
 72
    11
 73
     7
 74
     0
 42
0.000000001
 43
0.00000001
 40
0.0
 40
0.0
 40
0.0
 40
0.0
 40
0.2808187558025796
 40
0.5606252435979454
 40
0.7802355335721257
 40
1.0
 40
1.0
 40
1.0
 40
1.0
 10
547.9358197870189
 20
-924.2917899236304
 30
0.0
 10
548.1670203910195
 20
-924.3058160460872
 30
0.0
 10
548.6285881896782
 20
-924.3338177310055
 30
0.0
 10
549.2123751826083
 20
-924.6349822075567
 30
0.0
 10
549.6081013357823
 20
-925.10682458891
 30
0.0
 10
549.6458871050427
 20
-925.47160158291
 30
0.0
 10
549.6647866191798
 20
-925.654054079972
 30
0.0
  0
SPLINE
  5
22A
330
1F
100
AcDbEntity
  8
0
  6
Continuous
 62
     7
370
    25
100
AcDbSpline
210
0.0
220
0.0
230
1.0
 70
     8
 71
     3
 72
    10
 73
     6
 74
     0
 42
0.000000001
 43
0.00000001
 40
0.0
 40
0.0
 40
0.0
 40
0.0
 40
0.2793730523683394
 40
0.5601888932092205
 40
1.0
 40
1.0
 40
1.0
 40
1.0
 10
538.2224783050352
 20
-925.6295565709693
 30
0.0
 10
538.259251960865
 20
-925.4061305815569
 30
0.0
 10
538.3329891856399
 20
-924.9581247461266
 30
0.0
 10
538.978370180807
 20
-924.4028309556104
 30
0.0
 10
539.5530387136114
 20
-924.3338749612487
 30
0.0
 10
539.9037688719565
 20
-924.2917899236304
 30
0.0
  0
SPLINE
  5
22B
330
1F
100
AcDbEntity
  8
0
  6
Continuous
 62
     7
370
    25
100
AcDbSpline
210
0.0
220
0.0
230
1.0
 70
     8
 71
     3
 72
    11
 73
     7
 74
     0
 42
0.000000001
 43
0.00000001
 40
0.0
 40
0.0
 40
0.0
 40
0.0
 40
0.280858905295867
 40
0.5607689576791105
 40
0.7806099560629368
 40
1.0
 40
1.0
 40
1.0
 40
1.0
 10
539.9451344954306
 20
-926.9392494306189
 30
0.0
 10
539.718865996466
 20
-926.9256157487479
 30
0.0
 10
539.2670934233787
 20
-926.8983944449972
 30
0.0
 10
538.6969308974958
 20
-926.6081944928322
 30
0.0
 10
538.2905324089369
 20
-926.1639068842379
 30
0.0
 10
538.2451474742383
 20
-925.807551386428
 30
0.0
 10
538.2224783050352
 20
-925.6295565709693
 30
0.0
  0
SPLINE
  5
22C
330
1F
100
AcDbEntity
  8
0
  6
Continuous
 62
     7
370
    25
100
AcDbSpline
210
0.0
220
0.0
230
1.0
 70
     8
 71
     3
 72
    10
 73
     6
 74
     0
 42
0.000000001
 43
0.00000001
 40
0.0
 40
0.0
 40
0.0
 40
0.0
 40
0.2799804439336064
 40
0.559994181162666
 40
1.0
 40
1.0
 40
1.0
 40
1.0
 10
541.4083763706022
 20
-926.3853434667212
 30
0.0
 10
541.2980643004918
 20
-926.4887028367715
 30
0.0
 10
541.0774270427391
 20
-926.695433867638
 30
0.0
 10
540.5701247909274
 20
-926.9048189586861
 30
0.0
 10
540.1821977292916
 20
-926.9261897094062
 30
0.0
 10
539.9451344954306
 20
-926.9392494306189
 30
0.0
  0
LINE
  5
22D
330
1F
100
AcDbEntity
  8
0
  6
Continuous
 62
     7
370
    25
100
AcDbLine
 10
540.7163683074
 20
-926.1350635633
 30
0.0
 11
541.4083763706
 21
-926.3853434667
 31
0.0
  0
SPLINE
  5
22E
330
1F
100
AcDbEntity
  8
0
  6
Continuous
 62
     7
370
    25
100
AcDbSpline
210
0.0
220
0.0
230
1.0
 70
     8
 71
     3
 72
     9
 73
     5
 74
     0
 42
0.000000001
 43
0.00000001
 40
0.0
 40
0.0
 40
0.0
 40
0.0
 40
0.5597381430172147
 40
1.0
 40
1.0
 40
1.0
 40
1.0
 10
539.9241015064055
 20
-926.400781069718
 30
0.0
 10
540.085233395995
 20
-926.3882942636227
 30
0.0
 10
540.3731035216953
 20
-926.3659859641945
 30
0.0
 10
540.6114385050496
 20
-926.2056523416901
 30
0.0
 10
540.7163683074051
 20
-926.1350635633094
 30
0.0
  0
SPLINE
  5
22F
330
1F
100
AcDbEntity
  8
0
  6
Continuous
 62
     7
370
    25
100
AcDbSpline
210
0.0
220
0.0
230
1.0
 70
     8
 71
     3
 72
    10
 73
     6
 74
     0
 42
0.000000001
 43
0.00000001
 40
0.0
 40
0.0
 40
0.0
 40
0.0
 40
0.2796811239044459
 40
0.5599305184873807
 40
1.0
 40
1.0
 40
1.0
 40
1.0
 10
538.9852985488707
 20
-925.7725481137854
 30
0.0
 10
539.0231147801748
 20
-925.8821554326443
 30
0.0
 10
539.0988240797718
 20
-926.1015927762226
 30
0.0
 10
539.4463382669989
 20
-926.3583614614398
 30
0.0
 10
539.7429130106118
 20
-926.3846937185322
 30
0.0
 10
539.9241015064055
 20
-926.400781069718
 30
0.0
  0
LINE
  5
230
330
1F
100
AcDbEntity
  8
0
  6
Continuous
 62
     7
370
    25
100
AcDbLine
 10
541.6299305605
 20
-925.7725481138
 30
0.0
 11
538.9852985489
 21
-925.7725481138
 31
0.0
  0
LINE
  5
231
330
1F
100
AcDbEntity
  8
0
  6
Continuous
 62
     7
370
    25
100
AcDbLine
 10
541.6327357041
 20
-925.65405408
 30
0.0
 11
541.6299305605
 21
-925.7725481138
 31
0.0
  0
SPLINE
  5
232
330
1F
100
AcDbEntity
  8
0
  6
Continuous
 62
     7
370
    25
100
AcDbSpline
210
0.0
220
0.0
230
1.0
 70
     8
 71
     3
 72
    11
 73
     7
 74
     0
 42
0.000000001
 43
0.00000001
 40
0.0
 40
0.0
 40
0.0
 40
0.0
 40
0.2808187999411134
 40
0.5606253317159067
 40
0.7802354231601661
 40
0.9999999999999999
 40
0.9999999999999999
 40
0.9999999999999999
 40
0.9999999999999999
 10
539.9037688719565
 20
-924.2917899236304
 30
0.0
 10
540.1349694410986
 20
-924.3058160690338
 30
0.0
 10
540.5965371701659
 20
-924.3338177997623
 30
0.0
 10
541.1803244719375
 20
-924.6349818682726
 30
0.0
 10
541.5760491418258
 20
-925.1068250190744
 30
0.0
 10
541.6138357547263
 20
-925.4716016408368
 30
0.0
 10
541.6327357041174
 20
-925.654054079972
 30
0.0
  0
ARC
  5
233
330
1F
100
AcDbEntity
  8
0
  6
Continuous
 62
     7
370
    25
100
AcDbCircle
 10
590.2288888888
 20
-942.894352828
 30
0.0
 40
5.000000000000114
100
AcDbArc
 50
270.0
 51
0.0
  0
LINE
  5
234
330
1F
100
AcDbEntity
  8
0
  6
Continuous
 62
     7
370
    25
100
AcDbLine
 10
535.2288890379
 20
-947.894335185
 30
0.0
 11
590.2288887399
 21
-947.894335185
 31
0.0
  0
ARC
  5
235
330
1F
100
AcDbEntity
  8
0
  6
Continuous
 62
     7
370
    25
100
AcDbCircle
 10
535.2288888888
 20
-942.894352828
 30
0.0
 40
5.000000000000114
100
AcDbArc
 50
180.0
 51
270.0
  0
LINE
  5
236
330
1F
100
AcDbEntity
  8
0
  6
Continuous
 62
     7
370
    25
100
AcDbLine
 10
530.228890081
 20
-920.8943251714
 30
0.0
 11
530.228890081
 21
-942.8943399534
 31
0.0
  0
ARC
  5
237
330
1F
100
AcDbEntity
  8
0
  6
Continuous
 62
     7
370
    25
100
AcDbCircle
 10
535.2288888888
 20
-920.894352828
 30
0.0
 40
5.000000000000114
100
AcDbArc
 50
90.0
 51
180.0
  0
LINE
  5
238
330
1F
100
AcDbEntity
  8
0
  6
Continuous
 62
     7
370
    25
100
AcDbLine
 10
590.2288887399
 20
-915.8943299398
 30
0.0
 11
535.2288890379
 21
-915.8943299398
 31
0.0
  0
ARC
  5
239
330
1F
100
AcDbEntity
  8
0
  6
Continuous
 62
     7
370
    25
100
AcDbCircle
 10
590.2288888888
 20
-920.894352828
 30
0.0
 40
5.000000000000114
100
AcDbArc
 50
0.0
 51
90.0
  0
LINE
  5
23A
330
1F
100
AcDbEntity
  8
0
  6
Continuous
 62
     7
370
    25
100
AcDbLine
 10
595.2288876968
 20
-942.8943399534
 30
0.0
 11
595.2288876968
 21
-920.8943251714
 31
0.0
  0
LINE
  5
23B
330
1F
100
AcDbEntity
  8
0
  6
Continuous
 62
     7
370
    25
100
AcDbLine
 10
535.4404277849
 20
-925.8756045446
 30
0.0
 11
535.4404277849
 21
-926.8943671331
 31
0.0
  0
SPLINE
  5
23C
330
1F
100
AcDbEntity
  8
0
  6
Continuous
 62
     7
370
    25
100
AcDbSpline
210
0.0
220
0.0
230
1.0
 70
     8
 71
     3
 72
     9
 73
     5
 74
     0
 42
0.000000001
 43
0.00000001
 40
0.0
 40
0.0
 40
0.0
 40
0.0
 40
0.5594320288632343
 40
1.0
 40
1.0
 40
1.0
 40
1.0
 10
535.4782879101568
 20
-925.3532890424353
 30
0.0
 10
535.4642461590348
 20
-925.4502244562667
 30
0.0
 10
535.4391461461689
 20
-925.6234991506528
 30
0.0
 10
535.4400358221233
 20
-925.7985033149828
 30
0.0
 10
535.4404277848536
 20
-925.8756045446021
 30
0.0
  0
SPLINE
  5
23D
330
1F
100
AcDbEntity
  8
0
  6
Continuous
 62
     7
370
    25
100
AcDbSpline
210
0.0
220
0.0
230
1.0
 70
     8
 71
     3
 72
    11
 73
     7
 74
     0
 42
0.000000001
 43
0.00000001
 40
0.0
 40
0.0
 40
0.0
 40
0.0
 40
0.2800858958681597
 40
0.5597195140527784
 40
0.7798680105225274
 40
1.0
 40
1.0
 40
1.0
 40
1.0
 10
536.1927315341765
 20
-924.8751405820472
 30
0.0
 10
536.1063794784856
 20
-924.8811701480242
 30
0.0
 10
535.9338148068555
 20
-924.8932195435441
 30
0.0
 10
535.7158439839249
 20
-925.0056985450041
 30
0.0
 10
535.5561893047392
 20
-925.1645640421203
 30
0.0
 10
535.5042543926365
 20
-925.2903822813888
 30
0.0
 10
535.4782879101568
 20
-925.3532890424353
 30
0.0
  0
SPLINE
  5
23E
330
1F
100
AcDbEntity
  8
0
  6
Continuous
 62
     7
370
    25
100
AcDbSpline
210
0.0
220
0.0
230
1.0
 70
     8
 71
     3
 72
    11
 73
     7
 74
     0
 42
0.000000001
 43
0.00000001
 40
0.0
 40
0.0
 40
0.0
 40
0.0
 40
0.5000986881340401
 40
0.6252440919083506
 40
0.7504726369136903
 40
1.0
 40
1.0
 40
1.0
 40
1.0
 10
536.7865819232994
 20
-925.7823828801734
 30
0.0
 10
536.7963339921921
 20
-925.5644446537482
 30
0.0
 10
536.8085264326118
 20
-925.2919692569789
 30
0.0
 10
536.6390636062745
 20
-925.0172775303619
 30
0.0
 10
536.4591837865529
 20
-924.89662032938
 30
0.0
 10
536.2992330712085
 20
-924.8837260831474
 30
0.0
 10
536.1927315341765
 20
-924.8751405820472
 30
0.0
  0
LINE
  5
23F
330
1F
100
AcDbEntity
  8
0
  6
Continuous
 62
     7
370
    25
100
AcDbLine
 10
536.7865819233
 20
-926.8943671331
 30
0.0
 11
536.7865819233
 21
-925.7823828802
 31
0.0
  0
LINE
  5
240
330
1F
100
AcDbEntity
  8
0
  6
Continuous
 62
     7
370
    25
100
AcDbLine
 10
537.5942732888
 20
-926.8943671331
 30
0.0
 11
536.7865819233
 21
-926.8943671331
 31
0.0
  0
LINE
  5
241
330
1F
100
AcDbEntity
  8
0
  6
Continuous
 62
     7
370
    25
100
AcDbLine
 10
537.5942732888
 20
-925.2172712431
 30
0.0
 11
537.5942732888
 21
-926.8943671331
 31
0.0
  0
SPLINE
  5
242
330
1F
100
AcDbEntity
  8
0
  6
Continuous
 62
     7
370
    25
100
AcDbSpline
210
0.0
220
0.0
230
1.0
 70
     8
 71
     3
 72
    10
 73
     6
 74
     0
 42
0.000000001
 43
0.00000001
 40
0.0
 40
0.0
 40
0.0
 40
0.0
 40
0.2801646865530656
 40
0.5602583102516665
 40
1.0
 40
1.0
 40
1.0
 40
1.0
 10
537.2991017746264
 20
-924.5533351049048
 30
0.0
 10
537.3515665558276
 20
-924.6006246990378
 30
0.0
 10
537.4564828107103
 20
-924.695191892453
 30
0.0
 10
537.5729179694982
 20
-924.9247529701966
 30
0.0
 10
537.586174797554
 20
-925.1063407233634
 30
0.0
 10
537.5942732887798
 20
-925.2172712430579
 30
0.0
  0
SPLINE
  5
243
330
1F
100
AcDbEntity
  8
0
  6
Continuous
 62
     7
370
    25
100
AcDbSpline
210
0.0
220
0.0
230
1.0
 70
     8
 71
     3
 72
     9
 73
     5
 74
     0
 42
0.000000001
 43
0.00000001
 40
0.0
 40
0.0
 40
0.0
 40
0.0
 40
0.5598911124034449
 40
1.0
 40
1.0
 40
1.0
 40
1.0
 10
536.4507432776028
 20
-924.2917899236304
 30
0.0
 10
536.6216958021462
 20
-924.3024140322024
 30
0.0
 10
536.9270275367569
 20
-924.3213893442529
 30
0.0
 10
537.185392887512
 20
-924.482450610279
 30
0.0
 10
537.2991017746264
 20
-924.5533351049048
 30
0.0
  0
SPLINE
  5
244
330
1F
100
AcDbEntity
  8
0
  6
Continuous
 62
     7
370
    25
100
AcDbSpline
210
0.0
220
0.0
230
1.0
 70
     8
 71
     3
 72
     9
 73
     5
 74
     0
 42
0.000000001
 43
0.00000001
 40
0.0
 40
0.0
 40
0.0
 40
0.0
 40
0.5599299633960093
 40
0.9999999999999999
 40
0.9999999999999999
 40
0.9999999999999999
 40
0.9999999999999999
 10
535.4404277848536
 20
-924.6135954007727
 30
0.0
 10
535.6169206537486
 20
-924.5131595943109
 30
0.0
 10
535.9321259123216
 20
-924.3337875066794
 30
0.0
 10
536.2922593447929
 20
-924.3046239368656
 30
0.0
 10
536.4507432776028
 20
-924.2917899236304
 30
0.0
  0
LINE
  5
245
330
1F
100
AcDbEntity
  8
0
  6
Continuous
 62
     7
370
    25
100
AcDbLine
 10
535.4404277849
 20
-923.3046177969
 30
0.0
 11
535.4404277849
 21
-924.6135954008
 31
0.0
  0
LINE
  5
246
330
1F
100
AcDbEntity
  8
0
  6
Continuous
 62
     7
370
    25
100
AcDbLine
 10
534.6327345567
 20
-923.3046177969
 30
0.0
 11
535.4404277849
 21
-923.3046177969
 31
0.0
  0
LINE
  5
247
330
1F
100
AcDbEntity
  8
0
  6
Continuous
 62
     7
370
    25
100
AcDbLine
 10
534.6327345567
 20
-926.8943671331
 30
0.0
 11
534.6327345567
 21
-923.3046177969
 31
0.0
  0
LINE
  5
248
330
1F
100
AcDbEntity
  8
0
  6
Continuous
 62
     7
370
    25
100
AcDbLine
 10
535.4404277849
 20
-926.8943671331
 30
0.0
 11
534.6327345567
 21
-926.8943671331
 31
0.0
  0
LINE
  5
249
330
1F
100
AcDbEntity
  8
0
  6
Continuous
 62
     7
370
    25
100
AcDbLine
 10
543.1135050701
 20
-927.8366569624
 30
0.0
 11
542.305811842
 21
-927.8366569624
 31
0.0
  0
LINE
  5
24A
330
1F
100
AcDbEntity
  8
0
  6
Continuous
 62
     7
370
    25
100
AcDbLine
 10
543.1135050701
 20
-926.6054634199
 30
0.0
 11
543.1135050701
 21
-927.8366569624
 31
0.0
  0
SPLINE
  5
24B
330
1F
100
AcDbEntity
  8
0
  6
Continuous
 62
     7
370
    25
100
AcDbSpline
210
0.0
220
0.0
230
1.0
 70
     8
 71
     3
 72
     9
 73
     5
 74
     0
 42
0.000000001
 43
0.00000001
 40
0.0
 40
0.0
 40
0.0
 40
0.0
 40
0.5594540383815464
 40
1.0
 40
1.0
 40
1.0
 40
1.0
 10
544.1364418464237
 20
-926.9392494306189
 30
0.0
 10
543.9295483973053
 20
-926.9232582990387
 30
0.0
 10
543.5597352671385
 20
-926.8946748400176
 30
0.0
 10
543.2499706300603
 20
-926.6939096941305
 30
0.0
 10
543.1135050701433
 20
-926.6054634198767
 30
0.0
  0
SPLINE
  5
24C
330
1F
100
AcDbEntity
  8
0
  6
Continuous
 62
     7
370
    25
100
AcDbSpline
210
0.0
220
0.0
230
1.0
 70
     8
 71
     3
 72
    11
 73
     7
 74
     0
 42
0.000000001
 43
0.00000001
 40
0.0
 40
0.0
 40
0.0
 40
0.0
 40
0.2783988857872094
 40
0.5582356401394432
 40
0.77901677954699
 40
1.0
 40
1.0
 40
1.0
 40
1.0
 10
545.7160692411
 20
-925.6204370603186
 30
0.0
 10
545.6821936454145
 20
-925.8347150410945
 30
0.0
 10
545.614267494097
 20
-926.2643777009429
 30
0.0
 10
545.1416241935763
 20
-926.6736906644778
 30
0.0
 10
544.6414335154435
 20
-926.905388375388
 30
0.0
 10
544.3048237291144
 20
-926.9279589706384
 30
0.0
 10
544.1364418464237
 20
-926.9392494306189
 30
0.0
  0
SPLINE
  5
24D
330
1F
100
AcDbEntity
  8
0
  6
Continuous
 62
     7
370
    25
100
AcDbSpline
210
0.0
220
0.0
230
1.0
 70
     8
 71
     3
 72
    11
 73
     7
 74
     0
 42
0.000000001
 43
0.00000001
 40
0.0
 40
0.0
 40
0.0
 40
0.0
 40
0.2803583960122938
 40
0.5602676796868711
 40
0.7800817162959311
 40
1.0
 40
1.0
 40
1.0
 40
1.0
 10
544.1602799790436
 20
-924.2917899236304
 30
0.0
 10
544.3741516067756
 20
-924.3099229622184
 30
0.0
 10
544.8015522565321
 20
-924.3461599916777
 30
0.0
 10
545.3202714298196
 20
-924.6665070052
 30
0.0
 10
545.6652028099141
 20
-925.1147628972328
 30
0.0
 10
545.6991110844995
 20
-925.4518523680858
 30
0.0
 10
545.7160692411
 20
-925.6204370603186
 30
0.0
  0
SPLINE
  5
24E
330
1F
100
AcDbEntity
  8
0
  6
Continuous
 62
     7
370
    25
100
AcDbSpline
210
0.0
220
0.0
230
1.0
 70
     8
 71
     3
 72
     9
 73
     5
 74
     0
 42
0.000000001
 43
0.00000001
 40
0.0
 40
0.0
 40
0.0
 40
0.0
 40
0.5592361179317286
 40
1.0
 40
1.0
 40
1.0
 40
1.0
 10
543.1135050701433
 20
-924.6248010739905
 30
0.0
 10
543.2949014706384
 20
-924.5164651638379
 30
0.0
 10
543.6192660720629
 20
-924.3227439311084
 30
0.0
 10
543.9947709786712
 20
-924.3012594895123
 30
0.0
 10
544.1602799790436
 20
-924.2917899236304
 30
0.0
  0
LINE
  5
24F
330
1F
100
AcDbEntity
  8
0
  6
Continuous
 62
     7
370
    25
100
AcDbLine
 10
543.1135050701
 20
-924.3366722211
 30
0.0
 11
543.1135050701
 21
-924.624801074
 31
0.0
  0
LINE
  5
250
330
1F
100
AcDbEntity
  8
0
  6
Continuous
 62
     7
370
    25
100
AcDbLine
 10
542.305811842
 20
-924.3366722211
 30
0.0
 11
543.1135050701
 21
-924.3366722211
 31
0.0
  0
LINE
  5
251
330
1F
100
AcDbEntity
  8
0
  6
Continuous
 62
     7
370
    25
100
AcDbLine
 10
542.305811842
 20
-927.8366569624
 30
0.0
 11
542.305811842
 21
-924.3366722211
 31
0.0
  0
SPLINE
  5
252
330
1F
100
AcDbEntity
  8
0
  6
Continuous
 62
     7
370
    25
100
AcDbSpline
210
0.0
220
0.0
230
1.0
 70
     8
 71
     3
 72
    10
 73
     6
 74
     0
 42
0.000000001
 43
0.00000001
 40
0.0
 40
0.0
 40
0.0
 40
0.0
 40
0.2790233330014971
 40
0.5601967948608166
 40
1.0
 40
1.0
 40
1.0
 40
1.0
 10
566.1327350633675
 20
-925.142944251023
 30
0.0
 10
566.0769766810016
 20
-925.4484652300268
 30
0.0
 10
565.9650302471607
 20
-926.0618615053838
 30
0.0
 10
565.0748276550592
 20
-926.81570399262
 30
0.0
 10
564.2874329742605
 20
-926.9202798012956
 30
0.0
 10
563.8071140954727
 20
-926.98407212349
 30
0.0
  0
SPLINE
  5
253
330
1F
100
AcDbEntity
  8
0
  6
Continuous
 62
     7
370
    25
100
AcDbSpline
210
0.0
220
0.0
230
1.0
 70
     8
 71
     3
 72
    11
 73
     7
 74
     0
 42
0.000000001
 43
0.00000001
 40
0.0
 40
0.0
 40
0.0
 40
0.0
 40
0.2807666361552917
 40
0.560827142867778
 40
0.7807002012252863
 40
1.0
 40
1.0
 40
1.0
 40
1.0
 10
563.7706557270595
 20
-923.3046177968604
 30
0.0
 10
564.0828155891087
 20
-923.326361740025
 30
0.0
 10
564.7063502296498
 20
-923.369794940233
 30
0.0
 10
565.4784566979134
 20
-923.7956075831804
 30
0.0
 10
566.036556698632
 20
-924.4067128208201
 30
0.0
 10
566.1007035190904
 20
-924.8977474261483
 30
0.0
 10
566.1327350633675
 20
-925.142944251023
 30
0.0
  0
SPLINE
  5
254
330
1F
100
AcDbEntity
  8
0
  6
Continuous
 62
     7
370
    25
100
AcDbSpline
210
0.0
220
0.0
230
1.0
 70
     8
 71
     3
 72
    11
 73
     7
 74
     0
 42
0.000000001
 43
0.00000001
 40
0.0
 40
0.0
 40
0.0
 40
0.0
 40
0.2782168693951232
 40
0.5579017886112551
 40
0.7788831062696902
 40
1.0
 40
1.0
 40
1.0
 40
1.0
 10
561.4660683302665
 20
-925.1597527608496
 30
0.0
 10
561.5219910057384
 20
-924.85431659934
 30
0.0
 10
561.6341314404201
 20
-924.241832600138
 30
0.0
 10
562.3180906501582
 20
-923.6601619586456
 30
0.0
 10
563.0470132076613
 20
-923.354215663691
 30
0.0
 10
563.529392244329
 20
-923.321153798777
 30
0.0
 10
563.7706557270595
 20
-923.3046177968604
 30
0.0
  0
SPLINE
  5
255
330
1F
100
AcDbEntity
  8
0
  6
Continuous
 62
     7
370
    25
100
AcDbSpline
210
0.0
220
0.0
230
1.0
 70
     8
 71
     3
 72
    11
 73
     7
 74
     0
 42
0.000000001
 43
0.00000001
 40
0.0
 40
0.0
 40
0.0
 40
0.0
 40
0.2807073157422315
 40
0.5608402388455729
 40
0.7807725451849672
 40
1.0
 40
1.0
 40
1.0
 40
1.0
 10
563.8071140954727
 20
-926.98407212349
 30
0.0
 10
563.4982145830137
 20
-926.9614851296325
 30
0.0
 10
562.8810476385446
 20
-926.9163573601754
 30
0.0
 10
562.1212322626742
 20
-926.4884589699817
 30
0.0
 10
561.5660830098711
 20
-925.8875860524383
 30
0.0
 10
561.4993708657988
 20
-925.4021041251751
 30
0.0
 10
561.4660683302665
 20
-925.1597527608496
 30
0.0
  0
SPLINE
  5
256
330
1F
100
AcDbEntity
  8
0
  6
Continuous
 62
     7
370
    25
100
AcDbSpline
210
0.0
220
0.0
230
1.0
 70
     8
 71
     3
 72
    11
 73
     7
 74
     0
 42
0.000000001
 43
0.00000001
 40
0.0
 40
0.0
 40
0.0
 40
0.0
 40
0.2795296292964797
 40
0.5592712177103855
 40
0.7795731756993831
 40
1.0
 40
1.0
 40
1.0
 40
1.0
 10
555.2643454382652
 20
-936.9392398938758
 30
0.0
 10
555.0700584779622
 20
-936.9162678363098
 30
0.0
 10
554.681337235254
 20
-936.8703063021405
 30
0.0
 10
554.2541001556451
 20
-936.5086494469265
 30
0.0
 10
553.9923805193613
 20
-936.075554974591
 30
0.0
 10
553.9662944223468
 20
-935.7702978899667
 30
0.0
 10
553.9532476785117
 20
-935.617626105271
 30
0.0
  0
SPLINE
  5
257
330
1F
100
AcDbEntity
  8
0
  6
Continuous
 62
     7
370
    25
100
AcDbSpline
210
0.0
220
0.0
230
1.0
 70
     8
 71
     3
 72
    11
 73
     7
 74
     0
 42
0.000000001
 43
0.00000001
 40
0.0
 40
0.0
 40
0.0
 40
0.0
 40
0.2795777833767447
 40
0.5591147454515648
 40
0.7795157590655523
 40
1.0
 40
1.0
 40
1.0
 40
1.0
 10
556.6006839024359
 20
-935.613394175492
 30
0.0
 10
556.5756201990089
 20
-935.8090622708869
 30
0.0
 10
556.5254964517197
 20
-936.200369892073
 30
0.0
 10
556.1703316852662
 20
-936.641471532076
 30
0.0
 10
555.7266157235736
 20
-936.898117554391
 30
0.0
 10
555.4184549242013
 20
-936.9255307224234
 30
0.0
 10
555.2643454382652
 20
-936.9392398938758
 30
0.0
  0
SPLINE
  5
258
330
1F
100
AcDbEntity
  8
0
  6
Continuous
 62
     7
370
    25
100
AcDbSpline
210
0.0
220
0.0
230
1.0
 70
     8
 71
     3
 72
    11
 73
     7
 74
     0
 42
0.000000001
 43
0.00000001
 40
0.0
 40
0.0
 40
0.0
 40
0.0
 40
0.2796505892913448
 40
0.5592679166136137
 40
0.7796813581383661
 40
1.0
 40
1.0
 40
1.0
 40
1.0
 10
555.261541225993
 20
-934.2917803868872
 30
0.0
 10
555.4567523182468
 20
-934.3164955666979
 30
0.0
 10
555.8471512841179
 20
-934.3659229866664
 30
0.0
 10
556.2907397663056
 20
-934.7143449059115
 30
0.0
 10
556.5549402251999
 20
-935.1525904885442
 30
0.0
 10
556.5854381966867
 20
-935.4598149740846
 30
0.0
 10
556.6006839024359
 20
-935.613394175492
 30
0.0
  0
SPLINE
  5
259
330
1F
100
AcDbEntity
  8
0
  6
Continuous
 62
     7
370
    25
100
AcDbSpline
210
0.0
220
0.0
230
1.0
 70
     8
 71
     3
 72
     9
 73
     5
 74
     0
 42
0.000000001
 43
0.00000001
 40
0.0
 40
0.0
 40
0.0
 40
0.0
 40
0.5593741109359726
 40
1.0
 40
1.0
 40
1.0
 40
1.0
 10
554.3872421356374
 20
-934.6346263036353
 30
0.0
 10
554.5335893190199
 20
-934.5251479982988
 30
0.0
 10
554.7952159844687
 20
-934.3294322810435
 30
0.0
 10
555.1189122647204
 20
-934.3032964921189
 30
0.0
 10
555.261541225993
 20
-934.2917803868872
 30
0.0
  0
SPLINE
  5
25A
330
1F
100
AcDbEntity
  8
0
  6
Continuous
 62
     7
370
    25
100
AcDbSpline
210
0.0
220
0.0
230
1.0
 70
     8
 71
     3
 72
     9
 73
     5
 74
     0
 42
0.000000001
 43
0.00000001
 40
0.0
 40
0.0
 40
0.0
 40
0.0
 40
0.5590733282391092
 40
1.0
 40
1.0
 40
1.0
 40
1.0
 10
553.9532476785117
 20
-935.617626105271
 30
0.0
 10
553.9764329975183
 20
-935.4071417823177
 30
0.0
 10
554.017903977863
 20
-935.0306539187027
 30
0.0
 10
554.2742238621518
 20
-934.7558116086608
 30
0.0
 10
554.3872421356374
 20
-934.6346263036353
 30
0.0
  0
SPLINE
  5
25B
330
1F
100
AcDbEntity
  8
0
  6
Continuous
 62
     7
370
    25
100
AcDbSpline
210
0.0
220
0.0
230
1.0
 70
     8
 71
     3
 72
     9
 73
     5
 74
     0
 42
0.000000001
 43
0.00000001
 40
0.0
 40
0.0
 40
0.0
 40
0.0
 40
0.559258726396357
 40
1.0
 40
1.0
 40
1.0
 40
1.0
 10
565.7664489215696
 20
-934.6227053746802
 30
0.0
 10
565.8989666263841
 20
-934.5163958258929
 30
0.0
 10
566.1359190395692
 20
-934.3263057231017
 30
0.0
 10
566.4366769546818
 20
-934.3023421309933
 30
0.0
 10
566.569233381235
 20
-934.2917803868872
 30
0.0
  0
SPLINE
  5
25C
330
1F
100
AcDbEntity
  8
0
  6
Continuous
 62
     7
370
    25
100
AcDbSpline
210
0.0
220
0.0
230
1.0
 70
     8
 71
     3
 72
     9
 73
     5
 74
     0
 42
0.000000001
 43
0.00000001
 40
0.0
 40
0.0
 40
0.0
 40
0.0
 40
0.5598329664774173
 40
1.0
 40
1.0
 40
1.0
 40
1.0
 10
565.395555526995
 20
-935.5930689916236
 30
0.0
 10
565.4107110391898
 20
-935.3897590095303
 30
0.0
 10
565.437782528549
 20
-935.0265971482835
 30
0.0
 10
565.6659966074511
 20
-934.7461492806392
 30
0.0
 10
565.7664489215696
 20
-934.6227053746802
 30
0.0
  0
SPLINE
  5
25D
330
1F
100
AcDbEntity
  8
0
  6
Continuous
 62
     7
370
    25
100
AcDbSpline
210
0.0
220
0.0
230
1.0
 70
     8
 71
     3
 72
    11
 73
     7
 74
     0
 42
0.000000001
 43
0.00000001
 40
0.0
 40
0.0
 40
0.0
 40
0.0
 40
0.2792738916671777
 40
0.5588729701856746
 40
0.7792742715498052
 40
1.0
 40
1.0
 40
1.0
 40
1.0
 10
566.6042895270967
 20
-936.8943575963599
 30
0.0
 10
566.4183045030384
 20
-936.8709774299894
 30
0.0
 10
566.0461178937385
 20
-936.8241898733551
 30
0.0
 10
565.647838820504
 20
-936.45999009425
 30
0.0
 10
565.4255051846292
 20
-936.0312867198744
 30
0.0
 10
565.4055436397823
 20
-935.7392131695849
 30
0.0
 10
565.395555526995
 20
-935.5930689916236
 30
0.0
  0
SPLINE
  5
25E
330
1F
100
AcDbEntity
  8
0
  6
Continuous
 62
     7
370
    25
100
AcDbSpline
210
0.0
220
0.0
230
1.0
 70
     8
 71
     3
 72
     9
 73
     5
 74
     0
 42
0.000000001
 43
0.00000001
 40
0.0
 40
0.0
 40
0.0
 40
0.0
 40
0.558807636908447
 40
1.0
 40
1.0
 40
1.0
 40
1.0
 10
567.3699146816963
 20
-936.575353537522
 30
0.0
 10
567.24483026825
 20
-936.6800837058139
 30
0.0
 10
567.0209886362023
 20
-936.8675009159136
 30
0.0
 10
566.7318536672855
 20
-936.8861359580728
 30
0.0
 10
566.6042895270967
 20
-936.8943575963599
 30
0.0
  0
SPLINE
  5
25F
330
1F
100
AcDbEntity
  8
0
  6
Continuous
 62
     7
370
    25
100
AcDbSpline
210
0.0
220
0.0
230
1.0
 70
     8
 71
     3
 72
    11
 73
     7
 74
     0
 42
0.000000001
 43
0.00000001
 40
0.0
 40
0.0
 40
0.0
 40
0.0
 40
0.2811196731725029
 40
0.5594166383939128
 40
0.7785293513077453
 40
1.0
 40
1.0
 40
1.0
 40
1.0
 10
566.675804157787
 20
-937.2981790647132
 30
0.0
 10
566.7850260214733
 20
-937.2929010566019
 30
0.0
 10
567.0023730578192
 20
-937.2823980365829
 30
0.0
 10
567.2857489006949
 20
-937.1122957914903
 30
0.0
 10
567.3668722736148
 20
-936.831267900948
 30
0.0
 10
567.368896933777
 20
-936.6609621422521
 30
0.0
 10
567.3699146816963
 20
-936.575353537522
 30
0.0
  0
SPLINE
  5
260
330
1F
100
AcDbEntity
  8
0
  6
Continuous
 62
     7
370
    25
100
AcDbSpline
210
0.0
220
0.0
230
1.0
 70
     8
 71
     3
 72
    10
 73
     6
 74
     0
 42
0.000000001
 43
0.00000001
 40
0.0
 40
0.0
 40
0.0
 40
0.0
 40
0.2798432619745725
 40
0.5599524472829723
 40
1.0
 40
1.0
 40
1.0
 40
1.0
 10
566.0910683898711
 20
-937.0738271817786
 30
0.0
 10
566.1344757274693
 20
-937.11618593624
 30
0.0
 10
566.221331650841
 20
-937.2009436969132
 30
0.0
 10
566.4256439879468
 20
-937.2832731877
 30
0.0
 10
566.5809222724123
 20
-937.2925254959811
 30
0.0
 10
566.675804157787
 20
-937.2981790647132
 30
0.0
  0
LINE
  5
261
330
1F
100
AcDbEntity
  8
0
  6
Continuous
 62
     7
370
    25
100
AcDbLine
 10
565.3927510819
 20
-937.0738271818
 30
0.0
 11
566.0910683899
 21
-937.0738271818
 31
0.0
  0
SPLINE
  5
262
330
1F
100
AcDbEntity
  8
0
  6
Continuous
 62
     7
370
    25
100
AcDbSpline
210
0.0
220
0.0
230
1.0
 70
     8
 71
     3
 72
    11
 73
     7
 74
     0
 42
0.000000001
 43
0.00000001
 40
0.0
 40
0.0
 40
0.0
 40
0.0
 40
0.2805562597469069
 40
0.560071198760776
 40
0.7799564810362397
 40
1.0
 40
1.0
 40
1.0
 40
1.0
 10
566.722779137128
 20
-937.8815297231299
 30
0.0
 10
566.565719922944
 20
-937.8755380563383
 30
0.0
 10
566.2521844401009
 20
-937.8635769615987
 30
0.0
 10
565.83944552329
 20
-937.6959370938055
 30
0.0
 10
565.536618786716
 20
-937.4162442499526
 30
0.0
 10
565.4407184815325
 20
-937.1879935707735
 30
0.0
 10
565.3927510818922
 20
-937.0738271817786
 30
0.0
  0
SPLINE
  5
263
330
1F
100
AcDbEntity
  8
0
  6
Continuous
 62
     7
370
    25
100
AcDbSpline
210
0.0
220
0.0
230
1.0
 70
     8
 71
     3
 72
    10
 73
     6
 74
     0
 42
0.000000001
 43
0.00000001
 40
0.0
 40
0.0
 40
0.0
 40
0.0
 40
0.2799013457046295
 40
0.5600069571795476
 40
1.0
 40
1.0
 40
1.0
 40
1.0
 10
567.7814731123382
 20
-937.4692443952185
 30
0.0
 10
567.7027696269972
 20
-937.5460180184319
 30
0.0
 10
567.5453052202637
 20
-937.6996212925394
 30
0.0
 10
567.1768258369826
 20
-937.8537016035879
 30
0.0
 10
566.8949874113086
 20
-937.8709752307365
 30
0.0
 10
566.722779137128
 20
-937.8815297231299
 30
0.0
  0
SPLINE
  5
264
330
1F
100
AcDbEntity
  8
0
  6
Continuous
 62
     7
370
    25
100
AcDbSpline
210
0.0
220
0.0
230
1.0
 70
     8
 71
     3
 72
     9
 73
     5
 74
     0
 42
0.000000001
 43
0.00000001
 40
0.0
 40
0.0
 40
0.0
 40
0.0
 40
0.5611723404030016
 40
1.0
 40
1.0
 40
1.0
 40
1.0
 10
568.0429912852579
 20
-936.5185503110511
 30
0.0
 10
568.0390607673372
 20
-936.7098141684821
 30
0.0
 10
568.0320566482143
 20
-937.0506432572676
 30
0.0
 10
567.8578985173189
 20
-937.3415753471247
 30
0.0
 10
567.7814731123382
 20
-937.4692443952185
 30
0.0
  0
LINE
  5
265
330
1F
100
AcDbEntity
  8
0
  6
Continuous
 62
     7
370
    25
100
AcDbLine
 10
568.0429912853
 20
-934.3366626844
 30
0.0
 11
568.0429912853
 21
-936.5185503111
 31
0.0
  0
LINE
  5
266
330
1F
100
AcDbEntity
  8
0
  6
Continuous
 62
     7
370
    25
100
AcDbLine
 10
567.3699146817
 20
-934.3366626844
 30
0.0
 11
568.0429912853
 21
-934.3366626844
 31
0.0
  0
LINE
  5
267
330
1F
100
AcDbEntity
  8
0
  6
Continuous
 62
     7
370
    25
100
AcDbLine
 10
567.3699146817
 20
-934.6213344679
 30
0.0
 11
567.3699146817
 21
-934.3366626844
 31
0.0
  0
SPLINE
  5
268
330
1F
100
AcDbEntity
  8
0
  6
Continuous
 62
     7
370
    25
100
AcDbSpline
210
0.0
220
0.0
230
1.0
 70
     8
 71
     3
 72
     9
 73
     5
 74
     0
 42
0.000000001
 43
0.00000001
 40
0.0
 40
0.0
 40
0.0
 40
0.0
 40
0.5587442710887284
 40
1.0
 40
1.0
 40
1.0
 40
1.0
 10
566.569233381235
 20
-934.2917803868872
 30
0.0
 10
566.7367032123807
 20
-934.311357349218
 30
0.0
 10
567.0364285783685
 20
-934.3463947775078
 30
0.0
 10
567.2678143738509
 20
-934.5371587653465
 30
0.0
 10
567.3699146816963
 20
-934.6213344678504
 30
0.0
  0
LINE
  5
269
330
1F
100
AcDbEntity
  8
0
  6
Continuous
 62
     7
370
    25
100
AcDbLine
 10
569.2994017834
 20
-935.8755950079
 30
0.0
 11
569.2994017834
 21
-936.8943575964
 31
0.0
  0
SPLINE
  5
26A
330
1F
100
AcDbEntity
  8
0
  6
Continuous
 62
     7
370
    25
100
AcDbSpline
210
0.0
220
0.0
230
1.0
 70
     8
 71
     3
 72
     9
 73
     5
 74
     0
 42
0.000000001
 43
0.00000001
 40
0.0
 40
0.0
 40
0.0
 40
0.0
 40
0.559694921253846
 40
1.0
 40
1.0
 40
1.0
 40
1.0
 10
569.3288488062555
 20
-935.3532795056922
 30
0.0
 10
569.3179526749808
 20
-935.4504456038986
 30
0.0
 10
569.2984846918691
 20
-935.624051070943
 30
0.0
 10
569.29912142611
 20
-935.798697359863
 30
0.0
 10
569.29940178343
 20
-935.8755950078589
 30
0.0
  0
SPLINE
  5
26B
330
1F
100
AcDbEntity
  8
0
  6
Continuous
 62
     7
370
    25
100
AcDbSpline
210
0.0
220
0.0
230
1.0
 70
     8
 71
     3
 72
    10
 73
     6
 74
     0
 42
0.000000001
 43
0.00000001
 40
0.0
 40
0.0
 40
0.0
 40
0.0
 40
0.2803447535009156
 40
0.5607095434634879
 40
1.0
 40
1.0
 40
1.0
 40
1.0
 10
569.8764250362748
 20
-934.875131045304
 30
0.0
 10
569.8028527048925
 20
-934.883126387854
 30
0.0
 10
569.6557027838553
 20
-934.8991176443878
 30
0.0
 10
569.436034463919
 20
-935.0648114759542
 30
0.0
 10
569.3694767980292
 20
-935.2439376684104
 30
0.0
 10
569.3288488062555
 20
-935.3532795056922
 30
0.0
  0
SPLINE
  5
26C
330
1F
100
AcDbEntity
  8
0
  6
Continuous
 62
     7
370
    25
100
AcDbSpline
210
0.0
220
0.0
230
1.0
 70
     8
 71
     3
 72
    12
 73
     8
 74
     0
 42
0.000000001
 43
0.00000001
 40
0.0
 40
0.0
 40
0.0
 40
0.0
 40
0.5004793309274568
 40
0.6255890129121208
 40
0.7502159665362236
 40
0.8749718297593297
 40
0.9999999999999999
 40
0.9999999999999999
 40
0.9999999999999999
 40
0.9999999999999999
 10
570.3314529480868
 20
-935.7823733434302
 30
0.0
 10
570.3363979229385
 20
-935.5873140848054
 30
0.0
 10
570.342579041209
 20
-935.3434939677264
 30
0.0
 10
570.2493016861906
 20
-935.0659161924029
 30
0.0
 10
570.1542551540798
 20
-934.9523394609959
 30
0.0
 10
570.0217039641112
 20
-934.8842947616031
 30
0.0
 10
569.9248865280362
 20
-934.8781878365987
 30
0.0
 10
569.8764250362748
 20
-934.875131045304
 30
0.0
  0
LINE
  5
26D
330
1F
100
AcDbEntity
  8
0
  6
Continuous
 62
     7
370
    25
100
AcDbLine
 10
570.3314529481
 20
-936.8943575964
 30
0.0
 11
570.3314529481
 21
-935.7823733434
 31
0.0
  0
LINE
  5
26E
330
1F
100
AcDbEntity
  8
0
  6
Continuous
 62
     7
370
    25
100
AcDbLine
 10
570.9596579643
 20
-936.8943575964
 30
0.0
 11
570.3314529481
 21
-936.8943575964
 31
0.0
  0
LINE
  5
26F
330
1F
100
AcDbEntity
  8
0
  6
Continuous
 62
     7
370
    25
100
AcDbLine
 10
570.9596579643
 20
-935.2172617063
 30
0.0
 11
570.9596579643
 21
-936.8943575964
 31
0.0
  0
SPLINE
  5
270
330
1F
100
AcDbEntity
  8
0
  6
Continuous
 62
     7
370
    25
100
AcDbSpline
210
0.0
220
0.0
230
1.0
 70
     8
 71
     3
 72
     9
 73
     5
 74
     0
 42
0.000000001
 43
0.00000001
 40
0.0
 40
0.0
 40
0.0
 40
0.0
 40
0.5576246643411886
 40
1.0
 40
1.0
 40
1.0
 40
1.0
 10
570.7317931326562
 20
-934.5533255681617
 30
0.0
 10
570.809312361702
 20
-934.6655475923461
 30
0.0
 10
570.9483292201791
 20
-934.8667977008166
 30
0.0
 10
570.9561834477737
 20
-935.1097746824898
 30
0.0
 10
570.9596579643422
 20
-935.2172617063147
 30
0.0
  0
SPLINE
  5
271
330
1F
100
AcDbEntity
  8
0
  6
Continuous
 62
     7
370
    25
100
AcDbSpline
210
0.0
220
0.0
230
1.0
 70
     8
 71
     3
 72
     9
 73
     5
 74
     0
 42
0.000000001
 43
0.00000001
 40
0.0
 40
0.0
 40
0.0
 40
0.0
 40
0.5593085089113367
 40
1.0
 40
1.0
 40
1.0
 40
1.0
 10
570.0783478776449
 20
-934.2917803868872
 30
0.0
 10
570.2154525067862
 20
-934.3049074989294
 30
0.0
 10
570.4605848925032
 20
-934.3283777516313
 30
0.0
 10
570.6488335507555
 20
-934.4845165349321
 30
0.0
 10
570.7317931326562
 20
-934.5533255681617
 30
0.0
  0
SPLINE
  5
272
330
1F
100
AcDbEntity
  8
0
  6
Continuous
 62
     7
370
    25
100
AcDbSpline
210
0.0
220
0.0
230
1.0
 70
     8
 71
     3
 72
     9
 73
     5
 74
     0
 42
0.000000001
 43
0.00000001
 40
0.0
 40
0.0
 40
0.0
 40
0.0
 40
0.560261172035831
 40
0.9999999999999999
 40
0.9999999999999999
 40
0.9999999999999999
 40
0.9999999999999999
 10
569.29940178343
 20
-934.6135858640296
 30
0.0
 10
569.4300022384753
 20
-934.5151356013869
 30
0.0
 10
569.6631086209342
 20
-934.3394135139814
 30
0.0
 10
569.9515215251674
 20
-934.3063289529699
 30
0.0
 10
570.0783478776449
 20
-934.2917803868872
 30
0.0
  0
LINE
  5
273
330
1F
100
AcDbEntity
  8
0
  6
Continuous
 62
     7
370
    25
100
AcDbLine
 10
569.2994017834
 20
-933.3046082601
 30
0.0
 11
569.2994017834
 21
-934.613585864
 31
0.0
  0
LINE
  5
274
330
1F
100
AcDbEntity
  8
0
  6
Continuous
 62
     7
370
    25
100
AcDbLine
 10
568.6711967672
 20
-933.3046082601
 30
0.0
 11
569.2994017834
 21
-933.3046082601
 31
0.0
  0
LINE
  5
275
330
1F
100
AcDbEntity
  8
0
  6
Continuous
 62
     7
370
    25
100
AcDbLine
 10
568.6711967672
 20
-936.8943575964
 30
0.0
 11
568.6711967672
 21
-933.3046082601
 31
0.0
  0
LINE
  5
276
330
1F
100
AcDbEntity
  8
0
  6
Continuous
 62
     7
370
    25
100
AcDbLine
 10
569.2994017834
 20
-936.8943575964
 30
0.0
 11
568.6711967672
 21
-936.8943575964
 31
0.0
  0
LINE
  5
277
330
1F
100
AcDbEntity
  8
0
  6
Continuous
 62
     7
370
    25
100
AcDbLine
 10
571.3186325254
 20
-934.8751310453
 30
0.0
 11
571.3186325254
 21
-934.3366626844
 31
0.0
  0
LINE
  5
278
330
1F
100
AcDbEntity
  8
0
  6
Continuous
 62
     7
370
    25
100
AcDbLine
 10
571.6327350336
 20
-934.8751310453
 30
0.0
 11
571.3186325254
 21
-934.8751310453
 31
0.0
  0
LINE
  5
279
330
1F
100
AcDbEntity
  8
0
  6
Continuous
 62
     7
370
    25
100
AcDbLine
 10
571.6327350336
 20
-936.8943575964
 30
0.0
 11
571.6327350336
 21
-934.8751310453
 31
0.0
  0
LINE
  5
27A
330
1F
100
AcDbEntity
  8
0
  6
Continuous
 62
     7
370
    25
100
AcDbLine
 10
572.2609400498
 20
-936.8943575964
 30
0.0
 11
571.6327350336
 21
-936.8943575964
 31
0.0
  0
LINE
  5
27B
330
1F
100
AcDbEntity
  8
0
  6
Continuous
 62
     7
370
    25
100
AcDbLine
 10
572.2609400498
 20
-934.8751310453
 30
0.0
 11
572.2609400498
 21
-936.8943575964
 31
0.0
  0
LINE
  5
27C
330
1F
100
AcDbEntity
  8
0
  6
Continuous
 62
     7
370
    25
100
AcDbLine
 10
572.6647866639
 20
-934.8751310453
 30
0.0
 11
572.2609400498
 21
-934.8751310453
 31
0.0
  0
LINE
  5
27D
330
1F
100
AcDbEntity
  8
0
  6
Continuous
 62
     7
370
    25
100
AcDbLine
 10
572.6647866639
 20
-934.3366626844
 30
0.0
 11
572.6647866639
 21
-934.8751310453
 31
0.0
  0
LINE
  5
27E
330
1F
100
AcDbEntity
  8
0
  6
Continuous
 62
     7
370
    25
100
AcDbLine
 10
572.2609400498
 20
-934.3366626844
 30
0.0
 11
572.6647866639
 21
-934.3366626844
 31
0.0
  0
LINE
  5
27F
330
1F
100
AcDbEntity
  8
0
  6
Continuous
 62
     7
370
    25
100
AcDbLine
 10
572.2609400498
 20
-933.3046082601
 30
0.0
 11
572.2609400498
 21
-934.3366626844
 31
0.0
  0
LINE
  5
280
330
1F
100
AcDbEntity
  8
0
  6
Continuous
 62
     7
370
    25
100
AcDbLine
 10
571.6327350336
 20
-933.3046082601
 30
0.0
 11
572.2609400498
 21
-933.3046082601
 31
0.0
  0
LINE
  5
281
330
1F
100
AcDbEntity
  8
0
  6
Continuous
 62
     7
370
    25
100
AcDbLine
 10
571.6327350336
 20
-934.3366626844
 30
0.0
 11
571.6327350336
 21
-933.3046082601
 31
0.0
  0
LINE
  5
282
330
1F
100
AcDbEntity
  8
0
  6
Continuous
 62
     7
370
    25
100
AcDbLine
 10
571.3186325254
 20
-934.3366626844
 30
0.0
 11
571.6327350336
 21
-934.3366626844
 31
0.0
  0
SPLINE
  5
283
330
1F
100
AcDbEntity
  8
0
  6
Continuous
 62
     7
370
    25
100
AcDbSpline
210
0.0
220
0.0
230
1.0
 70
     8
 71
     3
 72
    11
 73
     7
 74
     0
 42
0.000000001
 43
0.00000001
 40
0.0
 40
0.0
 40
0.0
 40
0.0
 40
0.279451593881041
 40
0.5593596640984168
 40
0.7796703497005723
 40
1.0
 40
1.0
 40
1.0
 40
1.0
 10
573.6968373628789
 20
-936.647534762345
 30
0.0
 10
573.6917524826606
 20
-936.6905218842553
 30
0.0
 10
573.6815744162151
 20
-936.7765663463333
 30
0.0
 10
573.6018938975351
 20
-936.8713316055649
 30
0.0
 10
573.5064847457362
 20
-936.9300596393609
 30
0.0
 10
573.4389434488118
 20
-936.9361797212368
 30
0.0
 10
573.4051713468963
 20
-936.9392398938758
 30
0.0
  0
SPLINE
  5
284
330
1F
100
AcDbEntity
  8
0
  6
Continuous
 62
     7
370
    25
100
AcDbSpline
210
0.0
220
0.0
230
1.0
 70
     8
 71
     3
 72
    11
 73
     7
 74
     0
 42
0.000000001
 43
0.00000001
 40
0.0
 40
0.0
 40
0.0
 40
0.0
 40
0.2796198712742329
 40
0.5592050216586586
 40
0.77947376738954
 40
0.9999999999999999
 40
0.9999999999999999
 40
0.9999999999999999
 40
0.9999999999999999
 10
573.4051713468963
 20
-936.355889235459
 30
0.0
 10
573.4483118812445
 20
-936.3607893661344
 30
0.0
 10
573.5345875931054
 20
-936.3705890190272
 30
0.0
 10
573.6289211944562
 20
-936.450829014649
 30
0.0
 10
573.6887938007661
 20
-936.5457795787081
 30
0.0
 10
573.6941551315817
 20
-936.6136031615971
 30
0.0
 10
573.6968373628789
 20
-936.647534762345
 30
0.0
  0
SPLINE
  5
285
330
1F
100
AcDbEntity
  8
0
  6
Continuous
 62
     7
370
    25
100
AcDbSpline
210
0.0
220
0.0
230
1.0
 70
     8
 71
     3
 72
    11
 73
     7
 74
     0
 42
0.000000001
 43
0.00000001
 40
0.0
 40
0.0
 40
0.0
 40
0.0
 40
0.279538181945317
 40
0.5592820985643898
 40
0.7795298187262306
 40
1.0
 40
1.0
 40
1.0
 40
1.0
 10
573.1135043995911
 20
-936.647534762345
 30
0.0
 10
573.1186203623935
 20
-936.6045390886525
 30
0.0
 10
573.1288560532475
 20
-936.5185160972871
 30
0.0
 10
573.208019011778
 20
-936.4232401725691
 30
0.0
 10
573.3037638936579
 20
-936.3648259715537
 30
0.0
 10
573.3713574894136
 20
-936.3588691497654
 30
0.0
 10
573.4051713468963
 20
-936.355889235459
 30
0.0
  0
SPLINE
  5
286
330
1F
100
AcDbEntity
  8
0
  6
Continuous
 62
     7
370
    25
100
AcDbSpline
210
0.0
220
0.0
230
1.0
 70
     8
 71
     3
 72
    11
 73
     7
 74
     0
 42
0.000000001
 43
0.00000001
 40
0.0
 40
0.0
 40
0.0
 40
0.0
 40
0.2795908534620018
 40
0.5591216580054372
 40
0.7795691873501193
 40
1.0
 40
1.0
 40
1.0
 40
1.0
 10
573.4051713468963
 20
-936.9392398938758
 30
0.0
 10
573.3622611439163
 20
-936.9339271761087
 30
0.0
 10
573.2764499539636
 20
-936.923302881609
 30
0.0
 10
573.1815211697281
 20
-936.8441460955622
 30
0.0
 10
573.1229324011848
 20
-936.7487574591539
 30
0.0
 10
573.1166469873481
 20
-936.6812748083725
 30
0.0
 10
573.1135043995911
 20
-936.647534762345
 30
0.0
  0
SPLINE
  5
287
330
1F
100
AcDbEntity
  8
0
  6
Continuous
 62
     7
370
    25
100
AcDbSpline
210
0.0
220
0.0
230
1.0
 70
     8
 71
     3
 72
    11
 73
     7
 74
     0
 42
0.000000001
 43
0.00000001
 40
0.0
 40
0.0
 40
0.0
 40
0.0
 40
0.2800738724197793
 40
0.559652748770807
 40
0.7798080776180505
 40
1.0
 40
1.0
 40
1.0
 40
1.0
 10
575.6859197961622
 20
-936.9392398938758
 30
0.0
 10
575.4850851457842
 20
-936.9209181492892
 30
0.0
 10
575.0837707955332
 20
-936.8843070415426
 30
0.0
 10
574.6187821786774
 20
-936.5451700094588
 30
0.0
 10
574.3258529850017
 20
-936.1091609765288
 30
0.0
 10
574.2953993435749
 20
-935.7940762386285
 30
0.0
 10
574.2801712574893
 20
-935.6365207776648
 30
0.0
  0
SPLINE
  5
288
330
1F
100
AcDbEntity
  8
0
  6
Continuous
 62
     7
370
    25
100
AcDbSpline
210
0.0
220
0.0
230
1.0
 70
     8
 71
     3
 72
    10
 73
     6
 74
     0
 42
0.000000001
 43
0.00000001
 40
0.0
 40
0.0
 40
0.0
 40
0.0
 40
0.2802098048804191
 40
0.5605929249399955
 40
1.0
 40
1.0
 40
1.0
 40
1.0
 10
576.8827354284459
 20
-936.3488558873755
 30
0.0
 10
576.8015603276648
 20
-936.4507854669291
 30
0.0
 10
576.6391599177341
 20
-936.6547076714505
 30
0.0
 10
576.2252242759537
 20
-936.889829379742
 30
0.0
 10
575.890349370082
 20
-936.9205102694613
 30
0.0
 10
575.6859197961622
 20
-936.9392398938758
 30
0.0
  0
LINE
  5
289
330
1F
100
AcDbEntity
  8
0
  6
Continuous
 62
     7
370
    25
100
AcDbLine
 10
576.6198146837
 20
-936.17641965
 30
0.0
 11
576.8827354284
 21
-936.3488558874
 31
0.0
  0
SPLINE
  5
28A
330
1F
100
AcDbEntity
  8
0
  6
Continuous
 62
     7
370
    25
100
AcDbSpline
210
0.0
220
0.0
230
1.0
 70
     8
 71
     3
 72
     9
 73
     5
 74
     0
 42
0.000000001
 43
0.00000001
 40
0.0
 40
0.0
 40
0.0
 40
0.0
 40
0.558795300433537
 40
1.0
 40
1.0
 40
1.0
 40
1.0
 10
575.6908278661305
 20
-936.6251234159095
 30
0.0
 10
575.8943809160835
 20
-936.6004296499738
 30
0.0
 10
576.2586521434813
 20
-936.5562385733549
 30
0.0
 10
576.5092498138581
 20
-936.292695911144
 30
0.0
 10
576.6198146837288
 20
-936.1764196500403
 30
0.0
  0
SPLINE
  5
28B
330
1F
100
AcDbEntity
  8
0
  6
Continuous
 62
     7
370
    25
100
AcDbSpline
210
0.0
220
0.0
230
1.0
 70
     8
 71
     3
 72
    11
 73
     7
 74
     0
 42
0.000000001
 43
0.00000001
 40
0.0
 40
0.0
 40
0.0
 40
0.0
 40
0.2793202195804205
 40
0.558767524601265
 40
0.7792630703164121
 40
0.9999999999999999
 40
0.9999999999999999
 40
0.9999999999999999
 40
0.9999999999999999
 10
574.594273765617
 20
-935.6085065946204
 30
0.0
 10
574.616248973277
 20
-935.7640556227301
 30
0.0
 10
574.6602093869027
 20
-936.0752244508285
 30
0.0
 10
574.9603297367755
 20
-936.4146975534392
 30
0.0
 10
575.3231604955897
 20
-936.5976087759676
 30
0.0
 10
575.5682273865691
 20
-936.6159485249016
 30
0.0
 10
575.6908278661305
 20
-936.6251234159095
 30
0.0
  0
SPLINE
  5
28C
330
1F
100
AcDbEntity
  8
0
  6
Continuous
 62
     7
370
    25
100
AcDbSpline
210
0.0
220
0.0
230
1.0
 70
     8
 71
     3
 72
    11
 73
     7
 74
     0
 42
0.000000001
 43
0.00000001
 40
0.0
 40
0.0
 40
0.0
 40
0.0
 40
0.280138797891052
 40
0.5597722208015256
 40
0.7798848223647417
 40
1.0
 40
1.0
 40
1.0
 40
1.0
 10
575.688724939757
 20
-934.6058968648535
 30
0.0
 10
575.5332320827155
 20
-934.6198801318984
 30
0.0
 10
575.2225268802939
 20
-934.6478214399457
 30
0.0
 10
574.861009717256
 20
-934.9073099350212
 30
0.0
 10
574.6301238864058
 20
-935.242494046162
 30
0.0
 10
574.6062238524984
 20
-935.4865019358485
 30
0.0
 10
574.594273765617
 20
-935.6085065946204
 30
0.0
  0
SPLINE
  5
28D
330
1F
100
AcDbEntity
  8
0
  6
Continuous
 62
     7
370
    25
100
AcDbSpline
210
0.0
220
0.0
230
1.0
 70
     8
 71
     3
 72
     9
 73
     5
 74
     0
 42
0.000000001
 43
0.00000001
 40
0.0
 40
0.0
 40
0.0
 40
0.0
 40
0.5584570396564595
 40
1.0
 40
1.0
 40
1.0
 40
1.0
 10
576.6198146837288
 20
-935.0546006307227
 30
0.0
 10
576.4744017615209
 20
-934.9086100328803
 30
0.0
 10
576.2140183982863
 20
-934.6471922559062
 30
0.0
 10
575.8496217254294
 20
-934.6185455959114
 30
0.0
 10
575.688724939757
 20
-934.6058968648535
 30
0.0
  0
LINE
  5
28E
330
1F
100
AcDbEntity
  8
0
  6
Continuous
 62
     7
370
    25
100
AcDbLine
 10
576.8827354284
 20
-934.8912242994
 30
0.0
 11
576.6198146837
 21
-935.0546006307
 31
0.0
  0
SPLINE
  5
28F
330
1F
100
AcDbEntity
  8
0
  6
Continuous
 62
     7
370
    25
100
AcDbSpline
210
0.0
220
0.0
230
1.0
 70
     8
 71
     3
 72
     9
 73
     5
 74
     0
 42
0.000000001
 43
0.00000001
 40
0.0
 40
0.0
 40
0.0
 40
0.0
 40
0.5606683060747112
 40
1.0
 40
1.0
 40
1.0
 40
1.0
 10
575.7118617864782
 20
-934.2917803868872
 30
0.0
 10
575.9765764497974
 20
-934.3209272169892
 30
0.0
 10
576.4487177505473
 20
-934.3729130877541
 30
0.0
 10
576.7502588614186
 20
-934.7330185546361
 30
0.0
 10
576.8827354284459
 20
-934.8912242993933
 30
0.0
  0
SPLINE
  5
290
330
1F
100
AcDbEntity
  8
0
  6
Continuous
 62
     7
370
    25
100
AcDbSpline
210
0.0
220
0.0
230
1.0
 70
     8
 71
     3
 72
    11
 73
     7
 74
     0
 42
0.000000001
 43
0.00000001
 40
0.0
 40
0.0
 40
0.0
 40
0.0
 40
0.2793823351912246
 40
0.5587772043664717
 40
0.779281113280328
 40
1.0
 40
1.0
 40
1.0
 40
1.0
 10
574.2801712574893
 20
-935.6365207776648
 30
0.0
 10
574.3076510809744
 20
-935.4318477740017
 30
0.0
 10
574.3626119607774
 20
-935.0224925843903
 30
0.0
 10
574.7543080875304
 20
-934.5744734045179
 30
0.0
 10
575.2286433064077
 20
-934.3291312161256
 30
0.0
 10
575.5507366484079
 20
-934.3042347067577
 30
0.0
 10
575.7118617864782
 20
-934.2917803868872
 30
0.0
  0
SPLINE
  5
291
330
1F
100
AcDbEntity
  8
0
  6
Continuous
 62
     7
370
    25
100
AcDbSpline
210
0.0
220
0.0
230
1.0
 70
     8
 71
     3
 72
    10
 73
     6
 74
     0
 42
0.000000001
 43
0.00000001
 40
0.0
 40
0.0
 40
0.0
 40
0.0
 40
0.2789486098435344
 40
0.5600931095185994
 40
1.0
 40
1.0
 40
1.0
 40
1.0
 10
561.9147862988049
 20
-925.1583818540198
 30
0.0
 10
561.9603338625777
 20
-925.4035991382414
 30
0.0
 10
562.0517875415862
 20
-925.8959640627494
 30
0.0
 10
562.7750001751192
 20
-926.4900807293835
 30
0.0
 10
563.405577555216
 20
-926.5739593621959
 30
0.0
 10
563.7902870756099
 20
-926.6251329526526
 30
0.0
  0
SPLINE
  5
292
330
1F
100
AcDbEntity
  8
0
  6
Continuous
 62
     7
370
    25
100
AcDbSpline
210
0.0
220
0.0
230
1.0
 70
     8
 71
     3
 72
    11
 73
     7
 74
     0
 42
0.000000001
 43
0.00000001
 40
0.0
 40
0.0
 40
0.0
 40
0.0
 40
0.2804697382137512
 40
0.5606522994232943
 40
0.7805859429472158
 40
1.0
 40
1.0
 40
1.0
 40
1.0
 10
563.7902870756099
 20
-923.6635569676978
 30
0.0
 10
563.5420042798454
 20
-923.6869624443716
 30
0.0
 10
563.0456929086469
 20
-923.733749432515
 30
0.0
 10
562.4281388380521
 20
-924.0734478849482
 30
0.0
 10
561.9926815787761
 20
-924.5710791884553
 30
0.0
 10
561.9407309126289
 20
-924.9627687069647
 30
0.0
 10
561.9147862988049
 20
-925.1583818540198
 30
0.0
  0
SPLINE
  5
293
330
1F
100
AcDbEntity
  8
0
  6
Continuous
 62
     7
370
    25
100
AcDbSpline
210
0.0
220
0.0
230
1.0
 70
     8
 71
     3
 72
    11
 73
     7
 74
     0
 42
0.000000001
 43
0.00000001
 40
0.0
 40
0.0
 40
0.0
 40
0.0
 40
0.2806662996279577
 40
0.5607793842668607
 40
0.7806453083919185
 40
1.0
 40
1.0
 40
1.0
 40
1.0
 10
563.7902870756099
 20
-926.6251329526526
 30
0.0
 10
564.0401847990566
 20
-926.6047638119358
 30
0.0
 10
564.5394876782049
 20
-926.5640656796536
 30
0.0
 10
565.1668535509705
 20
-926.2328817160173
 30
0.0
 10
565.6045565287392
 20
-925.7320092033475
 30
0.0
 10
565.6575508004275
 20
-925.3386697883338
 30
0.0
 10
565.6840170948291
 20
-925.1422289952857
 30
0.0
  0
SPLINE
  5
294
330
1F
100
AcDbEntity
  8
0
  6
Continuous
 62
     7
370
    25
100
AcDbSpline
210
0.0
220
0.0
230
1.0
 70
     8
 71
     3
 72
    11
 73
     7
 74
     0
 42
0.000000001
 43
0.00000001
 40
0.0
 40
0.0
 40
0.0
 40
0.0
 40
0.1868335966088965
 40
0.3739172088892606
 40
0.5613506104156031
 40
1.0
 40
1.0
 40
1.0
 40
1.0
 10
565.6840170948291
 20
-925.1422289952857
 30
0.0
 10
565.6656496111403
 20
-924.9759358354203
 30
0.0
 10
565.6288900648925
 20
-924.6431269866752
 30
0.0
 10
565.3269210746964
 20
-924.2290825118055
 30
0.0
 10
564.7446793356143
 20
-923.7909740227323
 30
0.0
 10
564.1834785183646
 20
-923.7160503687868
 30
0.0
 10
563.7902870756099
 20
-923.6635569676978
 30
0.0
  0
SPLINE
  5
295
330
1F
100
AcDbEntity
  8
0
  6
Continuous
 62
     7
370
    25
100
AcDbSpline
210
0.0
220
0.0
230
1.0
 70
     8
 71
     3
 72
     9
 73
     5
 74
     0
 42
0.000000001
 43
0.00000001
 40
0.0
 40
0.0
 40
0.0
 40
0.0
 40
0.5599791285896165
 40
1.0
 40
1.0
 40
1.0
 40
1.0
 10
547.972979557746
 20
-924.8302582845313
 30
0.0
 10
547.8545968018256
 20
-924.8359746889569
 30
0.0
 10
547.6431911442279
 20
-924.8461829344677
 30
0.0
 10
547.450566426615
 20
-924.9324771521713
 30
0.0
 10
547.3658075305158
 20
-924.970448409043
 30
0.0
  0
SPLINE
  5
296
330
1F
100
AcDbEntity
  8
0
  6
Continuous
 62
     7
370
    25
100
AcDbSpline
210
0.0
220
0.0
230
1.0
 70
     8
 71
     3
 72
    10
 73
     6
 74
     0
 42
0.000000001
 43
0.00000001
 40
0.0
 40
0.0
 40
0.0
 40
0.0
 40
0.2788303012820763
 40
0.5595663570846034
 40
1.0
 40
1.0
 40
1.0
 40
1.0
 10
548.8570943223768
 20
-925.2789620504004
 30
0.0
 10
548.8042240369913
 20
-925.1961426343793
 30
0.0
 10
548.6981221074118
 20
-925.0299377466546
 30
0.0
 10
548.3762707163854
 20
-924.8660893754017
 30
0.0
 10
548.1258914750838
 20
-924.8438440046441
 30
0.0
 10
547.972979557746
 20
-924.8302582845313
 30
0.0
  0
LINE
  5
297
330
1F
100
AcDbEntity
  8
0
  6
Continuous
 62
     7
370
    25
100
AcDbLine
 10
547.0622215169
 20
-925.2789620504
 30
0.0
 11
548.8570943224
 21
-925.2789620504
 31
0.0
  0
SPLINE
  5
298
330
1F
100
AcDbEntity
  8
0
  6
Continuous
 62
     7
370
    25
100
AcDbSpline
210
0.0
220
0.0
230
1.0
 70
     8
 71
     3
 72
     9
 73
     5
 74
     0
 42
0.000000001
 43
0.00000001
 40
0.0
 40
0.0
 40
0.0
 40
0.0
 40
0.5591785508920427
 40
1.0
 40
1.0
 40
1.0
 40
1.0
 10
547.3658075305158
 20
-924.970448409043
 30
0.0
 10
547.2987432978138
 20
-925.0179425174459
 30
0.0
 10
547.1788098121768
 20
-925.102878014931
 30
0.0
 10
547.0978918779329
 20
-925.2250888798362
 30
0.0
 10
547.0622215169006
 20
-925.2789620504004
 30
0.0
  0
SPLINE
  5
299
330
1F
100
AcDbEntity
  8
0
  6
Continuous
 62
     7
370
    25
100
AcDbSpline
210
0.0
220
0.0
230
1.0
 70
     8
 71
     3
 72
    10
 73
     6
 74
     0
 42
0.000000001
 43
0.00000001
 40
0.0
 40
0.0
 40
0.0
 40
0.0
 40
0.2796981817537554
 40
0.5601911165408311
 40
0.9999999999999999
 40
0.9999999999999999
 40
0.9999999999999999
 40
0.9999999999999999
 10
543.0686320858532
 20
-925.6085161313636
 30
0.0
 10
543.0866010478571
 20
-925.7332476908181
 30
0.0
 10
543.1225900300699
 20
-925.983065230284
 30
0.0
 10
543.4785198900498
 20
-926.296300625161
 30
0.0
 10
543.798212208444
 20
-926.3333045538506
 30
0.0
 10
543.9934130507046
 20
-926.3558987722022
 30
0.0
  0
SPLINE
  5
29A
330
1F
100
AcDbEntity
  8
0
  6
Continuous
 62
     7
370
    25
100
AcDbSpline
210
0.0
220
0.0
230
1.0
 70
     8
 71
     3
 72
    11
 73
     7
 74
     0
 42
0.000000001
 43
0.00000001
 40
0.0
 40
0.0
 40
0.0
 40
0.0
 40
0.2807540376780409
 40
0.5606852523499214
 40
0.7803236396178419
 40
1.0
 40
1.0
 40
1.0
 40
1.0
 10
543.9934130507046
 20
-924.8751405820472
 30
0.0
 10
543.8697647314373
 20
-924.8834487814333
 30
0.0
 10
543.622830476584
 20
-924.9000408308575
 30
0.0
 10
543.3133087894487
 20
-925.0653403069649
 30
0.0
 10
543.1004558530924
 20
-925.3160093858007
 30
0.0
 10
543.0792406195277
 20
-925.5110082644601
 30
0.0
 10
543.0686320858532
 20
-925.6085161313636
 30
0.0
  0
SPLINE
  5
29B
330
1F
100
AcDbEntity
  8
0
  6
Continuous
 62
     7
370
    25
100
AcDbSpline
210
0.0
220
0.0
230
1.0
 70
     8
 71
     3
 72
    10
 73
     6
 74
     0
 42
0.000000001
 43
0.00000001
 40
0.0
 40
0.0
 40
0.0
 40
0.0
 40
0.2795130010364384
 40
0.5602434338804708
 40
0.9999999999999999
 40
0.9999999999999999
 40
0.9999999999999999
 40
0.9999999999999999
 10
544.9083760129744
 20
-925.6106022939307
 30
0.0
 10
544.8894235902735
 20
-925.48806776587
 30
0.0
 10
544.8514361967178
 20
-925.2424650049421
 30
0.0
 10
544.5002931260955
 20
-924.9354524475872
 30
0.0
 10
544.1855311956325
 20
-924.8980000399096
 30
0.0
 10
543.9934130507046
 20
-924.8751405820472
 30
0.0
  0
SPLINE
  5
29C
330
1F
100
AcDbEntity
  8
0
  6
Continuous
 62
     7
370
    25
100
AcDbSpline
210
0.0
220
0.0
230
1.0
 70
     8
 71
     3
 72
    11
 73
     7
 74
     0
 42
0.000000001
 43
0.00000001
 40
0.0
 40
0.0
 40
0.0
 40
0.0
 40
0.2805834233338835
 40
0.560468225909734
 40
0.7802361577675103
 40
0.9999999999999999
 40
0.9999999999999999
 40
0.9999999999999999
 40
0.9999999999999999
 10
543.9934130507046
 20
-926.3558987722022
 30
0.0
 10
544.1167684339032
 20
-926.3465211233163
 30
0.0
 10
544.36317205945
 20
-926.3277891748222
 30
0.0
 10
544.666725824571
 20
-926.1533857641845
 30
0.0
 10
544.8763451507593
 20
-925.9023336474557
 30
0.0
 10
544.8976991251321
 20
-925.7078454752335
 30
0.0
 10
544.9083760129744
 20
-925.6106022939307
 30
0.0
  0
SPLINE
  5
29D
330
1F
100
AcDbEntity
  8
0
  6
Continuous
 62
     7
370
    25
100
AcDbSpline
210
0.0
220
0.0
230
1.0
 70
     8
 71
     3
 72
     9
 73
     5
 74
     0
 42
0.000000001
 43
0.00000001
 40
0.0
 40
0.0
 40
0.0
 40
0.0
 40
0.5599791285896165
 40
1.0
 40
1.0
 40
1.0
 40
1.0
 10
539.9409286426836
 20
-924.8302582845313
 30
0.0
 10
539.8225458867631
 20
-924.8359746889569
 30
0.0
 10
539.6111402291655
 20
-924.8461829344677
 30
0.0
 10
539.4185155115525
 20
-924.9324771521713
 30
0.0
 10
539.3337566154534
 20
-924.970448409043
 30
0.0
  0
LINE
  5
29E
330
1F
100
AcDbEntity
  8
0
  6
Continuous
 62
     7
370
    25
100
AcDbLine
 10
539.0301715332
 20
-925.2789620504
 30
0.0
 11
540.825042476
 21
-925.2789620504
 31
0.0
  0
SPLINE
  5
29F
330
1F
100
AcDbEntity
  8
0
  6
Continuous
 62
     7
370
    25
100
AcDbSpline
210
0.0
220
0.0
230
1.0
 70
     8
 71
     3
 72
    10
 73
     6
 74
     0
 42
0.000000001
 43
0.00000001
 40
0.0
 40
0.0
 40
0.0
 40
0.0
 40
0.2788299357096158
 40
0.5595669547158306
 40
1.0
 40
1.0
 40
1.0
 40
1.0
 10
540.8250424759918
 20
-925.2789620504004
 30
0.0
 10
540.7721725487365
 20
-925.1961425820859
 30
0.0
 10
540.6660710854379
 20
-925.0299371939952
 30
0.0
 10
540.3442192125143
 20
-924.86608986634
 30
0.0
 10
540.0938401598282
 20
-924.8438441750678
 30
0.0
 10
539.9409286426836
 20
-924.8302582845313
 30
0.0
  0
SPLINE
  5
2A0
330
1F
100
AcDbEntity
  8
0
  6
Continuous
 62
     7
370
    25
100
AcDbSpline
210
0.0
220
0.0
230
1.0
 70
     8
 71
     3
 72
     9
 73
     5
 74
     0
 42
0.000000001
 43
0.00000001
 40
0.0
 40
0.0
 40
0.0
 40
0.0
 40
0.5591792625925877
 40
1.0
 40
1.0
 40
1.0
 40
1.0
 10
539.3337566154534
 20
-924.970448409043
 30
0.0
 10
539.2666923065891
 20
-925.0179424598083
 30
0.0
 10
539.1467588373948
 20
-925.1028777461154
 30
0.0
 10
539.0658415510127
 20
-925.2250888579582
 30
0.0
 10
539.0301715331608
 20
-925.2789620504004
 30
0.0
  0
SPLINE
  5
2A1
330
1F
100
AcDbEntity
  8
0
  6
Continuous
 62
     7
370
    25
100
AcDbSpline
210
0.0
220
0.0
230
1.0
 70
     8
 71
     3
 72
    11
 73
     7
 74
     0
 42
0.000000001
 43
0.00000001
 40
0.0
 40
0.0
 40
0.0
 40
0.0
 40
0.1868336151864411
 40
0.3739170486086393
 40
0.5613506094584486
 40
1.0
 40
1.0
 40
1.0
 40
1.0
 10
571.068632018798
 20
-925.1422289952857
 30
0.0
 10
571.0502644672598
 20
-924.9759358857325
 30
0.0
 10
571.0135048046344
 20
-924.6431273134311
 30
0.0
 10
570.7115369954047
 20
-924.2290820788021
 30
0.0
 10
570.129294564557
 20
-923.7909743919436
 30
0.0
 10
569.5680938515642
 20
-923.7160505130598
 30
0.0
 10
569.1749025816554
 20
-923.6635569676978
 30
0.0
  0
SPLINE
  5
2A2
330
1F
100
AcDbEntity
  8
0
  6
Continuous
 62
     7
370
    25
100
AcDbSpline
210
0.0
220
0.0
230
1.0
 70
     8
 71
     3
 72
    11
 73
     7
 74
     0
 42
0.000000001
 43
0.00000001
 40
0.0
 40
0.0
 40
0.0
 40
0.0
 40
0.2806663252424257
 40
0.5607794741123039
 40
0.7806453083450349
 40
1.0
 40
1.0
 40
1.0
 40
1.0
 10
569.1749025816554
 20
-926.6251329526526
 30
0.0
 10
569.4248002905932
 20
-926.6047637948288
 30
0.0
 10
569.9241031751802
 20
-926.5640656255606
 30
0.0
 10
570.5514691875219
 20
-926.2328819108628
 30
0.0
 10
570.9891716682255
 20
-925.7320090637326
 30
0.0
 10
571.0421657925654
 20
-925.3386697686584
 30
0.0
 10
571.068632018798
 20
-925.1422289952857
 30
0.0
  0
SPLINE
  5
2A3
330
1F
100
AcDbEntity
  8
0
  6
Continuous
 62
     7
370
    25
100
AcDbSpline
210
0.0
220
0.0
230
1.0
 70
     8
 71
     3
 72
    10
 73
     6
 74
     0
 42
0.000000001
 43
0.00000001
 40
0.0
 40
0.0
 40
0.0
 40
0.0
 40
0.278948549353574
 40
0.5600930676238524
 40
1.0
 40
1.0
 40
1.0
 40
1.0
 10
567.2994019212657
 20
-925.1583818540198
 30
0.0
 10
567.3449493192514
 20
-925.4035991499118
 30
0.0
 10
567.4364026783716
 20
-925.8959641677934
 30
0.0
 10
568.1596156010988
 20
-926.4900807126063
 30
0.0
 10
568.7901930282128
 20
-926.5739593554779
 30
0.0
 10
569.1749025816554
 20
-926.6251329526526
 30
0.0
  0
SPLINE
  5
2A4
330
1F
100
AcDbEntity
  8
0
  6
Continuous
 62
     7
370
    25
100
AcDbSpline
210
0.0
220
0.0
230
1.0
 70
     8
 71
     3
 72
    11
 73
     7
 74
     0
 42
0.000000001
 43
0.00000001
 40
0.0
 40
0.0
 40
0.0
 40
0.0
 40
0.2804698202458977
 40
0.5606522812815151
 40
0.7805859432607103
 40
1.0
 40
1.0
 40
1.0
 40
1.0
 10
569.1749025816554
 20
-923.6635569676978
 30
0.0
 10
568.926619703783
 20
-923.6869624142779
 30
0.0
 10
568.4303083296742
 20
-923.7337493270667
 30
0.0
 10
567.8127544240617
 20
-924.0734480096097
 30
0.0
 10
567.377297118963
 20
-924.5710791539935
 30
0.0
 10
567.3253465069475
 20
-924.9627687010596
 30
0.0
 10
567.2994019212657
 20
-925.1583818540198
 30
0.0
  0
SPLINE
  5
2A5
330
1F
100
AcDbEntity
  8
0
  6
Continuous
 62
     7
370
    25
100
AcDbSpline
210
0.0
220
0.0
230
1.0
 70
     8
 71
     3
 72
    11
 73
     7
 74
     0
 42
0.000000001
 43
0.00000001
 40
0.0
 40
0.0
 40
0.0
 40
0.0
 40
0.2801706029307979
 40
0.5595236811031221
 40
0.7796155806961831
 40
1.0
 40
1.0
 40
1.0
 40
1.0
 10
557.677606654399
 20
-935.6120232686621
 30
0.0
 10
557.6863962949827
 20
-935.7190307662405
 30
0.0
 10
557.7039499283885
 20
-935.9327335185076
 30
0.0
 10
557.8799946324788
 20
-936.1854949147529
 30
0.0
 10
558.1176662378145
 20
-936.3346818351929
 30
0.0
 10
558.2855944069403
 20
-936.3488169729949
 30
0.0
 10
558.3696142519349
 20
-936.355889235459
 30
0.0
  0
SPLINE
  5
2A6
330
1F
100
AcDbEntity
  8
0
  6
Continuous
 62
     7
370
    25
100
AcDbSpline
210
0.0
220
0.0
230
1.0
 70
     8
 71
     3
 72
    11
 73
     7
 74
     0
 42
0.000000001
 43
0.00000001
 40
0.0
 40
0.0
 40
0.0
 40
0.0
 40
0.2795308198030813
 40
0.5589917624826599
 40
0.779282909077245
 40
1.0
 40
1.0
 40
1.0
 40
1.0
 10
558.3696142519349
 20
-936.355889235459
 30
0.0
 10
558.4769657844456
 20
-936.3435663258733
 30
0.0
 10
558.6916420137276
 20
-936.3189235871832
 30
0.0
 10
558.9245255983636
 20
-936.1121865869918
 30
0.0
 10
559.05178201556
 20
-935.8644468704657
 30
0.0
 10
559.0630119764977
 20
-935.6962186299032
 30
0.0
 10
559.0686323801511
 20
-935.6120232686621
 30
0.0
  0
SPLINE
  5
2A7
330
1F
100
AcDbEntity
  8
0
  6
Continuous
 62
     7
370
    25
100
AcDbSpline
210
0.0
220
0.0
230
1.0
 70
     8
 71
     3
 72
    11
 73
     7
 74
     0
 42
0.000000001
 43
0.00000001
 40
0.0
 40
0.0
 40
0.0
 40
0.0
 40
0.2802051072072561
 40
0.5594830154694135
 40
0.7795210162408124
 40
1.0
 40
1.0
 40
1.0
 40
1.0
 10
559.0686323801511
 20
-935.6120232686621
 30
0.0
 10
559.0595869548911
 20
-935.5050992247246
 30
0.0
 10
559.0415260356913
 20
-935.2916049486046
 30
0.0
 10
558.8614769475703
 20
-935.0420421386582
 30
0.0
 10
558.6233211185831
 20
-934.8953398418812
 30
0.0
 10
558.4556414212002
 20
-934.8818718049245
 30
0.0
 10
558.3717176439696
 20
-934.875131045304
 30
0.0
  0
SPLINE
  5
2A8
330
1F
100
AcDbEntity
  8
0
  6
Continuous
 62
     7
370
    25
100
AcDbSpline
210
0.0
220
0.0
230
1.0
 70
     8
 71
     3
 72
    11
 73
     7
 74
     0
 42
0.000000001
 43
0.00000001
 40
0.0
 40
0.0
 40
0.0
 40
0.0
 40
0.2794541381707682
 40
0.5588801681854138
 40
0.7792319554638591
 40
1.0
 40
1.0
 40
1.0
 40
1.0
 10
558.3717176439696
 20
-934.875131045304
 30
0.0
 10
558.2654141794173
 20
-934.8875363319829
 30
0.0
 10
558.052817942566
 20
-934.9123456575882
 30
0.0
 10
557.8213559683902
 20
-935.1163283740226
 30
0.0
 10
557.6949359448754
 20
-935.3618365576334
 30
0.0
 10
557.6833867173195
 20
-935.5285752513523
 30
0.0
 10
557.677606654399
 20
-935.6120232686621
 30
0.0
  0
SPLINE
  5
2A9
330
1F
100
AcDbEntity
  8
0
  6
Continuous
 62
     7
370
    25
100
AcDbSpline
210
0.0
220
0.0
230
1.0
 70
     8
 71
     3
 72
    11
 73
     7
 74
     0
 42
0.000000001
 43
0.00000001
 40
0.0
 40
0.0
 40
0.0
 40
0.0
 40
0.2795311779288308
 40
0.558991921075764
 40
0.7792829425400459
 40
0.9999999999999999
 40
0.9999999999999999
 40
0.9999999999999999
 40
0.9999999999999999
 10
555.273460292303
 20
-936.355889235459
 30
0.0
 10
555.3808119945996
 20
-936.3435663683265
 30
0.0
 10
555.595488349281
 20
-936.3189237391128
 30
0.0
 10
555.8283719415073
 20
-936.1121865751795
 30
0.0
 10
555.9556280055721
 20
-935.8644468122332
 30
0.0
 10
555.9668579992905
 20
-935.6962186221513
 30
0.0
 10
555.9724784205192
 20
-935.6120232686621
 30
0.0
  0
SPLINE
  5
2AA
330
1F
100
AcDbEntity
  8
0
  6
Continuous
 62
     7
370
    25
100
AcDbSpline
210
0.0
220
0.0
230
1.0
 70
     8
 71
     3
 72
    11
 73
     7
 74
     0
 42
0.000000001
 43
0.00000001
 40
0.0
 40
0.0
 40
0.0
 40
0.0
 40
0.2794537575518961
 40
0.5588804463934571
 40
0.7792318807118874
 40
1.0
 40
1.0
 40
1.0
 40
1.0
 10
555.2755636843377
 20
-934.875131045304
 30
0.0
 10
555.1692604722491
 20
-934.8875364443824
 30
0.0
 10
554.9566643449128
 20
-934.9123460409157
 30
0.0
 10
554.7252012756187
 20
-935.1163277636584
 30
0.0
 10
554.5987828031009
 20
-935.3618368768807
 30
0.0
 10
554.5872330342123
 20
-935.5285753039287
 30
0.0
 10
554.5814526947671
 20
-935.6120232686621
 30
0.0
  0
SPLINE
  5
2AB
330
1F
100
AcDbEntity
  8
0
  6
Continuous
 62
     7
370
    25
100
AcDbSpline
210
0.0
220
0.0
230
1.0
 70
     8
 71
     3
 72
    11
 73
     7
 74
     0
 42
0.000000001
 43
0.00000001
 40
0.0
 40
0.0
 40
0.0
 40
0.0
 40
0.2801707178045398
 40
0.5595236096652957
 40
0.779615544953549
 40
1.0
 40
1.0
 40
1.0
 40
1.0
 10
554.5814526947671
 20
-935.6120232686621
 30
0.0
 10
554.5902425612979
 20
-935.7190307364224
 30
0.0
 10
554.6077966365002
 20
-935.9327333142345
 30
0.0
 10
554.7838406284425
 20
-936.1854950335941
 30
0.0
 10
555.0215123053965
 20
-936.3346818192447
 30
0.0
 10
555.1894404563836
 20
-936.3488169676767
 30
0.0
 10
555.273460292303
 20
-936.355889235459
 30
0.0
  0
SPLINE
  5
2AC
330
1F
100
AcDbEntity
  8
0
  6
Continuous
 62
     7
370
    25
100
AcDbSpline
210
0.0
220
0.0
230
1.0
 70
     8
 71
     3
 72
    11
 73
     7
 74
     0
 42
0.000000001
 43
0.00000001
 40
0.0
 40
0.0
 40
0.0
 40
0.0
 40
0.280205090696282
 40
0.5594828642977192
 40
0.7795210292324485
 40
1.0
 40
1.0
 40
1.0
 40
1.0
 10
555.9724784205192
 20
-935.6120232686621
 30
0.0
 10
555.963432976997
 20
-935.5050992402417
 30
0.0
 10
555.9453720251488
 20
-935.2916050402108
 30
0.0
 10
555.7653232096613
 20
-935.0420419858666
 30
0.0
 10
555.5271671927549
 20
-934.8953398969461
 30
0.0
 10
555.3594874503543
 20
-934.8818718214852
 30
0.0
 10
555.2755636843377
 20
-934.875131045304
 30
0.0
  0
SPLINE
  5
2AD
330
1F
100
AcDbEntity
  8
0
  6
Continuous
 62
     7
370
    25
100
AcDbSpline
210
0.0
220
0.0
230
1.0
 70
     8
 71
     3
 72
    11
 73
     7
 74
     0
 42
0.000000001
 43
0.00000001
 40
0.0
 40
0.0
 40
0.0
 40
0.0
 40
0.2796894636208077
 40
0.5591453907881944
 40
0.7794699007512308
 40
1.0
 40
1.0
 40
1.0
 40
1.0
 10
566.7192736389571
 20
-934.875131045304
 30
0.0
 10
566.6146866623952
 20
-934.8861760979546
 30
0.0
 10
566.4056000378081
 20
-934.9082569808053
 30
0.0
 10
566.1734987966096
 20
-935.1021213244352
 30
0.0
 10
566.0417357539765
 20
-935.34006953851
 30
0.0
 10
566.0297542978673
 20
-935.5040214559424
 30
0.0
 10
566.0237607760811
 20
-935.5860356435401
 30
0.0
  0
SPLINE
  5
2AE
330
1F
100
AcDbEntity
  8
0
  6
Continuous
 62
     7
370
    25
100
AcDbSpline
210
0.0
220
0.0
230
1.0
 70
     8
 71
     3
 72
    11
 73
     7
 74
     0
 42
0.000000001
 43
0.00000001
 40
0.0
 40
0.0
 40
0.0
 40
0.0
 40
0.2796378909149484
 40
0.5589396729488448
 40
0.7792640236658647
 40
1.0
 40
1.0
 40
1.0
 40
1.0
 10
566.7311927052671
 20
-936.3110069379431
 30
0.0
 10
566.8358051984802
 20
-936.299655759285
 30
0.0
 10
567.0449044466244
 20
-936.2769670454413
 30
0.0
 10
567.2761668448759
 20
-936.0797744170354
 30
0.0
 10
567.3985983566689
 20
-935.8369393298061
 30
0.0
 10
567.4093869420261
 20
-935.6730193228399
 30
0.0
 10
567.4147862690025
 20
-935.5909828290564
 30
0.0
  0
SPLINE
  5
2AF
330
1F
100
AcDbEntity
  8
0
  6
Continuous
 62
     7
370
    25
100
AcDbSpline
210
0.0
220
0.0
230
1.0
 70
     8
 71
     3
 72
    11
 73
     7
 74
     0
 42
0.000000001
 43
0.00000001
 40
0.0
 40
0.0
 40
0.0
 40
0.0
 40
0.2801197894984969
 40
0.559386476869906
 40
0.779485509684407
 40
1.0
 40
1.0
 40
1.0
 40
1.0
 10
567.4147862690025
 20
-935.5909828290564
 30
0.0
 10
567.4056262654486
 20
-935.4856079190303
 30
0.0
 10
567.3873341550436
 20
-935.2751790172543
 30
0.0
 10
567.2048760490467
 20
-935.0318657286355
 30
0.0
 10
566.9669698508152
 20
-934.8937794194306
 30
0.0
 10
566.8018909275912
 20
-934.8813510762693
 30
0.0
 10
566.7192736389571
 20
-934.875131045304
 30
0.0
  0
SPLINE
  5
2B0
330
1F
100
AcDbEntity
  8
0
  6
Continuous
 62
     7
370
    25
100
AcDbSpline
210
0.0
220
0.0
230
1.0
 70
     8
 71
     3
 72
    11
 73
     7
 74
     0
 42
0.000000001
 43
0.00000001
 40
0.0
 40
0.0
 40
0.0
 40
0.0
 40
0.2799604785936896
 40
0.5593364450366645
 40
0.7794991434715536
 40
1.0
 40
1.0
 40
1.0
 40
1.0
 10
566.0237607760811
 20
-935.5860356435401
 30
0.0
 10
566.0338452509359
 20
-935.6925833276626
 30
0.0
 10
566.0539931458951
 20
-935.9054562415944
 30
0.0
 10
566.2411922145693
 20
-936.1491603720694
 30
0.0
 10
566.4806248402463
 20
-936.2904276032637
 30
0.0
 10
566.6476273652469
 20
-936.3041436512254
 30
0.0
 10
566.7311927052671
 20
-936.3110069379431
 30
0.0
  0
SPLINE
  5
2B1
330
1F
100
AcDbEntity
  8
0
  6
Continuous
 62
     7
370
    25
100
AcDbSpline
210
0.0
220
0.0
230
1.0
 70
     8
 71
     3
 72
    11
 73
     7
 74
     0
 42
0.000000001
 43
0.00000001
 40
0.0
 40
0.0
 40
0.0
 40
0.0
 40
0.2796379094000007
 40
0.5591640535583043
 40
0.7795190448484369
 40
0.9999999999999999
 40
0.9999999999999999
 40
0.9999999999999999
 40
0.9999999999999999
 10
577.7352988468939
 20
-935.6245998487097
 30
0.0
 10
577.7539781805509
 20
-935.7724786738272
 30
0.0
 10
577.7913293821382
 20
-936.0681772200851
 30
0.0
 10
578.0584882121369
 20
-936.4033293949091
 30
0.0
 10
578.3958306912394
 20
-936.5939019858655
 30
0.0
 10
578.628530723328
 20
-936.6147142902682
 30
0.0
 10
578.744913985067
 20
-936.6251234159095
 30
0.0
  0
SPLINE
  5
2B2
330
1F
100
AcDbEntity
  8
0
  6
Continuous
 62
     7
370
    25
100
AcDbSpline
210
0.0
220
0.0
230
1.0
 70
     8
 71
     3
 72
    11
 73
     7
 74
     0
 42
0.000000001
 43
0.00000001
 40
0.0
 40
0.0
 40
0.0
 40
0.0
 40
0.2795631662552815
 40
0.5593964159484951
 40
0.7796456718841829
 40
0.9999999999999999
 40
0.9999999999999999
 40
0.9999999999999999
 40
0.9999999999999999
 10
579.7545291232401
 20
-935.6245998487097
 30
0.0
 10
579.7373189041409
 20
-935.4750066561977
 30
0.0
 10
579.7028818393063
 20
-935.1756757505482
 30
0.0
 10
579.4264754677623
 20
-934.8463901558885
 30
0.0
 10
579.0973040484442
 20
-934.6382023111476
 30
0.0
 10
578.8623960126223
 20
-934.6166670588119
 30
0.0
 10
578.744913985067
 20
-934.6058968648535
 30
0.0
  0
SPLINE
  5
2B3
330
1F
100
AcDbEntity
  8
0
  6
Continuous
 62
     7
370
    25
100
AcDbSpline
210
0.0
220
0.0
230
1.0
 70
     8
 71
     3
 72
    11
 73
     7
 74
     0
 42
0.000000001
 43
0.00000001
 40
0.0
 40
0.0
 40
0.0
 40
0.0
 40
0.2797424881414318
 40
0.5591139529698896
 40
0.7796003909601636
 40
1.0
 40
1.0
 40
1.0
 40
1.0
 10
578.744913985067
 20
-936.6251234159095
 30
0.0
 10
578.8932128024027
 20
-936.6082350994124
 30
0.0
 10
579.1896137479015
 20
-936.5744808654438
 30
0.0
 10
579.5248603946809
 20
-936.3076384851213
 30
0.0
 10
579.7204834306509
 20
-935.9735816336406
 30
0.0
 10
579.743182049147
 20
-935.7409118362071
 30
0.0
 10
579.7545291232401
 20
-935.6245998487097
 30
0.0
  0
SPLINE
  5
2B4
330
1F
100
AcDbEntity
  8
0
  6
Continuous
 62
     7
370
    25
100
AcDbSpline
210
0.0
220
0.0
230
1.0
 70
     8
 71
     3
 72
    11
 73
     7
 74
     0
 42
0.000000001
 43
0.00000001
 40
0.0
 40
0.0
 40
0.0
 40
0.0
 40
0.2794891049902284
 40
0.5592681473627383
 40
0.7795626865179724
 40
0.9999999999999999
 40
0.9999999999999999
 40
0.9999999999999999
 40
0.9999999999999999
 10
578.744913985067
 20
-934.6058968648535
 30
0.0
 10
578.5954637522894
 20
-934.6241428663907
 30
0.0
 10
578.2964082495307
 20
-934.660653797566
 30
0.0
 10
577.9690239309344
 20
-934.9399778391036
 30
0.0
 10
577.765697162259
 20
-935.2720740909139
 30
0.0
 10
577.7454338067754
 20
-935.5070658877144
 30
0.0
 10
577.7352988468939
 20
-935.6245998487097
 30
0.0
  0
LINE
  5
2B5
330
1F
100
AcDbEntity
  8
0
  6
Continuous
 62
     7
370
    25
100
AcDbLine
 10
562.9871896625
 20
-831.9978121862
 30
0.0
 11
562.103226034
 21
-832.0294622526
 31
0.0
  0
LINE
  5
2B6
330
1F
100
AcDbEntity
  8
0
  6
Continuous
 62
     7
370
    25
100
AcDbLine
 10
562.103226034
 20
-832.0294622526
 30
0.0
 11
562.0419501891
 21
-831.9315914259
 31
0.0
  0
LINE
  5
2B7
330
1F
100
AcDbEntity
  8
0
  6
Continuous
 62
     7
370
    25
100
AcDbLine
 10
562.0419501891
 20
-831.9315914259
 30
0.0
 11
563.0413099814
 21
-831.895828639
 31
0.0
  0
LINE
  5
2B8
330
1F
100
AcDbEntity
  8
0
  6
Continuous
 62
     7
370
    25
100
AcDbLine
 10
562.9871896625
 20
-831.9978121862
 30
0.0
 11
563.0413099814
 21
-831.895828639
 31
0.0
  0
LINE
  5
2B9
330
1F
100
AcDbEntity
  8
0
  6
Continuous
 62
     7
370
    25
100
AcDbLine
 10
562.103226034
 20
-832.0294622526
 30
0.0
 11
558.1427291716
 21
-839.4939307317
 31
0.0
  0
LINE
  5
2BA
330
1F
100
AcDbEntity
  8
0
  6
Continuous
 62
     7
370
    25
100
AcDbLine
 10
558.1427291716
 20
-839.4939307317
 30
0.0
 11
558.0273331823
 21
-839.4980434522
 31
0.0
  0
LINE
  5
2BB
330
1F
100
AcDbEntity
  8
0
  6
Continuous
 62
     7
370
    25
100
AcDbLine
 10
558.0273331823
 20
-839.4980434522
 30
0.0
 11
562.0419501891
 21
-831.9315914259
 31
0.0
  0
LINE
  5
2BC
330
1F
100
AcDbEntity
  8
0
  6
Continuous
 62
     7
370
    25
100
AcDbLine
 10
567.4713231372
 20
-839.1599659071
 30
0.0
 11
562.9871896625
 21
-831.9978121862
 31
0.0
  0
LINE
  5
2BD
330
1F
100
AcDbEntity
  8
0
  6
Continuous
 62
     7
370
    25
100
AcDbLine
 10
567.0567476871
 20
-839.9413231954
 30
0.0
 11
567.4713231372
 21
-839.1599659071
 31
0.0
  0
LINE
  5
2BE
330
1F
100
AcDbEntity
  8
0
  6
Continuous
 62
     7
370
    25
100
AcDbLine
 10
558.6121176118
 20
-840.2436379537
 30
0.0
 11
567.0567476871
 21
-839.9413231954
 31
0.0
  0
LINE
  5
2BF
330
1F
100
AcDbEntity
  8
0
  6
Continuous
 62
     7
370
    25
100
AcDbLine
 10
558.1427291716
 20
-839.4939307317
 30
0.0
 11
558.6121176118
 21
-840.2436379537
 31
0.0
  0
LINE
  5
2C0
330
1F
100
AcDbEntity
  8
0
  6
Continuous
 62
     7
370
    25
100
AcDbLine
 10
563.0413099814
 20
-831.895828639
 30
0.0
 11
567.5867191265
 21
-839.1557935819
 31
0.0
  0
LINE
  5
2C1
330
1F
100
AcDbEntity
  8
0
  6
Continuous
 62
     7
370
    25
100
AcDbLine
 10
567.5867191265
 20
-839.1557935819
 30
0.0
 11
567.4713231372
 21
-839.1599659071
 31
0.0
  0
LINE
  5
2C2
330
1F
100
AcDbEntity
  8
0
  6
Continuous
 62
     7
370
    25
100
AcDbLine
 10
567.1180235902
 20
-840.0391940221
 30
0.0
 11
558.5579975257
 21
-840.3456215009
 31
0.0
  0
LINE
  5
2C3
330
1F
100
AcDbEntity
  8
0
  6
Continuous
 62
     7
370
    25
100
AcDbLine
 10
558.5579975257
 20
-840.3456215009
 30
0.0
 11
558.6121176118
 21
-840.2436379537
 31
0.0
  0
LINE
  5
2C4
330
1F
100
AcDbEntity
  8
0
  6
Continuous
 62
     7
370
    25
100
AcDbLine
 10
567.1180235902
 20
-840.0391940221
 30
0.0
 11
567.0567476871
 21
-839.9413231954
 31
0.0
  0
LINE
  5
2C5
330
1F
100
AcDbEntity
  8
0
  6
Continuous
 62
     7
370
    25
100
AcDbLine
 10
558.5579975257
 20
-840.3456215009
 30
0.0
 11
558.0273331823
 21
-839.4980434522
 31
0.0
  0
LINE
  5
2C6
330
1F
100
AcDbEntity
  8
0
  6
Continuous
 62
     7
370
    25
100
AcDbLine
 10
567.5867191265
 20
-839.1557935819
 30
0.0
 11
567.1180235902
 21
-840.0391940221
 31
0.0
  0
CIRCLE
  5
2C7
330
1F
100
AcDbEntity
  8
0
  6
Continuous
 62
     7
370
    25
100
AcDbCircle
 10
562.7288888888
 20
-837.144352828
 30
0.0
 40
7.90000000000006
  0
CIRCLE
  5
2C8
330
1F
100
AcDbEntity
  8
0
  6
Continuous
 62
     7
370
    25
100
AcDbCircle
 10
562.7288888888
 20
-837.144352828
 30
0.0
 40
8.00000000000006
  0
CIRCLE
  5
2C9
330
1F
100
AcDbEntity
  8
0
  6
Continuous
 62
     7
370
    25
100
AcDbCircle
 10
562.7288888888
 20
-1136.644352828
 30
0.0
 40
4.999999999999831
  0
LINE
  5
2CA
330
1F
100
AcDbEntity
  8
0
  6
Continuous
 62
     7
370
    25
100
AcDbLine
 10
562.0169607671
 20
-1134.4473961935
 30
0.0
 11
560.4703296656
 21
-1136.1624602422
 31
0.0
  0
LINE
  5
2CB
330
1F
100
AcDbEntity
  8
0
  6
Continuous
 62
     7
370
    25
100
AcDbLine
 10
560.4703296656
 20
-1136.1624602422
 30
0.0
 11
561.182257671
 21
-1138.3593682394
 31
0.0
  0
LINE
  5
2CC
330
1F
100
AcDbEntity
  8
0
  6
Continuous
 62
     7
370
    25
100
AcDbLine
 10
561.182257671
 20
-1138.3593682394
 30
0.0
 11
563.4408170106
 21
-1138.8412717924
 31
0.0
  0
LINE
  5
2CD
330
1F
100
AcDbEntity
  8
0
  6
Continuous
 62
     7
370
    25
100
AcDbLine
 10
563.4408170106
 20
-1138.8412717924
 30
0.0
 11
564.9874481122
 21
-1137.1262673483
 31
0.0
  0
LINE
  5
2CE
330
1F
100
AcDbEntity
  8
0
  6
Continuous
 62
     7
370
    25
100
AcDbLine
 10
564.9874481122
 20
-1137.1262673483
 30
0.0
 11
564.2755201068
 21
-1134.9293593511
 31
0.0
  0
LINE
  5
2CF
330
1F
100
AcDbEntity
  8
0
  6
Continuous
 62
     7
370
    25
100
AcDbLine
 10
564.2755201068
 20
-1134.9293593511
 30
0.0
 11
562.0169607671
 21
-1134.4473961935
 31
0.0
  0
LINE
  5
2D0
330
1F
100
AcDbEntity
  8
0
  6
Continuous
 62
     7
370
    25
100
AcDbLine
 10
507.7288891869
 20
2084.1056700602
 30
0.0
 11
507.7288891869
 21
2081.1056490794
 31
0.0
  0
LINE
  5
2D1
330
1F
100
AcDbEntity
  8
0
  6
Continuous
 62
     7
370
    25
100
AcDbLine
 10
507.7288891869
 20
2081.1056490794
 30
0.0
 11
502.72889023
 21
2081.1056490794
 31
0.0
  0
LINE
  5
2D2
330
1F
100
AcDbEntity
  8
0
  6
Continuous
 62
     7
370
    25
100
AcDbLine
 10
502.72889023
 20
2081.1056490794
 30
0.0
 11
502.72889023
 21
2084.1056700602
 31
0.0
  0
LINE
  5
2D3
330
1F
100
AcDbEntity
  8
0
  6
Continuous
 62
     7
370
    25
100
AcDbLine
 10
502.72889023
 20
2084.1056700602
 30
0.0
 11
507.7288891869
 21
2084.1056700602
 31
0.0
  0
LINE
  5
2D4
330
1F
100
AcDbEntity
  8
0
  6
Continuous
 62
     7
370
    25
100
AcDbLine
 10
622.7288875478
 20
2084.1056700602
 30
0.0
 11
622.7288875478
 21
2081.1056490794
 31
0.0
  0
LINE
  5
2D5
330
1F
100
AcDbEntity
  8
0
  6
Continuous
 62
     7
370
    25
100
AcDbLine
 10
617.7288885909
 20
2081.1056490794
 30
0.0
 11
617.7288885909
 21
2084.1056700602
 31
0.0
  0
LINE
  5
2D6
330
1F
100
AcDbEntity
  8
0
  6
Continuous
 62
     7
370
    25
100
AcDbLine
 10
622.7288875478
 20
2081.1056490794
 30
0.0
 11
617.7288885909
 21
2081.1056490794
 31
0.0
  0
LINE
  5
2D7
330
1F
100
AcDbEntity
  8
0
  6
Continuous
 62
     7
370
    25
100
AcDbLine
 10
617.7288885909
 20
2084.1056700602
 30
0.0
 11
622.7288875478
 21
2084.1056700602
 31
0.0
  0
LINE
  5
2D8
330
1F
100
AcDbEntity
  8
0
  6
Continuous
 62
     7
370
    25
100
AcDbLine
 10
507.7288891869
 20
2081.1056490794
 30
0.0
 11
617.7288885909
 21
2081.1056490794
 31
0.0
  0
LINE
  5
2D9
330
1F
100
AcDbEntity
  8
0
  6
Continuous
 62
     7
370
    25
100
AcDbLine
 10
507.7288891869
 20
2084.1056700602
 30
0.0
 11
617.7288885909
 21
2084.1056700602
 31
0.0
  0
LINE
  5
2DA
330
1F
100
AcDbEntity
  8
0
  6
Continuous
 62
     7
370
    25
100
AcDbLine
 10
668.7288876372
 20
2021.2401743784
 30
0.0
 11
668.7288876372
 21
2021.1057062998
 31
0.0
  0
LINE
  5
2DB
330
1F
100
AcDbEntity
  8
0
  6
Continuous
 62
     7
370
    25
100
AcDbLine
 10
668.7288876372
 20
2021.1057062998
 30
0.0
 11
622.7288875478
 21
2021.1057062998
 31
0.0
  0
LINE
  5
2DC
330
1F
100
AcDbEntity
  8
0
  6
Continuous
 62
     7
370
    25
100
AcDbLine
 10
502.72889023
 20
2021.1057062998
 30
0.0
 11
456.7288901406
 21
2021.1057062998
 31
0.0
  0
LINE
  5
2DD
330
1F
100
AcDbEntity
  8
0
  6
Continuous
 62
     7
370
    25
100
AcDbLine
 10
456.7288901406
 20
2021.2401743784
 30
0.0
 11
456.7288901406
 21
2021.1057062998
 31
0.0
  0
LINE
  5
2DE
330
1F
100
AcDbEntity
  8
0
  6
Continuous
 62
     7
370
    25
100
AcDbLine
 10
668.7288876372
 20
2125.8556242838
 30
0.0
 11
456.7288901406
 21
2125.8556242838
 31
0.0
  0
LINE
  5
2DF
330
1F
100
AcDbEntity
  8
0
  6
Continuous
 62
     7
370
    25
100
AcDbLine
 10
456.7288901406
 20
2126.1057253733
 30
0.0
 11
668.7288876372
 21
2126.1057253733
 31
0.0
  0
LINE
  5
2E0
330
1F
100
AcDbEntity
  8
0
  6
Continuous
 62
     7
370
    25
100
AcDbLine
 10
668.7288876372
 20
2259.6146460429
 30
0.0
 11
648.0824347334
 21
2259.6146460429
 31
0.0
  0
LINE
  5
2E1
330
1F
100
AcDbEntity
  8
0
  6
Continuous
 62
     7
370
    25
100
AcDbLine
 10
478.7752400833
 20
2259.6146460429
 30
0.0
 11
456.7288901406
 21
2259.6146460429
 31
0.0
  0
LINE
  5
2E2
330
1F
100
AcDbEntity
  8
0
  6
Continuous
 62
     7
370
    25
100
AcDbLine
 10
668.7288876372
 20
2259.8995562449
 30
0.0
 11
668.7288876372
 21
2259.6146460429
 31
0.0
  0
LINE
  5
2E3
330
1F
100
AcDbEntity
  8
0
  6
Continuous
 62
     7
370
    25
100
AcDbLine
 10
456.7288901406
 20
2259.8995562449
 30
0.0
 11
456.7288901406
 21
2259.6146460429
 31
0.0
  0
LINE
  5
2E4
330
1F
100
AcDbEntity
  8
0
  6
Continuous
 62
     7
370
    25
100
AcDbLine
 10
668.7288876372
 20
2296.6844435587
 30
0.0
 11
667.2250848013
 21
2296.6844435587
 31
0.0
  0
LINE
  5
2E5
330
1F
100
AcDbEntity
  8
0
  6
Continuous
 62
     7
370
    25
100
AcDbLine
 10
660.2326925593
 20
2296.6844435587
 30
0.0
 11
566.2250824487
 21
2296.6844435587
 31
0.0
  0
LINE
  5
2E6
330
1F
100
AcDbEntity
  8
0
  6
Continuous
 62
     7
370
    25
100
AcDbLine
 10
559.232695329
 20
2296.6844435587
 30
0.0
 11
465.1250835257
 21
2296.6844435587
 31
0.0
  0
LINE
  5
2E7
330
1F
100
AcDbEntity
  8
0
  6
Continuous
 62
     7
370
    25
100
AcDbLine
 10
458.1326987343
 20
2296.6844435587
 30
0.0
 11
456.7288901406
 21
2296.6844435587
 31
0.0
  0
LINE
  5
2E8
330
1F
100
AcDbEntity
  8
0
  6
Continuous
 62
     7
370
    25
100
AcDbLine
 10
668.7288876372
 20
2296.6844435587
 30
0.0
 11
668.7288876372
 21
2295.6995364085
 31
0.0
  0
LINE
  5
2E9
330
1F
100
AcDbEntity
  8
0
  6
Continuous
 62
     7
370
    25
100
AcDbLine
 10
456.7288901406
 20
2296.6844435587
 30
0.0
 11
456.7288901406
 21
2295.6995364085
 31
0.0
  0
LINE
  5
2EA
330
1F
100
AcDbEntity
  8
0
  6
Continuous
 62
     7
370
    25
100
AcDbLine
 10
668.7288876372
 20
2136.0492106333
 30
0.0
 11
456.7288901406
 21
2136.0492106333
 31
0.0
  0
LINE
  5
2EB
330
1F
100
AcDbEntity
  8
0
  6
Continuous
 62
     7
370
    25
100
AcDbLine
 10
668.7288876372
 20
2129.1295882121
 30
0.0
 11
456.7288901406
 21
2129.1295882121
 31
0.0
  0
LINE
  5
2EC
330
1F
100
AcDbEntity
  8
0
  6
Continuous
 62
     7
370
    25
100
AcDbLine
 10
668.7288876372
 20
2136.0492106333
 30
0.0
 11
668.7288876372
 21
2129.1295882121
 31
0.0
  0
LINE
  5
2ED
330
1F
100
AcDbEntity
  8
0
  6
Continuous
 62
     7
370
    25
100
AcDbLine
 10
456.7288901406
 20
2136.0492106333
 30
0.0
 11
456.7288901406
 21
2129.1295882121
 31
0.0
  0
LINE
  5
2EE
330
1F
100
AcDbEntity
  8
0
  6
Continuous
 62
     7
370
    25
100
AcDbLine
 10
668.7288876372
 20
2126.1638995066
 30
0.0
 11
456.7288901406
 21
2126.1638995066
 31
0.0
  0
ARC
  5
2EF
330
1F
100
AcDbEntity
  8
0
  6
Continuous
 62
     7
370
    25
100
AcDbCircle
 10
445.7288888889
 20
-1682.8557479882
 30
0.0
 40
3.000000000000004
100
AcDbArc
 50
144.462322208
 51
180.0
  0
LINE
  5
2F0
330
1F
100
AcDbEntity
  8
0
  6
Continuous
 62
     7
370
    25
100
AcDbLine
 10
491.8315406638
 20
-1613.1506417141
 30
0.0
 11
443.2876851159
 21
-1681.1120337069
 31
0.0
  0
ARC
  5
2F1
330
1F
100
AcDbEntity
  8
0
  6
Continuous
 62
     7
370
    25
100
AcDbCircle
 10
494.2727425748
 20
-1614.894352828
 30
0.0
 40
2.999999999999958
100
AcDbArc
 50
90.0
 51
144.462322208
  0
LINE
  5
2F2
330
1F
100
AcDbEntity
  8
0
  6
Continuous
 62
     7
370
    25
100
AcDbLine
 10
499.7288878756
 20
-1611.8943546161
 30
0.0
 11
494.2727457481
 21
-1611.8943546161
 31
0.0
  0
ARC
  5
2F3
330
1F
100
AcDbEntity
  8
0
  6
Continuous
 62
     7
370
    25
100
AcDbCircle
 10
499.7288888889
 20
-1614.894352828
 30
0.0
 40
3.0
100
AcDbArc
 50
0.0
 51
90.0
  0
ARC
  5
2F4
330
1F
100
AcDbEntity
  8
0
  6
Continuous
 62
     7
370
    25
100
AcDbCircle
 10
499.7288888889
 20
-1680.6517121409
 30
0.0
 40
3.000000000000057
100
AcDbArc
 50
315.0
 51
0.0
  0
LINE
  5
2F5
330
1F
100
AcDbEntity
  8
0
  6
Continuous
 62
     7
370
    25
100
AcDbLine
 10
493.607565363
 20
-1691.0156731455
 30
0.0
 11
501.8502097326
 21
-1682.7730326176
 31
0.0
  0
ARC
  5
2F6
330
1F
100
AcDbEntity
  8
0
  6
Continuous
 62
     7
370
    25
100
AcDbCircle
 10
491.4862482018
 20
-1688.894352828
 30
0.0
 40
2.999999999999944
100
AcDbArc
 50
270.0
 51
315.0
  0
ARC
  5
2F7
330
1F
100
AcDbEntity
  8
0
  6
Continuous
 62
     7
370
    25
100
AcDbCircle
 10
445.7288888889
 20
-1688.894352828
 30
0.0
 40
3.0
100
AcDbArc
 50
180.0
 51
270.0
  0
LINE
  5
2F8
330
1F
100
AcDbEntity
  8
0
  6
Continuous
 62
     7
370
    25
100
AcDbLine
 10
442.7288915711
 20
-1682.8557480321
 30
0.0
 11
442.7288915711
 21
-1688.8943528019
 31
0.0
  0
ARC
  5
2F9
330
1F
100
AcDbEntity
  8
0
  6
Continuous
 62
     7
370
    25
100
AcDbCircle
 10
633.971529576
 20
-1688.894352828
 30
0.0
 40
2.999999999999944
100
AcDbArc
 50
225.0
 51
270.0
  0
LINE
  5
2FA
330
1F
100
AcDbEntity
  8
0
  6
Continuous
 62
     7
370
    25
100
AcDbLine
 10
623.6075680452
 20
-1682.7730326176
 30
0.0
 11
631.8502124148
 21
-1691.0156731455
 31
0.0
  0
ARC
  5
2FB
330
1F
100
AcDbEntity
  8
0
  6
Continuous
 62
     7
370
    25
100
AcDbCircle
 10
625.7288888889
 20
-1680.6517121409
 30
0.0
 40
3.000000000000114
100
AcDbArc
 50
180.0
 51
225.0
  0
ARC
  5
2FC
330
1F
100
AcDbEntity
  8
0
  6
Continuous
 62
     7
370
    25
100
AcDbCircle
 10
625.7288888889
 20
-1614.894352828
 30
0.0
 40
3.000000000000114
100
AcDbArc
 50
90.0
 51
180.0
  0
LINE
  5
2FD
330
1F
100
AcDbEntity
  8
0
  6
Continuous
 62
     7
370
    25
100
AcDbLine
 10
625.7288899022
 20
-1611.8943546161
 30
0.0
 11
631.1850320297
 21
-1611.8943546161
 31
0.0
  0
ARC
  5
2FE
330
1F
100
AcDbEntity
  8
0
  6
Continuous
 62
     7
370
    25
100
AcDbCircle
 10
631.185035203
 20
-1614.894352828
 30
0.0
 40
3.000000000000004
100
AcDbArc
 50
35.537677792
 51
90.0
  0
LINE
  5
2FF
330
1F
100
AcDbEntity
  8
0
  6
Continuous
 62
     7
370
    25
100
AcDbLine
 10
633.626237114
 20
-1613.1506417141
 30
0.0
 11
682.1700926619
 21
-1681.1120337069
 31
0.0
  0
ARC
  5
300
330
1F
100
AcDbEntity
  8
0
  6
Continuous
 62
     7
370
    25
100
AcDbCircle
 10
679.7288888889
 20
-1682.8557479882
 30
0.0
 40
3.000000000000114
100
AcDbArc
 50
0.0
 51
35.537677792
  0
LINE
  5
301
330
1F
100
AcDbEntity
  8
0
  6
Continuous
 62
     7
370
    25
100
AcDbLine
 10
682.7288862067
 20
-1682.8557480321
 30
0.0
 11
682.7288862067
 21
-1688.8943528019
 31
0.0
  0
ARC
  5
302
330
1F
100
AcDbEntity
  8
0
  6
Continuous
 62
     7
370
    25
100
AcDbCircle
 10
679.7288888889
 20
-1688.894352828
 30
0.0
 40
3.000000000000114
100
AcDbArc
 50
270.0
 51
0.0
  0
LINE
  5
303
330
1F
100
AcDbEntity
  8
0
  6
Continuous
 62
     7
370
    25
100
AcDbLine
 10
567.7288887771
 20
-1682.8557480321
 30
0.0
 11
557.7288890006
 21
-1682.8557480321
 31
0.0
  0
LINE
  5
304
330
1F
100
AcDbEntity
  8
0
  6
Continuous
 62
     7
370
    25
100
AcDbLine
 10
557.7288890006
 20
-1681.1120337069
 30
0.0
 11
567.7288887771
 21
-1681.1120337069
 31
0.0
  0
LINE
  5
305
330
1F
100
AcDbEntity
  8
0
  6
Continuous
 62
     7
370
    25
100
AcDbLine
 10
567.7288887771
 20
-1681.1120337069
 30
0.0
 11
567.7288887771
 21
-1682.8557480321
 31
0.0
  0
LINE
  5
306
330
1F
100
AcDbEntity
  8
0
  6
Continuous
 62
     7
370
    25
100
AcDbLine
 10
557.7288890006
 20
-1682.8557480321
 30
0.0
 11
557.7288890006
 21
-1681.1120337069
 31
0.0
  0
LINE
  5
307
330
1F
100
AcDbEntity
  8
0
  6
Continuous
 62
     7
370
    25
100
AcDbLine
 10
557.7288890006
 20
-1688.8943528019
 30
0.0
 11
567.7288887771
 21
-1688.8943528019
 31
0.0
  0
LINE
  5
308
330
1F
100
AcDbEntity
  8
0
  6
Continuous
 62
     7
370
    25
100
AcDbLine
 10
567.7288887771
 20
-1688.8943528019
 30
0.0
 11
567.7288887771
 21
-1691.894352828
 31
0.0
  0
LINE
  5
309
330
1F
100
AcDbEntity
  8
0
  6
Continuous
 62
     7
370
    25
100
AcDbLine
 10
557.7288890006
 20
-1691.894352828
 30
0.0
 11
557.7288890006
 21
-1688.8943528019
 31
0.0
  0
LINE
  5
30A
330
1F
100
AcDbEntity
  8
0
  6
Continuous
 62
     7
370
    25
100
AcDbLine
 10
567.7288887771
 20
-1682.8557480321
 30
0.0
 11
567.7288887771
 21
-1688.8943528019
 31
0.0
  0
LINE
  5
30B
330
1F
100
AcDbEntity
  8
0
  6
Continuous
 62
     7
370
    25
100
AcDbLine
 10
557.7288890006
 20
-1682.8557480321
 30
0.0
 11
557.7288890006
 21
-1688.8943528019
 31
0.0
  0
LINE
  5
30C
330
1F
100
AcDbEntity
  8
0
  6
Continuous
 62
     7
370
    25
100
AcDbLine
 10
567.7288887771
 20
-1613.1506417141
 30
0.0
 11
557.7288890006
 21
-1613.1506417141
 31
0.0
  0
LINE
  5
30D
330
1F
100
AcDbEntity
  8
0
  6
Continuous
 62
     7
370
    25
100
AcDbLine
 10
567.7288887771
 20
-1613.1506417141
 30
0.0
 11
567.7288887771
 21
-1681.1120337069
 31
0.0
  0
LINE
  5
30E
330
1F
100
AcDbEntity
  8
0
  6
Continuous
 62
     7
370
    25
100
AcDbLine
 10
557.7288890006
 20
-1613.1506417141
 30
0.0
 11
557.7288890006
 21
-1681.1120337069
 31
0.0
  0
LINE
  5
30F
330
1F
100
AcDbEntity
  8
0
  6
Continuous
 62
     7
370
    25
100
AcDbLine
 10
557.7288890006
 20
-1611.8943546161
 30
0.0
 11
567.7288887771
 21
-1611.8943546161
 31
0.0
  0
LINE
  5
310
330
1F
100
AcDbEntity
  8
0
  6
Continuous
 62
     7
370
    25
100
AcDbLine
 10
567.7288887771
 20
-1611.8943546161
 30
0.0
 11
567.7288887771
 21
-1613.1506417141
 31
0.0
  0
LINE
  5
311
330
1F
100
AcDbEntity
  8
0
  6
Continuous
 62
     7
370
    25
100
AcDbLine
 10
557.7288890006
 20
-1613.1506417141
 30
0.0
 11
557.7288890006
 21
-1611.8943546161
 31
0.0
  0
LINE
  5
312
330
1F
100
AcDbEntity
  8
0
  6
Continuous
 62
     7
370
    25
100
AcDbLine
 10
442.7288915711
 20
-1691.894352828
 30
0.0
 11
442.7288915711
 21
-1703.8943529323
 31
0.0
  0
LINE
  5
313
330
1F
100
AcDbEntity
  8
0
  6
Continuous
 62
     7
370
    25
100
AcDbLine
 10
442.7288915711
 20
-1703.8943529323
 30
0.0
 11
422.7288882928
 21
-1703.8943529323
 31
0.0
  0
LINE
  5
314
330
1F
100
AcDbEntity
  8
0
  6
Continuous
 62
     7
370
    25
100
AcDbLine
 10
422.7288882928
 20
-1703.8943529323
 30
0.0
 11
422.7288882928
 21
-1691.894352828
 31
0.0
  0
LINE
  5
315
330
1F
100
AcDbEntity
  8
0
  6
Continuous
 62
     7
370
    25
100
AcDbLine
 10
422.7288882928
 20
-1691.894352828
 30
0.0
 11
442.7288915711
 21
-1691.894352828
 31
0.0
  0
LINE
  5
316
330
1F
100
AcDbEntity
  8
0
  6
Continuous
 62
     7
370
    25
100
AcDbLine
 10
442.7288915711
 20
-1691.894352828
 30
0.0
 11
682.7288862067
 21
-1691.894352828
 31
0.0
  0
LINE
  5
317
330
1F
100
AcDbEntity
  8
0
  6
Continuous
 62
     7
370
    25
100
AcDbLine
 10
682.7288862067
 20
-1703.8943529323
 30
0.0
 11
682.7288862067
 21
-1691.894352828
 31
0.0
  0
LINE
  5
318
330
1F
100
AcDbEntity
  8
0
  6
Continuous
 62
     7
370
    25
100
AcDbLine
 10
442.7288915711
 20
-1703.8943529323
 30
0.0
 11
682.7288862067
 21
-1703.8943529323
 31
0.0
  0
LINE
  5
319
330
1F
100
AcDbEntity
  8
0
  6
Continuous
 62
     7
370
    25
100
AcDbLine
 10
702.7288894849
 20
-1691.894352828
 30
0.0
 11
702.7288894849
 21
-1703.8943529323
 31
0.0
  0
LINE
  5
31A
330
1F
100
AcDbEntity
  8
0
  6
Continuous
 62
     7
370
    25
100
AcDbLine
 10
682.7288862067
 20
-1691.894352828
 30
0.0
 11
702.7288894849
 21
-1691.894352828
 31
0.0
  0
LINE
  5
31B
330
1F
100
AcDbEntity
  8
0
  6
Continuous
 62
     7
370
    25
100
AcDbLine
 10
702.7288894849
 20
-1703.8943529323
 30
0.0
 11
682.7288862067
 21
-1703.8943529323
 31
0.0
  0
LINE
  5
31C
330
1F
100
AcDbEntity
  8
0
  6
Continuous
 62
     7
370
    25
100
AcDbLine
 10
507.7288891869
 20
2081.1056490794
 30
0.0
 11
507.7288891869
 21
-1691.894352828
 31
0.0
  0
LINE
  5
31D
330
1F
100
AcDbEntity
  8
0
  6
Continuous
 62
     7
370
    25
100
AcDbLine
 10
617.7288885909
 20
2081.1056490794
 30
0.0
 11
617.7288885909
 21
-1691.894352828
 31
0.0
  0
ARC
  5
31E
330
1F
100
AcDbEntity
  8
0
  6
Continuous
 62
     7
370
    25
100
AcDbCircle
 10
582.7288888889
 20
-1171.894352828
 30
0.0
 40
20.5
100
AcDbArc
 50
270.0
 51
0.0
  0
LINE
  5
31F
330
1F
100
AcDbEntity
  8
0
  6
Continuous
 62
     7
370
    25
100
AcDbLine
 10
603.2288890081
 20
-1171.8943719015
 30
0.0
 11
603.2288890081
 21
-801.8943671331
 31
0.0
  0
ARC
  5
320
330
1F
100
AcDbEntity
  8
0
  6
Continuous
 62
     7
370
    25
100
AcDbCircle
 10
582.7288888889
 20
-801.894352828
 30
0.0
 40
20.50000000000011
100
AcDbArc
 50
0.0
 51
90.0
  0
LINE
  5
321
330
1F
100
AcDbEntity
  8
0
  6
Continuous
 62
     7
370
    25
100
AcDbLine
 10
582.7288884419
 20
-781.3943628416
 30
0.0
 11
542.7288893359
 21
-781.3943628416
 31
0.0
  0
ARC
  5
322
330
1F
100
AcDbEntity
  8
0
  6
Continuous
 62
     7
370
    25
100
AcDbCircle
 10
542.7288888889
 20
-801.894352828
 30
0.0
 40
20.50000000000011
100
AcDbArc
 50
90.0
 51
180.0
  0
LINE
  5
323
330
1F
100
AcDbEntity
  8
0
  6
Continuous
 62
     7
370
    25
100
AcDbLine
 10
522.2288887697
 20
-801.8943671331
 30
0.0
 11
522.2288887697
 21
-1171.8943719015
 31
0.0
  0
ARC
  5
324
330
1F
100
AcDbEntity
  8
0
  6
Continuous
 62
     7
370
    25
100
AcDbCircle
 10
542.7288888889
 20
-1171.894352828
 30
0.0
 40
20.5
100
AcDbArc
 50
180.0
 51
270.0
  0
LINE
  5
325
330
1F
100
AcDbEntity
  8
0
  6
Continuous
 62
     7
370
    25
100
AcDbLine
 10
542.7288893359
 20
-1192.3943463907
 30
0.0
 11
582.7288884419
 21
-1192.3943463907
 31
0.0
  0
LINE
  5
326
330
1F
100
AcDbEntity
  8
0
  6
Continuous
 62
     7
370
    25
100
AcDbLine
 10
502.72889023
 20
2081.1056490794
 30
0.0
 11
502.72889023
 21
-1691.894352828
 31
0.0
  0
LINE
  5
327
330
1F
100
AcDbEntity
  8
0
  6
Continuous
 62
     7
370
    25
100
AcDbLine
 10
622.7288875478
 20
2081.1056490794
 30
0.0
 11
622.7288875478
 21
-1691.894352828
 31
0.0
  0
LINE
  5
328
330
1F
100
AcDbEntity
  8
0
  6
Continuous
 62
     8
370
    25
100
AcDbLine
 10
456.3404764729
 20
2293.6844225779
 30
0.0
 11
453.7288915115
 21
2293.6844225779
 31
0.0
  0
LINE
  5
329
330
1F
100
AcDbEntity
  8
0
  6
Continuous
 62
     8
370
    25
100
AcDbLine
 10
671.7288862663
 20
2293.6844225779
 30
0.0
 11
669.1718023019
 21
2293.6844225779
 31
0.0
  0
LINE
  5
32A
330
1F
100
AcDbEntity
  8
0
  6
Continuous
 62
     8
370
    25
100
AcDbLine
 10
668.7288876372
 20
2027.1057482615
 30
0.0
 11
622.7288875478
 21
2027.1057482615
 31
0.0
  0
LINE
  5
32B
330
1F
100
AcDbEntity
  8
0
  6
Continuous
 62
     8
370
    25
100
AcDbLine
 10
502.72889023
 20
2027.1057482615
 30
0.0
 11
456.7288901406
 21
2027.1057482615
 31
0.0
  0
ARC
  5
32C
330
1F
100
AcDbEntity
  8
0
  6
Continuous
 62
     7
370
    25
100
AcDbCircle
 10
1440.6496368738
 20
2249.3307432616
 30
0.0
 40
1.00000000000006
100
AcDbArc
 50
270.1189146134
 51
358.0
  0
ARC
  5
32D
330
1F
100
AcDbEntity
  8
0
  6
Continuous
 62
     7
370
    25
100
AcDbCircle
 10
1303.3994764216
 20
2249.3307432616
 30
0.0
 40
0.9999999999998329
100
AcDbArc
 50
182.0
 51
269.8986443955
  0
ARC
  5
32E
330
1F
100
AcDbEntity
  8
0
  6
Continuous
 62
     7
370
    25
100
AcDbCircle
 10
1303.6222419811
 20
2242.9515722761
 30
0.0
 40
1.00000000000006
100
AcDbArc
 50
182.0
 51
269.3707486219
  0
LINE
  5
32F
330
1F
100
AcDbEntity
  8
0
  6
Continuous
 62
     7
370
    25
100
AcDbLine
 10
1303.6222377879
 20
2241.9516440287
 30
0.0
 11
1440.4268482787
 21
2241.9516440287
 31
0.0
  0
ARC
  5
330
330
1F
100
AcDbEntity
  8
0
  6
Continuous
 62
     7
370
    25
100
AcDbCircle
 10
1440.4268713143
 20
2242.9515722761
 30
0.0
 40
0.9999999999999253
100
AcDbArc
 50
270.4301672806
 51
358.0
  0
ARC
  5
331
330
1F
100
AcDbEntity
  8
0
  6
Continuous
 62
     7
370
    25
100
AcDbCircle
 10
1464.0815302785
 20
2295.0831123708
 30
0.0
 40
2.913493405396363
100
AcDbArc
 50
20.0
 51
75.1723001232
  0
ARC
  5
332
330
1F
100
AcDbEntity
  8
0
  6
Continuous
 62
     7
370
    25
100
AcDbCircle
 10
1461.957106786
 20
2295.0831123708
 30
0.0
 40
2.913493405396422
100
AcDbArc
 50
104.8276998768
 51
160.0
  0
LINE
  5
333
330
1F
100
AcDbEntity
  8
0
  6
Continuous
 62
     7
370
    25
100
AcDbLine
 10
1466.819308148
 20
2295.6995364085
 30
0.0
 11
1466.819308148
 21
2296.0795756235
 31
0.0
  0
LINE
  5
334
330
1F
100
AcDbEntity
  8
0
  6
Continuous
 62
     7
370
    25
100
AcDbLine
 10
1459.2192987067
 20
2296.0795756235
 30
0.0
 11
1459.2192987067
 21
2295.6995364085
 31
0.0
  0
ARC
  5
335
330
1F
100
AcDbEntity
  8
0
  6
Continuous
 62
     7
370
    25
100
AcDbCircle
 10
1053.0815302785
 20
2295.0831123708
 30
0.0
 40
2.913493405396803
100
AcDbArc
 50
20.0
 51
75.1723001232
  0
ARC
  5
336
330
1F
100
AcDbEntity
  8
0
  6
Continuous
 62
     7
370
    25
100
AcDbCircle
 10
1050.957106786
 20
2295.0831123708
 30
0.0
 40
2.913493405396861
100
AcDbArc
 50
104.8276998768
 51
160.0
  0
LINE
  5
337
330
1F
100
AcDbEntity
  8
0
  6
Continuous
 62
     7
370
    25
100
AcDbLine
 10
1055.8193245989
 20
2295.6995364085
 30
0.0
 11
1055.8193245989
 21
2296.0795756235
 31
0.0
  0
LINE
  5
338
330
1F
100
AcDbEntity
  8
0
  6
Continuous
 62
     7
370
    25
100
AcDbLine
 10
1048.2193151575
 20
2296.0795756235
 30
0.0
 11
1048.2193151575
 21
2295.6995364085
 31
0.0
  0
ARC
  5
339
330
1F
100
AcDbEntity
  8
0
  6
Continuous
 62
     7
370
    25
100
AcDbCircle
 10
1032.0815302785
 20
2295.0831123703
 30
0.0
 40
2.913493405396422
100
AcDbArc
 50
20.0
 51
75.1723001232
  0
ARC
  5
33A
330
1F
100
AcDbEntity
  8
0
  6
Continuous
 62
     7
370
    25
100
AcDbCircle
 10
1029.957106786
 20
2295.0831123703
 30
0.0
 40
2.913493405396363
100
AcDbArc
 50
104.8276998768
 51
160.0
  0
LINE
  5
33B
330
1F
100
AcDbEntity
  8
0
  6
Continuous
 62
     7
370
    25
100
AcDbLine
 10
1034.8193118435
 20
2295.6995364085
 30
0.0
 11
1034.8193118435
 21
2296.0795756235
 31
0.0
  0
LINE
  5
33C
330
1F
100
AcDbEntity
  8
0
  6
Continuous
 62
     7
370
    25
100
AcDbLine
 10
1027.2193173033
 20
2296.0795756235
 30
0.0
 11
1027.2193173033
 21
2295.6995364085
 31
0.0
  0
ARC
  5
33D
330
1F
100
AcDbEntity
  8
0
  6
Continuous
 62
     7
370
    25
100
AcDbCircle
 10
1443.2815302785
 20
2295.0831123708
 30
0.0
 40
2.913493405396861
100
AcDbArc
 50
20.0
 51
75.1723001232
  0
ARC
  5
33E
330
1F
100
AcDbEntity
  8
0
  6
Continuous
 62
     7
370
    25
100
AcDbCircle
 10
1441.157106786
 20
2295.0831123708
 30
0.0
 40
2.913493405396861
100
AcDbArc
 50
104.8276998768
 51
160.0
  0
LINE
  5
33F
330
1F
100
AcDbEntity
  8
0
  6
Continuous
 62
     7
370
    25
100
AcDbLine
 10
1446.0193136793
 20
2295.6995364085
 30
0.0
 11
1446.0193136793
 21
2296.0795756235
 31
0.0
  0
LINE
  5
340
330
1F
100
AcDbEntity
  8
0
  6
Continuous
 62
     7
370
    25
100
AcDbLine
 10
1438.419304238
 20
2296.0795756235
 30
0.0
 11
1438.419304238
 21
2295.6995364085
 31
0.0
  0
ARC
  5
341
330
1F
100
AcDbEntity
  8
0
  6
Continuous
 62
     7
370
    25
100
AcDbCircle
 10
1248.1815302785
 20
2295.0831123708
 30
0.0
 40
2.913493405396919
100
AcDbArc
 50
20.0
 51
75.1723001232
  0
ARC
  5
342
330
1F
100
AcDbEntity
  8
0
  6
Continuous
 62
     7
370
    25
100
AcDbCircle
 10
1246.057106786
 20
2295.0831123708
 30
0.0
 40
2.913493405396803
100
AcDbArc
 50
104.8276998768
 51
160.0
  0
LINE
  5
343
330
1F
100
AcDbEntity
  8
0
  6
Continuous
 62
     7
370
    25
100
AcDbLine
 10
1250.919304238
 20
2295.6995364085
 30
0.0
 11
1250.919304238
 21
2296.0795756235
 31
0.0
  0
LINE
  5
344
330
1F
100
AcDbEntity
  8
0
  6
Continuous
 62
     7
370
    25
100
AcDbLine
 10
1243.3193245989
 20
2296.0795756235
 30
0.0
 11
1243.3193245989
 21
2295.6995364085
 31
0.0
  0
ARC
  5
345
330
1F
100
AcDbEntity
  8
0
  6
Continuous
 62
     7
370
    25
100
AcDbCircle
 10
906.4085847453
 20
-931.894352828
 30
0.0
 40
5.624208448039455
100
AcDbArc
 50
10.2418050974
 51
34.6783590615
  0
ARC
  5
346
330
1F
100
AcDbEntity
  8
0
  6
Continuous
 62
     7
370
    25
100
AcDbCircle
 10
906.4085847453
 20
-931.894352828
 30
0.0
 40
5.624208448039505
100
AcDbArc
 50
325.3216409385
 51
349.7581949026
  0
LWPOLYLINE
  5
347
330
1F
100
AcDbEntity
  8
0
  6
Continuous
 62
     7
370
    25
100
AcDbPolyline
 90
        9
 70
   128
 43
0.0
 10
1442.0193055731
 20
2259.8995562449
 10
1441.9464090926
 20
2257.8119631663
 10
1441.8764928442
 20
2255.8102007761
 10
1441.8122390372
 20
2253.9703246012
 10
1441.7560914618
 20
2252.3624297037
 10
1441.7101958853
 20
2251.04755124
 10
1441.6762808424
 20
2250.0762339487
 10
1441.6555980307
 20
2249.484717454
 10
1441.6490415198
 20
2249.2961283579
  0
LWPOLYLINE
  5
348
330
1F
100
AcDbEntity
  8
0
  6
Continuous
 62
     7
370
    25
100
AcDbPolyline
 90
       10
 70
   128
 43
0.0
 10
1440.6496504408
 20
2248.3310099497
 10
1440.6547764403
 20
2248.4919424906
 10
1440.6710485083
 20
2249.0014429942
 10
1440.6979898077
 20
2249.8440142527
 10
1440.7347658736
 20
2250.994860734
 10
1440.7802442175
 20
2252.418934907
 10
1440.8331731421
 20
2254.0737982645
 10
1440.8918241125
 20
2255.909382905
 10
1440.9544685942
 20
2257.8710909739
 10
1441.0193184477
 20
2259.8995562449
  0
LWPOLYLINE
  5
349
330
1F
100
AcDbEntity
  8
0
  6
Continuous
 62
     7
370
    25
100
AcDbPolyline
 90
       10
 70
   128
 43
0.0
 10
1303.0297974211
 20
2259.8995562449
 10
1303.0946174723
 20
2257.8710909739
 10
1303.1573215586
 20
2255.909382905
 10
1303.2159725291
 20
2254.0737982645
 10
1303.268841849
 20
2252.418934907
 10
1303.3143499953
 20
2250.994860734
 10
1303.3511260611
 20
2249.8440142527
 10
1303.3780375582
 20
2249.0014429942
 10
1303.3943394286
 20
2248.4919424906
 10
1303.399465428
 20
2248.3310099497
  0
LWPOLYLINE
  5
34A
330
1F
100
AcDbEntity
  8
0
  6
Continuous
 62
     7
370
    25
100
AcDbPolyline
 90
        9
 70
   128
 43
0.0
 10
1302.4000743491
 20
2249.2961283579
 10
1302.3934880358
 20
2249.484717454
 10
1302.3728350264
 20
2250.0762339487
 10
1302.3389199835
 20
2251.04755124
 10
1302.2929946047
 20
2252.3624297037
 10
1302.2368470293
 20
2253.9703246012
 10
1302.1725932223
 20
2255.8102007761
 10
1302.1027067763
 20
2257.8119631663
 10
1302.0297804934
 20
2259.8995562449
  0
LINE
  5
34B
330
1F
100
AcDbEntity
  8
0
  6
Continuous
 62
     7
370
    25
100
AcDbLine
 10
1440.6496504408
 20
2248.3310099497
 30
0.0
 11
1424.9865630728
 21
2248.3310099497
 31
0.0
  0
LINE
  5
34C
330
1F
100
AcDbEntity
  8
0
  6
Continuous
 62
     7
370
    25
100
AcDbLine
 10
1424.9865630728
 20
2248.3310099497
 30
0.0
 11
1419.0625766379
 21
2248.3310099497
 31
0.0
  0
LINE
  5
34D
330
1F
100
AcDbEntity
  8
0
  6
Continuous
 62
     7
370
    25
100
AcDbLine
 10
1419.0625766379
 20
2248.3310099497
 30
0.0
 11
1414.9865726096
 21
2248.3310099497
 31
0.0
  0
LINE
  5
34E
330
1F
100
AcDbEntity
  8
0
  6
Continuous
 62
     7
370
    25
100
AcDbLine
 10
1414.9865726096
 20
2248.3310099497
 30
0.0
 11
1409.0625861746
 21
2248.3310099497
 31
0.0
  0
LINE
  5
34F
330
1F
100
AcDbEntity
  8
0
  6
Continuous
 62
     7
370
    25
100
AcDbLine
 10
1409.0625861746
 20
2248.3310099497
 30
0.0
 11
1404.9865225417
 21
2248.3310099497
 31
0.0
  0
LINE
  5
350
330
1F
100
AcDbEntity
  8
0
  6
Continuous
 62
     7
370
    25
100
AcDbLine
 10
1404.9865225417
 20
2248.3310099497
 30
0.0
 11
1399.0625957114
 21
2248.3310099497
 31
0.0
  0
LINE
  5
351
330
1F
100
AcDbEntity
  8
0
  6
Continuous
 62
     7
370
    25
100
AcDbLine
 10
1399.0625957114
 20
2248.3310099497
 30
0.0
 11
1394.9865320784
 21
2248.3310099497
 31
0.0
  0
LINE
  5
352
330
1F
100
AcDbEntity
  8
0
  6
Continuous
 62
     7
370
    25
100
AcDbLine
 10
1394.9865320784
 20
2248.3310099497
 30
0.0
 11
1389.0625456435
 21
2248.3310099497
 31
0.0
  0
LINE
  5
353
330
1F
100
AcDbEntity
  8
0
  6
Continuous
 62
     7
370
    25
100
AcDbLine
 10
1389.0625456435
 20
2248.3310099497
 30
0.0
 11
1384.9865416151
 21
2248.3310099497
 31
0.0
  0
LINE
  5
354
330
1F
100
AcDbEntity
  8
0
  6
Continuous
 62
     7
370
    25
100
AcDbLine
 10
1384.9865416151
 20
2248.3310099497
 30
0.0
 11
1379.0625551802
 21
2248.3310099497
 31
0.0
  0
LINE
  5
355
330
1F
100
AcDbEntity
  8
0
  6
Continuous
 62
     7
370
    25
100
AcDbLine
 10
1379.0625551802
 20
2248.3310099497
 30
0.0
 11
1374.9865511519
 21
2248.3310099497
 31
0.0
  0
LINE
  5
356
330
1F
100
AcDbEntity
  8
0
  6
Continuous
 62
     7
370
    25
100
AcDbLine
 10
1374.9865511519
 20
2248.3310099497
 30
0.0
 11
1369.0625647169
 21
2248.3310099497
 31
0.0
  0
LINE
  5
357
330
1F
100
AcDbEntity
  8
0
  6
Continuous
 62
     7
370
    25
100
AcDbLine
 10
1369.0625647169
 20
2248.3310099497
 30
0.0
 11
1364.9865308863
 21
2248.3310099497
 31
0.0
  0
LINE
  5
358
330
1F
100
AcDbEntity
  8
0
  6
Continuous
 62
     7
370
    25
100
AcDbLine
 10
1364.9865308863
 20
2248.3310099497
 30
0.0
 11
1359.0625742537
 21
2248.3310099497
 31
0.0
  0
LINE
  5
359
330
1F
100
AcDbEntity
  8
0
  6
Continuous
 62
     7
370
    25
100
AcDbLine
 10
1359.0625742537
 20
2248.3310099497
 30
0.0
 11
1354.986540423
 21
2248.3310099497
 31
0.0
  0
LINE
  5
35A
330
1F
100
AcDbEntity
  8
0
  6
Continuous
 62
     7
370
    25
100
AcDbLine
 10
1349.0625837904
 20
2248.3310099497
 30
0.0
 11
1354.986540423
 21
2248.3310099497
 31
0.0
  0
LINE
  5
35B
330
1F
100
AcDbEntity
  8
0
  6
Continuous
 62
     7
370
    25
100
AcDbLine
 10
1349.0625837904
 20
2248.3310099497
 30
0.0
 11
1344.9865499598
 21
2248.3310099497
 31
0.0
  0
LINE
  5
35C
330
1F
100
AcDbEntity
  8
0
  6
Continuous
 62
     7
370
    25
100
AcDbLine
 10
1339.0625635249
 20
2248.3310099497
 30
0.0
 11
1344.9865499598
 21
2248.3310099497
 31
0.0
  0
LINE
  5
35D
330
1F
100
AcDbEntity
  8
0
  6
Continuous
 62
     7
370
    25
100
AcDbLine
 10
1339.0625635249
 20
2248.3310099497
 30
0.0
 11
1334.9865296942
 21
2248.3310099497
 31
0.0
  0
LINE
  5
35E
330
1F
100
AcDbEntity
  8
0
  6
Continuous
 62
     7
370
    25
100
AcDbLine
 10
1329.0625730616
 20
2248.3310099497
 30
0.0
 11
1334.9865296942
 21
2248.3310099497
 31
0.0
  0
LINE
  5
35F
330
1F
100
AcDbEntity
  8
0
  6
Continuous
 62
     7
370
    25
100
AcDbLine
 10
1329.0625730616
 20
2248.3310099497
 30
0.0
 11
1324.986539231
 21
2248.3310099497
 31
0.0
  0
LINE
  5
360
330
1F
100
AcDbEntity
  8
0
  6
Continuous
 62
     7
370
    25
100
AcDbLine
 10
1319.0625825983
 20
2248.3310099497
 30
0.0
 11
1324.986539231
 21
2248.3310099497
 31
0.0
  0
LINE
  5
361
330
1F
100
AcDbEntity
  8
0
  6
Continuous
 62
     7
370
    25
100
AcDbLine
 10
1319.0625825983
 20
2248.3310099497
 30
0.0
 11
1303.399465428
 21
2248.3310099497
 31
0.0
  0
LINE
  5
362
330
1F
100
AcDbEntity
  8
0
  6
Continuous
 62
     7
370
    25
100
AcDbLine
 10
1303.6212245089
 20
2242.0288916483
 30
0.0
 11
1440.4278615576
 21
2242.0288916483
 31
0.0
  0
ARC
  5
363
330
1F
100
AcDbEntity
  8
0
  6
Continuous
 62
     7
370
    25
100
AcDbCircle
 10
1303.5949178708
 20
2243.0033314518
 30
0.0
 40
0.9747948346729338
100
AcDbArc
 50
183.3946312625
 51
271.5464201266
  0
LWPOLYLINE
  5
364
330
1F
100
AcDbEntity
  8
0
  6
Continuous
 62
     7
370
    25
100
AcDbPolyline
 90
        7
 70
   128
 43
0.0
 10
1302.6218334299
 20
2242.945611085
 10
1302.5529006583
 20
2244.9201937571
 10
1302.4965444666
 20
2246.5333338633
 10
1302.4530032736
 20
2247.7805014506
 10
1302.4223366839
 20
2248.6581202402
 10
1302.404693709
 20
2249.1638060465
 10
1302.4000743491
 20
2249.2961283579
  0
ARC
  5
365
330
1F
100
AcDbEntity
  8
0
  6
Continuous
 62
     7
370
    25
100
AcDbCircle
 10
1440.4541971263
 20
2243.0032999121
 30
0.0
 40
0.974764087744338
100
AcDbArc
 50
268.4518299476
 51
356.6071186634
  0
LWPOLYLINE
  5
366
330
1F
100
AcDbEntity
  8
0
  6
Continuous
 62
     7
370
    25
100
AcDbPolyline
 90
        7
 70
   128
 43
0.0
 10
1441.6490415198
 20
2249.2958899393
 10
1441.6443923575
 20
2249.1638060465
 10
1441.6267493826
 20
2248.6581202402
 10
1441.5961125952
 20
2247.7805014506
 10
1441.5525415999
 20
2246.5333338633
 10
1441.4962152106
 20
2244.9201937571
 10
1441.4272526366
 20
2242.945611085
  0
LWPOLYLINE
  5
367
330
1F
100
AcDbEntity
  8
0
  6
Continuous
 62
     7
370
    25
100
AcDbPolyline
 90
        3
 70
   128
 43
0.0
 10
1302.6228467089
 20
2242.9167624369
 10
1302.6226976973
 20
2242.9212923899
 10
1302.6218334299
 20
2242.945611085
  0
LWPOLYLINE
  5
368
330
1F
100
AcDbEntity
  8
0
  6
Continuous
 62
     7
370
    25
100
AcDbPolyline
 90
        3
 70
   128
 43
0.0
 10
1441.4272526366
 20
2242.945611085
 10
1441.4264181715
 20
2242.9212923899
 10
1441.4262393576
 20
2242.9167624369
  0
LINE
  5
369
330
1F
100
AcDbEntity
  8
0
  6
Continuous
 62
     7
370
    25
100
AcDbLine
 10
1462.167225228
 20
2296.0795756235
 30
0.0
 11
1459.2192987067
 21
2296.0795756235
 31
0.0
  0
LINE
  5
36A
330
1F
100
AcDbEntity
  8
0
  6
Continuous
 62
     7
370
    25
100
AcDbLine
 10
1466.819308148
 20
2296.0795756235
 30
0.0
 11
1462.167225228
 21
2296.0795756235
 31
0.0
  0
LINE
  5
36B
330
1F
100
AcDbEntity
  8
0
  6
Continuous
 62
     7
370
    25
100
AcDbLine
 10
1462.6139620406
 20
2297.8996630564
 30
0.0
 11
1461.2115243536
 21
2297.8996630564
 31
0.0
  0
LINE
  5
36C
330
1F
100
AcDbEntity
  8
0
  6
Continuous
 62
     7
370
    25
100
AcDbLine
 10
1464.8271421057
 20
2297.8996630564
 30
0.0
 11
1462.6139620406
 21
2297.8996630564
 31
0.0
  0
LINE
  5
36D
330
1F
100
AcDbEntity
  8
0
  6
Continuous
 62
     7
370
    25
100
AcDbLine
 10
1051.1672416788
 20
2296.0795756235
 30
0.0
 11
1048.2193151575
 21
2296.0795756235
 31
0.0
  0
LINE
  5
36E
330
1F
100
AcDbEntity
  8
0
  6
Continuous
 62
     7
370
    25
100
AcDbLine
 10
1055.8193245989
 20
2296.0795756235
 30
0.0
 11
1051.1672416788
 21
2296.0795756235
 31
0.0
  0
LINE
  5
36F
330
1F
100
AcDbEntity
  8
0
  6
Continuous
 62
     7
370
    25
100
AcDbLine
 10
1051.6139486891
 20
2297.8996630564
 30
0.0
 11
1050.2115110022
 21
2297.8996630564
 31
0.0
  0
LINE
  5
370
330
1F
100
AcDbEntity
  8
0
  6
Continuous
 62
     7
370
    25
100
AcDbLine
 10
1053.8271287543
 20
2297.8996630564
 30
0.0
 11
1051.6139486891
 21
2297.8996630564
 31
0.0
  0
LINE
  5
371
330
1F
100
AcDbEntity
  8
0
  6
Continuous
 62
     7
370
    25
100
AcDbLine
 10
1030.1672289234
 20
2296.0795756235
 30
0.0
 11
1027.2193173033
 21
2296.0795756235
 31
0.0
  0
LINE
  5
372
330
1F
100
AcDbEntity
  8
0
  6
Continuous
 62
     7
370
    25
100
AcDbLine
 10
1034.8193118435
 20
2296.0795756235
 30
0.0
 11
1030.1672289234
 21
2296.0795756235
 31
0.0
  0
LINE
  5
373
330
1F
100
AcDbEntity
  8
0
  6
Continuous
 62
     7
370
    25
100
AcDbLine
 10
1030.6139508349
 20
2297.8996630564
 30
0.0
 11
1029.2114982468
 21
2297.8996630564
 31
0.0
  0
LINE
  5
374
330
1F
100
AcDbEntity
  8
0
  6
Continuous
 62
     7
370
    25
100
AcDbLine
 10
1032.8271309
 20
2297.8996630564
 30
0.0
 11
1030.6139508349
 21
2297.8996630564
 31
0.0
  0
LINE
  5
375
330
1F
100
AcDbEntity
  8
0
  6
Continuous
 62
     7
370
    25
100
AcDbLine
 10
1441.3672307593
 20
2296.0795756235
 30
0.0
 11
1438.419304238
 21
2296.0795756235
 31
0.0
  0
LINE
  5
376
330
1F
100
AcDbEntity
  8
0
  6
Continuous
 62
     7
370
    25
100
AcDbLine
 10
1446.0193136793
 20
2296.0795756235
 30
0.0
 11
1441.3672307593
 21
2296.0795756235
 31
0.0
  0
LINE
  5
377
330
1F
100
AcDbEntity
  8
0
  6
Continuous
 62
     7
370
    25
100
AcDbLine
 10
1441.8139675719
 20
2297.8996630564
 30
0.0
 11
1440.4115298849
 21
2297.8996630564
 31
0.0
  0
LINE
  5
378
330
1F
100
AcDbEntity
  8
0
  6
Continuous
 62
     7
370
    25
100
AcDbLine
 10
1444.027147637
 20
2297.8996630564
 30
0.0
 11
1441.8139675719
 21
2297.8996630564
 31
0.0
  0
LINE
  5
379
330
1F
100
AcDbEntity
  8
0
  6
Continuous
 62
     7
370
    25
100
AcDbLine
 10
1246.2672213179
 20
2296.0795756235
 30
0.0
 11
1243.3193245989
 21
2296.0795756235
 31
0.0
  0
LINE
  5
37A
330
1F
100
AcDbEntity
  8
0
  6
Continuous
 62
     7
370
    25
100
AcDbLine
 10
1250.919304238
 20
2296.0795756235
 30
0.0
 11
1246.2672213179
 21
2296.0795756235
 31
0.0
  0
LINE
  5
37B
330
1F
100
AcDbEntity
  8
0
  6
Continuous
 62
     7
370
    25
100
AcDbLine
 10
1246.7139581305
 20
2297.8996630564
 30
0.0
 11
1245.3114906412
 21
2297.8996630564
 31
0.0
  0
LINE
  5
37C
330
1F
100
AcDbEntity
  8
0
  6
Continuous
 62
     7
370
    25
100
AcDbLine
 10
1248.9271381956
 20
2297.8996630564
 30
0.0
 11
1246.7139581305
 21
2297.8996630564
 31
0.0
  0
LINE
  5
37D
330
1F
100
AcDbEntity
  8
0
  6
Continuous
 62
     7
370
    25
100
AcDbLine
 10
1027.769319163
 20
2295.6995364085
 30
0.0
 11
1027.769319163
 21
2293.699681367
 31
0.0
  0
LINE
  5
37E
330
1F
100
AcDbEntity
  8
0
  6
Continuous
 62
     7
370
    25
100
AcDbLine
 10
1027.769319163
 20
2293.699681367
 30
0.0
 11
1024.7693130833
 21
2293.699681367
 31
0.0
  0
LINE
  5
37F
330
1F
100
AcDbEntity
  8
0
  6
Continuous
 62
     7
370
    25
100
AcDbLine
 10
1024.7693130833
 20
2293.699681367
 30
0.0
 11
1024.7693130833
 21
2295.6995364085
 31
0.0
  0
LINE
  5
380
330
1F
100
AcDbEntity
  8
0
  6
Continuous
 62
     7
370
    25
100
AcDbLine
 10
1024.7693130833
 20
2295.6995364085
 30
0.0
 11
1027.769319163
 21
2295.6995364085
 31
0.0
  0
LINE
  5
381
330
1F
100
AcDbEntity
  8
0
  6
Continuous
 62
     7
370
    25
100
AcDbLine
 10
1466.2693360907
 20
2293.699681367
 30
0.0
 11
1466.2693360907
 21
2295.6995364085
 31
0.0
  0
LINE
  5
382
330
1F
100
AcDbEntity
  8
0
  6
Continuous
 62
     7
370
    25
100
AcDbLine
 10
1027.769319163
 20
2293.699681367
 30
0.0
 11
1466.2693360907
 21
2293.699681367
 31
0.0
  0
LINE
  5
383
330
1F
100
AcDbEntity
  8
0
  6
Continuous
 62
     7
370
    25
100
AcDbLine
 10
1027.769319163
 20
2295.6995364085
 30
0.0
 11
1466.2693360907
 21
2295.6995364085
 31
0.0
  0
LINE
  5
384
330
1F
100
AcDbEntity
  8
0
  6
Continuous
 62
     7
370
    25
100
AcDbLine
 10
1469.2692974669
 20
2295.6995364085
 30
0.0
 11
1469.2692974669
 21
2293.699681367
 31
0.0
  0
LINE
  5
385
330
1F
100
AcDbEntity
  8
0
  6
Continuous
 62
     7
370
    25
100
AcDbLine
 10
1469.2692974669
 20
2293.699681367
 30
0.0
 11
1466.2693360907
 21
2293.699681367
 31
0.0
  0
LINE
  5
386
330
1F
100
AcDbEntity
  8
0
  6
Continuous
 62
     7
370
    25
100
AcDbLine
 10
1466.2693360907
 20
2295.6995364085
 30
0.0
 11
1469.2692974669
 21
2295.6995364085
 31
0.0
  0
LINE
  5
387
330
1F
100
AcDbEntity
  8
0
  6
Continuous
 62
     7
370
    25
100
AcDbLine
 10
1025.0193247658
 20
2284.8996516123
 30
0.0
 11
1025.3728697163
 21
2284.8996516123
 31
0.0
  0
LINE
  5
388
330
1F
100
AcDbEntity
  8
0
  6
Continuous
 62
     7
370
    25
100
AcDbLine
 10
1468.6657408339
 20
2263.599574174
 30
0.0
 11
1468.6657408339
 21
2289.9996634379
 31
0.0
  0
LINE
  5
389
330
1F
100
AcDbEntity
  8
0
  6
Continuous
 62
     7
370
    25
100
AcDbLine
 10
1468.6657408339
 20
2263.599574174
 30
0.0
 11
1025.3728697163
 21
2263.599574174
 31
0.0
  0
LINE
  5
38A
330
1F
100
AcDbEntity
  8
0
  6
Continuous
 62
     7
370
    25
100
AcDbLine
 10
1025.3728697163
 20
2263.599574174
 30
0.0
 11
1025.3728697163
 21
2289.9996634379
 31
0.0
  0
LINE
  5
38B
330
1F
100
AcDbEntity
  8
0
  6
Continuous
 62
     7
370
    25
100
AcDbLine
 10
1468.6657408339
 20
2289.9996634379
 30
0.0
 11
1025.3728697163
 21
2289.9996634379
 31
0.0
  0
SPLINE
  5
38C
330
1F
100
AcDbEntity
  8
0
  6
Continuous
 62
     7
370
    25
100
AcDbSpline
210
0.0
220
0.0
230
1.0
 70
     8
 71
     3
 72
    12
 73
     8
 74
     0
 42
0.000000001
 43
0.00000001
 40
0.0
 40
0.0
 40
0.0
 40
0.0
 40
0.216264473551903
 40
0.4325167869393614
 40
0.6487582873520107
 40
0.8650212417363231
 40
1.0
 40
1.0
 40
1.0
 40
1.0
 10
1025.372869716296
 20
2289.999663437881
 30
0.0
 10
1025.423348488309
 20
2290.418676971428
 30
0.0
 10
1025.524303194004
 20
2291.256680478142
 30
0.0
 10
1025.67575641848
 20
2292.371456960757
 30
0.0
 10
1025.827159945211
 20
2293.208574153346
 30
0.0
 10
1025.959786703507
 20
2293.640439521096
 30
0.0
 10
1026.041474747419
 20
2293.683235348597
 30
0.0
 10
1026.072866664538
 20
2293.699681366958
 30
0.0
  0
SPLINE
  5
38D
330
1F
100
AcDbEntity
  8
0
  6
Continuous
 62
     7
370
    25
100
AcDbSpline
210
0.0
220
0.0
230
1.0
 70
     8
 71
     3
 72
    12
 73
     8
 74
     0
 42
0.000000001
 43
0.00000001
 40
0.0
 40
0.0
 40
0.0
 40
0.0
 40
0.2162646668875969
 40
0.4325246262324722
 40
0.6487647962407906
 40
0.8650486886348587
 40
1.0
 40
1.0
 40
1.0
 40
1.0
 10
1467.965743885646
 20
2293.699681366958
 30
0.0
 10
1468.016228909112
 20
2293.658128700551
 30
0.0
 10
1468.11719785711
 20
2293.575024272233
 30
0.0
 10
1468.268648101749
 20
2292.928054887584
 30
0.0
 10
1468.42011464766
 20
2291.977121504227
 30
0.0
 10
1468.552628368838
 20
2290.938457171987
 30
0.0
 10
1468.6343440859
 20
2290.260245419442
 30
0.0
 10
1468.665740833888
 20
2289.999663437881
 30
0.0
  0
SPLINE
  5
38E
330
1F
100
AcDbEntity
  8
0
  6
Continuous
 62
     7
370
    25
100
AcDbSpline
210
0.0
220
0.0
230
1.0
 70
     8
 71
     3
 72
    11
 73
     7
 74
     0
 42
0.000000001
 43
0.00000001
 40
0.0
 40
0.0
 40
0.0
 40
0.0
 40
0.2499975024555947
 40
0.5000186008180596
 40
0.7499936853764603
 40
0.9999999999999999
 40
0.9999999999999999
 40
0.9999999999999999
 40
0.9999999999999999
 10
1025.719321714053
 20
2259.899556244888
 30
0.0
 10
1025.690445815302
 20
2259.955126299085
 30
0.0
 10
1025.632691292362
 20
2260.066271652433
 30
0.0
 10
1025.546106939555
 20
2260.922188759039
 30
0.0
 10
1025.459486102139
 20
2262.145047410941
 30
0.0
 10
1025.401743047168
 20
2263.114711730419
 30
0.0
 10
1025.372869716296
 20
2263.599574173965
 30
0.0
  0
SPLINE
  5
38F
330
1F
100
AcDbEntity
  8
0
  6
Continuous
 62
     7
370
    25
100
AcDbSpline
210
0.0
220
0.0
230
1.0
 70
     8
 71
     3
 72
    11
 73
     7
 74
     0
 42
0.000000001
 43
0.00000001
 40
0.0
 40
0.0
 40
0.0
 40
0.0
 40
0.2500062374999816
 40
0.4999813991789206
 40
0.7500025746761195
 40
1.0
 40
1.0
 40
1.0
 40
1.0
 10
1468.665740833888
 20
2263.599574173965
 30
0.0
 10
1468.636873707444
 20
2263.114711664232
 30
0.0
 10
1468.579143042744
 20
2262.145046913264
 30
0.0
 10
1468.492518511715
 20
2260.922188822562
 30
0.0
 10
1468.405930464416
 20
2260.066271820596
 30
0.0
 10
1468.348188332885
 20
2259.955126343707
 30
0.0
 10
1468.319318638453
 20
2259.899556244888
 30
0.0
  0
LINE
  5
390
330
1F
100
AcDbEntity
  8
0
  6
Continuous
 62
     7
370
    25
100
AcDbLine
 10
1468.3193186385
 20
2259.8995562449
 30
0.0
 11
1025.7193217141
 21
2259.8995562449
 31
0.0
  0
LINE
  5
391
330
1F
100
AcDbEntity
  8
0
  6
Continuous
 62
     7
370
    25
100
AcDbLine
 10
1025.0193247658
 20
2289.9996634379
 30
0.0
 11
1022.0193186861
 21
2289.9996634379
 31
0.0
  0
LINE
  5
392
330
1F
100
AcDbEntity
  8
0
  6
Continuous
 62
     7
370
    25
100
AcDbLine
 10
1025.7193217141
 20
2293.699681367
 30
0.0
 11
1025.7193217141
 21
2292.5629015818
 31
0.0
  0
SPLINE
  5
393
330
1F
100
AcDbEntity
  8
0
  6
Continuous
 62
     7
370
    25
100
AcDbSpline
210
0.0
220
0.0
230
1.0
 70
     8
 71
     3
 72
    11
 73
     7
 74
     0
 42
0.000000001
 43
0.00000001
 40
0.0
 40
0.0
 40
0.0
 40
0.0
 40
0.0311507134097
 40
0.3716160182566222
 40
0.7118830052654153
 40
1.0
 40
1.0
 40
1.0
 40
1.0
 10
1025.451622353205
 20
2290.641009415664
 30
0.0
 10
1025.44328044392
 20
2290.63930858119
 30
0.0
 10
1025.343764677704
 20
2290.619018280707
 30
0.0
 10
1025.191510793059
 20
2290.476245110994
 30
0.0
 10
1025.043869766211
 20
2290.252415449293
 30
0.0
 10
1025.027040886069
 20
2290.079120145303
 30
0.0
 10
1025.019324765811
 20
2289.999663437881
 30
0.0
  0
SPLINE
  5
394
330
1F
100
AcDbEntity
  8
0
  6
Continuous
 62
     7
370
    25
100
AcDbSpline
210
0.0
220
0.0
230
1.0
 70
     8
 71
     3
 72
    12
 73
     8
 74
     0
 42
0.000000001
 43
0.00000001
 40
0.0
 40
0.0
 40
0.0
 40
0.0
 40
0.2162631069165201
 40
0.4325238647574236
 40
0.6487637255163924
 40
0.8650483835808925
 40
1.0
 40
1.0
 40
1.0
 40
1.0
 10
1025.719321714053
 20
2293.699681366958
 30
0.0
 10
1025.3003174748
 20
2293.65812786946
 30
0.0
 10
1024.462313547569
 20
2293.575021325821
 30
0.0
 10
1023.34756329922
 20
2292.928057959866
 30
0.0
 10
1022.510142095208
 20
2291.977117782884
 30
0.0
 10
1022.078537990083
 20
2290.938458175232
 30
0.0
 10
1022.035756242358
 20
2290.260245549575
 30
0.0
 10
1022.019318686137
 20
2289.999663437881
 30
0.0
  0
LINE
  5
395
330
1F
100
AcDbEntity
  8
0
  6
Continuous
 62
     7
370
    25
100
AcDbLine
 10
1469.0193155867
 20
2289.9996634379
 30
0.0
 11
1472.0193365675
 21
2289.9996634379
 31
0.0
  0
SPLINE
  5
396
330
1F
100
AcDbEntity
  8
0
  6
Continuous
 62
     7
370
    25
100
AcDbSpline
210
0.0
220
0.0
230
1.0
 70
     8
 71
     3
 72
    10
 73
     6
 74
     0
 42
0.000000001
 43
0.00000001
 40
0.0
 40
0.0
 40
0.0
 40
0.0
 40
0.3679960561554882
 40
0.7101184968790714
 40
1.0
 40
1.0
 40
1.0
 40
1.0
 10
1469.019315586695
 20
2289.999663437881
 30
0.0
 10
1469.006366434005
 20
2290.099659096175
 30
0.0
 10
1468.981378576959
 20
2290.292619768915
 30
0.0
 10
1468.813902630872
 20
2290.525297596831
 30
0.0
 10
1468.659249303975
 20
2290.602663118002
 30
0.0
 10
1468.588314400325
 20
2290.638148392715
 30
0.0
  0
LINE
  5
397
330
1F
100
AcDbEntity
  8
0
  6
Continuous
 62
     7
370
    25
100
AcDbLine
 10
1468.3193186385
 20
2293.699681367
 30
0.0
 11
1468.3193186385
 21
2292.5629015818
 31
0.0
  0
SPLINE
  5
398
330
1F
100
AcDbEntity
  8
0
  6
Continuous
 62
     7
370
    25
100
AcDbSpline
210
0.0
220
0.0
230
1.0
 70
     8
 71
     3
 72
    12
 73
     8
 74
     0
 42
0.000000001
 43
0.00000001
 40
0.0
 40
0.0
 40
0.0
 40
0.0
 40
0.216263755677858
 40
0.4325147319717761
 40
0.648755514586638
 40
0.8650175975235532
 40
1.0
 40
1.0
 40
1.0
 40
1.0
 10
1472.019336567531
 20
2289.999663437881
 30
0.0
 10
1471.977833537504
 20
2290.418676629328
 30
0.0
 10
1471.894829929934
 20
2291.256678252036
 30
0.0
 10
1471.247847539762
 20
2292.371459005202
 30
0.0
 10
1470.296749899037
 20
2293.208573460053
 30
0.0
 10
1469.258209561298
 20
2293.64044300797
 30
0.0
 10
1468.579965993804
 20
2293.683236089631
 30
0.0
 10
1468.319318638453
 20
2293.699681366958
 30
0.0
  0
LINE
  5
399
330
1F
100
AcDbEntity
  8
0
  6
Continuous
 62
     7
370
    25
100
AcDbLine
 10
1025.0193247658
 20
2263.599574174
 30
0.0
 11
1025.0193247658
 21
2289.9996634379
 31
0.0
  0
LINE
  5
39A
330
1F
100
AcDbEntity
  8
0
  6
Continuous
 62
     7
370
    25
100
AcDbLine
 10
1022.0193186861
 20
2263.599574174
 30
0.0
 11
1025.0193247658
 21
2263.599574174
 31
0.0
  0
LINE
  5
39B
330
1F
100
AcDbEntity
  8
0
  6
Continuous
 62
     7
370
    25
100
AcDbLine
 10
1022.0193186861
 20
2263.599574174
 30
0.0
 11
1022.0193186861
 21
2289.9996634379
 31
0.0
  0
SPLINE
  5
39C
330
1F
100
AcDbEntity
  8
0
  6
Continuous
 62
     7
370
    25
100
AcDbSpline
210
0.0
220
0.0
230
1.0
 70
     8
 71
     3
 72
    10
 73
     6
 74
     0
 42
0.000000001
 43
0.00000001
 40
0.0
 40
0.0
 40
0.0
 40
0.0
 40
0.3546409292335117
 40
0.7090530825640471
 40
1.0
 40
1.0
 40
1.0
 40
1.0
 10
1025.019324765811
 20
2263.599574173965
 30
0.0
 10
1025.030111211634
 20
2263.508443030695
 30
0.0
 10
1025.051677145035
 20
2263.326239532095
 30
0.0
 10
1025.199989363745
 20
2263.099777402638
 30
0.0
 10
1025.345267636045
 20
2263.017331673578
 30
0.0
 10
1025.410763369212
 20
2262.980162705459
 30
0.0
  0
SPLINE
  5
39D
330
1F
100
AcDbEntity
  8
0
  6
Continuous
 62
     7
370
    25
100
AcDbSpline
210
0.0
220
0.0
230
1.0
 70
     8
 71
     3
 72
    11
 73
     7
 74
     0
 42
0.000000001
 43
0.00000001
 40
0.0
 40
0.0
 40
0.0
 40
0.0
 40
0.2500061894797511
 40
0.4999813031636027
 40
0.7500013617918565
 40
0.9999999999999999
 40
0.9999999999999999
 40
0.9999999999999999
 40
0.9999999999999999
 10
1022.019318686137
 20
2263.599574173965
 30
0.0
 10
1022.074920074963
 20
2263.114711577337
 30
0.0
 10
1022.186115941355
 20
2262.145046652552
 30
0.0
 10
1023.041913736603
 20
2260.922191607847
 30
0.0
 10
1024.26471791049
 20
2260.066268649705
 30
0.0
 10
1025.234467627312
 20
2259.955125459397
 30
0.0
 10
1025.719321714053
 20
2259.899556244888
 30
0.0
  0
LINE
  5
39E
330
1F
100
AcDbEntity
  8
0
  6
Continuous
 62
     7
370
    25
100
AcDbLine
 10
1472.0193365675
 20
2263.599574174
 30
0.0
 11
1472.0193365675
 21
2289.9996634379
 31
0.0
  0
LINE
  5
39F
330
1F
100
AcDbEntity
  8
0
  6
Continuous
 62
     7
370
    25
100
AcDbLine
 10
1472.0193365675
 20
2263.599574174
 30
0.0
 11
1469.0193155867
 21
2263.599574174
 31
0.0
  0
LINE
  5
3A0
330
1F
100
AcDbEntity
  8
0
  6
Continuous
 62
     7
370
    25
100
AcDbLine
 10
1469.0193155867
 20
2263.599574174
 30
0.0
 11
1469.0193155867
 21
2289.9996634379
 31
0.0
  0
SPLINE
  5
3A1
330
1F
100
AcDbEntity
  8
0
  6
Continuous
 62
     7
370
    25
100
AcDbSpline
210
0.0
220
0.0
230
1.0
 70
     8
 71
     3
 72
    11
 73
     7
 74
     0
 42
0.000000001
 43
0.00000001
 40
0.0
 40
0.0
 40
0.0
 40
0.0
 40
0.2499943020014302
 40
0.500017205767029
 40
0.7499915981852384
 40
1.0
 40
1.0
 40
1.0
 40
1.0
 10
1468.319318638454
 20
2259.899556244888
 30
0.0
 10
1468.804161109301
 20
2259.955128321947
 30
0.0
 10
1469.77390152166
 20
2260.066278834046
 30
0.0
 10
1470.996715395649
 20
2260.922181071282
 30
0.0
 10
1471.852481271475
 20
2262.14505699606
 30
0.0
 10
1471.963715613417
 20
2263.114713128961
 30
0.0
 10
1472.01933656753
 20
2263.599574173965
 30
0.0
  0
SPLINE
  5
3A2
330
1F
100
AcDbEntity
  8
0
  6
Continuous
 62
     7
370
    25
100
AcDbSpline
210
0.0
220
0.0
230
1.0
 70
     8
 71
     3
 72
    10
 73
     6
 74
     0
 42
0.000000001
 43
0.00000001
 40
0.0
 40
0.0
 40
0.0
 40
0.0
 40
0.2909251932029344
 40
0.6453464920774324
 40
1.0
 40
1.0
 40
1.0
 40
1.0
 10
1468.627891884455
 20
2262.980162705459
 30
0.0
 10
1468.693376523406
 20
2263.017333295036
 30
0.0
 10
1468.838638202417
 20
2263.099787170302
 30
0.0
 10
1468.986945660517
 20
2263.326240141038
 30
0.0
 10
1469.00852325588
 20
2263.508442940292
 30
0.0
 10
1469.019315586695
 20
2263.599574173965
 30
0.0
  0
CIRCLE
  5
3A3
330
1F
100
AcDbEntity
  8
0
  6
Continuous
 62
     7
370
    25
100
AcDbCircle
 10
998.5189144113
 20
2291.1222970516
 30
0.0
 40
3.800000000000069
  0
CIRCLE
  5
3A4
330
1F
100
AcDbEntity
  8
0
  6
Continuous
 62
     7
370
    25
100
AcDbCircle
 10
998.5189144113
 20
2291.1222970516
 30
0.0
 40
1.807812999999984
  0
LINE
  5
3A5
330
1F
100
AcDbEntity
  8
0
  6
Continuous
 62
     7
370
    25
100
AcDbLine
 10
999.6907631022
 20
2290.2795668497
 30
0.0
 11
999.8346189123
 21
2291.7158003703
 31
0.0
  0
LINE
  5
3A6
330
1F
100
AcDbEntity
  8
0
  6
Continuous
 62
     7
370
    25
100
AcDbLine
 10
998.6627617937
 20
2292.5583716288
 30
0.0
 11
997.3470637661
 21
2291.9649477854
 31
0.0
  0
LINE
  5
3A7
330
1F
100
AcDbEntity
  8
0
  6
Continuous
 62
     7
370
    25
100
AcDbLine
 10
997.3470637661
 20
2291.9649477854
 30
0.0
 11
997.2032228571
 21
2290.5287142649
 31
0.0
  0
LINE
  5
3A8
330
1F
100
AcDbEntity
  8
0
  6
Continuous
 62
     7
370
    25
100
AcDbLine
 10
998.3750650746
 20
2289.6861430064
 30
0.0
 11
999.6907631022
 21
2290.2795668497
 31
0.0
  0
LINE
  5
3A9
330
1F
100
AcDbEntity
  8
0
  6
Continuous
 62
     7
370
    25
100
AcDbLine
 10
999.8346189123
 20
2291.7158003703
 30
0.0
 11
998.6627617937
 21
2292.5583716288
 31
0.0
  0
LINE
  5
3AA
330
1F
100
AcDbEntity
  8
0
  6
Continuous
 62
     7
370
    25
100
AcDbLine
 10
997.2032228571
 20
2290.5287142649
 30
0.0
 11
998.3750650746
 21
2289.6861430064
 31
0.0
  0
CIRCLE
  5
3AB
330
1F
100
AcDbEntity
  8
0
  6
Continuous
 62
     7
370
    25
100
AcDbCircle
 10
882.5337031943
 20
2027.105647172
 30
0.0
 40
3.799999999999997
  0
CIRCLE
  5
3AC
330
1F
100
AcDbEntity
  8
0
  6
Continuous
 62
     7
370
    25
100
AcDbCircle
 10
882.5337031943
 20
2027.105647172
 30
0.0
 40
1.807813000000054
  0
LINE
  5
3AD
330
1F
100
AcDbEntity
  8
0
  6
Continuous
 62
     7
370
    25
100
AcDbLine
 10
883.9728621852
 20
2027.215897645
 30
0.0
 11
883.1578012642
 21
2028.4070368662
 31
0.0
  0
LINE
  5
3AE
330
1F
100
AcDbEntity
  8
0
  6
Continuous
 62
     7
370
    25
100
AcDbLine
 10
883.1578012642
 20
2028.4070368662
 30
0.0
 11
881.7186424595
 21
2028.2968874827
 31
0.0
  0
LINE
  5
3AF
330
1F
100
AcDbEntity
  8
0
  6
Continuous
 62
     7
370
    25
100
AcDbLine
 10
881.7186424595
 20
2028.2968874827
 30
0.0
 11
881.0945445758
 21
2026.9953604594
 31
0.0
  0
LINE
  5
3B0
330
1F
100
AcDbEntity
  8
0
  6
Continuous
 62
     7
370
    25
100
AcDbLine
 10
881.0945445758
 20
2026.9953604594
 30
0.0
 11
881.9096054968
 21
2025.8042212382
 31
0.0
  0
LINE
  5
3B1
330
1F
100
AcDbEntity
  8
0
  6
Continuous
 62
     7
370
    25
100
AcDbLine
 10
881.9096054968
 20
2025.8042212382
 30
0.0
 11
883.3487643015
 21
2025.9143706217
 31
0.0
  0
LINE
  5
3B2
330
1F
100
AcDbEntity
  8
0
  6
Continuous
 62
     7
370
    25
100
AcDbLine
 10
883.3487643015
 20
2025.9143706217
 30
0.0
 11
883.9728621852
 21
2027.215897645
 31
0.0
  0
CIRCLE
  5
3B3
330
1F
100
AcDbEntity
  8
0
  6
Continuous
 62
     7
370
    25
100
AcDbCircle
 10
857.0609919455
 20
2149.6643745858
 30
0.0
 40
1.807812999999984
  0
LINE
  5
3B4
330
1F
100
AcDbEntity
  8
0
  6
Continuous
 62
     7
370
    25
100
AcDbLine
 10
855.7452935812
 20
2149.0709181681
 30
0.0
 11
856.9171488372
 21
2148.228108491
 31
0.0
  0
LINE
  5
3B5
330
1F
100
AcDbEntity
  8
0
  6
Continuous
 62
     7
370
    25
100
AcDbLine
 10
856.9171488372
 20
2148.228108491
 30
0.0
 11
858.2328477961
 21
2148.8217707529
 31
0.0
  0
LINE
  5
3B6
330
1F
100
AcDbEntity
  8
0
  6
Continuous
 62
     7
370
    25
100
AcDbLine
 10
858.2328477961
 20
2148.8217707529
 30
0.0
 11
858.3766905677
 21
2150.2580042735
 31
0.0
  0
LINE
  5
3B7
330
1F
100
AcDbEntity
  8
0
  6
Continuous
 62
     7
370
    25
100
AcDbLine
 10
858.3766905677
 20
2150.2580042735
 30
0.0
 11
857.2048343805
 21
2151.100575532
 31
0.0
  0
LINE
  5
3B8
330
1F
100
AcDbEntity
  8
0
  6
Continuous
 62
     7
370
    25
100
AcDbLine
 10
857.2048343805
 20
2151.100575532
 30
0.0
 11
855.8891363528
 21
2150.5071516886
 31
0.0
  0
LINE
  5
3B9
330
1F
100
AcDbEntity
  8
0
  6
Continuous
 62
     7
370
    25
100
AcDbLine
 10
855.8891363528
 20
2150.5071516886
 30
0.0
 11
855.7452935812
 21
2149.0709181681
 31
0.0
  0
CIRCLE
  5
3BA
330
1F
100
AcDbEntity
  8
0
  6
Continuous
 62
     7
370
    25
100
AcDbCircle
 10
857.0609919455
 20
2149.6643745858
 30
0.0
 40
3.800000000000069
  0
CIRCLE
  5
3BB
330
1F
100
AcDbEntity
  8
0
  6
Continuous
 62
     7
370
    25
100
AcDbCircle
 10
891.9404108045
 20
2184.3378510699
 30
0.0
 40
3.799999999999843
  0
CIRCLE
  5
3BC
330
1F
100
AcDbEntity
  8
0
  6
Continuous
 62
     7
370
    25
100
AcDbCircle
 10
891.9404108045
 20
2184.3378510699
 30
0.0
 40
1.807812999999871
  0
LINE
  5
3BD
330
1F
100
AcDbEntity
  8
0
  6
Continuous
 62
     7
370
    25
100
AcDbLine
 10
890.7685553742
 20
2185.1806040659
 30
0.0
 11
890.6247126025
 21
2183.7443705454
 31
0.0
  0
LINE
  5
3BE
330
1F
100
AcDbEntity
  8
0
  6
Continuous
 62
     7
370
    25
100
AcDbLine
 10
890.6247126025
 20
2183.7443705454
 30
0.0
 11
891.7965678585
 21
2182.9015608683
 31
0.0
  0
LINE
  5
3BF
330
1F
100
AcDbEntity
  8
0
  6
Continuous
 62
     7
370
    25
100
AcDbLine
 10
893.1122658861
 20
2183.4952231303
 30
0.0
 11
893.2561086577
 21
2184.9314566508
 31
0.0
  0
LINE
  5
3C0
330
1F
100
AcDbEntity
  8
0
  6
Continuous
 62
     7
370
    25
100
AcDbLine
 10
893.2561086577
 20
2184.9314566508
 30
0.0
 11
892.0842534018
 21
2185.7740279093
 31
0.0
  0
LINE
  5
3C1
330
1F
100
AcDbEntity
  8
0
  6
Continuous
 62
     7
370
    25
100
AcDbLine
 10
892.0842534018
 20
2185.7740279093
 30
0.0
 11
890.7685553742
 21
2185.1806040659
 31
0.0
  0
LINE
  5
3C2
330
1F
100
AcDbEntity
  8
0
  6
Continuous
 62
     7
370
    25
100
AcDbLine
 10
891.7965678585
 20
2182.9015608683
 30
0.0
 11
893.1122658861
 21
2183.4952231303
 31
0.0
  0
CIRCLE
  5
3C3
330
1F
100
AcDbEntity
  8
0
  6
Continuous
 62
     7
370
    25
100
AcDbCircle
 10
857.5337031943
 20
2027.105647172
 30
0.0
 40
3.799999999999986
  0
CIRCLE
  5
3C4
330
1F
100
AcDbEntity
  8
0
  6
Continuous
 62
     7
370
    25
100
AcDbCircle
 10
857.5337031943
 20
2027.105647172
 30
0.0
 40
1.807812999999854
  0
LINE
  5
3C5
330
1F
100
AcDbEntity
  8
0
  6
Continuous
 62
     7
370
    25
100
AcDbLine
 10
856.8302359519
 20
2025.8452292338
 30
0.0
 11
858.2734599796
 21
2025.8662100687
 31
0.0
  0
LINE
  5
3C6
330
1F
100
AcDbEntity
  8
0
  6
Continuous
 62
     7
370
    25
100
AcDbLine
 10
858.2734599796
 20
2025.8662100687
 30
0.0
 11
858.9769270358
 21
2027.1264906779
 31
0.0
  0
LINE
  5
3C7
330
1F
100
AcDbEntity
  8
0
  6
Continuous
 62
     7
370
    25
100
AcDbLine
 10
858.9769270358
 20
2027.1264906779
 30
0.0
 11
858.2371700642
 21
2028.3660288706
 31
0.0
  0
LINE
  5
3C8
330
1F
100
AcDbEntity
  8
0
  6
Continuous
 62
     7
370
    25
100
AcDbLine
 10
858.2371700642
 20
2028.3660288706
 30
0.0
 11
856.7939469677
 21
2028.3450480357
 31
0.0
  0
LINE
  5
3C9
330
1F
100
AcDbEntity
  8
0
  6
Continuous
 62
     7
370
    25
100
AcDbLine
 10
856.7939469677
 20
2028.3450480357
 30
0.0
 11
856.0904799116
 21
2027.0847674265
 31
0.0
  0
LINE
  5
3CA
330
1F
100
AcDbEntity
  8
0
  6
Continuous
 62
     7
370
    25
100
AcDbLine
 10
856.0904799116
 20
2027.0847674265
 30
0.0
 11
856.8302359519
 21
2025.8452292338
 31
0.0
  0
CIRCLE
  5
3CB
330
1F
100
AcDbEntity
  8
0
  6
Continuous
 62
     7
370
    25
100
AcDbCircle
 10
963.8454379273
 20
2256.2428781927
 30
0.0
 40
1.807812999999871
  0
LINE
  5
3CC
330
1F
100
AcDbEntity
  8
0
  6
Continuous
 62
     7
370
    25
100
AcDbLine
 10
963.7015977961
 20
2254.8066969767
 30
0.0
 11
965.0172958237
 21
2255.4001208201
 31
0.0
  0
LINE
  5
3CD
330
1F
100
AcDbEntity
  8
0
  6
Continuous
 62
     7
370
    25
100
AcDbLine
 10
965.0172958237
 20
2255.4001208201
 30
0.0
 11
965.1611367327
 21
2256.8363543406
 31
0.0
  0
LINE
  5
3CE
330
1F
100
AcDbEntity
  8
0
  6
Continuous
 62
     7
370
    25
100
AcDbLine
 10
965.1611367327
 20
2256.8363543406
 30
0.0
 11
963.9892796141
 21
2257.6791640177
 31
0.0
  0
LINE
  5
3CF
330
1F
100
AcDbEntity
  8
0
  6
Continuous
 62
     7
370
    25
100
AcDbLine
 10
962.6735815865
 20
2257.0855017558
 30
0.0
 11
962.5297406775
 21
2255.6492682352
 31
0.0
  0
LINE
  5
3D0
330
1F
100
AcDbEntity
  8
0
  6
Continuous
 62
     7
370
    25
100
AcDbLine
 10
962.5297406775
 20
2255.6492682352
 30
0.0
 11
963.7015977961
 21
2254.8066969767
 31
0.0
  0
LINE
  5
3D1
330
1F
100
AcDbEntity
  8
0
  6
Continuous
 62
     7
370
    25
100
AcDbLine
 10
963.9892796141
 20
2257.6791640177
 30
0.0
 11
962.6735815865
 21
2257.0855017558
 31
0.0
  0
CIRCLE
  5
3D2
330
1F
100
AcDbEntity
  8
0
  6
Continuous
 62
     7
370
    25
100
AcDbCircle
 10
963.8454379273
 20
2256.2428781927
 30
0.0
 40
3.79999999999991
  0
ARC
  5
3D3
330
1F
100
AcDbEntity
  8
0
  6
Continuous
 62
     7
370
    25
100
AcDbCircle
 10
1012.1340752582
 20
2136.049213739
 30
0.0
 40
123.5655409251508
100
AcDbArc
 50
90.0
 51
180.0
  0
LINE
  5
3D4
330
1F
100
AcDbEntity
  8
0
  6
Continuous
 62
     7
370
    25
100
AcDbLine
 10
888.568534897
 20
2136.0492106333
 30
0.0
 11
888.568534897
 21
2026.8639918223
 31
0.0
  0
ARC
  5
3D5
330
1F
100
AcDbEntity
  8
0
  6
Continuous
 62
     7
370
    25
100
AcDbCircle
 10
882.868534333
 20
2026.8640299586
 30
0.0
 40
5.700000000000045
100
AcDbArc
 50
270.0
 51
0.0
  0
LINE
  5
3D6
330
1F
100
AcDbEntity
  8
0
  6
Continuous
 62
     7
370
    25
100
AcDbLine
 10
882.8685343352
 20
2021.1641188517
 30
0.0
 11
857.1988720533
 21
2021.1641188517
 31
0.0
  0
ARC
  5
3D7
330
1F
100
AcDbEntity
  8
0
  6
Continuous
 62
     7
370
    25
100
AcDbCircle
 10
857.1988720555
 20
2026.8640299586
 30
0.0
 40
5.700000000000045
100
AcDbArc
 50
180.0
 51
270.0
  0
LINE
  5
3D8
330
1F
100
AcDbEntity
  8
0
  6
Continuous
 62
     7
370
    25
100
AcDbLine
 10
851.4988714916
 20
2026.8639918223
 30
0.0
 11
851.4988714916
 21
2136.0492106333
 31
0.0
  0
ARC
  5
3D9
330
1F
100
AcDbEntity
  8
0
  6
Continuous
 62
     7
370
    25
100
AcDbCircle
 10
1012.1340752582
 20
2136.049213739
 30
0.0
 40
160.6352032026812
100
AcDbArc
 50
90.0
 51
180.0
  0
LINE
  5
3DA
330
1F
100
AcDbEntity
  8
0
  6
Continuous
 62
     7
370
    25
100
AcDbLine
 10
1012.1340820652
 20
2296.6844435587
 30
0.0
 11
1018.5340711933
 21
2296.6844435587
 31
0.0
  0
ARC
  5
3DB
330
1F
100
AcDbEntity
  8
0
  6
Continuous
 62
     7
370
    25
100
AcDbCircle
 10
1018.5340752582
 20
2293.6844169417
 30
0.0
 40
3.000000000000455
100
AcDbArc
 50
0.0
 51
90.0
  0
LINE
  5
3DC
330
1F
100
AcDbEntity
  8
0
  6
Continuous
 62
     7
370
    25
100
AcDbLine
 10
1021.534077273
 20
2262.6146670237
 30
0.0
 11
1021.534077273
 21
2293.6844225779
 31
0.0
  0
ARC
  5
3DD
330
1F
100
AcDbEntity
  8
0
  6
Continuous
 62
     7
370
    25
100
AcDbCircle
 10
1018.5340752582
 20
2262.6147546641
 30
0.0
 40
3.000000000000455
100
AcDbArc
 50
270.0
 51
0.0
  0
LINE
  5
3DE
330
1F
100
AcDbEntity
  8
0
  6
Continuous
 62
     7
370
    25
100
AcDbLine
 10
1018.5340711933
 20
2259.6146460429
 30
0.0
 11
1012.1340820652
 21
2259.6146460429
 31
0.0
  0
LINE
  5
3DF
330
1F
100
AcDbEntity
  8
0
  6
Continuous
 62
     7
370
    25
100
AcDbLine
 10
911.9431780738
 20
-930.8943752393
 30
0.0
 11
911.9431780738
 21
-932.8943494901
 31
0.0
  0
LINE
  5
3E0
330
1F
100
AcDbEntity
  8
0
  6
Continuous
 62
     7
370
    25
100
AcDbLine
 10
911.0337043268
 20
-920.8943251714
 30
0.0
 11
910.0337023002
 21
-920.8943251714
 31
0.0
  0
LINE
  5
3E1
330
1F
100
AcDbEntity
  8
0
  6
Continuous
 62
     7
370
    25
100
AcDbLine
 10
910.0337023002
 20
-915.8943299398
 30
0.0
 11
911.0337043268
 21
-915.8943299398
 31
0.0
  0
LINE
  5
3E2
330
1F
100
AcDbEntity
  8
0
  6
Continuous
 62
     7
370
    25
100
AcDbLine
 10
911.0337043268
 20
-915.8943299398
 30
0.0
 11
911.0337043268
 21
-920.8943251714
 31
0.0
  0
LINE
  5
3E3
330
1F
100
AcDbEntity
  8
0
  6
Continuous
 62
     7
370
    25
100
AcDbLine
 10
910.0337023002
 20
-942.8943399534
 30
0.0
 11
911.0337043268
 21
-942.8943399534
 31
0.0
  0
LINE
  5
3E4
330
1F
100
AcDbEntity
  8
0
  6
Continuous
 62
     7
370
    25
100
AcDbLine
 10
911.0337043268
 20
-920.8943251714
 30
0.0
 11
911.0337043268
 21
-942.8943399534
 31
0.0
  0
LINE
  5
3E5
330
1F
100
AcDbEntity
  8
0
  6
Continuous
 62
     7
370
    25
100
AcDbLine
 10
911.0337043268
 20
-947.894335185
 30
0.0
 11
910.0337023002
 21
-947.894335185
 31
0.0
  0
LINE
  5
3E6
330
1F
100
AcDbEntity
  8
0
  6
Continuous
 62
     7
370
    25
100
AcDbLine
 10
911.0337043268
 20
-942.8943399534
 30
0.0
 11
911.0337043268
 21
-947.894335185
 31
0.0
  0
LINE
  5
3E7
330
1F
100
AcDbEntity
  8
0
  6
Continuous
 62
     7
370
    25
100
AcDbLine
 10
889.0337025833
 20
2084.1056700602
 30
0.0
 11
905.0337033433
 21
2084.1056700602
 31
0.0
  0
LINE
  5
3E8
330
1F
100
AcDbEntity
  8
0
  6
Continuous
 62
     7
370
    25
100
AcDbLine
 10
905.0337033433
 20
2081.1056490794
 30
0.0
 11
905.0337033433
 21
2084.1056700602
 31
0.0
  0
LINE
  5
3E9
330
1F
100
AcDbEntity
  8
0
  6
Continuous
 62
     7
370
    25
100
AcDbLine
 10
889.0337025833
 20
2081.1056490794
 30
0.0
 11
905.0337033433
 21
2081.1056490794
 31
0.0
  0
LINE
  5
3EA
330
1F
100
AcDbEntity
  8
0
  6
Continuous
 62
     7
370
    25
100
AcDbLine
 10
889.0337025833
 20
2084.1056700602
 30
0.0
 11
889.0337025833
 21
2081.1056490794
 31
0.0
  0
LINE
  5
3EB
330
1F
100
AcDbEntity
  8
0
  6
Continuous
 62
     7
370
    25
100
AcDbLine
 10
910.0337023002
 20
2084.1056700602
 30
0.0
 11
910.0337023002
 21
2081.1056490794
 31
0.0
  0
LINE
  5
3EC
330
1F
100
AcDbEntity
  8
0
  6
Continuous
 62
     7
370
    25
100
AcDbLine
 10
905.0337033433
 20
2084.1056700602
 30
0.0
 11
910.0337023002
 21
2084.1056700602
 31
0.0
  0
LINE
  5
3ED
330
1F
100
AcDbEntity
  8
0
  6
Continuous
 62
     7
370
    25
100
AcDbLine
 10
910.0337023002
 20
2081.1056490794
 30
0.0
 11
905.0337033433
 21
2081.1056490794
 31
0.0
  0
LINE
  5
3EE
330
1F
100
AcDbEntity
  8
0
  6
Continuous
 62
     7
370
    25
100
AcDbLine
 10
835.0337030453
 20
2084.1056700602
 30
0.0
 11
835.0337030453
 21
2081.1056490794
 31
0.0
  0
LINE
  5
3EF
330
1F
100
AcDbEntity
  8
0
  6
Continuous
 62
     7
370
    25
100
AcDbLine
 10
835.0337030453
 20
2081.1056490794
 30
0.0
 11
830.0337040883
 21
2081.1056490794
 31
0.0
  0
LINE
  5
3F0
330
1F
100
AcDbEntity
  8
0
  6
Continuous
 62
     7
370
    25
100
AcDbLine
 10
830.0337040883
 20
2081.1056490794
 30
0.0
 11
830.0337040883
 21
2084.1056700602
 31
0.0
  0
LINE
  5
3F1
330
1F
100
AcDbEntity
  8
0
  6
Continuous
 62
     7
370
    25
100
AcDbLine
 10
830.0337040883
 20
2084.1056700602
 30
0.0
 11
835.0337030453
 21
2084.1056700602
 31
0.0
  0
LINE
  5
3F2
330
1F
100
AcDbEntity
  8
0
  6
Continuous
 62
     7
370
    25
100
AcDbLine
 10
851.0337038052
 20
2081.1056490794
 30
0.0
 11
851.0337038052
 21
2084.1056700602
 31
0.0
  0
LINE
  5
3F3
330
1F
100
AcDbEntity
  8
0
  6
Continuous
 62
     7
370
    25
100
AcDbLine
 10
835.0337030453
 20
2081.1056490794
 30
0.0
 11
851.0337038052
 21
2081.1056490794
 31
0.0
  0
LINE
  5
3F4
330
1F
100
AcDbEntity
  8
0
  6
Continuous
 62
     7
370
    25
100
AcDbLine
 10
835.0337030453
 20
2084.1056700602
 30
0.0
 11
851.0337038052
 21
2084.1056700602
 31
0.0
  0
LWPOLYLINE
  5
3F5
330
1F
100
AcDbEntity
  8
0
  6
Continuous
 62
     7
370
    25
100
AcDbPolyline
 90
        3
 70
   128
 43
0.0
 10
883.7971560744
 20
2021.2401743784
 10
883.7042454717
 20
2021.2208624735
 10
882.5337033805
 20
2021.1057062998
  0
LINE
  5
3F6
330
1F
100
AcDbEntity
  8
0
  6
Continuous
 62
     7
370
    25
100
AcDbLine
 10
882.5337033805
 20
2021.1057062998
 30
0.0
 11
857.533703008
 21
2021.1057062998
 31
0.0
  0
LWPOLYLINE
  5
3F7
330
1F
100
AcDbEntity
  8
0
  6
Continuous
 62
     7
370
    25
100
AcDbPolyline
 90
        3
 70
   128
 43
0.0
 10
857.533703008
 20
2021.1057062998
 10
856.3631609169
 20
2021.2208624735
 10
856.2701851216
 20
2021.2401743784
  0
ARC
  5
3F8
330
1F
100
AcDbEntity
  8
0
  6
Continuous
 62
     7
370
    25
100
AcDbCircle
 10
1019.0537455501
 20
2293.7188439595
 30
0.0
 40
2.965572982202502
100
AcDbArc
 50
0.0
 51
90.0
  0
LINE
  5
3F9
330
1F
100
AcDbEntity
  8
0
  6
Continuous
 62
     7
370
    25
100
AcDbLine
 10
1022.0193186861
 20
2293.7187548533
 30
0.0
 11
1022.0193186861
 21
2289.9996634379
 31
0.0
  0
LINE
  5
3FA
330
1F
100
AcDbEntity
  8
0
  6
Continuous
 62
     7
370
    25
100
AcDbLine
 10
1022.0193186861
 20
2263.599574174
 30
0.0
 11
1022.0193186861
 21
2262.5803347483
 31
0.0
  0
ARC
  5
3FB
330
1F
100
AcDbEntity
  8
0
  6
Continuous
 62
     7
370
    25
100
AcDbCircle
 10
1019.0537455501
 20
2262.5803276463
 30
0.0
 40
2.965572982202502
100
AcDbArc
 50
270.0
 51
0.0
  0
LINE
  5
3FC
330
1F
100
AcDbEntity
  8
0
  6
Continuous
 62
     7
370
    25
100
AcDbLine
 10
1019.05374919
 20
2259.6146460429
 30
0.0
 11
1018.5340711933
 21
2259.6146460429
 31
0.0
  0
LINE
  5
3FD
330
1F
100
AcDbEntity
  8
0
  6
Continuous
 62
     7
370
    25
100
AcDbLine
 10
875.0337030825
 20
-1682.8557480321
 30
0.0
 11
865.033703306
 21
-1682.8557480321
 31
0.0
  0
LINE
  5
3FE
330
1F
100
AcDbEntity
  8
0
  6
Continuous
 62
     7
370
    25
100
AcDbLine
 10
875.0337030825
 20
-1682.8557480321
 30
0.0
 11
875.0337030825
 21
-1688.8943528019
 31
0.0
  0
LINE
  5
3FF
330
1F
100
AcDbEntity
  8
0
  6
Continuous
 62
     7
370
    25
100
AcDbLine
 10
865.033703306
 20
-1688.8943528019
 30
0.0
 11
875.0337030825
 21
-1688.8943528019
 31
0.0
  0
LINE
  5
400
330
1F
100
AcDbEntity
  8
0
  6
Continuous
 62
     7
370
    25
100
AcDbLine
 10
865.033703306
 20
-1682.8557480321
 30
0.0
 11
865.033703306
 21
-1688.8943528019
 31
0.0
  0
LINE
  5
401
330
1F
100
AcDbEntity
  8
0
  6
Continuous
 62
     7
370
    25
100
AcDbLine
 10
865.033703306
 20
-1691.894352828
 30
0.0
 11
865.033703306
 21
-1688.8943528019
 31
0.0
  0
LINE
  5
402
330
1F
100
AcDbEntity
  8
0
  6
Continuous
 62
     7
370
    25
100
AcDbLine
 10
875.0337030825
 20
-1688.8943528019
 30
0.0
 11
875.0337030825
 21
-1691.894352828
 31
0.0
  0
LINE
  5
403
330
1F
100
AcDbEntity
  8
0
  6
Continuous
 62
     7
370
    25
100
AcDbLine
 10
865.033703306
 20
-1682.8557480321
 30
0.0
 11
865.033703306
 21
-1681.1120337069
 31
0.0
  0
LINE
  5
404
330
1F
100
AcDbEntity
  8
0
  6
Continuous
 62
     7
370
    25
100
AcDbLine
 10
865.033703306
 20
-1681.1120337069
 30
0.0
 11
875.0337030825
 21
-1681.1120337069
 31
0.0
  0
LINE
  5
405
330
1F
100
AcDbEntity
  8
0
  6
Continuous
 62
     7
370
    25
100
AcDbLine
 10
875.0337030825
 20
-1681.1120337069
 30
0.0
 11
875.0337030825
 21
-1682.8557480321
 31
0.0
  0
LINE
  5
406
330
1F
100
AcDbEntity
  8
0
  6
Continuous
 62
     7
370
    25
100
AcDbLine
 10
875.0337030825
 20
-1613.1506417141
 30
0.0
 11
865.033703306
 21
-1613.1506417141
 31
0.0
  0
LINE
  5
407
330
1F
100
AcDbEntity
  8
0
  6
Continuous
 62
     7
370
    25
100
AcDbLine
 10
875.0337030825
 20
-1613.1506417141
 30
0.0
 11
875.0337030825
 21
-1681.1120337069
 31
0.0
  0
LINE
  5
408
330
1F
100
AcDbEntity
  8
0
  6
Continuous
 62
     7
370
    25
100
AcDbLine
 10
865.033703306
 20
-1613.1506417141
 30
0.0
 11
865.033703306
 21
-1681.1120337069
 31
0.0
  0
LINE
  5
409
330
1F
100
AcDbEntity
  8
0
  6
Continuous
 62
     7
370
    25
100
AcDbLine
 10
865.033703306
 20
-1611.8943546161
 30
0.0
 11
875.0337030825
 21
-1611.8943546161
 31
0.0
  0
LINE
  5
40A
330
1F
100
AcDbEntity
  8
0
  6
Continuous
 62
     7
370
    25
100
AcDbLine
 10
875.0337030825
 20
-1611.8943546161
 30
0.0
 11
875.0337030825
 21
-1613.1506417141
 31
0.0
  0
LINE
  5
40B
330
1F
100
AcDbEntity
  8
0
  6
Continuous
 62
     7
370
    25
100
AcDbLine
 10
865.033703306
 20
-1613.1506417141
 30
0.0
 11
865.033703306
 21
-1611.8943546161
 31
0.0
  0
ARC
  5
40C
330
1F
100
AcDbEntity
  8
0
  6
Continuous
 62
     7
370
    25
100
AcDbCircle
 10
773.0337031943
 20
-1682.8557479882
 30
0.0
 40
3.000000000000137
100
AcDbArc
 50
144.462322208
 51
180.0
  0
LINE
  5
40D
330
1F
100
AcDbEntity
  8
0
  6
Continuous
 62
     7
370
    25
100
AcDbLine
 10
819.1363582474
 20
-1613.1506417141
 30
0.0
 11
770.5925026995
 21
-1681.1120337069
 31
0.0
  0
ARC
  5
40E
330
1F
100
AcDbEntity
  8
0
  6
Continuous
 62
     7
370
    25
100
AcDbCircle
 10
821.5775568801
 20
-1614.894352828
 30
0.0
 40
3.000000000000227
100
AcDbArc
 50
90.0
 51
144.462322208
  0
LINE
  5
40F
330
1F
100
AcDbEntity
  8
0
  6
Continuous
 62
     7
370
    25
100
AcDbLine
 10
827.033701734
 20
-1611.8943546161
 30
0.0
 11
821.5775558812
 21
-1611.8943546161
 31
0.0
  0
ARC
  5
410
330
1F
100
AcDbEntity
  8
0
  6
Continuous
 62
     7
370
    25
100
AcDbCircle
 10
827.0337031943
 20
-1614.894352828
 30
0.0
 40
3.000000000000227
100
AcDbArc
 50
0.0
 51
90.0
  0
ARC
  5
411
330
1F
100
AcDbEntity
  8
0
  6
Continuous
 62
     7
370
    25
100
AcDbCircle
 10
827.0337031943
 20
-1680.6517121409
 30
0.0
 40
3.000000000000024
100
AcDbArc
 50
315.0
 51
0.0
  0
LINE
  5
412
330
1F
100
AcDbEntity
  8
0
  6
Continuous
 62
     7
370
    25
100
AcDbLine
 10
820.9123829466
 20
-1691.0156731455
 30
0.0
 11
829.1550235909
 21
-1682.7730326176
 31
0.0
  0
ARC
  5
413
330
1F
100
AcDbEntity
  8
0
  6
Continuous
 62
     7
370
    25
100
AcDbCircle
 10
818.7910625072
 20
-1688.894352828
 30
0.0
 40
2.999999999999864
100
AcDbArc
 50
270.0
 51
315.0
  0
ARC
  5
414
330
1F
100
AcDbEntity
  8
0
  6
Continuous
 62
     7
370
    25
100
AcDbCircle
 10
773.0337031943
 20
-1688.894352828
 30
0.0
 40
3.000000000000114
100
AcDbArc
 50
180.0
 51
270.0
  0
LINE
  5
415
330
1F
100
AcDbEntity
  8
0
  6
Continuous
 62
     7
370
    25
100
AcDbLine
 10
770.0337017042
 20
-1682.8557480321
 30
0.0
 11
770.0337017042
 21
-1688.8943528019
 31
0.0
  0
ARC
  5
416
330
1F
100
AcDbEntity
  8
0
  6
Continuous
 62
     7
370
    25
100
AcDbCircle
 10
921.2763438814
 20
-1688.894352828
 30
0.0
 40
3.000000000000024
100
AcDbArc
 50
225.0
 51
270.0
  0
LINE
  5
417
330
1F
100
AcDbEntity
  8
0
  6
Continuous
 62
     7
370
    25
100
AcDbLine
 10
910.9123827976
 20
-1682.7730326176
 30
0.0
 11
919.1550234419
 21
-1691.0156731455
 31
0.0
  0
ARC
  5
418
330
1F
100
AcDbEntity
  8
0
  6
Continuous
 62
     7
370
    25
100
AcDbCircle
 10
913.0337031943
 20
-1680.6517121409
 30
0.0
 40
3.000000000000105
100
AcDbArc
 50
180.0
 51
225.0
  0
ARC
  5
419
330
1F
100
AcDbEntity
  8
0
  6
Continuous
 62
     7
370
    25
100
AcDbCircle
 10
913.0337031943
 20
-1614.894352828
 30
0.0
 40
3.000000000000227
100
AcDbArc
 50
90.0
 51
180.0
  0
LINE
  5
41A
330
1F
100
AcDbEntity
  8
0
  6
Continuous
 62
     7
370
    25
100
AcDbLine
 10
913.0337046546
 20
-1611.8943546161
 30
0.0
 11
918.4898505074
 21
-1611.8943546161
 31
0.0
  0
ARC
  5
41B
330
1F
100
AcDbEntity
  8
0
  6
Continuous
 62
     7
370
    25
100
AcDbCircle
 10
918.4898495084
 20
-1614.894352828
 30
0.0
 40
3.000000000000227
100
AcDbArc
 50
35.537677792
 51
90.0
  0
LINE
  5
41C
330
1F
100
AcDbEntity
  8
0
  6
Continuous
 62
     7
370
    25
100
AcDbLine
 10
920.9310481411
 20
-1613.1506417141
 30
0.0
 11
969.474903689
 21
-1681.1120337069
 31
0.0
  0
ARC
  5
41D
330
1F
100
AcDbEntity
  8
0
  6
Continuous
 62
     7
370
    25
100
AcDbCircle
 10
967.0337031943
 20
-1682.8557479882
 30
0.0
 40
3.000000000000229
100
AcDbArc
 50
0.0
 51
35.537677792
  0
LINE
  5
41E
330
1F
100
AcDbEntity
  8
0
  6
Continuous
 62
     7
370
    25
100
AcDbLine
 10
970.0337046844
 20
-1682.8557480321
 30
0.0
 11
970.0337046844
 21
-1688.8943528019
 31
0.0
  0
ARC
  5
41F
330
1F
100
AcDbEntity
  8
0
  6
Continuous
 62
     7
370
    25
100
AcDbCircle
 10
967.0337031943
 20
-1688.894352828
 30
0.0
 40
3.0
100
AcDbArc
 50
270.0
 51
0.0
  0
LINE
  5
420
330
1F
100
AcDbEntity
  8
0
  6
Continuous
 62
     7
370
    25
100
AcDbLine
 10
750.0337058765
 20
-1691.894352828
 30
0.0
 11
750.0337058765
 21
-1703.8943529323
 31
0.0
  0
LINE
  5
421
330
1F
100
AcDbEntity
  8
0
  6
Continuous
 62
     7
370
    25
100
AcDbLine
 10
730.0337025982
 20
-1703.8943529323
 30
0.0
 11
730.0337025982
 21
-1691.894352828
 31
0.0
  0
LINE
  5
422
330
1F
100
AcDbEntity
  8
0
  6
Continuous
 62
     7
370
    25
100
AcDbLine
 10
730.0337025982
 20
-1691.894352828
 30
0.0
 11
750.0337058765
 21
-1691.894352828
 31
0.0
  0
LINE
  5
423
330
1F
100
AcDbEntity
  8
0
  6
Continuous
 62
     7
370
    25
100
AcDbLine
 10
750.0337058765
 20
-1703.8943529323
 30
0.0
 11
730.0337025982
 21
-1703.8943529323
 31
0.0
  0
LINE
  5
424
330
1F
100
AcDbEntity
  8
0
  6
Continuous
 62
     7
370
    25
100
AcDbLine
 10
990.0337005121
 20
-1703.8943529323
 30
0.0
 11
990.0337005121
 21
-1691.894352828
 31
0.0
  0
LINE
  5
425
330
1F
100
AcDbEntity
  8
0
  6
Continuous
 62
     7
370
    25
100
AcDbLine
 10
750.0337058765
 20
-1691.894352828
 30
0.0
 11
990.0337005121
 21
-1691.894352828
 31
0.0
  0
LINE
  5
426
330
1F
100
AcDbEntity
  8
0
  6
Continuous
 62
     7
370
    25
100
AcDbLine
 10
750.0337058765
 20
-1703.8943529323
 30
0.0
 11
990.0337005121
 21
-1703.8943529323
 31
0.0
  0
LINE
  5
427
330
1F
100
AcDbEntity
  8
0
  6
Continuous
 62
     7
370
    25
100
AcDbLine
 10
1010.0337037903
 20
-1691.894352828
 30
0.0
 11
1010.0337037903
 21
-1703.8943529323
 31
0.0
  0
LINE
  5
428
330
1F
100
AcDbEntity
  8
0
  6
Continuous
 62
     7
370
    25
100
AcDbLine
 10
990.0337005121
 20
-1691.894352828
 30
0.0
 11
1010.0337037903
 21
-1691.894352828
 31
0.0
  0
LINE
  5
429
330
1F
100
AcDbEntity
  8
0
  6
Continuous
 62
     7
370
    25
100
AcDbLine
 10
1010.0337037903
 20
-1703.8943529323
 30
0.0
 11
990.0337005121
 21
-1703.8943529323
 31
0.0
  0
LINE
  5
42A
330
1F
100
AcDbEntity
  8
0
  6
Continuous
 62
     7
370
    25
100
AcDbLine
 10
830.0337040883
 20
2081.1056490794
 30
0.0
 11
830.0337040883
 21
-1691.894352828
 31
0.0
  0
LINE
  5
42B
330
1F
100
AcDbEntity
  8
0
  6
Continuous
 62
     7
370
    25
100
AcDbLine
 10
835.0337030453
 20
2081.1056490794
 30
0.0
 11
835.0337030453
 21
-1691.894352828
 31
0.0
  0
LINE
  5
42C
330
1F
100
AcDbEntity
  8
0
  6
Continuous
 62
     7
370
    25
100
AcDbLine
 10
889.0337025833
 20
2081.1056490794
 30
0.0
 11
889.0337025833
 21
2021.1057062998
 31
0.0
  0
LINE
  5
42D
330
1F
100
AcDbEntity
  8
0
  6
Continuous
 62
     7
370
    25
100
AcDbLine
 10
905.0337033433
 20
2081.1056490794
 30
0.0
 11
905.0337033433
 21
-1691.894352828
 31
0.0
  0
LINE
  5
42E
330
1F
100
AcDbEntity
  8
0
  6
Continuous
 62
     7
370
    25
100
AcDbLine
 10
851.0337038052
 20
2021.1057062998
 30
0.0
 11
851.0337038052
 21
2081.1056490794
 31
0.0
  0
LINE
  5
42F
330
1F
100
AcDbEntity
  8
0
  6
Continuous
 62
     7
370
    25
100
AcDbLine
 10
889.0337025833
 20
2021.1057062998
 30
0.0
 11
882.5337033805
 21
2021.1057062998
 31
0.0
  0
LINE
  5
430
330
1F
100
AcDbEntity
  8
0
  6
Continuous
 62
     7
370
    25
100
AcDbLine
 10
857.533703008
 20
2021.1057062998
 30
0.0
 11
851.0337038052
 21
2021.1057062998
 31
0.0
  0
LINE
  5
431
330
1F
100
AcDbEntity
  8
0
  6
Continuous
 62
     7
370
    25
100
AcDbLine
 10
910.0337023002
 20
2081.1056490794
 30
0.0
 11
910.0337023002
 21
-1691.894352828
 31
0.0
  0
LWPOLYLINE
  5
432
330
1F
100
AcDbEntity
  8
0
  6
Continuous
 62
     8
370
    25
100
AcDbPolyline
 90
        7
 70
   128
 43
0.0
 10
1440.4278615576
 20
2242.0288916483
 10
1440.4968241316
 20
2243.98845395
 10
1440.5531505209
 20
2245.5891962901
 10
1440.5967215163
 20
2246.8270655527
 10
1440.6273583037
 20
2247.6980086222
 10
1440.6450012785
 20
2248.1998797312
 10
1440.6496504408
 20
2248.3310099497
  0
LWPOLYLINE
  5
433
330
1F
100
AcDbEntity
  8
0
  6
Continuous
 62
     8
370
    25
100
AcDbPolyline
 90
        7
 70
   128
 43
0.0
 10
1303.399465428
 20
2248.3310099497
 10
1303.404084788
 20
2248.1998797312
 10
1303.4217277628
 20
2247.6980086222
 10
1303.4523943526
 20
2246.8270655527
 10
1303.4959355456
 20
2245.5891962901
 10
1303.5522917372
 20
2243.98845395
 10
1303.6212245089
 20
2242.0288916483
  0
LWPOLYLINE
  5
434
330
1F
100
AcDbEntity
  8
0
  6
Continuous
 62
     8
370
    25
100
AcDbPolyline
 90
        3
 70
   128
 43
0.0
 10
1303.6212245089
 20
2242.0288916483
 10
1303.6220887762
 20
2241.9638033762
 10
1303.6222377879
 20
2241.9516440287
  0
LWPOLYLINE
  5
435
330
1F
100
AcDbEntity
  8
0
  6
Continuous
 62
     8
370
    25
100
AcDbPolyline
 90
        3
 70
   128
 43
0.0
 10
1440.4268482787
 20
2241.9516440287
 10
1440.4270270926
 20
2241.9638033762
 10
1440.4278615576
 20
2242.0288916483
  0
LINE
  5
436
330
1F
100
AcDbEntity
  8
0
  6
Continuous
 62
     8
370
    25
100
AcDbLine
 10
1025.0193247658
 20
2264.8996706858
 30
0.0
 11
1025.3728697163
 21
2264.8996706858
 31
0.0
  0
LINE
  5
437
330
1F
100
AcDbEntity
  8
0
  6
Continuous
 62
     8
370
    25
100
AcDbLine
 10
1025.3728697163
 20
2282.8995581522
 30
0.0
 11
1025.0193247658
 21
2282.8995581522
 31
0.0
  0
ENDSEC
  0
SECTION
  2
OBJECTS
  0
DICTIONARY
  5
C
330
0
100
AcDbDictionary
281
     1
  3
ACAD_GROUP
350
D
  3
ACAD_LAYOUT
350
1A
  3
ACAD_MLINESTYLE
350
17
  3
ACAD_PLOTSETTINGS
350
19
  3
ACAD_PLOTSTYLENAME
350
E
  3
ACAD_SCALELIST
350
47
  0
DICTIONARY
  5
D
102
{ACAD_REACTORS
330
C
102
}
330
C
100
AcDbDictionary
281
     1
  0
DICTIONARY
  5
1A
102
{ACAD_REACTORS
330
C
102
}
330
C
100
AcDbDictionary
281
     1
  3
Layout1
350
1E
  3
Layout2
350
26
  3
Model
350
22
  0
DICTIONARY
  5
17
102
{ACAD_REACTORS
330
C
102
}
330
C
100
AcDbDictionary
281
     1
  3
Standard
350
18
  0
DICTIONARY
  5
19
102
{ACAD_REACTORS
330
C
102
}
330
C
100
AcDbDictionary
281
     1
  0
ACDBDICTIONARYWDFLT
  5
E
102
{ACAD_REACTORS
330
C
102
}
330
C
100
AcDbDictionary
281
     1
  3
Normal
350
F
100
AcDbDictionaryWithDefault
340
F
  0
DICTIONARY
  5
47
102
{ACAD_REACTORS
330
C
102
}
330
C
100
AcDbDictionary
281
     1
  3
A0
350
48
  3
A1
350
49
  3
A2
350
4A
  3
A3
350
4B
  3
A4
350
4C
  3
A5
350
4D
  3
A6
350
4E
  3
A7
350
4F
  3
A8
350
50
  3
A9
350
51
  3
B0
350
52
  3
B1
350
53
  3
B2
350
54
  3
B3
350
55
  3
B4
350
56
  3
B5
350
57
  3
B6
350
58
  3
B7
350
59
  3
B8
350
5A
  3
B9
350
5B
  3
C0
350
5C
  3
C1
350
5D
  3
C2
350
5E
  3
C3
350
5F
  3
C4
350
60
  3
C5
350
61
  3
C6
350
62
  3
C7
350
63
  3
C8
350
64
  3
C9
350
65
  3
D0
350
66
  3
D1
350
67
  3
D2
350
68
  0
LAYOUT
  5
1E
102
{ACAD_REACTORS
330
1A
102
}
330
1A
100
AcDbPlotSettings
  1

  2
none_device
  4

  6

 40
0.0
 41
0.0
 42
0.0
 43
0.0
 44
0.0
 45
0.0
 46
0.0
 47
0.0
 48
0.0
 49
0.0
140
0.0
141
0.0
142
1.0
143
1.0
 70
   688
 72
     1
 73
     0
 74
     5
  7

 75
    16
147
1.0
148
0.0
149
0.0
100
AcDbLayout
  1
Layout1
 70
     1
 71
     1
 10
0.0
 20
0.0
 11
420.0
 21
297.0
 12
0.0
 22
0.0
 32
0.0
 14
1.0000000000E+20
 24
1.0000000000E+20
 34
1.0000000000E+20
 15
-1.0000000000E+20
 25
-1.0000000000E+20
 35
-1.0000000000E+20
146
0.0
 13
0.0
 23
0.0
 33
0.0
 16
1.0
 26
0.0
 36
0.0
 17
0.0
 27
1.0
 37
0.0
 76
     0
330
1B
  0
LAYOUT
  5
26
102
{ACAD_REACTORS
330
1A
102
}
330
1A
100
AcDbPlotSettings
  1

  2
none_device
  4

  6

 40
0.0
 41
0.0
 42
0.0
 43
0.0
 44
0.0
 45
0.0
 46
0.0
 47
0.0
 48
0.0
 49
0.0
140
0.0
141
0.0
142
1.0
143
1.0
 70
   688
 72
     1
 73
     0
 74
     5
  7

 75
    16
147
1.0
148
0.0
149
0.0
100
AcDbLayout
  1
Layout2
 70
     1
 71
     2
 10
0.0
 20
0.0
 11
0.0
 21
0.0
 12
0.0
 22
0.0
 32
0.0
 14
0.0
 24
0.0
 34
0.0
 15
0.0
 25
0.0
 35
0.0
146
0.0
 13
0.0
 23
0.0
 33
0.0
 16
1.0
 26
0.0
 36
0.0
 17
0.0
 27
1.0
 37
0.0
 76
     0
330
23
  0
LAYOUT
  5
22
102
{ACAD_REACTORS
330
1A
102
}
330
1A
100
AcDbPlotSettings
  1

  2
none_device
  4
Letter_(8.50_x_11.00_Inches)
  6

 40
6.35
 41
6.35
 42
6.35000508
 43
6.35000508
 44
215.9
 45
279.4
 46
0.0
 47
0.0
 48
0.0
 49
0.0
140
0.0
141
0.0
142
1.0
143
1.0
 70
  1712
 72
     1
 73
     0
 74
     0
  7

 75
     0
147
1.0
148
0.0
149
0.0
100
AcDbLayout
  1
Model
 70
     1
 71
     0
 10
0.0
 20
0.0
 11
1189.0
 21
841.0
 12
0.0
 22
0.0
 32
0.0
 14
0.0
 24
0.0
 34
0.0
 15
1189.0
 25
841.0
 35
0.0
146
0.0
 13
0.0
 23
0.0
 33
0.0
 16
1.0
 26
0.0
 36
0.0
 17
0.0
 27
1.0
 37
0.0
 76
     0
330
1F
331
29
  0
MLINESTYLE
  5
18
102
{ACAD_REACTORS
330
17
102
}
330
17
100
AcDbMlineStyle
  2
Standard
 70
     0
  3

 62
   256
 51
90.0
 52
90.0
 71
     2
 49
0.5
 62
   256
  6
BYLAYER
 49
-0.5
 62
   256
  6
BYLAYER
  0
ACDBPLACEHOLDER
  5
F
102
{ACAD_REACTORS
330
E
102
}
330
E
  0
SCALE
  5
48
102
{ACAD_REACTORS
330
47
102
}
330
47
100
AcDbScale
 70
     0
300
1:1
140
1.0
141
1.0
290
     1
  0
SCALE
  5
49
102
{ACAD_REACTORS
330
47
102
}
330
47
100
AcDbScale
 70
     0
300
1:2
140
1.0
141
2.0
290
     0
  0
SCALE
  5
4A
102
{ACAD_REACTORS
330
47
102
}
330
47
100
AcDbScale
 70
     0
300
1:4
140
1.0
141
4.0
290
     0
  0
SCALE
  5
4B
102
{ACAD_REACTORS
330
47
102
}
330
47
100
AcDbScale
 70
     0
300
1:5
140
1.0
141
5.0
290
     0
  0
SCALE
  5
4C
102
{ACAD_REACTORS
330
47
102
}
330
47
100
AcDbScale
 70
     0
300
1:8
140
1.0
141
8.0
290
     0
  0
SCALE
  5
4D
102
{ACAD_REACTORS
330
47
102
}
330
47
100
AcDbScale
 70
     0
300
1:10
140
1.0
141
10.0
290
     0
  0
SCALE
  5
4E
102
{ACAD_REACTORS
330
47
102
}
330
47
100
AcDbScale
 70
     0
300
1:16
140
1.0
141
16.0
290
     0
  0
SCALE
  5
4F
102
{ACAD_REACTORS
330
47
102
}
330
47
100
AcDbScale
 70
     0
300
1:20
140
1.0
141
20.0
290
     0
  0
SCALE
  5
50
102
{ACAD_REACTORS
330
47
102
}
330
47
100
AcDbScale
 70
     0
300
1:30
140
1.0
141
30.0
290
     0
  0
SCALE
  5
51
102
{ACAD_REACTORS
330
47
102
}
330
47
100
AcDbScale
 70
     0
300
1:40
140
1.0
141
40.0
290
     0
  0
SCALE
  5
52
102
{ACAD_REACTORS
330
47
102
}
330
47
100
AcDbScale
 70
     0
300
1:50
140
1.0
141
50.0
290
     0
  0
SCALE
  5
53
102
{ACAD_REACTORS
330
47
102
}
330
47
100
AcDbScale
 70
     0
300
1:100
140
1.0
141
100.0
290
     0
  0
SCALE
  5
54
102
{ACAD_REACTORS
330
47
102
}
330
47
100
AcDbScale
 70
     0
300
2:1
140
2.0
141
1.0
290
     0
  0
SCALE
  5
55
102
{ACAD_REACTORS
330
47
102
}
330
47
100
AcDbScale
 70
     0
300
4:1
140
4.0
141
1.0
290
     0
  0
SCALE
  5
56
102
{ACAD_REACTORS
330
47
102
}
330
47
100
AcDbScale
 70
     0
300
8:1
140
8.0
141
1.0
290
     0
  0
SCALE
  5
57
102
{ACAD_REACTORS
330
47
102
}
330
47
100
AcDbScale
 70
     0
300
10:1
140
10.0
141
1.0
290
     0
  0
SCALE
  5
58
102
{ACAD_REACTORS
330
47
102
}
330
47
100
AcDbScale
 70
     0
300
100:1
140
100.0
141
1.0
290
     0
  0
SCALE
  5
59
102
{ACAD_REACTORS
330
47
102
}
330
47
100
AcDbScale
 70
     0
300
1/128" = 1'-0"
140
0.0078125
141
12.0
290
     0
  0
SCALE
  5
5A
102
{ACAD_REACTORS
330
47
102
}
330
47
100
AcDbScale
 70
     0
300
1/64" = 1'-0"
140
0.015625
141
12.0
290
     0
  0
SCALE
  5
5B
102
{ACAD_REACTORS
330
47
102
}
330
47
100
AcDbScale
 70
     0
300
1/32" = 1'-0"
140
0.03125
141
12.0
290
     0
  0
SCALE
  5
5C
102
{ACAD_REACTORS
330
47
102
}
330
47
100
AcDbScale
 70
     0
300
1/16" = 1'-0"
140
0.0625
141
12.0
290
     0
  0
SCALE
  5
5D
102
{ACAD_REACTORS
330
47
102
}
330
47
100
AcDbScale
 70
     0
300
3/32" = 1'-0"
140
0.09375
141
12.0
290
     0
  0
SCALE
  5
5E
102
{ACAD_REACTORS
330
47
102
}
330
47
100
AcDbScale
 70
     0
300
1/8" = 1'-0"
140
0.125
141
12.0
290
     0
  0
SCALE
  5
5F
102
{ACAD_REACTORS
330
47
102
}
330
47
100
AcDbScale
 70
     0
300
3/16" = 1'-0"
140
0.1875
141
12.0
290
     0
  0
SCALE
  5
60
102
{ACAD_REACTORS
330
47
102
}
330
47
100
AcDbScale
 70
     0
300
1/4" = 1'-0"
140
0.25
141
12.0
290
     0
  0
SCALE
  5
61
102
{ACAD_REACTORS
330
47
102
}
330
47
100
AcDbScale
 70
     0
300
3/8" = 1'-0"
140
0.375
141
12.0
290
     0
  0
SCALE
  5
62
102
{ACAD_REACTORS
330
47
102
}
330
47
100
AcDbScale
 70
     0
300
1/2" = 1'-0"
140
0.5
141
12.0
290
     0
  0
SCALE
  5
63
102
{ACAD_REACTORS
330
47
102
}
330
47
100
AcDbScale
 70
     0
300
3/4" = 1'-0"
140
0.75
141
12.0
290
     0
  0
SCALE
  5
64
102
{ACAD_REACTORS
330
47
102
}
330
47
100
AcDbScale
 70
     0
300
1" = 1'-0"
140
1.0
141
12.0
290
     0
  0
SCALE
  5
65
102
{ACAD_REACTORS
330
47
102
}
330
47
100
AcDbScale
 70
     0
300
1-1/2" = 1'-0"
140
1.5
141
12.0
290
     0
  0
SCALE
  5
66
102
{ACAD_REACTORS
330
47
102
}
330
47
100
AcDbScale
 70
     0
300
3" = 1'-0"
140
3.0
141
12.0
290
     0
  0
SCALE
  5
67
102
{ACAD_REACTORS
330
47
102
}
330
47
100
AcDbScale
 70
     0
300
6" = 1'-0"
140
6.0
141
12.0
290
     0
  0
SCALE
  5
68
102
{ACAD_REACTORS
330
47
102
}
330
47
100
AcDbScale
 70
     0
300
1'-0" = 1'-0"
140
12.0
141
12.0
290
     0
  0
ENDSEC
  0
EOF
