  0
SECTION
  2
HEADER
  9
$ACADVER
  1
AC1015
  9
$ACADMAINTVER
 70
     6
  9
$DWGCODEPAGE
  3
ANSI_1254
  9
$INSBASE
 10
0.0
 20
0.0
 30
0.0
  9
$EXTMIN
 10
1805.4462662288
 20
476.1776279219
 30
0.0
  9
$EXTMAX
 10
3062.1088991725
 20
3488.282474459
 30
0.0
  9
$LIMMIN
 10
0.0
 20
0.0
  9
$LIMMAX
 10
5000.0
 20
5000.0
  9
$ORTHOMODE
 70
     0
  9
$REGENMODE
 70
     1
  9
$FILLMODE
 70
     1
  9
$QTEXTMODE
 70
     0
  9
$MIRRTEXT
 70
     1
  9
$LTSCALE
 40
1.0
  9
$ATTMODE
 70
     1
  9
$TEXTSIZE
 40
4.9388888889
  9
$TRACEWID
 40
1.0
  9
$TEXTSTYLE
  7
Standard
  9
$CLAYER
  8
0
  9
$CELTYPE
  6
ByLayer
  9
$CECOLOR
 62
   256
  9
$CELTSCALE
 40
1.0
  9
$DISPSILH
 70
     0
  9
$DIMSCALE
 40
1.0
  9
$DIMASZ
 40
3.65
  9
$DIMEXO
 40
0.5
  9
$DIMDLI
 40
3.75
  9
$DIMRND
 40
0.0
  9
$DIMDLE
 40
0.0
  9
$DIMEXE
 40
1.0
  9
$DIMTP
 40
0.0
  9
$DIMTM
 40
0.0
  9
$DIMTXT
 40
4.2333333333
  9
$DIMCEN
 40
2.5
  9
$DIMTSZ
 40
0.0
  9
$DIMTOL
 70
     0
  9
$DIMLIM
 70
     0
  9
$DIMTIH
 70
     1
  9
$DIMTOH
 70
     1
  9
$DIMSE1
 70
     0
  9
$DIMSE2
 70
     0
  9
$DIMTAD
 70
     1
  9
$DIMZIN
 70
     0
  9
$DIMBLK
  1

  9
$DIMASO
 70
     1
  9
$DIMSHO
 70
     1
  9
$DIMPOST
  1

  9
$DIMAPOST
  1

  9
$DIMALT
 70
     0
  9
$DIMALTD
 70
     3
  9
$DIMALTF
 40
0.0393700787
  9
$DIMLFAC
 40
1.0
  9
$DIMTOFL
 70
     1
  9
$DIMTVP
 40
0.0
  9
$DIMTIX
 70
     0
  9
$DIMSOXD
 70
     0
  9
$DIMSAH
 70
     0
  9
$DIMBLK1
  1

  9
$DIMBLK2
  1

  9
$DIMSTYLE
  2
ISO-25
  9
$DIMCLRD
 70
     0
  9
$DIMCLRE
 70
     0
  9
$DIMCLRT
 70
     0
  9
$DIMTFAC
 40
1.0
  9
$DIMGAP
 40
1.524
  9
$DIMJUST
 70
     0
  9
$DIMSD1
 70
     0
  9
$DIMSD2
 70
     0
  9
$DIMTOLJ
 70
     0
  9
$DIMTZIN
 70
     0
  9
$DIMALTZ
 70
     0
  9
$DIMALTTZ
 70
     0
  9
$DIMUPT
 70
     0
  9
$DIMDEC
 70
     2
  9
$DIMTDEC
 70
     2
  9
$DIMALTU
 70
     2
  9
$DIMALTTD
 70
     3
  9
$DIMTXSTY
  7
Standard
  9
$DIMAUNIT
 70
     0
  9
$DIMADEC
 70
     2
  9
$DIMALTRND
 40
0.0
  9
$DIMAZIN
 70
     0
  9
$DIMDSEP
 70
    44
  9
$DIMATFIT
 70
     3
  9
$DIMFRAC
 70
     0
  9
$DIMLDRBLK
  1

  9
$DIMLUNIT
 70
     2
  9
$DIMLWD
 70
    -2
  9
$DIMLWE
 70
    -2
  9
$DIMTMOVE
 70
     0
  9
$LUNITS
 70
     2
  9
$LUPREC
 70
     2
  9
$SKETCHINC
 40
1.0
  9
$FILLETRAD
 40
10.0
  9
$AUNITS
 70
     0
  9
$AUPREC
 70
     2
  9
$MENU
  1
.
  9
$ELEVATION
 40
0.0
  9
$PELEVATION
 40
0.0
  9
$THICKNESS
 40
0.0
  9
$LIMCHECK
 70
     0
  9
$CHAMFERA
 40
0.0
  9
$CHAMFERB
 40
0.0
  9
$CHAMFERC
 40
0.0
  9
$CHAMFERD
 40
0.0
  9
$SKPOLY
 70
     0
  9
$TDCREATE
 40
2459151.50301632
  9
$TDUCREATE
 40
2459151.37801632
  9
$TDUPDATE
 40
2459151.508569896
  9
$TDUUPDATE
 40
2459151.383569896
  9
$TDINDWG
 40
0.0008992245
  9
$TDUSRTIMER
 40
0.000899213
  9
$USRTIMER
 70
     1
  9
$ANGBASE
 50
0.0
  9
$ANGDIR
 70
     0
  9
$PDMODE
 70
     0
  9
$PDSIZE
 40
-1.0
  9
$PLINEWID
 40
0.0
  9
$SPLFRAME
 70
     0
  9
$SPLINETYPE
 70
     6
  9
$SPLINESEGS
 70
     8
  9
$HANDSEED
  5
29B
  9
$SURFTAB1
 70
     6
  9
$SURFTAB2
 70
     6
  9
$SURFTYPE
 70
     6
  9
$SURFU
 70
     6
  9
$SURFV
 70
     6
  9
$UCSBASE
  2

  9
$UCSNAME
  2

  9
$UCSORG
 10
0.0
 20
0.0
 30
0.0
  9
$UCSXDIR
 10
1.0
 20
0.0
 30
0.0
  9
$UCSYDIR
 10
0.0
 20
1.0
 30
0.0
  9
$UCSORTHOREF
  2

  9
$UCSORTHOVIEW
 70
     0
  9
$UCSORGTOP
 10
0.0
 20
0.0
 30
0.0
  9
$UCSORGBOTTOM
 10
0.0
 20
0.0
 30
0.0
  9
$UCSORGLEFT
 10
0.0
 20
0.0
 30
0.0
  9
$UCSORGRIGHT
 10
0.0
 20
0.0
 30
0.0
  9
$UCSORGFRONT
 10
0.0
 20
0.0
 30
0.0
  9
$UCSORGBACK
 10
0.0
 20
0.0
 30
0.0
  9
$PUCSBASE
  2

  9
$PUCSNAME
  2

  9
$PUCSORG
 10
0.0
 20
0.0
 30
0.0
  9
$PUCSXDIR
 10
1.0
 20
0.0
 30
0.0
  9
$PUCSYDIR
 10
0.0
 20
1.0
 30
0.0
  9
$PUCSORTHOREF
  2

  9
$PUCSORTHOVIEW
 70
     0
  9
$PUCSORGTOP
 10
0.0
 20
0.0
 30
0.0
  9
$PUCSORGBOTTOM
 10
0.0
 20
0.0
 30
0.0
  9
$PUCSORGLEFT
 10
0.0
 20
0.0
 30
0.0
  9
$PUCSORGRIGHT
 10
0.0
 20
0.0
 30
0.0
  9
$PUCSORGFRONT
 10
0.0
 20
0.0
 30
0.0
  9
$PUCSORGBACK
 10
0.0
 20
0.0
 30
0.0
  9
$USERI1
 70
     0
  9
$USERI2
 70
     0
  9
$USERI3
 70
     0
  9
$USERI4
 70
     0
  9
$USERI5
 70
     0
  9
$USERR1
 40
0.0
  9
$USERR2
 40
0.0
  9
$USERR3
 40
0.0
  9
$USERR4
 40
0.0
  9
$USERR5
 40
0.0
  9
$WORLDVIEW
 70
     1
  9
$SHADEDGE
 70
     3
  9
$SHADEDIF
 70
    70
  9
$TILEMODE
 70
     1
  9
$MAXACTVP
 70
    64
  9
$PINSBASE
 10
0.0
 20
0.0
 30
0.0
  9
$PLIMCHECK
 70
     0
  9
$PEXTMIN
 10
1.000000000000000E+20
 20
1.000000000000000E+20
 30
1.000000000000000E+20
  9
$PEXTMAX
 10
-1.000000000000000E+20
 20
-1.000000000000000E+20
 30
-1.000000000000000E+20
  9
$PLIMMIN
 10
0.0
 20
0.0
  9
$PLIMMAX
 10
0.0
 20
0.0
  9
$UNITMODE
 70
     0
  9
$VISRETAIN
 70
     1
  9
$PLINEGEN
 70
     0
  9
$PSLTSCALE
 70
     1
  9
$TREEDEPTH
 70
  3020
  9
$CMLSTYLE
  2
Standard
  9
$CMLJUST
 70
     0
  9
$CMLSCALE
 40
20.0
  9
$PROXYGRAPHICS
 70
     1
  9
$MEASUREMENT
 70
     1
  9
$CELWEIGHT
370
    -1
  9
$ENDCAPS
280
     0
  9
$JOINSTYLE
280
     0
  9
$LWDISPLAY
290
     1
  9
$INSUNITS
 70
     4
  9
$HYPERLINKBASE
  1

  9
$STYLESHEET
  1

  9
$XEDIT
290
     1
  9
$CEPSNTYPE
380
     0
  9
$PSTYLEMODE
290
     1
  9
$FINGERPRINTGUID
  2
{edced322-d201-4422-b218-cc563d192a5f}
  9
$VERSIONGUID
  2
{FAEB1C32-E019-11D5-929B-00C0DF256EC4}
  9
$EXTNAMES
290
     1
  9
$PSVPSCALE
 40
0.0
  9
$OLESTARTUP
290
     0
  0
ENDSEC
  0
SECTION
  2
CLASSES
  0
CLASS
  1
ACDBDICTIONARYWDFLT
  2
AcDbDictionaryWithDefault
  3
ObjectDBX Classes
 90
        0
280
     0
281
     0
  0
CLASS
  1
VISUALSTYLE
  2
AcDbVisualStyle
  3
ObjectDBX Classes
 90
     4095
280
     0
281
     0
  0
CLASS
  1
MATERIAL
  2
AcDbMaterial
  3
ObjectDBX Classes
 90
     1153
280
     0
281
     0
  0
CLASS
  1
SCALE
  2
AcDbScale
  3
ObjectDBX Classes
 90
     1153
280
     0
281
     0
  0
CLASS
  1
TABLESTYLE
  2
AcDbTableStyle
  3
ObjectDBX Classes
 90
     4095
280
     0
281
     0
  0
CLASS
  1
MLEADERSTYLE
  2
AcDbMLeaderStyle
  3
ACDB_MLEADERSTYLE_CLASS
 90
     4095
280
     0
281
     0
  0
CLASS
  1
SUN
  2
AcDbSun
  3
SCENEOE
 90
     1153
280
     0
281
     0
  0
CLASS
  1
ACDBPLACEHOLDER
  2
AcDbPlaceHolder
  3
ObjectDBX Classes
 90
        0
280
     0
281
     0
  0
CLASS
  1
LAYOUT
  2
AcDbLayout
  3
ObjectDBX Classes
 90
        0
280
     0
281
     0
  0
ENDSEC
  0
SECTION
  2
TABLES
  0
TABLE
  2
VPORT
  5
8
330
0
100
AcDbSymbolTable
 70
     1
  0
VPORT
  5
29
330
8
100
AcDbSymbolTableRecord
100
AcDbViewportTableRecord
  2
*Active
 70
     0
 10
0.0
 20
0.0
 11
1.0
 21
1.0
 12
2433.77758270065
 22
1982.23005119045
 13
0.0
 23
0.0
 14
10.0
 24
10.0
 15
10.0
 25
10.0
 16
0.0
 26
0.0
 36
1.0
 17
0.0
 27
0.0
 37
0.0
 40
3072.346943467842
 41
2.325072886297376
 42
50.0
 43
0.0
 44
0.0
 50
0.0
 51
0.0
 71
    16
 72
  2000
 73
     1
 74
     3
 75
     0
 76
     0
 77
     0
 78
     0
281
     0
 65
     1
110
0.0
120
0.0
130
0.0
111
1.0
121
0.0
131
0.0
112
0.0
122
1.0
132
0.0
 79
     0
146
0.0
  0
ENDTAB
  0
TABLE
  2
LTYPE
  5
5
330
0
100
AcDbSymbolTable
 70
     6
  0
LTYPE
  5
14
330
5
100
AcDbSymbolTableRecord
100
AcDbLinetypeTableRecord
  2
ByBlock
 70
     0
  3

 72
    65
 73
     0
 40
0.0
  0
LTYPE
  5
15
330
5
100
AcDbSymbolTableRecord
100
AcDbLinetypeTableRecord
  2
ByLayer
 70
     0
  3

 72
    65
 73
     0
 40
0.0
  0
LTYPE
  5
16
330
5
100
AcDbSymbolTableRecord
100
AcDbLinetypeTableRecord
  2
Continuous
 70
     0
  3
Solid line
 72
    65
 73
     0
 40
0.0
  0
LTYPE
  5
6E
330
5
100
AcDbSymbolTableRecord
100
AcDbLinetypeTableRecord
  2
HIDDEN
 70
     0
  3
Hidden __ __ __ __ __ __ __ __ __ __ __ __ __ __
 72
    65
 73
     2
 40
1.905
 49
1.27
 74
     0
 49
-0.635
 74
     0
  0
LTYPE
  5
6F
330
5
100
AcDbSymbolTableRecord
100
AcDbLinetypeTableRecord
  2
PHANTOM
 70
     0
  3
Phantom ______  __  __  ______  __  __  ______
 72
    65
 73
     6
 40
12.7
 49
6.35
 74
     0
 49
-1.27
 74
     0
 49
1.27
 74
     0
 49
-1.27
 74
     0
 49
1.27
 74
     0
 49
-1.27
 74
     0
  0
LTYPE
  5
70
330
5
100
AcDbSymbolTableRecord
100
AcDbLinetypeTableRecord
  2
CENTER
 70
     0
  3
Center ____ _ ____ _ ____ _ ____ _ ____ _ ____
 72
    65
 73
     4
 40
10.16
 49
6.35
 74
     0
 49
-1.27
 74
     0
 49
1.27
 74
     0
 49
-1.27
 74
     0
  0
LTYPE
  5
71
330
5
100
AcDbSymbolTableRecord
100
AcDbLinetypeTableRecord
  2
CENTERX2
 70
     0
  3
Center (2x) ________  __  ________  __  _____
 72
    65
 73
     4
 40
20.32
 49
12.7
 74
     0
 49
-2.54
 74
     0
 49
2.54
 74
     0
 49
-2.54
 74
     0
  0
LTYPE
  5
72
330
5
100
AcDbSymbolTableRecord
100
AcDbLinetypeTableRecord
  2
DOT2
 70
     0
  3
Dot (.5x) ........................................
 72
    65
 73
     2
 40
0.635
 49
0.0
 74
     0
 49
-0.635
 74
     0
  0
ENDTAB
  0
TABLE
  2
LAYER
  5
2
330
0
100
AcDbSymbolTable
 70
     6
  0
LAYER
  5
10
330
2
100
AcDbSymbolTableRecord
100
AcDbLayerTableRecord
  2
0
 70
     0
 62
     7
  6
Continuous
370
    -3
390
F
  0
LAYER
  5
73
330
2
100
AcDbSymbolTableRecord
100
AcDbLayerTableRecord
  2
FORMAT
 70
     0
 62
     7
  6
Continuous
370
    -3
390
F
  0
LAYER
  5
74
330
2
100
AcDbSymbolTableRecord
100
AcDbLayerTableRecord
  2
SLD-0
 70
     0
 62
   179
  6
Continuous
370
    -3
390
F
  0
LAYER
  5
75
330
2
100
AcDbSymbolTableRecord
100
AcDbLayerTableRecord
  2
AAA_EKSEN
 70
     0
 62
     1
  6
CENTER
370
    -3
390
F
  0
LAYER
  5
76
330
2
100
AcDbSymbolTableRecord
100
AcDbLayerTableRecord
  2
03
 70
     0
 62
     3
  6
HIDDEN
370
    -3
390
F
  0
LAYER
  5
297
330
2
100
AcDbSymbolTableRecord
100
AcDbLayerTableRecord
  2
Defpoints
 70
     0
 62
     7
  6
Continuous
290
     0
370
    -3
390
F
  0
ENDTAB
  0
TABLE
  2
STYLE
  5
3
330
0
100
AcDbSymbolTable
 70
     1
  0
STYLE
  5
11
330
3
100
AcDbSymbolTableRecord
100
AcDbTextStyleTableRecord
  2
Standard
 70
     0
 40
0.0
 41
1.0
 50
0.0
 71
     0
 42
4.9388888889
  3
txt
  4

  0
ENDTAB
  0
TABLE
  2
VIEW
  5
6
330
0
100
AcDbSymbolTable
 70
     0
  0
ENDTAB
  0
TABLE
  2
UCS
  5
7
330
0
100
AcDbSymbolTable
 70
     0
  0
ENDTAB
  0
TABLE
  2
APPID
  5
9
330
0
100
AcDbSymbolTable
 70
     1
  0
APPID
  5
12
330
9
100
AcDbSymbolTableRecord
100
AcDbRegAppTableRecord
  2
ACAD
 70
     0
  0
ENDTAB
  0
TABLE
  2
DIMSTYLE
  5
A
330
0
100
AcDbSymbolTable
 70
     1
100
AcDbDimStyleTable
  0
DIMSTYLE
105
27
330
A
100
AcDbSymbolTableRecord
100
AcDbDimStyleTableRecord
  2
ISO-25
 70
     0
 41
2.5
 42
0.625
 43
3.75
 44
1.25
 73
     0
 74
     0
 77
     1
 78
     8
140
2.5
141
2.5
143
0.0393700787
147
0.625
171
     3
172
     1
178
     0
271
     2
272
     2
274
     3
278
    44
283
     0
284
     8
340
11
  0
ENDTAB
  0
TABLE
  2
BLOCK_RECORD
  5
1
330
0
100
AcDbSymbolTable
 70
     1
  0
BLOCK_RECORD
  5
1F
330
1
100
AcDbSymbolTableRecord
100
AcDbBlockTableRecord
  2
*Model_Space
340
22
  0
BLOCK_RECORD
  5
1B
330
1
100
AcDbSymbolTableRecord
100
AcDbBlockTableRecord
  2
*Paper_Space
340
1E
  0
BLOCK_RECORD
  5
23
330
1
100
AcDbSymbolTableRecord
100
AcDbBlockTableRecord
  2
*Paper_Space0
340
26
  0
ENDTAB
  0
ENDSEC
  0
SECTION
  2
BLOCKS
  0
BLOCK
  5
20
330
1F
100
AcDbEntity
  8
0
100
AcDbBlockBegin
  2
*Model_Space
 70
     0
 10
0.0
 20
0.0
 30
0.0
  3
*Model_Space
  1

  0
ENDBLK
  5
21
330
1F
100
AcDbEntity
  8
0
100
AcDbBlockEnd
  0
BLOCK
  5
1C
330
1B
100
AcDbEntity
 67
     1
  8
0
100
AcDbBlockBegin
  2
*Paper_Space
 70
     0
 10
0.0
 20
0.0
 30
0.0
  3
*Paper_Space
  1

  0
ENDBLK
  5
1D
330
1B
100
AcDbEntity
 67
     1
  8
0
100
AcDbBlockEnd
  0
BLOCK
  5
24
330
23
100
AcDbEntity
  8
0
100
AcDbBlockBegin
  2
*Paper_Space0
 70
     0
 10
0.0
 20
0.0
 30
0.0
  3
*Paper_Space0
  1

  0
ENDBLK
  5
25
330
23
100
AcDbEntity
  8
0
100
AcDbBlockEnd
  0
ENDSEC
  0
SECTION
  2
ENTITIES
  0
CIRCLE
  5
77
330
1F
100
AcDbEntity
  8
0
  6
Continuous
 62
     7
100
AcDbCircle
 10
2424.2155246717
 20
1674.1776270649
 30
0.0
 40
1.999999999999919
  0
ARC
  5
78
330
1F
100
AcDbEntity
  8
0
  6
Continuous
 62
     7
370
    25
100
AcDbCircle
 10
3010.9041748122
 20
3434.2687845236
 30
0.0
 40
1.000000000000287
100
AcDbArc
 50
270.1189146134
 51
358.0
  0
ARC
  5
79
330
1F
100
AcDbEntity
  8
0
  6
Continuous
 62
     7
370
    25
100
AcDbCircle
 10
2873.65401436
 20
3434.2687845236
 30
0.0
 40
1.000000000000532
100
AcDbArc
 50
182.0
 51
269.8986443955
  0
LINE
  5
7A
330
1F
100
AcDbEntity
  8
0
  6
Continuous
 62
     7
370
    25
100
AcDbLine
 10
2873.8767753207
 20
3426.8896903404
 30
0.0
 11
3010.6814156138
 21
3426.8896903404
 31
0.0
  0
ARC
  5
7B
330
1F
100
AcDbEntity
  8
0
  6
Continuous
 62
     7
370
    25
100
AcDbCircle
 10
2873.8767799196
 20
3427.8896135381
 30
0.0
 40
0.9999999999998329
100
AcDbArc
 50
182.0
 51
269.3707486219
  0
ARC
  5
7C
330
1F
100
AcDbEntity
  8
0
  6
Continuous
 62
     7
370
    25
100
AcDbCircle
 10
3010.6814092527
 20
3427.8896135381
 30
0.0
 40
1.000000000000287
100
AcDbArc
 50
270.4301672806
 51
358.0
  0
ARC
  5
7D
330
1F
100
AcDbEntity
  8
0
  6
Continuous
 62
     7
370
    25
100
AcDbCircle
 10
2856.9041748122
 20
3434.2687845234
 30
0.0
 40
1.000000000000303
100
AcDbArc
 50
270.1189146134
 51
358.0
  0
ARC
  5
7E
330
1F
100
AcDbEntity
  8
0
  6
Continuous
 62
     7
370
    25
100
AcDbCircle
 10
2719.65401436
 20
3434.2687845234
 30
0.0
 40
1.000000000000077
100
AcDbArc
 50
182.0
 51
269.8986443955
  0
ARC
  5
7F
330
1F
100
AcDbEntity
  8
0
  6
Continuous
 62
     7
370
    25
100
AcDbCircle
 10
2719.8767799196
 20
3427.8896135379
 30
0.0
 40
1.000000000000414
100
AcDbArc
 50
182.0
 51
269.3707486218
  0
LINE
  5
80
330
1F
100
AcDbEntity
  8
0
  6
Continuous
 62
     7
370
    25
100
AcDbLine
 10
2719.8767910563
 20
3426.8896903404
 30
0.0
 11
2856.6814015471
 21
3426.8896903404
 31
0.0
  0
ARC
  5
81
330
1F
100
AcDbEntity
  8
0
  6
Continuous
 62
     7
370
    25
100
AcDbCircle
 10
2856.6814092527
 20
3427.8896135379
 30
0.0
 40
1.00000000000038
100
AcDbArc
 50
270.4301672806
 51
358.0
  0
LWPOLYLINE
  5
82
330
1F
100
AcDbEntity
  8
0
  6
Continuous
 62
     7
370
    25
100
AcDbPolyline
 90
        6
 70
   128
 43
0.0
 10
3012.0412955844
 20
3438.1776179679
 10
3012.010658797
 20
3437.3004760154
 10
3011.9647632205
 20
3435.9855975517
 10
3011.930788573
 20
3435.0142802604
 10
3011.9101653659
 20
3434.4227637657
 10
3011.9035492503
 20
3434.2341746696
  0
LWPOLYLINE
  5
83
330
1F
100
AcDbEntity
  8
0
  6
Continuous
 62
     7
370
    25
100
AcDbPolyline
 90
        6
 70
   128
 43
0.0
 10
2872.6546118819
 20
3434.2341746696
 10
2872.6480255687
 20
3434.4227637657
 10
2872.6273725593
 20
3435.0142802604
 10
2872.5934575164
 20
3435.9855975517
 10
2872.5475321376
 20
3437.3004760154
 10
2872.5168953502
 20
3438.1776179679
  0
LINE
  5
84
330
1F
100
AcDbEntity
  8
0
  6
Continuous
 62
     7
370
    25
100
AcDbLine
 10
3010.9041581714
 20
3433.2690562614
 30
0.0
 11
2995.2410708033
 21
3433.2690562614
 31
0.0
  0
LINE
  5
85
330
1F
100
AcDbEntity
  8
0
  6
Continuous
 62
     7
370
    25
100
AcDbLine
 10
2995.2410708033
 20
3433.2690562614
 30
0.0
 11
2989.3170843684
 21
3433.2690562614
 31
0.0
  0
LINE
  5
86
330
1F
100
AcDbEntity
  8
0
  6
Continuous
 62
     7
370
    25
100
AcDbLine
 10
2989.3170843684
 20
3433.2690562614
 30
0.0
 11
2985.2410803401
 21
3433.2690562614
 31
0.0
  0
LINE
  5
87
330
1F
100
AcDbEntity
  8
0
  6
Continuous
 62
     7
370
    25
100
AcDbLine
 10
2985.2410803401
 20
3433.2690562614
 30
0.0
 11
2979.3170939052
 21
3433.2690562614
 31
0.0
  0
LINE
  5
88
330
1F
100
AcDbEntity
  8
0
  6
Continuous
 62
     7
370
    25
100
AcDbLine
 10
2979.3170939052
 20
3433.2690562614
 30
0.0
 11
2975.2410898768
 21
3433.2690562614
 31
0.0
  0
LINE
  5
89
330
1F
100
AcDbEntity
  8
0
  6
Continuous
 62
     7
370
    25
100
AcDbLine
 10
2975.2410898768
 20
3433.2690562614
 30
0.0
 11
2969.3171034419
 21
3433.2690562614
 31
0.0
  0
LINE
  5
8A
330
1F
100
AcDbEntity
  8
0
  6
Continuous
 62
     7
370
    25
100
AcDbLine
 10
2969.3171034419
 20
3433.2690562614
 30
0.0
 11
2965.2410994136
 21
3433.2690562614
 31
0.0
  0
LINE
  5
8B
330
1F
100
AcDbEntity
  8
0
  6
Continuous
 62
     7
370
    25
100
AcDbLine
 10
2965.2410994136
 20
3433.2690562614
 30
0.0
 11
2959.3171129786
 21
3433.2690562614
 31
0.0
  0
LINE
  5
8C
330
1F
100
AcDbEntity
  8
0
  6
Continuous
 62
     7
370
    25
100
AcDbLine
 10
2959.3171129786
 20
3433.2690562614
 30
0.0
 11
2955.2411089503
 21
3433.2690562614
 31
0.0
  0
LINE
  5
8D
330
1F
100
AcDbEntity
  8
0
  6
Continuous
 62
     7
370
    25
100
AcDbLine
 10
2955.2411089503
 20
3433.2690562614
 30
0.0
 11
2949.3171225154
 21
3433.2690562614
 31
0.0
  0
LINE
  5
8E
330
1F
100
AcDbEntity
  8
0
  6
Continuous
 62
     7
370
    25
100
AcDbLine
 10
2949.3171225154
 20
3433.2690562614
 30
0.0
 11
2945.2410588824
 21
3433.2690562614
 31
0.0
  0
LINE
  5
8F
330
1F
100
AcDbEntity
  8
0
  6
Continuous
 62
     7
370
    25
100
AcDbLine
 10
2945.2410588824
 20
3433.2690562614
 30
0.0
 11
2939.3171320521
 21
3433.2690562614
 31
0.0
  0
LINE
  5
90
330
1F
100
AcDbEntity
  8
0
  6
Continuous
 62
     7
370
    25
100
AcDbLine
 10
2939.3171320521
 20
3433.2690562614
 30
0.0
 11
2935.2410684192
 21
3433.2690562614
 31
0.0
  0
LINE
  5
91
330
1F
100
AcDbEntity
  8
0
  6
Continuous
 62
     7
370
    25
100
AcDbLine
 10
2935.2410684192
 20
3433.2690562614
 30
0.0
 11
2929.3170819842
 21
3433.2690562614
 31
0.0
  0
LINE
  5
92
330
1F
100
AcDbEntity
  8
0
  6
Continuous
 62
     7
370
    25
100
AcDbLine
 10
2929.3170819842
 20
3433.2690562614
 30
0.0
 11
2925.2410779559
 21
3433.2690562614
 31
0.0
  0
LINE
  5
93
330
1F
100
AcDbEntity
  8
0
  6
Continuous
 62
     7
370
    25
100
AcDbLine
 10
2919.317091521
 20
3433.2690562614
 30
0.0
 11
2925.2410779559
 21
3433.2690562614
 31
0.0
  0
LINE
  5
94
330
1F
100
AcDbEntity
  8
0
  6
Continuous
 62
     7
370
    25
100
AcDbLine
 10
2919.317091521
 20
3433.2690562614
 30
0.0
 11
2915.2410874927
 21
3433.2690562614
 31
0.0
  0
LINE
  5
95
330
1F
100
AcDbEntity
  8
0
  6
Continuous
 62
     7
370
    25
100
AcDbLine
 10
2909.3171010577
 20
3433.2690562614
 30
0.0
 11
2915.2410874927
 21
3433.2690562614
 31
0.0
  0
LINE
  5
96
330
1F
100
AcDbEntity
  8
0
  6
Continuous
 62
     7
370
    25
100
AcDbLine
 10
2909.3171010577
 20
3433.2690562614
 30
0.0
 11
2905.2410672271
 21
3433.2690562614
 31
0.0
  0
LINE
  5
97
330
1F
100
AcDbEntity
  8
0
  6
Continuous
 62
     7
370
    25
100
AcDbLine
 10
2899.3171105945
 20
3433.2690562614
 30
0.0
 11
2905.2410672271
 21
3433.2690562614
 31
0.0
  0
LINE
  5
98
330
1F
100
AcDbEntity
  8
0
  6
Continuous
 62
     7
370
    25
100
AcDbLine
 10
2899.3171105945
 20
3433.2690562614
 30
0.0
 11
2895.2410767638
 21
3433.2690562614
 31
0.0
  0
LINE
  5
99
330
1F
100
AcDbEntity
  8
0
  6
Continuous
 62
     7
370
    25
100
AcDbLine
 10
2889.3171201312
 20
3433.2690562614
 30
0.0
 11
2895.2410767638
 21
3433.2690562614
 31
0.0
  0
LINE
  5
9A
330
1F
100
AcDbEntity
  8
0
  6
Continuous
 62
     7
370
    25
100
AcDbLine
 10
2889.3171201312
 20
3433.2690562614
 30
0.0
 11
2873.6540029609
 21
3433.2690562614
 31
0.0
  0
LINE
  5
9B
330
1F
100
AcDbEntity
  8
0
  6
Continuous
 62
     7
370
    25
100
AcDbLine
 10
2873.8757620418
 20
3426.96693796
 30
0.0
 11
3010.6824288928
 21
3426.96693796
 31
0.0
  0
ARC
  5
9C
330
1F
100
AcDbEntity
  8
0
  6
Continuous
 62
     7
370
    25
100
AcDbCircle
 10
2873.8494554036
 20
3427.9413777634
 30
0.0
 40
0.974794834672995
100
AcDbArc
 50
183.3946312625
 51
271.5464201266
  0
LWPOLYLINE
  5
9D
330
1F
100
AcDbEntity
  8
0
  6
Continuous
 62
     7
370
    25
100
AcDbPolyline
 90
        7
 70
   128
 43
0.0
 10
2872.8763709628
 20
3427.8836573966
 10
2872.8074381911
 20
3429.8582400688
 10
2872.7510819995
 20
3431.471380175
 10
2872.7075408065
 20
3432.7185477622
 10
2872.6769040191
 20
3433.5961665519
 10
2872.6592312419
 20
3434.1018523582
 10
2872.6546118819
 20
3434.2341746696
  0
ARC
  5
9E
330
1F
100
AcDbEntity
  8
0
  6
Continuous
 62
     7
370
    25
100
AcDbCircle
 10
3010.7087065956
 20
3427.9414093082
 30
0.0
 40
0.9748255875618703
100
AcDbArc
 50
268.4553299763
 51
356.6036186346
  0
LWPOLYLINE
  5
9F
330
1F
100
AcDbEntity
  8
0
  6
Continuous
 62
     7
370
    25
100
AcDbPolyline
 90
        7
 70
   128
 43
0.0
 10
3011.9035492503
 20
3434.233936251
 10
3011.8989596927
 20
3434.1018523582
 10
3011.8813167178
 20
3433.5961665519
 10
3011.8506203257
 20
3432.7185477622
 10
3011.8071089351
 20
3431.471380175
 10
3011.7507825458
 20
3429.8582400688
 10
3011.6818199717
 20
3427.8836573966
  0
LWPOLYLINE
  5
A0
330
1F
100
AcDbEntity
  8
0
  6
Continuous
 62
     7
370
    25
100
AcDbPolyline
 90
        3
 70
   128
 43
0.0
 10
2872.8773842418
 20
3427.8548087486
 10
2872.8772352302
 20
3427.8593387016
 10
2872.8763709628
 20
3427.8836573966
  0
LWPOLYLINE
  5
A1
330
1F
100
AcDbEntity
  8
0
  6
Continuous
 62
     7
370
    25
100
AcDbPolyline
 90
        3
 70
   128
 43
0.0
 10
3011.6818199717
 20
3427.8836573966
 10
3011.6809855067
 20
3427.8593387016
 10
3011.6808066928
 20
3427.8548087486
  0
LWPOLYLINE
  5
A2
330
1F
100
AcDbEntity
  8
0
  6
Continuous
 62
     7
370
    25
100
AcDbPolyline
 90
        6
 70
   128
 43
0.0
 10
2858.0412815177
 20
3438.1776179679
 10
2858.0106447303
 20
3437.3004760154
 10
2857.9647491538
 20
3435.9855975517
 10
2857.9308043086
 20
3435.0142802604
 10
2857.9101512992
 20
3434.4227637657
 10
2857.9035649859
 20
3434.2341746696
  0
LWPOLYLINE
  5
A3
330
1F
100
AcDbEntity
  8
0
  6
Continuous
 62
     7
370
    25
100
AcDbPolyline
 90
        6
 70
   128
 43
0.0
 10
2718.6545978152
 20
3434.2341746696
 10
2718.648011502
 20
3434.4227637657
 10
2718.6273882949
 20
3435.0142802604
 10
2718.5934434497
 20
3435.9855975517
 10
2718.5475478732
 20
3437.3004760154
 10
2718.5169110858
 20
3438.1776179679
  0
LINE
  5
A4
330
1F
100
AcDbEntity
  8
0
  6
Continuous
 62
     7
370
    25
100
AcDbLine
 10
2856.904173907
 20
3433.2690562614
 30
0.0
 11
2841.241086539
 21
3433.2690562614
 31
0.0
  0
LINE
  5
A5
330
1F
100
AcDbEntity
  8
0
  6
Continuous
 62
     7
370
    25
100
AcDbLine
 10
2841.241086539
 20
3433.2690562614
 30
0.0
 11
2835.317100104
 21
3433.2690562614
 31
0.0
  0
LINE
  5
A6
330
1F
100
AcDbEntity
  8
0
  6
Continuous
 62
     7
370
    25
100
AcDbLine
 10
2835.317100104
 20
3433.2690562614
 30
0.0
 11
2831.2410960757
 21
3433.2690562614
 31
0.0
  0
LINE
  5
A7
330
1F
100
AcDbEntity
  8
0
  6
Continuous
 62
     7
370
    25
100
AcDbLine
 10
2831.2410960757
 20
3433.2690562614
 30
0.0
 11
2825.3171096408
 21
3433.2690562614
 31
0.0
  0
LINE
  5
A8
330
1F
100
AcDbEntity
  8
0
  6
Continuous
 62
     7
370
    25
100
AcDbLine
 10
2825.3171096408
 20
3433.2690562614
 30
0.0
 11
2821.2410758101
 21
3433.2690562614
 31
0.0
  0
LINE
  5
A9
330
1F
100
AcDbEntity
  8
0
  6
Continuous
 62
     7
370
    25
100
AcDbLine
 10
2821.2410758101
 20
3433.2690562614
 30
0.0
 11
2815.3171191775
 21
3433.2690562614
 31
0.0
  0
LINE
  5
AA
330
1F
100
AcDbEntity
  8
0
  6
Continuous
 62
     7
370
    25
100
AcDbLine
 10
2815.3171191775
 20
3433.2690562614
 30
0.0
 11
2811.2410853469
 21
3433.2690562614
 31
0.0
  0
LINE
  5
AB
330
1F
100
AcDbEntity
  8
0
  6
Continuous
 62
     7
370
    25
100
AcDbLine
 10
2811.2410853469
 20
3433.2690562614
 30
0.0
 11
2805.3170989119
 21
3433.2690562614
 31
0.0
  0
LINE
  5
AC
330
1F
100
AcDbEntity
  8
0
  6
Continuous
 62
     7
370
    25
100
AcDbLine
 10
2805.3170989119
 20
3433.2690562614
 30
0.0
 11
2801.2410948836
 21
3433.2690562614
 31
0.0
  0
LINE
  5
AD
330
1F
100
AcDbEntity
  8
0
  6
Continuous
 62
     7
370
    25
100
AcDbLine
 10
2801.2410948836
 20
3433.2690562614
 30
0.0
 11
2795.3171084487
 21
3433.2690562614
 31
0.0
  0
LINE
  5
AE
330
1F
100
AcDbEntity
  8
0
  6
Continuous
 62
     7
370
    25
100
AcDbLine
 10
2795.3171084487
 20
3433.2690562614
 30
0.0
 11
2791.241074618
 21
3433.2690562614
 31
0.0
  0
LINE
  5
AF
330
1F
100
AcDbEntity
  8
0
  6
Continuous
 62
     7
370
    25
100
AcDbLine
 10
2791.241074618
 20
3433.2690562614
 30
0.0
 11
2785.3171179854
 21
3433.2690562614
 31
0.0
  0
LINE
  5
B0
330
1F
100
AcDbEntity
  8
0
  6
Continuous
 62
     7
370
    25
100
AcDbLine
 10
2785.3171179854
 20
3433.2690562614
 30
0.0
 11
2781.2410841548
 21
3433.2690562614
 31
0.0
  0
LINE
  5
B1
330
1F
100
AcDbEntity
  8
0
  6
Continuous
 62
     7
370
    25
100
AcDbLine
 10
2781.2410841548
 20
3433.2690562614
 30
0.0
 11
2775.3170977199
 21
3433.2690562614
 31
0.0
  0
LINE
  5
B2
330
1F
100
AcDbEntity
  8
0
  6
Continuous
 62
     7
370
    25
100
AcDbLine
 10
2775.3170977199
 20
3433.2690562614
 30
0.0
 11
2771.2410936915
 21
3433.2690562614
 31
0.0
  0
LINE
  5
B3
330
1F
100
AcDbEntity
  8
0
  6
Continuous
 62
     7
370
    25
100
AcDbLine
 10
2765.3171072566
 20
3433.2690562614
 30
0.0
 11
2771.2410936915
 21
3433.2690562614
 31
0.0
  0
LINE
  5
B4
330
1F
100
AcDbEntity
  8
0
  6
Continuous
 62
     7
370
    25
100
AcDbLine
 10
2765.3171072566
 20
3433.2690562614
 30
0.0
 11
2761.241073426
 21
3433.2690562614
 31
0.0
  0
LINE
  5
B5
330
1F
100
AcDbEntity
  8
0
  6
Continuous
 62
     7
370
    25
100
AcDbLine
 10
2755.3171167933
 20
3433.2690562614
 30
0.0
 11
2761.241073426
 21
3433.2690562614
 31
0.0
  0
LINE
  5
B6
330
1F
100
AcDbEntity
  8
0
  6
Continuous
 62
     7
370
    25
100
AcDbLine
 10
2755.3171167933
 20
3433.2690562614
 30
0.0
 11
2751.2410829627
 21
3433.2690562614
 31
0.0
  0
LINE
  5
B7
330
1F
100
AcDbEntity
  8
0
  6
Continuous
 62
     7
370
    25
100
AcDbLine
 10
2745.3170965278
 20
3433.2690562614
 30
0.0
 11
2751.2410829627
 21
3433.2690562614
 31
0.0
  0
LINE
  5
B8
330
1F
100
AcDbEntity
  8
0
  6
Continuous
 62
     7
370
    25
100
AcDbLine
 10
2745.3170965278
 20
3433.2690562614
 30
0.0
 11
2741.2410924994
 21
3433.2690562614
 31
0.0
  0
LINE
  5
B9
330
1F
100
AcDbEntity
  8
0
  6
Continuous
 62
     7
370
    25
100
AcDbLine
 10
2735.3171060645
 20
3433.2690562614
 30
0.0
 11
2741.2410924994
 21
3433.2690562614
 31
0.0
  0
LINE
  5
BA
330
1F
100
AcDbEntity
  8
0
  6
Continuous
 62
     7
370
    25
100
AcDbLine
 10
2735.3171060645
 20
3433.2690562614
 30
0.0
 11
2719.6539888942
 21
3433.2690562614
 31
0.0
  0
LINE
  5
BB
330
1F
100
AcDbEntity
  8
0
  6
Continuous
 62
     7
370
    25
100
AcDbLine
 10
2719.8757777774
 20
3426.96693796
 30
0.0
 11
2856.6824148261
 21
3426.96693796
 31
0.0
  0
ARC
  5
BC
330
1F
100
AcDbEntity
  8
0
  6
Continuous
 62
     7
370
    25
100
AcDbCircle
 10
2719.8494711392
 20
3427.9413777634
 30
0.0
 40
0.974794834672995
100
AcDbArc
 50
183.3946312625
 51
271.5464201266
  0
LWPOLYLINE
  5
BD
330
1F
100
AcDbEntity
  8
0
  6
Continuous
 62
     7
370
    25
100
AcDbPolyline
 90
        7
 70
   128
 43
0.0
 10
2718.8763866984
 20
3427.8836573966
 10
2718.8074241244
 20
3429.8582400688
 10
2718.7510977351
 20
3431.471380175
 10
2718.7075267398
 20
3432.7185477622
 10
2718.6768899524
 20
3433.5961665519
 10
2718.6592171752
 20
3434.1018523582
 10
2718.6545978152
 20
3434.2341746696
  0
ARC
  5
BE
330
1F
100
AcDbEntity
  8
0
  6
Continuous
 62
     7
370
    25
100
AcDbCircle
 10
2856.7087214642
 20
3427.9413777634
 30
0.0
 40
0.974794834672995
100
AcDbArc
 50
268.4535798734
 51
356.6053687374999
  0
LWPOLYLINE
  5
BF
330
1F
100
AcDbEntity
  8
0
  6
Continuous
 62
     7
370
    25
100
AcDbPolyline
 90
        7
 70
   128
 43
0.0
 10
2857.9035649859
 20
3434.233936251
 10
2857.898945626
 20
3434.1018523582
 10
2857.8813026511
 20
3433.5961665519
 10
2857.8506360614
 20
3432.7185477622
 10
2857.8070948684
 20
3431.471380175
 10
2857.7507684791
 20
3429.8582400688
 10
2857.681805905
 20
3427.8836573966
  0
LWPOLYLINE
  5
C0
330
1F
100
AcDbEntity
  8
0
  6
Continuous
 62
     7
370
    25
100
AcDbPolyline
 90
        3
 70
   128
 43
0.0
 10
2718.8773999774
 20
3427.8548087486
 10
2718.8772211635
 20
3427.8593387016
 10
2718.8763866984
 20
3427.8836573966
  0
LWPOLYLINE
  5
C1
330
1F
100
AcDbEntity
  8
0
  6
Continuous
 62
     7
370
    25
100
AcDbPolyline
 90
        3
 70
   128
 43
0.0
 10
2857.681805905
 20
3427.8836573966
 10
2857.68097144
 20
3427.8593387016
 10
2857.6807926261
 20
3427.8548087486
  0
SPLINE
  5
C2
330
1F
100
AcDbEntity
  8
0
  6
Continuous
 62
     7
370
    25
100
AcDbSpline
210
0.0
220
0.0
230
1.0
 70
     8
 71
     3
 72
     9
 73
     5
 74
     0
 42
0.000000001
 43
0.00000001
 40
0.0
 40
0.0
 40
0.0
 40
0.0
 40
0.1289846584882903
 40
1.0
 40
1.0
 40
1.0
 40
1.0
 10
3055.92736106748
 20
3463.968070925078
 30
0.0
 10
3055.87996455314
 20
3463.982372635578
 30
0.0
 10
3055.512506012761
 20
3464.093251794916
 30
0.0
 10
3055.143416207903
 20
3464.204744809578
 30
0.0
 10
3054.821933325475
 20
3464.30185693582
 30
0.0
  0
LINE
  5
C3
330
1F
100
AcDbEntity
  8
0
  6
Continuous
 62
     7
370
    25
100
AcDbLine
 10
3054.8219333255
 20
3464.3018569358
 30
0.0
 11
3053.980196532
 21
3463.5112609275
 31
0.0
  0
LINE
  5
C4
330
1F
100
AcDbEntity
  8
0
  6
Continuous
 62
     7
370
    25
100
AcDbLine
 10
3053.980196532
 20
3463.5112609275
 30
0.0
 11
3054.2438874804
 21
3462.3871173271
 31
0.0
  0
SPLINE
  5
C5
330
1F
100
AcDbEntity
  8
0
  6
Continuous
 62
     7
370
    25
100
AcDbSpline
210
0.0
220
0.0
230
1.0
 70
     8
 71
     3
 72
     9
 73
     5
 74
     0
 42
0.000000001
 43
0.00000001
 40
0.0
 40
0.0
 40
0.0
 40
0.0
 40
0.8710646021784351
 40
1.0
 40
1.0
 40
1.0
 40
1.0
 10
3054.243887480443
 20
3462.387117327055
 30
0.0
 10
3054.565396211387
 20
3462.290023646512
 30
0.0
 10
3054.934494818011
 20
3462.17855811307
 30
0.0
 10
3055.301938699421
 20
3462.067633433945
 30
0.0
 10
3055.349315222448
 20
3462.053331316313
 30
0.0
  0
LINE
  5
C6
330
1F
100
AcDbEntity
  8
0
  6
Continuous
 62
     7
370
    25
100
AcDbLine
 10
3056.191052016
 20
3462.8439273246
 30
0.0
 11
3055.9273610675
 21
3463.9680709251
 31
0.0
  0
CIRCLE
  5
C7
330
1F
100
AcDbEntity
  8
0
  6
Continuous
 62
     7
370
    25
100
AcDbCircle
 10
3055.0856185936
 20
3463.177627065
 30
0.0
 40
1.499999999999991
  0
LINE
  5
C8
330
1F
100
AcDbEntity
  8
0
  6
Continuous
 62
     7
370
    25
100
AcDbLine
 10
3055.3493152224
 20
3462.0533313163
 30
0.0
 11
3056.191052016
 21
3462.8439273246
 31
0.0
  0
LINE
  5
C9
330
1F
100
AcDbEntity
  8
0
  6
Continuous
 62
     7
370
    25
100
AcDbLine
 10
3059.1089377963
 20
3438.6773433097
 30
0.0
 11
3062.1088991725
 21
3438.5726775535
 31
0.0
  0
LINE
  5
CA
330
1F
100
AcDbEntity
  8
0
  6
Continuous
 62
     7
370
    25
100
AcDbLine
 10
3059.1089377963
 20
3438.6773433097
 30
0.0
 11
3059.1089377963
 21
3487.6778449424
 31
0.0
  0
LINE
  5
CB
330
1F
100
AcDbEntity
  8
0
  6
Continuous
 62
     7
370
    25
100
AcDbLine
 10
3062.1088991725
 20
3487.7827491172
 30
0.0
 11
3059.1089377963
 21
3487.6778449424
 31
0.0
  0
LINE
  5
CC
330
1F
100
AcDbEntity
  8
0
  6
Continuous
 62
     7
370
    25
100
AcDbLine
 10
3062.1088991725
 20
3438.5726775535
 30
0.0
 11
3062.1088991725
 21
3487.7827491172
 31
0.0
  0
LINE
  5
CD
330
1F
100
AcDbEntity
  8
0
  6
Continuous
 62
     7
370
    25
100
AcDbLine
 10
3062.1088991725
 20
3438.0729522117
 30
0.0
 11
3059.1089377963
 21
3438.1776179679
 31
0.0
  0
LINE
  5
CE
330
1F
100
AcDbEntity
  8
0
  6
Continuous
 62
     7
370
    25
100
AcDbLine
 10
3062.1088991725
 20
3438.5726775535
 30
0.0
 11
3062.1088991725
 21
3438.0729522117
 31
0.0
  0
LINE
  5
CF
330
1F
100
AcDbEntity
  8
0
  6
Continuous
 62
     7
370
    25
100
AcDbLine
 10
3059.1089377963
 20
3488.1775702842
 30
0.0
 11
3062.1088991725
 21
3488.282474459
 31
0.0
  0
LINE
  5
D0
330
1F
100
AcDbEntity
  8
0
  6
Continuous
 62
     7
370
    25
100
AcDbLine
 10
3062.1088991725
 20
3488.282474459
 30
0.0
 11
3062.1088991725
 21
3487.7827491172
 31
0.0
  0
CIRCLE
  5
D1
330
1F
100
AcDbEntity
  8
0
  6
Continuous
 62
     7
370
    25
100
AcDbCircle
 10
2508.7089229539
 20
3463.1776270649
 30
0.0
 40
6.7199999999998
  0
CIRCLE
  5
D2
330
1F
100
AcDbEntity
  8
0
  6
Continuous
 62
     7
370
    25
100
AcDbCircle
 10
2478.7089229539
 20
3463.1776270649
 30
0.0
 40
6.720000000000255
  0
LINE
  5
D3
330
1F
100
AcDbEntity
  8
0
  6
Continuous
 62
     7
370
    25
100
AcDbLine
 10
2462.1089237594
 20
3488.1775702842
 30
0.0
 11
3059.1089377963
 21
3488.1775702842
 31
0.0
  0
CIRCLE
  5
D4
330
1F
100
AcDbEntity
  8
0
  6
Continuous
 62
     7
370
    25
100
AcDbCircle
 10
3055.0856185936
 20
3463.177627065
 30
0.0
 40
1.650000000000091
  0
LINE
  5
D5
330
1F
100
AcDbEntity
  8
0
  6
Continuous
 62
     7
370
    25
100
AcDbLine
 10
3059.1089377963
 20
3488.1775702842
 30
0.0
 11
3059.1089377963
 21
3438.1776179679
 31
0.0
  0
LINE
  5
D6
330
1F
100
AcDbEntity
  8
0
  6
Continuous
 62
     7
370
    25
100
AcDbLine
 10
2462.1089237594
 20
3488.1775702842
 30
0.0
 11
2462.1089237594
 21
3438.1776179679
 31
0.0
  0
LINE
  5
D7
330
1F
100
AcDbEntity
  8
0
  6
Continuous
 62
     7
370
    25
100
AcDbLine
 10
2462.1089237594
 20
3438.1776179679
 30
0.0
 11
3059.1089377963
 21
3438.1776179679
 31
0.0
  0
LINE
  5
D8
330
1F
100
AcDbEntity
  8
0
  6
Continuous
 62
     7
370
    25
100
AcDbLine
 10
2507.5163568222
 20
3465.8065165885
 30
0.0
 11
2505.8359454238
 21
3463.4592856773
 31
0.0
  0
LINE
  5
D9
330
1F
100
AcDbEntity
  8
0
  6
Continuous
 62
     7
370
    25
100
AcDbLine
 10
2507.0285151565
 20
3460.8304824241
 30
0.0
 11
2509.9014888369
 21
3460.5486716636
 31
0.0
  0
LINE
  5
DA
330
1F
100
AcDbEntity
  8
0
  6
Continuous
 62
     7
370
    25
100
AcDbLine
 10
2509.9014888369
 20
3460.5486716636
 30
0.0
 11
2511.5819002354
 21
3462.8959025749
 31
0.0
  0
LINE
  5
DB
330
1F
100
AcDbEntity
  8
0
  6
Continuous
 62
     7
370
    25
100
AcDbLine
 10
2510.3893305027
 20
3465.5249442466
 30
0.0
 11
2507.5163568222
 21
3465.8065165885
 31
0.0
  0
LINE
  5
DC
330
1F
100
AcDbEntity
  8
0
  6
Continuous
 62
     7
370
    25
100
AcDbLine
 10
2505.8359454238
 20
3463.4592856773
 30
0.0
 11
2507.0285151565
 21
3460.8304824241
 31
0.0
  0
CIRCLE
  5
DD
330
1F
100
AcDbEntity
  8
0
  6
Continuous
 62
     7
370
    25
100
AcDbCircle
 10
2508.7089229539
 20
3463.1776270649
 30
0.0
 40
6.000000000000184
  0
LINE
  5
DE
330
1F
100
AcDbEntity
  8
0
  6
Continuous
 62
     7
370
    25
100
AcDbLine
 10
2511.5819002354
 20
3462.8959025749
 30
0.0
 11
2510.3893305027
 21
3465.5249442466
 31
0.0
  0
CIRCLE
  5
DF
330
1F
100
AcDbEntity
  8
0
  6
Continuous
 62
     7
370
    25
100
AcDbCircle
 10
2478.7089229539
 20
3463.177627065
 30
0.0
 40
6.000000000000376
  0
LINE
  5
E0
330
1F
100
AcDbEntity
  8
0
  6
Continuous
 62
     7
370
    25
100
AcDbLine
 10
2481.5103734695
 20
3463.8741340049
 30
0.0
 11
2479.5064131581
 21
3465.9519519218
 31
0.0
  0
LINE
  5
E1
330
1F
100
AcDbEntity
  8
0
  6
Continuous
 62
     7
370
    25
100
AcDbLine
 10
2479.5064131581
 20
3465.9519519218
 30
0.0
 11
2476.7049613261
 21
3465.2555312522
 31
0.0
  0
LINE
  5
E2
330
1F
100
AcDbEntity
  8
0
  6
Continuous
 62
     7
370
    25
100
AcDbLine
 10
2476.7049613261
 20
3465.2555312522
 30
0.0
 11
2475.9074698054
 21
3462.4810542472
 31
0.0
  0
LINE
  5
E3
330
1F
100
AcDbEntity
  8
0
  6
Continuous
 62
     7
370
    25
100
AcDbLine
 10
2475.9074698054
 20
3462.4810542472
 30
0.0
 11
2477.9114338421
 21
3460.4032363304
 31
0.0
  0
LINE
  5
E4
330
1F
100
AcDbEntity
  8
0
  6
Continuous
 62
     7
370
    25
100
AcDbLine
 10
2477.9114338421
 20
3460.4032363304
 30
0.0
 11
2480.7128856742
 21
3461.0996569999
 31
0.0
  0
LINE
  5
E5
330
1F
100
AcDbEntity
  8
0
  6
Continuous
 62
     7
370
    25
100
AcDbLine
 10
2480.7128856742
 20
3461.0996569999
 30
0.0
 11
2481.5103734695
 21
3463.8741340049
 31
0.0
  0
LINE
  5
E6
330
1F
100
AcDbEntity
  8
0
  6
Continuous
 62
     7
370
    25
100
AcDbLine
 10
2392.1089234614
 20
3485.1775493034
 30
0.0
 11
2392.1089234614
 21
3488.1775702842
 31
0.0
  0
LINE
  5
E7
330
1F
100
AcDbEntity
  8
0
  6
Continuous
 62
     7
370
    25
100
AcDbLine
 10
2392.1089234614
 20
3488.1775702842
 30
0.0
 11
2392.4089229518
 21
3488.1775702842
 31
0.0
  0
LINE
  5
E8
330
1F
100
AcDbEntity
  8
0
  6
Continuous
 62
     7
370
    25
100
AcDbLine
 10
2392.4089229518
 20
3488.1775702842
 30
0.0
 11
2392.4089229518
 21
3485.1775493034
 31
0.0
  0
LINE
  5
E9
330
1F
100
AcDbEntity
  8
0
  6
Continuous
 62
     7
370
    25
100
AcDbLine
 10
2392.4089229518
 20
3485.1775493034
 30
0.0
 11
2392.1089234614
 21
3485.1775493034
 31
0.0
  0
LINE
  5
EA
330
1F
100
AcDbEntity
  8
0
  6
Continuous
 62
     7
370
    25
100
AcDbLine
 10
2461.8089224064
 20
3485.1775493034
 30
0.0
 11
2461.8089224064
 21
3488.1775702842
 31
0.0
  0
LINE
  5
EB
330
1F
100
AcDbEntity
  8
0
  6
Continuous
 62
     7
370
    25
100
AcDbLine
 10
2461.8089224064
 20
3488.1775702842
 30
0.0
 11
2462.1089237594
 21
3488.1775702842
 31
0.0
  0
LINE
  5
EC
330
1F
100
AcDbEntity
  8
0
  6
Continuous
 62
     7
370
    25
100
AcDbLine
 10
2462.1089237594
 20
3485.1775493034
 30
0.0
 11
2461.8089224064
 21
3485.1775493034
 31
0.0
  0
LINE
  5
ED
330
1F
100
AcDbEntity
  8
0
  6
Continuous
 62
     7
370
    25
100
AcDbLine
 10
2392.4089229518
 20
3488.1775702842
 30
0.0
 11
2461.8089224064
 21
3488.1775702842
 31
0.0
  0
LINE
  5
EE
330
1F
100
AcDbEntity
  8
0
  6
Continuous
 62
     7
370
    25
100
AcDbLine
 10
2392.4089229518
 20
3485.1775493034
 30
0.0
 11
2461.8089224064
 21
3485.1775493034
 31
0.0
  0
LINE
  5
EF
330
1F
100
AcDbEntity
  8
0
  6
Continuous
 62
     7
370
    25
100
AcDbLine
 10
2465.508921709
 20
1637.677582682
 30
0.0
 11
2465.1089223885
 21
1637.677582682
 31
0.0
  0
LINE
  5
F0
330
1F
100
AcDbEntity
  8
0
  6
Continuous
 62
     7
370
    25
100
AcDbLine
 10
2465.1089223885
 20
1639.6776761421
 30
0.0
 11
2465.508921709
 21
1639.6776761421
 31
0.0
  0
LINE
  5
F1
330
1F
100
AcDbEntity
  8
0
  6
Continuous
 62
     7
370
    25
100
AcDbLine
 10
2465.508921709
 20
1639.6776761421
 30
0.0
 11
2465.508921709
 21
1637.677582682
 31
0.0
  0
LINE
  5
F2
330
1F
100
AcDbEntity
  8
0
  6
Continuous
 62
     7
370
    25
100
AcDbLine
 10
2465.1089223885
 20
1616.6776742347
 30
0.0
 11
2465.508921709
 21
1616.6776742347
 31
0.0
  0
LINE
  5
F3
330
1F
100
AcDbEntity
  8
0
  6
Continuous
 62
     7
370
    25
100
AcDbLine
 10
2465.508921709
 20
1637.677582682
 30
0.0
 11
2465.508921709
 21
1616.6776742347
 31
0.0
  0
LINE
  5
F4
330
1F
100
AcDbEntity
  8
0
  6
Continuous
 62
     7
370
    25
100
AcDbLine
 10
2465.508921709
 20
1614.6775807746
 30
0.0
 11
2465.1089223885
 21
1614.6775807746
 31
0.0
  0
LINE
  5
F5
330
1F
100
AcDbEntity
  8
0
  6
Continuous
 62
     7
370
    25
100
AcDbLine
 10
2465.508921709
 20
1616.6776742347
 30
0.0
 11
2465.508921709
 21
1614.6775807746
 31
0.0
  0
LINE
  5
F6
330
1F
100
AcDbEntity
  8
0
  6
Continuous
 62
     7
370
    25
100
AcDbLine
 10
2462.1089237594
 20
1482.1776475318
 30
0.0
 11
2465.1089223885
 21
1482.1776475318
 31
0.0
  0
LINE
  5
F7
330
1F
100
AcDbEntity
  8
0
  6
Continuous
 62
     7
370
    25
100
AcDbLine
 10
2465.1089223885
 20
1463.1775941261
 30
0.0
 11
2462.1089237594
 21
1463.1775941261
 31
0.0
  0
LINE
  5
F8
330
1F
100
AcDbEntity
  8
0
  6
Continuous
 62
     7
370
    25
100
AcDbLine
 10
2465.1089223885
 20
1482.1776475318
 30
0.0
 11
2465.1089223885
 21
1463.1775941261
 31
0.0
  0
LINE
  5
F9
330
1F
100
AcDbEntity
  8
0
  6
Continuous
 62
     7
370
    25
100
AcDbLine
 10
2465.1089223885
 20
1772.1776093849
 30
0.0
 11
2462.1089237594
 21
1772.1776093849
 31
0.0
  0
LINE
  5
FA
330
1F
100
AcDbEntity
  8
0
  6
Continuous
 62
     7
370
    25
100
AcDbLine
 10
2465.1089223885
 20
1772.1776093849
 30
0.0
 11
2465.1089223885
 21
1482.1776475318
 31
0.0
  0
LINE
  5
FB
330
1F
100
AcDbEntity
  8
0
  6
Continuous
 62
     7
370
    25
100
AcDbLine
 10
2462.1089237594
 20
1791.1776627906
 30
0.0
 11
2465.1089223885
 21
1791.1776627906
 31
0.0
  0
LINE
  5
FC
330
1F
100
AcDbEntity
  8
0
  6
Continuous
 62
     7
370
    25
100
AcDbLine
 10
2465.1089223885
 20
1791.1776627906
 30
0.0
 11
2465.1089223885
 21
1772.1776093849
 31
0.0
  0
LINE
  5
FD
330
1F
100
AcDbEntity
  8
0
  6
Continuous
 62
     7
370
    25
100
AcDbLine
 10
2392.4089229518
 20
3485.1775493034
 30
0.0
 11
2426.4651440867
 21
3485.1775493034
 31
0.0
  0
LINE
  5
FE
330
1F
100
AcDbEntity
  8
0
  6
Continuous
 62
     7
370
    25
100
AcDbLine
 10
2392.1089234614
 20
3485.1775493034
 30
0.0
 11
2392.1089234614
 21
488.1776298889
 31
0.0
  0
LINE
  5
FF
330
1F
100
AcDbEntity
  8
0
  6
Continuous
 62
     7
370
    25
100
AcDbLine
 10
2462.1089237594
 20
3438.1776179679
 30
0.0
 11
2462.1089237594
 21
488.1776298889
 31
0.0
  0
LINE
  5
100
330
1F
100
AcDbEntity
  8
0
  6
Continuous
 62
     7
370
    25
100
AcDbLine
 10
2427.7527022027
 20
3485.1775493034
 30
0.0
 11
2461.8089224064
 21
3485.1775493034
 31
0.0
  0
LINE
  5
101
330
1F
100
AcDbEntity
  8
0
  6
Continuous
 62
     7
370
    25
100
AcDbLine
 10
2277.1089176499
 20
476.1776279219
 30
0.0
 11
2277.1089176499
 21
488.1776298889
 31
0.0
  0
LINE
  5
102
330
1F
100
AcDbEntity
  8
0
  6
Continuous
 62
     7
370
    25
100
AcDbLine
 10
2277.1089176499
 20
488.1776298889
 30
0.0
 11
2297.1089209282
 21
488.1776298889
 31
0.0
  0
LINE
  5
103
330
1F
100
AcDbEntity
  8
0
  6
Continuous
 62
     7
370
    25
100
AcDbLine
 10
2297.1089209282
 20
488.1776298889
 30
0.0
 11
2297.1089209282
 21
476.1776279219
 31
0.0
  0
LINE
  5
104
330
1F
100
AcDbEntity
  8
0
  6
Continuous
 62
     7
370
    25
100
AcDbLine
 10
2297.1089209282
 20
476.1776279219
 30
0.0
 11
2277.1089176499
 21
476.1776279219
 31
0.0
  0
LINE
  5
105
330
1F
100
AcDbEntity
  8
0
  6
Continuous
 62
     7
370
    25
100
AcDbLine
 10
2557.108918842
 20
476.1776279219
 30
0.0
 11
2557.108918842
 21
488.1776298889
 31
0.0
  0
LINE
  5
106
330
1F
100
AcDbEntity
  8
0
  6
Continuous
 62
     7
370
    25
100
AcDbLine
 10
2557.108918842
 20
488.1776298889
 30
0.0
 11
2577.1089295709
 21
488.1776298889
 31
0.0
  0
LINE
  5
107
330
1F
100
AcDbEntity
  8
0
  6
Continuous
 62
     7
370
    25
100
AcDbLine
 10
2577.1089295709
 20
488.1776298889
 30
0.0
 11
2577.1089295709
 21
476.1776279219
 31
0.0
  0
LINE
  5
108
330
1F
100
AcDbEntity
  8
0
  6
Continuous
 62
     7
370
    25
100
AcDbLine
 10
2577.1089295709
 20
476.1776279219
 30
0.0
 11
2557.108918842
 21
476.1776279219
 31
0.0
  0
LINE
  5
109
330
1F
100
AcDbEntity
  8
0
  6
Continuous
 62
     7
370
    25
100
AcDbLine
 10
2557.108918842
 20
476.1776279219
 30
0.0
 11
2297.1089209282
 21
476.1776279219
 31
0.0
  0
LINE
  5
10A
330
1F
100
AcDbEntity
  8
0
  6
Continuous
 62
     7
370
    25
100
AcDbLine
 10
2297.1089209282
 20
488.1776298889
 30
0.0
 11
2557.108918842
 21
488.1776298889
 31
0.0
  0
LWPOLYLINE
  5
10B
330
1F
100
AcDbEntity
  8
0
  6
Continuous
 62
     8
370
    25
100
AcDbPolyline
 90
        7
 70
   128
 43
0.0
 10
3010.9041581714
 20
3433.2690562614
 10
3010.9093437755
 20
3433.4299888023
 10
3010.9256158435
 20
3433.9394893058
 10
3010.9525571429
 20
3434.7820605644
 10
3010.9892736041
 20
3435.9329070457
 10
3011.0348115527
 20
3437.3569812187
 10
3011.0610375964
 20
3438.1776179679
  0
LWPOLYLINE
  5
10C
330
1F
100
AcDbEntity
  8
0
  6
Continuous
 62
     8
370
    25
100
AcDbPolyline
 90
        7
 70
   128
 43
0.0
 10
2873.4971533381
 20
3438.1776179679
 10
2873.5233793818
 20
3437.3569812187
 10
2873.5688875281
 20
3435.9329070457
 10
2873.605663594
 20
3434.7820605644
 10
2873.6325750911
 20
3433.9394893058
 10
2873.6488769614
 20
3433.4299888023
 10
2873.6540029609
 20
3433.2690562614
  0
LWPOLYLINE
  5
10D
330
1F
100
AcDbEntity
  8
0
  6
Continuous
 62
     8
370
    25
100
AcDbPolyline
 90
        7
 70
   128
 43
0.0
 10
3010.6824288928
 20
3426.96693796
 10
3010.7513914668
 20
3428.9265002616
 10
3010.8077178561
 20
3430.5272426017
 10
3010.8512888514
 20
3431.7651118644
 10
3010.8819256389
 20
3432.6360549339
 10
3010.8995686137
 20
3433.1379260429
 10
3010.9041581714
 20
3433.2690562614
  0
LWPOLYLINE
  5
10E
330
1F
100
AcDbEntity
  8
0
  6
Continuous
 62
     8
370
    25
100
AcDbPolyline
 90
        7
 70
   128
 43
0.0
 10
2873.6540029609
 20
3433.2690562614
 10
2873.6586223208
 20
3433.1379260429
 10
2873.676295098
 20
3432.6360549339
 10
2873.7069318854
 20
3431.7651118644
 10
2873.7504730784
 20
3430.5272426017
 10
2873.8068292701
 20
3428.9265002616
 10
2873.8757620418
 20
3426.96693796
  0
LWPOLYLINE
  5
10F
330
1F
100
AcDbEntity
  8
0
  6
Continuous
 62
     8
370
    25
100
AcDbPolyline
 90
        3
 70
   128
 43
0.0
 10
3010.6814156138
 20
3426.8896903404
 10
3010.6815944278
 20
3426.9018496879
 10
3010.6824288928
 20
3426.96693796
  0
LWPOLYLINE
  5
110
330
1F
100
AcDbEntity
  8
0
  6
Continuous
 62
     8
370
    25
100
AcDbPolyline
 90
        3
 70
   128
 43
0.0
 10
2873.8757620418
 20
3426.96693796
 10
2873.8766263091
 20
3426.9018496879
 10
2873.8767753207
 20
3426.8896903404
  0
LWPOLYLINE
  5
111
330
1F
100
AcDbEntity
  8
0
  6
Continuous
 62
     8
370
    25
100
AcDbPolyline
 90
        7
 70
   128
 43
0.0
 10
2856.904173907
 20
3433.2690562614
 10
2856.9093297088
 20
3433.4299888023
 10
2856.9256017768
 20
3433.9394893058
 10
2856.9525430762
 20
3434.7820605644
 10
2856.9892893397
 20
3435.9329070457
 10
2857.034797486
 20
3437.3569812187
 10
2857.0610235297
 20
3438.1776179679
  0
LWPOLYLINE
  5
112
330
1F
100
AcDbEntity
  8
0
  6
Continuous
 62
     8
370
    25
100
AcDbPolyline
 90
        7
 70
   128
 43
0.0
 10
2719.4971690738
 20
3438.1776179679
 10
2719.5233951175
 20
3437.3569812187
 10
2719.5688734614
 20
3435.9329070457
 10
2719.6056495273
 20
3434.7820605644
 10
2719.6325908267
 20
3433.9394893058
 10
2719.6488628947
 20
3433.4299888023
 10
2719.6539888942
 20
3433.2690562614
  0
LWPOLYLINE
  5
113
330
1F
100
AcDbEntity
  8
0
  6
Continuous
 62
     8
370
    25
100
AcDbPolyline
 90
        7
 70
   128
 43
0.0
 10
2856.6824148261
 20
3426.96693796
 10
2856.7513774001
 20
3428.9265002616
 10
2856.8077037894
 20
3430.5272426017
 10
2856.8512449824
 20
3431.7651118644
 10
2856.8819115722
 20
3432.6360549339
 10
2856.899554547
 20
3433.1379260429
 10
2856.904173907
 20
3433.2690562614
  0
LWPOLYLINE
  5
114
330
1F
100
AcDbEntity
  8
0
  6
Continuous
 62
     8
370
    25
100
AcDbPolyline
 90
        7
 70
   128
 43
0.0
 10
2719.6539888942
 20
3433.2690562614
 10
2719.6586082541
 20
3433.1379260429
 10
2719.6762810313
 20
3432.6360549339
 10
2719.7069178187
 20
3431.7651118644
 10
2719.7504888141
 20
3430.5272426017
 10
2719.8068152034
 20
3428.9265002616
 10
2719.8757777774
 20
3426.96693796
  0
LWPOLYLINE
  5
115
330
1F
100
AcDbEntity
  8
0
  6
Continuous
 62
     8
370
    25
100
AcDbPolyline
 90
        3
 70
   128
 43
0.0
 10
2719.8757777774
 20
3426.96693796
 10
2719.8766122424
 20
3426.9018496879
 10
2719.8767910563
 20
3426.8896903404
  0
LWPOLYLINE
  5
116
330
1F
100
AcDbEntity
  8
0
  6
Continuous
 62
     8
370
    25
100
AcDbPolyline
 90
        3
 70
   128
 43
0.0
 10
2856.6814015471
 20
3426.8896903404
 10
2856.6815803611
 20
3426.9018496879
 10
2856.6824148261
 20
3426.96693796
  0
LINE
  5
117
330
1F
100
AcDbEntity
  8
0
  6
Continuous
 62
     8
370
    25
100
AcDbLine
 10
2392.4089229518
 20
3485.1775493034
 30
0.0
 11
2392.4089229518
 21
488.1776298889
 31
0.0
  0
LINE
  5
118
330
1F
100
AcDbEntity
  8
0
  6
Continuous
 62
     8
370
    25
100
AcDbLine
 10
2426.4651440867
 20
488.1776298889
 30
0.0
 11
2426.4651440867
 21
3485.1775493034
 31
0.0
  0
LINE
  5
119
330
1F
100
AcDbEntity
  8
0
  6
Continuous
 62
     8
370
    25
100
AcDbLine
 10
2461.8089224064
 20
3485.1775493034
 30
0.0
 11
2461.8089224064
 21
488.1776298889
 31
0.0
  0
LINE
  5
11A
330
1F
100
AcDbEntity
  8
0
  6
Continuous
 62
     8
370
    25
100
AcDbLine
 10
2426.593903158
 20
3485.1775493034
 30
0.0
 11
2426.593903158
 21
488.1776298889
 31
0.0
  0
LINE
  5
11B
330
1F
100
AcDbEntity
  8
0
  6
Continuous
 62
     8
370
    25
100
AcDbLine
 10
2427.7527022027
 20
3485.1775493034
 30
0.0
 11
2427.7527022027
 21
488.1776298889
 31
0.0
  0
LINE
  5
11C
330
1F
100
AcDbEntity
  8
0
  6
Continuous
 62
     8
370
    25
100
AcDbLine
 10
2427.6239422002
 20
488.1776298889
 30
0.0
 11
2427.6239422002
 21
3485.1775493034
 31
0.0
  0
LINE
  5
11D
330
1F
100
AcDbEntity
  8
0
  6
Continuous
 62
     8
370
    25
100
AcDbLine
 10
2427.2376826816
 20
3485.1775493034
 30
0.0
 11
2427.2376826816
 21
488.1776298889
 31
0.0
  0
LINE
  5
11E
330
1F
100
AcDbEntity
  8
0
  6
Continuous
 62
     8
370
    25
100
AcDbLine
 10
2426.9801636078
 20
488.1776298889
 30
0.0
 11
2426.9801636078
 21
3485.1775493034
 31
0.0
  0
LINE
  5
124
330
1F
100
AcDbEntity
  8
0
  6
Continuous
 62
     7
370
    25
100
AcDbLine
 10
2070.4461327144
 20
3488.1775702842
 30
0.0
 11
2070.357441003
 21
3488.1775702842
 31
0.0
  0
LINE
  5
125
330
1F
100
AcDbEntity
  8
0
  6
Continuous
 62
     7
370
    25
100
AcDbLine
 10
1890.5349960872
 20
3488.1775702842
 30
0.0
 11
1890.4460659572
 21
3488.1775702842
 31
0.0
  0
LINE
  5
126
330
1F
100
AcDbEntity
  8
0
  6
Continuous
 62
     7
370
    25
100
AcDbLine
 10
1890.4460659572
 20
3488.1775702842
 30
0.0
 11
1890.4460659572
 21
3488.0888785728
 31
0.0
  0
LINE
  5
127
330
1F
100
AcDbEntity
  8
0
  6
Continuous
 62
     7
370
    25
100
AcDbLine
 10
1890.4460659572
 20
3438.2663096794
 30
0.0
 11
1890.4460659572
 21
3438.1776179679
 31
0.0
  0
LINE
  5
128
330
1F
100
AcDbEntity
  8
0
  6
Continuous
 62
     7
370
    25
100
AcDbLine
 10
2070.4461327144
 20
3488.1775702842
 30
0.0
 11
2070.4461327144
 21
3488.0888785728
 31
0.0
  0
LINE
  5
129
330
1F
100
AcDbEntity
  8
0
  6
Continuous
 62
     7
370
    25
100
AcDbLine
 10
2070.4461327144
 20
3438.2663096794
 30
0.0
 11
2070.4461327144
 21
3438.1776179679
 31
0.0
  0
LINE
  5
12A
330
1F
100
AcDbEntity
  8
0
  6
Continuous
 62
     7
370
    25
100
AcDbLine
 10
2070.4461327144
 20
3438.1776179679
 30
0.0
 11
2070.357441003
 21
3438.1776179679
 31
0.0
  0
LINE
  5
12B
330
1F
100
AcDbEntity
  8
0
  6
Continuous
 62
     7
370
    25
100
AcDbLine
 10
1890.5349960872
 20
3438.1776179679
 30
0.0
 11
1890.4460659572
 21
3438.1776179679
 31
0.0
  0
ARC
  5
12C
330
1F
100
AcDbEntity
  8
0
  6
Continuous
 62
     7
370
    25
100
AcDbCircle
 10
1798.9879049298
 20
3432.8658668019
 30
0.0
 40
108.6565180310467
100
AcDbArc
 50
0.2126067336
 51
0.7215428910000001
  0
ARC
  5
12D
330
1F
100
AcDbEntity
  8
0
  6
Continuous
 62
     7
370
    25
100
AcDbCircle
 10
1907.5519087347
 20
3445.038120552
 30
0.0
 40
11.76933602837797
100
AcDbArc
 50
216.2858287855
 51
270.4468812266
  0
ARC
  5
12E
330
1F
100
AcDbEntity
  8
0
  6
Continuous
 62
     7
370
    25
100
AcDbCircle
 10
2053.3404554914
 20
3445.038120552
 30
0.0
 40
11.76933602837799
100
AcDbArc
 50
269.5531187734
 51
323.7141712145
  0
LWPOLYLINE
  5
12F
330
1F
100
AcDbEntity
  8
0
  6
Continuous
 62
     7
370
    25
100
AcDbPolyline
 90
        9
 70
   128
 43
0.0
 10
2053.2487621853
 20
3433.2690562614
 10
2053.2487621853
 20
3433.287414492
 10
2053.2492390224
 20
3433.3420123466
 10
2053.2499542782
 20
3433.4304656394
 10
2053.2511463711
 20
3433.549674929
 10
2053.2521000454
 20
3433.6955870994
 10
2053.2535305568
 20
3433.8624801048
 10
2053.2549610683
 20
3434.044155062
 10
2053.2563915798
 20
3434.2341746696
  0
ARC
  5
130
330
1F
100
AcDbEntity
  8
0
  6
Continuous
 62
     7
370
    25
100
AcDbCircle
 10
2052.231170345
 20
3302.7818329424
 30
0.0
 40
131.4563780682936
100
AcDbArc
 50
89.5531187734
 51
107.8876148317
  0
ARC
  5
131
330
1F
100
AcDbEntity
  8
0
  6
Continuous
 62
     7
370
    25
100
AcDbCircle
 10
2011.669933372
 20
3428.4547140414
 30
0.0
 40
0.5999999999997305
100
AcDbArc
 50
255.5949749034
 51
287.8876148318
  0
LINE
  5
132
330
1F
100
AcDbEntity
  8
0
  6
Continuous
 62
     7
370
    25
100
AcDbLine
 10
1988.1995907375
 20
3433.8636721977
 30
0.0
 11
2011.5207424709
 21
3427.8736438163
 31
0.0
  0
ARC
  5
133
330
1F
100
AcDbEntity
  8
0
  6
Continuous
 62
     7
370
    25
100
AcDbCircle
 10
1985.5377395137
 20
3423.4999759694
 30
0.0
 40
10.70000000000027
100
AcDbArc
 50
75.5949749034
 51
90.0
  0
LINE
  5
134
330
1F
100
AcDbEntity
  8
0
  6
Continuous
 62
     7
370
    25
100
AcDbLine
 10
1975.3545513698
 20
3434.2000808128
 30
0.0
 11
1985.5376473018
 21
3434.2000808128
 31
0.0
  0
ARC
  5
135
330
1F
100
AcDbEntity
  8
0
  6
Continuous
 62
     7
370
    25
100
AcDbCircle
 10
1975.3546247123
 20
3423.4999759694
 30
0.0
 40
10.70000000000027
100
AcDbArc
 50
90.0
 51
104.4050250966
  0
LINE
  5
136
330
1F
100
AcDbEntity
  8
0
  6
Continuous
 62
     7
370
    25
100
AcDbLine
 10
1949.3716946193
 20
3427.8736438163
 30
0.0
 11
1972.6928463527
 21
3433.8636721977
 31
0.0
  0
ARC
  5
137
330
1F
100
AcDbEntity
  8
0
  6
Continuous
 62
     7
370
    25
100
AcDbCircle
 10
1949.222430854
 20
3428.4547140414
 30
0.0
 40
0.5999999999997305
100
AcDbArc
 50
252.1123851682
 51
284.4050250966001
  0
ARC
  5
138
330
1F
100
AcDbEntity
  8
0
  6
Continuous
 62
     7
370
    25
100
AcDbCircle
 10
1908.6611938811
 20
3302.7818329424
 30
0.0
 40
131.4563780682936
100
AcDbArc
 50
72.11238516830001
 51
90.4468812266
  0
ARC
  5
139
330
1F
100
AcDbEntity
  8
0
  6
Continuous
 62
     7
370
    25
100
AcDbCircle
 10
1908.6611938811
 20
3302.8167324391
 30
0.0
 40
130.4563780682933
100
AcDbArc
 50
72.11238516830001
 51
90.4468812266
  0
ARC
  5
13A
330
1F
100
AcDbEntity
  8
0
  6
Continuous
 62
     7
370
    25
100
AcDbCircle
 10
1927.9309086051
 20
3434.4443774057
 30
0.0
 40
22.10336084948644
100
AcDbArc
 50
340.2270166052
 51
342.7332941223
  0
ARC
  5
13B
330
1F
100
AcDbEntity
  8
0
  6
Continuous
 62
     7
370
    25
100
AcDbCircle
 10
2052.231170345
 20
3302.8167324391
 30
0.0
 40
130.4563780682941
100
AcDbArc
 50
89.5531187734
 51
107.8876148317
  0
ARC
  5
13C
330
1F
100
AcDbEntity
  8
0
  6
Continuous
 62
     7
370
    25
100
AcDbCircle
 10
2032.9615284851
 20
3434.4443774057
 30
0.0
 40
22.10336084948666
100
AcDbArc
 50
197.2667058777
 51
199.7729833948
  0
ARC
  5
13D
330
1F
100
AcDbEntity
  8
0
  6
Continuous
 62
     7
370
    25
100
AcDbCircle
 10
1985.5377395137
 20
3423.5348754661
 30
0.0
 40
9.699999999999678
100
AcDbArc
 50
75.5949749034
 51
90.0
  0
LINE
  5
13E
330
1F
100
AcDbEntity
  8
0
  6
Continuous
 62
     7
370
    25
100
AcDbLine
 10
1985.5376473018
 20
3433.2349624046
 30
0.0
 11
1985.5376473018
 21
3434.2000808128
 31
0.0
  0
ARC
  5
13F
330
1F
100
AcDbEntity
  8
0
  6
Continuous
 62
     7
370
    25
100
AcDbCircle
 10
1962.2590550381
 20
3440.2728182388
 30
0.0
 40
26.72056409111973
100
AcDbArc
 50
344.0499439032001
 51
346.1218294394999
  0
ARC
  5
140
330
1F
100
AcDbEntity
  8
0
  6
Continuous
 62
     7
370
    25
100
AcDbCircle
 10
1975.3546247123
 20
3423.5348754661
 30
0.0
 40
9.69999999999979
100
AcDbArc
 50
90.0
 51
104.4050250966
  0
ARC
  5
141
330
1F
100
AcDbEntity
  8
0
  6
Continuous
 62
     7
370
    25
100
AcDbCircle
 10
1998.6333820521
 20
3440.2728182388
 30
0.0
 40
26.72056409111995
100
AcDbArc
 50
193.8781705605
 51
195.9500560968
  0
LINE
  5
142
330
1F
100
AcDbEntity
  8
0
  6
Continuous
 62
     7
370
    25
100
AcDbLine
 10
1975.3545513698
 20
3433.2349624046
 30
0.0
 11
1975.3545513698
 21
3434.2000808128
 31
0.0
  0
LINE
  5
143
330
1F
100
AcDbEntity
  8
0
  6
Continuous
 62
     7
370
    25
100
AcDbLine
 10
1985.5376473018
 20
3433.2349624046
 30
0.0
 11
1975.3545513698
 21
3433.2349624046
 31
0.0
  0
LINE
  5
144
330
1F
100
AcDbEntity
  8
0
  6
Continuous
 62
     7
370
    25
100
AcDbLine
 10
1972.9415169307
 20
3432.9300250419
 30
0.0
 11
1949.6203651973
 21
3426.9399966606
 31
0.0
  0
ARC
  5
145
330
1F
100
AcDbEntity
  8
0
  6
Continuous
 62
     7
370
    25
100
AcDbCircle
 10
1976.1983076763
 20
3434.5187905428
 30
0.0
 40
27.63738669128617
100
AcDbArc
 50
193.9125397347
 51
195.9156869226
  0
LINE
  5
146
330
1F
100
AcDbEntity
  8
0
  6
Continuous
 62
     7
370
    25
100
AcDbLine
 10
2011.2718334743
 20
3426.9399966606
 30
0.0
 11
1987.9509201595
 21
3432.9300250419
 31
0.0
  0
ARC
  5
147
330
1F
100
AcDbEntity
  8
0
  6
Continuous
 62
     7
370
    25
100
AcDbCircle
 10
1984.6508702986
 20
3434.5371103436
 30
0.0
 40
27.68378255796527
100
AcDbArc
 50
344.0722671051
 51
346.0721839070001
  0
ARC
  5
148
330
1F
100
AcDbEntity
  8
0
  6
Continuous
 62
     7
370
    25
100
AcDbCircle
 10
1949.222430854
 20
3428.4896135381
 30
0.0
 40
1.59999999999989
100
AcDbArc
 50
252.1123851682
 51
284.4050250966001
  0
ARC
  5
149
330
1F
100
AcDbEntity
  8
0
  6
Continuous
 62
     7
370
    25
100
AcDbCircle
 10
2011.669933372
 20
3428.4896135381
 30
0.0
 40
1.59999999999989
100
AcDbArc
 50
255.5949749034
 51
287.8876148318
  0
ELLIPSE
  5
14A
330
1F
100
AcDbEntity
  8
0
  6
Continuous
 62
     7
370
    25
100
AcDbEllipse
 10
1890.8417245767
 20
3438.5731695286
 30
0.0
 11
0.35398427229984
 21
0.3539842722993852
 31
0.0
210
0.0
220
0.0
230
1.0
 40
0.9987827660000002
 41
2.35680347777815
 42
3.926381829402735
  0
LINE
  5
14B
330
1F
100
AcDbEntity
  8
0
  6
Continuous
 62
     7
370
    25
100
AcDbLine
 10
1890.341400201
 20
3438.5726775535
 30
0.0
 11
1890.341400201
 21
3487.7827491172
 31
0.0
  0
ELLIPSE
  5
14C
330
1F
100
AcDbEntity
  8
0
  6
Continuous
 62
     7
370
    25
100
AcDbEllipse
 10
1890.8417245767
 20
3487.7820846013
 30
0.0
 11
0.35398427229984
 21
-0.35398427229984
 31
0.0
210
0.0
220
0.0
230
1.0
 40
0.998782766
 41
2.35680347777644
 42
3.926381829404071
  0
LINE
  5
14D
330
1F
100
AcDbEntity
  8
0
  6
Continuous
 62
     7
370
    25
100
AcDbLine
 10
1890.8411255428
 20
3488.282474459
 30
0.0
 11
2070.0513115474
 21
3488.282474459
 31
0.0
  0
ELLIPSE
  5
14E
330
1F
100
AcDbEntity
  8
0
  6
Continuous
 62
     7
370
    25
100
AcDbEllipse
 10
2070.0506396494
 20
3487.7820846013
 30
0.0
 11
-0.35398427229984
 21
-0.3539842722993852
 31
0.0
210
0.0
220
0.0
230
1.0
 40
0.9987827660000002
 41
2.35680347777831
 42
3.926381829402574
  0
ELLIPSE
  5
14F
330
1F
100
AcDbEntity
  8
0
  6
Continuous
 62
     7
370
    25
100
AcDbEllipse
 10
2070.0506396494
 20
3438.5731695286
 30
0.0
 11
-0.35398427229984
 21
0.3539842722993852
 31
0.0
210
0.0
220
0.0
230
1.0
 40
0.9987827660000002
 41
2.356803477777669
 42
3.926381829400647
  0
LINE
  5
150
330
1F
100
AcDbEntity
  8
0
  6
Continuous
 62
     7
370
    25
100
AcDbLine
 10
2070.5510368892
 20
3487.7827491172
 30
0.0
 11
2070.5510368892
 21
3438.5726775535
 31
0.0
  0
LINE
  5
151
330
1F
100
AcDbEntity
  8
0
  6
Continuous
 62
     7
370
    25
100
AcDbLine
 10
2070.0513115474
 20
3438.0729522117
 30
0.0
 11
1890.8411255428
 21
3438.0729522117
 31
0.0
  0
LINE
  5
152
330
1F
100
AcDbEntity
  8
0
  6
Continuous
 62
     7
370
    25
100
AcDbLine
 10
1963.677047784
 20
1618.8636149772
 30
0.0
 11
1962.8428211757
 21
1617.0238580116
 31
0.0
  0
LINE
  5
153
330
1F
100
AcDbEntity
  8
0
  6
Continuous
 62
     7
370
    25
100
AcDbLine
 10
1964.4945850918
 20
1617.0238580116
 30
0.0
 11
1963.677047784
 21
1618.8636149772
 31
0.0
  0
LINE
  5
154
330
1F
100
AcDbEntity
  8
0
  6
Continuous
 62
     7
370
    25
100
AcDbLine
 10
1964.5599117824
 20
1617.0238580116
 30
0.0
 11
1964.4945850918
 21
1617.0238580116
 31
0.0
  0
LINE
  5
155
330
1F
100
AcDbEntity
  8
0
  6
Continuous
 62
     7
370
    25
100
AcDbLine
 10
1965.6289806911
 20
1619.5816125282
 30
0.0
 11
1964.5599117824
 21
1617.0238580116
 31
0.0
  0
LINE
  5
156
330
1F
100
AcDbEntity
  8
0
  6
Continuous
 62
     7
370
    25
100
AcDbLine
 10
1965.2987709591
 20
1619.5816125282
 30
0.0
 11
1965.6289806911
 21
1619.5816125282
 31
0.0
  0
LINE
  5
157
330
1F
100
AcDbEntity
  8
0
  6
Continuous
 62
     7
370
    25
100
AcDbLine
 10
1964.5296326229
 20
1617.7418555625
 30
0.0
 11
1965.2987709591
 21
1619.5816125282
 31
0.0
  0
LINE
  5
158
330
1F
100
AcDbEntity
  8
0
  6
Continuous
 62
     7
370
    25
100
AcDbLine
 10
1963.7128105709
 20
1619.5816125282
 30
0.0
 11
1964.5296326229
 21
1617.7418555625
 31
0.0
  0
LINE
  5
159
330
1F
100
AcDbEntity
  8
0
  6
Continuous
 62
     7
370
    25
100
AcDbLine
 10
1963.6596432277
 20
1619.5816125282
 30
0.0
 11
1963.7128105709
 21
1619.5816125282
 31
0.0
  0
LINE
  5
15A
330
1F
100
AcDbEntity
  8
0
  6
Continuous
 62
     7
370
    25
100
AcDbLine
 10
1962.8244629452
 20
1617.7418555625
 30
0.0
 11
1963.6596432277
 21
1619.5816125282
 31
0.0
  0
LINE
  5
15B
330
1F
100
AcDbEntity
  8
0
  6
Continuous
 62
     7
370
    25
100
AcDbLine
 10
1962.0624771663
 20
1619.5816125282
 30
0.0
 11
1962.8244629452
 21
1617.7418555625
 31
0.0
  0
LINE
  5
15C
330
1F
100
AcDbEntity
  8
0
  6
Continuous
 62
     7
370
    25
100
AcDbLine
 10
1961.7251148769
 20
1619.5816125282
 30
0.0
 11
1962.0624771663
 21
1619.5816125282
 31
0.0
  0
LINE
  5
15D
330
1F
100
AcDbEntity
  8
0
  6
Continuous
 62
     7
370
    25
100
AcDbLine
 10
1962.7846470424
 20
1617.0238580116
 30
0.0
 11
1961.7251148769
 21
1619.5816125282
 31
0.0
  0
LINE
  5
15E
330
1F
100
AcDbEntity
  8
0
  6
Continuous
 62
     7
370
    25
100
AcDbLine
 10
1962.8428211757
 20
1617.0238580116
 30
0.0
 11
1962.7846470424
 21
1617.0238580116
 31
0.0
  0
LINE
  5
15F
330
1F
100
AcDbEntity
  8
0
  6
Continuous
 62
     7
370
    25
100
AcDbLine
 10
1967.6259747097
 20
1618.8636149772
 30
0.0
 11
1966.7915096828
 21
1617.0238580116
 31
0.0
  0
LINE
  5
160
330
1F
100
AcDbEntity
  8
0
  6
Continuous
 62
     7
370
    25
100
AcDbLine
 10
1968.4432735988
 20
1617.0238580116
 30
0.0
 11
1967.6259747097
 21
1618.8636149772
 31
0.0
  0
LINE
  5
161
330
1F
100
AcDbEntity
  8
0
  6
Continuous
 62
     7
370
    25
100
AcDbLine
 10
1968.5086002895
 20
1617.0238580116
 30
0.0
 11
1968.4432735988
 21
1617.0238580116
 31
0.0
  0
LINE
  5
162
330
1F
100
AcDbEntity
  8
0
  6
Continuous
 62
     7
370
    25
100
AcDbLine
 10
1969.5776691982
 20
1619.5816125282
 30
0.0
 11
1968.5086002895
 21
1617.0238580116
 31
0.0
  0
LINE
  5
163
330
1F
100
AcDbEntity
  8
0
  6
Continuous
 62
     7
370
    25
100
AcDbLine
 10
1969.2474594661
 20
1619.5816125282
 30
0.0
 11
1969.5776691982
 21
1619.5816125282
 31
0.0
  0
LINE
  5
164
330
1F
100
AcDbEntity
  8
0
  6
Continuous
 62
     7
370
    25
100
AcDbLine
 10
1968.47832113
 20
1617.7418555625
 30
0.0
 11
1969.2474594661
 21
1619.5816125282
 31
0.0
  0
LINE
  5
165
330
1F
100
AcDbEntity
  8
0
  6
Continuous
 62
     7
370
    25
100
AcDbLine
 10
1967.661499078
 20
1619.5816125282
 30
0.0
 11
1968.47832113
 21
1617.7418555625
 31
0.0
  0
LINE
  5
166
330
1F
100
AcDbEntity
  8
0
  6
Continuous
 62
     7
370
    25
100
AcDbLine
 10
1967.6083317348
 20
1619.5816125282
 30
0.0
 11
1967.661499078
 21
1619.5816125282
 31
0.0
  0
LINE
  5
167
330
1F
100
AcDbEntity
  8
0
  6
Continuous
 62
     7
370
    25
100
AcDbLine
 10
1966.7733898708
 20
1617.7418555625
 30
0.0
 11
1967.6083317348
 21
1619.5816125282
 31
0.0
  0
LINE
  5
168
330
1F
100
AcDbEntity
  8
0
  6
Continuous
 62
     7
370
    25
100
AcDbLine
 10
1966.0111656734
 20
1619.5816125282
 30
0.0
 11
1966.7733898708
 21
1617.7418555625
 31
0.0
  0
LINE
  5
169
330
1F
100
AcDbEntity
  8
0
  6
Continuous
 62
     7
370
    25
100
AcDbLine
 10
1965.6740418026
 20
1619.5816125282
 30
0.0
 11
1966.0111656734
 21
1619.5816125282
 31
0.0
  0
LINE
  5
16A
330
1F
100
AcDbEntity
  8
0
  6
Continuous
 62
     7
370
    25
100
AcDbLine
 10
1966.7333355495
 20
1617.0238580116
 30
0.0
 11
1965.6740418026
 21
1619.5816125282
 31
0.0
  0
LINE
  5
16B
330
1F
100
AcDbEntity
  8
0
  6
Continuous
 62
     7
370
    25
100
AcDbLine
 10
1966.7915096828
 20
1617.0238580116
 30
0.0
 11
1966.7333355495
 21
1617.0238580116
 31
0.0
  0
LINE
  5
16C
330
1F
100
AcDbEntity
  8
0
  6
Continuous
 62
     7
370
    25
100
AcDbLine
 10
1971.5746632168
 20
1618.8636149772
 30
0.0
 11
1970.7401981899
 21
1617.0238580116
 31
0.0
  0
LINE
  5
16D
330
1F
100
AcDbEntity
  8
0
  6
Continuous
 62
     7
370
    25
100
AcDbLine
 10
1972.3922005245
 20
1617.0238580116
 30
0.0
 11
1971.5746632168
 21
1618.8636149772
 31
0.0
  0
LINE
  5
16E
330
1F
100
AcDbEntity
  8
0
  6
Continuous
 62
     7
370
    25
100
AcDbLine
 10
1972.4572887966
 20
1617.0238580116
 30
0.0
 11
1972.3922005245
 21
1617.0238580116
 31
0.0
  0
LINE
  5
16F
330
1F
100
AcDbEntity
  8
0
  6
Continuous
 62
     7
370
    25
100
AcDbLine
 10
1973.5265961239
 20
1619.5816125282
 30
0.0
 11
1972.4572887966
 21
1617.0238580116
 31
0.0
  0
LINE
  5
170
330
1F
100
AcDbEntity
  8
0
  6
Continuous
 62
     7
370
    25
100
AcDbLine
 10
1973.1963863918
 20
1619.5816125282
 30
0.0
 11
1973.5265961239
 21
1619.5816125282
 31
0.0
  0
LINE
  5
171
330
1F
100
AcDbEntity
  8
0
  6
Continuous
 62
     7
370
    25
100
AcDbLine
 10
1972.4272480556
 20
1617.7418555625
 30
0.0
 11
1973.1963863918
 21
1619.5816125282
 31
0.0
  0
LINE
  5
172
330
1F
100
AcDbEntity
  8
0
  6
Continuous
 62
     7
370
    25
100
AcDbLine
 10
1971.6104260036
 20
1619.5816125282
 30
0.0
 11
1972.4272480556
 21
1617.7418555625
 31
0.0
  0
LINE
  5
173
330
1F
100
AcDbEntity
  8
0
  6
Continuous
 62
     7
370
    25
100
AcDbLine
 10
1971.5570202419
 20
1619.5816125282
 30
0.0
 11
1971.6104260036
 21
1619.5816125282
 31
0.0
  0
LINE
  5
174
330
1F
100
AcDbEntity
  8
0
  6
Continuous
 62
     7
370
    25
100
AcDbLine
 10
1970.7220783779
 20
1617.7418555625
 30
0.0
 11
1971.5570202419
 21
1619.5816125282
 31
0.0
  0
LINE
  5
175
330
1F
100
AcDbEntity
  8
0
  6
Continuous
 62
     7
370
    25
100
AcDbLine
 10
1969.9598541805
 20
1619.5816125282
 30
0.0
 11
1970.7220783779
 21
1617.7418555625
 31
0.0
  0
LINE
  5
176
330
1F
100
AcDbEntity
  8
0
  6
Continuous
 62
     7
370
    25
100
AcDbLine
 10
1969.6227303097
 20
1619.5816125282
 30
0.0
 11
1969.9598541805
 21
1619.5816125282
 31
0.0
  0
LINE
  5
177
330
1F
100
AcDbEntity
  8
0
  6
Continuous
 62
     7
370
    25
100
AcDbLine
 10
1970.6820240566
 20
1617.0238580116
 30
0.0
 11
1969.6227303097
 21
1619.5816125282
 31
0.0
  0
LINE
  5
178
330
1F
100
AcDbEntity
  8
0
  6
Continuous
 62
     7
370
    25
100
AcDbLine
 10
1970.7401981899
 20
1617.0238580116
 30
0.0
 11
1970.6820240566
 21
1617.0238580116
 31
0.0
  0
SPLINE
  5
179
330
1F
100
AcDbEntity
  8
0
  6
Continuous
 62
     7
370
    25
100
AcDbSpline
210
0.0
220
0.0
230
1.0
 70
     8
 71
     3
 72
    11
 73
     7
 74
     0
 42
0.000000001
 43
0.00000001
 40
0.0
 40
0.0
 40
0.0
 40
0.0
 40
0.2794827318544111
 40
0.5591942691441045
 40
0.7798116820455405
 40
1.0
 40
1.0
 40
1.0
 40
1.0
 10
1974.558471734213
 20
1617.270621240935
 30
0.0
 10
1974.553399975363
 20
1617.227637699346
 30
0.0
 10
1974.543252305541
 20
1617.141635426631
 30
0.0
 10
1974.463638506326
 20
1617.046803329457
 30
0.0
 10
1974.368177819048
 20
1616.988186077091
 30
0.0
 10
1974.300627895884
 20
1616.982083591372
 30
0.0
 10
1974.266885811971
 20
1616.979035318694
 30
0.0
  0
SPLINE
  5
17A
330
1F
100
AcDbEntity
  8
0
  6
Continuous
 62
     7
370
    25
100
AcDbSpline
210
0.0
220
0.0
230
1.0
 70
     8
 71
     3
 72
    11
 73
     7
 74
     0
 42
0.000000001
 43
0.00000001
 40
0.0
 40
0.0
 40
0.0
 40
0.0
 40
0.2793578827148941
 40
0.5591261317971572
 40
0.7794454532805617
 40
1.0
 40
1.0
 40
1.0
 40
1.0
 10
1974.266885811971
 20
1617.562326372466
 30
0.0
 10
1974.309992152619
 20
1617.557435221523
 30
0.0
 10
1974.396268155529
 20
1617.547645734719
 30
0.0
 10
1974.490706698151
 20
1617.467487789079
 30
0.0
 10
1974.550594021042
 20
1617.372436887336
 30
0.0
 10
1974.555844895966
 20
1617.304571859376
 30
0.0
 10
1974.558471734212
 20
1617.270621240935
 30
0.0
  0
SPLINE
  5
17B
330
1F
100
AcDbEntity
  8
0
  6
Continuous
 62
     7
370
    25
100
AcDbSpline
210
0.0
220
0.0
230
1.0
 70
     8
 71
     3
 72
    11
 73
     7
 74
     0
 42
0.000000001
 43
0.00000001
 40
0.0
 40
0.0
 40
0.0
 40
0.0
 40
0.2797422346231636
 40
0.5592915472939867
 40
0.7795797201229334
 40
1.0
 40
1.0
 40
1.0
 40
1.0
 10
1973.97529988973
 20
1617.270621240935
 30
0.0
 10
1973.980390173743
 20
1617.313662891386
 30
0.0
 10
1973.990567231295
 20
1617.399716508965
 30
0.0
 10
1974.069776207591
 20
1617.494970385239
 30
0.0
 10
1974.165455050904
 20
1617.5534753843
 30
0.0
 10
1974.233068802302
 20
1617.559375453541
 30
0.0
 10
1974.266885811971
 20
1617.562326372466
 30
0.0
  0
SPLINE
  5
17C
330
1F
100
AcDbEntity
  8
0
  6
Continuous
 62
     7
370
    25
100
AcDbSpline
210
0.0
220
0.0
230
1.0
 70
     8
 71
     3
 72
    11
 73
     7
 74
     0
 42
0.000000001
 43
0.00000001
 40
0.0
 40
0.0
 40
0.0
 40
0.0
 40
0.2794312694374065
 40
0.5592627495546125
 40
0.779840173181493
 40
1.0
 40
1.0
 40
1.0
 40
1.0
 10
1974.266885811971
 20
1616.979035318694
 30
0.0
 10
1974.224011481314
 20
1616.984339495188
 30
0.0
 10
1974.138201413966
 20
1616.994955444993
 30
0.0
 10
1974.043162555508
 20
1617.07402436956
 30
0.0
 10
1973.984606797424
 20
1617.169467256321
 30
0.0
 10
1973.978400232063
 20
1617.236924551237
 30
0.0
 10
1973.97529988973
 20
1617.270621240935
 30
0.0
  0
LINE
  5
17D
330
1F
100
AcDbEntity
  8
0
  6
Continuous
 62
     7
370
    25
100
AcDbLine
 10
1975.5457630703
 20
1617.9486836799
 30
0.0
 11
1975.5457630703
 21
1617.0238580116
 31
0.0
  0
SPLINE
  5
17E
330
1F
100
AcDbEntity
  8
0
  6
Continuous
 62
     7
370
    25
100
AcDbSpline
210
0.0
220
0.0
230
1.0
 70
     8
 71
     3
 72
     9
 73
     5
 74
     0
 42
0.000000001
 43
0.00000001
 40
0.0
 40
0.0
 40
0.0
 40
0.0
 40
0.5596560056059112
 40
0.9999999999999999
 40
0.9999999999999999
 40
0.9999999999999999
 40
0.9999999999999999
 10
1975.59416204183
 20
1618.635090769133
 30
0.0
 10
1975.576634011545
 20
1618.507592503545
 30
0.0
 10
1975.545314718786
 20
1618.279777087806
 30
0.0
 10
1975.545625999624
 20
1618.049906022842
 30
0.0
 10
1975.545763070272
 20
1617.9486836799
 30
0.0
  0
SPLINE
  5
17F
330
1F
100
AcDbEntity
  8
0
  6
Continuous
 62
     7
370
    25
100
AcDbSpline
210
0.0
220
0.0
230
1.0
 70
     8
 71
     3
 72
    11
 73
     7
 74
     0
 42
0.000000001
 43
0.00000001
 40
0.0
 40
0.0
 40
0.0
 40
0.0
 40
0.2794610593111485
 40
0.5593555587077308
 40
0.779779723940012
 40
1.0
 40
1.0
 40
1.0
 40
1.0
 10
1976.463436181234
 20
1619.312318743071
 30
0.0
 10
1976.352641937165
 20
1619.300805830545
 30
0.0
 10
1976.130881608748
 20
1619.277762149131
 30
0.0
 10
1975.871152049639
 20
1619.097657194839
 30
0.0
 10
1975.6819537215
 20
1618.881829282271
 30
0.0
 10
1975.623416906593
 20
1618.717311565691
 30
0.0
 10
1975.59416204183
 20
1618.635090769133
 30
0.0
  0
SPLINE
  5
180
330
1F
100
AcDbEntity
  8
0
  6
Continuous
 62
     7
370
    25
100
AcDbSpline
210
0.0
220
0.0
230
1.0
 70
     8
 71
     3
 72
    10
 73
     6
 74
     0
 42
0.000000001
 43
0.00000001
 40
0.0
 40
0.0
 40
0.0
 40
0.0
 40
0.2813616626312698
 40
0.5613671229836256
 40
0.9999999999999999
 40
0.9999999999999999
 40
0.9999999999999999
 40
0.9999999999999999
 10
1977.124570901083
 20
1618.808897913298
 30
0.0
 10
1977.098466425649
 20
1618.889889797389
 30
0.0
 10
1977.046383301979
 20
1619.051483173444
 30
0.0
 10
1976.820836941187
 20
1619.276593161161
 30
0.0
 10
1976.598899434478
 20
1619.298777911344
 30
0.0
 10
1976.463436181234
 20
1619.312318743071
 30
0.0
  0
SPLINE
  5
181
330
1F
100
AcDbEntity
  8
0
  6
Continuous
 62
     7
370
    25
100
AcDbSpline
210
0.0
220
0.0
230
1.0
 70
     8
 71
     3
 72
     9
 73
     5
 74
     0
 42
0.000000001
 43
0.00000001
 40
0.0
 40
0.0
 40
0.0
 40
0.0
 40
0.5603843811249736
 40
1.0
 40
1.0
 40
1.0
 40
1.0
 10
1977.161048943685
 20
1618.227037371001
 30
0.0
 10
1977.161618199088
 20
1618.336231027318
 30
0.0
 10
1977.162634029333
 20
1618.531085951893
 30
0.0
 10
1977.136194243774
 20
1618.724062436562
 30
0.0
 10
1977.124570901083
 20
1618.808897913298
 30
0.0
  0
LINE
  5
182
330
1F
100
AcDbEntity
  8
0
  6
Continuous
 62
     7
370
    25
100
AcDbLine
 10
1977.1610489437
 20
1617.0238580116
 30
0.0
 11
1977.1610489437
 21
1618.227037371
 31
0.0
  0
LINE
  5
183
330
1F
100
AcDbEntity
  8
0
  6
Continuous
 62
     7
370
    25
100
AcDbLine
 10
1977.4752846309
 20
1617.0238580116
 30
0.0
 11
1977.1610489437
 21
1617.0238580116
 31
0.0
  0
LINE
  5
184
330
1F
100
AcDbEntity
  8
0
  6
Continuous
 62
     7
370
    25
100
AcDbLine
 10
1977.4752846309
 20
1618.3300341972
 30
0.0
 11
1977.4752846309
 21
1617.0238580116
 31
0.0
  0
SPLINE
  5
185
330
1F
100
AcDbEntity
  8
0
  6
Continuous
 62
     7
370
    25
100
AcDbSpline
210
0.0
220
0.0
230
1.0
 70
     8
 71
     3
 72
    11
 73
     7
 74
     0
 42
0.000000001
 43
0.00000001
 40
0.0
 40
0.0
 40
0.0
 40
0.0
 40
0.1869711889261202
 40
0.373811913020015
 40
0.5605167643342344
 40
0.9999999999999999
 40
0.9999999999999999
 40
0.9999999999999999
 40
0.9999999999999999
 10
1976.518987710165
 20
1619.626435221037
 30
0.0
 10
1976.633677545396
 20
1619.616428751738
 30
0.0
 10
1976.862977187536
 20
1619.596422795459
 30
0.0
 10
1977.163744491428
 20
1619.411964678472
 30
0.0
 10
1977.470139001543
 20
1619.003866517335
 30
0.0
 10
1977.473162571532
 20
1618.60792288768
 30
0.0
 10
1977.475284630941
 20
1618.330034197173
 30
0.0
  0
SPLINE
  5
186
330
1F
100
AcDbEntity
  8
0
  6
Continuous
 62
     7
370
    25
100
AcDbSpline
210
0.0
220
0.0
230
1.0
 70
     8
 71
     3
 72
     9
 73
     5
 74
     0
 42
0.000000001
 43
0.00000001
 40
0.0
 40
0.0
 40
0.0
 40
0.0
 40
0.5599385101401937
 40
0.9999999999999999
 40
0.9999999999999999
 40
0.9999999999999999
 40
0.9999999999999999
 10
1975.545763070272
 20
1619.098457277617
 30
0.0
 10
1975.69429612427
 20
1619.262606532961
 30
0.0
 10
1975.959562847862
 20
1619.555762392707
 30
0.0
 10
1976.348035747277
 20
1619.604838650095
 30
0.0
 10
1976.518987710164
 20
1619.626435221038
 30
0.0
  0
LINE
  5
187
330
1F
100
AcDbEntity
  8
0
  6
Continuous
 62
     7
370
    25
100
AcDbLine
 10
1975.5457630703
 20
1620.6136073478
 30
0.0
 11
1975.5457630703
 21
1619.0984572776
 31
0.0
  0
LINE
  5
188
330
1F
100
AcDbEntity
  8
0
  6
Continuous
 62
     7
370
    25
100
AcDbLine
 10
1975.231527383
 20
1620.6136073478
 30
0.0
 11
1975.5457630703
 21
1620.6136073478
 31
0.0
  0
LINE
  5
189
330
1F
100
AcDbEntity
  8
0
  6
Continuous
 62
     7
370
    25
100
AcDbLine
 10
1975.231527383
 20
1617.0238580116
 30
0.0
 11
1975.231527383
 21
1620.6136073478
 31
0.0
  0
LINE
  5
18A
330
1F
100
AcDbEntity
  8
0
  6
Continuous
 62
     7
370
    25
100
AcDbLine
 10
1975.5457630703
 20
1617.0238580116
 30
0.0
 11
1975.231527383
 21
1617.0238580116
 31
0.0
  0
LINE
  5
18B
330
1F
100
AcDbEntity
  8
0
  6
Continuous
 62
     7
370
    25
100
AcDbLine
 10
1980.7060947963
 20
1618.2353820213
 30
0.0
 11
1978.4175148556
 21
1618.2353820213
 31
0.0
  0
SPLINE
  5
18C
330
1F
100
AcDbEntity
  8
0
  6
Continuous
 62
     7
370
    25
100
AcDbSpline
210
0.0
220
0.0
230
1.0
 70
     8
 71
     3
 72
     9
 73
     5
 74
     0
 42
0.000000001
 43
0.00000001
 40
0.0
 40
0.0
 40
0.0
 40
0.0
 40
0.5588185331257536
 40
0.9999999999999999
 40
0.9999999999999999
 40
0.9999999999999999
 40
0.9999999999999999
 10
1980.427621895956
 20
1619.123014391264
 30
0.0
 10
1980.518733775079
 20
1618.969157882025
 30
0.0
 10
1980.681777542816
 20
1618.693833245996
 30
0.0
 10
1980.698650680647
 20
1618.375725335741
 30
0.0
 10
1980.706094796346
 20
1618.235382021269
 30
0.0
  0
SPLINE
  5
18D
330
1F
100
AcDbEntity
  8
0
  6
Continuous
 62
     7
370
    25
100
AcDbSpline
210
0.0
220
0.0
230
1.0
 70
     8
 71
     3
 72
     9
 73
     5
 74
     0
 42
0.000000001
 43
0.00000001
 40
0.0
 40
0.0
 40
0.0
 40
0.0
 40
0.5589891845923487
 40
1.0
 40
1.0
 40
1.0
 40
1.0
 10
1979.397653634237
 20
1619.626435221037
 30
0.0
 10
1979.625035172044
 20
1619.600124263738
 30
0.0
 10
1980.031807868322
 20
1619.553055450915
 30
0.0
 10
1980.306485909181
 20
1619.25462531073
 30
0.0
 10
1980.427621895956
 20
1619.123014391264
 30
0.0
  0
SPLINE
  5
18E
330
1F
100
AcDbEntity
  8
0
  6
Continuous
 62
     7
370
    25
100
AcDbSpline
210
0.0
220
0.0
230
1.0
 70
     8
 71
     3
 72
     9
 73
     5
 74
     0
 42
0.000000001
 43
0.00000001
 40
0.0
 40
0.0
 40
0.0
 40
0.0
 40
0.5586322190474498
 40
1.0
 40
1.0
 40
1.0
 40
1.0
 10
1978.397964532064
 20
1619.149717272124
 30
0.0
 10
1978.555004898222
 20
1619.304280886311
 30
0.0
 10
1978.836120739385
 20
1619.580963127178
 30
0.0
 10
1979.225704093663
 20
1619.612511004452
 30
0.0
 10
1979.397653634237
 20
1619.626435221037
 30
0.0
  0
SPLINE
  5
18F
330
1F
100
AcDbEntity
  8
0
  6
Continuous
 62
     7
370
    25
100
AcDbSpline
210
0.0
220
0.0
230
1.0
 70
     8
 71
     3
 72
     9
 73
     5
 74
     0
 42
0.000000001
 43
0.00000001
 40
0.0
 40
0.0
 40
0.0
 40
0.0
 40
0.5594723418994829
 40
1.0
 40
1.0
 40
1.0
 40
1.0
 10
1978.103517586874
 20
1618.295701921782
 30
0.0
 10
1978.119064627231
 20
1618.469452145551
 30
0.0
 10
1978.146853383158
 20
1618.780013027219
 30
0.0
 10
1978.321172249924
 20
1619.036658043943
 30
0.0
 10
1978.397964532064
 20
1619.149717272124
 30
0.0
  0
SPLINE
  5
190
330
1F
100
AcDbEntity
  8
0
  6
Continuous
 62
     7
370
    25
100
AcDbSpline
210
0.0
220
0.0
230
1.0
 70
     8
 71
     3
 72
    11
 73
     7
 74
     0
 42
0.000000001
 43
0.00000001
 40
0.0
 40
0.0
 40
0.0
 40
0.0
 40
0.2798684412204802
 40
0.5588642190441434
 40
0.7794988519387962
 40
1.0
 40
1.0
 40
1.0
 40
1.0
 10
1979.390024239706
 20
1616.979035318694
 30
0.0
 10
1979.195467531519
 20
1616.99654013736
 30
0.0
 10
1978.806960766319
 20
1617.031495192566
 30
0.0
 10
1978.388515220713
 20
1617.40478116613
 30
0.0
 10
1978.145247362138
 20
1617.841736891095
 30
0.0
 10
1978.117424705642
 20
1618.14441077394
 30
0.0
 10
1978.103517586873
 20
1618.295701921782
 30
0.0
  0
SPLINE
  5
191
330
1F
100
AcDbEntity
  8
0
  6
Continuous
 62
     7
370
    25
100
AcDbSpline
210
0.0
220
0.0
230
1.0
 70
     8
 71
     3
 72
    10
 73
     6
 74
     0
 42
0.000000001
 43
0.00000001
 40
0.0
 40
0.0
 40
0.0
 40
0.0
 40
0.2809367434491261
 40
0.5614506197223391
 40
1.0
 40
1.0
 40
1.0
 40
1.0
 10
1980.571388299154
 20
1617.684992731413
 30
0.0
 10
1980.499958710535
 20
1617.569268112983
 30
0.0
 10
1980.357207049417
 20
1617.337993065307
 30
0.0
 10
1979.955044636019
 20
1617.040810221168
 30
0.0
 10
1979.604076278155
 20
1617.002438091206
 30
0.0
 10
1979.390024239706
 20
1616.979035318694
 30
0.0
  0
LINE
  5
192
330
1F
100
AcDbEntity
  8
0
  6
Continuous
 62
     7
370
    25
100
AcDbLine
 10
1980.2924385616
 20
1617.8316201576
 30
0.0
 11
1980.5713882992
 21
1617.6849927314
 31
0.0
  0
SPLINE
  5
193
330
1F
100
AcDbEntity
  8
0
  6
Continuous
 62
     7
370
    25
100
AcDbSpline
210
0.0
220
0.0
230
1.0
 70
     8
 71
     3
 72
    10
 73
     6
 74
     0
 42
0.000000001
 43
0.00000001
 40
0.0
 40
0.0
 40
0.0
 40
0.0
 40
0.2804844522165418
 40
0.5608658491936952
 40
1.0
 40
1.0
 40
1.0
 40
1.0
 10
1979.350685174154
 20
1617.29315179666
 30
0.0
 10
1979.456422224953
 20
1617.302040624881
 30
0.0
 10
1979.667857476778
 20
1617.3198150154
 30
0.0
 10
1980.027024311449
 20
1617.472446740887
 30
0.0
 10
1980.191845205826
 20
1617.69549159902
 30
0.0
 10
1980.292438561605
 20
1617.831620157561
 30
0.0
  0
SPLINE
  5
194
330
1F
100
AcDbEntity
  8
0
  6
Continuous
 62
     7
370
    25
100
AcDbSpline
210
0.0
220
0.0
230
1.0
 70
     8
 71
     3
 72
    11
 73
     7
 74
     0
 42
0.000000001
 43
0.00000001
 40
0.0
 40
0.0
 40
0.0
 40
0.0
 40
0.2799303179005687
 40
0.5593915497480866
 40
0.7795991342280414
 40
1.0
 40
1.0
 40
1.0
 40
1.0
 10
1978.417514855551
 20
1618.235382021269
 30
0.0
 10
1978.433577013379
 20
1618.096813284204
 30
0.0
 10
1978.465674413286
 20
1617.819908013082
 30
0.0
 10
1978.71327356476
 20
1617.506442042168
 30
0.0
 10
1979.023868423374
 20
1617.31996829432
 30
0.0
 10
1979.241714403131
 20
1617.302093242957
 30
0.0
 10
1979.350685174154
 20
1617.29315179666
 30
0.0
  0
LINE
  5
195
330
1F
100
AcDbEntity
  8
0
  6
Continuous
 62
     7
370
    25
100
AcDbLine
 10
1987.1674767086
 20
1618.2353820213
 30
0.0
 11
1984.8791351864
 21
1618.2353820213
 31
0.0
  0
SPLINE
  5
196
330
1F
100
AcDbEntity
  8
0
  6
Continuous
 62
     7
370
    25
100
AcDbSpline
210
0.0
220
0.0
230
1.0
 70
     8
 71
     3
 72
     9
 73
     5
 74
     0
 42
0.000000001
 43
0.00000001
 40
0.0
 40
0.0
 40
0.0
 40
0.0
 40
0.5588357579536746
 40
1.0
 40
1.0
 40
1.0
 40
1.0
 10
1986.889242226766
 20
1619.123014391264
 30
0.0
 10
1986.980382285459
 20
1618.969161421086
 30
0.0
 10
1987.143471453242
 20
1618.693851604223
 30
0.0
 10
1987.160128302361
 20
1618.375727153465
 30
0.0
 10
1987.167476708577
 20
1618.23538202127
 30
0.0
  0
SPLINE
  5
197
330
1F
100
AcDbEntity
  8
0
  6
Continuous
 62
     7
370
    25
100
AcDbSpline
210
0.0
220
0.0
230
1.0
 70
     8
 71
     3
 72
     9
 73
     5
 74
     0
 42
0.000000001
 43
0.00000001
 40
0.0
 40
0.0
 40
0.0
 40
0.0
 40
0.5588183122946507
 40
1.0
 40
1.0
 40
1.0
 40
1.0
 10
1985.859273965048
 20
1619.626435221037
 30
0.0
 10
1986.086553318726
 20
1619.600087964306
 30
0.0
 10
1986.493267538138
 20
1619.552939801564
 30
0.0
 10
1986.768024490718
 20
1619.254625290655
 30
0.0
 10
1986.889242226766
 20
1619.123014391264
 30
0.0
  0
SPLINE
  5
198
330
1F
100
AcDbEntity
  8
0
  6
Continuous
 62
     7
370
    25
100
AcDbSpline
210
0.0
220
0.0
230
1.0
 70
     8
 71
     3
 72
     9
 73
     5
 74
     0
 42
0.000000001
 43
0.00000001
 40
0.0
 40
0.0
 40
0.0
 40
0.0
 40
0.558517184561672
 40
1.0
 40
1.0
 40
1.0
 40
1.0
 10
1984.859346444296
 20
1619.149717272124
 30
0.0
 10
1985.016388243804
 20
1619.304280555189
 30
0.0
 10
1985.297564551087
 20
1619.581019189804
 30
0.0
 10
1985.687239272107
 20
1619.612525657135
 30
0.0
 10
1985.859273965048
 20
1619.626435221037
 30
0.0
  0
SPLINE
  5
199
330
1F
100
AcDbEntity
  8
0
  6
Continuous
 62
     7
370
    25
100
AcDbSpline
210
0.0
220
0.0
230
1.0
 70
     8
 71
     3
 72
     9
 73
     5
 74
     0
 42
0.000000001
 43
0.00000001
 40
0.0
 40
0.0
 40
0.0
 40
0.0
 40
0.5594723418994829
 40
1.0
 40
1.0
 40
1.0
 40
1.0
 10
1984.564899499105
 20
1618.295701921782
 30
0.0
 10
1984.580446539461
 20
1618.469452145551
 30
0.0
 10
1984.608235295389
 20
1618.780013027219
 30
0.0
 10
1984.782554162156
 20
1619.036658043943
 30
0.0
 10
1984.859346444296
 20
1619.149717272124
 30
0.0
  0
SPLINE
  5
19A
330
1F
100
AcDbEntity
  8
0
  6
Continuous
 62
     7
370
    25
100
AcDbSpline
210
0.0
220
0.0
230
1.0
 70
     8
 71
     3
 72
    11
 73
     7
 74
     0
 42
0.000000001
 43
0.00000001
 40
0.0
 40
0.0
 40
0.0
 40
0.0
 40
0.2798884059712366
 40
0.5588141016374485
 40
0.7794644737681322
 40
1.0
 40
1.0
 40
1.0
 40
1.0
 10
1985.851406151937
 20
1616.979035318694
 30
0.0
 10
1985.656838690938
 20
1616.996523642488
 30
0.0
 10
1985.268373007449
 20
1617.031440136855
 30
0.0
 10
1984.850105310714
 20
1617.404859987381
 30
0.0
 10
1984.606919580684
 20
1617.841752345744
 30
0.0
 10
1984.578903762016
 20
1618.144411658367
 30
0.0
 10
1984.564899499105
 20
1618.295701921782
 30
0.0
  0
SPLINE
  5
19B
330
1F
100
AcDbEntity
  8
0
  6
Continuous
 62
     7
370
    25
100
AcDbSpline
210
0.0
220
0.0
230
1.0
 70
     8
 71
     3
 72
    10
 73
     6
 74
     0
 42
0.000000001
 43
0.00000001
 40
0.0
 40
0.0
 40
0.0
 40
0.0
 40
0.2808914749905851
 40
0.5613601509435326
 40
1.0
 40
1.0
 40
1.0
 40
1.0
 10
1987.033008629964
 20
1617.684992731414
 30
0.0
 10
1986.961579107204
 20
1617.569268132885
 30
0.0
 10
1986.818827577704
 20
1617.337993124984
 30
0.0
 10
1986.416599180567
 20
1617.040762032919
 30
0.0
 10
1986.065542651991
 20
1617.002421917386
 30
0.0
 10
1985.851406151937
 20
1616.979035318694
 30
0.0
  0
LINE
  5
19C
330
1F
100
AcDbEntity
  8
0
  6
Continuous
 62
     7
370
    25
100
AcDbLine
 10
1986.7538204738
 20
1617.8316201576
 30
0.0
 11
1987.03300863
 21
1617.6849927314
 31
0.0
  0
SPLINE
  5
19D
330
1F
100
AcDbEntity
  8
0
  6
Continuous
 62
     7
370
    25
100
AcDbSpline
210
0.0
220
0.0
230
1.0
 70
     8
 71
     3
 72
    10
 73
     6
 74
     0
 42
0.000000001
 43
0.00000001
 40
0.0
 40
0.0
 40
0.0
 40
0.0
 40
0.280524403111525
 40
0.5609457363049549
 40
1.0
 40
1.0
 40
1.0
 40
1.0
 10
1985.812305504965
 20
1617.29315179666
 30
0.0
 10
1985.918040899172
 20
1617.302042218882
 30
0.0
 10
1986.129472838423
 20
1617.319819796819
 30
0.0
 10
1986.488618042509
 20
1617.472401380413
 30
0.0
 10
1986.65331528862
 20
1617.695485094433
 30
0.0
 10
1986.753820473837
 20
1617.831620157561
 30
0.0
  0
SPLINE
  5
19E
330
1F
100
AcDbEntity
  8
0
  6
Continuous
 62
     7
370
    25
100
AcDbSpline
210
0.0
220
0.0
230
1.0
 70
     8
 71
     3
 72
    11
 73
     7
 74
     0
 42
0.000000001
 43
0.00000001
 40
0.0
 40
0.0
 40
0.0
 40
0.0
 40
0.2799248684303824
 40
0.5593806599395241
 40
0.7794432474540595
 40
1.0
 40
1.0
 40
1.0
 40
1.0
 10
1984.879135186361
 20
1618.235382021269
 30
0.0
 10
1984.895195375303
 20
1618.09680969642
 30
0.0
 10
1984.927288840739
 20
1617.819897255742
 30
0.0
 10
1985.174870686067
 20
1617.506537763735
 30
0.0
 10
1985.485367629147
 20
1617.319878254874
 30
0.0
 10
1985.703244761569
 20
1617.302067274544
 30
0.0
 10
1985.812305504965
 20
1617.29315179666
 30
0.0
  0
SPLINE
  5
19F
330
1F
100
AcDbEntity
  8
0
  6
Continuous
 62
     7
370
    25
100
AcDbSpline
210
0.0
220
0.0
230
1.0
 70
     8
 71
     3
 72
    11
 73
     7
 74
     0
 42
0.000000001
 43
0.00000001
 40
0.0
 40
0.0
 40
0.0
 40
0.0
 40
0.281482213181829
 40
0.5595994535870114
 40
0.7793022185589563
 40
1.0
 40
1.0
 40
1.0
 40
1.0
 10
1995.917438561605
 20
1618.336352289519
 30
0.0
 10
1995.914618314682
 20
1618.145273298484
 30
0.0
 10
1995.909011535416
 20
1617.765399565909
 30
0.0
 10
1995.663010324168
 20
1617.266343845179
 30
0.0
 10
1995.225050307867
 20
1617.00725178044
 30
0.0
 10
1994.925518063253
 20
1616.988454962104
 30
0.0
 10
1994.775413567709
 20
1616.979035318694
 30
0.0
  0
LINE
  5
1A0
330
1F
100
AcDbEntity
  8
0
  6
Continuous
 62
     7
370
    25
100
AcDbLine
 10
1995.9174385616
 20
1619.5816125282
 30
0.0
 11
1995.9174385616
 21
1618.3363522895
 31
0.0
  0
LINE
  5
1A1
330
1F
100
AcDbEntity
  8
0
  6
Continuous
 62
     7
370
    25
100
AcDbLine
 10
1995.6034412929
 20
1619.5816125282
 30
0.0
 11
1995.9174385616
 21
1619.5816125282
 31
0.0
  0
LINE
  5
1A2
330
1F
100
AcDbEntity
  8
0
  6
Continuous
 62
     7
370
    25
100
AcDbLine
 10
1995.6034412929
 20
1618.3952416786
 30
0.0
 11
1995.6034412929
 21
1619.5816125282
 31
0.0
  0
SPLINE
  5
1A3
330
1F
100
AcDbEntity
  8
0
  6
Continuous
 62
     7
370
    25
100
AcDbSpline
210
0.0
220
0.0
230
1.0
 70
     8
 71
     3
 72
     9
 73
     5
 74
     0
 42
0.000000001
 43
0.00000001
 40
0.0
 40
0.0
 40
0.0
 40
0.0
 40
0.5593339361186563
 40
1.0
 40
1.0
 40
1.0
 40
1.0
 10
1995.551466042684
 20
1617.772015512785
 30
0.0
 10
1995.570648449773
 20
1617.88748534001
 30
0.0
 10
1995.604943538717
 20
1618.093927001722
 30
0.0
 10
1995.60390079479
 20
1618.303076564129
 30
0.0
 10
1995.603441292928
 20
1618.395241678557
 30
0.0
  0
SPLINE
  5
1A4
330
1F
100
AcDbEntity
  8
0
  6
Continuous
 62
     7
370
    25
100
AcDbSpline
210
0.0
220
0.0
230
1.0
 70
     8
 71
     3
 72
    11
 73
     7
 74
     0
 42
0.000000001
 43
0.00000001
 40
0.0
 40
0.0
 40
0.0
 40
0.0
 40
0.2803034431804771
 40
0.559861550560077
 40
0.7800450361985796
 40
1.0
 40
1.0
 40
1.0
 40
1.0
 10
1994.778274590658
 20
1617.29315179666
 30
0.0
 10
1994.869299752109
 20
1617.298416203808
 30
0.0
 10
1995.051108036202
 20
1617.308931019878
 30
0.0
 10
1995.284060963877
 20
1617.418675857988
 30
0.0
 10
1995.460815229539
 20
1617.576960144139
 30
0.0
 10
1995.521259565959
 20
1617.707019565713
 30
0.0
 10
1995.551466042684
 20
1617.772015512785
 30
0.0
  0
SPLINE
  5
1A5
330
1F
100
AcDbEntity
  8
0
  6
Continuous
 62
     7
370
    25
100
AcDbSpline
210
0.0
220
0.0
230
1.0
 70
     8
 71
     3
 72
    10
 73
     6
 74
     0
 42
0.000000001
 43
0.00000001
 40
0.0
 40
0.0
 40
0.0
 40
0.0
 40
0.280024443484468
 40
0.5606045030463457
 40
1.0
 40
1.0
 40
1.0
 40
1.0
 10
1993.992923791097
 20
1617.797168672881
 30
0.0
 10
1994.031514853734
 20
1617.711441229334
 30
0.0
 10
1994.108773550232
 20
1617.539816244427
 30
0.0
 10
1994.390469670156
 20
1617.335435500051
 30
0.0
 10
1994.631298577021
 20
1617.309177096593
 30
0.0
 10
1994.778274590658
 20
1617.29315179666
 30
0.0
  0
SPLINE
  5
1A6
330
1F
100
AcDbEntity
  8
0
  6
Continuous
 62
     7
370
    25
100
AcDbSpline
210
0.0
220
0.0
230
1.0
 70
     8
 71
     3
 72
     9
 73
     5
 74
     0
 42
0.000000001
 43
0.00000001
 40
0.0
 40
0.0
 40
0.0
 40
0.0
 40
0.5602106717524007
 40
1.0
 40
1.0
 40
1.0
 40
1.0
 10
1993.943094308065
 20
1618.395241678557
 30
0.0
 10
1993.94276173714
 20
1618.282686283828
 30
0.0
 10
1993.942168083819
 20
1618.081770092107
 30
0.0
 10
1993.97742026015
 20
1617.884101298734
 30
0.0
 10
1993.992923791097
 20
1617.797168672881
 30
0.0
  0
LINE
  5
1A7
330
1F
100
AcDbEntity
  8
0
  6
Continuous
 62
     7
370
    25
100
AcDbLine
 10
1993.9430943081
 20
1619.5816125282
 30
0.0
 11
1993.9430943081
 21
1618.3952416786
 31
0.0
  0
LINE
  5
1A8
330
1F
100
AcDbEntity
  8
0
  6
Continuous
 62
     7
370
    25
100
AcDbLine
 10
1993.6290970394
 20
1619.5816125282
 30
0.0
 11
1993.9430943081
 21
1619.5816125282
 31
0.0
  0
LINE
  5
1A9
330
1F
100
AcDbEntity
  8
0
  6
Continuous
 62
     7
370
    25
100
AcDbLine
 10
1993.6290970394
 20
1618.3594788917
 30
0.0
 11
1993.6290970394
 21
1619.5816125282
 31
0.0
  0
SPLINE
  5
1AA
330
1F
100
AcDbEntity
  8
0
  6
Continuous
 62
     7
370
    25
100
AcDbSpline
210
0.0
220
0.0
230
1.0
 70
     8
 71
     3
 72
    10
 73
     6
 74
     0
 42
0.000000001
 43
0.00000001
 40
0.0
 40
0.0
 40
0.0
 40
0.0
 40
0.2810027306403868
 40
0.5598233218319489
 40
1.0
 40
1.0
 40
1.0
 40
1.0
 10
1994.775413567709
 20
1616.979035318694
 30
0.0
 10
1994.580687934291
 20
1616.994425183213
 30
0.0
 10
1994.192748818193
 20
1617.025085401562
 30
0.0
 10
1993.648894575676
 20
1617.536833375036
 30
0.0
 10
1993.63661481856
 20
1618.047093186678
 30
0.0
 10
1993.629097039388
 20
1618.359478891692
 30
0.0
  0
LINE
  5
1AB
330
1F
100
AcDbEntity
  8
0
  6
Continuous
 62
     7
370
    25
100
AcDbLine
 10
1997.2950211117
 20
1634.1528024085
 30
0.0
 11
1995.7178822109
 21
1634.1528024085
 31
0.0
  0
LINE
  5
1AC
330
1F
100
AcDbEntity
  8
0
  6
Continuous
 62
     7
370
    25
100
AcDbLine
 10
1997.2950211117
 20
1632.5762595542
 30
0.0
 11
1997.2950211117
 21
1634.1528024085
 31
0.0
  0
LINE
  5
1AD
330
1F
100
AcDbEntity
  8
0
  6
Continuous
 62
     7
370
    25
100
AcDbLine
 10
1998.0050316402
 20
1632.5762595542
 30
0.0
 11
1997.2950211117
 21
1632.5762595542
 31
0.0
  0
LINE
  5
1AE
330
1F
100
AcDbEntity
  8
0
  6
Continuous
 62
     7
370
    25
100
AcDbLine
 10
1998.0050316402
 20
1634.9299277671
 30
0.0
 11
1998.0050316402
 21
1632.5762595542
 31
0.0
  0
LINE
  5
1AF
330
1F
100
AcDbEntity
  8
0
  6
Continuous
 62
     7
370
    25
100
AcDbLine
 10
1997.2950211117
 20
1634.9299277671
 30
0.0
 11
1998.0050316402
 21
1634.9299277671
 31
0.0
  0
LINE
  5
1B0
330
1F
100
AcDbEntity
  8
0
  6
Continuous
 62
     7
370
    25
100
AcDbLine
 10
1995.7178822109
 20
1634.9299277671
 30
0.0
 11
1997.2950211117
 21
1634.9299277671
 31
0.0
  0
LINE
  5
1B1
330
1F
100
AcDbEntity
  8
0
  6
Continuous
 62
     7
370
    25
100
AcDbLine
 10
1995.7178822109
 20
1634.1528024085
 30
0.0
 11
1995.7178822109
 21
1634.9299277671
 31
0.0
  0
CIRCLE
  5
1B2
330
1F
100
AcDbEntity
  8
0
  6
Continuous
 62
     7
370
    25
100
AcDbCircle
 10
2012.946182113
 20
1627.1776270649
 30
0.0
 40
2.0
  0
ARC
  5
1B3
330
1F
100
AcDbEntity
  8
0
  6
Continuous
 62
     7
370
    25
100
AcDbCircle
 10
2015.946182113
 20
1637.6776270649
 30
0.0
 40
2.000000000000227
100
AcDbArc
 50
0.0
 51
90.0
  0
LINE
  5
1B4
330
1F
100
AcDbEntity
  8
0
  6
Continuous
 62
     7
370
    25
100
AcDbLine
 10
2017.9461231777
 20
1616.6776742347
 30
0.0
 11
2017.9461231777
 21
1637.677582682
 31
0.0
  0
LINE
  5
1B5
330
1F
100
AcDbEntity
  8
0
  6
Continuous
 62
     7
370
    25
100
AcDbLine
 10
1944.9461689541
 20
1614.6775807746
 30
0.0
 11
2015.9462681362
 21
1614.6775807746
 31
0.0
  0
ARC
  5
1B6
330
1F
100
AcDbEntity
  8
0
  6
Continuous
 62
     7
370
    25
100
AcDbCircle
 10
1944.946182113
 20
1616.6776270649
 30
0.0
 40
2.000000000000227
100
AcDbArc
 50
180.0
 51
270.0
  0
LINE
  5
1B7
330
1F
100
AcDbEntity
  8
0
  6
Continuous
 62
     7
370
    25
100
AcDbLine
 10
1942.946075494
 20
1637.677582682
 30
0.0
 11
1942.946075494
 21
1616.6776742347
 31
0.0
  0
ARC
  5
1B8
330
1F
100
AcDbEntity
  8
0
  6
Continuous
 62
     7
370
    25
100
AcDbCircle
 10
1944.946182113
 20
1637.6776270649
 30
0.0
 40
2.000000000000227
100
AcDbArc
 50
90.0
 51
180.0
  0
LINE
  5
1B9
330
1F
100
AcDbEntity
  8
0
  6
Continuous
 62
     7
370
    25
100
AcDbLine
 10
2015.9462681362
 20
1639.6776761421
 30
0.0
 11
1944.9461689541
 21
1639.6776761421
 31
0.0
  0
CIRCLE
  5
1BA
330
1F
100
AcDbEntity
  8
0
  6
Continuous
 62
     7
370
    25
100
AcDbCircle
 10
1947.946182113
 20
1627.1776270649
 30
0.0
 40
2.0
  0
LINE
  5
1BB
330
1F
100
AcDbEntity
  8
0
  6
Continuous
 62
     7
370
    25
100
AcDbLine
 10
1978.7331810543
 20
1624.0083302863
 30
0.0
 11
1978.7331810543
 21
1622.261318148
 31
0.0
  0
LINE
  5
1BC
330
1F
100
AcDbEntity
  8
0
  6
Continuous
 62
     7
370
    25
100
AcDbLine
 10
1978.7331810543
 20
1622.261318148
 30
0.0
 11
1994.0370312282
 21
1622.261318148
 31
0.0
  0
LINE
  5
1BD
330
1F
100
AcDbEntity
  8
0
  6
Continuous
 62
     7
370
    25
100
AcDbLine
 10
1994.0370312282
 20
1622.261318148
 30
0.0
 11
1994.0370312282
 21
1624.0083302863
 31
0.0
  0
LINE
  5
1BE
330
1F
100
AcDbEntity
  8
0
  6
Continuous
 62
     7
370
    25
100
AcDbLine
 10
1994.0370312282
 20
1624.0083302863
 30
0.0
 11
1978.7331810543
 21
1624.0083302863
 31
0.0
  0
SPLINE
  5
1BF
330
1F
100
AcDbEntity
  8
0
  6
Continuous
 62
     7
370
    25
100
AcDbSpline
210
0.0
220
0.0
230
1.0
 70
     8
 71
     3
 72
     9
 73
     5
 74
     0
 42
0.000000001
 43
0.00000001
 40
0.0
 40
0.0
 40
0.0
 40
0.0
 40
0.5401240964213366
 40
1.0
 40
1.0
 40
1.0
 40
1.0
 10
1994.561790520834
 20
1630.51930326303
 30
0.0
 10
1994.7539068618
 20
1630.63852851439
 30
0.0
 10
1995.109596123286
 20
1630.859265289791
 30
0.0
 10
1995.526265845775
 20
1630.880838438167
 30
0.0
 10
1995.717882210897
 20
1630.89075940927
 30
0.0
  0
LINE
  5
1C0
330
1F
100
AcDbEntity
  8
0
  6
Continuous
 62
     7
370
    25
100
AcDbLine
 10
1995.7178822109
 20
1630.8907594093
 30
0.0
 11
1995.7178822109
 21
1632.7325429328
 31
0.0
  0
LINE
  5
1C1
330
1F
100
AcDbEntity
  8
0
  6
Continuous
 62
     7
370
    25
100
AcDbLine
 10
1995.7178822109
 20
1632.7325429328
 30
0.0
 11
1995.5741158077
 21
1632.7325429328
 31
0.0
  0
SPLINE
  5
1C2
330
1F
100
AcDbEntity
  8
0
  6
Continuous
 62
     7
370
    25
100
AcDbSpline
210
0.0
220
0.0
230
1.0
 70
     8
 71
     3
 72
    10
 73
     6
 74
     0
 42
0.000000001
 43
0.00000001
 40
0.0
 40
0.0
 40
0.0
 40
0.0
 40
0.2800247679433261
 40
0.5478478486296846
 40
1.0
 40
1.0
 40
1.0
 40
1.0
 10
1995.574115807699
 20
1632.732542932829
 30
0.0
 10
1995.381108113231
 20
1632.718871881249
 30
0.0
 10
1995.003502764388
 20
1632.692125475021
 30
0.0
 10
1994.358557276935
 20
1632.400142642728
 30
0.0
 10
1994.043756317867
 20
1632.008056181826
 30
0.0
 10
1993.846057946371
 20
1631.761821688017
 30
0.0
  0
LINE
  5
1C3
330
1F
100
AcDbEntity
  8
0
  6
Continuous
 62
     7
370
    25
100
AcDbLine
 10
1993.8460579464
 20
1631.761821688
 30
0.0
 11
1993.8460579464
 21
1632.4749316581
 31
0.0
  0
LINE
  5
1C4
330
1F
100
AcDbEntity
  8
0
  6
Continuous
 62
     7
370
    25
100
AcDbLine
 10
1993.8460579464
 20
1632.4749316581
 30
0.0
 11
1992.1191921779
 21
1632.4749316581
 31
0.0
  0
LINE
  5
1C5
330
1F
100
AcDbEntity
  8
0
  6
Continuous
 62
     7
370
    25
100
AcDbLine
 10
1992.1191921779
 20
1632.4749316581
 30
0.0
 11
1992.1191921779
 21
1629.9037064918
 31
0.0
  0
SPLINE
  5
1C6
330
1F
100
AcDbEntity
  8
0
  6
Continuous
 62
     7
370
    25
100
AcDbSpline
210
0.0
220
0.0
230
1.0
 70
     8
 71
     3
 72
     9
 73
     5
 74
     0
 42
0.000000001
 43
0.00000001
 40
0.0
 40
0.0
 40
0.0
 40
0.0
 40
0.5478639051352656
 40
1.0
 40
1.0
 40
1.0
 40
1.0
 10
1992.119192177938
 20
1629.903706491789
 30
0.0
 10
1991.985911773307
 20
1630.222983236156
 30
0.0
 10
1991.742638939705
 20
1630.805749761517
 30
0.0
 10
1991.323865867671
 20
1631.276969193873
 30
0.0
 10
1991.134523446248
 20
1631.490024507842
 30
0.0
  0
SPLINE
  5
1C7
330
1F
100
AcDbEntity
  8
0
  6
Continuous
 62
     7
370
    25
100
AcDbSpline
210
0.0
220
0.0
230
1.0
 70
     8
 71
     3
 72
     9
 73
     5
 74
     0
 42
0.000000001
 43
0.00000001
 40
0.0
 40
0.0
 40
0.0
 40
0.0
 40
0.5610266582124862
 40
1.0
 40
1.0
 40
1.0
 40
1.0
 10
1991.134523446249
 20
1631.490024507842
 30
0.0
 10
1990.667734639706
 20
1631.889013406628
 30
0.0
 10
1989.835708568021
 20
1632.600189770435
 30
0.0
 10
1988.753381568499
 20
1632.692167264772
 30
0.0
 10
1988.278268868612
 20
1632.73254293283
 30
0.0
  0
SPLINE
  5
1C8
330
1F
100
AcDbEntity
  8
0
  6
Continuous
 62
     7
370
    25
100
AcDbSpline
210
0.0
220
0.0
230
1.0
 70
     8
 71
     3
 72
     9
 73
     5
 74
     0
 42
0.000000001
 43
0.00000001
 40
0.0
 40
0.0
 40
0.0
 40
0.0
 40
0.5594079808601463
 40
1.0
 40
1.0
 40
1.0
 40
1.0
 10
1988.278268868612
 20
1632.732542932829
 30
0.0
 10
1987.645838642622
 20
1632.666415267538
 30
0.0
 10
1986.515303777856
 20
1632.548205181959
 30
0.0
 10
1985.666520250607
 20
1631.804556958357
 30
0.0
 10
1985.292553002523
 20
1631.476911485991
 30
0.0
  0
SPLINE
  5
1C9
330
1F
100
AcDbEntity
  8
0
  6
Continuous
 62
     7
370
    25
100
AcDbSpline
210
0.0
220
0.0
230
1.0
 70
     8
 71
     3
 72
     9
 73
     5
 74
     0
 42
0.000000001
 43
0.00000001
 40
0.0
 40
0.0
 40
0.0
 40
0.0
 40
0.5679659355654433
 40
0.9999999999999999
 40
0.9999999999999999
 40
0.9999999999999999
 40
0.9999999999999999
 10
1985.292553002523
 20
1631.476911485991
 30
0.0
 10
1985.10166508576
 20
1631.261893697993
 30
0.0
 10
1984.765574653552
 20
1630.883318550201
 30
0.0
 10
1984.54103154942
 20
1630.430502050828
 30
0.0
 10
1984.444021279501
 20
1630.234869898161
 30
0.0
  0
SPLINE
  5
1CA
330
1F
100
AcDbEntity
  8
0
  6
Continuous
 62
     7
370
    25
100
AcDbSpline
210
0.0
220
0.0
230
1.0
 70
     8
 71
     3
 72
     9
 73
     5
 74
     0
 42
0.000000001
 43
0.00000001
 40
0.0
 40
0.0
 40
0.0
 40
0.0
 40
0.554411515967098
 40
0.9999999999999999
 40
0.9999999999999999
 40
0.9999999999999999
 40
0.9999999999999999
 10
1984.444021279501
 20
1630.234869898161
 30
0.0
 10
1984.329715400207
 20
1630.478136003452
 30
0.0
 10
1984.123540246912
 20
1630.916918565293
 30
0.0
 10
1983.80822930884
 20
1631.284342820877
 30
0.0
 10
1983.667730385946
 20
1631.44806283792
 30
0.0
  0
SPLINE
  5
1CB
330
1F
100
AcDbEntity
  8
0
  6
Continuous
 62
     7
370
    25
100
AcDbSpline
210
0.0
220
0.0
230
1.0
 70
     8
 71
     3
 72
     9
 73
     5
 74
     0
 42
0.000000001
 43
0.00000001
 40
0.0
 40
0.0
 40
0.0
 40
0.0
 40
0.562541347570964
 40
0.9999999999999999
 40
0.9999999999999999
 40
0.9999999999999999
 40
0.9999999999999999
 10
1983.667730385946
 20
1631.44806283792
 30
0.0
 10
1983.20079677488
 20
1631.860466031231
 30
0.0
 10
1982.370753591241
 20
1632.593573375416
 30
0.0
 10
1981.276553323789
 20
1632.690250630917
 30
0.0
 10
1980.797885949301
 20
1632.732542932829
 30
0.0
  0
SPLINE
  5
1CC
330
1F
100
AcDbEntity
  8
0
  6
Continuous
 62
     7
370
    25
100
AcDbSpline
210
0.0
220
0.0
230
1.0
 70
     8
 71
     3
 72
    10
 73
     6
 74
     0
 42
0.000000001
 43
0.00000001
 40
0.0
 40
0.0
 40
0.0
 40
0.0
 40
0.2954174004359004
 40
0.5677656098401977
 40
1.0
 40
1.0
 40
1.0
 40
1.0
 10
1980.797885949301
 20
1632.732542932829
 30
0.0
 10
1980.50375270536
 20
1632.714834352588
 30
0.0
 10
1979.938455128527
 20
1632.680800057908
 30
0.0
 10
1978.984763265263
 20
1632.311918197973
 30
0.0
 10
1978.514237439507
 20
1631.776513237689
 30
0.0
 10
1978.225587899374
 20
1631.44806283792
 30
0.0
  0
LINE
  5
1CD
330
1F
100
AcDbEntity
  8
0
  6
Continuous
 62
     7
370
    25
100
AcDbLine
 10
1978.2255878994
 20
1631.4480628379
 30
0.0
 11
1978.2255878994
 21
1632.4749316581
 31
0.0
  0
LINE
  5
1CE
330
1F
100
AcDbEntity
  8
0
  6
Continuous
 62
     7
370
    25
100
AcDbLine
 10
1978.2255878994
 20
1632.4749316581
 30
0.0
 11
1976.4829865047
 21
1632.4749316581
 31
0.0
  0
LINE
  5
1CF
330
1F
100
AcDbEntity
  8
0
  6
Continuous
 62
     7
370
    25
100
AcDbLine
 10
1976.4829865047
 20
1632.4749316581
 30
0.0
 11
1976.4829865047
 21
1630.0262536414
 31
0.0
  0
SPLINE
  5
1D0
330
1F
100
AcDbEntity
  8
0
  6
Continuous
 62
     7
370
    25
100
AcDbSpline
210
0.0
220
0.0
230
1.0
 70
     8
 71
     3
 72
     9
 73
     5
 74
     0
 42
0.000000001
 43
0.00000001
 40
0.0
 40
0.0
 40
0.0
 40
0.0
 40
0.5476543963007374
 40
0.9999999999999999
 40
0.9999999999999999
 40
0.9999999999999999
 40
0.9999999999999999
 10
1976.48298650472
 20
1630.026253641448
 30
0.0
 10
1976.351379177278
 20
1630.319580052668
 30
0.0
 10
1976.111068265268
 20
1630.855185013024
 30
0.0
 10
1975.72051897577
 20
1631.292298254667
 30
0.0
 10
1975.543855721639
 20
1631.490024507842
 30
0.0
  0
SPLINE
  5
1D1
330
1F
100
AcDbEntity
  8
0
  6
Continuous
 62
     7
370
    25
100
AcDbSpline
210
0.0
220
0.0
230
1.0
 70
     8
 71
     3
 72
     9
 73
     5
 74
     0
 42
0.000000001
 43
0.00000001
 40
0.0
 40
0.0
 40
0.0
 40
0.0
 40
0.5612312499508846
 40
1.0
 40
1.0
 40
1.0
 40
1.0
 10
1975.543855721639
 20
1631.490024507842
 30
0.0
 10
1975.076574147981
 20
1631.889013207212
 30
0.0
 10
1974.243973372989
 20
1632.599929962835
 30
0.0
 10
1973.161405850008
 20
1632.692101112639
 30
0.0
 10
1972.686409051107
 20
1632.732542932829
 30
0.0
  0
SPLINE
  5
1D2
330
1F
100
AcDbEntity
  8
0
  6
Continuous
 62
     7
370
    25
100
AcDbSpline
210
0.0
220
0.0
230
1.0
 70
     8
 71
     3
 72
     9
 73
     5
 74
     0
 42
0.000000001
 43
0.00000001
 40
0.0
 40
0.0
 40
0.0
 40
0.0
 40
0.5595380414023071
 40
1.0
 40
1.0
 40
1.0
 40
1.0
 10
1972.686409051107
 20
1632.732542932829
 30
0.0
 10
1972.053932549535
 20
1632.666484281059
 30
0.0
 10
1970.923577766171
 20
1632.548425012731
 30
0.0
 10
1970.075286772061
 20
1631.804557033195
 30
0.0
 10
1969.701646859335
 20
1631.476911485991
 30
0.0
  0
SPLINE
  5
1D3
330
1F
100
AcDbEntity
  8
0
  6
Continuous
 62
     7
370
    25
100
AcDbSpline
210
0.0
220
0.0
230
1.0
 70
     8
 71
     3
 72
     9
 73
     5
 74
     0
 42
0.000000001
 43
0.00000001
 40
0.0
 40
0.0
 40
0.0
 40
0.0
 40
0.5672182291162742
 40
1.0
 40
1.0
 40
1.0
 40
1.0
 10
1969.701646859335
 20
1631.476911485991
 30
0.0
 10
1969.467882710253
 20
1631.208114868605
 30
0.0
 10
1969.055758880161
 20
1630.734229151278
 30
0.0
 10
1968.821805265842
 20
1630.153074055909
 30
0.0
 10
1968.720554406332
 20
1629.901560724577
 30
0.0
  0
SPLINE
  5
1D4
330
1F
100
AcDbEntity
  8
0
  6
Continuous
 62
     7
370
    25
100
AcDbSpline
210
0.0
220
0.0
230
1.0
 70
     8
 71
     3
 72
     9
 73
     5
 74
     0
 42
0.000000001
 43
0.00000001
 40
0.0
 40
0.0
 40
0.0
 40
0.0
 40
0.5939431695977752
 40
1.0
 40
1.0
 40
1.0
 40
1.0
 10
1968.720554406332
 20
1629.901560724577
 30
0.0
 10
1968.712501221284
 20
1629.990389896789
 30
0.0
 10
1968.698942373467
 20
1630.139948266612
 30
0.0
 10
1968.672091258693
 20
1630.287661797796
 30
0.0
 10
1968.661188180135
 20
1630.347641886076
 30
0.0
  0
SPLINE
  5
1D5
330
1F
100
AcDbEntity
  8
0
  6
Continuous
 62
     7
370
    25
100
AcDbSpline
210
0.0
220
0.0
230
1.0
 70
     8
 71
     3
 72
     9
 73
     5
 74
     0
 42
0.000000001
 43
0.00000001
 40
0.0
 40
0.0
 40
0.0
 40
0.0
 40
0.5681733024264309
 40
1.0
 40
1.0
 40
1.0
 40
1.0
 10
1968.661188180135
 20
1630.347641886076
 30
0.0
 10
1968.58222609856
 20
1630.622755368335
 30
0.0
 10
1968.443250752063
 20
1631.106962354272
 30
0.0
 10
1968.137048247991
 20
1631.504959619766
 30
0.0
 10
1968.004821831869
 20
1631.676825464568
 30
0.0
  0
SPLINE
  5
1D6
330
1F
100
AcDbEntity
  8
0
  6
Continuous
 62
     7
370
    25
100
AcDbSpline
210
0.0
220
0.0
230
1.0
 70
     8
 71
     3
 72
    10
 73
     6
 74
     0
 42
0.000000001
 43
0.00000001
 40
0.0
 40
0.0
 40
0.0
 40
0.0
 40
0.2867641246876484
 40
0.5597761813105223
 40
1.0
 40
1.0
 40
1.0
 40
1.0
 10
1968.004821831868
 20
1631.676825464568
 30
0.0
 10
1967.827094285506
 20
1631.855645192149
 30
0.0
 10
1967.480162299766
 20
1632.204709163654
 30
0.0
 10
1966.695388087605
 20
1632.636660624458
 30
0.0
 10
1966.065318108963
 20
1632.695948957196
 30
0.0
 10
1965.676425988363
 20
1632.73254293283
 30
0.0
  0
SPLINE
  5
1D7
330
1F
100
AcDbEntity
  8
0
  6
Continuous
 62
     7
370
    25
100
AcDbSpline
210
0.0
220
0.0
230
1.0
 70
     8
 71
     3
 72
     9
 73
     5
 74
     0
 42
0.000000001
 43
0.00000001
 40
0.0
 40
0.0
 40
0.0
 40
0.0
 40
0.5574696505328758
 40
1.0
 40
1.0
 40
1.0
 40
1.0
 10
1965.676425988363
 20
1632.73254293283
 30
0.0
 10
1965.463573120806
 20
1632.721384362234
 30
0.0
 10
1965.081753469542
 20
1632.701367899301
 30
0.0
 10
1964.721651859539
 20
1632.574642218082
 30
0.0
 10
1964.562295968221
 20
1632.518562258086
 30
0.0
  0
SPLINE
  5
1D8
330
1F
100
AcDbEntity
  8
0
  6
Continuous
 62
     7
370
    25
100
AcDbSpline
210
0.0
220
0.0
230
1.0
 70
     8
 71
     3
 72
     9
 73
     5
 74
     0
 42
0.000000001
 43
0.00000001
 40
0.0
 40
0.0
 40
0.0
 40
0.0
 40
0.5917838258518334
 40
1.0
 40
1.0
 40
1.0
 40
1.0
 10
1964.562295968221
 20
1632.518562258086
 30
0.0
 10
1964.354001598291
 20
1632.429371986426
 30
0.0
 10
1964.002024472809
 20
1632.278657709078
 30
0.0
 10
1963.750089423565
 20
1631.993332867608
 30
0.0
 10
1963.647245461629
 20
1631.876858652434
 30
0.0
  0
LINE
  5
1D9
330
1F
100
AcDbEntity
  8
0
  6
Continuous
 62
     7
370
    25
100
AcDbLine
 10
1963.6472454616
 20
1631.8768586524
 30
0.0
 11
1963.6472454616
 21
1635.1183976539
 31
0.0
  0
LINE
  5
1DA
330
1F
100
AcDbEntity
  8
0
  6
Continuous
 62
     7
370
    25
100
AcDbLine
 10
1963.6472454616
 20
1635.1183976539
 30
0.0
 11
1961.7472878048
 21
1635.1183976539
 31
0.0
  0
LINE
  5
1DB
330
1F
100
AcDbEntity
  8
0
  6
Continuous
 62
     7
370
    25
100
AcDbLine
 10
1961.7472878048
 20
1635.1183976539
 30
0.0
 11
1961.7472878048
 21
1624.309572161
 31
0.0
  0
LINE
  5
1DC
330
1F
100
AcDbEntity
  8
0
  6
Continuous
 62
     7
370
    25
100
AcDbLine
 10
1961.7472878048
 20
1624.309572161
 30
0.0
 11
1963.6472454616
 21
1624.309572161
 31
0.0
  0
LINE
  5
1DD
330
1F
100
AcDbEntity
  8
0
  6
Continuous
 62
     7
370
    25
100
AcDbLine
 10
1963.6472454616
 20
1624.309572161
 30
0.0
 11
1963.6472454616
 21
1628.4050073036
 31
0.0
  0
SPLINE
  5
1DE
330
1F
100
AcDbEntity
  8
0
  6
Continuous
 62
     7
370
    25
100
AcDbSpline
210
0.0
220
0.0
230
1.0
 70
     8
 71
     3
 72
    10
 73
     6
 74
     0
 42
0.000000001
 43
0.00000001
 40
0.0
 40
0.0
 40
0.0
 40
0.0
 40
0.6630358212046725
 40
0.8498484687964273
 40
0.9999999999999999
 40
0.9999999999999999
 40
0.9999999999999999
 40
0.9999999999999999
 10
1963.64724546163
 20
1628.405007303557
 30
0.0
 10
1963.656749022515
 20
1628.809810404395
 30
0.0
 10
1963.668930244717
 20
1629.328668186144
 30
0.0
 10
1963.810203851826
 20
1629.926015351532
 30
0.0
 10
1963.904954889379
 20
1630.108742872347
 30
0.0
 10
1963.947176034139
 20
1630.19016641458
 30
0.0
  0
SPLINE
  5
1DF
330
1F
100
AcDbEntity
  8
0
  6
Continuous
 62
     7
370
    25
100
AcDbSpline
210
0.0
220
0.0
230
1.0
 70
     8
 71
     3
 72
    10
 73
     6
 74
     0
 42
0.000000001
 43
0.00000001
 40
0.0
 40
0.0
 40
0.0
 40
0.0
 40
0.2831784362947637
 40
0.5514765386155857
 40
0.9999999999999999
 40
0.9999999999999999
 40
0.9999999999999999
 40
0.9999999999999999
 10
1963.947176034139
 20
1630.19016641458
 30
0.0
 10
1964.034305873556
 20
1630.306357066519
 30
0.0
 10
1964.203987092508
 20
1630.532632835922
 30
0.0
 10
1964.64555320839
 20
1630.818302197795
 30
0.0
 10
1965.015826638809
 20
1630.853485822998
 30
0.0
 10
1965.247510964559
 20
1630.875500620207
 30
0.0
  0
SPLINE
  5
1E0
330
1F
100
AcDbEntity
  8
0
  6
Continuous
 62
     7
370
    25
100
AcDbSpline
210
0.0
220
0.0
230
1.0
 70
     8
 71
     3
 72
    11
 73
     7
 74
     0
 42
0.000000001
 43
0.00000001
 40
0.0
 40
0.0
 40
0.0
 40
0.0
 40
0.3089919951672098
 40
0.5793839673120584
 40
0.7844034588662346
 40
0.9999999999999999
 40
0.9999999999999999
 40
0.9999999999999999
 40
0.9999999999999999
 10
1965.247510964559
 20
1630.875500620207
 30
0.0
 10
1965.419800943975
 20
1630.866243673512
 30
0.0
 10
1965.7428580243
 20
1630.84888618016
 30
0.0
 10
1966.150826891548
 20
1630.671586332495
 30
0.0
 10
1966.444455438909
 20
1630.414968639526
 30
0.0
 10
1966.559466299762
 20
1630.210231955094
 30
0.0
 10
1966.618417794393
 20
1630.10528940042
 30
0.0
  0
SPLINE
  5
1E1
330
1F
100
AcDbEntity
  8
0
  6
Continuous
 62
     7
370
    25
100
AcDbSpline
210
0.0
220
0.0
230
1.0
 70
     8
 71
     3
 72
     9
 73
     5
 74
     0
 42
0.000000001
 43
0.00000001
 40
0.0
 40
0.0
 40
0.0
 40
0.0
 40
0.4805201749044651
 40
1.0
 40
1.0
 40
1.0
 40
1.0
 10
1966.618417794393
 20
1630.10528940042
 30
0.0
 10
1966.695636819696
 20
1629.843206258357
 30
0.0
 10
1966.856335640131
 20
1629.297790777906
 30
0.0
 10
1966.858391171032
 20
1628.728904209516
 30
0.0
 10
1966.859458977865
 20
1628.43337911447
 30
0.0
  0
LINE
  5
1E2
330
1F
100
AcDbEntity
  8
0
  6
Continuous
 62
     7
370
    25
100
AcDbLine
 10
1966.8594589779
 20
1628.4333791145
 30
0.0
 11
1966.8594589779
 21
1624.309572161
 31
0.0
  0
LINE
  5
1E3
330
1F
100
AcDbEntity
  8
0
  6
Continuous
 62
     7
370
    25
100
AcDbLine
 10
1966.8594589779
 20
1624.309572161
 30
0.0
 11
1968.7613239834
 21
1624.309572161
 31
0.0
  0
LINE
  5
1E4
330
1F
100
AcDbEntity
  8
0
  6
Continuous
 62
     7
370
    25
100
AcDbLine
 10
1968.7613239834
 20
1624.309572161
 30
0.0
 11
1968.7613239834
 21
1626.9467200645
 31
0.0
  0
SPLINE
  5
1E5
330
1F
100
AcDbEntity
  8
0
  6
Continuous
 62
     7
370
    25
100
AcDbSpline
210
0.0
220
0.0
230
1.0
 70
     8
 71
     3
 72
     9
 73
     5
 74
     0
 42
0.000000001
 43
0.00000001
 40
0.0
 40
0.0
 40
0.0
 40
0.0
 40
0.5496869991996514
 40
1.0
 40
1.0
 40
1.0
 40
1.0
 10
1968.761323983358
 20
1626.946720064482
 30
0.0
 10
1968.893821585869
 20
1626.658474262025
 30
0.0
 10
1969.134863492816
 20
1626.134092563211
 30
0.0
 10
1969.525664213906
 20
1625.710687907986
 30
0.0
 10
1969.701646859335
 20
1625.520023287138
 30
0.0
  0
SPLINE
  5
1E6
330
1F
100
AcDbEntity
  8
0
  6
Continuous
 62
     7
370
    25
100
AcDbSpline
210
0.0
220
0.0
230
1.0
 70
     8
 71
     3
 72
     9
 73
     5
 74
     0
 42
0.000000001
 43
0.00000001
 40
0.0
 40
0.0
 40
0.0
 40
0.0
 40
0.5572952890947704
 40
1.0
 40
1.0
 40
1.0
 40
1.0
 10
1969.701646859335
 20
1625.520023287138
 30
0.0
 10
1970.188095882906
 20
1625.130170674424
 30
0.0
 10
1971.060970700065
 20
1624.430626608032
 30
0.0
 10
1972.16879173991
 20
1624.343661347742
 30
0.0
 10
1972.65922933309
 20
1624.305161417326
 30
0.0
  0
SPLINE
  5
1E7
330
1F
100
AcDbEntity
  8
0
  6
Continuous
 62
     7
370
    25
100
AcDbSpline
210
0.0
220
0.0
230
1.0
 70
     8
 71
     3
 72
     9
 73
     5
 74
     0
 42
0.000000001
 43
0.00000001
 40
0.0
 40
0.0
 40
0.0
 40
0.0
 40
0.5521985933931567
 40
1.0
 40
1.0
 40
1.0
 40
1.0
 10
1972.65922933309
 20
1624.305161417326
 30
0.0
 10
1973.118096603414
 20
1624.346026490054
 30
0.0
 10
1973.94907892719
 20
1624.420030794331
 30
0.0
 10
1974.6644292658
 20
1624.8437763297
 30
0.0
 10
1974.984764153646
 20
1625.033530176482
 30
0.0
  0
SPLINE
  5
1E8
330
1F
100
AcDbEntity
  8
0
  6
Continuous
 62
     7
370
    25
100
AcDbSpline
210
0.0
220
0.0
230
1.0
 70
     8
 71
     3
 72
     9
 73
     5
 74
     0
 42
0.000000001
 43
0.00000001
 40
0.0
 40
0.0
 40
0.0
 40
0.0
 40
0.5793664071253959
 40
1.0
 40
1.0
 40
1.0
 40
1.0
 10
1974.984764153646
 20
1625.033530176482
 30
0.0
 10
1975.354360455443
 20
1625.318470812105
 30
0.0
 10
1975.992292336289
 20
1625.81028502867
 30
0.0
 10
1976.319404510491
 20
1626.540838606003
 30
0.0
 10
1976.456998879598
 20
1626.848133982024
 30
0.0
  0
LINE
  5
1E9
330
1F
100
AcDbEntity
  8
0
  6
Continuous
 62
     7
370
    25
100
AcDbLine
 10
1976.4569988796
 20
1626.848133982
 30
0.0
 11
1974.3562927791
 21
1626.848133982
 31
0.0
  0
SPLINE
  5
1EA
330
1F
100
AcDbEntity
  8
0
  6
Continuous
 62
     7
370
    25
100
AcDbSpline
210
0.0
220
0.0
230
1.0
 70
     8
 71
     3
 72
    10
 73
     6
 74
     0
 42
0.000000001
 43
0.00000001
 40
0.0
 40
0.0
 40
0.0
 40
0.0
 40
0.2599066144402856
 40
0.5269375947045724
 40
0.9999999999999999
 40
0.9999999999999999
 40
0.9999999999999999
 40
0.9999999999999999
 10
1974.356292779134
 20
1626.848133982024
 30
0.0
 10
1974.233522646568
 20
1626.730563125841
 30
0.0
 10
1973.984617098338
 20
1626.492198649054
 30
0.0
 10
1973.379848095133
 20
1626.21630468551
 30
0.0
 10
1972.895431828194
 20
1626.183663676311
 30
0.0
 10
1972.585796410726
 20
1626.162799776396
 30
0.0
  0
SPLINE
  5
1EB
330
1F
100
AcDbEntity
  8
0
  6
Continuous
 62
     7
370
    25
100
AcDbSpline
210
0.0
220
0.0
230
1.0
 70
     8
 71
     3
 72
     9
 73
     5
 74
     0
 42
0.000000001
 43
0.00000001
 40
0.0
 40
0.0
 40
0.0
 40
0.0
 40
0.5576209789905762
 40
0.9999999999999999
 40
0.9999999999999999
 40
0.9999999999999999
 40
0.9999999999999999
 10
1972.585796410726
 20
1626.162799776396
 30
0.0
 10
1972.325595420384
 20
1626.184710419078
 30
0.0
 10
1971.858968445886
 20
1626.224003493597
 30
0.0
 10
1971.46218309034
 20
1626.469019669449
 30
0.0
 10
1971.286653573202
 20
1626.577409685454
 30
0.0
  0
SPLINE
  5
1EC
330
1F
100
AcDbEntity
  8
0
  6
Continuous
 62
     7
370
    25
100
AcDbSpline
210
0.0
220
0.0
230
1.0
 70
     8
 71
     3
 72
     9
 73
     5
 74
     0
 42
0.000000001
 43
0.00000001
 40
0.0
 40
0.0
 40
0.0
 40
0.0
 40
0.5561308066431611
 40
1.0
 40
1.0
 40
1.0
 40
1.0
 10
1971.286653573201
 20
1626.577409685454
 30
0.0
 10
1971.091760083518
 20
1626.747374753781
 30
0.0
 10
1970.741314671478
 20
1627.05299542125
 30
0.0
 10
1970.57459101349
 20
1627.484920367097
 30
0.0
 10
1970.500587517904
 20
1627.676638544402
 30
0.0
  0
LINE
  5
1ED
330
1F
100
AcDbEntity
  8
0
  6
Continuous
 62
     7
370
    25
100
AcDbLine
 10
1970.5005875179
 20
1627.6766385444
 30
0.0
 11
1976.4829865047
 21
1627.6766385444
 31
0.0
  0
LINE
  5
1EE
330
1F
100
AcDbEntity
  8
0
  6
Continuous
 62
     7
370
    25
100
AcDbLine
 10
1976.4829865047
 20
1627.6766385444
 30
0.0
 11
1976.4829865047
 21
1622.2465361961
 31
0.0
  0
LINE
  5
1EF
330
1F
100
AcDbEntity
  8
0
  6
Continuous
 62
     7
370
    25
100
AcDbLine
 10
1976.4829865047
 20
1622.2465361961
 30
0.0
 11
1978.3836594173
 21
1622.2465361961
 31
0.0
  0
LINE
  5
1F0
330
1F
100
AcDbEntity
  8
0
  6
Continuous
 62
     7
370
    25
100
AcDbLine
 10
1978.3836594173
 20
1622.2465361961
 30
0.0
 11
1978.3836594173
 21
1625.4208411582
 31
0.0
  0
SPLINE
  5
1F1
330
1F
100
AcDbEntity
  8
0
  6
Continuous
 62
     7
370
    25
100
AcDbSpline
210
0.0
220
0.0
230
1.0
 70
     8
 71
     3
 72
    10
 73
     6
 74
     0
 42
0.000000001
 43
0.00000001
 40
0.0
 40
0.0
 40
0.0
 40
0.0
 40
0.2822198704707778
 40
0.5534651223506747
 40
1.0
 40
1.0
 40
1.0
 40
1.0
 10
1978.383659417318
 20
1625.420841158232
 30
0.0
 10
1978.560505025178
 20
1625.231570950845
 30
0.0
 10
1978.907319286797
 20
1624.860390642689
 30
0.0
 10
1979.724082704028
 20
1624.402750653394
 30
0.0
 10
1980.386063892735
 20
1624.342588571764
 30
0.0
 10
1980.797885949301
 20
1624.305161417326
 30
0.0
  0
SPLINE
  5
1F2
330
1F
100
AcDbEntity
  8
0
  6
Continuous
 62
     7
370
    25
100
AcDbSpline
210
0.0
220
0.0
230
1.0
 70
     8
 71
     3
 72
     9
 73
     5
 74
     0
 42
0.000000001
 43
0.00000001
 40
0.0
 40
0.0
 40
0.0
 40
0.0
 40
0.5554422304103317
 40
1.0
 40
1.0
 40
1.0
 40
1.0
 10
1980.797885949301
 20
1624.305161417326
 30
0.0
 10
1981.405811886286
 20
1624.374378225136
 30
0.0
 10
1982.500301832679
 20
1624.498993898954
 30
0.0
 10
1983.299215615937
 20
1625.245746093318
 30
0.0
 10
1983.654378945516
 20
1625.577720583281
 30
0.0
  0
SPLINE
  5
1F3
330
1F
100
AcDbEntity
  8
0
  6
Continuous
 62
     7
370
    25
100
AcDbSpline
210
0.0
220
0.0
230
1.0
 70
     8
 71
     3
 72
     9
 73
     5
 74
     0
 42
0.000000001
 43
0.00000001
 40
0.0
 40
0.0
 40
0.0
 40
0.0
 40
0.5657429768726002
 40
1.0
 40
1.0
 40
1.0
 40
1.0
 10
1983.654378945516
 20
1625.577720583281
 30
0.0
 10
1983.826914419024
 20
1625.786883963091
 30
0.0
 10
1984.131885899999
 20
1626.156598459531
 30
0.0
 10
1984.33555108284
 20
1626.589716116716
 30
0.0
 10
1984.423994118856
 20
1626.777800501189
 30
0.0
  0
SPLINE
  5
1F4
330
1F
100
AcDbEntity
  8
0
  6
Continuous
 62
     7
370
    25
100
AcDbSpline
210
0.0
220
0.0
230
1.0
 70
     8
 71
     3
 72
     9
 73
     5
 74
     0
 42
0.000000001
 43
0.00000001
 40
0.0
 40
0.0
 40
0.0
 40
0.0
 40
0.5500872282155495
 40
1.0
 40
1.0
 40
1.0
 40
1.0
 10
1984.423994118856
 20
1626.777800501189
 30
0.0
 10
1984.552525680875
 20
1626.525527955037
 30
0.0
 10
1984.786182372808
 20
1626.066923331603
 30
0.0
 10
1985.135424506245
 20
1625.68972819607
 30
0.0
 10
1985.292553002523
 20
1625.520023287138
 30
0.0
  0
SPLINE
  5
1F5
330
1F
100
AcDbEntity
  8
0
  6
Continuous
 62
     7
370
    25
100
AcDbSpline
210
0.0
220
0.0
230
1.0
 70
     8
 71
     3
 72
     9
 73
     5
 74
     0
 42
0.000000001
 43
0.00000001
 40
0.0
 40
0.0
 40
0.0
 40
0.0
 40
0.5576065587500723
 40
0.9999999999999999
 40
0.9999999999999999
 40
0.9999999999999999
 40
0.9999999999999999
 10
1985.292553002523
 20
1625.520023287138
 30
0.0
 10
1985.779573118391
 20
1625.130170045916
 30
0.0
 10
1986.652984860462
 20
1624.431015355024
 30
0.0
 10
1987.760937964261
 20
1624.343761812337
 30
0.0
 10
1988.251089150594
 20
1624.305161417327
 30
0.0
  0
SPLINE
  5
1F6
330
1F
100
AcDbEntity
  8
0
  6
Continuous
 62
     7
370
    25
100
AcDbSpline
210
0.0
220
0.0
230
1.0
 70
     8
 71
     3
 72
     9
 73
     5
 74
     0
 42
0.000000001
 43
0.00000001
 40
0.0
 40
0.0
 40
0.0
 40
0.0
 40
0.5519177173838615
 40
1.0
 40
1.0
 40
1.0
 40
1.0
 10
1988.251089150594
 20
1624.305161417326
 30
0.0
 10
1988.709840700016
 20
1624.346108841489
 30
0.0
 10
1989.541036247779
 20
1624.420300016864
 30
0.0
 10
1990.256839078966
 20
1624.843777444203
 30
0.0
 10
1990.577577645467
 20
1625.033530176482
 30
0.0
  0
SPLINE
  5
1F7
330
1F
100
AcDbEntity
  8
0
  6
Continuous
 62
     7
370
    25
100
AcDbSpline
210
0.0
220
0.0
230
1.0
 70
     8
 71
     3
 72
     9
 73
     5
 74
     0
 42
0.000000001
 43
0.00000001
 40
0.0
 40
0.0
 40
0.0
 40
0.0
 40
0.5794247766131865
 40
1.0
 40
1.0
 40
1.0
 40
1.0
 10
1990.577577645467
 20
1625.033530176482
 30
0.0
 10
1990.947296763841
 20
1625.318440092959
 30
0.0
 10
1991.585376344309
 20
1625.81015174903
 30
0.0
 10
1991.912311531876
 20
1626.540829164703
 30
0.0
 10
1992.049812371419
 20
1626.848133982024
 30
0.0
  0
LINE
  5
1F8
330
1F
100
AcDbEntity
  8
0
  6
Continuous
 62
     7
370
    25
100
AcDbLine
 10
1992.0498123714
 20
1626.848133982
 30
0.0
 11
1989.9500599453
 21
1626.848133982
 31
0.0
  0
SPLINE
  5
1F9
330
1F
100
AcDbEntity
  8
0
  6
Continuous
 62
     7
370
    25
100
AcDbSpline
210
0.0
220
0.0
230
1.0
 70
     8
 71
     3
 72
    10
 73
     6
 74
     0
 42
0.000000001
 43
0.00000001
 40
0.0
 40
0.0
 40
0.0
 40
0.0
 40
0.2606475392159909
 40
0.5277870552898634
 40
1.0
 40
1.0
 40
1.0
 40
1.0
 10
1989.950059945272
 20
1626.848133982024
 30
0.0
 10
1989.826611395356
 20
1626.73060548928
 30
0.0
 10
1989.576639548945
 20
1626.492621208727
 30
0.0
 10
1988.9721435923
 20
1626.216469368951
 30
0.0
 10
1988.488184135511
 20
1626.183717736109
 30
0.0
 10
1988.179086739706
 20
1626.162799776396
 30
0.0
  0
SPLINE
  5
1FA
330
1F
100
AcDbEntity
  8
0
  6
Continuous
 62
     7
370
    25
100
AcDbSpline
210
0.0
220
0.0
230
1.0
 70
     8
 71
     3
 72
     9
 73
     5
 74
     0
 42
0.000000001
 43
0.00000001
 40
0.0
 40
0.0
 40
0.0
 40
0.0
 40
0.5576764720003277
 40
1.0
 40
1.0
 40
1.0
 40
1.0
 10
1988.179086739706
 20
1626.162799776396
 30
0.0
 10
1987.918650249319
 20
1626.184700787059
 30
0.0
 10
1987.45164741979
 20
1626.223972679925
 30
0.0
 10
1987.054444157566
 20
1626.46901964662
 30
0.0
 10
1986.878751809286
 20
1626.577409685454
 30
0.0
  0
SPLINE
  5
1FB
330
1F
100
AcDbEntity
  8
0
  6
Continuous
 62
     7
370
    25
100
AcDbSpline
210
0.0
220
0.0
230
1.0
 70
     8
 71
     3
 72
     9
 73
     5
 74
     0
 42
0.000000001
 43
0.00000001
 40
0.0
 40
0.0
 40
0.0
 40
0.0
 40
0.5562665787412496
 40
1.0
 40
1.0
 40
1.0
 40
1.0
 10
1986.878751809286
 20
1626.577409685454
 30
0.0
 10
1986.683713200985
 20
1626.747336407366
 30
0.0
 10
1986.333092445119
 20
1627.052813544419
 30
0.0
 10
1986.166740216227
 20
1627.484905086249
 30
0.0
 10
1986.092924172567
 20
1627.676638544402
 30
0.0
  0
LINE
  5
1FC
330
1F
100
AcDbEntity
  8
0
  6
Continuous
 62
     7
370
    25
100
AcDbLine
 10
1986.0929241726
 20
1627.6766385444
 30
0.0
 11
1992.1191921779
 21
1627.6766385444
 31
0.0
  0
LINE
  5
1FD
330
1F
100
AcDbEntity
  8
0
  6
Continuous
 62
     7
370
    25
100
AcDbLine
 10
1992.1191921779
 20
1627.6766385444
 30
0.0
 11
1992.1191921779
 21
1624.309572161
 31
0.0
  0
LINE
  5
1FE
330
1F
100
AcDbEntity
  8
0
  6
Continuous
 62
     7
370
    25
100
AcDbLine
 10
1992.1191921779
 20
1624.309572161
 30
0.0
 11
1994.0189114162
 21
1624.309572161
 31
0.0
  0
LINE
  5
1FF
330
1F
100
AcDbEntity
  8
0
  6
Continuous
 62
     7
370
    25
100
AcDbLine
 10
1994.0189114162
 20
1624.309572161
 30
0.0
 11
1994.0189114162
 21
1628.8338031181
 31
0.0
  0
SPLINE
  5
200
330
1F
100
AcDbEntity
  8
0
  6
Continuous
 62
     7
370
    25
100
AcDbSpline
210
0.0
220
0.0
230
1.0
 70
     8
 71
     3
 72
     9
 73
     5
 74
     0
 42
0.000000001
 43
0.00000001
 40
0.0
 40
0.0
 40
0.0
 40
0.0
 40
0.6526119737491874
 40
1.0
 40
1.0
 40
1.0
 40
1.0
 10
1994.018911416219
 20
1628.833803118071
 30
0.0
 10
1994.018978603017
 20
1629.037268635065
 30
0.0
 10
1994.019081553621
 20
1629.349039680003
 30
0.0
 10
1994.071332101081
 20
1629.655946825459
 30
0.0
 10
1994.089483315634
 20
1629.762562692961
 30
0.0
  0
SPLINE
  5
201
330
1F
100
AcDbEntity
  8
0
  6
Continuous
 62
     7
370
    25
100
AcDbSpline
210
0.0
220
0.0
230
1.0
 70
     8
 71
     3
 72
     9
 73
     5
 74
     0
 42
0.000000001
 43
0.00000001
 40
0.0
 40
0.0
 40
0.0
 40
0.0
 40
0.5611764396938296
 40
1.0
 40
1.0
 40
1.0
 40
1.0
 10
1994.089483315634
 20
1629.762562692961
 30
0.0
 10
1994.140349742197
 20
1629.92871956034
 30
0.0
 10
1994.230992226387
 20
1630.224806237588
 30
0.0
 10
1994.460901093306
 20
1630.429485277858
 30
0.0
 10
1994.561790520834
 20
1630.51930326303
 30
0.0
  0
LINE
  5
202
330
1F
100
AcDbEntity
  8
0
  6
Continuous
 62
     7
370
    25
100
AcDbLine
 10
1976.1415710994
 20
1624.0072574027
 30
0.0
 11
1961.7472878048
 21
1624.0072574027
 31
0.0
  0
LINE
  5
203
330
1F
100
AcDbEntity
  8
0
  6
Continuous
 62
     7
370
    25
100
AcDbLine
 10
1961.7472878048
 20
1622.261318148
 30
0.0
 11
1961.7472878048
 21
1624.0072574027
 31
0.0
  0
LINE
  5
204
330
1F
100
AcDbEntity
  8
0
  6
Continuous
 62
     7
370
    25
100
AcDbLine
 10
1961.7472878048
 20
1622.261318148
 30
0.0
 11
1976.1415710994
 21
1622.261318148
 31
0.0
  0
LINE
  5
205
330
1F
100
AcDbEntity
  8
0
  6
Continuous
 62
     7
370
    25
100
AcDbLine
 10
1976.1415710994
 20
1622.261318148
 30
0.0
 11
1976.1415710994
 21
1624.0072574027
 31
0.0
  0
LINE
  5
206
330
1F
100
AcDbEntity
  8
0
  6
Continuous
 62
     7
370
    25
100
AcDbLine
 10
1998.8492718288
 20
1637.2821654685
 30
0.0
 11
1998.0713120052
 21
1637.2821654685
 31
0.0
  0
LINE
  5
207
330
1F
100
AcDbEntity
  8
0
  6
Continuous
 62
     7
370
    25
100
AcDbLine
 10
1998.0713120052
 20
1637.2821654685
 30
0.0
 11
1998.0713120052
 21
1634.9299277671
 31
0.0
  0
LINE
  5
208
330
1F
100
AcDbEntity
  8
0
  6
Continuous
 62
     7
370
    25
100
AcDbLine
 10
1998.0713120052
 20
1634.9299277671
 30
0.0
 11
2000.4249802181
 21
1634.9299277671
 31
0.0
  0
LINE
  5
209
330
1F
100
AcDbEntity
  8
0
  6
Continuous
 62
     7
370
    25
100
AcDbLine
 10
2000.4249802181
 20
1634.9299277671
 30
0.0
 11
2000.4249802181
 21
1635.7066954978
 31
0.0
  0
LINE
  5
20A
330
1F
100
AcDbEntity
  8
0
  6
Continuous
 62
     7
370
    25
100
AcDbLine
 10
2000.4249802181
 20
1635.7066954978
 30
0.0
 11
1998.8492718288
 21
1635.7066954978
 31
0.0
  0
LINE
  5
20B
330
1F
100
AcDbEntity
  8
0
  6
Continuous
 62
     7
370
    25
100
AcDbLine
 10
1998.8492718288
 20
1635.7066954978
 30
0.0
 11
1998.8492718288
 21
1637.2821654685
 31
0.0
  0
LINE
  5
20C
330
1F
100
AcDbEntity
  8
0
  6
Continuous
 62
     7
370
    25
100
AcDbLine
 10
1993.0456867763
 20
1618.2353820213
 30
0.0
 11
1990.7573452541
 21
1618.2353820213
 31
0.0
  0
SPLINE
  5
20D
330
1F
100
AcDbEntity
  8
0
  6
Continuous
 62
     7
370
    25
100
AcDbSpline
210
0.0
220
0.0
230
1.0
 70
     8
 71
     3
 72
     9
 73
     5
 74
     0
 42
0.000000001
 43
0.00000001
 40
0.0
 40
0.0
 40
0.0
 40
0.0
 40
0.5587703021325491
 40
1.0
 40
1.0
 40
1.0
 40
1.0
 10
1992.767452294515
 20
1619.123014391264
 30
0.0
 10
1992.858462355806
 20
1618.969147974882
 30
0.0
 10
1993.021337979193
 20
1618.693781843585
 30
0.0
 10
1993.038232438952
 20
1618.375720244525
 30
0.0
 10
1993.045686776327
 20
1618.235382021269
 30
0.0
  0
SPLINE
  5
20E
330
1F
100
AcDbEntity
  8
0
  6
Continuous
 62
     7
370
    25
100
AcDbSpline
210
0.0
220
0.0
230
1.0
 70
     8
 71
     3
 72
     9
 73
     5
 74
     0
 42
0.000000001
 43
0.00000001
 40
0.0
 40
0.0
 40
0.0
 40
0.0
 40
0.5588183122946507
 40
1.0
 40
1.0
 40
1.0
 40
1.0
 10
1991.737484032797
 20
1619.626435221037
 30
0.0
 10
1991.964763386475
 20
1619.600087964306
 30
0.0
 10
1992.371477605887
 20
1619.552939801564
 30
0.0
 10
1992.646234558467
 20
1619.254625290655
 30
0.0
 10
1992.767452294515
 20
1619.123014391264
 30
0.0
  0
SPLINE
  5
20F
330
1F
100
AcDbEntity
  8
0
  6
Continuous
 62
     7
370
    25
100
AcDbSpline
210
0.0
220
0.0
230
1.0
 70
     8
 71
     3
 72
     9
 73
     5
 74
     0
 42
0.000000001
 43
0.00000001
 40
0.0
 40
0.0
 40
0.0
 40
0.0
 40
0.558517184561672
 40
1.0
 40
1.0
 40
1.0
 40
1.0
 10
1990.737556512045
 20
1619.149717272124
 30
0.0
 10
1990.894598311553
 20
1619.304280555189
 30
0.0
 10
1991.175774618836
 20
1619.581019189804
 30
0.0
 10
1991.565449339856
 20
1619.612525657135
 30
0.0
 10
1991.737484032797
 20
1619.626435221037
 30
0.0
  0
SPLINE
  5
210
330
1F
100
AcDbEntity
  8
0
  6
Continuous
 62
     7
370
    25
100
AcDbSpline
210
0.0
220
0.0
230
1.0
 70
     8
 71
     3
 72
     9
 73
     5
 74
     0
 42
0.000000001
 43
0.00000001
 40
0.0
 40
0.0
 40
0.0
 40
0.0
 40
0.5594723418994829
 40
1.0
 40
1.0
 40
1.0
 40
1.0
 10
1990.443109566854
 20
1618.295701921782
 30
0.0
 10
1990.458656607211
 20
1618.469452145551
 30
0.0
 10
1990.486445363137
 20
1618.780013027219
 30
0.0
 10
1990.660764229905
 20
1619.036658043943
 30
0.0
 10
1990.737556512045
 20
1619.149717272124
 30
0.0
  0
SPLINE
  5
211
330
1F
100
AcDbEntity
  8
0
  6
Continuous
 62
     7
370
    25
100
AcDbSpline
210
0.0
220
0.0
230
1.0
 70
     8
 71
     3
 72
    11
 73
     7
 74
     0
 42
0.000000001
 43
0.00000001
 40
0.0
 40
0.0
 40
0.0
 40
0.0
 40
0.2798884059712366
 40
0.5588141016374485
 40
0.7794644737681322
 40
1.0
 40
1.0
 40
1.0
 40
1.0
 10
1991.729616219686
 20
1616.979035318694
 30
0.0
 10
1991.535048758687
 20
1616.996523642488
 30
0.0
 10
1991.146583075198
 20
1617.031440136855
 30
0.0
 10
1990.728315378463
 20
1617.404859987381
 30
0.0
 10
1990.485129648433
 20
1617.841752345744
 30
0.0
 10
1990.457113829764
 20
1618.144411658367
 30
0.0
 10
1990.443109566854
 20
1618.295701921782
 30
0.0
  0
SPLINE
  5
212
330
1F
100
AcDbEntity
  8
0
  6
Continuous
 62
     7
370
    25
100
AcDbSpline
210
0.0
220
0.0
230
1.0
 70
     8
 71
     3
 72
    10
 73
     6
 74
     0
 42
0.000000001
 43
0.00000001
 40
0.0
 40
0.0
 40
0.0
 40
0.0
 40
0.2808914749905851
 40
0.5613601509435326
 40
1.0
 40
1.0
 40
1.0
 40
1.0
 10
1992.911218697713
 20
1617.684992731414
 30
0.0
 10
1992.839789174953
 20
1617.569268132885
 30
0.0
 10
1992.697037645454
 20
1617.337993124984
 30
0.0
 10
1992.294809248316
 20
1617.040762032919
 30
0.0
 10
1991.94375271974
 20
1617.002421917386
 30
0.0
 10
1991.729616219686
 20
1616.979035318694
 30
0.0
  0
LINE
  5
213
330
1F
100
AcDbEntity
  8
0
  6
Continuous
 62
     7
370
    25
100
AcDbLine
 10
1992.6320305416
 20
1617.8316201576
 30
0.0
 11
1992.9112186977
 21
1617.6849927314
 31
0.0
  0
SPLINE
  5
214
330
1F
100
AcDbEntity
  8
0
  6
Continuous
 62
     7
370
    25
100
AcDbSpline
210
0.0
220
0.0
230
1.0
 70
     8
 71
     3
 72
    10
 73
     6
 74
     0
 42
0.000000001
 43
0.00000001
 40
0.0
 40
0.0
 40
0.0
 40
0.0
 40
0.280524403111525
 40
0.5609457363049549
 40
1.0
 40
1.0
 40
1.0
 40
1.0
 10
1991.690515572714
 20
1617.29315179666
 30
0.0
 10
1991.796250966921
 20
1617.302042218882
 30
0.0
 10
1992.007682906173
 20
1617.319819796819
 30
0.0
 10
1992.366828110258
 20
1617.472401380413
 30
0.0
 10
1992.531525356369
 20
1617.695485094433
 30
0.0
 10
1992.632030541586
 20
1617.831620157561
 30
0.0
  0
SPLINE
  5
215
330
1F
100
AcDbEntity
  8
0
  6
Continuous
 62
     7
370
    25
100
AcDbSpline
210
0.0
220
0.0
230
1.0
 70
     8
 71
     3
 72
    11
 73
     7
 74
     0
 42
0.000000001
 43
0.00000001
 40
0.0
 40
0.0
 40
0.0
 40
0.0
 40
0.2799248684303824
 40
0.5593806599395241
 40
0.7794432474540595
 40
1.0
 40
1.0
 40
1.0
 40
1.0
 10
1990.75734525411
 20
1618.235382021269
 30
0.0
 10
1990.773405443053
 20
1618.09680969642
 30
0.0
 10
1990.805498908488
 20
1617.819897255742
 30
0.0
 10
1991.053080753816
 20
1617.506537763735
 30
0.0
 10
1991.363577696896
 20
1617.319878254874
 30
0.0
 10
1991.581454829318
 20
1617.302067274544
 30
0.0
 10
1991.690515572714
 20
1617.29315179666
 30
0.0
  0
SPLINE
  5
216
330
1F
100
AcDbEntity
  8
0
  6
Continuous
 62
     7
370
    25
100
AcDbSpline
210
0.0
220
0.0
230
1.0
 70
     8
 71
     3
 72
    11
 73
     7
 74
     0
 42
0.000000001
 43
0.00000001
 40
0.0
 40
0.0
 40
0.0
 40
0.0
 40
0.2795451560397935
 40
0.5592079150634233
 40
0.7793340536251804
 40
0.9999999999999999
 40
0.9999999999999999
 40
0.9999999999999999
 40
0.9999999999999999
 10
1989.859937722372
 20
1617.270621240935
 30
0.0
 10
1989.854770326978
 20
1617.227637617978
 30
0.0
 10
1989.844433362298
 20
1617.141652289111
 30
0.0
 10
1989.764902911591
 20
1617.04689558544
 30
0.0
 10
1989.66952470714
 20
1616.98809513418
 30
0.0
 10
1989.601944743596
 20
1616.982057721724
 30
0.0
 10
1989.568113381551
 20
1616.979035318694
 30
0.0
  0
SPLINE
  5
217
330
1F
100
AcDbEntity
  8
0
  6
Continuous
 62
     7
370
    25
100
AcDbSpline
210
0.0
220
0.0
230
1.0
 70
     8
 71
     3
 72
    11
 73
     7
 74
     0
 42
0.000000001
 43
0.00000001
 40
0.0
 40
0.0
 40
0.0
 40
0.0
 40
0.279817697120712
 40
0.5591244213233632
 40
0.7794034922523992
 40
1.0
 40
1.0
 40
1.0
 40
1.0
 10
1989.568113381551
 20
1617.562326372466
 30
0.0
 10
1989.611314257467
 20
1617.557466351747
 30
0.0
 10
1989.697637120512
 20
1617.547755185156
 30
0.0
 10
1989.791969677913
 20
1617.467409505605
 30
0.0
 10
1989.851769829125
 20
1617.372421961168
 30
0.0
 10
1989.857213784714
 20
1617.304571098881
 30
0.0
 10
1989.859937722372
 20
1617.270621240935
 30
0.0
  0
SPLINE
  5
218
330
1F
100
AcDbEntity
  8
0
  6
Continuous
 62
     7
370
    25
100
AcDbSpline
210
0.0
220
0.0
230
1.0
 70
     8
 71
     3
 72
    11
 73
     7
 74
     0
 42
0.000000001
 43
0.00000001
 40
0.0
 40
0.0
 40
0.0
 40
0.0
 40
0.2797422346231636
 40
0.5592915472939867
 40
0.7795797201229334
 40
1.0
 40
1.0
 40
1.0
 40
1.0
 10
1989.27652745931
 20
1617.270621240935
 30
0.0
 10
1989.281617743323
 20
1617.313662891386
 30
0.0
 10
1989.291794800876
 20
1617.399716508965
 30
0.0
 10
1989.371003777171
 20
1617.494970385239
 30
0.0
 10
1989.466682620484
 20
1617.5534753843
 30
0.0
 10
1989.534296371882
 20
1617.559375453541
 30
0.0
 10
1989.568113381551
 20
1617.562326372466
 30
0.0
  0
SPLINE
  5
219
330
1F
100
AcDbEntity
  8
0
  6
Continuous
 62
     7
370
    25
100
AcDbSpline
210
0.0
220
0.0
230
1.0
 70
     8
 71
     3
 72
    11
 73
     7
 74
     0
 42
0.000000001
 43
0.00000001
 40
0.0
 40
0.0
 40
0.0
 40
0.0
 40
0.2794312694374065
 40
0.5592627495546125
 40
0.779840173181493
 40
1.0
 40
1.0
 40
1.0
 40
1.0
 10
1989.568113381551
 20
1616.979035318694
 30
0.0
 10
1989.525239050894
 20
1616.984339495188
 30
0.0
 10
1989.439428983546
 20
1616.994955444993
 30
0.0
 10
1989.344390125089
 20
1617.07402436956
 30
0.0
 10
1989.285834367004
 20
1617.169467256321
 30
0.0
 10
1989.279627801643
 20
1617.236924551237
 30
0.0
 10
1989.27652745931
 20
1617.270621240935
 30
0.0
  0
LINE
  5
21A
330
1F
100
AcDbEntity
  8
0
  6
Continuous
 62
     7
370
    25
100
AcDbLine
 10
1988.0200615474
 20
1617.8834761985
 30
0.0
 11
1988.0200615474
 21
1617.0238580116
 31
0.0
  0
SPLINE
  5
21B
330
1F
100
AcDbEntity
  8
0
  6
Continuous
 62
     7
370
    25
100
AcDbSpline
210
0.0
220
0.0
230
1.0
 70
     8
 71
     3
 72
     9
 73
     5
 74
     0
 42
0.000000001
 43
0.00000001
 40
0.0
 40
0.0
 40
0.0
 40
0.0
 40
0.5595829659892817
 40
0.9999999999999999
 40
0.9999999999999999
 40
0.9999999999999999
 40
0.9999999999999999
 10
1988.076089913534
 20
1618.761214197478
 30
0.0
 10
1988.055437396187
 20
1618.598090216481
 30
0.0
 10
1988.018530416163
 20
1618.306580304795
 30
0.0
 10
1988.019593393929
 20
1618.012843077111
 30
0.0
 10
1988.020061547445
 20
1617.883476198516
 30
0.0
  0
SPLINE
  5
21C
330
1F
100
AcDbEntity
  8
0
  6
Continuous
 62
     7
370
    25
100
AcDbSpline
210
0.0
220
0.0
230
1.0
 70
     8
 71
     3
 72
    10
 73
     6
 74
     0
 42
0.000000001
 43
0.00000001
 40
0.0
 40
0.0
 40
0.0
 40
0.0
 40
0.2783347202143376
 40
0.5587621574825802
 40
1.0
 40
1.0
 40
1.0
 40
1.0
 10
1988.584398324178
 20
1619.312318743071
 30
0.0
 10
1988.510426920343
 20
1619.296245429284
 30
0.0
 10
1988.3619279434
 20
1619.263977951182
 30
0.0
 10
1988.171441223385
 20
1619.057911081483
 30
0.0
 10
1988.112268856932
 20
1618.8737892611
 30
0.0
 10
1988.076089913533
 20
1618.761214197478
 30
0.0
  0
SPLINE
  5
21D
330
1F
100
AcDbEntity
  8
0
  6
Continuous
 62
     7
370
    25
100
AcDbSpline
210
0.0
220
0.0
230
1.0
 70
     8
 71
     3
 72
     9
 73
     5
 74
     0
 42
0.000000001
 43
0.00000001
 40
0.0
 40
0.0
 40
0.0
 40
0.0
 40
0.5607174778672279
 40
1.0
 40
1.0
 40
1.0
 40
1.0
 10
1988.745092446493
 20
1619.266780794463
 30
0.0
 10
1988.716349769427
 20
1619.280096646583
 30
0.0
 10
1988.665089235914
 20
1619.303844527907
 30
0.0
 10
1988.609025947091
 20
1619.309732333139
 30
0.0
 10
1988.584398324178
 20
1619.312318743071
 30
0.0
  0
LINE
  5
21E
330
1F
100
AcDbEntity
  8
0
  6
Continuous
 62
     7
370
    25
100
AcDbLine
 10
1988.9174690792
 20
1619.5388163932
 30
0.0
 11
1988.7450924465
 21
1619.2667807945
 31
0.0
  0
SPLINE
  5
21F
330
1F
100
AcDbEntity
  8
0
  6
Continuous
 62
     7
370
    25
100
AcDbSpline
210
0.0
220
0.0
230
1.0
 70
     8
 71
     3
 72
     9
 73
     5
 74
     0
 42
0.000000001
 43
0.00000001
 40
0.0
 40
0.0
 40
0.0
 40
0.0
 40
0.5591210811133355
 40
1.0
 40
1.0
 40
1.0
 40
1.0
 10
1988.644002968953
 20
1619.626435221038
 30
0.0
 10
1988.6983058832
 20
1619.619972240072
 30
0.0
 10
1988.795427805591
 20
1619.608413060523
 30
0.0
 10
1988.880126993005
 20
1619.560111522904
 30
0.0
 10
1988.917469079183
 20
1619.538816393218
 30
0.0
  0
SPLINE
  5
220
330
1F
100
AcDbEntity
  8
0
  6
Continuous
 62
     7
370
    25
100
AcDbSpline
210
0.0
220
0.0
230
1.0
 70
     8
 71
     3
 72
    10
 73
     6
 74
     0
 42
0.000000001
 43
0.00000001
 40
0.0
 40
0.0
 40
0.0
 40
0.0
 40
0.5587637814757683
 40
0.779548746069837
 40
1.0
 40
1.0
 40
1.0
 40
1.0
 10
1988.020061547445
 20
1619.205030382475
 30
0.0
 10
1988.10788689392
 20
1619.325198326644
 30
0.0
 10
1988.230414768824
 20
1619.492848366429
 30
0.0
 10
1988.470874293075
 20
1619.610839541242
 30
0.0
 10
1988.586322515148
 20
1619.62123928291
 30
0.0
 10
1988.644002968954
 20
1619.626435221037
 30
0.0
  0
LINE
  5
221
330
1F
100
AcDbEntity
  8
0
  6
Continuous
 62
     7
370
    25
100
AcDbLine
 10
1988.0200615474
 20
1619.5816125282
 30
0.0
 11
1988.0200615474
 21
1619.2050303825
 31
0.0
  0
LINE
  5
222
330
1F
100
AcDbEntity
  8
0
  6
Continuous
 62
     7
370
    25
100
AcDbLine
 10
1987.7060642788
 20
1619.5816125282
 30
0.0
 11
1988.0200615474
 21
1619.5816125282
 31
0.0
  0
LINE
  5
223
330
1F
100
AcDbEntity
  8
0
  6
Continuous
 62
     7
370
    25
100
AcDbLine
 10
1987.7060642788
 20
1617.0238580116
 30
0.0
 11
1987.7060642788
 21
1619.5816125282
 31
0.0
  0
LINE
  5
224
330
1F
100
AcDbEntity
  8
0
  6
Continuous
 62
     7
370
    25
100
AcDbLine
 10
1988.0200615474
 20
1617.0238580116
 30
0.0
 11
1987.7060642788
 21
1617.0238580116
 31
0.0
  0
LINE
  5
225
330
1F
100
AcDbEntity
  8
0
  6
Continuous
 62
     7
370
    25
100
AcDbLine
 10
1981.648325021
 20
1617.4873437293
 30
0.0
 11
1981.648325021
 21
1616.081627787
 31
0.0
  0
SPLINE
  5
226
330
1F
100
AcDbEntity
  8
0
  6
Continuous
 62
     7
370
    25
100
AcDbSpline
210
0.0
220
0.0
230
1.0
 70
     8
 71
     3
 72
     9
 73
     5
 74
     0
 42
0.000000001
 43
0.00000001
 40
0.0
 40
0.0
 40
0.0
 40
0.0
 40
0.5584693819564409
 40
1.0
 40
1.0
 40
1.0
 40
1.0
 10
1982.691644723104
 20
1616.979035318694
 30
0.0
 10
1982.463934894603
 20
1617.009421834763
 30
0.0
 10
1982.056195749257
 20
1617.063832187507
 30
0.0
 10
1981.773252936114
 20
1617.357625143779
 30
0.0
 10
1981.648325020956
 20
1617.487343729338
 30
0.0
  0
SPLINE
  5
227
330
1F
100
AcDbEntity
  8
0
  6
Continuous
 62
     7
370
    25
100
AcDbSpline
210
0.0
220
0.0
230
1.0
 70
     8
 71
     3
 72
    11
 73
     7
 74
     0
 42
0.000000001
 43
0.00000001
 40
0.0
 40
0.0
 40
0.0
 40
0.0
 40
0.2795259591069029
 40
0.559307383388793
 40
0.7796487444426827
 40
1.0
 40
1.0
 40
1.0
 40
1.0
 10
1984.026550347494
 20
1618.309768617949
 30
0.0
 10
1984.003736641733
 20
1618.112980232862
 30
0.0
 10
1983.958088380244
 20
1617.719223613277
 30
0.0
 10
1983.592495751754
 20
1617.28633407248
 30
0.0
 10
1983.155288757267
 20
1617.019119367131
 30
0.0
 10
1982.846195047766
 20
1616.992396868165
 30
0.0
 10
1982.691644723104
 20
1616.979035318694
 30
0.0
  0
SPLINE
  5
228
330
1F
100
AcDbEntity
  8
0
  6
Continuous
 62
     7
370
    25
100
AcDbSpline
210
0.0
220
0.0
230
1.0
 70
     8
 71
     3
 72
    11
 73
     7
 74
     0
 42
0.000000001
 43
0.00000001
 40
0.0
 40
0.0
 40
0.0
 40
0.0
 40
0.2796930997739406
 40
0.5594953886373843
 40
0.7797528874013767
 40
1.0
 40
1.0
 40
1.0
 40
1.0
 10
1982.681631142782
 20
1619.626435221037
 30
0.0
 10
1982.8778868897
 20
1619.604028709077
 30
0.0
 10
1983.270474999606
 20
1619.559206937902
 30
0.0
 10
1983.707961135123
 20
1619.203476285578
 30
0.0
 10
1983.983904131058
 20
1618.772254880168
 30
0.0
 10
1984.012335165464
 20
1618.463928282126
 30
0.0
 10
1984.026550347493
 20
1618.309768617949
 30
0.0
  0
SPLINE
  5
229
330
1F
100
AcDbEntity
  8
0
  6
Continuous
 62
     7
370
    25
100
AcDbSpline
210
0.0
220
0.0
230
1.0
 70
     8
 71
     3
 72
     9
 73
     5
 74
     0
 42
0.000000001
 43
0.00000001
 40
0.0
 40
0.0
 40
0.0
 40
0.0
 40
0.558506154070116
 40
1.0
 40
1.0
 40
1.0
 40
1.0
 10
1981.648325020956
 20
1619.10835164865
 30
0.0
 10
1981.807536970832
 20
1619.276142742043
 30
0.0
 10
1982.092604465104
 20
1619.576571111849
 30
0.0
 10
1982.501226867025
 20
1619.611163079986
 30
0.0
 10
1982.681631142782
 20
1619.626435221037
 30
0.0
  0
LINE
  5
22A
330
1F
100
AcDbEntity
  8
0
  6
Continuous
 62
     7
370
    25
100
AcDbLine
 10
1981.648325021
 20
1619.5816125282
 30
0.0
 11
1981.648325021
 21
1619.1083516486
 31
0.0
  0
LINE
  5
22B
330
1F
100
AcDbEntity
  8
0
  6
Continuous
 62
     7
370
    25
100
AcDbLine
 10
1981.3340893337
 20
1619.5816125282
 30
0.0
 11
1981.648325021
 21
1619.5816125282
 31
0.0
  0
LINE
  5
22C
330
1F
100
AcDbEntity
  8
0
  6
Continuous
 62
     7
370
    25
100
AcDbLine
 10
1981.3340893337
 20
1616.081627787
 30
0.0
 11
1981.3340893337
 21
1619.5816125282
 31
0.0
  0
LINE
  5
22D
330
1F
100
AcDbEntity
  8
0
  6
Continuous
 62
     7
370
    25
100
AcDbLine
 10
1981.648325021
 20
1616.081627787
 30
0.0
 11
1981.3340893337
 21
1616.081627787
 31
0.0
  0
ARC
  5
22E
330
1F
100
AcDbEntity
  8
0
  6
Continuous
 62
     7
370
    25
100
AcDbCircle
 10
2015.946182113
 20
1616.6776270649
 30
0.0
 40
2.000000000000227
100
AcDbArc
 50
270.0
 51
0.0
  0
SPLINE
  5
22F
330
1F
100
AcDbEntity
  8
0
  6
Continuous
 62
     7
370
    25
100
AcDbSpline
210
0.0
220
0.0
230
1.0
 70
     8
 71
     3
 72
     9
 73
     5
 74
     0
 42
0.000000001
 43
0.00000001
 40
0.0
 40
0.0
 40
0.0
 40
0.0
 40
0.5594475254219656
 40
1.0
 40
1.0
 40
1.0
 40
1.0
 10
1991.753458077596
 20
1619.312318743071
 30
0.0
 10
1991.617745437399
 20
1619.30055457256
 30
0.0
 10
1991.375162113619
 20
1619.279526379607
 30
0.0
 10
1991.180311184123
 20
1619.135874883758
 30
0.0
 10
1991.094469124959
 20
1619.072588861785
 30
0.0
  0
SPLINE
  5
230
330
1F
100
AcDbEntity
  8
0
  6
Continuous
 62
     7
370
    25
100
AcDbSpline
210
0.0
220
0.0
230
1.0
 70
     8
 71
     3
 72
    11
 73
     7
 74
     0
 42
0.000000001
 43
0.00000001
 40
0.0
 40
0.0
 40
0.0
 40
0.0
 40
0.280161532530016
 40
0.5591927495686626
 40
0.7795199868051609
 40
1.0
 40
1.0
 40
1.0
 40
1.0
 10
1992.73168950765
 20
1618.549498499236
 30
0.0
 10
1992.69322650597
 20
1618.670624701566
 30
0.0
 10
1992.616455682109
 20
1618.912388420925
 30
0.0
 10
1992.347868512722
 20
1619.155902854829
 30
0.0
 10
1992.049980540747
 20
1619.289014429218
 30
0.0
 10
1991.852321733657
 20
1619.304548843803
 30
0.0
 10
1991.753458077596
 20
1619.312318743071
 30
0.0
  0
LINE
  5
231
330
1F
100
AcDbEntity
  8
0
  6
Continuous
 62
     7
370
    25
100
AcDbLine
 10
1990.790247018
 20
1618.5494984992
 30
0.0
 11
1992.7316895077
 21
1618.5494984992
 31
0.0
  0
SPLINE
  5
232
330
1F
100
AcDbEntity
  8
0
  6
Continuous
 62
     7
370
    25
100
AcDbSpline
210
0.0
220
0.0
230
1.0
 70
     8
 71
     3
 72
     9
 73
     5
 74
     0
 42
0.000000001
 43
0.00000001
 40
0.0
 40
0.0
 40
0.0
 40
0.0
 40
0.5586437013018307
 40
1.0
 40
1.0
 40
1.0
 40
1.0
 10
1991.09446912496
 20
1619.072588861784
 30
0.0
 10
1991.018201278739
 20
1618.986168613088
 30
0.0
 10
1990.881678042116
 20
1618.831472071277
 30
0.0
 10
1990.818244022247
 20
1618.635841350201
 30
0.0
 10
1990.790247018026
 20
1618.549498499236
 30
0.0
  0
SPLINE
  5
233
330
1F
100
AcDbEntity
  8
0
  6
Continuous
 62
     7
370
    25
100
AcDbSpline
210
0.0
220
0.0
230
1.0
 70
     8
 71
     3
 72
     9
 73
     5
 74
     0
 42
0.000000001
 43
0.00000001
 40
0.0
 40
0.0
 40
0.0
 40
0.0
 40
0.5594475254219656
 40
1.0
 40
1.0
 40
1.0
 40
1.0
 10
1985.875248009847
 20
1619.312318743071
 30
0.0
 10
1985.73953536965
 20
1619.30055457256
 30
0.0
 10
1985.49695204587
 20
1619.279526379607
 30
0.0
 10
1985.302101116373
 20
1619.135874883758
 30
0.0
 10
1985.21625905721
 20
1619.072588861785
 30
0.0
  0
SPLINE
  5
234
330
1F
100
AcDbEntity
  8
0
  6
Continuous
 62
     7
370
    25
100
AcDbSpline
210
0.0
220
0.0
230
1.0
 70
     8
 71
     3
 72
     9
 73
     5
 74
     0
 42
0.000000001
 43
0.00000001
 40
0.0
 40
0.0
 40
0.0
 40
0.0
 40
0.5586437013018307
 40
1.0
 40
1.0
 40
1.0
 40
1.0
 10
1985.216259057211
 20
1619.072588861784
 30
0.0
 10
1985.13999121099
 20
1618.986168613088
 30
0.0
 10
1985.003467974367
 20
1618.831472071277
 30
0.0
 10
1984.940033954498
 20
1618.635841350201
 30
0.0
 10
1984.912036950277
 20
1618.549498499236
 30
0.0
  0
LINE
  5
235
330
1F
100
AcDbEntity
  8
0
  6
Continuous
 62
     7
370
    25
100
AcDbLine
 10
1984.9120369503
 20
1618.5494984992
 30
0.0
 11
1986.8534794399
 21
1618.5494984992
 31
0.0
  0
SPLINE
  5
236
330
1F
100
AcDbEntity
  8
0
  6
Continuous
 62
     7
370
    25
100
AcDbSpline
210
0.0
220
0.0
230
1.0
 70
     8
 71
     3
 72
    11
 73
     7
 74
     0
 42
0.000000001
 43
0.00000001
 40
0.0
 40
0.0
 40
0.0
 40
0.0
 40
0.280161532530016
 40
0.5591927495686626
 40
0.7795199868051609
 40
1.0
 40
1.0
 40
1.0
 40
1.0
 10
1986.853479439901
 20
1618.549498499236
 30
0.0
 10
1986.815016438221
 20
1618.670624701566
 30
0.0
 10
1986.73824561436
 20
1618.912388420925
 30
0.0
 10
1986.469658444973
 20
1619.155902854829
 30
0.0
 10
1986.171770472998
 20
1619.289014429218
 30
0.0
 10
1985.974111665908
 20
1619.304548843803
 30
0.0
 10
1985.875248009847
 20
1619.312318743071
 30
0.0
  0
SPLINE
  5
237
330
1F
100
AcDbEntity
  8
0
  6
Continuous
 62
     7
370
    25
100
AcDbSpline
210
0.0
220
0.0
230
1.0
 70
     8
 71
     3
 72
    11
 73
     7
 74
     0
 42
0.000000001
 43
0.00000001
 40
0.0
 40
0.0
 40
0.0
 40
0.0
 40
0.27965774683869
 40
0.558966169443426
 40
0.779435973083347
 40
1.0
 40
1.0
 40
1.0
 40
1.0
 10
1981.648325020955
 20
1618.297132433257
 30
0.0
 10
1981.664955501184
 20
1618.145940764986
 30
0.0
 10
1981.698195688287
 20
1617.843746283979
 30
0.0
 10
1981.984599506075
 20
1617.512583227111
 30
0.0
 10
1982.329475696743
 20
1617.326994880324
 30
0.0
 10
1982.565659685983
 20
1617.304434431167
 30
0.0
 10
1982.683776909993
 20
1617.29315179666
 30
0.0
  0
SPLINE
  5
238
330
1F
100
AcDbEntity
  8
0
  6
Continuous
 62
     7
370
    25
100
AcDbSpline
210
0.0
220
0.0
230
1.0
 70
     8
 71
     3
 72
    11
 73
     7
 74
     0
 42
0.000000001
 43
0.00000001
 40
0.0
 40
0.0
 40
0.0
 40
0.0
 40
0.2798446431352186
 40
0.5593048533089157
 40
0.779564431833667
 40
0.9999999999999999
 40
0.9999999999999999
 40
0.9999999999999999
 40
0.9999999999999999
 10
1982.679008538412
 20
1619.312318743071
 30
0.0
 10
1982.527448064535
 20
1619.296141264263
 30
0.0
 10
1982.224535321022
 20
1619.263808530251
 30
0.0
 10
1981.883400679519
 20
1618.991834270907
 30
0.0
 10
1981.677773730086
 20
1618.654165975277
 30
0.0
 10
1981.658143870365
 20
1618.416175294103
 30
0.0
 10
1981.648325020956
 20
1618.297132433257
 30
0.0
  0
SPLINE
  5
239
330
1F
100
AcDbEntity
  8
0
  6
Continuous
 62
     7
370
    25
100
AcDbSpline
210
0.0
220
0.0
230
1.0
 70
     8
 71
     3
 72
    11
 73
     7
 74
     0
 42
0.000000001
 43
0.00000001
 40
0.0
 40
0.0
 40
0.0
 40
0.0
 40
0.2796456409959536
 40
0.5592604537231374
 40
0.7798147232670458
 40
0.9999999999999999
 40
0.9999999999999999
 40
0.9999999999999999
 40
0.9999999999999999
 10
1982.683776909994
 20
1617.29315179666
 30
0.0
 10
1982.833411071713
 20
1617.31191201358
 30
0.0
 10
1983.13266289941
 20
1617.349430379284
 30
0.0
 10
1983.469044193548
 20
1617.62039094001
 30
0.0
 10
1983.672646525325
 20
1617.95406709032
 30
0.0
 10
1983.69909933081
 20
1618.188882786521
 30
0.0
 10
1983.712314660238
 20
1618.306192339262
 30
0.0
  0
SPLINE
  5
23A
330
1F
100
AcDbEntity
  8
0
  6
Continuous
 62
     7
370
    25
100
AcDbSpline
210
0.0
220
0.0
230
1.0
 70
     8
 71
     3
 72
    11
 73
     7
 74
     0
 42
0.000000001
 43
0.00000001
 40
0.0
 40
0.0
 40
0.0
 40
0.0
 40
0.2794227791124097
 40
0.5591521724980915
 40
0.7796142232961957
 40
0.9999999999999999
 40
0.9999999999999999
 40
0.9999999999999999
 40
0.9999999999999999
 10
1983.712314660238
 20
1618.306192339263
 30
0.0
 10
1983.691504097334
 20
1618.455555759883
 30
0.0
 10
1983.649860135826
 20
1618.754446499559
 30
0.0
 10
1983.373298890203
 20
1619.088084367716
 30
0.0
 10
1983.032151315667
 20
1619.280184881343
 30
0.0
 10
1982.796709219015
 20
1619.301608691388
 30
0.0
 10
1982.679008538411
 20
1619.312318743071
 30
0.0
  0
SPLINE
  5
23B
330
1F
100
AcDbEntity
  8
0
  6
Continuous
 62
     7
370
    25
100
AcDbSpline
210
0.0
220
0.0
230
1.0
 70
     8
 71
     3
 72
     9
 73
     5
 74
     0
 42
0.000000001
 43
0.00000001
 40
0.0
 40
0.0
 40
0.0
 40
0.0
 40
0.5594475254219656
 40
1.0
 40
1.0
 40
1.0
 40
1.0
 10
1979.413866097616
 20
1619.312318743071
 30
0.0
 10
1979.278153457418
 20
1619.30055457256
 30
0.0
 10
1979.035570133638
 20
1619.279526379607
 30
0.0
 10
1978.840719204142
 20
1619.135874883758
 30
0.0
 10
1978.754877144979
 20
1619.072588861785
 30
0.0
  0
SPLINE
  5
23C
330
1F
100
AcDbEntity
  8
0
  6
Continuous
 62
     7
370
    25
100
AcDbSpline
210
0.0
220
0.0
230
1.0
 70
     8
 71
     3
 72
     9
 73
     5
 74
     0
 42
0.000000001
 43
0.00000001
 40
0.0
 40
0.0
 40
0.0
 40
0.0
 40
0.558747713761296
 40
1.0
 40
1.0
 40
1.0
 40
1.0
 10
1978.754877144979
 20
1619.072588861784
 30
0.0
 10
1978.678511093142
 20
1618.986181892466
 30
0.0
 10
1978.541837510492
 20
1618.831537914171
 30
0.0
 10
1978.478405943446
 20
1618.635847390293
 30
0.0
 10
1978.450416619467
 20
1618.549498499236
 30
0.0
  0
SPLINE
  5
23D
330
1F
100
AcDbEntity
  8
0
  6
Continuous
 62
     7
370
    25
100
AcDbSpline
210
0.0
220
0.0
230
1.0
 70
     8
 71
     3
 72
    11
 73
     7
 74
     0
 42
0.000000001
 43
0.00000001
 40
0.0
 40
0.0
 40
0.0
 40
0.0
 40
0.2801159871959147
 40
0.559169985703113
 40
0.7796782825831925
 40
1.0
 40
1.0
 40
1.0
 40
1.0
 10
1980.391859109091
 20
1618.549498499236
 30
0.0
 10
1980.353489179691
 20
1618.670627334111
 30
0.0
 10
1980.276894790742
 20
1618.912425774619
 30
0.0
 10
1980.008222073416
 20
1619.155981306099
 30
0.0
 10
1979.710284814851
 20
1619.288940057127
 30
0.0
 10
1979.512644453208
 20
1619.304528046941
 30
0.0
 10
1979.413866097616
 20
1619.312318743071
 30
0.0
  0
LINE
  5
23E
330
1F
100
AcDbEntity
  8
0
  6
Continuous
 62
     7
370
    25
100
AcDbLine
 10
1978.4504166195
 20
1618.5494984992
 30
0.0
 11
1980.3918591091
 21
1618.5494984992
 31
0.0
  0
SPLINE
  5
23F
330
1F
100
AcDbEntity
  8
0
  6
Continuous
 62
     7
370
    25
100
AcDbSpline
210
0.0
220
0.0
230
1.0
 70
     8
 71
     3
 72
     9
 73
     5
 74
     0
 42
0.000000001
 43
0.00000001
 40
0.0
 40
0.0
 40
0.0
 40
0.0
 40
0.5551347355633828
 40
1.0
 40
1.0
 40
1.0
 40
1.0
 10
1989.593147332357
 20
1630.461486757597
 30
0.0
 10
1989.797967854095
 20
1630.295509963522
 30
0.0
 10
1990.166924268849
 20
1629.996525260453
 30
0.0
 10
1990.34305779048
 20
1629.557874999944
 30
0.0
 10
1990.421413476156
 20
1629.362734735808
 30
0.0
  0
LINE
  5
240
330
1F
100
AcDbEntity
  8
0
  6
Continuous
 62
     7
370
    25
100
AcDbLine
 10
1990.4214134762
 20
1629.3627347358
 30
0.0
 11
1986.0657444545
 21
1629.3627347358
 31
0.0
  0
SPLINE
  5
241
330
1F
100
AcDbEntity
  8
0
  6
Continuous
 62
     7
370
    25
100
AcDbSpline
210
0.0
220
0.0
230
1.0
 70
     8
 71
     3
 72
     9
 73
     5
 74
     0
 42
0.000000001
 43
0.00000001
 40
0.0
 40
0.0
 40
0.0
 40
0.0
 40
0.5489436488706262
 40
1.0
 40
1.0
 40
1.0
 40
1.0
 10
1986.06574445455
 20
1629.362734735808
 30
0.0
 10
1986.169791300144
 20
1629.601436353786
 30
0.0
 10
1986.359331421082
 20
1630.036274462341
 30
0.0
 10
1986.737008426713
 20
1630.319945345231
 30
0.0
 10
1986.907362038778
 20
1630.447896898589
 30
0.0
  0
SPLINE
  5
242
330
1F
100
AcDbEntity
  8
0
  6
Continuous
 62
     7
370
    25
100
AcDbSpline
210
0.0
220
0.0
230
1.0
 70
     8
 71
     3
 72
     9
 73
     5
 74
     0
 42
0.000000001
 43
0.00000001
 40
0.0
 40
0.0
 40
0.0
 40
0.0
 40
0.564547977389384
 40
0.9999999999999999
 40
0.9999999999999999
 40
0.9999999999999999
 40
0.9999999999999999
 10
1986.907362038778
 20
1630.447896898589
 30
0.0
 10
1987.146124492914
 20
1630.585342831968
 30
0.0
 10
1987.569051265655
 20
1630.82880474997
 30
0.0
 10
1988.053822718526
 20
1630.861335179063
 30
0.0
 10
1988.264917428182
 20
1630.875500620207
 30
0.0
  0
SPLINE
  5
243
330
1F
100
AcDbEntity
  8
0
  6
Continuous
 62
     7
370
    25
100
AcDbSpline
210
0.0
220
0.0
230
1.0
 70
     8
 71
     3
 72
     9
 73
     5
 74
     0
 42
0.000000001
 43
0.00000001
 40
0.0
 40
0.0
 40
0.0
 40
0.0
 40
0.5629606113112765
 40
1.0
 40
1.0
 40
1.0
 40
1.0
 10
1988.264917428182
 20
1630.875500620207
 30
0.0
 10
1988.533076787954
 20
1630.854460415489
 30
0.0
 10
1989.009414482607
 20
1630.817086211511
 30
0.0
 10
1989.415619666922
 20
1630.569633388219
 30
0.0
 10
1989.593147332357
 20
1630.461486757597
 30
0.0
  0
SPLINE
  5
244
330
1F
100
AcDbEntity
  8
0
  6
Continuous
 62
     7
370
    25
100
AcDbSpline
210
0.0
220
0.0
230
1.0
 70
     8
 71
     3
 72
    15
 73
    11
 74
     0
 42
0.000000001
 43
0.00000001
 40
0.0
 40
0.0
 40
0.0
 40
0.0
 40
0.1270939555798831
 40
0.2499233221952531
 40
0.3727796666529082
 40
0.4999501383618156
 40
0.6272482011234343
 40
0.7501045455810894
 40
0.8729157152937129
 40
0.9999999999999999
 40
0.9999999999999999
 40
0.9999999999999999
 40
0.9999999999999999
 10
1980.562328393148
 20
1626.168760240874
 30
0.0
 10
1980.249787114852
 20
1626.205061720812
 30
0.0
 10
1979.635191761056
 20
1626.276446598443
 30
0.0
 10
1978.862425612871
 20
1626.819836762596
 30
0.0
 10
1978.339469207712
 20
1627.587506641361
 30
0.0
 10
1978.152945390267
 20
1628.516529449036
 30
0.0
 10
1978.339299067703
 20
1629.445636964184
 30
0.0
 10
1978.862362519097
 20
1630.213576081565
 30
0.0
 10
1979.63523400762
 20
1630.756758698429
 30
0.0
 10
1980.249794018984
 20
1630.827885173405
 30
0.0
 10
1980.562328393148
 20
1630.86405652841
 30
0.0
  0
SPLINE
  5
245
330
1F
100
AcDbEntity
  8
0
  6
Continuous
 62
     7
370
    25
100
AcDbSpline
210
0.0
220
0.0
230
1.0
 70
     8
 71
     3
 72
    15
 73
    11
 74
     0
 42
0.000000001
 43
0.00000001
 40
0.0
 40
0.0
 40
0.0
 40
0.0
 40
0.1272954529582276
 40
0.2500873490778711
 40
0.3728341006129135
 40
0.5000498500269814
 40
0.6271380779929139
 40
0.7498848295279562
 40
0.8726949037164385
 40
1.0
 40
1.0
 40
1.0
 40
1.0
 10
1980.562328393148
 20
1630.86405652841
 30
0.0
 10
1980.875583771452
 20
1630.827966760014
 30
0.0
 10
1981.491011937376
 20
1630.757064034918
 30
0.0
 10
1982.264912338811
 20
1630.213882767347
 30
0.0
 10
1982.787480538921
 20
1629.445484204985
 30
0.0
 10
1982.97351664766
 20
1628.51652950265
 30
0.0
 10
1982.787310578268
 20
1627.587659214375
 30
0.0
 10
1982.264849291733
 20
1626.819530126052
 30
0.0
 10
1981.491054355637
 20
1626.276140969622
 30
0.0
 10
1980.875590712345
 20
1626.204980113563
 30
0.0
 10
1980.562328393148
 20
1626.168760240874
 30
0.0
  0
SPLINE
  5
246
330
1F
100
AcDbEntity
  8
0
  6
Continuous
 62
     7
370
    25
100
AcDbSpline
210
0.0
220
0.0
230
1.0
 70
     8
 71
     3
 72
     9
 73
     5
 74
     0
 42
0.000000001
 43
0.00000001
 40
0.0
 40
0.0
 40
0.0
 40
0.0
 40
0.5489140809795948
 40
0.9999999999999999
 40
0.9999999999999999
 40
0.9999999999999999
 40
0.9999999999999999
 10
1970.472692544149
 20
1629.362734735808
 30
0.0
 10
1970.576997462892
 20
1629.601441048091
 30
0.0
 10
1970.7670179458
 20
1630.036311131689
 30
0.0
 10
1971.144999889035
 20
1630.319950964111
 30
0.0
 10
1971.315502221273
 20
1630.447896898589
 30
0.0
  0
SPLINE
  5
247
330
1F
100
AcDbEntity
  8
0
  6
Continuous
 62
     7
370
    25
100
AcDbSpline
210
0.0
220
0.0
230
1.0
 70
     8
 71
     3
 72
     9
 73
     5
 74
     0
 42
0.000000001
 43
0.00000001
 40
0.0
 40
0.0
 40
0.0
 40
0.0
 40
0.5639598035648534
 40
1.0
 40
1.0
 40
1.0
 40
1.0
 10
1971.315502221273
 20
1630.447896898589
 30
0.0
 10
1971.553535551441
 20
1630.585343504039
 30
0.0
 10
1971.975610544488
 20
1630.829060528872
 30
0.0
 10
1972.459790096497
 20
1630.861399520114
 30
0.0
 10
1972.670911843465
 20
1630.875500620208
 30
0.0
  0
SPLINE
  5
248
330
1F
100
AcDbEntity
  8
0
  6
Continuous
 62
     7
370
    25
100
AcDbSpline
210
0.0
220
0.0
230
1.0
 70
     8
 71
     3
 72
     9
 73
     5
 74
     0
 42
0.000000001
 43
0.00000001
 40
0.0
 40
0.0
 40
0.0
 40
0.0
 40
0.5555189386250815
 40
1.0
 40
1.0
 40
1.0
 40
1.0
 10
1974.000095421957
 20
1630.461486757597
 30
0.0
 10
1974.205397043376
 20
1630.295620236654
 30
0.0
 10
1974.574964320285
 20
1629.997040819445
 30
0.0
 10
1974.750388735493
 20
1629.557916970335
 30
0.0
 10
1974.828361565756
 20
1629.362734735808
 30
0.0
  0
LINE
  5
249
330
1F
100
AcDbEntity
  8
0
  6
Continuous
 62
     7
370
    25
100
AcDbLine
 10
1974.8283615658
 20
1629.3627347358
 30
0.0
 11
1970.4726925441
 21
1629.3627347358
 31
0.0
  0
SPLINE
  5
24A
330
1F
100
AcDbEntity
  8
0
  6
Continuous
 62
     7
370
    25
100
AcDbSpline
210
0.0
220
0.0
230
1.0
 70
     8
 71
     3
 72
     9
 73
     5
 74
     0
 42
0.000000001
 43
0.00000001
 40
0.0
 40
0.0
 40
0.0
 40
0.0
 40
0.5632523483270794
 40
1.0
 40
1.0
 40
1.0
 40
1.0
 10
1972.670911843466
 20
1630.875500620207
 30
0.0
 10
1972.939404123523
 20
1630.854512709812
 30
0.0
 10
1973.416086166405
 20
1630.817250707339
 30
0.0
 10
1973.822566215196
 20
1630.569633146018
 30
0.0
 10
1974.000095421957
 20
1630.461486757597
 30
0.0
  0
ARC
  5
24B
330
1F
100
AcDbEntity
  8
0
  6
Continuous
 62
     7
370
    25
100
AcDbCircle
 10
1944.446182113
 20
1482.1776270649
 30
0.0
 40
19.0
100
AcDbArc
 50
180.0
 51
270.0
  0
LINE
  5
24C
330
1F
100
AcDbEntity
  8
0
  6
Continuous
 62
     7
370
    25
100
AcDbLine
 10
1925.4461517879
 20
1772.1776093849
 30
0.0
 11
1925.4461517879
 21
1482.1776475318
 31
0.0
  0
ARC
  5
24D
330
1F
100
AcDbEntity
  8
0
  6
Continuous
 62
     7
370
    25
100
AcDbCircle
 10
1944.446182113
 20
1772.1776270649
 30
0.0
 40
19.0
100
AcDbArc
 50
90.0
 51
180.0
  0
LINE
  5
24E
330
1F
100
AcDbEntity
  8
0
  6
Continuous
 62
     7
370
    25
100
AcDbLine
 10
2016.4462318966
 20
1791.1776627906
 30
0.0
 11
1944.4462051937
 21
1791.1776627906
 31
0.0
  0
ARC
  5
24F
330
1F
100
AcDbEntity
  8
0
  6
Continuous
 62
     7
370
    25
100
AcDbCircle
 10
2016.446182113
 20
1772.1776270649
 30
0.0
 40
19.0
100
AcDbArc
 50
0.0
 51
90.0
  0
LINE
  5
250
330
1F
100
AcDbEntity
  8
0
  6
Continuous
 62
     7
370
    25
100
AcDbLine
 10
2035.4462853023
 20
1482.1776475318
 30
0.0
 11
2035.4462853023
 21
1772.1776093849
 31
0.0
  0
ARC
  5
251
330
1F
100
AcDbEntity
  8
0
  6
Continuous
 62
     7
370
    25
100
AcDbCircle
 10
2016.446182113
 20
1482.1776270649
 30
0.0
 40
19.0
100
AcDbArc
 50
270.0
 51
0.0
  0
LINE
  5
252
330
1F
100
AcDbEntity
  8
0
  6
Continuous
 62
     7
370
    25
100
AcDbLine
 10
1944.4462051937
 20
1463.1775941261
 30
0.0
 11
2016.4462318966
 21
1463.1775941261
 31
0.0
  0
CIRCLE
  5
253
330
1F
100
AcDbEntity
  8
0
  6
Continuous
 62
     7
370
    25
100
AcDbCircle
 10
1980.446182113
 20
1469.1776270649
 30
0.0
 40
4.480000000000018
  0
CIRCLE
  5
254
330
1F
100
AcDbEntity
  8
0
  6
Continuous
 62
     7
370
    25
100
AcDbCircle
 10
1980.446182113
 20
1785.1776270649
 30
0.0
 40
4.480000000000018
  0
CIRCLE
  5
255
330
1F
100
AcDbEntity
  8
0
  6
Continuous
 62
     7
370
    25
100
AcDbCircle
 10
2012.946182113
 20
1627.1776270649
 30
0.0
 40
1.650000000000091
  0
CIRCLE
  5
256
330
1F
100
AcDbEntity
  8
0
  6
Continuous
 62
     7
370
    25
100
AcDbCircle
 10
1947.946182113
 20
1627.1776270649
 30
0.0
 40
1.650000000000091
  0
LINE
  5
257
330
1F
100
AcDbEntity
  8
0
  6
Continuous
 62
     7
370
    25
100
AcDbLine
 10
1980.4462185451
 20
1467.4455251106
 30
0.0
 11
1981.9461098263
 21
1468.3115805992
 31
0.0
  0
LINE
  5
258
330
1F
100
AcDbEntity
  8
0
  6
Continuous
 62
     7
370
    25
100
AcDbLine
 10
1981.9461098263
 20
1468.3115805992
 30
0.0
 11
1981.9461098263
 21
1470.0436915763
 31
0.0
  0
LINE
  5
259
330
1F
100
AcDbEntity
  8
0
  6
Continuous
 62
     7
370
    25
100
AcDbLine
 10
1981.9461098263
 20
1470.0436915763
 30
0.0
 11
1980.4462185451
 21
1470.9096278556
 31
0.0
  0
LINE
  5
25A
330
1F
100
AcDbEntity
  8
0
  6
Continuous
 62
     7
370
    25
100
AcDbLine
 10
1980.4462185451
 20
1470.9096278556
 30
0.0
 11
1978.9460888454
 21
1470.0436915763
 31
0.0
  0
LINE
  5
25B
330
1F
100
AcDbEntity
  8
0
  6
Continuous
 62
     7
370
    25
100
AcDbLine
 10
1978.9460888454
 20
1470.0436915763
 30
0.0
 11
1978.9460888454
 21
1468.3115805992
 31
0.0
  0
LINE
  5
25C
330
1F
100
AcDbEntity
  8
0
  6
Continuous
 62
     7
370
    25
100
AcDbLine
 10
1978.9460888454
 20
1468.3115805992
 30
0.0
 11
1980.4462185451
 21
1467.4455251106
 31
0.0
  0
CIRCLE
  5
25D
330
1F
100
AcDbEntity
  8
0
  6
Continuous
 62
     7
370
    25
100
AcDbCircle
 10
1980.446182113
 20
1469.1776270649
 30
0.0
 40
4.0
  0
CIRCLE
  5
25E
330
1F
100
AcDbEntity
  8
0
  6
Continuous
 62
     7
370
    25
100
AcDbCircle
 10
1980.446182113
 20
1785.1776270649
 30
0.0
 40
4.0
  0
LINE
  5
25F
330
1F
100
AcDbEntity
  8
0
  6
Continuous
 62
     7
370
    25
100
AcDbLine
 10
1980.4462185451
 20
1783.4456290611
 30
0.0
 11
1981.9461098263
 21
1784.3115653404
 31
0.0
  0
LINE
  5
260
330
1F
100
AcDbEntity
  8
0
  6
Continuous
 62
     7
370
    25
100
AcDbLine
 10
1981.9461098263
 20
1784.3115653404
 30
0.0
 11
1981.9461098263
 21
1786.0436763175
 31
0.0
  0
LINE
  5
261
330
1F
100
AcDbEntity
  8
0
  6
Continuous
 62
     7
370
    25
100
AcDbLine
 10
1981.9461098263
 20
1786.0436763175
 30
0.0
 11
1980.4462185451
 21
1786.9097318061
 31
0.0
  0
LINE
  5
262
330
1F
100
AcDbEntity
  8
0
  6
Continuous
 62
     7
370
    25
100
AcDbLine
 10
1980.4462185451
 20
1786.9097318061
 30
0.0
 11
1978.9460888454
 21
1786.0436763175
 31
0.0
  0
LINE
  5
263
330
1F
100
AcDbEntity
  8
0
  6
Continuous
 62
     7
370
    25
100
AcDbLine
 10
1978.9460888454
 20
1786.0436763175
 30
0.0
 11
1978.9460888454
 21
1784.3115653404
 31
0.0
  0
LINE
  5
264
330
1F
100
AcDbEntity
  8
0
  6
Continuous
 62
     7
370
    25
100
AcDbLine
 10
1978.9460888454
 20
1784.3115653404
 30
0.0
 11
1980.4462185451
 21
1783.4456290611
 31
0.0
  0
LINE
  5
265
330
1F
100
AcDbEntity
  8
0
  6
Continuous
 62
     7
370
    25
100
AcDbLine
 10
2070.4461327144
 20
3438.1776179679
 30
0.0
 11
2070.4461327144
 21
488.1776298889
 31
0.0
  0
LINE
  5
266
330
1F
100
AcDbEntity
  8
0
  6
Continuous
 62
     7
370
    25
100
AcDbLine
 10
1890.4460659572
 20
3438.1776179679
 30
0.0
 11
1890.4460659572
 21
488.1776298889
 31
0.0
  0
LINE
  5
267
330
1F
100
AcDbEntity
  8
0
  6
Continuous
 62
     7
370
    25
100
AcDbLine
 10
2135.4461899349
 20
476.1776279219
 30
0.0
 11
2135.4461899349
 21
488.1776298889
 31
0.0
  0
LINE
  5
268
330
1F
100
AcDbEntity
  8
0
  6
Continuous
 62
     7
370
    25
100
AcDbLine
 10
2135.4461899349
 20
488.1776298889
 30
0.0
 11
2155.4461708614
 21
488.1776298889
 31
0.0
  0
LINE
  5
269
330
1F
100
AcDbEntity
  8
0
  6
Continuous
 62
     7
370
    25
100
AcDbLine
 10
2155.4461708614
 20
488.1776298889
 30
0.0
 11
2155.4461708614
 21
476.1776279219
 31
0.0
  0
LINE
  5
26A
330
1F
100
AcDbEntity
  8
0
  6
Continuous
 62
     7
370
    25
100
AcDbLine
 10
2155.4461708614
 20
476.1776279219
 30
0.0
 11
2135.4461899349
 21
476.1776279219
 31
0.0
  0
LINE
  5
26B
330
1F
100
AcDbEntity
  8
0
  6
Continuous
 62
     7
370
    25
100
AcDbLine
 10
1825.4462471554
 20
488.1776298889
 30
0.0
 11
1825.4462471554
 21
476.1776279219
 31
0.0
  0
LINE
  5
26C
330
1F
100
AcDbEntity
  8
0
  6
Continuous
 62
     7
370
    25
100
AcDbLine
 10
2135.4461899349
 20
488.1776298889
 30
0.0
 11
1825.4462471554
 21
488.1776298889
 31
0.0
  0
LINE
  5
26D
330
1F
100
AcDbEntity
  8
0
  6
Continuous
 62
     7
370
    25
100
AcDbLine
 10
2135.4461899349
 20
476.1776279219
 30
0.0
 11
1825.4462471554
 21
476.1776279219
 31
0.0
  0
LINE
  5
26E
330
1F
100
AcDbEntity
  8
0
  6
Continuous
 62
     7
370
    25
100
AcDbLine
 10
1805.4462662288
 20
476.1776279219
 30
0.0
 11
1805.4462662288
 21
488.1776298889
 31
0.0
  0
LINE
  5
26F
330
1F
100
AcDbEntity
  8
0
  6
Continuous
 62
     7
370
    25
100
AcDbLine
 10
1805.4462662288
 20
488.1776298889
 30
0.0
 11
1825.4462471554
 21
488.1776298889
 31
0.0
  0
LINE
  5
270
330
1F
100
AcDbEntity
  8
0
  6
Continuous
 62
     7
370
    25
100
AcDbLine
 10
1825.4462471554
 20
476.1776279219
 30
0.0
 11
1805.4462662288
 21
476.1776279219
 31
0.0
  0
ARC
  5
271
330
1F
100
AcDbEntity
  8
0
  6
Continuous
 62
     8
370
    25
100
AcDbCircle
 10
1907.5519087347
 20
3445.0032210553
 30
0.0
 40
10.76933602837801
100
AcDbArc
 50
220.0553092795
 51
270.4468812266
  0
ARC
  5
272
330
1F
100
AcDbEntity
  8
0
  6
Continuous
 62
     8
370
    25
100
AcDbCircle
 10
2053.3404554914
 20
3445.0032210553
 30
0.0
 40
10.76933602837757
100
AcDbArc
 50
269.5531187734
 51
319.9446907205
  0
LINE
  5
273
330
1F
100
AcDbEntity
  8
0
  6
Continuous
 62
     8
370
    25
100
AcDbLine
 10
2070.1462021419
 20
3438.0820121177
 30
0.0
 11
2070.1462021419
 21
488.1776298889
 31
0.0
  0
LINE
  5
274
330
1F
100
AcDbEntity
  8
0
  6
Continuous
 62
     8
370
    25
100
AcDbLine
 10
1890.7462349483
 20
3438.0820121177
 30
0.0
 11
1890.7462349483
 21
488.1776298889
 31
0.0
  0
ENDSEC
  0
SECTION
  2
OBJECTS
  0
DICTIONARY
  5
C
330
0
100
AcDbDictionary
281
     1
  3
ACAD_GROUP
350
D
  3
ACAD_LAYOUT
350
1A
  3
ACAD_MLINESTYLE
350
17
  3
ACAD_PLOTSETTINGS
350
19
  3
ACAD_PLOTSTYLENAME
350
E
  3
ACAD_SCALELIST
350
47
  3
APPDATA
350
296
  3
DWGPROPS
350
29A
  0
DICTIONARY
  5
D
102
{ACAD_REACTORS
330
C
102
}
330
C
100
AcDbDictionary
281
     1
  0
DICTIONARY
  5
1A
102
{ACAD_REACTORS
330
C
102
}
330
C
100
AcDbDictionary
281
     1
  3
Layout1
350
1E
  3
Layout2
350
26
  3
Model
350
22
  0
DICTIONARY
  5
17
102
{ACAD_REACTORS
330
C
102
}
330
C
100
AcDbDictionary
281
     1
  3
Standard
350
18
  0
DICTIONARY
  5
19
102
{ACAD_REACTORS
330
C
102
}
330
C
100
AcDbDictionary
281
     1
  0
ACDBDICTIONARYWDFLT
  5
E
102
{ACAD_REACTORS
330
C
102
}
330
C
100
AcDbDictionary
281
     1
  3
Normal
350
F
100
AcDbDictionaryWithDefault
340
F
  0
DICTIONARY
  5
47
102
{ACAD_REACTORS
330
C
102
}
330
C
100
AcDbDictionary
281
     1
  3
A0
350
48
  3
A1
350
49
  3
A2
350
4A
  3
A3
350
4B
  3
A4
350
4C
  3
A5
350
4D
  3
A6
350
4E
  3
A7
350
4F
  3
A8
350
50
  3
A9
350
51
  3
B0
350
52
  3
B1
350
53
  3
B2
350
54
  3
B3
350
55
  3
B4
350
56
  3
B5
350
57
  3
B6
350
58
  3
B7
350
59
  3
B8
350
5A
  3
B9
350
5B
  3
C0
350
5C
  3
C1
350
5D
  3
C2
350
5E
  3
C3
350
5F
  3
C4
350
60
  3
C5
350
61
  3
C6
350
62
  3
C7
350
63
  3
C8
350
64
  3
C9
350
65
  3
D0
350
66
  3
D1
350
67
  3
D2
350
68
  0
DICTIONARY
  5
296
102
{ACAD_REACTORS
330
C
102
}
330
C
100
AcDbDictionary
281
     1
  0
XRECORD
  5
29A
102
{ACAD_REACTORS
330
C
102
}
330
C
100
AcDbXrecord
280
     1
  1
DWGPROPS COOKIE
  2

  3

  4

  6

  7

  8
mbuyukdag
  9

300
=
301
=
302
=
303
=
304
=
305
=
306
=
307
=
308
=
309
=
 40
0.0
 41
2459151.37801632
 42
2459151.383569896
  1

 90
        0
  0
LAYOUT
  5
1E
102
{ACAD_REACTORS
330
1A
102
}
330
1A
100
AcDbPlotSettings
  1

  2
none_device
  4

  6

 40
0.0
 41
0.0
 42
0.0
 43
0.0
 44
0.0
 45
0.0
 46
0.0
 47
0.0
 48
0.0
 49
0.0
140
0.0
141
0.0
142
1.0
143
1.0
 70
   688
 72
     1
 73
     0
 74
     5
  7

 75
    16
147
1.0
148
0.0
149
0.0
100
AcDbLayout
  1
Layout1
 70
     1
 71
     1
 10
0.0
 20
0.0
 11
420.0
 21
297.0
 12
0.0
 22
0.0
 32
0.0
 14
1.000000000000000E+20
 24
1.000000000000000E+20
 34
1.000000000000000E+20
 15
-1.000000000000000E+20
 25
-1.000000000000000E+20
 35
-1.000000000000000E+20
146
0.0
 13
0.0
 23
0.0
 33
0.0
 16
1.0
 26
0.0
 36
0.0
 17
0.0
 27
1.0
 37
0.0
 76
     0
330
1B
  0
LAYOUT
  5
26
102
{ACAD_REACTORS
330
1A
102
}
330
1A
100
AcDbPlotSettings
  1

  2
none_device
  4

  6

 40
0.0
 41
0.0
 42
0.0
 43
0.0
 44
0.0
 45
0.0
 46
0.0
 47
0.0
 48
0.0
 49
0.0
140
0.0
141
0.0
142
1.0
143
1.0
 70
   688
 72
     1
 73
     0
 74
     5
  7

 75
    16
147
1.0
148
0.0
149
0.0
100
AcDbLayout
  1
Layout2
 70
     1
 71
     2
 10
0.0
 20
0.0
 11
0.0
 21
0.0
 12
0.0
 22
0.0
 32
0.0
 14
0.0
 24
0.0
 34
0.0
 15
0.0
 25
0.0
 35
0.0
146
0.0
 13
0.0
 23
0.0
 33
0.0
 16
1.0
 26
0.0
 36
0.0
 17
0.0
 27
1.0
 37
0.0
 76
     0
330
23
  0
LAYOUT
  5
22
102
{ACAD_REACTORS
330
1A
102
}
330
1A
100
AcDbPlotSettings
  1

  2
none_device
  4
Letter_(8.50_x_11.00_Inches)
  6

 40
6.35
 41
6.35
 42
6.35000508
 43
6.35000508
 44
215.9
 45
279.4
 46
0.0
 47
0.0
 48
0.0
 49
0.0
140
0.0
141
0.0
142
1.0
143
1.0
 70
  1712
 72
     1
 73
     0
 74
     0
  7

 75
     0
147
1.0
148
0.0
149
0.0
100
AcDbLayout
  1
Model
 70
     1
 71
     0
 10
0.0
 20
0.0
 11
5000.0
 21
5000.0
 12
0.0
 22
0.0
 32
0.0
 14
1805.4462662288
 24
476.1776279219
 34
0.0
 15
3062.1088991725
 25
3488.282474459
 35
0.0
146
0.0
 13
0.0
 23
0.0
 33
0.0
 16
1.0
 26
0.0
 36
0.0
 17
0.0
 27
1.0
 37
0.0
 76
     0
330
1F
331
29
  0
MLINESTYLE
  5
18
102
{ACAD_REACTORS
330
17
102
}
330
17
100
AcDbMlineStyle
  2
Standard
 70
     0
  3

 62
   256
 51
90.0
 52
90.0
 71
     2
 49
0.5
 62
   256
  6
BYLAYER
 49
-0.5
 62
   256
  6
BYLAYER
  0
ACDBPLACEHOLDER
  5
F
102
{ACAD_REACTORS
330
E
102
}
330
E
  0
SCALE
  5
48
102
{ACAD_REACTORS
330
47
102
}
330
47
100
AcDbScale
 70
     0
300
1:1
140
1.0
141
1.0
290
     1
  0
SCALE
  5
49
102
{ACAD_REACTORS
330
47
102
}
330
47
100
AcDbScale
 70
     0
300
1:2
140
1.0
141
2.0
290
     0
  0
SCALE
  5
4A
102
{ACAD_REACTORS
330
47
102
}
330
47
100
AcDbScale
 70
     0
300
1:4
140
1.0
141
4.0
290
     0
  0
SCALE
  5
4B
102
{ACAD_REACTORS
330
47
102
}
330
47
100
AcDbScale
 70
     0
300
1:5
140
1.0
141
5.0
290
     0
  0
SCALE
  5
4C
102
{ACAD_REACTORS
330
47
102
}
330
47
100
AcDbScale
 70
     0
300
1:8
140
1.0
141
8.0
290
     0
  0
SCALE
  5
4D
102
{ACAD_REACTORS
330
47
102
}
330
47
100
AcDbScale
 70
     0
300
1:10
140
1.0
141
10.0
290
     0
  0
SCALE
  5
4E
102
{ACAD_REACTORS
330
47
102
}
330
47
100
AcDbScale
 70
     0
300
1:16
140
1.0
141
16.0
290
     0
  0
SCALE
  5
4F
102
{ACAD_REACTORS
330
47
102
}
330
47
100
AcDbScale
 70
     0
300
1:20
140
1.0
141
20.0
290
     0
  0
SCALE
  5
50
102
{ACAD_REACTORS
330
47
102
}
330
47
100
AcDbScale
 70
     0
300
1:30
140
1.0
141
30.0
290
     0
  0
SCALE
  5
51
102
{ACAD_REACTORS
330
47
102
}
330
47
100
AcDbScale
 70
     0
300
1:40
140
1.0
141
40.0
290
     0
  0
SCALE
  5
52
102
{ACAD_REACTORS
330
47
102
}
330
47
100
AcDbScale
 70
     0
300
1:50
140
1.0
141
50.0
290
     0
  0
SCALE
  5
53
102
{ACAD_REACTORS
330
47
102
}
330
47
100
AcDbScale
 70
     0
300
1:100
140
1.0
141
100.0
290
     0
  0
SCALE
  5
54
102
{ACAD_REACTORS
330
47
102
}
330
47
100
AcDbScale
 70
     0
300
2:1
140
2.0
141
1.0
290
     0
  0
SCALE
  5
55
102
{ACAD_REACTORS
330
47
102
}
330
47
100
AcDbScale
 70
     0
300
4:1
140
4.0
141
1.0
290
     0
  0
SCALE
  5
56
102
{ACAD_REACTORS
330
47
102
}
330
47
100
AcDbScale
 70
     0
300
8:1
140
8.0
141
1.0
290
     0
  0
SCALE
  5
57
102
{ACAD_REACTORS
330
47
102
}
330
47
100
AcDbScale
 70
     0
300
10:1
140
10.0
141
1.0
290
     0
  0
SCALE
  5
58
102
{ACAD_REACTORS
330
47
102
}
330
47
100
AcDbScale
 70
     0
300
100:1
140
100.0
141
1.0
290
     0
  0
SCALE
  5
59
102
{ACAD_REACTORS
330
47
102
}
330
47
100
AcDbScale
 70
     0
300
1/128" = 1'-0"
140
0.0078125
141
12.0
290
     0
  0
SCALE
  5
5A
102
{ACAD_REACTORS
330
47
102
}
330
47
100
AcDbScale
 70
     0
300
1/64" = 1'-0"
140
0.015625
141
12.0
290
     0
  0
SCALE
  5
5B
102
{ACAD_REACTORS
330
47
102
}
330
47
100
AcDbScale
 70
     0
300
1/32" = 1'-0"
140
0.03125
141
12.0
290
     0
  0
SCALE
  5
5C
102
{ACAD_REACTORS
330
47
102
}
330
47
100
AcDbScale
 70
     0
300
1/16" = 1'-0"
140
0.0625
141
12.0
290
     0
  0
SCALE
  5
5D
102
{ACAD_REACTORS
330
47
102
}
330
47
100
AcDbScale
 70
     0
300
3/32" = 1'-0"
140
0.09375
141
12.0
290
     0
  0
SCALE
  5
5E
102
{ACAD_REACTORS
330
47
102
}
330
47
100
AcDbScale
 70
     0
300
1/8" = 1'-0"
140
0.125
141
12.0
290
     0
  0
SCALE
  5
5F
102
{ACAD_REACTORS
330
47
102
}
330
47
100
AcDbScale
 70
     0
300
3/16" = 1'-0"
140
0.1875
141
12.0
290
     0
  0
SCALE
  5
60
102
{ACAD_REACTORS
330
47
102
}
330
47
100
AcDbScale
 70
     0
300
1/4" = 1'-0"
140
0.25
141
12.0
290
     0
  0
SCALE
  5
61
102
{ACAD_REACTORS
330
47
102
}
330
47
100
AcDbScale
 70
     0
300
3/8" = 1'-0"
140
0.375
141
12.0
290
     0
  0
SCALE
  5
62
102
{ACAD_REACTORS
330
47
102
}
330
47
100
AcDbScale
 70
     0
300
1/2" = 1'-0"
140
0.5
141
12.0
290
     0
  0
SCALE
  5
63
102
{ACAD_REACTORS
330
47
102
}
330
47
100
AcDbScale
 70
     0
300
3/4" = 1'-0"
140
0.75
141
12.0
290
     0
  0
SCALE
  5
64
102
{ACAD_REACTORS
330
47
102
}
330
47
100
AcDbScale
 70
     0
300
1" = 1'-0"
140
1.0
141
12.0
290
     0
  0
SCALE
  5
65
102
{ACAD_REACTORS
330
47
102
}
330
47
100
AcDbScale
 70
     0
300
1-1/2" = 1'-0"
140
1.5
141
12.0
290
     0
  0
SCALE
  5
66
102
{ACAD_REACTORS
330
47
102
}
330
47
100
AcDbScale
 70
     0
300
3" = 1'-0"
140
3.0
141
12.0
290
     0
  0
SCALE
  5
67
102
{ACAD_REACTORS
330
47
102
}
330
47
100
AcDbScale
 70
     0
300
6" = 1'-0"
140
6.0
141
12.0
290
     0
  0
SCALE
  5
68
102
{ACAD_REACTORS
330
47
102
}
330
47
100
AcDbScale
 70
     0
300
1'-0" = 1'-0"
140
12.0
141
12.0
290
     0
  0
ENDSEC
  0
EOF
