  0
SECTION
  2
HEADER
  9
$ACADVER
  1
AC1015
  9
$ACADMAINTVER
 70
     6
  9
$DWGCODEPAGE
  3
ANSI_1254
  9
$INSBASE
 10
0.0
 20
0.0
 30
0.0
  9
$EXTMIN
 10
293.454221229774
 20
223.8669971719355
 30
0.0
  9
$EXTMAX
 10
723.4542212297745
 20
4224.871482861536
 30
0.0
  9
$LIMMIN
 10
0.0
 20
0.0
  9
$LIMMAX
 10
420.0
 20
297.0
  9
$ORTHOMODE
 70
     0
  9
$REGENMODE
 70
     1
  9
$FILLMODE
 70
     1
  9
$QTEXTMODE
 70
     0
  9
$MIRRTEXT
 70
     1
  9
$LTSCALE
 40
1.0
  9
$ATTMODE
 70
     1
  9
$TEXTSIZE
 40
3.5
  9
$TRACEWID
 40
1.0
  9
$TEXTSTYLE
  7
Standard
  9
$CLAYER
  8
0
  9
$CELTYPE
  6
ByLayer
  9
$CECOLOR
 62
   256
  9
$CELTSCALE
 40
1.0
  9
$DISPSILH
 70
     0
  9
$DIMSCALE
 40
1.0
  9
$DIMASZ
 40
3.302
  9
$DIMEXO
 40
1.0
  9
$DIMDLI
 40
3.75
  9
$DIMRND
 40
0.0
  9
$DIMDLE
 40
0.0
  9
$DIMEXE
 40
1.0
  9
$DIMTP
 40
0.0
  9
$DIMTM
 40
0.0
  9
$DIMTXT
 40
3.5
  9
$DIMCEN
 40
2.5
  9
$DIMTSZ
 40
0.0
  9
$DIMTOL
 70
     0
  9
$DIMLIM
 70
     0
  9
$DIMTIH
 70
     1
  9
$DIMTOH
 70
     1
  9
$DIMSE1
 70
     0
  9
$DIMSE2
 70
     0
  9
$DIMTAD
 70
     1
  9
$DIMZIN
 70
     1
  9
$DIMBLK
  1

  9
$DIMASO
 70
     1
  9
$DIMSHO
 70
     1
  9
$DIMPOST
  1

  9
$DIMAPOST
  1

  9
$DIMALT
 70
     0
  9
$DIMALTD
 70
     3
  9
$DIMALTF
 40
0.0393700787
  9
$DIMLFAC
 40
50.0
  9
$DIMTOFL
 70
     1
  9
$DIMTVP
 40
0.0
  9
$DIMTIX
 70
     0
  9
$DIMSOXD
 70
     0
  9
$DIMSAH
 70
     0
  9
$DIMBLK1
  1

  9
$DIMBLK2
  1

  9
$DIMSTYLE
  2
ISO-25
  9
$DIMCLRD
 70
     0
  9
$DIMCLRE
 70
     0
  9
$DIMCLRT
 70
     0
  9
$DIMTFAC
 40
1.0
  9
$DIMGAP
 40
1.524
  9
$DIMJUST
 70
     0
  9
$DIMSD1
 70
     0
  9
$DIMSD2
 70
     0
  9
$DIMTOLJ
 70
     0
  9
$DIMTZIN
 70
     1
  9
$DIMALTZ
 70
     0
  9
$DIMALTTZ
 70
     0
  9
$DIMUPT
 70
     0
  9
$DIMDEC
 70
     2
  9
$DIMTDEC
 70
     2
  9
$DIMALTU
 70
     2
  9
$DIMALTTD
 70
     3
  9
$DIMTXSTY
  7
Standard
  9
$DIMAUNIT
 70
     0
  9
$DIMADEC
 70
     2
  9
$DIMALTRND
 40
0.0
  9
$DIMAZIN
 70
     0
  9
$DIMDSEP
 70
    44
  9
$DIMATFIT
 70
     3
  9
$DIMFRAC
 70
     0
  9
$DIMLDRBLK
  1

  9
$DIMLUNIT
 70
     2
  9
$DIMLWD
 70
    -2
  9
$DIMLWE
 70
    -2
  9
$DIMTMOVE
 70
     0
  9
$LUNITS
 70
     2
  9
$LUPREC
 70
     2
  9
$SKETCHINC
 40
1.0
  9
$FILLETRAD
 40
10.0
  9
$AUNITS
 70
     0
  9
$AUPREC
 70
     2
  9
$MENU
  1
.
  9
$ELEVATION
 40
0.0
  9
$PELEVATION
 40
0.0
  9
$THICKNESS
 40
0.0
  9
$LIMCHECK
 70
     0
  9
$CHAMFERA
 40
0.0
  9
$CHAMFERB
 40
0.0
  9
$CHAMFERC
 40
0.0
  9
$CHAMFERD
 40
0.0
  9
$SKPOLY
 70
     0
  9
$TDCREATE
 40
2459991.624034896
  9
$TDUCREATE
 40
2459991.499034896
  9
$TDUPDATE
 40
2459991.624697292
  9
$TDUUPDATE
 40
2459991.499697292
  9
$TDINDWG
 40
0.0004426389
  9
$TDUSRTIMER
 40
0.0004426273
  9
$USRTIMER
 70
     1
  9
$ANGBASE
 50
0.0
  9
$ANGDIR
 70
     0
  9
$PDMODE
 70
     0
  9
$PDSIZE
 40
-1.0
  9
$PLINEWID
 40
0.0
  9
$SPLFRAME
 70
     0
  9
$SPLINETYPE
 70
     6
  9
$SPLINESEGS
 70
     8
  9
$HANDSEED
  5
FF
  9
$SURFTAB1
 70
     6
  9
$SURFTAB2
 70
     6
  9
$SURFTYPE
 70
     6
  9
$SURFU
 70
     6
  9
$SURFV
 70
     6
  9
$UCSBASE
  2

  9
$UCSNAME
  2

  9
$UCSORG
 10
0.0
 20
0.0
 30
0.0
  9
$UCSXDIR
 10
1.0
 20
0.0
 30
0.0
  9
$UCSYDIR
 10
0.0
 20
1.0
 30
0.0
  9
$UCSORTHOREF
  2

  9
$UCSORTHOVIEW
 70
     0
  9
$UCSORGTOP
 10
0.0
 20
0.0
 30
0.0
  9
$UCSORGBOTTOM
 10
0.0
 20
0.0
 30
0.0
  9
$UCSORGLEFT
 10
0.0
 20
0.0
 30
0.0
  9
$UCSORGRIGHT
 10
0.0
 20
0.0
 30
0.0
  9
$UCSORGFRONT
 10
0.0
 20
0.0
 30
0.0
  9
$UCSORGBACK
 10
0.0
 20
0.0
 30
0.0
  9
$PUCSBASE
  2

  9
$PUCSNAME
  2

  9
$PUCSORG
 10
0.0
 20
0.0
 30
0.0
  9
$PUCSXDIR
 10
1.0
 20
0.0
 30
0.0
  9
$PUCSYDIR
 10
0.0
 20
1.0
 30
0.0
  9
$PUCSORTHOREF
  2

  9
$PUCSORTHOVIEW
 70
     0
  9
$PUCSORGTOP
 10
0.0
 20
0.0
 30
0.0
  9
$PUCSORGBOTTOM
 10
0.0
 20
0.0
 30
0.0
  9
$PUCSORGLEFT
 10
0.0
 20
0.0
 30
0.0
  9
$PUCSORGRIGHT
 10
0.0
 20
0.0
 30
0.0
  9
$PUCSORGFRONT
 10
0.0
 20
0.0
 30
0.0
  9
$PUCSORGBACK
 10
0.0
 20
0.0
 30
0.0
  9
$USERI1
 70
     0
  9
$USERI2
 70
     0
  9
$USERI3
 70
     0
  9
$USERI4
 70
     0
  9
$USERI5
 70
     0
  9
$USERR1
 40
0.0
  9
$USERR2
 40
0.0
  9
$USERR3
 40
0.0
  9
$USERR4
 40
0.0
  9
$USERR5
 40
0.0
  9
$WORLDVIEW
 70
     1
  9
$SHADEDGE
 70
     3
  9
$SHADEDIF
 70
    70
  9
$TILEMODE
 70
     1
  9
$MAXACTVP
 70
    64
  9
$PINSBASE
 10
0.0
 20
0.0
 30
0.0
  9
$PLIMCHECK
 70
     0
  9
$PEXTMIN
 10
1.000000000000000E+20
 20
1.000000000000000E+20
 30
1.000000000000000E+20
  9
$PEXTMAX
 10
-1.000000000000000E+20
 20
-1.000000000000000E+20
 30
-1.000000000000000E+20
  9
$PLIMMIN
 10
0.0
 20
0.0
  9
$PLIMMAX
 10
0.0
 20
0.0
  9
$UNITMODE
 70
     0
  9
$VISRETAIN
 70
     1
  9
$PLINEGEN
 70
     0
  9
$PSLTSCALE
 70
     1
  9
$TREEDEPTH
 70
  3020
  9
$CMLSTYLE
  2
Standard
  9
$CMLJUST
 70
     0
  9
$CMLSCALE
 40
20.0
  9
$PROXYGRAPHICS
 70
     1
  9
$MEASUREMENT
 70
     1
  9
$CELWEIGHT
370
    -1
  9
$ENDCAPS
280
     0
  9
$JOINSTYLE
280
     0
  9
$LWDISPLAY
290
     1
  9
$INSUNITS
 70
     4
  9
$HYPERLINKBASE
  1

  9
$STYLESHEET
  1

  9
$XEDIT
290
     1
  9
$CEPSNTYPE
380
     0
  9
$PSTYLEMODE
290
     1
  9
$FINGERPRINTGUID
  2
{477e004c-3d82-4392-a84e-6e5339c7be6a}
  9
$VERSIONGUID
  2
{FAEB1C32-E019-11D5-929B-00C0DF256EC4}
  9
$EXTNAMES
290
     1
  9
$PSVPSCALE
 40
0.0
  9
$OLESTARTUP
290
     0
  0
ENDSEC
  0
SECTION
  2
CLASSES
  0
CLASS
  1
ACDBDICTIONARYWDFLT
  2
AcDbDictionaryWithDefault
  3
ObjectDBX Classes
 90
        0
280
     0
281
     0
  0
CLASS
  1
VISUALSTYLE
  2
AcDbVisualStyle
  3
ObjectDBX Classes
 90
     4095
280
     0
281
     0
  0
CLASS
  1
MATERIAL
  2
AcDbMaterial
  3
ObjectDBX Classes
 90
     1153
280
     0
281
     0
  0
CLASS
  1
SCALE
  2
AcDbScale
  3
ObjectDBX Classes
 90
     1153
280
     0
281
     0
  0
CLASS
  1
TABLESTYLE
  2
AcDbTableStyle
  3
ObjectDBX Classes
 90
     4095
280
     0
281
     0
  0
CLASS
  1
MLEADERSTYLE
  2
AcDbMLeaderStyle
  3
ACDB_MLEADERSTYLE_CLASS
 90
     4095
280
     0
281
     0
  0
CLASS
  1
SUN
  2
AcDbSun
  3
SCENEOE
 90
     1153
280
     0
281
     0
  0
CLASS
  1
ACDBPLACEHOLDER
  2
AcDbPlaceHolder
  3
ObjectDBX Classes
 90
        0
280
     0
281
     0
  0
CLASS
  1
LAYOUT
  2
AcDbLayout
  3
ObjectDBX Classes
 90
        0
280
     0
281
     0
  0
ENDSEC
  0
SECTION
  2
TABLES
  0
TABLE
  2
VPORT
  5
8
330
0
100
AcDbSymbolTable
 70
     1
  0
VPORT
  5
29
330
8
100
AcDbSymbolTableRecord
100
AcDbViewportTableRecord
  2
*Active
 70
     0
 10
0.0
 20
0.0
 11
1.0
 21
1.0
 12
-45.8816979998025
 22
1217.282793454839
 13
0.0
 23
0.0
 14
10.0
 24
10.0
 15
10.0
 25
10.0
 16
0.0
 26
0.0
 36
1.0
 17
0.0
 27
0.0
 37
0.0
 40
8441.24770082999
 41
1.928843710292249
 42
50.0
 43
0.0
 44
0.0
 50
0.0
 51
0.0
 71
    16
 72
  2000
 73
     1
 74
     3
 75
     0
 76
     0
 77
     0
 78
     0
281
     0
 65
     1
110
0.0
120
0.0
130
0.0
111
1.0
121
0.0
131
0.0
112
0.0
122
1.0
132
0.0
 79
     0
146
0.0
  0
ENDTAB
  0
TABLE
  2
LTYPE
  5
5
330
0
100
AcDbSymbolTable
 70
     6
  0
LTYPE
  5
14
330
5
100
AcDbSymbolTableRecord
100
AcDbLinetypeTableRecord
  2
ByBlock
 70
     0
  3

 72
    65
 73
     0
 40
0.0
  0
LTYPE
  5
15
330
5
100
AcDbSymbolTableRecord
100
AcDbLinetypeTableRecord
  2
ByLayer
 70
     0
  3

 72
    65
 73
     0
 40
0.0
  0
LTYPE
  5
16
330
5
100
AcDbSymbolTableRecord
100
AcDbLinetypeTableRecord
  2
Continuous
 70
     0
  3
Solid line
 72
    65
 73
     0
 40
0.0
  0
LTYPE
  5
6E
330
5
100
AcDbSymbolTableRecord
100
AcDbLinetypeTableRecord
  2
HIDDEN
 70
     0
  3
Hidden __ __ __ __ __ __ __ __ __ __ __ __ __ __
 72
    65
 73
     2
 40
1.905
 49
1.27
 74
     0
 49
-0.635
 74
     0
  0
LTYPE
  5
6F
330
5
100
AcDbSymbolTableRecord
100
AcDbLinetypeTableRecord
  2
PHANTOM
 70
     0
  3
Phantom ______  __  __  ______  __  __  ______
 72
    65
 73
     6
 40
12.7
 49
6.35
 74
     0
 49
-1.27
 74
     0
 49
1.27
 74
     0
 49
-1.27
 74
     0
 49
1.27
 74
     0
 49
-1.27
 74
     0
  0
LTYPE
  5
70
330
5
100
AcDbSymbolTableRecord
100
AcDbLinetypeTableRecord
  2
CENTER
 70
     0
  3
Center ____ _ ____ _ ____ _ ____ _ ____ _ ____
 72
    65
 73
     4
 40
10.16
 49
6.35
 74
     0
 49
-1.27
 74
     0
 49
1.27
 74
     0
 49
-1.27
 74
     0
  0
LTYPE
  5
71
330
5
100
AcDbSymbolTableRecord
100
AcDbLinetypeTableRecord
  2
CENTERX2
 70
     0
  3
Center (2x) ________  __  ________  __  _____
 72
    65
 73
     4
 40
20.32
 49
12.7
 74
     0
 49
-2.54
 74
     0
 49
2.54
 74
     0
 49
-2.54
 74
     0
  0
LTYPE
  5
72
330
5
100
AcDbSymbolTableRecord
100
AcDbLinetypeTableRecord
  2
DOT2
 70
     0
  3
Dot (.5x) ........................................
 72
    65
 73
     2
 40
0.635
 49
0.0
 74
     0
 49
-0.635
 74
     0
  0
ENDTAB
  0
TABLE
  2
LAYER
  5
2
330
0
100
AcDbSymbolTable
 70
     5
  0
LAYER
  5
10
330
2
100
AcDbSymbolTableRecord
100
AcDbLayerTableRecord
  2
0
 70
     0
 62
     7
  6
Continuous
370
    -3
390
F
  0
LAYER
  5
73
330
2
100
AcDbSymbolTableRecord
100
AcDbLayerTableRecord
  2
FORMAT
 70
     0
 62
     7
  6
Continuous
370
    -3
390
F
  0
LAYER
  5
74
330
2
100
AcDbSymbolTableRecord
100
AcDbLayerTableRecord
  2
SLD-0
 70
     0
 62
   179
  6
Continuous
370
    -3
390
F
  0
LAYER
  5
75
330
2
100
AcDbSymbolTableRecord
100
AcDbLayerTableRecord
  2
AAA_EKSEN
 70
     0
 62
     1
  6
CENTER
370
    -3
390
F
  0
LAYER
  5
76
330
2
100
AcDbSymbolTableRecord
100
AcDbLayerTableRecord
  2
03
 70
     0
 62
     3
  6
HIDDEN
370
    -3
390
F
  0
ENDTAB
  0
TABLE
  2
STYLE
  5
3
330
0
100
AcDbSymbolTable
 70
     1
  0
STYLE
  5
11
330
3
100
AcDbSymbolTableRecord
100
AcDbTextStyleTableRecord
  2
Standard
 70
     0
 40
0.0
 41
1.0
 50
0.0
 71
     0
 42
3.5
  3
txt
  4

  0
ENDTAB
  0
TABLE
  2
VIEW
  5
6
330
0
100
AcDbSymbolTable
 70
     0
  0
ENDTAB
  0
TABLE
  2
UCS
  5
7
330
0
100
AcDbSymbolTable
 70
     0
  0
ENDTAB
  0
TABLE
  2
APPID
  5
9
330
0
100
AcDbSymbolTable
 70
     1
  0
APPID
  5
12
330
9
100
AcDbSymbolTableRecord
100
AcDbRegAppTableRecord
  2
ACAD
 70
     0
  0
ENDTAB
  0
TABLE
  2
DIMSTYLE
  5
A
330
0
100
AcDbSymbolTable
 70
     1
100
AcDbDimStyleTable
  0
DIMSTYLE
105
27
330
A
100
AcDbSymbolTableRecord
100
AcDbDimStyleTableRecord
  2
ISO-25
 70
     0
 41
2.5
 42
0.625
 43
3.75
 44
1.25
 73
     0
 74
     0
 77
     1
 78
     8
140
2.5
141
2.5
143
0.0393700787
147
0.625
171
     3
172
     1
178
     0
271
     2
272
     2
274
     3
278
    44
283
     0
284
     8
340
11
  0
ENDTAB
  0
TABLE
  2
BLOCK_RECORD
  5
1
330
0
100
AcDbSymbolTable
 70
     1
  0
BLOCK_RECORD
  5
1F
102
{ACAD_XDICTIONARY
360
FC
102
}
330
1
100
AcDbSymbolTableRecord
100
AcDbBlockTableRecord
  2
*Model_Space
340
22
  0
BLOCK_RECORD
  5
1B
330
1
100
AcDbSymbolTableRecord
100
AcDbBlockTableRecord
  2
*Paper_Space
340
1E
  0
BLOCK_RECORD
  5
23
330
1
100
AcDbSymbolTableRecord
100
AcDbBlockTableRecord
  2
*Paper_Space0
340
26
  0
ENDTAB
  0
ENDSEC
  0
SECTION
  2
BLOCKS
  0
BLOCK
  5
20
330
1F
100
AcDbEntity
  8
0
100
AcDbBlockBegin
  2
*Model_Space
 70
     0
 10
0.0
 20
0.0
 30
0.0
  3
*Model_Space
  1

  0
ENDBLK
  5
21
330
1F
100
AcDbEntity
  8
0
100
AcDbBlockEnd
  0
BLOCK
  5
1C
330
1B
100
AcDbEntity
 67
     1
  8
0
100
AcDbBlockBegin
  2
*Paper_Space
 70
     0
 10
0.0
 20
0.0
 30
0.0
  3
*Paper_Space
  1

  0
ENDBLK
  5
1D
330
1B
100
AcDbEntity
 67
     1
  8
0
100
AcDbBlockEnd
  0
BLOCK
  5
24
330
23
100
AcDbEntity
  8
0
100
AcDbBlockBegin
  2
*Paper_Space0
 70
     0
 10
0.0
 20
0.0
 30
0.0
  3
*Paper_Space0
  1

  0
ENDBLK
  5
25
330
23
100
AcDbEntity
  8
0
100
AcDbBlockEnd
  0
ENDSEC
  0
SECTION
  2
ENTITIES
  0
CIRCLE
  5
77
330
1F
100
AcDbEntity
  8
0
  6
Continuous
 62
     7
100
AcDbCircle
 10
522.9542212297742
 20
769.6678298243355
 30
0.0
 40
2.000000000000179
  0
CIRCLE
  5
78
330
1F
100
AcDbEntity
  8
0
  6
Continuous
 62
     7
100
AcDbCircle
 10
493.7042212297742
 20
769.6678298243355
 30
0.0
 40
2.0000000000001
  0
ARC
  5
79
330
1F
100
AcDbEntity
  8
0
  6
Continuous
 62
     7
370
    25
100
AcDbCircle
 10
719.4542212297742
 20
4199.567484076735
 30
0.0
 40
4.000000000000227
100
AcDbArc
 50
0.0
 51
87.00000000000176
  0
ARC
  5
7A
330
1F
100
AcDbEntity
  8
0
  6
Continuous
 62
     7
370
    25
100
AcDbCircle
 10
297.4542212297742
 20
4199.567484076735
 30
0.0
 40
4.0
100
AcDbArc
 50
92.99999999999824
 51
180.0
  0
LINE
  5
7B
330
1F
100
AcDbEntity
  8
0
  6
Continuous
 62
     7
370
    25
100
AcDbLine
 10
723.4542212297742
 20
4185.163342343536
 30
0.0
 11
723.4542212297742
 21
4199.567484076735
 31
0.0
  0
LINE
  5
7C
330
1F
100
AcDbEntity
  8
0
  6
Continuous
 62
     7
370
    25
100
AcDbLine
 10
293.4542212297742
 20
4199.567484076735
 30
0.0
 11
293.4542212297742
 21
4185.163342343536
 31
0.0
  0
ARC
  5
7D
330
1F
100
AcDbEntity
  8
0
  6
Continuous
 62
     7
370
    25
100
AcDbCircle
 10
721.6542212297743
 20
4185.163342343536
 30
0.0
 40
1.800000000000182
100
AcDbArc
 50
270.0
 51
0.0
  0
ARC
  5
7E
330
1F
100
AcDbEntity
  8
0
  6
Continuous
 62
     7
370
    25
100
AcDbCircle
 10
295.2542212297742
 20
4185.163342343536
 30
0.0
 40
1.800000000000182
100
AcDbArc
 50
180.0
 51
270.0
  0
LINE
  5
7F
330
1F
100
AcDbEntity
  8
0
  6
Continuous
 62
     7
370
    25
100
AcDbLine
 10
719.6635650547744
 20
4203.562002215735
 30
0.0
 11
587.8495493172743
 21
4210.470082058935
 31
0.0
  0
LINE
  5
80
330
1F
100
AcDbEntity
  8
0
  6
Continuous
 62
     7
370
    25
100
AcDbLine
 10
429.0588931422742
 20
4210.470082058935
 30
0.0
 11
297.2448774047743
 21
4203.562002215735
 31
0.0
  0
ARC
  5
81
330
1F
100
AcDbEntity
  8
0
  6
Continuous
 62
     7
370
    25
100
AcDbCircle
 10
587.9542212297742
 20
4212.467341128436
 30
0.0
 40
2.000000000000117
100
AcDbArc
 50
180.0
 51
267.0000000000018
  0
ARC
  5
82
330
1F
100
AcDbEntity
  8
0
  6
Continuous
 62
     7
370
    25
100
AcDbCircle
 10
428.9542212297742
 20
4212.467341128436
 30
0.0
 40
2.000000000000093
100
AcDbArc
 50
272.9999999999982
 51
0.0
  0
LINE
  5
83
330
1F
100
AcDbEntity
  8
0
  6
Continuous
 62
     7
370
    25
100
AcDbLine
 10
585.9542212297742
 20
4212.467341128436
 30
0.0
 11
585.9542212297742
 21
4220.871482861536
 31
0.0
  0
LINE
  5
84
330
1F
100
AcDbEntity
  8
0
  6
Continuous
 62
     7
370
    25
100
AcDbLine
 10
430.9542212297742
 20
4220.871482861536
 30
0.0
 11
430.9542212297742
 21
4212.467341128436
 31
0.0
  0
ARC
  5
85
330
1F
100
AcDbEntity
  8
0
  6
Continuous
 62
     7
370
    25
100
AcDbCircle
 10
581.9542212297742
 20
4220.871482861536
 30
0.0
 40
4.0
100
AcDbArc
 50
0.0
 51
90.0
  0
ARC
  5
86
330
1F
100
AcDbEntity
  8
0
  6
Continuous
 62
     7
370
    25
100
AcDbCircle
 10
434.9542212297742
 20
4220.871482861536
 30
0.0
 40
4.0
100
AcDbArc
 50
90.0
 51
180.0
  0
ARC
  5
87
330
1F
100
AcDbEntity
  8
0
  6
Continuous
 62
     7
370
    25
100
AcDbCircle
 10
648.4542212297742
 20
240.8669971719355
 30
0.0
 40
5.0
100
AcDbArc
 50
214.9999999999995
 51
270.0
  0
ARC
  5
88
330
1F
100
AcDbEntity
  8
0
  6
Continuous
 62
     7
370
    25
100
AcDbCircle
 10
368.4542212297742
 20
240.8669971719355
 30
0.0
 40
5.0
100
AcDbArc
 50
270.0
 51
325.0000000000005
  0
LINE
  5
89
330
1F
100
AcDbEntity
  8
0
  6
Continuous
 62
     7
370
    25
100
AcDbLine
 10
644.3584610082744
 20
237.9991149902355
 30
0.0
 11
592.2840457611742
 21
312.3690873275355
 31
0.0
  0
LINE
  5
8A
330
1F
100
AcDbEntity
  8
0
  6
Continuous
 62
     7
370
    25
100
AcDbLine
 10
424.6243966982743
 20
312.3690873275355
 30
0.0
 11
372.5499814511743
 21
237.9991149902355
 31
0.0
  0
LINE
  5
8B
330
1F
100
AcDbEntity
  8
0
  6
Continuous
 62
     7
370
    25
100
AcDbLine
 10
433.4542212297742
 20
3778.866997171936
 30
0.0
 11
433.4542212297742
 21
312.3690873275355
 31
0.0
  0
LINE
  5
8C
330
1F
100
AcDbEntity
  8
0
  6
Continuous
 62
     7
370
    25
100
AcDbLine
 10
583.4542212297742
 20
3772.628999023636
 30
0.0
 11
583.4542212297742
 21
3778.866997171936
 31
0.0
  0
LINE
  5
8D
330
1F
100
AcDbEntity
  8
0
  6
Continuous
 62
     7
370
    25
100
AcDbLine
 10
583.4542212297742
 20
312.3690873275355
 30
0.0
 11
583.4542212297742
 21
3764.128286182035
 31
0.0
  0
LINE
  5
8E
330
1F
100
AcDbEntity
  8
0
  6
Continuous
 62
     7
370
    25
100
AcDbLine
 10
583.4542212297742
 20
3826.321482861536
 30
0.0
 11
583.4542212297742
 21
4183.363342343535
 31
0.0
  0
LINE
  5
8F
330
1F
100
AcDbEntity
  8
0
  6
Continuous
 62
     7
370
    25
100
AcDbLine
 10
433.4542212297742
 20
4183.363342343535
 30
0.0
 11
433.4542212297742
 21
3826.321482861536
 31
0.0
  0
LINE
  5
90
330
1F
100
AcDbEntity
  8
0
  6
Continuous
 62
     7
370
    25
100
AcDbLine
 10
583.4542212297742
 20
3778.866997171936
 30
0.0
 11
583.4542212297742
 21
3826.321482861536
 31
0.0
  0
LINE
  5
91
330
1F
100
AcDbEntity
  8
0
  6
Continuous
 62
     7
370
    25
100
AcDbLine
 10
433.4542212297742
 20
3826.321482861536
 30
0.0
 11
433.4542212297742
 21
3778.866997171936
 31
0.0
  0
LINE
  5
92
330
1F
100
AcDbEntity
  8
0
  6
Continuous
 62
     7
370
    25
100
AcDbLine
 10
721.6542212297743
 20
4183.363342343535
 30
0.0
 11
295.2542212297742
 21
4183.363342343535
 31
0.0
  0
LINE
  5
93
330
1F
100
AcDbEntity
  8
0
  6
Continuous
 62
     7
370
    25
100
AcDbLine
 10
581.9542212297742
 20
4224.871482861536
 30
0.0
 11
434.9542212297742
 21
4224.871482861536
 31
0.0
  0
LINE
  5
94
330
1F
100
AcDbEntity
  8
0
  6
Continuous
 62
     7
370
    25
100
AcDbLine
 10
508.4542212297742
 20
771.3584287475355
 30
0.0
 11
510.4542212297742
 21
772.5131292859355
 31
0.0
  0
LINE
  5
95
330
1F
100
AcDbEntity
  8
0
  6
Continuous
 62
     7
370
    25
100
AcDbLine
 10
510.4542212297742
 20
772.5131292859355
 30
0.0
 11
510.4542212297742
 21
774.8225303627355
 31
0.0
  0
LINE
  5
96
330
1F
100
AcDbEntity
  8
0
  6
Continuous
 62
     7
370
    25
100
AcDbLine
 10
510.4542212297742
 20
774.8225303627355
 30
0.0
 11
508.4542212297742
 21
775.9772309011355
 31
0.0
  0
LINE
  5
97
330
1F
100
AcDbEntity
  8
0
  6
Continuous
 62
     7
370
    25
100
AcDbLine
 10
508.4542212297742
 20
775.9772309011355
 30
0.0
 11
506.4542212297742
 21
774.8225303627355
 31
0.0
  0
CIRCLE
  5
98
330
1F
100
AcDbEntity
  8
0
  6
Continuous
 62
     7
370
    25
100
AcDbCircle
 10
508.4542212297742
 20
773.6678298243355
 30
0.0
 40
4.999999999999773
  0
LINE
  5
99
330
1F
100
AcDbEntity
  8
0
  6
Continuous
 62
     7
370
    25
100
AcDbLine
 10
506.4542212297742
 20
772.5131292859355
 30
0.0
 11
508.4542212297742
 21
771.3584287475355
 31
0.0
  0
LINE
  5
9A
330
1F
100
AcDbEntity
  8
0
  6
Continuous
 62
     7
370
    25
100
AcDbLine
 10
506.4542212297742
 20
774.8225303627355
 30
0.0
 11
506.4542212297742
 21
772.5131292859355
 31
0.0
  0
LINE
  5
9B
330
1F
100
AcDbEntity
  8
0
  6
Continuous
 62
     7
370
    25
100
AcDbLine
 10
508.0119562566742
 20
1068.733022575736
 30
0.0
 11
508.8964862028743
 21
1068.733022575736
 31
0.0
  0
LINE
  5
9C
330
1F
100
AcDbEntity
  8
0
  6
Continuous
 62
     7
370
    25
100
AcDbLine
 10
508.9542212297742
 20
1068.633022575736
 30
0.0
 11
508.8964862028743
 21
1068.733022575736
 31
0.0
  0
LINE
  5
9D
330
1F
100
AcDbEntity
  8
0
  6
Continuous
 62
     7
370
    25
100
AcDbLine
 10
508.9542212297742
 20
1068.633022575736
 30
0.0
 11
507.9542212297742
 21
1068.633022575736
 31
0.0
  0
LINE
  5
9E
330
1F
100
AcDbEntity
  8
0
  6
Continuous
 62
     7
370
    25
100
AcDbLine
 10
508.0119562566742
 20
1068.733022575736
 30
0.0
 11
507.9542212297742
 21
1068.633022575736
 31
0.0
  0
LINE
  5
9F
330
1F
100
AcDbEntity
  8
0
  6
Continuous
 62
     7
370
    25
100
AcDbLine
 10
504.2292012935743
 20
1076.816997171936
 30
0.0
 11
503.7869363204743
 21
1076.050971768136
 31
0.0
  0
LINE
  5
A0
330
1F
100
AcDbEntity
  8
0
  6
Continuous
 62
     7
370
    25
100
AcDbLine
 10
512.6792411658744
 20
1076.816997171936
 30
0.0
 11
504.2292012935743
 21
1076.816997171936
 31
0.0
  0
LINE
  5
A1
330
1F
100
AcDbEntity
  8
0
  6
Continuous
 62
     7
370
    25
100
AcDbLine
 10
513.1215061389744
 20
1076.050971768136
 30
0.0
 11
512.6792411658744
 21
1076.816997171936
 31
0.0
  0
LINE
  5
A2
330
1F
100
AcDbEntity
  8
0
  6
Continuous
 62
     7
370
    25
100
AcDbLine
 10
508.8964862028743
 20
1068.733022575736
 30
0.0
 11
513.1215061389744
 21
1076.050971768136
 31
0.0
  0
LINE
  5
A3
330
1F
100
AcDbEntity
  8
0
  6
Continuous
 62
     7
370
    25
100
AcDbLine
 10
503.7869363204743
 20
1076.050971768136
 30
0.0
 11
508.0119562566742
 21
1068.733022575736
 31
0.0
  0
LINE
  5
A4
330
1F
100
AcDbEntity
  8
0
  6
Continuous
 62
     7
370
    25
100
AcDbLine
 10
503.7869363204743
 20
1076.050971768136
 30
0.0
 11
503.6714662666743
 21
1076.050971768136
 31
0.0
  0
LINE
  5
A5
330
1F
100
AcDbEntity
  8
0
  6
Continuous
 62
     7
370
    25
100
AcDbLine
 10
503.6714662666743
 20
1076.050971768136
 30
0.0
 11
504.1714662666743
 21
1076.916997171936
 31
0.0
  0
LINE
  5
A6
330
1F
100
AcDbEntity
  8
0
  6
Continuous
 62
     7
370
    25
100
AcDbLine
 10
504.2292012935743
 20
1076.816997171936
 30
0.0
 11
504.1714662666743
 21
1076.916997171936
 31
0.0
  0
LINE
  5
A7
330
1F
100
AcDbEntity
  8
0
  6
Continuous
 62
     7
370
    25
100
AcDbLine
 10
513.2369761928742
 20
1076.050971768136
 30
0.0
 11
508.9542212297742
 21
1068.633022575736
 31
0.0
  0
LINE
  5
A8
330
1F
100
AcDbEntity
  8
0
  6
Continuous
 62
     7
370
    25
100
AcDbLine
 10
513.2369761928742
 20
1076.050971768136
 30
0.0
 11
513.1215061389744
 21
1076.050971768136
 31
0.0
  0
LINE
  5
A9
330
1F
100
AcDbEntity
  8
0
  6
Continuous
 62
     7
370
    25
100
AcDbLine
 10
504.1714662666743
 20
1076.916997171936
 30
0.0
 11
512.7369761928742
 21
1076.916997171936
 31
0.0
  0
LINE
  5
AA
330
1F
100
AcDbEntity
  8
0
  6
Continuous
 62
     7
370
    25
100
AcDbLine
 10
512.7369761928742
 20
1076.916997171936
 30
0.0
 11
512.6792411658744
 21
1076.816997171936
 31
0.0
  0
LINE
  5
AB
330
1F
100
AcDbEntity
  8
0
  6
Continuous
 62
     7
370
    25
100
AcDbLine
 10
512.7369761928742
 20
1076.916997171936
 30
0.0
 11
513.2369761928742
 21
1076.050971768136
 31
0.0
  0
LINE
  5
AC
330
1F
100
AcDbEntity
  8
0
  6
Continuous
 62
     7
370
    25
100
AcDbLine
 10
507.9542212297742
 20
1068.633022575736
 30
0.0
 11
503.6714662666743
 21
1076.050971768136
 31
0.0
  0
SPLINE
  5
AD
330
1F
100
AcDbEntity
  8
0
  6
Continuous
 62
     7
370
    25
100
AcDbSpline
210
0.0
220
0.0
230
1.0
 70
     8
 71
     3
 72
    30
 73
    26
 74
     0
 42
0.000000001
 43
0.00000001
 40
0.0
 40
0.0
 40
0.0
 40
0.0
 40
0.0467545844885332
 40
0.0935423585593344
 40
0.139999214802781
 40
0.1864873201592346
 40
0.2386708193497877
 40
0.2908518815874933
 40
0.3293911500922203
 40
0.3680646035847735
 40
0.4065654192464818
 40
0.4413812953979176
 40
0.4763353197257289
 40
0.5111365841257279
 40
0.5568739946093045
 40
0.6026278753879624
 40
0.6486367662203684
 40
0.6946685539300104
 40
0.7462240531959752
 40
0.7977880993127745
 40
0.8361389328086372
 40
0.8746134508909629
 40
0.912916575184352
 40
0.9564702573571404
 40
1.0
 40
1.0
 40
1.0
 40
1.0
 10
463.4542212297554
 20
1078.866997171951
 30
0.0
 10
463.5562569061772
 20
1081.130597839934
 30
0.0
 10
463.7604006908812
 20
1085.659406033524
 30
0.0
 10
465.3153828473412
 20
1092.207800095782
 30
0.0
 10
467.7105244741542
 20
1098.334487503269
 30
0.0
 10
471.0447200472793
 20
1104.18855707302
 30
0.0
 10
475.3573662645704
 20
1109.632781099663
 30
0.0
 10
480.2087982983012
 20
1114.09091392236
 30
0.0
 10
485.1643121300383
 20
1117.490953234658
 30
0.0
 10
489.9757429907672
 20
1120.012401393598
 30
0.0
 10
494.9496554925622
 20
1121.903555750342
 30
0.0
 10
499.9954014224284
 20
1123.153023449221
 30
0.0
 10
505.0053673821333
 20
1123.822471184508
 30
0.0
 10
510.6044553818062
 20
1123.94752485387
 30
0.0
 10
516.6908340014193
 20
1123.263740269399
 30
0.0
 10
523.0823506969894
 20
1121.594756485568
 30
0.0
 10
529.0850871304883
 20
1119.028861029629
 30
0.0
 10
534.8184622482702
 20
1115.548093204404
 30
0.0
 10
540.0973064101263
 20
1111.11990960786
 30
0.0
 10
544.3755821334173
 20
1106.212789980909
 30
0.0
 10
547.6103259625663
 20
1101.247280327796
 30
0.0
 10
549.9967844723433
 20
1096.437911851677
 30
0.0
 10
551.8897529007293
 20
1091.080917442002
 30
0.0
 10
553.1899742326452
 20
1085.189664700911
 30
0.0
 10
553.3661550416202
 20
1080.974166730024
 30
0.0
 10
553.4542212297554
 20
1078.866997171951
 30
0.0
  0
LINE
  5
AE
330
1F
100
AcDbEntity
  8
0
  6
Continuous
 62
     7
370
    25
100
AcDbLine
 10
553.4542212297742
 20
1078.866997171936
 30
0.0
 11
553.4542212297742
 21
768.8669971719355
 31
0.0
  0
SPLINE
  5
AF
330
1F
100
AcDbEntity
  8
0
  6
Continuous
 62
     7
370
    25
100
AcDbSpline
210
0.0
220
0.0
230
1.0
 70
     8
 71
     3
 72
    30
 73
    26
 74
     0
 42
0.000000001
 43
0.00000001
 40
0.0
 40
0.0
 40
0.0
 40
0.0
 40
0.0467545844885332
 40
0.0935423585593344
 40
0.1399992148027808
 40
0.1864873201592349
 40
0.2386708193497881
 40
0.2908518815874941
 40
0.3293911500922212
 40
0.3680646035847741
 40
0.4065654192464824
 40
0.4413812953979176
 40
0.4763353197257297
 40
0.5111365841257279
 40
0.5568739946093045
 40
0.6026278753879624
 40
0.648636766220369
 40
0.6946685539300095
 40
0.746224053195975
 40
0.797788099312774
 40
0.8361389328086366
 40
0.8746134508909628
 40
0.9129165751843519
 40
0.9564702573571402
 40
1.0
 40
1.0
 40
1.0
 40
1.0
 10
553.4542212297554
 20
768.8669971719517
 30
0.0
 10
553.3521855533322
 20
766.6033965039685
 30
0.0
 10
553.1480417686294
 20
762.0745883103796
 30
0.0
 10
551.5930596121673
 20
755.5261942481166
 30
0.0
 10
549.1979179853554
 20
749.3995068406336
 30
0.0
 10
545.8637224122303
 20
743.5454372708825
 30
0.0
 10
541.5510761949404
 20
738.1012132442386
 30
0.0
 10
536.6996441612082
 20
733.6430804215445
 30
0.0
 10
531.7441303294713
 20
730.2430411092446
 30
0.0
 10
526.9326994687424
 20
727.7215929503036
 30
0.0
 10
521.9587869669483
 20
725.8304385935605
 30
0.0
 10
516.9130410370824
 20
724.5809708946815
 30
0.0
 10
511.9030750773763
 20
723.9115231593946
 30
0.0
 10
506.3039870777043
 20
723.7864694900325
 30
0.0
 10
500.2176084580913
 20
724.4702540745036
 30
0.0
 10
493.8260917625212
 20
726.1392378583334
 30
0.0
 10
487.8233553290222
 20
728.7051333142736
 30
0.0
 10
482.0899802112403
 20
732.1859011394986
 30
0.0
 10
476.8111360493833
 20
736.6140847360416
 30
0.0
 10
472.5328603260932
 20
741.5212043629936
 30
0.0
 10
469.2981164969433
 20
746.4867140161066
 30
0.0
 10
466.9116579871663
 20
751.2960824922245
 30
0.0
 10
465.0186895587813
 20
756.6530769019005
 30
0.0
 10
463.7184682268644
 20
762.5443296429914
 30
0.0
 10
463.5422874178903
 20
766.7598276138785
 30
0.0
 10
463.4542212297542
 20
768.8669971719505
 30
0.0
  0
LINE
  5
B0
330
1F
100
AcDbEntity
  8
0
  6
Continuous
 62
     7
370
    25
100
AcDbLine
 10
463.4542212297742
 20
768.8669971719355
 30
0.0
 11
463.4542212297742
 21
1078.866997171936
 31
0.0
  0
SPLINE
  5
B1
330
1F
100
AcDbEntity
  8
0
  6
Continuous
 62
     7
370
    25
100
AcDbSpline
210
0.0
220
0.0
230
1.0
 70
    11
 71
     3
 72
    26
 73
    22
 74
     0
 42
0.000000001
 43
0.00000001
 40
0.0
 40
0.0
 40
0.0
 40
0.0
 40
0.0535409477282089
 40
0.1070766899191404
 40
0.1607477272384308
 40
0.2145093080273607
 40
0.2681230862440805
 40
0.3215812679382259
 40
0.3751188385403902
 40
0.4288465972570576
 40
0.482579287503637
 40
0.536124533848389
 40
0.5895825226071044
 40
0.6431876688447763
 40
0.6969470263400368
 40
0.7506266406185649
 40
0.8041156679657538
 40
0.8576012498540528
 40
0.9112751497622238
 40
0.9650360311913522
 40
0.9999999999999999
 40
0.9999999999999999
 40
0.9999999999999999
 40
0.9999999999999999
 10
508.4542212297554
 20
1067.116997171951
 30
0.0
 10
507.6969039894502
 20
1067.191318857264
 30
0.0
 10
506.1823431392734
 20
1067.339955001939
 30
0.0
 10
504.1654526831824
 20
1068.498278120386
 30
0.0
 10
502.6281012172303
 20
1070.206503779055
 30
0.0
 10
501.7456494151672
 20
1072.344190370016
 30
0.0
 10
501.6200338595422
 20
1074.64792017973
 30
0.0
 10
502.2615482322274
 20
1076.860637739635
 30
0.0
 10
503.5967366370974
 20
1078.737597201634
 30
0.0
 10
505.4806021149582
 20
1080.070569057333
 30
0.0
 10
507.7016177443752
 20
1080.704895783337
 30
0.0
 10
510.0040456518152
 20
1080.568580496345
 30
0.0
 10
512.1291864407112
 20
1079.68135452451
 30
0.0
 10
513.8440142766262
 20
1078.141537425077
 30
0.0
 10
514.9551838543414
 20
1076.117500845391
 30
0.0
 10
515.3330933977052
 20
1073.839287406282
 30
0.0
 10
514.9372792582624
 20
1071.56933367993
 30
0.0
 10
513.8154110467663
 20
1069.555674562543
 30
0.0
 10
512.0908971357403
 20
1068.034494434594
 30
0.0
 10
510.1982006963513
 20
1067.230686704031
 30
0.0
 10
508.9472038949873
 20
1067.14913457357
 30
0.0
 10
508.4542212297554
 20
1067.116997171951
 30
0.0
  0
SPLINE
  5
B2
330
1F
100
AcDbEntity
  8
0
  6
Continuous
 62
     7
370
    25
100
AcDbSpline
210
0.0
220
0.0
230
1.0
 70
    11
 71
     3
 72
    27
 73
    23
 74
     0
 42
0.000000001
 43
0.00000001
 40
0.0
 40
0.0
 40
0.0
 40
0.0
 40
0.0637068002527834
 40
0.1267062468727722
 40
0.1886298200302575
 40
0.2192968023766641
 40
0.250026434770199
 40
0.2805872757471216
 40
0.3113933824553218
 40
0.3732243638745815
 40
0.436165903825442
 40
0.5001730122702537
 40
0.5638596025452154
 40
0.6267835009509063
 40
0.6886336467113213
 40
0.7194612072247227
 40
0.7500635933771119
 40
0.7807082733902887
 40
0.8115205327110357
 40
0.8733907893637671
 40
0.9363195050463179
 40
1.0
 40
1.0
 40
1.0
 40
1.0
 10
508.4542212297554
 20
767.6364352842345
 30
0.0
 10
507.6021618456673
 20
767.7292835910905
 30
0.0
 10
505.9075037205994
 20
767.9139492852325
 30
0.0
 10
503.7384102862793
 20
769.3407157352785
 30
0.0
 10
502.5146562015623
 20
771.0679539721025
 30
0.0
 10
502.0155217498102
 20
772.6411008260916
 30
0.0
 10
501.8883888202704
 20
773.8657842312286
 30
0.0
 10
502.0154492381612
 20
775.0926328649575
 30
0.0
 10
502.5136551089493
 20
776.6628177456455
 30
0.0
 10
503.7369612707403
 20
778.4027487237615
 30
0.0
 10
505.9067782477812
 20
779.7777650233606
 30
0.0
 10
508.4572177689454
 20
780.2592933812296
 30
0.0
 10
511.0061010906663
 20
779.7750453737347
 30
0.0
 10
513.1721478866032
 20
778.4021440106426
 30
0.0
 10
514.3954238979773
 20
776.6617635200225
 30
0.0
 10
514.8935515839453
 20
775.0903878548665
 30
0.0
 10
515.0199910626002
 20
773.8637355725546
 30
0.0
 10
514.8923178258783
 20
772.6378051008885
 30
0.0
 10
514.3922787226563
 20
771.0647104408386
 30
0.0
 10
513.1670286857893
 20
769.3383423206785
 30
0.0
 10
510.9992817621444
 20
767.9136396600456
 30
0.0
 10
509.3059263384844
 20
767.7292017941215
 30
0.0
 10
508.4542212297554
 20
767.6364352842345
 30
0.0
  0
LINE
  5
B3
330
1F
100
AcDbEntity
  8
0
  6
Continuous
 62
     7
370
    25
100
AcDbLine
 10
363.4542212297742
 20
235.8669971719355
 30
0.0
 11
363.4542212297742
 21
223.8669971719355
 31
0.0
  0
LINE
  5
B4
330
1F
100
AcDbEntity
  8
0
  6
Continuous
 62
     7
370
    25
100
AcDbLine
 10
363.4542212297742
 20
235.8669971719355
 30
0.0
 11
653.4542212297742
 21
235.8669971719355
 31
0.0
  0
LINE
  5
B5
330
1F
100
AcDbEntity
  8
0
  6
Continuous
 62
     7
370
    25
100
AcDbLine
 10
653.4542212297742
 20
235.8669971719355
 30
0.0
 11
653.4542212297742
 21
223.8669971719355
 31
0.0
  0
LINE
  5
B6
330
1F
100
AcDbEntity
  8
0
  6
Continuous
 62
     7
370
    25
100
AcDbLine
 10
363.4542212297742
 20
223.8669971719355
 30
0.0
 11
653.4542212297742
 21
223.8669971719355
 31
0.0
  0
LINE
  5
B7
330
1F
100
AcDbEntity
  8
0
  6
Continuous
 62
     7
370
    25
100
AcDbLine
 10
673.4542212297742
 20
235.8669971719355
 30
0.0
 11
673.4542212297742
 21
223.8669971719355
 31
0.0
  0
LINE
  5
B8
330
1F
100
AcDbEntity
  8
0
  6
Continuous
 62
     7
370
    25
100
AcDbLine
 10
653.4542212297742
 20
223.8669971719355
 30
0.0
 11
673.4542212297742
 21
223.8669971719355
 31
0.0
  0
LINE
  5
B9
330
1F
100
AcDbEntity
  8
0
  6
Continuous
 62
     7
370
    25
100
AcDbLine
 10
653.4542212297742
 20
235.8669971719355
 30
0.0
 11
673.4542212297742
 21
235.8669971719355
 31
0.0
  0
LINE
  5
BA
330
1F
100
AcDbEntity
  8
0
  6
Continuous
 62
     7
370
    25
100
AcDbLine
 10
343.4542212297742
 20
235.8669971719355
 30
0.0
 11
343.4542212297742
 21
223.8669971719355
 31
0.0
  0
LINE
  5
BB
330
1F
100
AcDbEntity
  8
0
  6
Continuous
 62
     7
370
    25
100
AcDbLine
 10
343.4542212297742
 20
223.8669971719355
 30
0.0
 11
363.4542212297742
 21
223.8669971719355
 31
0.0
  0
LINE
  5
BC
330
1F
100
AcDbEntity
  8
0
  6
Continuous
 62
     7
370
    25
100
AcDbLine
 10
343.4542212297742
 20
235.8669971719355
 30
0.0
 11
363.4542212297742
 21
235.8669971719355
 31
0.0
  0
LINE
  5
BD
330
1F
100
AcDbEntity
  8
0
  6
Continuous
 62
     7
370
    25
100
AcDbLine
 10
592.2840457611742
 20
312.3690873275355
 30
0.0
 11
424.6243966982743
 21
312.3690873275355
 31
0.0
  0
LINE
  5
BE
330
1F
100
AcDbEntity
  8
0
  6
Continuous
 62
     7
370
    25
100
AcDbLine
 10
433.4542212297742
 20
3778.866997171936
 30
0.0
 11
583.4542212297742
 21
3778.866997171936
 31
0.0
  0
SPLINE
  5
BF
330
1F
100
AcDbEntity
  8
0
  6
Continuous
 62
     7
370
    25
100
AcDbSpline
210
0.0
220
0.0
230
1.0
 70
     8
 71
     3
 72
    30
 73
    26
 74
     0
 42
0.000000001
 43
0.00000001
 40
0.0
 40
0.0
 40
0.0
 40
0.0
 40
0.0467545844885334
 40
0.0935423585593319
 40
0.1399992148027812
 40
0.1864873201592329
 40
0.2386708193497867
 40
0.290851881587493
 40
0.3293911500922195
 40
0.3680646035847743
 40
0.4065654192464831
 40
0.441381295397919
 40
0.4763353197257317
 40
0.5111365841257302
 40
0.5568739946093071
 40
0.6026278753879649
 40
0.6486367662203709
 40
0.6946685539300116
 40
0.746224053195978
 40
0.7977880993127766
 40
0.8361389328086395
 40
0.8746134508909651
 40
0.9129165751843513
 40
0.95647025735714
 40
1.0
 40
1.0
 40
1.0
 40
1.0
 10
553.4542212297554
 20
1078.866997171951
 30
0.0
 10
553.3521855533322
 20
1081.130597839933
 30
0.0
 10
553.1480417686294
 20
1085.659406033521
 30
0.0
 10
551.5930596121673
 20
1092.207800095785
 30
0.0
 10
549.1979179853563
 20
1098.334487503268
 30
0.0
 10
545.8637224122303
 20
1104.188557073021
 30
0.0
 10
541.5510761949404
 20
1109.632781099662
 30
0.0
 10
536.6996441612093
 20
1114.090913922358
 30
0.0
 10
531.7441303294722
 20
1117.490953234658
 30
0.0
 10
526.9326994687433
 20
1120.012401393598
 30
0.0
 10
521.9587869669483
 20
1121.903555750342
 30
0.0
 10
516.9130410370824
 20
1123.153023449222
 30
0.0
 10
511.9030750773773
 20
1123.822471184507
 30
0.0
 10
506.3039870777043
 20
1123.94752485387
 30
0.0
 10
500.2176084580913
 20
1123.263740269398
 30
0.0
 10
493.8260917625212
 20
1121.594756485567
 30
0.0
 10
487.8233553290222
 20
1119.028861029629
 30
0.0
 10
482.0899802112403
 20
1115.548093204404
 30
0.0
 10
476.8111360493842
 20
1111.119909607861
 30
0.0
 10
472.5328603260932
 20
1106.212789980908
 30
0.0
 10
469.2981164969433
 20
1101.247280327796
 30
0.0
 10
466.9116579871672
 20
1096.437911851678
 30
0.0
 10
465.0186895587804
 20
1091.080917442001
 30
0.0
 10
463.7184682268653
 20
1085.189664700911
 30
0.0
 10
463.5422874178903
 20
1080.974166730023
 30
0.0
 10
463.4542212297554
 20
1078.866997171951
 30
0.0
  0
SPLINE
  5
C0
330
1F
100
AcDbEntity
  8
0
  6
Continuous
 62
     7
370
    25
100
AcDbSpline
210
0.0
220
0.0
230
1.0
 70
     8
 71
     3
 72
    30
 73
    26
 74
     0
 42
0.000000001
 43
0.00000001
 40
0.0
 40
0.0
 40
0.0
 40
0.0
 40
0.0467545844885362
 40
0.0935423585593373
 40
0.1399992148027866
 40
0.1864873201592379
 40
0.2386708193497919
 40
0.2908518815874975
 40
0.3293911500922244
 40
0.3680646035847772
 40
0.4065654192464855
 40
0.44138129539792
 40
0.4763353197257309
 40
0.5111365841257284
 40
0.5568739946093053
 40
0.6026278753879616
 40
0.6486367662203676
 40
0.6946685539300084
 40
0.746224053195975
 40
0.7977880993127743
 40
0.8361389328086373
 40
0.8746134508909637
 40
0.9129165751843552
 40
0.9564702573571403
 40
1.0
 40
1.0
 40
1.0
 40
1.0
 10
463.4542212297554
 20
768.8669971719517
 30
0.0
 10
463.5562569061772
 20
766.6033965039685
 30
0.0
 10
463.7604006908812
 20
762.0745883103796
 30
0.0
 10
465.3153828473423
 20
755.5261942481186
 30
0.0
 10
467.7105244741542
 20
749.3995068406325
 30
0.0
 10
471.0447200472793
 20
743.5454372708805
 30
0.0
 10
475.3573662645704
 20
738.1012132442395
 30
0.0
 10
480.2087982983012
 20
733.6430804215424
 30
0.0
 10
485.1643121300383
 20
730.2430411092434
 30
0.0
 10
489.9757429907684
 20
727.7215929503036
 30
0.0
 10
494.9496554925622
 20
725.8304385935605
 30
0.0
 10
499.9954014224284
 20
724.5809708946806
 30
0.0
 10
505.0053673821342
 20
723.9115231593946
 30
0.0
 10
510.6044553818062
 20
723.7864694900306
 30
0.0
 10
516.6908340014184
 20
724.4702540745045
 30
0.0
 10
523.0823506969894
 20
726.1392378583346
 30
0.0
 10
529.0850871304872
 20
728.7051333142726
 30
0.0
 10
534.8184622482693
 20
732.1859011394974
 30
0.0
 10
540.0973064101263
 20
736.6140847360416
 30
0.0
 10
544.3755821334162
 20
741.5212043629936
 30
0.0
 10
547.6103259625663
 20
746.4867140161075
 30
0.0
 10
549.9967844723433
 20
751.2960824922236
 30
0.0
 10
551.8897529007293
 20
756.6530769019016
 30
0.0
 10
553.1899742326452
 20
762.5443296429914
 30
0.0
 10
553.3661550416193
 20
766.7598276138785
 30
0.0
 10
553.4542212297554
 20
768.8669971719517
 30
0.0
  0
SPLINE
  5
C1
330
1F
100
AcDbEntity
  8
0
  6
Continuous
 62
     7
370
    25
100
AcDbSpline
210
0.0
220
0.0
230
1.0
 70
     8
 71
     3
 72
    13
 73
     9
 74
     0
 42
0.000000001
 43
0.00000001
 40
0.0
 40
0.0
 40
0.0
 40
0.0
 40
0.0594486369371076
 40
0.2851901473625245
 40
0.515557164425882
 40
0.7352660441998113
 40
0.9457066360958964
 40
1.0
 40
1.0
 40
1.0
 40
1.0
 10
583.4510782124423
 20
3764.128286182002
 30
0.0
 10
583.4520198170094
 20
3764.112865287826
 30
0.0
 10
583.4565369322693
 20
3764.038887358155
 30
0.0
 10
583.4319874322193
 20
3764.435961833295
 30
0.0
 10
583.3861933757933
 20
3765.278785392043
 30
0.0
 10
583.3394459324902
 20
3766.543160570528
 30
0.0
 10
583.3203851513003
 20
3767.633694842968
 30
0.0
 10
583.3194151645753
 20
3768.240041049507
 30
0.0
 10
583.3192162333803
 20
3768.36439447876
 30
0.0
  0
SPLINE
  5
C2
330
1F
100
AcDbEntity
  8
0
  6
Continuous
 62
     7
370
    25
100
AcDbSpline
210
0.0
220
0.0
230
1.0
 70
     8
 71
     3
 72
    12
 73
     8
 74
     0
 42
0.000000001
 43
0.00000001
 40
0.0
 40
0.0
 40
0.0
 40
0.0
 40
0.1848277838237707
 40
0.3802913757238864
 40
0.5903900800365589
 40
0.8008389913029484
 40
0.9999999999999999
 40
0.9999999999999999
 40
0.9999999999999999
 40
0.9999999999999999
 10
583.3192175949582
 20
3768.364394576916
 30
0.0
 10
583.3216335682353
 20
3768.789185885877
 30
0.0
 10
583.3266045405783
 20
3769.663212874346
 30
0.0
 10
583.3632486698402
 20
3770.889975152515
 30
0.0
 10
583.4081519132512
 20
3771.88366101582
 30
0.0
 10
583.4470441967962
 20
3772.541805089932
 30
0.0
 10
583.4507133349452
 20
3772.600473299115
 30
0.0
 10
583.4524973475363
 20
3772.628999023592
 30
0.0
  0
SPLINE
  5
C3
330
1F
100
AcDbEntity
  8
0
  6
Continuous
 62
     7
370
    25
100
AcDbSpline
210
0.0
220
0.0
230
1.0
 70
     8
 71
     3
 72
    17
 73
    13
 74
     0
 42
0.000000001
 43
0.00000001
 40
0.0
 40
0.0
 40
0.0
 40
0.0
 40
0.1057446619740644
 40
0.2037845233741088
 40
0.3092166785959777
 40
0.415183707566105
 40
0.5295365530216652
 40
0.6424523737751412
 40
0.757681871252508
 40
0.867580172365367
 40
0.9728424792799156
 40
0.9999999999999999
 40
0.9999999999999999
 40
0.9999999999999999
 40
0.9999999999999999
 10
467.1262897195443
 20
3768.370136035056
 30
0.0
 10
467.1700957687374
 20
3768.856446539768
 30
0.0
 10
467.2545160570912
 20
3769.793633841371
 30
0.0
 10
467.8731788121584
 20
3771.04479189112
 30
0.0
 10
468.7779405647493
 20
3772.002728886597
 30
0.0
 10
469.9678020335564
 20
3772.599177376868
 30
0.0
 10
471.3058241633344
 20
3772.729073793162
 30
0.0
 10
472.6553764976932
 20
3772.324338635111
 30
0.0
 10
473.8188775468002
 20
3771.448436789719
 30
0.0
 10
474.6152045599513
 20
3770.192590934864
 30
0.0
 10
474.8996765619222
 20
3769.100210278069
 30
0.0
 10
474.9141812510284
 20
3768.493938110087
 30
0.0
 10
474.9171559671413
 20
3768.369599865143
 30
0.0
  0
SPLINE
  5
C4
330
1F
100
AcDbEntity
  8
0
  6
Continuous
 62
     7
370
    25
100
AcDbSpline
210
0.0
220
0.0
230
1.0
 70
     8
 71
     3
 72
    17
 73
    13
 74
     0
 42
0.000000001
 43
0.00000001
 40
0.0
 40
0.0
 40
0.0
 40
0.0
 40
0.0923890782891039
 40
0.1900946327318801
 40
0.2951157785774444
 40
0.4003119808844241
 40
0.5138344488723992
 40
0.6270196542962452
 40
0.7417338611707451
 40
0.8530638624993464
 40
0.9580998482885849
 40
1.0
 40
1.0
 40
1.0
 40
1.0
 10
474.9171356605273
 20
3768.369599766986
 30
0.0
 10
474.8816957301563
 20
3767.944669816186
 30
0.0
 10
474.8087764990862
 20
3767.070357565975
 30
0.0
 10
474.2275219659543
 20
3765.845886038358
 30
0.0
 10
473.3197151566083
 20
3764.842754258555
 30
0.0
 10
472.1217933297423
 20
3764.191733487815
 30
0.0
 10
470.7845394402414
 20
3763.990494169512
 30
0.0
 10
469.4461491764944
 20
3764.325320121951
 30
0.0
 10
468.2900123318764
 20
3765.140877160386
 30
0.0
 10
467.4870552012724
 20
3766.356474397312
 30
0.0
 10
467.1558778424244
 20
3767.504264862046
 30
0.0
 10
467.1328696548153
 20
3768.178011175889
 30
0.0
 10
467.1263086646613
 20
3768.370135953668
 30
0.0
  0
SPLINE
  5
C5
330
1F
100
AcDbEntity
  8
0
  6
Continuous
 62
     7
370
    25
100
AcDbSpline
210
0.0
220
0.0
230
1.0
 70
     8
 71
     3
 72
    12
 73
     8
 74
     0
 42
0.000000001
 43
0.00000001
 40
0.0
 40
0.0
 40
0.0
 40
0.0
 40
0.2146734612731757
 40
0.4293443830144997
 40
0.6440812044009145
 40
0.8588609498836258
 40
1.0
 40
1.0
 40
1.0
 40
1.0
 10
470.5232464898702
 20
3768.366997171951
 30
0.0
 10
470.5443844190263
 20
3768.114197519397
 30
0.0
 10
470.5866600272823
 20
3767.608601204842
 30
0.0
 10
470.9167457891672
 20
3766.933192229543
 30
0.0
 10
471.4052993910982
 20
3766.429154489558
 30
0.0
 10
471.9475599610923
 20
3766.143305043787
 30
0.0
 10
472.3116170170192
 20
3766.145050967452
 30
0.0
 10
472.4559832817322
 20
3766.145743310792
 30
0.0
  0
SPLINE
  5
C6
330
1F
100
AcDbEntity
  8
0
  6
Continuous
 62
     7
370
    25
100
AcDbSpline
210
0.0
220
0.0
230
1.0
 70
     8
 71
     3
 72
    13
 73
     9
 74
     0
 42
0.000000001
 43
0.00000001
 40
0.0
 40
0.0
 40
0.0
 40
0.0
 40
0.0735690233026487
 40
0.2882026255654461
 40
0.5028750709479748
 40
0.7176389323420194
 40
0.93240416927752
 40
0.9999999999999999
 40
0.9999999999999999
 40
0.9999999999999999
 40
0.9999999999999999
 10
472.4533492729693
 20
3770.58825103311
 30
0.0
 10
472.3784837874252
 20
3770.596074753383
 30
0.0
 10
472.0852023419302
 20
3770.626723749699
 30
0.0
 10
471.5879410957764
 20
3770.417859268006
 30
0.0
 10
471.0517131602762
 20
3769.98330436271
 30
0.0
 10
470.6762344199833
 20
3769.34983256484
 30
0.0
 10
470.5346487937863
 20
3768.777436412935
 30
0.0
 10
470.5254488988212
 20
3768.446275453317
 30
0.0
 10
470.5232464898702
 20
3768.366997171951
 30
0.0
  0
SPLINE
  5
C7
330
1F
100
AcDbEntity
  8
0
  6
Continuous
 62
     7
370
    25
100
AcDbSpline
210
0.0
220
0.0
230
1.0
 70
     8
 71
     3
 72
    17
 73
    13
 74
     0
 42
0.000000001
 43
0.00000001
 40
0.0
 40
0.0
 40
0.0
 40
0.0
 40
0.0955882255853135
 40
0.2020792759902868
 40
0.3093505038021552
 40
0.4172787135227901
 40
0.5004234265574123
 40
0.6066180344749075
 40
0.7127922424663788
 40
0.8197813175816095
 40
0.9276464010582215
 40
1.0
 40
1.0
 40
1.0
 40
1.0
 10
474.0226662924204
 20
3768.366997171951
 30
0.0
 10
474.0033256390782
 20
3768.59249019245
 30
0.0
 10
473.9624383310363
 20
3769.069196042406
 30
0.0
 10
473.6330842409234
 20
3769.728694733455
 30
0.0
 10
473.1228743065424
 20
3770.261278489866
 30
0.0
 10
472.5353486650663
 20
3770.558719542526
 30
0.0
 10
471.9231132105663
 20
3770.649920389345
 30
0.0
 10
471.3266222649763
 20
3770.531333140681
 30
0.0
 10
470.7775095823963
 20
3770.163838623981
 30
0.0
 10
470.3702511777553
 20
3769.595686187544
 30
0.0
 10
470.1560560557214
 20
3768.961706381006
 30
0.0
 10
470.1342895143293
 20
3768.537361684925
 30
0.0
 10
470.1255507554783
 20
3768.366997183633
 30
0.0
  0
LWPOLYLINE
  5
C8
330
1F
100
AcDbEntity
  8
0
  6
Continuous
 62
     7
370
    25
100
AcDbPolyline
 90
        3
 70
   128
 43
0.0
 10
467.1262897195743
 20
3768.370136035036
 10
469.0818448864743
 20
3768.370321416236
 10
470.1255489256744
 20
3768.370492537935
  0
LWPOLYLINE
  5
C9
330
1F
100
AcDbEntity
  8
0
  6
Continuous
 62
     7
370
    25
100
AcDbPolyline
 90
        3
 70
   128
 43
0.0
 10
474.0226747376744
 20
3768.369939190536
 10
474.3339426645744
 20
3768.369776314035
 10
474.9171559671743
 20
3768.369599865136
  0
SPLINE
  5
CA
330
1F
100
AcDbEntity
  8
0
  6
Continuous
 62
     7
370
    25
100
AcDbSpline
210
0.0
220
0.0
230
1.0
 70
     8
 71
     3
 72
    17
 73
    13
 74
     0
 42
0.000000001
 43
0.00000001
 40
0.0
 40
0.0
 40
0.0
 40
0.0
 40
0.0955882255868803
 40
0.2020792759922074
 40
0.3093505038039562
 40
0.4172787135249619
 40
0.5004234265564526
 40
0.6066180344739092
 40
0.7127922424650442
 40
0.8197813175805768
 40
0.9276464010573569
 40
1.0
 40
1.0
 40
1.0
 40
1.0
 10
470.1255519753902
 20
3768.366997171952
 30
0.0
 10
470.1406252915783
 20
3768.141504151448
 30
0.0
 10
470.1724911914152
 20
3767.664798301489
 30
0.0
 10
470.4437488030842
 20
3767.005299610438
 30
0.0
 10
470.8827776575713
 20
3766.472715854032
 30
0.0
 10
471.4212140214063
 20
3766.175274801371
 30
0.0
 10
472.0214948005853
 20
3766.084073954557
 30
0.0
 10
472.6344600831433
 20
3766.202661203221
 30
0.0
 10
473.2437266394102
 20
3766.570155719916
 30
0.0
 10
473.7194597678813
 20
3767.138308156354
 30
0.0
 10
473.9836198587623
 20
3767.772287962892
 30
0.0
 10
474.0114799110934
 20
3768.196632658976
 30
0.0
 10
474.0226650725083
 20
3768.366997160269
 30
0.0
  0
LINE
  5
CB
330
1F
100
AcDbEntity
  8
0
  6
Continuous
 62
     7
370
    25
100
AcDbLine
 10
470.5232464898743
 20
3768.366997171936
 30
0.0
 11
470.1255519753743
 21
3768.366997171936
 31
0.0
  0
LINE
  5
CC
330
1F
100
AcDbEntity
  8
0
  6
Continuous
 62
     7
370
    25
100
AcDbLine
 10
568.8352321800742
 20
3826.321482861536
 30
0.0
 11
583.4542212297742
 21
3826.321482861536
 31
0.0
  0
LINE
  5
CD
330
1F
100
AcDbEntity
  8
0
  6
Continuous
 62
     7
370
    25
100
AcDbLine
 10
433.4542212297742
 20
3826.321482861536
 30
0.0
 11
568.8352321800742
 21
3826.321482861536
 31
0.0
  0
LINE
  5
CE
330
1F
100
AcDbEntity
  8
0
  6
Continuous
 62
     7
370
    25
100
AcDbLine
 10
574.7243356282743
 20
3778.866997171936
 30
0.0
 11
583.4542212297742
 21
3778.866997171936
 31
0.0
  0
LINE
  5
CF
330
1F
100
AcDbEntity
  8
0
  6
Continuous
 62
     7
370
    25
100
AcDbLine
 10
433.4542212297742
 20
3778.866997171936
 30
0.0
 11
574.7243356282743
 21
3778.866997171936
 31
0.0
  0
LINE
  5
D0
330
1F
100
AcDbEntity
  8
0
  6
Continuous
 62
     7
370
    25
100
AcDbLine
 10
574.7243356282743
 20
3826.321482861536
 30
0.0
 11
583.4542212297742
 21
3826.321482861536
 31
0.0
  0
LINE
  5
D1
330
1F
100
AcDbEntity
  8
0
  6
Continuous
 62
     7
370
    25
100
AcDbLine
 10
433.4542212297742
 20
3826.321482861536
 30
0.0
 11
574.7243356282743
 21
3826.321482861536
 31
0.0
  0
LINE
  5
D2
330
1F
100
AcDbEntity
  8
0
  6
Continuous
 62
     8
370
    25
100
AcDbLine
 10
719.6635650547744
 20
4203.562002215735
 30
0.0
 11
297.2448774047743
 21
4203.562002215735
 31
0.0
  0
LINE
  5
D3
330
1F
100
AcDbEntity
  8
0
  6
Continuous
 62
     8
370
    25
100
AcDbLine
 10
723.4542212297742
 20
4199.567484076735
 30
0.0
 11
293.4542212297742
 21
4199.567484076735
 31
0.0
  0
LINE
  5
D4
330
1F
100
AcDbEntity
  8
0
  6
Continuous
 62
     8
370
    25
100
AcDbLine
 10
723.4542212297742
 20
4185.163342343536
 30
0.0
 11
293.4542212297742
 21
4185.163342343536
 31
0.0
  0
LINE
  5
D5
330
1F
100
AcDbEntity
  8
0
  6
Continuous
 62
     8
370
    25
100
AcDbLine
 10
587.8495493172743
 20
4210.470082058935
 30
0.0
 11
429.0588931422742
 21
4210.470082058935
 31
0.0
  0
LINE
  5
D6
330
1F
100
AcDbEntity
  8
0
  6
Continuous
 62
     8
370
    25
100
AcDbLine
 10
585.9542212297742
 20
4212.467341128436
 30
0.0
 11
430.9542212297742
 21
4212.467341128436
 31
0.0
  0
LINE
  5
D7
330
1F
100
AcDbEntity
  8
0
  6
Continuous
 62
     8
370
    25
100
AcDbLine
 10
585.9542212297742
 20
4220.871482861536
 30
0.0
 11
430.9542212297742
 21
4220.871482861536
 31
0.0
  0
LINE
  5
D8
330
1F
100
AcDbEntity
  8
0
  6
Continuous
 62
     8
370
    25
100
AcDbLine
 10
644.3584610082744
 20
237.9991149902355
 30
0.0
 11
372.5499814511743
 21
237.9991149902355
 31
0.0
  0
ENDSEC
  0
SECTION
  2
OBJECTS
  0
DICTIONARY
  5
C
330
0
100
AcDbDictionary
281
     1
  3
ACAD_GROUP
350
D
  3
ACAD_LAYOUT
350
1A
  3
ACAD_MLINESTYLE
350
17
  3
ACAD_PLOTSETTINGS
350
19
  3
ACAD_PLOTSTYLENAME
350
E
  3
ACAD_SCALELIST
350
47
  3
APPDATA
350
FB
  3
DWGPROPS
350
FE
  0
DICTIONARY
  5
FC
330
1F
100
AcDbDictionary
280
     1
281
     1
  3
DIM_BOUNDING_BOXES_V1
360
FD
  0
DICTIONARY
  5
D
102
{ACAD_REACTORS
330
C
102
}
330
C
100
AcDbDictionary
281
     1
  0
DICTIONARY
  5
1A
102
{ACAD_REACTORS
330
C
102
}
330
C
100
AcDbDictionary
281
     1
  3
Layout1
350
1E
  3
Layout2
350
26
  3
Model
350
22
  0
DICTIONARY
  5
17
102
{ACAD_REACTORS
330
C
102
}
330
C
100
AcDbDictionary
281
     1
  3
Standard
350
18
  0
DICTIONARY
  5
19
102
{ACAD_REACTORS
330
C
102
}
330
C
100
AcDbDictionary
281
     1
  0
ACDBDICTIONARYWDFLT
  5
E
102
{ACAD_REACTORS
330
C
102
}
330
C
100
AcDbDictionary
281
     1
  3
Normal
350
F
100
AcDbDictionaryWithDefault
340
F
  0
DICTIONARY
  5
47
102
{ACAD_REACTORS
330
C
102
}
330
C
100
AcDbDictionary
281
     1
  3
A0
350
48
  3
A1
350
49
  3
A2
350
4A
  3
A3
350
4B
  3
A4
350
4C
  3
A5
350
4D
  3
A6
350
4E
  3
A7
350
4F
  3
A8
350
50
  3
A9
350
51
  3
B0
350
52
  3
B1
350
53
  3
B2
350
54
  3
B3
350
55
  3
B4
350
56
  3
B5
350
57
  3
B6
350
58
  3
B7
350
59
  3
B8
350
5A
  3
B9
350
5B
  3
C0
350
5C
  3
C1
350
5D
  3
C2
350
5E
  3
C3
350
5F
  3
C4
350
60
  3
C5
350
61
  3
C6
350
62
  3
C7
350
63
  3
C8
350
64
  3
C9
350
65
  3
D0
350
66
  3
D1
350
67
  3
D2
350
68
  0
DICTIONARY
  5
FB
102
{ACAD_REACTORS
330
C
102
}
330
C
100
AcDbDictionary
281
     1
  0
XRECORD
  5
FE
102
{ACAD_REACTORS
330
C
102
}
330
C
100
AcDbXrecord
280
     1
  1
DWGPROPS COOKIE
  2

  3

  4

  6

  7

  8
eakin
  9

300
=
301
=
302
=
303
=
304
=
305
=
306
=
307
=
308
=
309
=
 40
0.0
 41
2459991.499034896
 42
2459991.499697292
  1

 90
        0
  0
DICTIONARY
  5
FD
102
{ACAD_REACTORS
330
FC
102
}
330
FC
100
AcDbDictionary
281
     1
  0
LAYOUT
  5
1E
102
{ACAD_REACTORS
330
1A
102
}
330
1A
100
AcDbPlotSettings
  1

  2
none_device
  4

  6

 40
0.0
 41
0.0
 42
0.0
 43
0.0
 44
0.0
 45
0.0
 46
0.0
 47
0.0
 48
0.0
 49
0.0
140
0.0
141
0.0
142
1.0
143
1.0
 70
   688
 72
     1
 73
     0
 74
     5
  7

 75
    16
147
1.0
148
0.0
149
0.0
100
AcDbLayout
  1
Layout1
 70
     1
 71
     1
 10
0.0
 20
0.0
 11
420.0
 21
297.0
 12
0.0
 22
0.0
 32
0.0
 14
1.000000000000000E+20
 24
1.000000000000000E+20
 34
1.000000000000000E+20
 15
-1.000000000000000E+20
 25
-1.000000000000000E+20
 35
-1.000000000000000E+20
146
0.0
 13
0.0
 23
0.0
 33
0.0
 16
1.0
 26
0.0
 36
0.0
 17
0.0
 27
1.0
 37
0.0
 76
     0
330
1B
  0
LAYOUT
  5
26
102
{ACAD_REACTORS
330
1A
102
}
330
1A
100
AcDbPlotSettings
  1

  2
none_device
  4

  6

 40
0.0
 41
0.0
 42
0.0
 43
0.0
 44
0.0
 45
0.0
 46
0.0
 47
0.0
 48
0.0
 49
0.0
140
0.0
141
0.0
142
1.0
143
1.0
 70
   688
 72
     1
 73
     0
 74
     5
  7

 75
    16
147
1.0
148
0.0
149
0.0
100
AcDbLayout
  1
Layout2
 70
     1
 71
     2
 10
0.0
 20
0.0
 11
0.0
 21
0.0
 12
0.0
 22
0.0
 32
0.0
 14
0.0
 24
0.0
 34
0.0
 15
0.0
 25
0.0
 35
0.0
146
0.0
 13
0.0
 23
0.0
 33
0.0
 16
1.0
 26
0.0
 36
0.0
 17
0.0
 27
1.0
 37
0.0
 76
     0
330
23
  0
LAYOUT
  5
22
102
{ACAD_REACTORS
330
1A
102
}
330
1A
100
AcDbPlotSettings
  1

  2
none_device
  4
Letter_(8.50_x_11.00_Inches)
  6

 40
6.35
 41
6.35
 42
6.35000508
 43
6.35000508
 44
215.9
 45
279.4
 46
0.0
 47
0.0
 48
0.0
 49
0.0
140
0.0
141
0.0
142
1.0
143
1.0
 70
  1712
 72
     1
 73
     0
 74
     0
  7

 75
     0
147
1.0
148
0.0
149
0.0
100
AcDbLayout
  1
Model
 70
     1
 71
     0
 10
0.0
 20
0.0
 11
420.0
 21
297.0
 12
0.0
 22
0.0
 32
0.0
 14
293.454221229774
 24
223.8669971719355
 34
0.0
 15
723.4542212297745
 25
4224.871482861536
 35
0.0
146
0.0
 13
0.0
 23
0.0
 33
0.0
 16
1.0
 26
0.0
 36
0.0
 17
0.0
 27
1.0
 37
0.0
 76
     0
330
1F
331
29
  0
MLINESTYLE
  5
18
102
{ACAD_REACTORS
330
17
102
}
330
17
100
AcDbMlineStyle
  2
Standard
 70
     0
  3

 62
   256
 51
90.0
 52
90.0
 71
     2
 49
0.5
 62
   256
  6
BYLAYER
 49
-0.5
 62
   256
  6
BYLAYER
  0
ACDBPLACEHOLDER
  5
F
102
{ACAD_REACTORS
330
E
102
}
330
E
  0
SCALE
  5
48
102
{ACAD_REACTORS
330
47
102
}
330
47
100
AcDbScale
 70
     0
300
1:1
140
1.0
141
1.0
290
     1
  0
SCALE
  5
49
102
{ACAD_REACTORS
330
47
102
}
330
47
100
AcDbScale
 70
     0
300
1:2
140
1.0
141
2.0
290
     0
  0
SCALE
  5
4A
102
{ACAD_REACTORS
330
47
102
}
330
47
100
AcDbScale
 70
     0
300
1:4
140
1.0
141
4.0
290
     0
  0
SCALE
  5
4B
102
{ACAD_REACTORS
330
47
102
}
330
47
100
AcDbScale
 70
     0
300
1:5
140
1.0
141
5.0
290
     0
  0
SCALE
  5
4C
102
{ACAD_REACTORS
330
47
102
}
330
47
100
AcDbScale
 70
     0
300
1:8
140
1.0
141
8.0
290
     0
  0
SCALE
  5
4D
102
{ACAD_REACTORS
330
47
102
}
330
47
100
AcDbScale
 70
     0
300
1:10
140
1.0
141
10.0
290
     0
  0
SCALE
  5
4E
102
{ACAD_REACTORS
330
47
102
}
330
47
100
AcDbScale
 70
     0
300
1:16
140
1.0
141
16.0
290
     0
  0
SCALE
  5
4F
102
{ACAD_REACTORS
330
47
102
}
330
47
100
AcDbScale
 70
     0
300
1:20
140
1.0
141
20.0
290
     0
  0
SCALE
  5
50
102
{ACAD_REACTORS
330
47
102
}
330
47
100
AcDbScale
 70
     0
300
1:30
140
1.0
141
30.0
290
     0
  0
SCALE
  5
51
102
{ACAD_REACTORS
330
47
102
}
330
47
100
AcDbScale
 70
     0
300
1:40
140
1.0
141
40.0
290
     0
  0
SCALE
  5
52
102
{ACAD_REACTORS
330
47
102
}
330
47
100
AcDbScale
 70
     0
300
1:50
140
1.0
141
50.0
290
     0
  0
SCALE
  5
53
102
{ACAD_REACTORS
330
47
102
}
330
47
100
AcDbScale
 70
     0
300
1:100
140
1.0
141
100.0
290
     0
  0
SCALE
  5
54
102
{ACAD_REACTORS
330
47
102
}
330
47
100
AcDbScale
 70
     0
300
2:1
140
2.0
141
1.0
290
     0
  0
SCALE
  5
55
102
{ACAD_REACTORS
330
47
102
}
330
47
100
AcDbScale
 70
     0
300
4:1
140
4.0
141
1.0
290
     0
  0
SCALE
  5
56
102
{ACAD_REACTORS
330
47
102
}
330
47
100
AcDbScale
 70
     0
300
8:1
140
8.0
141
1.0
290
     0
  0
SCALE
  5
57
102
{ACAD_REACTORS
330
47
102
}
330
47
100
AcDbScale
 70
     0
300
10:1
140
10.0
141
1.0
290
     0
  0
SCALE
  5
58
102
{ACAD_REACTORS
330
47
102
}
330
47
100
AcDbScale
 70
     0
300
100:1
140
100.0
141
1.0
290
     0
  0
SCALE
  5
59
102
{ACAD_REACTORS
330
47
102
}
330
47
100
AcDbScale
 70
     0
300
1/128" = 1'-0"
140
0.0078125
141
12.0
290
     0
  0
SCALE
  5
5A
102
{ACAD_REACTORS
330
47
102
}
330
47
100
AcDbScale
 70
     0
300
1/64" = 1'-0"
140
0.015625
141
12.0
290
     0
  0
SCALE
  5
5B
102
{ACAD_REACTORS
330
47
102
}
330
47
100
AcDbScale
 70
     0
300
1/32" = 1'-0"
140
0.03125
141
12.0
290
     0
  0
SCALE
  5
5C
102
{ACAD_REACTORS
330
47
102
}
330
47
100
AcDbScale
 70
     0
300
1/16" = 1'-0"
140
0.0625
141
12.0
290
     0
  0
SCALE
  5
5D
102
{ACAD_REACTORS
330
47
102
}
330
47
100
AcDbScale
 70
     0
300
3/32" = 1'-0"
140
0.09375
141
12.0
290
     0
  0
SCALE
  5
5E
102
{ACAD_REACTORS
330
47
102
}
330
47
100
AcDbScale
 70
     0
300
1/8" = 1'-0"
140
0.125
141
12.0
290
     0
  0
SCALE
  5
5F
102
{ACAD_REACTORS
330
47
102
}
330
47
100
AcDbScale
 70
     0
300
3/16" = 1'-0"
140
0.1875
141
12.0
290
     0
  0
SCALE
  5
60
102
{ACAD_REACTORS
330
47
102
}
330
47
100
AcDbScale
 70
     0
300
1/4" = 1'-0"
140
0.25
141
12.0
290
     0
  0
SCALE
  5
61
102
{ACAD_REACTORS
330
47
102
}
330
47
100
AcDbScale
 70
     0
300
3/8" = 1'-0"
140
0.375
141
12.0
290
     0
  0
SCALE
  5
62
102
{ACAD_REACTORS
330
47
102
}
330
47
100
AcDbScale
 70
     0
300
1/2" = 1'-0"
140
0.5
141
12.0
290
     0
  0
SCALE
  5
63
102
{ACAD_REACTORS
330
47
102
}
330
47
100
AcDbScale
 70
     0
300
3/4" = 1'-0"
140
0.75
141
12.0
290
     0
  0
SCALE
  5
64
102
{ACAD_REACTORS
330
47
102
}
330
47
100
AcDbScale
 70
     0
300
1" = 1'-0"
140
1.0
141
12.0
290
     0
  0
SCALE
  5
65
102
{ACAD_REACTORS
330
47
102
}
330
47
100
AcDbScale
 70
     0
300
1-1/2" = 1'-0"
140
1.5
141
12.0
290
     0
  0
SCALE
  5
66
102
{ACAD_REACTORS
330
47
102
}
330
47
100
AcDbScale
 70
     0
300
3" = 1'-0"
140
3.0
141
12.0
290
     0
  0
SCALE
  5
67
102
{ACAD_REACTORS
330
47
102
}
330
47
100
AcDbScale
 70
     0
300
6" = 1'-0"
140
6.0
141
12.0
290
     0
  0
SCALE
  5
68
102
{ACAD_REACTORS
330
47
102
}
330
47
100
AcDbScale
 70
     0
300
1'-0" = 1'-0"
140
12.0
141
12.0
290
     0
  0
ENDSEC
  0
EOF
