  0
SECTION
  2
HEADER
  9
$ACADVER
  1
AC1015
  9
$ACADMAINTVER
 70
     6
  9
$DWGCODEPAGE
  3
ANSI_1254
  9
$INSBASE
 10
0.0
 20
0.0
 30
0.0
  9
$EXTMIN
 10
0.0
 20
0.0
 30
0.0
  9
$EXTMAX
 10
1189.0
 20
841.0
 30
0.0
  9
$LIMMIN
 10
0.0
 20
0.0
  9
$LIMMAX
 10
1189.0
 20
841.0
  9
$ORTHOMODE
 70
     0
  9
$REGENMODE
 70
     1
  9
$FILLMODE
 70
     1
  9
$QTEXTMODE
 70
     0
  9
$MIRRTEXT
 70
     1
  9
$LTSCALE
 40
1.0
  9
$ATTMODE
 70
     1
  9
$TEXTSIZE
 40
4.9388888889
  9
$TRACEWID
 40
1.0
  9
$TEXTSTYLE
  7
Standard
  9
$CLAYER
  8
0
  9
$CELTYPE
  6
ByLayer
  9
$CECOLOR
 62
   256
  9
$CELTSCALE
 40
1.0
  9
$DISPSILH
 70
     0
  9
$DIMSCALE
 40
1.0
  9
$DIMASZ
 40
3.65
  9
$DIMEXO
 40
0.5
  9
$DIMDLI
 40
3.75
  9
$DIMRND
 40
0.0
  9
$DIMDLE
 40
0.0
  9
$DIMEXE
 40
1.0
  9
$DIMTP
 40
0.0
  9
$DIMTM
 40
0.0
  9
$DIMTXT
 40
4.2333333333
  9
$DIMCEN
 40
2.5
  9
$DIMTSZ
 40
0.0
  9
$DIMTOL
 70
     0
  9
$DIMLIM
 70
     0
  9
$DIMTIH
 70
     1
  9
$DIMTOH
 70
     1
  9
$DIMSE1
 70
     0
  9
$DIMSE2
 70
     0
  9
$DIMTAD
 70
     1
  9
$DIMZIN
 70
     0
  9
$DIMBLK
  1

  9
$DIMASO
 70
     1
  9
$DIMSHO
 70
     1
  9
$DIMPOST
  1

  9
$DIMAPOST
  1

  9
$DIMALT
 70
     0
  9
$DIMALTD
 70
     3
  9
$DIMALTF
 40
0.0393700787
  9
$DIMLFAC
 40
1.0
  9
$DIMTOFL
 70
     1
  9
$DIMTVP
 40
0.0
  9
$DIMTIX
 70
     0
  9
$DIMSOXD
 70
     0
  9
$DIMSAH
 70
     0
  9
$DIMBLK1
  1

  9
$DIMBLK2
  1

  9
$DIMSTYLE
  2
ISO-25
  9
$DIMCLRD
 70
     0
  9
$DIMCLRE
 70
     0
  9
$DIMCLRT
 70
     0
  9
$DIMTFAC
 40
1.0
  9
$DIMGAP
 40
1.524
  9
$DIMJUST
 70
     0
  9
$DIMSD1
 70
     0
  9
$DIMSD2
 70
     0
  9
$DIMTOLJ
 70
     0
  9
$DIMTZIN
 70
     0
  9
$DIMALTZ
 70
     0
  9
$DIMALTTZ
 70
     0
  9
$DIMUPT
 70
     0
  9
$DIMDEC
 70
     2
  9
$DIMTDEC
 70
     2
  9
$DIMALTU
 70
     2
  9
$DIMALTTD
 70
     3
  9
$DIMTXSTY
  7
Standard
  9
$DIMAUNIT
 70
     0
  9
$DIMADEC
 70
     2
  9
$DIMALTRND
 40
0.0
  9
$DIMAZIN
 70
     0
  9
$DIMDSEP
 70
    44
  9
$DIMATFIT
 70
     3
  9
$DIMFRAC
 70
     0
  9
$DIMLDRBLK
  1

  9
$DIMLUNIT
 70
     2
  9
$DIMLWD
 70
    -2
  9
$DIMLWE
 70
    -2
  9
$DIMTMOVE
 70
     0
  9
$LUNITS
 70
     2
  9
$LUPREC
 70
     2
  9
$SKETCHINC
 40
1.0
  9
$FILLETRAD
 40
10.0
  9
$AUNITS
 70
     0
  9
$AUPREC
 70
     2
  9
$MENU
  1
.
  9
$ELEVATION
 40
0.0
  9
$PELEVATION
 40
0.0
  9
$THICKNESS
 40
0.0
  9
$LIMCHECK
 70
     0
  9
$CHAMFERA
 40
0.0
  9
$CHAMFERB
 40
0.0
  9
$CHAMFERC
 40
0.0
  9
$CHAMFERD
 40
0.0
  9
$SKPOLY
 70
     0
  9
$TDCREATE
 40
2459102.410289236
  9
$TDUCREATE
 40
2459102.285289236
  9
$TDUPDATE
 40
2459102.410290509
  9
$TDUUPDATE
 40
2459102.285290509
  9
$TDINDWG
 40
0.0000000116
  9
$TDUSRTIMER
 40
0.0000000116
  9
$USRTIMER
 70
     1
  9
$ANGBASE
 50
0.0
  9
$ANGDIR
 70
     0
  9
$PDMODE
 70
     0
  9
$PDSIZE
 40
-1.0
  9
$PLINEWID
 40
0.0
  9
$SPLFRAME
 70
     0
  9
$SPLINETYPE
 70
     6
  9
$SPLINESEGS
 70
     8
  9
$HANDSEED
  5
449
  9
$SURFTAB1
 70
     6
  9
$SURFTAB2
 70
     6
  9
$SURFTYPE
 70
     6
  9
$SURFU
 70
     6
  9
$SURFV
 70
     6
  9
$UCSBASE
  2

  9
$UCSNAME
  2

  9
$UCSORG
 10
0.0
 20
0.0
 30
0.0
  9
$UCSXDIR
 10
1.0
 20
0.0
 30
0.0
  9
$UCSYDIR
 10
0.0
 20
1.0
 30
0.0
  9
$UCSORTHOREF
  2

  9
$UCSORTHOVIEW
 70
     0
  9
$UCSORGTOP
 10
0.0
 20
0.0
 30
0.0
  9
$UCSORGBOTTOM
 10
0.0
 20
0.0
 30
0.0
  9
$UCSORGLEFT
 10
0.0
 20
0.0
 30
0.0
  9
$UCSORGRIGHT
 10
0.0
 20
0.0
 30
0.0
  9
$UCSORGFRONT
 10
0.0
 20
0.0
 30
0.0
  9
$UCSORGBACK
 10
0.0
 20
0.0
 30
0.0
  9
$PUCSBASE
  2

  9
$PUCSNAME
  2

  9
$PUCSORG
 10
0.0
 20
0.0
 30
0.0
  9
$PUCSXDIR
 10
1.0
 20
0.0
 30
0.0
  9
$PUCSYDIR
 10
0.0
 20
1.0
 30
0.0
  9
$PUCSORTHOREF
  2

  9
$PUCSORTHOVIEW
 70
     0
  9
$PUCSORGTOP
 10
0.0
 20
0.0
 30
0.0
  9
$PUCSORGBOTTOM
 10
0.0
 20
0.0
 30
0.0
  9
$PUCSORGLEFT
 10
0.0
 20
0.0
 30
0.0
  9
$PUCSORGRIGHT
 10
0.0
 20
0.0
 30
0.0
  9
$PUCSORGFRONT
 10
0.0
 20
0.0
 30
0.0
  9
$PUCSORGBACK
 10
0.0
 20
0.0
 30
0.0
  9
$USERI1
 70
     0
  9
$USERI2
 70
     0
  9
$USERI3
 70
     0
  9
$USERI4
 70
     0
  9
$USERI5
 70
     0
  9
$USERR1
 40
0.0
  9
$USERR2
 40
0.0
  9
$USERR3
 40
0.0
  9
$USERR4
 40
0.0
  9
$USERR5
 40
0.0
  9
$WORLDVIEW
 70
     1
  9
$SHADEDGE
 70
     3
  9
$SHADEDIF
 70
    70
  9
$TILEMODE
 70
     1
  9
$MAXACTVP
 70
    64
  9
$PINSBASE
 10
0.0
 20
0.0
 30
0.0
  9
$PLIMCHECK
 70
     0
  9
$PEXTMIN
 10
1.0000000000E+20
 20
1.0000000000E+20
 30
1.0000000000E+20
  9
$PEXTMAX
 10
-1.0000000000E+20
 20
-1.0000000000E+20
 30
-1.0000000000E+20
  9
$PLIMMIN
 10
0.0
 20
0.0
  9
$PLIMMAX
 10
420.0
 20
297.0
  9
$UNITMODE
 70
     0
  9
$VISRETAIN
 70
     1
  9
$PLINEGEN
 70
     0
  9
$PSLTSCALE
 70
     1
  9
$TREEDEPTH
 70
  3020
  9
$CMLSTYLE
  2
Standard
  9
$CMLJUST
 70
     0
  9
$CMLSCALE
 40
20.0
  9
$PROXYGRAPHICS
 70
     1
  9
$MEASUREMENT
 70
     1
  9
$CELWEIGHT
370
    -1
  9
$ENDCAPS
280
     0
  9
$JOINSTYLE
280
     0
  9
$LWDISPLAY
290
     1
  9
$INSUNITS
 70
     4
  9
$HYPERLINKBASE
  1

  9
$STYLESHEET
  1

  9
$XEDIT
290
     1
  9
$CEPSNTYPE
380
     0
  9
$PSTYLEMODE
290
     1
  9
$FINGERPRINTGUID
  2
{e0a61361-6002-43d6-a643-55d954fb55f6}
  9
$VERSIONGUID
  2
{FAEB1C32-E019-11D5-929B-00C0DF256EC4}
  9
$EXTNAMES
290
     1
  9
$PSVPSCALE
 40
0.0
  9
$OLESTARTUP
290
     0
  0
ENDSEC
  0
SECTION
  2
CLASSES
  0
CLASS
  1
ACDBDICTIONARYWDFLT
  2
AcDbDictionaryWithDefault
  3
ObjectDBX Classes
 90
        0
280
     0
281
     0
  0
CLASS
  1
VISUALSTYLE
  2
AcDbVisualStyle
  3
ObjectDBX Classes
 90
     4095
280
     0
281
     0
  0
CLASS
  1
MATERIAL
  2
AcDbMaterial
  3
ObjectDBX Classes
 90
     1153
280
     0
281
     0
  0
CLASS
  1
SCALE
  2
AcDbScale
  3
ObjectDBX Classes
 90
     1153
280
     0
281
     0
  0
CLASS
  1
TABLESTYLE
  2
AcDbTableStyle
  3
ObjectDBX Classes
 90
     4095
280
     0
281
     0
  0
CLASS
  1
MLEADERSTYLE
  2
AcDbMLeaderStyle
  3
ACDB_MLEADERSTYLE_CLASS
 90
     4095
280
     0
281
     0
  0
CLASS
  1
SUN
  2
AcDbSun
  3
SCENEOE
 90
     1153
280
     0
281
     0
  0
CLASS
  1
ACDBPLACEHOLDER
  2
AcDbPlaceHolder
  3
ObjectDBX Classes
 90
        0
280
     0
281
     0
  0
CLASS
  1
LAYOUT
  2
AcDbLayout
  3
ObjectDBX Classes
 90
        0
280
     0
281
     0
  0
ENDSEC
  0
SECTION
  2
TABLES
  0
TABLE
  2
VPORT
  5
8
330
0
100
AcDbSymbolTable
 70
     1
  0
VPORT
  5
29
330
8
100
AcDbSymbolTableRecord
100
AcDbViewportTableRecord
  2
*Active
 70
     0
 10
0.0
 20
0.0
 11
1.0
 21
1.0
 12
594.5
 22
420.5
 13
0.0
 23
0.0
 14
10.0
 24
10.0
 15
10.0
 25
10.0
 16
0.0
 26
0.0
 36
1.0
 17
0.0
 27
0.0
 37
0.0
 40
841.0
 41
1.4137931034
 42
50.0
 43
0.0
 44
0.0
 50
0.0
 51
0.0
 71
     0
 72
  2000
 73
     1
 74
     3
 75
     0
 76
     0
 77
     0
 78
     0
281
     0
 65
     1
110
0.0
120
0.0
130
0.0
111
1.0
121
0.0
131
0.0
112
0.0
122
1.0
132
0.0
 79
     0
146
0.0
  0
ENDTAB
  0
TABLE
  2
LTYPE
  5
5
330
0
100
AcDbSymbolTable
 70
     6
  0
LTYPE
  5
14
330
5
100
AcDbSymbolTableRecord
100
AcDbLinetypeTableRecord
  2
ByBlock
 70
     0
  3

 72
    65
 73
     0
 40
0.0
  0
LTYPE
  5
15
330
5
100
AcDbSymbolTableRecord
100
AcDbLinetypeTableRecord
  2
ByLayer
 70
     0
  3

 72
    65
 73
     0
 40
0.0
  0
LTYPE
  5
16
330
5
100
AcDbSymbolTableRecord
100
AcDbLinetypeTableRecord
  2
Continuous
 70
     0
  3
Solid line
 72
    65
 73
     0
 40
0.0
  0
LTYPE
  5
6E
330
5
100
AcDbSymbolTableRecord
100
AcDbLinetypeTableRecord
  2
HIDDEN
 70
     0
  3
Hidden __ __ __ __ __ __ __ __ __ __ __ __ __ __
 72
    65
 73
     2
 40
1.905
 49
1.27
 74
     0
 49
-0.635
 74
     0
  0
LTYPE
  5
6F
330
5
100
AcDbSymbolTableRecord
100
AcDbLinetypeTableRecord
  2
PHANTOM
 70
     0
  3
Phantom ______  __  __  ______  __  __  ______
 72
    65
 73
     6
 40
12.7
 49
6.35
 74
     0
 49
-1.27
 74
     0
 49
1.27
 74
     0
 49
-1.27
 74
     0
 49
1.27
 74
     0
 49
-1.27
 74
     0
  0
LTYPE
  5
70
330
5
100
AcDbSymbolTableRecord
100
AcDbLinetypeTableRecord
  2
CENTER
 70
     0
  3
Center ____ _ ____ _ ____ _ ____ _ ____ _ ____
 72
    65
 73
     4
 40
10.16
 49
6.35
 74
     0
 49
-1.27
 74
     0
 49
1.27
 74
     0
 49
-1.27
 74
     0
  0
LTYPE
  5
71
330
5
100
AcDbSymbolTableRecord
100
AcDbLinetypeTableRecord
  2
CENTERX2
 70
     0
  3
Center (2x) ________  __  ________  __  _____
 72
    65
 73
     4
 40
20.32
 49
12.7
 74
     0
 49
-2.54
 74
     0
 49
2.54
 74
     0
 49
-2.54
 74
     0
  0
LTYPE
  5
72
330
5
100
AcDbSymbolTableRecord
100
AcDbLinetypeTableRecord
  2
DOT2
 70
     0
  3
Dot (.5x) ........................................
 72
    65
 73
     2
 40
0.635
 49
0.0
 74
     0
 49
-0.635
 74
     0
  0
ENDTAB
  0
TABLE
  2
LAYER
  5
2
330
0
100
AcDbSymbolTable
 70
     5
  0
LAYER
  5
10
330
2
100
AcDbSymbolTableRecord
100
AcDbLayerTableRecord
  2
0
 70
     0
 62
     7
  6
Continuous
370
    -3
390
F
  0
LAYER
  5
73
330
2
100
AcDbSymbolTableRecord
100
AcDbLayerTableRecord
  2
FORMAT
 70
     0
 62
     7
  6
Continuous
370
    -3
390
F
  0
LAYER
  5
74
330
2
100
AcDbSymbolTableRecord
100
AcDbLayerTableRecord
  2
SLD-0
 70
     0
 62
   179
  6
Continuous
370
    -3
390
F
  0
LAYER
  5
75
330
2
100
AcDbSymbolTableRecord
100
AcDbLayerTableRecord
  2
AAA_EKSEN
 70
     0
 62
     1
  6
CENTER
370
    -3
390
F
  0
LAYER
  5
76
330
2
100
AcDbSymbolTableRecord
100
AcDbLayerTableRecord
  2
03
 70
     0
 62
     3
  6
HIDDEN
370
    -3
390
F
  0
ENDTAB
  0
TABLE
  2
STYLE
  5
3
330
0
100
AcDbSymbolTable
 70
     1
  0
STYLE
  5
11
330
3
100
AcDbSymbolTableRecord
100
AcDbTextStyleTableRecord
  2
Standard
 70
     0
 40
0.0
 41
1.0
 50
0.0
 71
     0
 42
4.9388888889
  3
txt
  4

  0
ENDTAB
  0
TABLE
  2
VIEW
  5
6
330
0
100
AcDbSymbolTable
 70
     0
  0
ENDTAB
  0
TABLE
  2
UCS
  5
7
330
0
100
AcDbSymbolTable
 70
     0
  0
ENDTAB
  0
TABLE
  2
APPID
  5
9
330
0
100
AcDbSymbolTable
 70
     1
  0
APPID
  5
12
330
9
100
AcDbSymbolTableRecord
100
AcDbRegAppTableRecord
  2
ACAD
 70
     0
  0
ENDTAB
  0
TABLE
  2
DIMSTYLE
  5
A
330
0
100
AcDbSymbolTable
 70
     1
100
AcDbDimStyleTable
  0
DIMSTYLE
105
27
330
A
100
AcDbSymbolTableRecord
100
AcDbDimStyleTableRecord
  2
ISO-25
 70
     0
 41
2.5
 42
0.625
 43
3.75
 44
1.25
 73
     0
 74
     0
 77
     1
 78
     8
140
2.5
141
2.5
143
0.0393700787
147
0.625
171
     3
172
     1
178
     0
271
     2
272
     2
274
     3
278
    44
283
     0
284
     8
340
11
  0
ENDTAB
  0
TABLE
  2
BLOCK_RECORD
  5
1
330
0
100
AcDbSymbolTable
 70
     1
  0
BLOCK_RECORD
  5
1F
330
1
100
AcDbSymbolTableRecord
100
AcDbBlockTableRecord
  2
*Model_Space
340
22
  0
BLOCK_RECORD
  5
1B
330
1
100
AcDbSymbolTableRecord
100
AcDbBlockTableRecord
  2
*Paper_Space
340
1E
  0
BLOCK_RECORD
  5
23
330
1
100
AcDbSymbolTableRecord
100
AcDbBlockTableRecord
  2
*Paper_Space0
340
26
  0
ENDTAB
  0
ENDSEC
  0
SECTION
  2
BLOCKS
  0
BLOCK
  5
20
330
1F
100
AcDbEntity
  8
0
100
AcDbBlockBegin
  2
*Model_Space
 70
     0
 10
0.0
 20
0.0
 30
0.0
  3
*Model_Space
  1

  0
ENDBLK
  5
21
330
1F
100
AcDbEntity
  8
0
100
AcDbBlockEnd
  0
BLOCK
  5
1C
330
1B
100
AcDbEntity
 67
     1
  8
0
100
AcDbBlockBegin
  2
*Paper_Space
 70
     0
 10
0.0
 20
0.0
 30
0.0
  3
*Paper_Space
  1

  0
ENDBLK
  5
1D
330
1B
100
AcDbEntity
 67
     1
  8
0
100
AcDbBlockEnd
  0
BLOCK
  5
24
330
23
100
AcDbEntity
  8
0
100
AcDbBlockBegin
  2
*Paper_Space0
 70
     0
 10
0.0
 20
0.0
 30
0.0
  3
*Paper_Space0
  1

  0
ENDBLK
  5
25
330
23
100
AcDbEntity
  8
0
100
AcDbBlockEnd
  0
ENDSEC
  0
SECTION
  2
ENTITIES
  0
ARC
  5
77
330
1F
100
AcDbEntity
  8
0
  6
Continuous
 62
     7
370
    25
100
AcDbCircle
 10
537.0897965051
 20
339.2342592232
 30
0.0
 40
0.5000000000000568
100
AcDbArc
 50
90.0
 51
270.0
  0
ARC
  5
78
330
1F
100
AcDbEntity
  8
0
  6
Continuous
 62
     7
370
    25
100
AcDbCircle
 10
522.7760099466
 20
339.2342592232
 30
0.0
 40
0.5000000000000568
100
AcDbArc
 50
270.0
 51
90.0
  0
ARC
  5
79
330
1F
100
AcDbEntity
  8
0
  6
Continuous
 62
     7
370
    25
100
AcDbCircle
 10
652.4280373425
 20
792.5092592232
 30
0.0
 40
4.999999999999432
100
AcDbArc
 50
0.0
 51
90.0
  0
LINE
  5
7A
330
1F
100
AcDbEntity
  8
0
  6
Continuous
 62
     7
370
    25
100
AcDbLine
 10
657.4280421044
 20
770.0092467765
 30
0.0
 11
657.4280421044
 21
792.5092849234
 31
0.0
  0
ARC
  5
7B
330
1F
100
AcDbEntity
  8
0
  6
Continuous
 62
     7
370
    25
100
AcDbCircle
 10
407.4394884528
 20
792.5092592232
 30
0.0
 40
4.999999999999432
100
AcDbArc
 50
90.0
 51
180.0
  0
LINE
  5
7C
330
1F
100
AcDbEntity
  8
0
  6
Continuous
 62
     7
370
    25
100
AcDbLine
 10
402.4394909646
 20
792.5092849234
 30
0.0
 11
402.4394909646
 21
770.0092467765
 31
0.0
  0
LINE
  5
7D
330
1F
100
AcDbEntity
  8
0
  6
Continuous
 62
     7
370
    25
100
AcDbLine
 10
534.4337020795
 20
721.3092717627
 30
0.0
 11
534.4337020795
 21
722.1092555026
 31
0.0
  0
LINE
  5
7E
330
1F
100
AcDbEntity
  8
0
  6
Continuous
 62
     7
370
    25
100
AcDbLine
 10
525.4337020013
 20
722.1092555026
 30
0.0
 11
525.4337020013
 21
721.3092717627
 31
0.0
  0
LINE
  5
7F
330
1F
100
AcDbEntity
  8
0
  6
Continuous
 62
     7
370
    25
100
AcDbLine
 10
688.5826299693
 20
721.3092717627
 30
0.0
 11
688.5826299693
 21
722.1092555026
 31
0.0
  0
LINE
  5
80
330
1F
100
AcDbEntity
  8
0
  6
Continuous
 62
     7
370
    25
100
AcDbLine
 10
679.5826266314
 20
722.1092555026
 30
0.0
 11
679.5826266314
 21
721.3092717627
 31
0.0
  0
LINE
  5
81
330
1F
100
AcDbEntity
  8
0
  6
Continuous
 62
     7
370
    25
100
AcDbLine
 10
534.4337630812
 20
721.3092717627
 30
0.0
 11
534.4337630812
 21
722.1092555026
 31
0.0
  0
LINE
  5
82
330
1F
100
AcDbEntity
  8
0
  6
Continuous
 62
     7
370
    25
100
AcDbLine
 10
525.4337630029
 20
722.1092555026
 30
0.0
 11
525.4337630029
 21
721.3092717627
 31
0.0
  0
LINE
  5
83
330
1F
100
AcDbEntity
  8
0
  6
Continuous
 62
     7
370
    25
100
AcDbLine
 10
677.5829057004
 20
721.3092717627
 30
0.0
 11
677.5829057004
 21
722.1092555026
 31
0.0
  0
LINE
  5
84
330
1F
100
AcDbEntity
  8
0
  6
Continuous
 62
     7
370
    25
100
AcDbLine
 10
668.5829023625
 20
722.1092555026
 30
0.0
 11
668.5829023625
 21
721.8438062171
 31
0.0
  0
LINE
  5
85
330
1F
100
AcDbEntity
  8
0
  6
Continuous
 62
     7
370
    25
100
AcDbLine
 10
391.2829021718
 20
721.8438062171
 30
0.0
 11
391.2829021718
 21
722.1092555026
 31
0.0
  0
LINE
  5
86
330
1F
100
AcDbEntity
  8
0
  6
Continuous
 62
     7
370
    25
100
AcDbLine
 10
382.2828988339
 20
722.1092555026
 30
0.0
 11
382.2828988339
 21
721.3092717627
 31
0.0
  0
LINE
  5
87
330
1F
100
AcDbEntity
  8
0
  6
Continuous
 62
     7
370
    25
100
AcDbLine
 10
380.2831779029
 20
721.3092717627
 30
0.0
 11
380.2831779029
 21
722.1092555026
 31
0.0
  0
LINE
  5
88
330
1F
100
AcDbEntity
  8
0
  6
Continuous
 62
     7
370
    25
100
AcDbLine
 10
371.2831894662
 20
722.1092555026
 30
0.0
 11
371.2831894662
 21
721.3092717627
 31
0.0
  0
LINE
  5
89
330
1F
100
AcDbEntity
  8
0
  6
Continuous
 62
     7
370
    25
100
AcDbLine
 10
680.582628658
 20
724.1508337954
 30
0.0
 11
680.582628658
 21
722.1092555026
 31
0.0
  0
LINE
  5
8A
330
1F
100
AcDbEntity
  8
0
  6
Continuous
 62
     7
370
    25
100
AcDbLine
 10
687.5826279427
 20
722.1092555026
 30
0.0
 11
687.5826279427
 21
724.1508337954
 31
0.0
  0
ARC
  5
8B
330
1F
100
AcDbEntity
  8
0
  6
Continuous
 62
     7
370
    25
100
AcDbCircle
 10
684.0826235176
 20
715.8592592232
 30
0.0
 40
8.99999999999998
100
AcDbArc
 50
103.008256984
 51
112.8853804762
  0
ARC
  5
8C
330
1F
100
AcDbEntity
  8
0
  6
Continuous
 62
     7
370
    25
100
AcDbCircle
 10
684.0826235176
 20
715.8592592232
 30
0.0
 40
8.999999999999956
100
AcDbArc
 50
67.1146195238
 51
76.991743016
  0
ARC
  5
8D
330
1F
100
AcDbEntity
  8
0
  6
Continuous
 62
     7
370
    25
100
AcDbCircle
 10
386.782903228
 20
715.8592592232
 30
0.0
 40
9.000000000000021
100
AcDbArc
 50
103.008256984
 51
112.8853804762
  0
ARC
  5
8E
330
1F
100
AcDbEntity
  8
0
  6
Continuous
 62
     7
370
    25
100
AcDbCircle
 10
386.782903228
 20
715.8592592232
 30
0.0
 40
8.999999999999977
100
AcDbArc
 50
67.1146195238
 51
76.991743016
  0
LINE
  5
8F
330
1F
100
AcDbEntity
  8
0
  6
Continuous
 62
     7
370
    25
100
AcDbLine
 10
383.2829008605
 20
724.1508337954
 30
0.0
 11
383.2829008605
 21
722.1092555026
 31
0.0
  0
LINE
  5
90
330
1F
100
AcDbEntity
  8
0
  6
Continuous
 62
     7
370
    25
100
AcDbLine
 10
390.2829001452
 20
722.1092555026
 30
0.0
 11
390.2829001452
 21
724.1508337954
 31
0.0
  0
LINE
  5
91
330
1F
100
AcDbEntity
  8
0
  6
Continuous
 62
     7
370
    25
100
AcDbLine
 10
526.4337019324
 20
724.1508337954
 30
0.0
 11
526.4337019324
 21
722.1092555026
 31
0.0
  0
ARC
  5
92
330
1F
100
AcDbEntity
  8
0
  6
Continuous
 62
     7
370
    25
100
AcDbCircle
 10
375.783182934
 20
715.8592592232
 30
0.0
 40
8.999999999999956
100
AcDbArc
 50
103.008256984
 51
112.8853804762
  0
ARC
  5
93
330
1F
100
AcDbEntity
  8
0
  6
Continuous
 62
     7
370
    25
100
AcDbCircle
 10
375.783182934
 20
715.8592592232
 30
0.0
 40
8.999999999999956
100
AcDbArc
 50
67.1146195238
 51
76.991743016
  0
LINE
  5
94
330
1F
100
AcDbEntity
  8
0
  6
Continuous
 62
     7
370
    25
100
AcDbLine
 10
372.2831765916
 20
724.1508337954
 30
0.0
 11
372.2831765916
 21
722.1092555026
 31
0.0
  0
LINE
  5
95
330
1F
100
AcDbEntity
  8
0
  6
Continuous
 62
     7
370
    25
100
AcDbLine
 10
379.2831758763
 20
722.1092555026
 30
0.0
 11
379.2831758763
 21
724.1508337954
 31
0.0
  0
ARC
  5
96
330
1F
100
AcDbEntity
  8
0
  6
Continuous
 62
     7
370
    25
100
AcDbCircle
 10
529.9337632258
 20
715.8592592232
 30
0.0
 40
8.999999999999956
100
AcDbArc
 50
103.008256984
 51
112.8853804762
  0
ARC
  5
97
330
1F
100
AcDbEntity
  8
0
  6
Continuous
 62
     7
370
    25
100
AcDbCircle
 10
529.9337632258
 20
715.8592592232
 30
0.0
 40
9.000000000000066
100
AcDbArc
 50
67.1146195238
 51
76.991743016
  0
LINE
  5
98
330
1F
100
AcDbEntity
  8
0
  6
Continuous
 62
     7
370
    25
100
AcDbLine
 10
526.4337631668
 20
724.1508337954
 30
0.0
 11
526.4337631668
 21
722.1092555026
 31
0.0
  0
LINE
  5
99
330
1F
100
AcDbEntity
  8
0
  6
Continuous
 62
     7
370
    25
100
AcDbLine
 10
533.4337631501
 20
722.1092555026
 30
0.0
 11
533.4337631501
 21
724.1508337954
 31
0.0
  0
LINE
  5
9A
330
1F
100
AcDbEntity
  8
0
  6
Continuous
 62
     7
370
    25
100
AcDbLine
 10
669.5829043891
 20
724.1508337954
 30
0.0
 11
669.5829043891
 21
722.1092555026
 31
0.0
  0
LINE
  5
9B
330
1F
100
AcDbEntity
  8
0
  6
Continuous
 62
     7
370
    25
100
AcDbLine
 10
676.5829036738
 20
722.1092555026
 30
0.0
 11
676.5829036738
 21
724.1508337954
 31
0.0
  0
ARC
  5
9C
330
1F
100
AcDbEntity
  8
0
  6
Continuous
 62
     7
370
    25
100
AcDbCircle
 10
673.0829032236
 20
715.8592592232
 30
0.0
 40
9.0
100
AcDbArc
 50
103.008256984
 51
112.8853804762
  0
ARC
  5
9D
330
1F
100
AcDbEntity
  8
0
  6
Continuous
 62
     7
370
    25
100
AcDbCircle
 10
673.0829032236
 20
715.8592592232
 30
0.0
 40
8.999999999999956
100
AcDbArc
 50
67.1146195238
 51
76.991743016
  0
LINE
  5
9E
330
1F
100
AcDbEntity
  8
0
  6
Continuous
 62
     7
370
    25
100
AcDbLine
 10
629.9329037573
 20
423.0092588166
 30
0.0
 11
629.9329037573
 21
703.309265087
 31
0.0
  0
LINE
  5
9F
330
1F
100
AcDbEntity
  8
0
  6
Continuous
 62
     7
370
    25
100
AcDbLine
 10
629.9329037573
 20
727.3634347419
 30
0.0
 11
629.9329037573
 21
760.1092729072
 31
0.0
  0
LINE
  5
A0
330
1F
100
AcDbEntity
  8
0
  6
Continuous
 62
     7
370
    25
100
AcDbLine
 10
429.932900777
 20
760.1092729072
 30
0.0
 11
429.932900777
 21
727.3634347419
 31
0.0
  0
LINE
  5
A1
330
1F
100
AcDbEntity
  8
0
  6
Continuous
 62
     7
370
    25
100
AcDbLine
 10
429.932900777
 20
703.309265087
 30
0.0
 11
429.932900777
 21
423.0092588166
 31
0.0
  0
ARC
  5
A2
330
1F
100
AcDbEntity
  8
0
  6
Continuous
 62
     7
370
    25
100
AcDbCircle
 10
850.4329032207
 20
716.8092592232
 30
0.0
 40
4.499999999999432
100
AcDbArc
 50
0.0
 51
90.0
  0
ARC
  5
A3
330
1F
100
AcDbEntity
  8
0
  6
Continuous
 62
     7
370
    25
100
AcDbCircle
 10
209.432903231
 20
716.8092592232
 30
0.0
 40
4.499999999999318
100
AcDbArc
 50
90.0
 51
180.0
  0
LINE
  5
A4
330
1F
100
AcDbEntity
  8
0
  6
Continuous
 62
     7
370
    25
100
AcDbLine
 10
854.9329052474
 20
705.8092627028
 30
0.0
 11
854.9329052474
 21
716.8092700938
 31
0.0
  0
LINE
  5
A5
330
1F
100
AcDbEntity
  8
0
  6
Continuous
 62
     7
370
    25
100
AcDbLine
 10
204.9328992869
 20
716.8092700938
 30
0.0
 11
204.9328992869
 21
705.8092627028
 31
0.0
  0
ARC
  5
A6
330
1F
100
AcDbEntity
  8
0
  6
Continuous
 62
     7
370
    25
100
AcDbCircle
 10
852.4329032207
 20
705.8092592232
 30
0.0
 40
2.500000000000455
100
AcDbArc
 50
270.0
 51
360.0
  0
ARC
  5
A7
330
1F
100
AcDbEntity
  8
0
  6
Continuous
 62
     7
370
    25
100
AcDbCircle
 10
207.432903231
 20
705.8092592232
 30
0.0
 40
2.50000000000054
100
AcDbArc
 50
180.0
 51
270.0
  0
ARC
  5
A8
330
1F
100
AcDbEntity
  8
0
  6
Continuous
 62
     7
370
    25
100
AcDbCircle
 10
676.8461740222
 20
726.8725048563
 30
0.0
 40
9.673135833887455
100
AcDbArc
 50
177.4121430024
 51
211.7447236235
  0
ARC
  5
A9
330
1F
100
AcDbEntity
  8
0
  6
Continuous
 62
     7
370
    25
100
AcDbCircle
 10
383.0196324294
 20
726.8725048563
 30
0.0
 40
9.673135833887455
100
AcDbArc
 50
328.2552763765
 51
2.5878569976
  0
LINE
  5
AA
330
1F
100
AcDbEntity
  8
0
  6
Continuous
 62
     7
370
    25
100
AcDbLine
 10
667.182908466
 20
727.3092541198
 30
0.0
 11
665.9841249492
 21
727.3634347419
 31
0.0
  0
LINE
  5
AB
330
1F
100
AcDbEntity
  8
0
  6
Continuous
 62
     7
370
    25
100
AcDbLine
 10
393.8816795852
 20
727.3634347419
 30
0.0
 11
392.6828960683
 21
727.3092541198
 31
0.0
  0
LINE
  5
AC
330
1F
100
AcDbEntity
  8
0
  6
Continuous
 62
     7
370
    25
100
AcDbLine
 10
429.1829029824
 20
423.0092588166
 30
0.0
 11
429.1829029824
 21
420.0092527369
 31
0.0
  0
LINE
  5
AD
330
1F
100
AcDbEntity
  8
0
  6
Continuous
 62
     7
370
    25
100
AcDbLine
 10
630.6829015519
 20
420.0092527369
 30
0.0
 11
630.6829015519
 21
423.0092588166
 31
0.0
  0
LINE
  5
AE
330
1F
100
AcDbEntity
  8
0
  6
Continuous
 62
     7
370
    25
100
AcDbLine
 10
657.4337641503
 20
760.1092729072
 30
0.0
 11
657.4337641503
 21
767.6092657546
 31
0.0
  0
LINE
  5
AF
330
1F
100
AcDbEntity
  8
0
  6
Continuous
 62
     7
370
    25
100
AcDbLine
 10
402.4337689187
 20
767.6092657546
 30
0.0
 11
402.4337689187
 21
760.1092729072
 31
0.0
  0
SPLINE
  5
B0
330
1F
100
AcDbEntity
  8
0
  6
Continuous
 62
     7
370
    25
100
AcDbSpline
210
0.0
220
0.0
230
1.0
 70
     8
 71
     3
 72
    11
 73
     7
 74
     0
 42
0.000000001
 43
0.00000001
 40
0.0
 40
0.0
 40
0.0
 40
0.0
 40
0.223209043218317
 40
0.4705484016579902
 40
0.7335749832904181
 40
1.0
 40
1.0
 40
1.0
 40
1.0
 10
532.6015898752452
 20
411.0987904766925
 30
0.0
 10
532.619286591455
 20
411.1865147659242
 30
0.0
 10
532.6565931512924
 20
411.3714468972095
 30
0.0
 10
532.8092214230749
 20
411.628859626448
 30
0.0
 10
533.0363087010212
 20
411.8500715027168
 30
0.0
 10
533.2294385710323
 20
411.9279312072355
 30
0.0
 10
533.3266233354301
 20
411.9671109417804
 30
0.0
  0
SPLINE
  5
B1
330
1F
100
AcDbEntity
  8
0
  6
Continuous
 62
     7
370
    25
100
AcDbSpline
210
0.0
220
0.0
230
1.0
 70
     8
 71
     3
 72
    11
 73
     7
 74
     0
 42
0.000000001
 43
0.00000001
 40
0.0
 40
0.0
 40
0.0
 40
0.0
 40
0.2666525510591058
 40
0.5296182941137725
 40
0.7768317805418911
 40
1.0
 40
1.0
 40
1.0
 40
1.0
 10
526.5422529335559
 20
411.9661870697864
 30
0.0
 10
526.6390498626092
 20
411.9268241350442
 30
0.0
 10
526.8313053810248
 20
411.8486425078042
 30
0.0
 10
527.0572502871695
 20
411.6276388999801
 30
0.0
 10
527.2090534687388
 20
411.3709011480548
 30
0.0
 10
527.2462214152956
 20
411.1865818009675
 30
0.0
 10
527.263855401376
 20
411.0991332034
 30
0.0
  0
LINE
  5
B2
330
1F
100
AcDbEntity
  8
0
  6
Continuous
 62
     7
370
    25
100
AcDbLine
 10
614.6829063799
 20
347.0092612604
 30
0.0
 11
614.6829063799
 21
391.9710639218
 31
0.0
  0
LINE
  5
B3
330
1F
100
AcDbEntity
  8
0
  6
Continuous
 62
     7
370
    25
100
AcDbLine
 10
445.182905605
 20
391.9710639218
 30
0.0
 11
445.182905605
 21
347.0092612604
 31
0.0
  0
ARC
  5
B4
330
1F
100
AcDbEntity
  8
0
  6
Continuous
 62
     7
370
    25
100
AcDbCircle
 10
609.6829032258
 20
347.0092592232
 30
0.0
 40
4.999999999999545
100
AcDbArc
 50
270.0
 51
0.0
  0
ARC
  5
B5
330
1F
100
AcDbEntity
  8
0
  6
Continuous
 62
     7
370
    25
100
AcDbCircle
 10
450.1829032258
 20
347.0092592232
 30
0.0
 40
4.999999999999545
100
AcDbArc
 50
180.0
 51
270.0
  0
LINE
  5
B6
330
1F
100
AcDbEntity
  8
0
  6
Continuous
 62
     7
370
    25
100
AcDbLine
 10
564.9329024162
 20
285.0092592469
 30
0.0
 11
564.9329024162
 21
291.609259444
 31
0.0
  0
LINE
  5
B7
330
1F
100
AcDbEntity
  8
0
  6
Continuous
 62
     7
370
    25
100
AcDbLine
 10
494.9329021181
 20
291.609259444
 30
0.0
 11
494.9329021181
 21
285.0092592469
 31
0.0
  0
ARC
  5
B8
330
1F
100
AcDbEntity
  8
0
  6
Continuous
 62
     7
370
    25
100
AcDbCircle
 10
497.9329032258
 20
285.0092592232
 30
0.0
 40
3.000000000000284
100
AcDbArc
 50
180.0
 51
270.0
  0
ARC
  5
B9
330
1F
100
AcDbEntity
  8
0
  6
Continuous
 62
     7
370
    25
100
AcDbCircle
 10
561.9329032258
 20
285.0092592232
 30
0.0
 40
3.000000000000227
100
AcDbArc
 50
270.0
 51
360.0
  0
SPLINE
  5
BA
330
1F
100
AcDbEntity
  8
0
  6
Continuous
 62
     7
370
    25
100
AcDbSpline
210
0.0
220
0.0
230
1.0
 70
     8
 71
     3
 72
    13
 73
     9
 74
     0
 42
0.000000001
 43
0.00000001
 40
0.0
 40
0.0
 40
0.0
 40
0.0
 40
0.2394534073360185
 40
0.3683694962756561
 40
0.5000241558622677
 40
0.631674806498527
 40
0.7605812555930463
 40
0.9999999999999999
 40
0.9999999999999999
 40
0.9999999999999999
 40
0.9999999999999999
 10
565.377214064771
 20
291.6093777219184
 30
0.0
 10
565.7553030381665
 20
291.6461731330017
 30
0.0
 10
566.33694623225
 20
291.7027783289636
 30
0.0
 10
567.0392333227419
 20
292.0713646646196
 30
0.0
 10
567.5235284707677
 20
292.4550008904989
 30
0.0
 10
567.9149403401831
 20
292.9330137275591
 30
0.0
 10
568.2948145610512
 20
293.6291704524254
 30
0.0
 10
568.3608497922967
 20
294.2097459942604
 30
0.0
 10
568.4037740136922
 20
294.5871317113169
 30
0.0
  0
LWPOLYLINE
  5
BB
330
1F
100
AcDbEntity
  8
0
  6
Continuous
 62
     7
370
    25
100
AcDbPolyline
 90
        3
 70
   128
 43
0.0
 10
488.3102263119
 20
342.0092585782
 10
489.252873769
 20
341.1044116417
 10
490.3935427572
 20
340.0094668666
  0
SPLINE
  5
BC
330
1F
100
AcDbEntity
  8
0
  6
Continuous
 62
     7
370
    25
100
AcDbSpline
210
0.0
220
0.0
230
1.0
 70
     8
 71
     3
 72
     9
 73
     5
 74
     0
 42
0.000000001
 43
0.00000001
 40
0.0
 40
0.0
 40
0.0
 40
0.0
 40
0.4524859097846082
 40
1.0
 40
1.0
 40
1.0
 40
1.0
 10
569.4722655023874
 20
340.0094668666251
 30
0.0
 10
569.7864868066214
 20
340.311095841222
 30
0.0
 10
570.480920152366
 20
340.9776999676144
 30
0.0
 10
571.1753641009974
 20
341.6442907386464
 30
0.0
 10
571.555581947738
 20
342.009258578194
 30
0.0
  0
LINE
  5
BD
330
1F
100
AcDbEntity
  8
0
  6
Continuous
 62
     7
370
    25
100
AcDbLine
 10
568.4030028786
 20
294.5377474005
 30
0.0
 11
569.487531742
 21
340.0218944351
 31
0.0
  0
ARC
  5
BE
330
1F
100
AcDbEntity
  8
0
  6
Continuous
 62
     7
370
    25
100
AcDbCircle
 10
494.4619503552
 20
294.6092592232
 30
0.0
 40
3.000000000000044
100
AcDbArc
 50
181.3866109175
 51
269.9485929587
  0
LINE
  5
BF
330
1F
100
AcDbEntity
  8
0
  6
Continuous
 62
     7
370
    25
100
AcDbLine
 10
490.3782206382
 20
340.0241854886
 30
0.0
 11
491.4628649856
 21
294.5352011646
 31
0.0
  0
ARC
  5
C0
330
1F
100
AcDbEntity
  8
0
  6
Continuous
 62
     7
370
    25
100
AcDbCircle
 10
424.6329032258
 20
423.0092592232
 30
0.0
 40
2.999999999999659
100
AcDbArc
 50
360.0
 51
90.0
  0
ARC
  5
C1
330
1F
100
AcDbEntity
  8
0
  6
Continuous
 62
     7
370
    25
100
AcDbCircle
 10
635.2329032258
 20
423.0092592232
 30
0.0
 40
3.000000000000227
100
AcDbArc
 50
90.0
 51
180.0
  0
LINE
  5
C2
330
1F
100
AcDbEntity
  8
0
  6
Continuous
 62
     7
370
    25
100
AcDbLine
 10
424.6329004671
 20
426.0092648963
 30
0.0
 11
415.9829030539
 21
426.0092648963
 31
0.0
  0
LINE
  5
C3
330
1F
100
AcDbEntity
  8
0
  6
Continuous
 62
     7
370
    25
100
AcDbLine
 10
643.8829014804
 20
426.0092648963
 30
0.0
 11
635.2329040672
 21
426.0092648963
 31
0.0
  0
SPLINE
  5
C4
330
1F
100
AcDbEntity
  8
0
  6
Continuous
 62
     7
370
    25
100
AcDbSpline
210
0.0
220
0.0
230
1.0
 70
     8
 71
     3
 72
    11
 73
     7
 74
     0
 42
0.000000001
 43
0.00000001
 40
0.0
 40
0.0
 40
0.0
 40
0.0
 40
0.2451197347691385
 40
0.4999807402960817
 40
0.7548594751562405
 40
0.9999999999999999
 40
0.9999999999999999
 40
0.9999999999999999
 40
0.9999999999999999
 10
434.567653646642
 20
412.0092663267978
 30
0.0
 10
434.6583455922278
 20
412.002120102082
 30
0.0
 10
434.843333659939
 20
411.987543655485
 30
0.0
 10
435.1005624985198
 20
411.8693819658428
 30
0.0
 10
435.3208990909897
 20
411.6916570798998
 30
0.0
 10
435.4163102789432
 20
411.5324866376844
 30
0.0
 10
435.4630867745221
 20
411.4544513920673
 30
0.0
  0
SPLINE
  5
C5
330
1F
100
AcDbEntity
  8
0
  6
Continuous
 62
     7
370
    25
100
AcDbSpline
210
0.0
220
0.0
230
1.0
 70
     8
 71
     3
 72
    11
 73
     7
 74
     0
 42
0.000000001
 43
0.00000001
 40
0.0
 40
0.0
 40
0.0
 40
0.0
 40
0.2451405248437595
 40
0.5000192597039183
 40
0.7548802652308614
 40
0.9999999999999999
 40
0.9999999999999999
 40
0.9999999999999999
 40
0.9999999999999999
 10
624.4027177597821
 20
411.4544513920673
 30
0.0
 10
624.4494942553611
 20
411.5324866376844
 30
0.0
 10
624.5449054433146
 20
411.6916570798998
 30
0.0
 10
624.7652420357845
 20
411.8693819658428
 30
0.0
 10
625.0224708743651
 20
411.987543655485
 30
0.0
 10
625.2074589420765
 20
412.0021201020819
 30
0.0
 10
625.2981508876622
 20
412.0092663267978
 30
0.0
  0
LINE
  5
C6
330
1F
100
AcDbEntity
  8
0
  6
Continuous
 62
     7
370
    25
100
AcDbLine
 10
435.4602704551
 20
411.4600691298
 30
0.0
 11
445.0755203869
 21
392.421876202
 31
0.0
  0
LINE
  5
C7
330
1F
100
AcDbEntity
  8
0
  6
Continuous
 62
     7
370
    25
100
AcDbLine
 10
614.7902841474
 20
392.421876202
 30
0.0
 11
624.4055340792
 21
411.4600691298
 31
0.0
  0
SPLINE
  5
C8
330
1F
100
AcDbEntity
  8
0
  6
Continuous
 62
     7
370
    25
100
AcDbSpline
210
0.0
220
0.0
230
1.0
 70
     8
 71
     3
 72
     9
 73
     5
 74
     0
 42
0.000000001
 43
0.00000001
 40
0.0
 40
0.0
 40
0.0
 40
0.0
 40
0.4999993422071318
 40
1.0
 40
1.0
 40
1.0
 40
1.0
 10
445.0755203868688
 20
392.421876202
 30
0.0
 10
445.1066557424641
 20
392.3498942280188
 30
0.0
 10
445.1689265355774
 20
392.2059300906593
 30
0.0
 10
445.1782459111138
 20
392.0493527134313
 30
0.0
 10
445.1829056050123
 20
391.9710639218219
 30
0.0
  0
SPLINE
  5
C9
330
1F
100
AcDbEntity
  8
0
  6
Continuous
 62
     7
370
    25
100
AcDbSpline
210
0.0
220
0.0
230
1.0
 70
     8
 71
     3
 72
     9
 73
     5
 74
     0
 42
0.000000001
 43
0.00000001
 40
0.0
 40
0.0
 40
0.0
 40
0.0
 40
0.4999997265560158
 40
0.9999999999999999
 40
0.9999999999999999
 40
0.9999999999999999
 40
0.9999999999999999
 10
614.6829063798726
 20
391.9710639218219
 30
0.0
 10
614.6875630024664
 20
392.0493527794848
 30
0.0
 10
614.6968762527473
 20
392.2059305804411
 30
0.0
 10
614.7591481711875
 20
392.349894301903
 30
0.0
 10
614.7902841474355
 20
392.421876202
 30
0.0
  0
LINE
  5
CA
330
1F
100
AcDbEntity
  8
0
  6
Continuous
 62
     7
370
    25
100
AcDbLine
 10
537.2574278879
 20
336.4592577616
 30
0.0
 11
537.2574278879
 21
338.7342590193
 31
0.0
  0
LINE
  5
CB
330
1F
100
AcDbEntity
  8
0
  6
Continuous
 62
     7
370
    25
100
AcDbLine
 10
530.2845184777
 20
338.7342590193
 30
0.0
 11
530.2845184777
 21
336.4592577616
 31
0.0
  0
LINE
  5
CC
330
1F
100
AcDbEntity
  8
0
  6
Continuous
 62
     7
370
    25
100
AcDbLine
 10
530.2845184777
 20
338.7342590193
 30
0.0
 11
537.2574278879
 21
338.7342590193
 31
0.0
  0
LINE
  5
CD
330
1F
100
AcDbEntity
  8
0
  6
Continuous
 62
     7
370
    25
100
AcDbLine
 10
537.2574278879
 20
336.4592577616
 30
0.0
 11
530.2845184777
 21
336.4592577616
 31
0.0
  0
LINE
  5
CE
330
1F
100
AcDbEntity
  8
0
  6
Continuous
 62
     7
370
    25
100
AcDbLine
 10
530.2845184777
 20
342.0092585782
 30
0.0
 11
530.2845184777
 21
339.7342610458
 31
0.0
  0
LINE
  5
CF
330
1F
100
AcDbEntity
  8
0
  6
Continuous
 62
     7
370
    25
100
AcDbLine
 10
537.2574278879
 20
339.7342610458
 30
0.0
 11
537.2574278879
 21
342.0092585782
 31
0.0
  0
LINE
  5
D0
330
1F
100
AcDbEntity
  8
0
  6
Continuous
 62
     7
370
    25
100
AcDbLine
 10
537.2574278879
 20
339.7342610458
 30
0.0
 11
530.2845184777
 21
339.7342610458
 31
0.0
  0
LINE
  5
D1
330
1F
100
AcDbEntity
  8
0
  6
Continuous
 62
     7
370
    25
100
AcDbLine
 10
528.5550973638
 20
336.4592577616
 30
0.0
 11
528.5550973638
 21
338.7342590193
 31
0.0
  0
LINE
  5
D2
330
1F
100
AcDbEntity
  8
0
  6
Continuous
 62
     7
370
    25
100
AcDbLine
 10
530.2845184777
 20
338.7342590193
 30
0.0
 11
528.5550973638
 21
338.7342590193
 31
0.0
  0
LINE
  5
D3
330
1F
100
AcDbEntity
  8
0
  6
Continuous
 62
     7
370
    25
100
AcDbLine
 10
530.2845184777
 20
336.4592577616
 30
0.0
 11
528.5550973638
 21
336.4592577616
 31
0.0
  0
LINE
  5
D4
330
1F
100
AcDbEntity
  8
0
  6
Continuous
 62
     7
370
    25
100
AcDbLine
 10
528.5550973638
 20
339.7342610458
 30
0.0
 11
528.5550973638
 21
342.0092585782
 31
0.0
  0
LINE
  5
D5
330
1F
100
AcDbEntity
  8
0
  6
Continuous
 62
     7
370
    25
100
AcDbLine
 10
528.5550973638
 20
339.7342610458
 30
0.0
 11
530.2845184777
 21
339.7342610458
 31
0.0
  0
LINE
  5
D6
330
1F
100
AcDbEntity
  8
0
  6
Continuous
 62
     7
370
    25
100
AcDbLine
 10
522.0126589555
 20
342.0092585782
 30
0.0
 11
522.0126589555
 21
339.7342610458
 31
0.0
  0
LINE
  5
D7
330
1F
100
AcDbEntity
  8
0
  6
Continuous
 62
     7
370
    25
100
AcDbLine
 10
528.5550973638
 20
339.7342610458
 30
0.0
 11
522.0126589555
 21
339.7342610458
 31
0.0
  0
LINE
  5
D8
330
1F
100
AcDbEntity
  8
0
  6
Continuous
 62
     7
370
    25
100
AcDbLine
 10
522.0126589555
 20
338.7342590193
 30
0.0
 11
522.0126589555
 21
336.4592577616
 31
0.0
  0
LINE
  5
D9
330
1F
100
AcDbEntity
  8
0
  6
Continuous
 62
     7
370
    25
100
AcDbLine
 10
522.0126589555
 20
338.7342590193
 30
0.0
 11
528.5550973638
 21
338.7342590193
 31
0.0
  0
LINE
  5
DA
330
1F
100
AcDbEntity
  8
0
  6
Continuous
 62
     7
370
    25
100
AcDbLine
 10
528.5550973638
 20
336.4592577616
 30
0.0
 11
522.0126589555
 21
336.4592577616
 31
0.0
  0
LINE
  5
DB
330
1F
100
AcDbEntity
  8
0
  6
Continuous
 62
     7
370
    25
100
AcDbLine
 10
538.2047631572
 20
342.0092585782
 30
0.0
 11
538.2047631572
 21
339.7342610458
 31
0.0
  0
LINE
  5
DC
330
1F
100
AcDbEntity
  8
0
  6
Continuous
 62
     7
370
    25
100
AcDbLine
 10
537.2574278879
 20
339.7342610458
 30
0.0
 11
538.2047631572
 21
339.7342610458
 31
0.0
  0
LINE
  5
DD
330
1F
100
AcDbEntity
  8
0
  6
Continuous
 62
     7
370
    25
100
AcDbLine
 10
538.2047631572
 20
338.7342590193
 30
0.0
 11
538.2047631572
 21
336.4592577616
 31
0.0
  0
LINE
  5
DE
330
1F
100
AcDbEntity
  8
0
  6
Continuous
 62
     7
370
    25
100
AcDbLine
 10
538.2047631572
 20
338.7342590193
 30
0.0
 11
537.2574278879
 21
338.7342590193
 31
0.0
  0
LINE
  5
DF
330
1F
100
AcDbEntity
  8
0
  6
Continuous
 62
     7
370
    25
100
AcDbLine
 10
538.2047631572
 20
336.4592577616
 30
0.0
 11
537.2574278879
 21
336.4592577616
 31
0.0
  0
LINE
  5
E0
330
1F
100
AcDbEntity
  8
0
  6
Continuous
 62
     7
370
    25
100
AcDbLine
 10
521.2305729072
 20
336.4592577616
 30
0.0
 11
521.2305729072
 21
338.7342590193
 31
0.0
  0
LINE
  5
E1
330
1F
100
AcDbEntity
  8
0
  6
Continuous
 62
     7
370
    25
100
AcDbLine
 10
522.0126589555
 20
338.7342590193
 30
0.0
 11
521.2305729072
 21
338.7342590193
 31
0.0
  0
LINE
  5
E2
330
1F
100
AcDbEntity
  8
0
  6
Continuous
 62
     7
370
    25
100
AcDbLine
 10
522.0126589555
 20
336.4592577616
 30
0.0
 11
521.2305729072
 21
336.4592577616
 31
0.0
  0
LINE
  5
E3
330
1F
100
AcDbEntity
  8
0
  6
Continuous
 62
     7
370
    25
100
AcDbLine
 10
521.2305729072
 20
339.7342610458
 30
0.0
 11
521.2305729072
 21
342.0092585782
 31
0.0
  0
LINE
  5
E4
330
1F
100
AcDbEntity
  8
0
  6
Continuous
 62
     7
370
    25
100
AcDbLine
 10
521.2305729072
 20
339.7342610458
 30
0.0
 11
522.0126589555
 21
339.7342610458
 31
0.0
  0
LINE
  5
E5
330
1F
100
AcDbEntity
  8
0
  6
Continuous
 62
     7
370
    25
100
AcDbLine
 10
538.6352334897
 20
339.7342610458
 30
0.0
 11
538.6352334897
 21
342.0092585782
 31
0.0
  0
LINE
  5
E6
330
1F
100
AcDbEntity
  8
0
  6
Continuous
 62
     7
370
    25
100
AcDbLine
 10
538.6352334897
 20
339.7342610458
 30
0.0
 11
538.2047631572
 21
339.7342610458
 31
0.0
  0
LINE
  5
E7
330
1F
100
AcDbEntity
  8
0
  6
Continuous
 62
     7
370
    25
100
AcDbLine
 10
538.6352334897
 20
336.4592577616
 30
0.0
 11
538.6352334897
 21
338.7342590193
 31
0.0
  0
LINE
  5
E8
330
1F
100
AcDbEntity
  8
0
  6
Continuous
 62
     7
370
    25
100
AcDbLine
 10
538.2047631572
 20
338.7342590193
 30
0.0
 11
538.6352334897
 21
338.7342590193
 31
0.0
  0
LINE
  5
E9
330
1F
100
AcDbEntity
  8
0
  6
Continuous
 62
     7
370
    25
100
AcDbLine
 10
538.6352334897
 20
336.4592577616
 30
0.0
 11
538.2047631572
 21
336.4592577616
 31
0.0
  0
LINE
  5
EA
330
1F
100
AcDbEntity
  8
0
  6
Continuous
 62
     7
370
    25
100
AcDbLine
 10
654.3936143424
 20
792.5092849234
 30
0.0
 11
538.9742721598
 21
792.5092849234
 31
0.0
  0
SPLINE
  5
EB
330
1F
100
AcDbEntity
  8
0
  6
Continuous
 62
     7
370
    25
100
AcDbSpline
210
0.0
220
0.0
230
1.0
 70
     8
 71
     3
 72
    13
 73
     9
 74
     0
 42
0.000000001
 43
0.00000001
 40
0.0
 40
0.0
 40
0.0
 40
0.0
 40
0.2065389987822535
 40
0.4130010221271679
 40
0.6217067376082196
 40
0.8359071832777855
 40
0.9975560514764638
 40
1.0
 40
1.0
 40
1.0
 40
1.0
 10
538.974272159809
 20
792.5092849234471
 30
0.0
 10
538.9578086823288
 20
793.0595917604705
 30
0.0
 10
538.9248878631756
 20
794.1600003395489
 30
0.0
 10
538.6666829411124
 20
795.628189858079
 30
0.0
 10
538.2775199053857
 20
796.763850117536
 30
0.0
 10
537.8146179316421
 20
797.3851662111664
 30
0.0
 10
537.4840761849053
 20
797.5081897471449
 30
0.0
 10
537.3388065286032
 20
797.5092641531982
 30
0.0
 10
537.3366429265083
 20
797.5092801550754
 30
0.0
  0
SPLINE
  5
EC
330
1F
100
AcDbEntity
  8
0
  6
Continuous
 62
     7
370
    25
100
AcDbSpline
210
0.0
220
0.0
230
1.0
 70
     8
 71
     3
 72
    13
 73
     9
 74
     0
 42
0.000000001
 43
0.00000001
 40
0.0
 40
0.0
 40
0.0
 40
0.0
 40
0.0024443595781884
 40
0.1640929543646552
 40
0.3782936512594726
 40
0.5869991497401937
 40
0.7934611032550717
 40
1.0
 40
1.0
 40
1.0
 40
1.0
 10
649.5271931196988
 20
797.5092801550754
 30
0.0
 10
649.5332577533586
 20
797.5092641545508
 30
0.0
 10
649.9403842920408
 20
797.5081900190706
 30
0.0
 10
650.883289003783
 20
797.3851652644267
 30
0.0
 10
652.2513291112588
 20
796.7638515540061
 30
0.0
 10
653.4362872316494
 20
795.62818914586
 30
0.0
 10
654.2386670931462
 20
794.160000572228
 30
0.0
 10
654.3419588447903
 20
793.0595918094654
 30
0.0
 10
654.3936143423856
 20
792.509284923447
 30
0.0
  0
LINE
  5
ED
330
1F
100
AcDbEntity
  8
0
  6
Continuous
 62
     7
370
    25
100
AcDbLine
 10
537.3366429265
 20
797.5092801551
 30
0.0
 11
649.5271931197
 21
797.5092801551
 31
0.0
  0
LINE
  5
EE
330
1F
100
AcDbEntity
  8
0
  6
Continuous
 62
     7
370
    25
100
AcDbLine
 10
538.9742721598
 20
770.0092467765
 30
0.0
 11
538.9742721598
 21
792.5092849234
 31
0.0
  0
LINE
  5
EF
330
1F
100
AcDbEntity
  8
0
  6
Continuous
 62
     7
370
    25
100
AcDbLine
 10
654.3936143424
 20
792.5092849234
 30
0.0
 11
654.3936143424
 21
770.0092467765
 31
0.0
  0
LINE
  5
F0
330
1F
100
AcDbEntity
  8
0
  6
Continuous
 62
     7
370
    25
100
AcDbLine
 10
538.9742721598
 20
770.0092467765
 30
0.0
 11
654.3936143424
 21
770.0092467765
 31
0.0
  0
LINE
  5
F1
330
1F
100
AcDbEntity
  8
0
  6
Continuous
 62
     7
370
    25
100
AcDbLine
 10
518.3257731404
 20
792.5092849234
 30
0.0
 11
405.2611152436
 21
792.5092849234
 31
0.0
  0
SPLINE
  5
F2
330
1F
100
AcDbEntity
  8
0
  6
Continuous
 62
     7
370
    25
100
AcDbSpline
210
0.0
220
0.0
230
1.0
 70
     8
 71
     3
 72
    13
 73
     9
 74
     0
 42
0.000000001
 43
0.00000001
 40
0.0
 40
0.0
 40
0.0
 40
0.0
 40
0.206539000786328
 40
0.4130010434841876
 40
0.6217067339375912
 40
0.8359071816855717
 40
0.9975560514527497
 40
1.0
 40
1.0
 40
1.0
 40
1.0
 10
405.2611152436078
 20
792.509284923447
 30
0.0
 10
405.313121037157
 20
793.0595917774153
 30
0.0
 10
405.4171132464796
 20
794.1600004366039
 30
0.0
 10
406.2249852106179
 20
795.6281896693353
 30
0.0
 10
407.4182204893668
 20
796.7638502206687
 30
0.0
 10
408.7960828432566
 20
797.3851661953064
 30
0.0
 10
409.7460176082782
 20
797.5081897471741
 30
0.0
 10
410.1562138884162
 20
797.5092641531987
 30
0.0
 10
410.1623232271016
 20
797.5092801550754
 30
0.0
  0
SPLINE
  5
F3
330
1F
100
AcDbEntity
  8
0
  6
Continuous
 62
     7
370
    25
100
AcDbSpline
210
0.0
220
0.0
230
1.0
 70
     8
 71
     3
 72
    13
 73
     9
 74
     0
 42
0.000000001
 43
0.00000001
 40
0.0
 40
0.0
 40
0.0
 40
0.0
 40
0.2065389890571864
 40
0.413001464040167
 40
0.6217070558015058
 40
0.8359078484330115
 40
0.9975565154680814
 40
1.0
 40
1.0
 40
1.0
 40
1.0
 10
518.325773140365
 20
792.509284923447
 30
0.0
 10
518.3433043940627
 20
793.0595921312974
 30
0.0
 10
518.3783604068603
 20
794.1600026811485
 30
0.0
 10
518.6531632904323
 20
795.6281872299637
 30
0.0
 10
519.0668296240427
 20
796.7638518271275
 30
0.0
 10
519.5580490583031
 20
797.385165371398
 30
0.0
 10
519.9080562223678
 20
797.5081894483898
 30
0.0
 10
520.0617753535186
 20
797.5092641517443
 30
0.0
 10
520.064064374143
 20
797.5092801550754
 30
0.0
  0
LINE
  5
F4
330
1F
100
AcDbEntity
  8
0
  6
Continuous
 62
     7
370
    25
100
AcDbLine
 10
410.1623232271
 20
797.5092801551
 30
0.0
 11
520.0640643741
 21
797.5092801551
 31
0.0
  0
LINE
  5
F5
330
1F
100
AcDbEntity
  8
0
  6
Continuous
 62
     7
370
    25
100
AcDbLine
 10
405.2611152436
 20
770.0092467765
 30
0.0
 11
405.2611152436
 21
792.5092849234
 31
0.0
  0
LINE
  5
F6
330
1F
100
AcDbEntity
  8
0
  6
Continuous
 62
     7
370
    25
100
AcDbLine
 10
518.3257731404
 20
770.0092467765
 30
0.0
 11
518.3257731404
 21
792.5092849234
 31
0.0
  0
LINE
  5
F7
330
1F
100
AcDbEntity
  8
0
  6
Continuous
 62
     7
370
    25
100
AcDbLine
 10
405.2611152436
 20
770.0092467765
 30
0.0
 11
518.3257731404
 21
770.0092467765
 31
0.0
  0
LINE
  5
F8
330
1F
100
AcDbEntity
  8
0
  6
Continuous
 62
     7
370
    25
100
AcDbLine
 10
538.9742721598
 20
792.5092849234
 30
0.0
 11
518.3257731404
 21
792.5092849234
 31
0.0
  0
LINE
  5
F9
330
1F
100
AcDbEntity
  8
0
  6
Continuous
 62
     7
370
    25
100
AcDbLine
 10
520.0640643741
 20
797.5092801551
 30
0.0
 11
537.3366429265
 21
797.5092801551
 31
0.0
  0
LINE
  5
FA
330
1F
100
AcDbEntity
  8
0
  6
Continuous
 62
     7
370
    25
100
AcDbLine
 10
518.3257731404
 20
770.0092467765
 30
0.0
 11
538.9742721598
 21
770.0092467765
 31
0.0
  0
LINE
  5
FB
330
1F
100
AcDbEntity
  8
0
  6
Continuous
 62
     7
370
    25
100
AcDbLine
 10
649.5271931197
 20
797.5092801551
 30
0.0
 11
652.4280394222
 21
797.5092801551
 31
0.0
  0
LINE
  5
FC
330
1F
100
AcDbEntity
  8
0
  6
Continuous
 62
     7
370
    25
100
AcDbLine
 10
657.4280421044
 20
770.0092467765
 30
0.0
 11
654.3936143424
 21
770.0092467765
 31
0.0
  0
LINE
  5
FD
330
1F
100
AcDbEntity
  8
0
  6
Continuous
 62
     7
370
    25
100
AcDbLine
 10
407.4394861962
 20
797.5092801551
 30
0.0
 11
410.1623232271
 21
797.5092801551
 31
0.0
  0
LINE
  5
FE
330
1F
100
AcDbEntity
  8
0
  6
Continuous
 62
     7
370
    25
100
AcDbLine
 10
402.4394909646
 20
770.0092467765
 30
0.0
 11
405.2611152436
 21
770.0092467765
 31
0.0
  0
LWPOLYLINE
  5
FF
330
1F
100
AcDbEntity
  8
0
  6
Continuous
 62
     7
370
    25
100
AcDbPolyline
 90
       19
 70
   128
 43
0.0
 10
495.1556074228
 20
305.5144894222
 10
494.6774254348
 20
305.9278755734
 10
494.1573823597
 20
305.9892348299
 10
493.6582120861
 20
305.6911631773
 10
493.2401190306
 20
305.0696152548
 10
492.9535287227
 20
304.1995588044
 10
492.8330118563
 20
303.1859333912
 10
492.8931007888
 20
302.1509993175
 10
493.1265535559
 20
301.2195836107
 10
493.505206963
 20
300.5040298501
 10
493.9833926763
 20
300.0906436989
 10
494.5034320261
 20
300.0292844424
 10
495.0026022996
 20
300.3273542324
 10
495.4206990804
 20
300.9489021549
 10
495.7072893884
 20
301.8189604679
 10
495.8278062548
 20
302.8325840185
 10
495.767713597
 20
303.8675180922
 10
495.5342608299
 20
304.798933799
 10
495.1556074228
 20
305.5144894222
  0
SPLINE
  5
100
330
1F
100
AcDbEntity
  8
0
  6
Continuous
 62
     7
370
    25
100
AcDbSpline
210
0.0
220
0.0
230
1.0
 70
     8
 71
     3
 72
     9
 73
     5
 74
     0
 42
0.000000001
 43
0.00000001
 40
0.0
 40
0.0
 40
0.0
 40
0.0
 40
0.1289594843492887
 40
1.0
 40
1.0
 40
1.0
 40
1.0
 10
493.9184087123216
 20
305.0737894425519
 30
0.0
 10
493.8984643106891
 20
304.9911254141711
 30
0.0
 10
493.7438079724357
 20
304.3501176682273
 30
0.0
 10
493.4976136846877
 20
303.7061684197977
 30
0.0
 10
493.2831684853376
 20
303.1452625343927
 30
0.0
  0
LINE
  5
101
330
1F
100
AcDbEntity
  8
0
  6
Continuous
 62
     7
370
    25
100
AcDbLine
 10
493.2831684853
 20
303.1452625344
 30
0.0
 11
493.800626209
 21
301.080732728
 31
0.0
  0
LINE
  5
102
330
1F
100
AcDbEntity
  8
0
  6
Continuous
 62
     7
370
    25
100
AcDbLine
 10
493.800626209
 20
301.080732728
 30
0.0
 11
494.9533204343
 21
300.9447279672
 31
0.0
  0
SPLINE
  5
103
330
1F
100
AcDbEntity
  8
0
  6
Continuous
 62
     7
370
    25
100
AcDbSpline
210
0.0
220
0.0
230
1.0
 70
     8
 71
     3
 72
     9
 73
     5
 74
     0
 42
0.000000001
 43
0.00000001
 40
0.0
 40
0.0
 40
0.0
 40
0.0
 40
0.871040864135797
 40
1.0
 40
1.0
 40
1.0
 40
1.0
 10
494.9533204342664
 20
300.9447279671558
 30
0.0
 10
495.1677708916754
 20
301.5056330983058
 30
0.0
 10
495.41397111745
 20
302.149581223181
 30
0.0
 10
495.5686175862672
 20
302.7905908303002
 30
0.0
 10
495.5885606612504
 20
302.873254875315
 30
0.0
  0
LINE
  5
104
330
1F
100
AcDbEntity
  8
0
  6
Continuous
 62
     7
370
    25
100
AcDbLine
 10
495.5885606613
 20
302.8732548753
 30
0.0
 11
495.0711066629
 21
304.9377865443
 31
0.0
  0
LINE
  5
105
330
1F
100
AcDbEntity
  8
0
  6
Continuous
 62
     7
370
    25
100
AcDbLine
 10
495.0711066629
 20
304.9377865443
 30
0.0
 11
493.9184087123
 21
305.0737894426
 31
0.0
  0
LINE
  5
106
330
1F
100
AcDbEntity
  8
0
  6
Continuous
 62
     7
370
    25
100
AcDbLine
 10
494.9997673537
 20
301.080732728
 30
0.0
 11
493.800626209
 21
301.080732728
 31
0.0
  0
LINE
  5
107
330
1F
100
AcDbEntity
  8
0
  6
Continuous
 62
     7
370
    25
100
AcDbLine
 10
495.5203841235
 20
303.1452625344
 30
0.0
 11
493.2831684853
 21
303.1452625344
 31
0.0
  0
LWPOLYLINE
  5
108
330
1F
100
AcDbEntity
  8
0
  6
Continuous
 62
     7
370
    25
100
AcDbPolyline
 90
       19
 70
   128
 43
0.0
 10
566.3605975713
 20
305.5144894222
 10
565.8824155833
 20
305.9278755734
 10
565.3623725082
 20
305.9892348299
 10
564.8632022347
 20
305.6911631773
 10
564.4451091792
 20
305.0696152548
 10
564.1585188712
 20
304.1995588044
 10
564.0380020048
 20
303.1859333912
 10
564.0980909373
 20
302.1509993175
 10
564.3315437044
 20
301.2195836107
 10
564.7101971115
 20
300.5040298501
 10
565.1883828248
 20
300.0906436989
 10
565.7084221746
 20
300.0292844424
 10
566.2075924482
 20
300.3273542324
 10
566.6256892289
 20
300.9489021549
 10
566.9122795369
 20
301.8189604679
 10
567.0327964033
 20
302.8325840185
 10
566.9727037455
 20
303.8675180922
 10
566.7392509784
 20
304.798933799
 10
566.3605975713
 20
305.5144894222
  0
SPLINE
  5
109
330
1F
100
AcDbEntity
  8
0
  6
Continuous
 62
     7
370
    25
100
AcDbSpline
210
0.0
220
0.0
230
1.0
 70
     8
 71
     3
 72
     9
 73
     5
 74
     0
 42
0.000000001
 43
0.00000001
 40
0.0
 40
0.0
 40
0.0
 40
0.0
 40
0.1289590913020988
 40
1.0
 40
1.0
 40
1.0
 40
1.0
 10
564.9124841000379
 20
305.0737894425519
 30
0.0
 10
564.877970504285
 20
304.9911253954102
 30
0.0
 10
564.6103383784347
 20
304.3501155502947
 30
0.0
 10
564.4323120702805
 20
303.7061675690928
 30
0.0
 10
564.2772438730539
 20
303.1452625343927
 30
0.0
  0
LINE
  5
10A
330
1F
100
AcDbEntity
  8
0
  6
Continuous
 62
     7
370
    25
100
AcDbLine
 10
564.2772438731
 20
303.1452625344
 30
0.0
 11
564.7947015967
 21
301.080732728
 31
0.0
  0
LINE
  5
10B
330
1F
100
AcDbEntity
  8
0
  6
Continuous
 62
     7
370
    25
100
AcDbLine
 10
564.7947015967
 20
301.080732728
 30
0.0
 11
565.9473995473
 21
300.9447279672
 31
0.0
  0
SPLINE
  5
10C
330
1F
100
AcDbEntity
  8
0
  6
Continuous
 62
     7
370
    25
100
AcDbSpline
210
0.0
220
0.0
230
1.0
 70
     8
 71
     3
 72
     9
 73
     5
 74
     0
 42
0.000000001
 43
0.00000001
 40
0.0
 40
0.0
 40
0.0
 40
0.0
 40
0.871040853610212
 40
0.9999999999999999
 40
0.9999999999999999
 40
0.9999999999999999
 40
0.9999999999999999
 10
565.947399547273
 20
300.9447279671558
 30
0.0
 10
566.1024660124303
 20
301.5056331210873
 30
0.0
 10
566.2804903433381
 20
302.1495812798982
 30
0.0
 10
566.5481224419793
 20
302.7905908308027
 30
0.0
 10
566.5826360489667
 20
302.873254875315
 30
0.0
  0
LINE
  5
10D
330
1F
100
AcDbEntity
  8
0
  6
Continuous
 62
     7
370
    25
100
AcDbLine
 10
566.582636049
 20
302.8732548753
 30
0.0
 11
566.0651820506
 21
304.9377865443
 31
0.0
  0
LINE
  5
10E
330
1F
100
AcDbEntity
  8
0
  6
Continuous
 62
     7
370
    25
100
AcDbLine
 10
566.0651820506
 20
304.9377865443
 30
0.0
 11
564.9124841
 21
305.0737894426
 31
0.0
  0
LINE
  5
10F
330
1F
100
AcDbEntity
  8
0
  6
Continuous
 62
     7
370
    25
100
AcDbLine
 10
564.8565302398
 20
304.9377865443
 30
0.0
 11
566.0651820506
 21
304.9377865443
 31
0.0
  0
LINE
  5
110
330
1F
100
AcDbEntity
  8
0
  6
Continuous
 62
     7
370
    25
100
AcDbLine
 10
564.3454204108
 20
302.8732548753
 30
0.0
 11
566.582636049
 21
302.8732548753
 31
0.0
  0
LWPOLYLINE
  5
111
330
1F
100
AcDbEntity
  8
0
  6
Continuous
 62
     7
370
    25
100
AcDbPolyline
 90
       19
 70
   128
 43
0.0
 10
495.0385066475
 20
326.1727030674
 10
495.281049123
 20
327.0947831968
 10
495.3512782957
 20
328.1271617214
 10
495.2407228555
 20
329.1453170875
 10
494.962723067
 20
330.026448826
 10
494.5508028175
 20
330.6642781297
 10
494.0546500291
 20
330.9818740288
 10
493.5341114904
 20
330.9409256379
 10
493.0519620683
 20
330.5463764171
 10
492.66636472
 20
329.8458132247
 10
492.4238222446
 20
328.9237368206
 10
492.3535930719
 20
327.891358296
 10
492.4641485121
 20
326.8731992046
 10
492.7421483006
 20
325.9920674662
 10
493.15406855
 20
325.3542381624
 10
493.6502213384
 20
325.0366459886
 10
494.1707636024
 20
325.0775906543
 10
494.6529092993
 20
325.4721398751
 10
495.0385066475
 20
326.1727030674
  0
SPLINE
  5
112
330
1F
100
AcDbEntity
  8
0
  6
Continuous
 62
     7
370
    25
100
AcDbSpline
210
0.0
220
0.0
230
1.0
 70
     8
 71
     3
 72
     9
 73
     5
 74
     0
 42
0.000000001
 43
0.00000001
 40
0.0
 40
0.0
 40
0.0
 40
0.0
 40
0.1289591130776115
 40
1.0
 40
1.0
 40
1.0
 40
1.0
 10
495.0265968944371
 20
328.8837979833015
 30
0.0
 10
494.9947450863638
 20
328.94439773504
 30
0.0
 10
494.7477535608078
 20
329.4143121931372
 30
0.0
 10
494.4088002430937
 20
329.8863847128865
 30
0.0
 10
494.1135580446065
 20
330.2975791791804
 30
0.0
  0
LINE
  5
113
330
1F
100
AcDbEntity
  8
0
  6
Continuous
 62
     7
370
    25
100
AcDbLine
 10
494.1135580446
 20
330.2975791792
 30
0.0
 11
493.0448542144
 21
329.4230412046
 31
0.0
  0
LINE
  5
114
330
1F
100
AcDbEntity
  8
0
  6
Continuous
 62
     7
370
    25
100
AcDbLine
 10
493.0448542144
 20
329.4230412046
 30
0.0
 11
492.889189234
 21
327.1347220341
 31
0.0
  0
SPLINE
  5
115
330
1F
100
AcDbEntity
  8
0
  6
Continuous
 62
     7
370
    25
100
AcDbSpline
210
0.0
220
0.0
230
1.0
 70
     8
 71
     3
 72
     9
 73
     5
 74
     0
 42
0.000000001
 43
0.00000001
 40
0.0
 40
0.0
 40
0.0
 40
0.0
 40
0.8710408869223885
 40
1.0
 40
1.0
 40
1.0
 40
1.0
 10
492.8891892339528
 20
327.1347220341094
 30
0.0
 10
493.18443143244
 20
326.7235275678154
 30
0.0
 10
493.5233847501542
 20
326.2514550480662
 30
0.0
 10
493.7703762757101
 20
325.781540589969
 30
0.0
 10
493.8022280837835
 20
325.7209408382304
 30
0.0
  0
LINE
  5
116
330
1F
100
AcDbEntity
  8
0
  6
Continuous
 62
     7
370
    25
100
AcDbLine
 10
493.8022280838
 20
325.7209408382
 30
0.0
 11
494.870931914
 21
326.5954788128
 31
0.0
  0
LINE
  5
117
330
1F
100
AcDbEntity
  8
0
  6
Continuous
 62
     7
370
    25
100
AcDbLine
 10
494.870931914
 20
326.5954788128
 30
0.0
 11
495.0265968944
 21
328.8837979833
 31
0.0
  0
LINE
  5
118
330
1F
100
AcDbEntity
  8
0
  6
Continuous
 62
     7
370
    25
100
AcDbLine
 10
494.6927922572
 20
329.4230412046
 30
0.0
 11
493.0448542144
 21
329.4230412046
 31
0.0
  0
LINE
  5
119
330
1F
100
AcDbEntity
  8
0
  6
Continuous
 62
     7
370
    25
100
AcDbLine
 10
494.9076148476
 20
327.1347220341
 30
0.0
 11
492.889189234
 21
327.1347220341
 31
0.0
  0
LWPOLYLINE
  5
11A
330
1F
100
AcDbEntity
  8
0
  6
Continuous
 62
     7
370
    25
100
AcDbPolyline
 90
       19
 70
   128
 43
0.0
 10
567.1994435396
 20
326.1727030674
 10
567.4419822897
 20
327.0947831968
 10
567.5122114624
 20
328.1271617214
 10
567.4016597475
 20
329.1453170875
 10
567.1236562337
 20
330.026448826
 10
566.7117397096
 20
330.6642781297
 10
566.2155869211
 20
330.9818740288
 10
565.6950446572
 20
330.9409256379
 10
565.2128989603
 20
330.5463764171
 10
564.8272978868
 20
329.8458132247
 10
564.5847591366
 20
328.9237368206
 10
564.5145299639
 20
327.891358296
 10
564.6250816788
 20
326.8731992046
 10
564.9030851926
 20
325.9920674662
 10
565.3150017168
 20
325.3542381624
 10
565.8111545052
 20
325.0366459886
 10
566.3316967692
 20
325.0775906543
 10
566.8138424661
 20
325.4721398751
 10
567.1994435396
 20
326.1727030674
  0
SPLINE
  5
11B
330
1F
100
AcDbEntity
  8
0
  6
Continuous
 62
     7
370
    25
100
AcDbSpline
210
0.0
220
0.0
230
1.0
 70
     8
 71
     3
 72
     9
 73
     5
 74
     0
 42
0.000000001
 43
0.00000001
 40
0.0
 40
0.0
 40
0.0
 40
0.0
 40
0.1289592848527038
 40
1.0
 40
1.0
 40
1.0
 40
1.0
 10
566.9766190256418
 20
328.8837979833015
 30
0.0
 10
566.9301967006177
 20
328.9443977290293
 30
0.0
 10
566.5702200996528
 20
329.4143115145859
 30
0.0
 10
566.299440356732
 20
329.8863844403346
 30
0.0
 10
566.0635801758111
 20
330.2975791791804
 30
0.0
  0
LINE
  5
11C
330
1F
100
AcDbEntity
  8
0
  6
Continuous
 62
     7
370
    25
100
AcDbLine
 10
566.0635801758
 20
330.2975791792
 30
0.0
 11
564.9948763456
 21
329.4230412046
 31
0.0
  0
LINE
  5
11D
330
1F
100
AcDbEntity
  8
0
  6
Continuous
 62
     7
370
    25
100
AcDbLine
 10
564.9948763456
 20
329.4230412046
 30
0.0
 11
564.8392076399
 21
327.1347220341
 31
0.0
  0
SPLINE
  5
11E
330
1F
100
AcDbEntity
  8
0
  6
Continuous
 62
     7
370
    25
100
AcDbSpline
210
0.0
220
0.0
230
1.0
 70
     8
 71
     3
 72
     9
 73
     5
 74
     0
 42
0.000000001
 43
0.00000001
 40
0.0
 40
0.0
 40
0.0
 40
0.0
 40
0.8710414446858815
 40
1.0
 40
1.0
 40
1.0
 40
1.0
 10
564.8392076398671
 20
327.1347220341094
 30
0.0
 10
565.075072359893
 20
326.7235284528124
 30
0.0
 10
565.3458570871469
 20
326.2514572513724
 30
0.0
 10
565.7058254851345
 20
325.7815406094862
 30
0.0
 10
565.7522464896978
 20
325.7209408382304
 30
0.0
  0
LINE
  5
11F
330
1F
100
AcDbEntity
  8
0
  6
Continuous
 62
     7
370
    25
100
AcDbLine
 10
565.7522464897
 20
325.7209408382
 30
0.0
 11
566.8209503199
 21
326.5954788128
 31
0.0
  0
LINE
  5
120
330
1F
100
AcDbEntity
  8
0
  6
Continuous
 62
     7
370
    25
100
AcDbLine
 10
566.8209503199
 20
326.5954788128
 30
0.0
 11
566.9766190256
 21
328.8837979833
 31
0.0
  0
LINE
  5
121
330
1F
100
AcDbEntity
  8
0
  6
Continuous
 62
     7
370
    25
100
AcDbLine
 10
565.1785517837
 20
326.5954788128
 30
0.0
 11
566.8209503199
 21
326.5954788128
 31
0.0
  0
LINE
  5
122
330
1F
100
AcDbEntity
  8
0
  6
Continuous
 62
     7
370
    25
100
AcDbLine
 10
564.958193412
 20
328.8837979833
 30
0.0
 11
566.9766190256
 21
328.8837979833
 31
0.0
  0
LINE
  5
123
330
1F
100
AcDbEntity
  8
0
  6
Continuous
 62
     7
370
    25
100
AcDbLine
 10
684.0826283004
 20
722.1092555026
 30
0.0
 11
679.5826266314
 21
722.1092555026
 31
0.0
  0
LINE
  5
124
330
1F
100
AcDbEntity
  8
0
  6
Continuous
 62
     7
370
    25
100
AcDbLine
 10
688.5826299693
 20
722.1092555026
 30
0.0
 11
684.0826283004
 21
722.1092555026
 31
0.0
  0
LINE
  5
125
330
1F
100
AcDbEntity
  8
0
  6
Continuous
 62
     7
370
    25
100
AcDbLine
 10
534.4337630812
 20
722.1092555026
 30
0.0
 11
525.4337630029
 21
722.1092555026
 31
0.0
  0
LINE
  5
126
330
1F
100
AcDbEntity
  8
0
  6
Continuous
 62
     7
370
    25
100
AcDbLine
 10
673.0829040314
 20
722.1092555026
 30
0.0
 11
668.5829023625
 21
722.1092555026
 31
0.0
  0
LINE
  5
127
330
1F
100
AcDbEntity
  8
0
  6
Continuous
 62
     7
370
    25
100
AcDbLine
 10
677.5829057004
 20
722.1092555026
 30
0.0
 11
673.0829040314
 21
722.1092555026
 31
0.0
  0
LINE
  5
128
330
1F
100
AcDbEntity
  8
0
  6
Continuous
 62
     7
370
    25
100
AcDbLine
 10
391.2829021718
 20
722.1092555026
 30
0.0
 11
382.2828988339
 21
722.1092555026
 31
0.0
  0
LINE
  5
129
330
1F
100
AcDbEntity
  8
0
  6
Continuous
 62
     7
370
    25
100
AcDbLine
 10
380.2831779029
 20
722.1092555026
 30
0.0
 11
371.2831894662
 21
722.1092555026
 31
0.0
  0
LINE
  5
12A
330
1F
100
AcDbEntity
  8
0
  6
Continuous
 62
     7
370
    25
100
AcDbLine
 10
680.582628658
 20
724.1508337954
 30
0.0
 11
687.5826279427
 21
724.1508337954
 31
0.0
  0
LWPOLYLINE
  5
12B
330
1F
100
AcDbEntity
  8
0
  6
Continuous
 62
     7
370
    25
100
AcDbPolyline
 90
        5
 70
   128
 43
0.0
 10
682.0576349999
 20
724.6200415591
 10
682.0572624709
 20
724.6236476401
 10
682.0570091512
 20
724.6262404422
 10
682.0568452384
 20
724.6277901629
 10
682.0568005349
 20
724.6282968024
  0
ARC
  5
12C
330
1F
100
AcDbEntity
  8
0
  6
Continuous
 62
     7
370
    25
100
AcDbCircle
 10
684.0829894695
 20
715.8177048443
 30
0.0
 40
9.032341466585848
100
AcDbArc
 50
95.2111320069
 51
102.9578153596
  0
SPLINE
  5
12D
330
1F
100
AcDbEntity
  8
0
  6
Continuous
 62
     7
370
    25
100
AcDbSpline
210
0.0
220
0.0
230
1.0
 70
     8
 71
     3
 72
    12
 73
     8
 74
     0
 42
0.000000001
 43
0.00000001
 40
0.0
 40
0.0
 40
0.0
 40
0.0
 40
0.2165902969333767
 40
0.433227572095343
 40
0.6487578511729827
 40
0.8638785692702291
 40
1.0
 40
1.0
 40
1.0
 40
1.0
 10
683.678300192529
 20
724.8127135733494
 30
0.0
 10
683.6732826019853
 20
724.8165544207627
 30
0.0
 10
683.6632463325875
 20
724.8242369486659
 30
0.0
 10
683.5902916603108
 20
724.8290220987228
 30
0.0
 10
683.4837962009474
 20
724.8278460503224
 30
0.0
 10
683.3677999413201
 20
724.8216900066036
 30
0.0
 10
683.2919950526717
 20
724.815220705578
 30
0.0
 10
683.2626173998655
 20
724.8127135733494
 30
0.0
  0
LWPOLYLINE
  5
12E
330
1F
100
AcDbEntity
  8
0
  6
Continuous
 62
     7
370
    25
100
AcDbPolyline
 90
        9
 70
   128
 43
0.0
 10
683.6976269986
 20
724.6200415591
 10
683.6943189408
 20
724.6530029277
 10
683.6912642028
 20
724.6834609012
 10
683.6884627845
 20
724.7113558749
 10
683.6859146859
 20
724.7367474536
 10
683.6836348082
 20
724.7595760325
 10
683.6815933492
 20
724.7798416118
 10
683.679820111
 20
724.7975441913
 10
683.6783001925
 20
724.8127135733
  0
ARC
  5
12F
330
1F
100
AcDbEntity
  8
0
  6
Continuous
 62
     7
370
    25
100
AcDbCircle
 10
684.0826208498
 20
715.654338998
 30
0.0
 40
8.973964713562237
100
AcDbArc
 50
87.5411876884
 51
92.4588123116
  0
LWPOLYLINE
  5
130
330
1F
100
AcDbEntity
  8
0
  6
Continuous
 62
     7
370
    25
100
AcDbPolyline
 90
        9
 70
   128
 43
0.0
 10
684.467614701
 20
724.6200415591
 10
684.4709227588
 20
724.6530029277
 10
684.4739774968
 20
724.6834609012
 10
684.4767789151
 20
724.7113558749
 10
684.4793270137
 20
724.7367474536
 10
684.4816217925
 20
724.7595760325
 10
684.4836483504
 20
724.7798416118
 10
684.4854364898
 20
724.7975441913
 10
684.486941507
 20
724.8127135733
  0
SPLINE
  5
131
330
1F
100
AcDbEntity
  8
0
  6
Continuous
 62
     7
370
    25
100
AcDbSpline
210
0.0
220
0.0
230
1.0
 70
     8
 71
     3
 72
    12
 73
     8
 74
     0
 42
0.000000001
 43
0.00000001
 40
0.0
 40
0.0
 40
0.0
 40
0.0
 40
0.2165908710350236
 40
0.4332392419402891
 40
0.6487665062069359
 40
0.8638959946526191
 40
1.0
 40
1.0
 40
1.0
 40
1.0
 10
684.9026242996991
 20
724.8127135733494
 30
0.0
 10
684.8557220092941
 20
724.816554429855
 30
0.0
 10
684.76190497701
 20
724.8242371625255
 30
0.0
 10
684.6371005998791
 20
724.8290220643495
 30
0.0
 10
684.543348285911
 20
724.827845759975
 30
0.0
 10
684.4944965594881
 20
724.821690847602
 30
0.0
 10
684.4890514881087
 20
724.8152207536607
 30
0.0
 10
684.4869415070356
 20
724.8127135733494
 30
0.0
  0
ARC
  5
132
330
1F
100
AcDbEntity
  8
0
  6
Continuous
 62
     7
370
    25
100
AcDbCircle
 10
684.0822771927
 20
715.8177043232
 30
0.0
 40
9.032339718297933
100
AcDbArc
 50
77.0422475801
 51
84.7890259866
  0
ARC
  5
133
330
1F
100
AcDbEntity
  8
0
  6
Continuous
 62
     7
370
    25
100
AcDbCircle
 10
693.9640303024
 20
723.8442414902
 30
0.0
 40
7.894619904262269
100
AcDbArc
 50
174.3002652037
 51
174.3604727676
  0
LINE
  5
134
330
1F
100
AcDbEntity
  8
0
  6
Continuous
 62
     7
370
    25
100
AcDbLine
 10
386.7829005029
 20
724.1508337954
 30
0.0
 11
390.2829001452
 21
724.1508337954
 31
0.0
  0
LINE
  5
135
330
1F
100
AcDbEntity
  8
0
  6
Continuous
 62
     7
370
    25
100
AcDbLine
 10
383.2829008605
 20
724.1508337954
 30
0.0
 11
386.7829005029
 21
724.1508337954
 31
0.0
  0
SPLINE
  5
136
330
1F
100
AcDbEntity
  8
0
  6
Continuous
 62
     7
370
    25
100
AcDbSpline
210
0.0
220
0.0
230
1.0
 70
     8
 71
     3
 72
    12
 73
     8
 74
     0
 42
0.000000001
 43
0.00000001
 40
0.0
 40
0.0
 40
0.0
 40
0.0
 40
0.2165937335058362
 40
0.4332251142196549
 40
0.6487702749853359
 40
0.8638939986080982
 40
0.9999999999999999
 40
0.9999999999999999
 40
0.9999999999999999
 40
0.9999999999999999
 10
387.6028965021909
 20
724.8127135733494
 30
0.0
 10
387.5559933464552
 20
724.8165544075638
 30
0.0
 10
387.4621788825186
 20
724.8242367435869
 30
0.0
 10
387.3373876721633
 20
724.8290222517879
 30
0.0
 10
387.2436148558642
 20
724.8278459983217
 30
0.0
 10
387.1947864309166
 20
724.8216906495715
 30
0.0
 10
387.1893394033818
 20
724.8152207442431
 30
0.0
 10
387.1872286106885
 20
724.8127135733494
 30
0.0
  0
ARC
  5
137
330
1F
100
AcDbEntity
  8
0
  6
Continuous
 62
     7
370
    25
100
AcDbCircle
 10
386.7826064152
 20
715.8180609342
 30
0.0
 40
9.031979402404152
100
AcDbArc
 50
77.0420928218
 51
84.7891807449
  0
ARC
  5
138
330
1F
100
AcDbEntity
  8
0
  6
Continuous
 62
     7
370
    25
100
AcDbCircle
 10
391.3848402305
 20
724.3637257965
 30
0.0
 40
2.589662267369395
100
AcDbArc
 50
174.1361864239
 51
174.3197629175
  0
ARC
  5
139
330
1F
100
AcDbEntity
  8
0
  6
Continuous
 62
     7
370
    25
100
AcDbCircle
 10
381.418854189
 20
724.2866897517
 30
0.0
 40
3.355651718173132
100
AcDbArc
 50
5.7011894565
 51
5.8428612021
  0
ARC
  5
13A
330
1F
100
AcDbEntity
  8
0
  6
Continuous
 62
     7
370
    25
100
AcDbCircle
 10
386.7832516106
 20
715.8177043232
 30
0.0
 40
9.032339718297933
100
AcDbArc
 50
95.2109740134
 51
102.9577524199
  0
SPLINE
  5
13B
330
1F
100
AcDbEntity
  8
0
  6
Continuous
 62
     7
370
    25
100
AcDbSpline
210
0.0
220
0.0
230
1.0
 70
     8
 71
     3
 72
    12
 73
     8
 74
     0
 42
0.000000001
 43
0.00000001
 40
0.0
 40
0.0
 40
0.0
 40
0.0
 40
0.216589601198773
 40
0.4332416319943707
 40
0.6487752299686378
 40
0.8638991931528229
 40
0.9999999999999999
 40
0.9999999999999999
 40
0.9999999999999999
 40
0.9999999999999999
 10
386.3785723950208
 20
724.8127135733494
 30
0.0
 10
386.3735621590488
 20
724.8165544417514
 30
0.0
 10
386.3635402429588
 20
724.8242372856439
 30
0.0
 10
386.2905604301802
 20
724.8290220251915
 30
0.0
 10
386.1840698735572
 20
724.8278459032916
 30
0.0
 10
386.0680765207197
 20
724.8216908349236
 30
0.0
 10
385.9922770566492
 20
724.815220752536
 30
0.0
 10
385.9629045035184
 20
724.8127135733494
 30
0.0
  0
LWPOLYLINE
  5
13C
330
1F
100
AcDbEntity
  8
0
  6
Continuous
 62
     7
370
    25
100
AcDbPolyline
 90
        9
 70
   128
 43
0.0
 10
386.378572395
 20
724.8127135733
 10
386.3800923135
 20
724.7975441913
 10
386.3818804528
 20
724.7798416118
 10
386.3839070107
 20
724.7595760325
 10
386.3862017896
 20
724.7367474536
 10
386.3887498881
 20
724.7113558749
 10
386.3915513064
 20
724.6834609012
 10
386.3946060445
 20
724.6530029277
 10
386.3979141023
 20
724.6200415591
  0
ARC
  5
13D
330
1F
100
AcDbEntity
  8
0
  6
Continuous
 62
     7
370
    25
100
AcDbCircle
 10
386.7829079534
 20
715.6541847208
 30
0.0
 40
8.974118848691262
100
AcDbArc
 50
87.5412299458
 51
92.4587700542
  0
LWPOLYLINE
  5
13E
330
1F
100
AcDbEntity
  8
0
  6
Continuous
 62
     7
370
    25
100
AcDbPolyline
 90
        9
 70
   128
 43
0.0
 10
387.1872286107
 20
724.8127135733
 10
387.1857086922
 20
724.7975441913
 10
387.1839354541
 20
724.7798416118
 10
387.181893995
 20
724.7595760325
 10
387.1796141173
 20
724.7367474536
 10
387.1770660188
 20
724.7113558749
 10
387.1742646004
 20
724.6834609012
 10
387.1712098624
 20
724.6530029277
 10
387.1679018046
 20
724.6200415591
  0
LWPOLYLINE
  5
13F
330
1F
100
AcDbEntity
  8
0
  6
Continuous
 62
     7
370
    25
100
AcDbPolyline
 90
        9
 70
   128
 43
0.0
 10
530.3380271214
 20
724.8127135733
 10
530.3365074358
 20
724.7975441913
 10
530.3347304142
 20
724.7798416118
 10
530.3326964057
 20
724.7595760325
 10
530.3304061088
 20
724.7367474536
 10
530.3278601057
 20
724.7113558749
 10
530.3250592113
 20
724.6834609012
 10
530.3220041822
 20
724.6530029277
 10
530.3186959498
 20
724.6200415591
  0
ARC
  5
140
330
1F
100
AcDbEntity
  8
0
  6
Continuous
 62
     7
370
    25
100
AcDbCircle
 10
526.6916868942
 20
725.1531994097
 30
0.0
 40
5.293925068296167
100
AcDbArc
 50
354.2198706956
 51
354.3096661118
  0
LINE
  5
141
330
1F
100
AcDbEntity
  8
0
  6
Continuous
 62
     7
370
    25
100
AcDbLine
 10
375.7831762339
 20
724.1508337954
 30
0.0
 11
379.2831758763
 21
724.1508337954
 31
0.0
  0
LINE
  5
142
330
1F
100
AcDbEntity
  8
0
  6
Continuous
 62
     7
370
    25
100
AcDbLine
 10
372.2831765916
 20
724.1508337954
 30
0.0
 11
375.7831762339
 21
724.1508337954
 31
0.0
  0
SPLINE
  5
143
330
1F
100
AcDbEntity
  8
0
  6
Continuous
 62
     7
370
    25
100
AcDbSpline
210
0.0
220
0.0
230
1.0
 70
     8
 71
     3
 72
    12
 73
     8
 74
     0
 42
0.000000001
 43
0.00000001
 40
0.0
 40
0.0
 40
0.0
 40
0.0
 40
0.2165908617444183
 40
0.4332392233566121
 40
0.6487663437764477
 40
0.8638958229942113
 40
1.0
 40
1.0
 40
1.0
 40
1.0
 10
376.6031871344388
 20
724.8127135733494
 30
0.0
 10
376.556284842451
 20
724.8165544298331
 30
0.0
 10
376.4624678070008
 20
724.8242371624593
 30
0.0
 10
376.3376634794728
 20
724.8290220636204
 30
0.0
 10
376.2439110858208
 20
724.8278457600985
 30
0.0
 10
376.195059380883
 20
724.8216908410554
 30
0.0
 10
376.1896143203361
 20
724.8152207532756
 30
0.0
 10
376.1875043417753
 20
724.8127135733494
 30
0.0
  0
ARC
  5
144
330
1F
100
AcDbEntity
  8
0
  6
Continuous
 62
     7
370
    25
100
AcDbCircle
 10
375.7826983478
 20
715.8168182392
 30
0.0
 40
9.033235008106336
100
AcDbArc
 50
77.04263206
 51
84.7886415067
  0
ARC
  5
145
330
1F
100
AcDbEntity
  8
0
  6
Continuous
 62
     7
370
    25
100
AcDbCircle
 10
385.6645931371
 20
723.8442414902
 30
0.0
 40
7.894619904262156
100
AcDbArc
 50
174.3002652037
 51
174.3604727676
  0
ARC
  5
146
330
1F
100
AcDbEntity
  8
0
  6
Continuous
 62
     7
370
    25
100
AcDbCircle
 10
365.901774232
 20
723.8442414902
 30
0.0
 40
7.894619904262156
100
AcDbArc
 50
5.6395272324
 51
5.6997347963
  0
ARC
  5
147
330
1F
100
AcDbEntity
  8
0
  6
Continuous
 62
     7
370
    25
100
AcDbCircle
 10
375.7836148188
 20
715.8171572292
 30
0.0
 40
9.032892496172101
100
AcDbArc
 50
95.2112114115
 51
102.9575150219
  0
SPLINE
  5
148
330
1F
100
AcDbEntity
  8
0
  6
Continuous
 62
     7
370
    25
100
AcDbSpline
210
0.0
220
0.0
230
1.0
 70
     8
 71
     3
 72
    12
 73
     8
 74
     0
 42
0.000000001
 43
0.00000001
 40
0.0
 40
0.0
 40
0.0
 40
0.0
 40
0.2165906210412349
 40
0.4332282203813582
 40
0.648758821980635
 40
0.8639010852432332
 40
1.0
 40
1.0
 40
1.0
 40
1.0
 10
375.3788630272687
 20
724.8127135733494
 30
0.0
 10
375.3738454503334
 20
724.8165544093215
 30
0.0
 10
375.3638092081551
 20
724.824236914339
 30
0.0
 10
375.290854332045
 20
724.8290222357729
 30
0.0
 10
375.1843561512411
 20
724.8278455011482
 30
0.0
 10
375.0683565576828
 20
724.821691339073
 30
0.0
 10
374.9925527070144
 20
724.8152207837965
 30
0.0
 10
374.9631802346051
 20
724.8127135733494
 30
0.0
  0
LWPOLYLINE
  5
149
330
1F
100
AcDbEntity
  8
0
  6
Continuous
 62
     7
370
    25
100
AcDbPolyline
 90
        9
 70
   128
 43
0.0
 10
375.3788630273
 20
724.8127135733
 10
375.3803829457
 20
724.7975441913
 10
375.3821561839
 20
724.7798416118
 10
375.3841827418
 20
724.7595760325
 10
375.3864775206
 20
724.7367474536
 10
375.3890256192
 20
724.7113558749
 10
375.3918270375
 20
724.6834609012
 10
375.3948817756
 20
724.6530029277
 10
375.3981898333
 20
724.6200415591
  0
ARC
  5
14A
330
1F
100
AcDbEntity
  8
0
  6
Continuous
 62
     7
370
    25
100
AcDbCircle
 10
375.7831836845
 20
715.654338998
 30
0.0
 40
8.973964713562237
100
AcDbArc
 50
87.5411876884
 51
92.4588123116
  0
LWPOLYLINE
  5
14B
330
1F
100
AcDbEntity
  8
0
  6
Continuous
 62
     7
370
    25
100
AcDbPolyline
 90
        9
 70
   128
 43
0.0
 10
376.1875043418
 20
724.8127135733
 10
376.1859844233
 20
724.7975441913
 10
376.1842111852
 20
724.7798416118
 10
376.1821846272
 20
724.7595760325
 10
376.1798898484
 20
724.7367474536
 10
376.1773417498
 20
724.7113558749
 10
376.1745403315
 20
724.6834609012
 10
376.1714855935
 20
724.6530029277
 10
376.1681775357
 20
724.6200415591
  0
LINE
  5
14C
330
1F
100
AcDbEntity
  8
0
  6
Continuous
 62
     7
370
    25
100
AcDbLine
 10
526.4337631668
 20
724.1508337954
 30
0.0
 11
533.4337631501
 21
724.1508337954
 31
0.0
  0
ARC
  5
14D
330
1F
100
AcDbEntity
  8
0
  6
Continuous
 62
     7
370
    25
100
AcDbCircle
 10
528.9826975701
 20
724.7320701087
 30
0.0
 40
1.079755818214535
100
AcDbArc
 50
185.515102509
 51
185.9553606835
  0
ARC
  5
14E
330
1F
100
AcDbEntity
  8
0
  6
Continuous
 62
     7
370
    25
100
AcDbCircle
 10
529.9341085936
 20
715.81774931
 30
0.0
 40
9.032294761649409
100
AcDbArc
 50
95.2109891015
 51
102.9577856605
  0
SPLINE
  5
14F
330
1F
100
AcDbEntity
  8
0
  6
Continuous
 62
     7
370
    25
100
AcDbSpline
210
0.0
220
0.0
230
1.0
 70
     8
 71
     3
 72
    12
 73
     8
 74
     0
 42
0.000000001
 43
0.00000001
 40
0.0
 40
0.0
 40
0.0
 40
0.0
 40
0.2165908554568908
 40
0.4332392406533317
 40
0.6487664299524787
 40
0.8638959107457346
 40
1.0
 40
1.0
 40
1.0
 40
1.0
 10
529.5294379610062
 20
724.8127135733494
 30
0.0
 10
529.5244222789169
 20
724.8165544298928
 30
0.0
 10
529.5143895824988
 20
724.8242371631682
 30
0.0
 10
529.4414322102954
 20
724.8290220637467
 30
0.0
 10
529.3349315160604
 20
724.8278457601116
 30
0.0
 10
529.2189380970652
 20
724.8216908443175
 30
0.0
 10
529.1431365382911
 20
724.8152207534653
 30
0.0
 10
529.1137632009999
 20
724.8127135733494
 30
0.0
  0
LWPOLYLINE
  5
150
330
1F
100
AcDbEntity
  8
0
  6
Continuous
 62
     7
370
    25
100
AcDbPolyline
 90
        9
 70
   128
 43
0.0
 10
529.529437961
 20
724.8127135733
 10
529.5309576175
 20
724.7975441913
 10
529.5327346974
 20
724.7798416118
 10
529.5347686768
 20
724.7595760325
 10
529.5370590027
 20
724.7367474536
 10
529.5396049767
 20
724.7113558749
 10
529.5424058712
 20
724.6834609012
 10
529.5454608711
 20
724.6530029277
 10
529.5487691326
 20
724.6200415591
  0
ARC
  5
151
330
1F
100
AcDbEntity
  8
0
  6
Continuous
 62
     7
370
    25
100
AcDbCircle
 10
529.9337632167
 20
715.6542526642
 30
0.0
 40
8.974050977799378
100
AcDbArc
 50
87.5412098507
 51
92.4587901493
  0
LWPOLYLINE
  5
152
330
1F
100
AcDbEntity
  8
0
  6
Continuous
 62
     7
370
    25
100
AcDbPolyline
 90
        9
 70
   128
 43
0.0
 10
530.3380884723
 20
724.8127135733
 10
530.3365688449
 20
724.7975441913
 10
530.334791765
 20
724.7798416118
 10
530.3327577565
 20
724.7595760325
 10
530.3304674597
 20
724.7367474536
 10
530.3279215148
 20
724.7113558749
 10
530.3251205622
 20
724.6834609012
 10
530.3220655913
 20
724.6530029277
 10
530.3187573007
 20
724.6200415591
  0
SPLINE
  5
153
330
1F
100
AcDbEntity
  8
0
  6
Continuous
 62
     7
370
    25
100
AcDbSpline
210
0.0
220
0.0
230
1.0
 70
     8
 71
     3
 72
    12
 73
     8
 74
     0
 42
0.000000001
 43
0.00000001
 40
0.0
 40
0.0
 40
0.0
 40
0.0
 40
0.2165905403211191
 40
0.4332282249413218
 40
0.6487588337642384
 40
0.8639010704897616
 40
1.0
 40
1.0
 40
1.0
 40
1.0
 10
530.7537632323296
 20
724.8127135733494
 30
0.0
 10
530.7068610718135
 20
724.8165544096132
 30
0.0
 10
530.613046541797
 20
724.8242369181587
 30
0.0
 10
530.4882435707917
 20
724.8290222345166
 30
0.0
 10
530.3944846782682
 20
724.8278455021415
 30
0.0
 10
530.3456364064918
 20
724.8216913378592
 30
0.0
 10
530.34019637555
 20
724.815220783714
 30
0.0
 10
530.3380884723232
 20
724.8127135733494
 30
0.0
  0
ARC
  5
154
330
1F
100
AcDbEntity
  8
0
  6
Continuous
 62
     7
370
    25
100
AcDbCircle
 10
529.9334178397
 20
715.81774931
 30
0.0
 40
9.032294761649409
100
AcDbArc
 50
77.0422143395
 51
84.7890108985
  0
ARC
  5
155
330
1F
100
AcDbEntity
  8
0
  6
Continuous
 62
     7
370
    25
100
AcDbCircle
 10
530.9887000771
 20
724.7216378717
 30
0.0
 40
0.9753628942937876
100
AcDbArc
 50
354.0210788027
 51
354.5084580048
  0
LINE
  5
156
330
1F
100
AcDbEntity
  8
0
  6
Continuous
 62
     7
370
    25
100
AcDbLine
 10
669.5829043891
 20
724.1508337954
 30
0.0
 11
676.5829036738
 21
724.1508337954
 31
0.0
  0
LWPOLYLINE
  5
157
330
1F
100
AcDbEntity
  8
0
  6
Continuous
 62
     7
370
    25
100
AcDbPolyline
 90
        5
 70
   128
 43
0.0
 10
671.057910731
 20
724.6200415591
 10
671.0575531031
 20
724.6236476401
 10
671.0572848822
 20
724.6262404422
 10
671.0571358706
 20
724.6277901629
 10
671.057076266
 20
724.6282968024
  0
ARC
  5
158
330
1F
100
AcDbEntity
  8
0
  6
Continuous
 62
     7
370
    25
100
AcDbCircle
 10
673.0831981191
 20
715.8180609342
 30
0.0
 40
9.031979402404184
100
AcDbArc
 50
95.2108192551
 51
102.9579071782
  0
SPLINE
  5
159
330
1F
100
AcDbEntity
  8
0
  6
Continuous
 62
     7
370
    25
100
AcDbSpline
210
0.0
220
0.0
230
1.0
 70
     8
 71
     3
 72
    12
 73
     8
 74
     0
 42
0.000000001
 43
0.00000001
 40
0.0
 40
0.0
 40
0.0
 40
0.0
 40
0.2165950564551862
 40
0.4332374242137705
 40
0.6487726146206968
 40
0.8638981672110254
 40
0.9999999999999999
 40
0.9999999999999999
 40
0.9999999999999999
 40
0.9999999999999999
 10
672.6785759236158
 20
724.8127135733494
 30
0.0
 10
672.6735583212625
 20
724.8165544171547
 30
0.0
 10
672.663522020551
 20
724.8242369437293
 30
0.0
 10
672.5905674237404
 20
724.8290221464191
 30
0.0
 10
672.4840719703197
 20
724.827845865251
 30
0.0
 10
672.3680802488083
 20
724.8216908397593
 30
0.0
 10
672.2922806429009
 20
724.8152207540523
 30
0.0
 10
672.2629080321134
 20
724.8127135733494
 30
0.0
  0
LWPOLYLINE
  5
15A
330
1F
100
AcDbEntity
  8
0
  6
Continuous
 62
     7
370
    25
100
AcDbPolyline
 90
        9
 70
   128
 43
0.0
 10
672.6979027297
 20
724.6200415591
 10
672.6945946719
 20
724.6530029277
 10
672.6915399339
 20
724.6834609012
 10
672.6887385155
 20
724.7113558749
 10
672.6862053181
 20
724.7367474536
 10
672.6839105393
 20
724.7595760325
 10
672.6818690802
 20
724.7798416118
 10
672.6800958421
 20
724.7975441913
 10
672.6785759236
 20
724.8127135733
  0
ARC
  5
15B
330
1F
100
AcDbEntity
  8
0
  6
Continuous
 62
     7
370
    25
100
AcDbCircle
 10
673.0828965809
 20
715.6541847208
 30
0.0
 40
8.974118848691262
100
AcDbArc
 50
87.5412299458
 51
92.4587700542
  0
LWPOLYLINE
  5
15C
330
1F
100
AcDbEntity
  8
0
  6
Continuous
 62
     7
370
    25
100
AcDbPolyline
 90
        9
 70
   128
 43
0.0
 10
673.4678904321
 20
724.6200415591
 10
673.4711984898
 20
724.6530029277
 10
673.4742532279
 20
724.6834609012
 10
673.4770546462
 20
724.7113558749
 10
673.4796027448
 20
724.7367474536
 10
673.4818975236
 20
724.7595760325
 10
673.4839389827
 20
724.7798416118
 10
673.4857122208
 20
724.7975441913
 10
673.4872321393
 20
724.8127135733
  0
SPLINE
  5
15D
330
1F
100
AcDbEntity
  8
0
  6
Continuous
 62
     7
370
    25
100
AcDbSpline
210
0.0
220
0.0
230
1.0
 70
     8
 71
     3
 72
    12
 73
     8
 74
     0
 42
0.000000001
 43
0.00000001
 40
0.0
 40
0.0
 40
0.0
 40
0.0
 40
0.2165924803874753
 40
0.4332224882652416
 40
0.6487665052299303
 40
0.8638975921694373
 40
1.0
 40
1.0
 40
1.0
 40
1.0
 10
673.9029000307859
 20
724.8127135733494
 30
0.0
 10
673.8559970439037
 20
724.8165544039584
 30
0.0
 10
673.7621829435811
 20
724.824236730651
 30
0.0
 10
673.6373892028956
 20
724.8290222945878
 30
0.0
 10
673.5436243263748
 20
724.8278458289968
 30
0.0
 10
673.4947663529338
 20
724.8216909543795
 30
0.0
 10
673.489336282675
 20
724.8152207622671
 30
0.0
 10
673.4872321392835
 20
724.8127135733494
 30
0.0
  0
ARC
  5
15E
330
1F
100
AcDbEntity
  8
0
  6
Continuous
 62
     7
370
    25
100
AcDbCircle
 10
673.0826099438
 20
715.8180609342
 30
0.0
 40
9.031979402404158
100
AcDbArc
 50
77.0420928218
 51
84.7891807449
  0
LWPOLYLINE
  5
15F
330
1F
100
AcDbEntity
  8
0
  6
Continuous
 62
     7
370
    25
100
AcDbPolyline
 90
        5
 70
   128
 43
0.0
 10
675.1078973319
 20
724.6200415591
 10
675.1082549598
 20
724.6236476401
 10
675.1085231807
 20
724.6262404422
 10
675.1086721923
 20
724.6277901629
 10
675.1087317969
 20
724.6282968024
  0
LINE
  5
160
330
1F
100
AcDbEntity
  8
0
  6
Continuous
 62
     7
370
    25
100
AcDbLine
 10
850.4329035785
 20
721.3092717627
 30
0.0
 11
209.4329009558
 21
721.3092717627
 31
0.0
  0
LINE
  5
161
330
1F
100
AcDbEntity
  8
0
  6
Continuous
 62
     7
370
    25
100
AcDbLine
 10
852.4329076316
 20
703.309265087
 30
0.0
 11
207.4328969027
 21
703.309265087
 31
0.0
  0
LINE
  5
162
330
1F
100
AcDbEntity
  8
0
  6
Continuous
 62
     7
370
    25
100
AcDbLine
 10
667.182908466
 20
727.3092541198
 30
0.0
 11
392.6828960683
 21
727.3092541198
 31
0.0
  0
LINE
  5
163
330
1F
100
AcDbEntity
  8
0
  6
Continuous
 62
     7
370
    25
100
AcDbLine
 10
665.9841249492
 20
727.3634347419
 30
0.0
 11
393.8816795852
 21
727.3634347419
 31
0.0
  0
LINE
  5
164
330
1F
100
AcDbEntity
  8
0
  6
Continuous
 62
     7
370
    25
100
AcDbLine
 10
630.3463886287
 20
423.0092588166
 30
0.0
 11
630.6829015519
 21
423.0092588166
 31
0.0
  0
LINE
  5
165
330
1F
100
AcDbEntity
  8
0
  6
Continuous
 62
     7
370
    25
100
AcDbLine
 10
429.1829029824
 20
423.0092588166
 30
0.0
 11
524.9337633866
 21
423.0092588166
 31
0.0
  0
LINE
  5
166
330
1F
100
AcDbEntity
  8
0
  6
Continuous
 62
     7
370
    25
100
AcDbLine
 10
534.9337631631
 20
423.0092588166
 30
0.0
 11
630.3463886287
 21
423.0092588166
 31
0.0
  0
LINE
  5
167
330
1F
100
AcDbEntity
  8
0
  6
Continuous
 62
     7
370
    25
100
AcDbLine
 10
529.2325613116
 20
418.9930233458
 30
0.0
 11
530.9547434588
 21
418.8083979586
 31
0.0
  0
LINE
  5
168
330
1F
100
AcDbEntity
  8
0
  6
Continuous
 62
     7
370
    25
100
AcDbLine
 10
528.2115811277
 20
417.5938788155
 30
0.0
 11
529.2325613116
 21
418.9930233458
 31
0.0
  0
LINE
  5
169
330
1F
100
AcDbEntity
  8
0
  6
Continuous
 62
     7
370
    25
100
AcDbLine
 10
528.9127830327
 20
416.0101237992
 30
0.0
 11
528.2115811277
 21
417.5938788155
 31
0.0
  0
LINE
  5
16A
330
1F
100
AcDbEntity
  8
0
  6
Continuous
 62
     7
370
    25
100
AcDbLine
 10
530.6349651217
 20
415.825498412
 30
0.0
 11
528.9127830327
 21
416.0101237992
 31
0.0
  0
LINE
  5
16B
330
1F
100
AcDbEntity
  8
0
  6
Continuous
 62
     7
370
    25
100
AcDbLine
 10
531.6559453057
 20
417.2246280412
 30
0.0
 11
530.6349651217
 21
415.825498412
 31
0.0
  0
LINE
  5
16C
330
1F
100
AcDbEntity
  8
0
  6
Continuous
 62
     7
370
    25
100
AcDbLine
 10
530.9547434588
 20
418.8083979586
 30
0.0
 11
531.6559453057
 21
417.2246280412
 31
0.0
  0
CIRCLE
  5
16D
330
1F
100
AcDbEntity
  8
0
  6
Continuous
 62
     7
370
    25
100
AcDbCircle
 10
529.9337632258
 20
417.4092592232
 30
0.0
 40
3.149999999999964
  0
CIRCLE
  5
16E
330
1F
100
AcDbEntity
  8
0
  6
Continuous
 62
     7
370
    25
100
AcDbCircle
 10
529.9337632258
 20
417.4092592232
 30
0.0
 40
3.499999999999936
  0
LINE
  5
16F
330
1F
100
AcDbEntity
  8
0
  6
Continuous
 62
     7
370
    25
100
AcDbLine
 10
539.4337625037
 20
760.1092729072
 30
0.0
 11
539.4337625037
 21
767.6092657546
 31
0.0
  0
LINE
  5
170
330
1F
100
AcDbEntity
  8
0
  6
Continuous
 62
     7
370
    25
100
AcDbLine
 10
520.4337631147
 20
760.1092729072
 30
0.0
 11
524.9337633866
 21
760.1092729072
 31
0.0
  0
LINE
  5
171
330
1F
100
AcDbEntity
  8
0
  6
Continuous
 62
     7
370
    25
100
AcDbLine
 10
534.9337631631
 20
760.1092729072
 30
0.0
 11
539.4337625037
 21
760.1092729072
 31
0.0
  0
LINE
  5
172
330
1F
100
AcDbEntity
  8
0
  6
Continuous
 62
     7
370
    25
100
AcDbLine
 10
520.4337631147
 20
760.1092729072
 30
0.0
 11
520.4337631147
 21
767.6092657546
 31
0.0
  0
LINE
  5
173
330
1F
100
AcDbEntity
  8
0
  6
Continuous
 62
     7
370
    25
100
AcDbLine
 10
520.4337631147
 20
767.6092657546
 30
0.0
 11
539.4337625037
 21
767.6092657546
 31
0.0
  0
LINE
  5
174
330
1F
100
AcDbEntity
  8
0
  6
Continuous
 62
     7
370
    25
100
AcDbLine
 10
405.2952836062
 20
760.1092729072
 30
0.0
 11
405.2952836062
 21
767.6092657546
 31
0.0
  0
LINE
  5
175
330
1F
100
AcDbEntity
  8
0
  6
Continuous
 62
     7
370
    25
100
AcDbLine
 10
405.2952836062
 20
767.6092657546
 30
0.0
 11
520.4337631147
 21
767.6092657546
 31
0.0
  0
LINE
  5
176
330
1F
100
AcDbEntity
  8
0
  6
Continuous
 62
     7
370
    25
100
AcDbLine
 10
405.2952836062
 20
760.1092729072
 30
0.0
 11
520.4337631147
 21
760.1092729072
 31
0.0
  0
LINE
  5
177
330
1F
100
AcDbEntity
  8
0
  6
Continuous
 62
     7
370
    25
100
AcDbLine
 10
654.5722420122
 20
767.6092657546
 30
0.0
 11
654.5722420122
 21
760.1092729072
 31
0.0
  0
LINE
  5
178
330
1F
100
AcDbEntity
  8
0
  6
Continuous
 62
     7
370
    25
100
AcDbLine
 10
539.4337625037
 20
767.6092657546
 30
0.0
 11
654.5722420122
 21
767.6092657546
 31
0.0
  0
LINE
  5
179
330
1F
100
AcDbEntity
  8
0
  6
Continuous
 62
     7
370
    25
100
AcDbLine
 10
539.4337625037
 20
760.1092729072
 30
0.0
 11
654.5722420122
 21
760.1092729072
 31
0.0
  0
LINE
  5
17A
330
1F
100
AcDbEntity
  8
0
  6
Continuous
 62
     7
370
    25
100
AcDbLine
 10
535.5337630752
 20
758.3092722396
 30
0.0
 11
535.5337630752
 21
760.1092729072
 31
0.0
  0
LINE
  5
17B
330
1F
100
AcDbEntity
  8
0
  6
Continuous
 62
     7
370
    25
100
AcDbLine
 10
536.7337628994
 20
760.1092729072
 30
0.0
 11
536.7337628994
 21
758.3092722396
 31
0.0
  0
LINE
  5
17C
330
1F
100
AcDbEntity
  8
0
  6
Continuous
 62
     7
370
    25
100
AcDbLine
 10
535.5337630752
 20
758.3092722396
 30
0.0
 11
536.7337628994
 21
758.3092722396
 31
0.0
  0
LINE
  5
17D
330
1F
100
AcDbEntity
  8
0
  6
Continuous
 62
     7
370
    25
100
AcDbLine
 10
537.1337626855
 20
758.3092722396
 30
0.0
 11
537.1337626855
 21
760.1092729072
 31
0.0
  0
LINE
  5
17E
330
1F
100
AcDbEntity
  8
0
  6
Continuous
 62
     7
370
    25
100
AcDbLine
 10
536.7337628994
 20
758.3092722396
 30
0.0
 11
537.1337626855
 21
758.3092722396
 31
0.0
  0
LINE
  5
17F
330
1F
100
AcDbEntity
  8
0
  6
Continuous
 62
     7
370
    25
100
AcDbLine
 10
536.7337628994
 20
757.1092519263
 30
0.0
 11
536.7337628994
 21
758.3092722396
 31
0.0
  0
ARC
  5
180
330
1F
100
AcDbEntity
  8
0
  6
Continuous
 62
     7
370
    25
100
AcDbCircle
 10
536.7337628977
 20
758.3092592232
 30
0.0
 40
1.200000000000045
100
AcDbArc
 50
180.0
 51
270.0
  0
LINE
  5
181
330
1F
100
AcDbEntity
  8
0
  6
Continuous
 62
     7
370
    25
100
AcDbLine
 10
537.1337626855
 20
757.1092519263
 30
0.0
 11
537.1337626855
 21
758.3092722396
 31
0.0
  0
LINE
  5
182
330
1F
100
AcDbEntity
  8
0
  6
Continuous
 62
     7
370
    25
100
AcDbLine
 10
538.3337625097
 20
758.3092722396
 30
0.0
 11
537.1337626855
 21
758.3092722396
 31
0.0
  0
ARC
  5
183
330
1F
100
AcDbEntity
  8
0
  6
Continuous
 62
     7
370
    25
100
AcDbCircle
 10
537.1337628977
 20
758.3092592232
 30
0.0
 40
1.200000000000045
100
AcDbArc
 50
270.0
 51
0.0
  0
LINE
  5
184
330
1F
100
AcDbEntity
  8
0
  6
Continuous
 62
     7
370
    25
100
AcDbLine
 10
538.3337625097
 20
760.1092729072
 30
0.0
 11
538.3337625097
 21
758.3092722396
 31
0.0
  0
LINE
  5
185
330
1F
100
AcDbEntity
  8
0
  6
Continuous
 62
     7
370
    25
100
AcDbLine
 10
537.1337626855
 20
757.1092519263
 30
0.0
 11
536.7337628994
 21
757.1092519263
 31
0.0
  0
ARC
  5
186
330
1F
100
AcDbEntity
  8
0
  6
Continuous
 62
     7
370
    25
100
AcDbCircle
 10
523.1337628977
 20
758.3092592232
 30
0.0
 40
1.200000000000045
100
AcDbArc
 50
270.0
 51
0.0
  0
LINE
  5
187
330
1F
100
AcDbEntity
  8
0
  6
Continuous
 62
     7
370
    25
100
AcDbLine
 10
523.1337627191
 20
758.3092722396
 30
0.0
 11
523.1337627191
 21
757.1092519263
 31
0.0
  0
LINE
  5
188
330
1F
100
AcDbEntity
  8
0
  6
Continuous
 62
     7
370
    25
100
AcDbLine
 10
524.3337630089
 20
758.3092722396
 30
0.0
 11
523.1337627191
 21
758.3092722396
 31
0.0
  0
LINE
  5
189
330
1F
100
AcDbEntity
  8
0
  6
Continuous
 62
     7
370
    25
100
AcDbLine
 10
522.7337629329
 20
758.3092722396
 30
0.0
 11
522.7337629329
 21
757.1092519263
 31
0.0
  0
ARC
  5
18A
330
1F
100
AcDbEntity
  8
0
  6
Continuous
 62
     7
370
    25
100
AcDbCircle
 10
522.7337628977
 20
758.3092592232
 30
0.0
 40
1.200000000000045
100
AcDbArc
 50
180.0
 51
270.0
  0
LINE
  5
18B
330
1F
100
AcDbEntity
  8
0
  6
Continuous
 62
     7
370
    25
100
AcDbLine
 10
522.7337629329
 20
758.3092722396
 30
0.0
 11
521.5337631087
 21
758.3092722396
 31
0.0
  0
LINE
  5
18C
330
1F
100
AcDbEntity
  8
0
  6
Continuous
 62
     7
370
    25
100
AcDbLine
 10
524.3337630089
 20
760.1092729072
 30
0.0
 11
524.3337630089
 21
758.3092722396
 31
0.0
  0
LINE
  5
18D
330
1F
100
AcDbEntity
  8
0
  6
Continuous
 62
     7
370
    25
100
AcDbLine
 10
523.1337627191
 20
758.3092722396
 30
0.0
 11
523.1337627191
 21
760.1092729072
 31
0.0
  0
LINE
  5
18E
330
1F
100
AcDbEntity
  8
0
  6
Continuous
 62
     7
370
    25
100
AcDbLine
 10
522.7337629329
 20
758.3092722396
 30
0.0
 11
523.1337627191
 21
758.3092722396
 31
0.0
  0
LINE
  5
18F
330
1F
100
AcDbEntity
  8
0
  6
Continuous
 62
     7
370
    25
100
AcDbLine
 10
523.1337627191
 20
757.1092519263
 30
0.0
 11
522.7337629329
 21
757.1092519263
 31
0.0
  0
LINE
  5
190
330
1F
100
AcDbEntity
  8
0
  6
Continuous
 62
     7
370
    25
100
AcDbLine
 10
522.7337629329
 20
760.1092729072
 30
0.0
 11
522.7337629329
 21
758.3092722396
 31
0.0
  0
LINE
  5
191
330
1F
100
AcDbEntity
  8
0
  6
Continuous
 62
     7
370
    25
100
AcDbLine
 10
521.5337631087
 20
758.3092722396
 30
0.0
 11
521.5337631087
 21
760.1092729072
 31
0.0
  0
SPLINE
  5
192
330
1F
100
AcDbEntity
  8
0
  6
Continuous
 62
     7
370
    25
100
AcDbSpline
210
0.0
220
0.0
230
1.0
 70
     8
 71
     3
 72
     9
 73
     5
 74
     0
 42
0.000000001
 43
0.00000001
 40
0.0
 40
0.0
 40
0.0
 40
0.0
 40
0.4344202702104707
 40
1.0
 40
1.0
 40
1.0
 40
1.0
 10
533.659275926599
 20
770.0092467764744
 30
0.0
 10
533.6671136285662
 20
769.6617251928011
 30
0.0
 10
533.6851553786979
 20
768.8617588756106
 30
0.0
 10
533.7005939336705
 20
768.0617401367465
 30
0.0
 10
533.7093256674201
 20
767.6092657545933
 30
0.0
  0
LINE
  5
193
330
1F
100
AcDbEntity
  8
0
  6
Continuous
 62
     7
370
    25
100
AcDbLine
 10
526.158199951
 20
767.6092657546
 30
0.0
 11
526.2097512166
 21
770.0092467765
 31
0.0
  0
LINE
  5
194
330
1F
100
AcDbEntity
  8
0
  6
Continuous
 62
     7
370
    25
100
AcDbLine
 10
647.7732966449
 20
767.6092657546
 30
0.0
 11
647.6910571362
 21
770.0092467765
 31
0.0
  0
SPLINE
  5
195
330
1F
100
AcDbEntity
  8
0
  6
Continuous
 62
     7
370
    25
100
AcDbSpline
210
0.0
220
0.0
230
1.0
 70
     8
 71
     3
 72
     9
 73
     5
 74
     0
 42
0.000000001
 43
0.00000001
 40
0.0
 40
0.0
 40
0.0
 40
0.0
 40
0.4344202702104707
 40
1.0
 40
1.0
 40
1.0
 40
1.0
 10
412.1765057350934
 20
770.0092467764744
 30
0.0
 10
412.1646062950488
 20
769.6617251928011
 30
0.0
 10
412.1372147554257
 20
768.8617588756106
 30
0.0
 10
412.1097579730938
 20
768.0617401367465
 30
0.0
 10
412.0942289735616
 20
767.6092657545933
 30
0.0
  0
LINE
  5
196
330
1F
100
AcDbEntity
  8
0
  6
Continuous
 62
     7
370
    25
100
AcDbLine
 10
536.7337628994
 20
757.1092519263
 30
0.0
 11
534.9337631631
 21
757.1092519263
 31
0.0
  0
LINE
  5
197
330
1F
100
AcDbEntity
  8
0
  6
Continuous
 62
     7
370
    25
100
AcDbLine
 10
524.9337633866
 20
757.1092519263
 30
0.0
 11
523.1337627191
 21
757.1092519263
 31
0.0
  0
LINE
  5
198
330
1F
100
AcDbEntity
  8
0
  6
Continuous
 62
     7
370
    25
100
AcDbLine
 10
657.4337641503
 20
767.6092657546
 30
0.0
 11
654.5722420122
 21
767.6092657546
 31
0.0
  0
LINE
  5
199
330
1F
100
AcDbEntity
  8
0
  6
Continuous
 62
     7
370
    25
100
AcDbLine
 10
656.691328695
 20
760.1092729072
 30
0.0
 11
654.5722420122
 21
760.1092729072
 31
0.0
  0
LINE
  5
19A
330
1F
100
AcDbEntity
  8
0
  6
Continuous
 62
     7
370
    25
100
AcDbLine
 10
402.4337689187
 20
767.6092657546
 30
0.0
 11
405.2952836062
 21
767.6092657546
 31
0.0
  0
LINE
  5
19B
330
1F
100
AcDbEntity
  8
0
  6
Continuous
 62
     7
370
    25
100
AcDbLine
 10
403.1767259147
 20
760.1092729072
 30
0.0
 11
405.2952836062
 21
760.1092729072
 31
0.0
  0
LINE
  5
19C
330
1F
100
AcDbEntity
  8
0
  6
Continuous
 62
     7
370
    25
100
AcDbLine
 10
654.4337655212
 20
760.1092729072
 30
0.0
 11
654.4337655212
 21
758.3092722396
 31
0.0
  0
LINE
  5
19D
330
1F
100
AcDbEntity
  8
0
  6
Continuous
 62
     7
370
    25
100
AcDbLine
 10
654.4337655212
 20
758.3092722396
 30
0.0
 11
653.2337601091
 21
758.3092722396
 31
0.0
  0
LINE
  5
19E
330
1F
100
AcDbEntity
  8
0
  6
Continuous
 62
     7
370
    25
100
AcDbLine
 10
653.2337601091
 20
758.3092722396
 30
0.0
 11
653.2337601091
 21
760.1092729072
 31
0.0
  0
LINE
  5
19F
330
1F
100
AcDbEntity
  8
0
  6
Continuous
 62
     7
370
    25
100
AcDbLine
 10
653.2337601091
 20
757.1092519263
 30
0.0
 11
653.2337601091
 21
758.3092722396
 31
0.0
  0
ARC
  5
1A0
330
1F
100
AcDbEntity
  8
0
  6
Continuous
 62
     7
370
    25
100
AcDbCircle
 10
653.2337628977
 20
758.3092592232
 30
0.0
 40
1.199999999999818
100
AcDbArc
 50
270.0
 51
0.0
  0
LINE
  5
1A1
330
1F
100
AcDbEntity
  8
0
  6
Continuous
 62
     7
370
    25
100
AcDbLine
 10
653.2337601091
 20
757.1092519263
 30
0.0
 11
641.2837664391
 21
757.1092519263
 31
0.0
  0
LINE
  5
1A2
330
1F
100
AcDbEntity
  8
0
  6
Continuous
 62
     7
370
    25
100
AcDbLine
 10
641.2837664391
 20
757.1092519263
 30
0.0
 11
641.2837664391
 21
758.3092722396
 31
0.0
  0
LINE
  5
1A3
330
1F
100
AcDbEntity
  8
0
  6
Continuous
 62
     7
370
    25
100
AcDbLine
 10
641.2837664391
 20
758.3092722396
 30
0.0
 11
653.2337601091
 21
758.3092722396
 31
0.0
  0
LINE
  5
1A4
330
1F
100
AcDbEntity
  8
0
  6
Continuous
 62
     7
370
    25
100
AcDbLine
 10
641.2837664391
 20
760.1092729072
 30
0.0
 11
641.2837664391
 21
758.3092722396
 31
0.0
  0
LINE
  5
1A5
330
1F
100
AcDbEntity
  8
0
  6
Continuous
 62
     7
370
    25
100
AcDbLine
 10
640.083761027
 20
758.3092722396
 30
0.0
 11
640.083761027
 21
760.1092729072
 31
0.0
  0
LINE
  5
1A6
330
1F
100
AcDbEntity
  8
0
  6
Continuous
 62
     7
370
    25
100
AcDbLine
 10
640.083761027
 20
758.3092722396
 30
0.0
 11
641.2837664391
 21
758.3092722396
 31
0.0
  0
ARC
  5
1A7
330
1F
100
AcDbEntity
  8
0
  6
Continuous
 62
     7
370
    25
100
AcDbCircle
 10
641.2837628977
 20
758.3092592232
 30
0.0
 40
1.199999999999932
100
AcDbArc
 50
180.0
 51
270.0
  0
LINE
  5
1A8
330
1F
100
AcDbEntity
  8
0
  6
Continuous
 62
     7
370
    25
100
AcDbLine
 10
418.5837591793
 20
757.1092519263
 30
0.0
 11
418.5837591793
 21
758.3092722396
 31
0.0
  0
LINE
  5
1A9
330
1F
100
AcDbEntity
  8
0
  6
Continuous
 62
     7
370
    25
100
AcDbLine
 10
419.7837645914
 20
758.3092722396
 30
0.0
 11
418.5837591793
 21
758.3092722396
 31
0.0
  0
ARC
  5
1AA
330
1F
100
AcDbEntity
  8
0
  6
Continuous
 62
     7
370
    25
100
AcDbCircle
 10
418.5837628977
 20
758.3092592232
 30
0.0
 40
1.199999999999932
100
AcDbArc
 50
270.0
 51
0.0
  0
LINE
  5
1AB
330
1F
100
AcDbEntity
  8
0
  6
Continuous
 62
     7
370
    25
100
AcDbLine
 10
406.6337655093
 20
760.1092729072
 30
0.0
 11
406.6337655093
 21
758.3092722396
 31
0.0
  0
LINE
  5
1AC
330
1F
100
AcDbEntity
  8
0
  6
Continuous
 62
     7
370
    25
100
AcDbLine
 10
406.6337655093
 20
758.3092722396
 30
0.0
 11
405.4337600972
 21
758.3092722396
 31
0.0
  0
LINE
  5
1AD
330
1F
100
AcDbEntity
  8
0
  6
Continuous
 62
     7
370
    25
100
AcDbLine
 10
405.4337600972
 20
758.3092722396
 30
0.0
 11
405.4337600972
 21
760.1092729072
 31
0.0
  0
LINE
  5
1AE
330
1F
100
AcDbEntity
  8
0
  6
Continuous
 62
     7
370
    25
100
AcDbLine
 10
418.5837591793
 20
757.1092519263
 30
0.0
 11
406.6337655093
 21
757.1092519263
 31
0.0
  0
LINE
  5
1AF
330
1F
100
AcDbEntity
  8
0
  6
Continuous
 62
     7
370
    25
100
AcDbLine
 10
406.6337655093
 20
757.1092519263
 30
0.0
 11
406.6337655093
 21
758.3092722396
 31
0.0
  0
LINE
  5
1B0
330
1F
100
AcDbEntity
  8
0
  6
Continuous
 62
     7
370
    25
100
AcDbLine
 10
406.6337655093
 20
758.3092722396
 30
0.0
 11
418.5837591793
 21
758.3092722396
 31
0.0
  0
LINE
  5
1B1
330
1F
100
AcDbEntity
  8
0
  6
Continuous
 62
     7
370
    25
100
AcDbLine
 10
418.5837591793
 20
758.3092722396
 30
0.0
 11
418.5837591793
 21
760.1092729072
 31
0.0
  0
ARC
  5
1B2
330
1F
100
AcDbEntity
  8
0
  6
Continuous
 62
     7
370
    25
100
AcDbCircle
 10
406.6337628977
 20
758.3092592232
 30
0.0
 40
1.199999999999989
100
AcDbArc
 50
180.0
 51
270.0
  0
LINE
  5
1B3
330
1F
100
AcDbEntity
  8
0
  6
Continuous
 62
     7
370
    25
100
AcDbLine
 10
419.7837645914
 20
760.1092729072
 30
0.0
 11
419.7837645914
 21
758.3092722396
 31
0.0
  0
LINE
  5
1B4
330
1F
100
AcDbEntity
  8
0
  6
Continuous
 62
     7
370
    25
100
AcDbLine
 10
643.8829014804
 20
421.5092632274
 30
0.0
 11
643.8829014804
 21
703.309265087
 31
0.0
  0
LINE
  5
1B5
330
1F
100
AcDbEntity
  8
0
  6
Continuous
 62
     7
370
    25
100
AcDbLine
 10
643.8829014804
 20
727.3634347419
 30
0.0
 11
643.8829014804
 21
757.1092519263
 31
0.0
  0
LINE
  5
1B6
330
1F
100
AcDbEntity
  8
0
  6
Continuous
 62
     7
370
    25
100
AcDbLine
 10
656.691328695
 20
760.1092729072
 30
0.0
 11
663.882897308
 21
760.1092729072
 31
0.0
  0
LINE
  5
1B7
330
1F
100
AcDbEntity
  8
0
  6
Continuous
 62
     7
370
    25
100
AcDbLine
 10
663.882897308
 20
760.1092729072
 30
0.0
 11
663.882897308
 21
727.3634347419
 31
0.0
  0
LINE
  5
1B8
330
1F
100
AcDbEntity
  8
0
  6
Continuous
 62
     7
370
    25
100
AcDbLine
 10
663.882897308
 20
703.309265087
 30
0.0
 11
663.882897308
 21
412.1092531184
 31
0.0
  0
LINE
  5
1B9
330
1F
100
AcDbEntity
  8
0
  6
Continuous
 62
     7
370
    25
100
AcDbLine
 10
663.882897308
 20
412.1092531184
 30
0.0
 11
649.4783843662
 21
412.1092531184
 31
0.0
  0
LINE
  5
1BA
330
1F
100
AcDbEntity
  8
0
  6
Continuous
 62
     7
370
    25
100
AcDbLine
 10
524.9337633866
 20
412.1092531184
 30
0.0
 11
534.9337631631
 21
412.1092531184
 31
0.0
  0
LINE
  5
1BB
330
1F
100
AcDbEntity
  8
0
  6
Continuous
 62
     7
370
    25
100
AcDbLine
 10
524.9337633866
 20
703.309265087
 30
0.0
 11
524.9337633866
 21
412.1092531184
 31
0.0
  0
LINE
  5
1BC
330
1F
100
AcDbEntity
  8
0
  6
Continuous
 62
     7
370
    25
100
AcDbLine
 10
534.9337631631
 20
703.309265087
 30
0.0
 11
534.9337631631
 21
412.1092531184
 31
0.0
  0
CIRCLE
  5
1BD
330
1F
100
AcDbEntity
  8
0
  6
Continuous
 62
     7
370
    25
100
AcDbCircle
 10
529.9337632258
 20
417.4092592232
 30
0.0
 40
3.75
  0
LINE
  5
1BE
330
1F
100
AcDbEntity
  8
0
  6
Continuous
 62
     7
370
    25
100
AcDbLine
 10
524.9337633866
 20
760.1092729072
 30
0.0
 11
534.9337631631
 21
760.1092729072
 31
0.0
  0
LINE
  5
1BF
330
1F
100
AcDbEntity
  8
0
  6
Continuous
 62
     7
370
    25
100
AcDbLine
 10
524.9337633866
 20
760.1092729072
 30
0.0
 11
524.9337633866
 21
727.3634347419
 31
0.0
  0
LINE
  5
1C0
330
1F
100
AcDbEntity
  8
0
  6
Continuous
 62
     7
370
    25
100
AcDbLine
 10
534.9337631631
 20
760.1092729072
 30
0.0
 11
534.9337631631
 21
727.3634347419
 31
0.0
  0
LINE
  5
1C1
330
1F
100
AcDbEntity
  8
0
  6
Continuous
 62
     7
370
    25
100
AcDbLine
 10
395.9829072263
 20
760.1092729072
 30
0.0
 11
395.9829072263
 21
727.3634347419
 31
0.0
  0
LINE
  5
1C2
330
1F
100
AcDbEntity
  8
0
  6
Continuous
 62
     7
370
    25
100
AcDbLine
 10
395.9829072263
 20
412.1092531184
 30
0.0
 11
410.387457421
 21
412.1092531184
 31
0.0
  0
LINE
  5
1C3
330
1F
100
AcDbEntity
  8
0
  6
Continuous
 62
     7
370
    25
100
AcDbLine
 10
395.9829072263
 20
703.309265087
 30
0.0
 11
395.9829072263
 21
412.1092531184
 31
0.0
  0
LINE
  5
1C4
330
1F
100
AcDbEntity
  8
0
  6
Continuous
 62
     7
370
    25
100
AcDbLine
 10
395.9829072263
 20
760.1092729072
 30
0.0
 11
403.1767259147
 21
760.1092729072
 31
0.0
  0
LINE
  5
1C5
330
1F
100
AcDbEntity
  8
0
  6
Continuous
 62
     7
370
    25
100
AcDbLine
 10
415.9829030539
 20
757.1092519263
 30
0.0
 11
415.9829030539
 21
727.3634347419
 31
0.0
  0
LINE
  5
1C6
330
1F
100
AcDbEntity
  8
0
  6
Continuous
 62
     7
370
    25
100
AcDbLine
 10
415.9829030539
 20
703.309265087
 30
0.0
 11
415.9829030539
 21
420.0092527369
 31
0.0
  0
LINE
  5
1C7
330
1F
100
AcDbEntity
  8
0
  6
Continuous
 62
     7
370
    25
100
AcDbLine
 10
410.3874201681
 20
412.1092531184
 30
0.0
 11
410.3874201681
 21
412.0092663268
 31
0.0
  0
LINE
  5
1C8
330
1F
100
AcDbEntity
  8
0
  6
Continuous
 62
     7
370
    25
100
AcDbLine
 10
524.9329033102
 20
420.0092527369
 30
0.0
 11
410.3874201681
 21
420.0092527369
 31
0.0
  0
LINE
  5
1C9
330
1F
100
AcDbEntity
  8
0
  6
Continuous
 62
     7
370
    25
100
AcDbLine
 10
524.9329033102
 20
412.0092663268
 30
0.0
 11
524.9329033102
 21
420.0092527369
 31
0.0
  0
LINE
  5
1CA
330
1F
100
AcDbEntity
  8
0
  6
Continuous
 62
     7
370
    25
100
AcDbLine
 10
524.9329033102
 20
412.0092663268
 30
0.0
 11
410.3874201681
 21
412.0092663268
 31
0.0
  0
LINE
  5
1CB
330
1F
100
AcDbEntity
  8
0
  6
Continuous
 62
     7
370
    25
100
AcDbLine
 10
649.4783843662
 20
412.0092663268
 30
0.0
 11
649.4783843662
 21
420.0092527369
 31
0.0
  0
LINE
  5
1CC
330
1F
100
AcDbEntity
  8
0
  6
Continuous
 62
     7
370
    25
100
AcDbLine
 10
649.4783843662
 20
420.0092527369
 30
0.0
 11
534.9329030867
 21
420.0092527369
 31
0.0
  0
LINE
  5
1CD
330
1F
100
AcDbEntity
  8
0
  6
Continuous
 62
     7
370
    25
100
AcDbLine
 10
534.9329030867
 20
412.1092531184
 30
0.0
 11
534.9329030867
 21
412.0092663268
 31
0.0
  0
LINE
  5
1CE
330
1F
100
AcDbEntity
  8
0
  6
Continuous
 62
     7
370
    25
100
AcDbLine
 10
649.4783843662
 20
412.0092663268
 30
0.0
 11
534.9329030867
 21
412.0092663268
 31
0.0
  0
LINE
  5
1CF
330
1F
100
AcDbEntity
  8
0
  6
Continuous
 62
     7
370
    25
100
AcDbLine
 10
524.9329033102
 20
420.0092527369
 30
0.0
 11
524.9329033102
 21
421.5092632274
 31
0.0
  0
LINE
  5
1D0
330
1F
100
AcDbEntity
  8
0
  6
Continuous
 62
     7
370
    25
100
AcDbLine
 10
534.9329030867
 20
412.0092663268
 30
0.0
 11
524.9329033102
 21
412.0092663268
 31
0.0
  0
LINE
  5
1D1
330
1F
100
AcDbEntity
  8
0
  6
Continuous
 62
     7
370
    25
100
AcDbLine
 10
531.6438684966
 20
411.4600691298
 30
0.0
 11
528.2219379004
 21
411.4600691298
 31
0.0
  0
ARC
  5
1D2
330
1F
100
AcDbEntity
  8
0
  6
Continuous
 62
     7
370
    25
100
AcDbCircle
 10
522.2435417301
 20
411.5589285391
 30
0.0
 40
5.979213489316861
100
AcDbArc
 50
359.0526371018
 51
4.3194497042
  0
ARC
  5
1D3
330
1F
100
AcDbEntity
  8
0
  6
Continuous
 62
     7
370
    25
100
AcDbCircle
 10
537.6225677708
 20
411.5589196171
 30
0.0
 40
5.979516404424039
100
AcDbArc
 50
175.680683795
 51
180.9472293989
  0
ARC
  5
1D4
330
1F
100
AcDbEntity
  8
0
  6
Continuous
 62
     7
370
    25
100
AcDbCircle
 10
533.614419622
 20
411.0092834624
 30
0.0
 40
1.000244319346693
100
AcDbArc
 50
137.2057699909
 51
180.0010976439
  0
LWPOLYLINE
  5
1D5
330
1F
100
AcDbEntity
  8
0
  6
Continuous
 62
     7
370
    25
100
AcDbPolyline
 90
        3
 70
   128
 43
0.0
 10
533.307239253
 20
411.9610759715
 10
533.4187511615
 20
411.9900438289
 10
533.6137605626
 20
412.0092663268
  0
LINE
  5
1D6
330
1F
100
AcDbEntity
  8
0
  6
Continuous
 62
     7
370
    25
100
AcDbLine
 10
532.5834230314
 20
411.0999974707
 30
0.0
 11
532.6141753029
 21
411.0092643002
 31
0.0
  0
SPLINE
  5
1D7
330
1F
100
AcDbEntity
  8
0
  6
Continuous
 62
     7
370
    25
100
AcDbSpline
210
0.0
220
0.0
230
1.0
 70
     8
 71
     3
 72
    13
 73
     9
 74
     0
 42
0.000000001
 43
0.00000001
 40
0.0
 40
0.0
 40
0.0
 40
0.0
 40
0.274061758566999
 40
0.5363217750162685
 40
0.6606761894426891
 40
0.7780122741241613
 40
0.8898887722087462
 40
0.9999999999999999
 40
0.9999999999999999
 40
0.9999999999999999
 40
0.9999999999999999
 10
527.2516310940922
 20
411.0092643002399
 30
0.0
 10
527.259678814367
 20
411.0650228749631
 30
0.0
 10
527.275427701206
 20
411.1741389294036
 30
0.0
 10
527.4414568497025
 20
411.2995794109556
 30
0.0
 10
527.6378941777148
 20
411.379650210854
 30
0.0
 10
527.8119990996394
 20
411.4246274547128
 30
0.0
 10
528.0090150808675
 20
411.4549000033678
 30
0.0
 10
528.1513408905815
 20
411.4583552465027
 30
0.0
 10
528.2219379003585
 20
411.4600691298373
 30
0.0
  0
LWPOLYLINE
  5
1D8
330
1F
100
AcDbEntity
  8
0
  6
Continuous
 62
     7
370
    25
100
AcDbPolyline
 90
        3
 70
   128
 43
0.0
 10
526.2520458344
 20
412.0092663268
 10
526.4470552355
 20
411.9900438289
 10
526.5687057543
 20
411.9577530126
  0
ARC
  5
1D9
330
1F
100
AcDbEntity
  8
0
  6
Continuous
 62
     7
370
    25
100
AcDbCircle
 10
526.2514041921
 20
411.0092878065
 30
0.0
 40
1.000226902262727
100
AcDbArc
 50
359.9986534983
 51
41.54406872
  0
LINE
  5
1DA
330
1F
100
AcDbEntity
  8
0
  6
Continuous
 62
     7
370
    25
100
AcDbLine
 10
528.4999088179
 20
392.421876202
 30
0.0
 11
528.2219379004
 21
411.4600691298
 31
0.0
  0
LINE
  5
1DB
330
1F
100
AcDbEntity
  8
0
  6
Continuous
 62
     7
370
    25
100
AcDbLine
 10
527.4639896377
 20
396.4074599842
 30
0.0
 11
527.5070702917
 21
395.9138217667
 31
0.0
  0
LINE
  5
1DC
330
1F
100
AcDbEntity
  8
0
  6
Continuous
 62
     7
370
    25
100
AcDbLine
 10
527.2516310941
 20
411.0092643002
 30
0.0
 11
527.4639896377
 21
396.4074599842
 31
0.0
  0
LINE
  5
1DD
330
1F
100
AcDbEntity
  8
0
  6
Continuous
 62
     7
370
    25
100
AcDbLine
 10
532.4018167592
 20
396.4074599842
 30
0.0
 11
532.6141753029
 21
411.0092643002
 31
0.0
  0
SPLINE
  5
1DE
330
1F
100
AcDbEntity
  8
0
  6
Continuous
 62
     7
370
    25
100
AcDbSpline
210
0.0
220
0.0
230
1.0
 70
     8
 71
     3
 72
    13
 73
     9
 74
     0
 42
0.000000001
 43
0.00000001
 40
0.0
 40
0.0
 40
0.0
 40
0.0
 40
0.5426790618078073
 40
0.8004398393378253
 40
0.9141089158950287
 40
0.9601976062288882
 40
0.980459955927139
 40
1.0
 40
1.0
 40
1.0
 40
1.0
 10
532.4018167592079
 20
396.407459984196
 30
0.0
 10
532.369858319556
 20
395.6344414796174
 30
0.0
 10
532.3227203146083
 20
394.4942559608525
 30
0.0
 10
532.0091238001506
 20
393.2240558812207
 30
0.0
 10
531.7495663477472
 20
392.6772771472324
 30
0.0
 10
531.5655448657129
 20
392.488644307771
 30
0.0
 10
531.4525823623437
 20
392.4305014539054
 30
0.0
 10
531.3944408028922
 20
392.4247162909564
 30
0.0
 10
531.365897579068
 20
392.421876202
 30
0.0
  0
LINE
  5
1DF
330
1F
100
AcDbEntity
  8
0
  6
Continuous
 62
     7
370
    25
100
AcDbLine
 10
531.6438684966
 20
411.4600691298
 30
0.0
 11
531.3658975791
 21
392.421876202
 31
0.0
  0
LINE
  5
1E0
330
1F
100
AcDbEntity
  8
0
  6
Continuous
 62
     7
370
    25
100
AcDbLine
 10
528.4999088179
 20
392.421876202
 30
0.0
 11
531.3658975791
 21
392.421876202
 31
0.0
  0
LINE
  5
1E1
330
1F
100
AcDbEntity
  8
0
  6
Continuous
 62
     7
370
    25
100
AcDbLine
 10
527.4639896377
 20
396.4074599842
 30
0.0
 11
526.5048533473
 21
396.4074599842
 31
0.0
  0
LINE
  5
1E2
330
1F
100
AcDbEntity
  8
0
  6
Continuous
 62
     7
370
    25
100
AcDbLine
 10
533.3609530497
 20
396.4074599842
 30
0.0
 11
532.4018167592
 21
396.4074599842
 31
0.0
  0
ARC
  5
1E3
330
1F
100
AcDbEntity
  8
0
  6
Continuous
 62
     7
370
    25
100
AcDbCircle
 10
474.8940245359
 20
391.9808356665
 30
0.0
 40
53.60769857407546
100
AcDbArc
 50
359.9895559827
 51
0.4713883832
  0
SPLINE
  5
1E4
330
1F
100
AcDbEntity
  8
0
  6
Continuous
 62
     7
370
    25
100
AcDbSpline
210
0.0
220
0.0
230
1.0
 70
     8
 71
     3
 72
    12
 73
     8
 74
     0
 42
0.000000001
 43
0.00000001
 40
0.0
 40
0.0
 40
0.0
 40
0.0
 40
0.0595592288905529
 40
0.1242835235711592
 40
0.2516598992432596
 40
0.5019181983155385
 40
0.9999999999999999
 40
0.9999999999999999
 40
0.9999999999999999
 40
0.9999999999999999
 10
528.5017222193494
 20
391.9710639218219
 30
0.0
 10
528.3977489678877
 20
391.9818006409215
 30
0.0
 10
528.1807857484247
 20
392.0042051835281
 30
0.0
 10
527.7915410782865
 20
392.2254864191565
 30
0.0
 10
527.2678030598291
 20
392.8032014698436
 30
0.0
 10
526.6479420909054
 20
394.2287222424321
 30
0.0
 10
526.5620329419867
 20
395.5368160893076
 30
0.0
 10
526.5048533472658
 20
396.407459984196
 30
0.0
  0
SPLINE
  5
1E5
330
1F
100
AcDbEntity
  8
0
  6
Continuous
 62
     7
370
    25
100
AcDbSpline
210
0.0
220
0.0
230
1.0
 70
     8
 71
     3
 72
    12
 73
     8
 74
     0
 42
0.000000001
 43
0.00000001
 40
0.0
 40
0.0
 40
0.0
 40
0.0
 40
0.4979519916961974
 40
0.7481585609169901
 40
0.8755573961012004
 40
0.94041358025518
 40
0.9999999999999999
 40
0.9999999999999999
 40
0.9999999999999999
 40
0.9999999999999999
 10
533.3609530496836
 20
396.407459984196
 30
0.0
 10
533.3037469682046
 20
395.5371273770979
 30
0.0
 10
533.2177964743641
 20
394.2294776403679
 30
0.0
 10
532.5986476285558
 20
392.8038159940658
 30
0.0
 10
532.0745872432464
 20
392.2263065969647
 30
0.0
 10
531.6853326310176
 20
392.0044027459909
 30
0.0
 10
531.4681006246186
 20
391.9818586384998
 30
0.0
 10
531.3640841775999
 20
391.9710639218219
 30
0.0
  0
ARC
  5
1E6
330
1F
100
AcDbEntity
  8
0
  6
Continuous
 62
     7
370
    25
100
AcDbCircle
 10
584.9717818611
 20
391.9808356665
 30
0.0
 40
53.60769857407541
100
AcDbArc
 50
179.5286116168
 51
180.0104440173
  0
LINE
  5
1E7
330
1F
100
AcDbEntity
  8
0
  6
Continuous
 62
     7
370
    25
100
AcDbLine
 10
531.3640841776
 20
391.9710639218
 30
0.0
 11
528.5017222193
 21
391.9710639218
 31
0.0
  0
LINE
  5
1E8
330
1F
100
AcDbEntity
  8
0
  6
Continuous
 62
     7
370
    25
100
AcDbLine
 10
614.6135414745
 20
396.4074599842
 30
0.0
 11
614.6135414745
 21
412.009191821
 31
0.0
  0
SPLINE
  5
1E9
330
1F
100
AcDbEntity
  8
0
  6
Continuous
 62
     7
370
    25
100
AcDbSpline
210
0.0
220
0.0
230
1.0
 70
     8
 71
     3
 72
    12
 73
     8
 74
     0
 42
0.000000001
 43
0.00000001
 40
0.0
 40
0.0
 40
0.0
 40
0.0
 40
0.0595592950489574
 40
0.1242835654476775
 40
0.2516599322402532
 40
0.5019182330372807
 40
1.0
 40
1.0
 40
1.0
 40
1.0
 10
614.6708215381444
 20
391.9710639218219
 30
0.0
 10
614.6689477169973
 20
391.9818006185843
 30
0.0
 10
614.6650375771446
 20
392.0042050972414
 30
0.0
 10
614.6561674489659
 20
392.225486476423
 30
0.0
 10
614.6417018044409
 20
392.8032014879356
 30
0.0
 10
614.6197538633556
 20
394.2287221542078
 30
0.0
 10
614.6160240029213
 20
395.5368160674432
 30
0.0
 10
614.6135414745153
 20
396.407459984196
 30
0.0
  0
SPLINE
  5
1EA
330
1F
100
AcDbEntity
  8
0
  6
Continuous
 62
     7
370
    25
100
AcDbSpline
210
0.0
220
0.0
230
1.0
 70
     8
 71
     3
 72
    12
 73
     8
 74
     0
 42
0.000000001
 43
0.00000001
 40
0.0
 40
0.0
 40
0.0
 40
0.0
 40
0.4979519839180743
 40
0.7481585460542098
 40
0.8755573776310926
 40
0.9404135599486543
 40
1.0
 40
1.0
 40
1.0
 40
1.0
 10
445.252263059789
 20
396.407459984196
 30
0.0
 10
445.2497774326655
 20
395.5371273808721
 30
0.0
 10
445.2460428493425
 20
394.2294776553644
 30
0.0
 10
445.2241316520744
 20
392.8038159931476
 30
0.0
 10
445.2096433085632
 20
392.2263065977605
 30
0.0
 10
445.2007788509446
 20
392.0044027252864
 30
0.0
 10
445.1968646637557
 20
391.9818586332001
 30
0.0
 10
445.1949904467405
 20
391.9710639218219
 30
0.0
  0
LINE
  5
1EB
330
1F
100
AcDbEntity
  8
0
  6
Continuous
 62
     7
370
    25
100
AcDbLine
 10
445.2522630598
 20
412.009191821
 30
0.0
 11
445.2522630598
 21
396.4074599842
 31
0.0
  0
LINE
  5
1EC
330
1F
100
AcDbEntity
  8
0
  6
Continuous
 62
     7
370
    25
100
AcDbLine
 10
450.1829008366
 20
342.0092585782
 30
0.0
 11
609.6829036977
 21
342.0092585782
 31
0.0
  0
LINE
  5
1ED
330
1F
100
AcDbEntity
  8
0
  6
Continuous
 62
     7
370
    25
100
AcDbLine
 10
505.1157447304
 20
340.0092582504
 30
0.0
 11
521.2305729072
 21
340.0092582504
 31
0.0
  0
LINE
  5
1EE
330
1F
100
AcDbEntity
  8
0
  6
Continuous
 62
     7
370
    25
100
AcDbLine
 10
538.6352334897
 20
340.0092582504
 30
0.0
 11
554.7500672545
 21
340.0092582504
 31
0.0
  0
ELLIPSE
  5
1EF
330
1F
100
AcDbEntity
  8
0
  6
Continuous
 62
     7
370
    25
100
AcDbEllipse
 10
718.5227586793
 20
695.5902849535
 30
0.0
 11
202.9530740761603
 21
375.367482023858
 31
0.0
210
0.0
220
0.0
230
1.0
 40
0.1819608016
 41
2.884048062073737
 42
2.899602974299114
  0
ELLIPSE
  5
1F0
330
1F
100
AcDbEntity
  8
0
  6
Continuous
 62
     7
370
    25
100
AcDbEllipse
 10
341.3430477723
 20
695.5902849536
 30
0.0
 11
-202.9530740762059
 21
375.3674820239278
 31
0.0
210
0.0
220
0.0
230
1.0
 40
0.1819608016
 41
3.383582329100502
 42
3.399137245102443
  0
SPLINE
  5
1F1
330
1F
100
AcDbEntity
  8
0
  6
Continuous
 62
     7
370
    25
100
AcDbSpline
210
0.0
220
0.0
230
1.0
 70
     8
 71
     3
 72
    12
 73
     8
 74
     0
 42
0.000000001
 43
0.00000001
 40
0.0
 40
0.0
 40
0.0
 40
0.0
 40
0.211368871633365
 40
0.4226203488062924
 40
0.6370651156241178
 40
0.856434138497524
 40
1.0
 40
1.0
 40
1.0
 40
1.0
 10
504.5455983634532
 20
294.5569019118674
 30
0.0
 10
504.5187340803262
 20
294.2262074048283
 30
0.0
 10
504.465020434519
 20
293.565002058775
 30
0.0
 10
504.1048205877217
 20
292.6883040165029
 30
0.0
 10
503.5917932187209
 20
292.0199614045864
 30
0.0
 10
503.0371063553886
 20
291.6609317420009
 30
0.0
 10
502.681540263035
 20
291.6239057757597
 30
0.0
 10
502.5408892686904
 20
291.6092594439514
 30
0.0
  0
ELLIPSE
  5
1F2
330
1F
100
AcDbEntity
  8
0
  6
Continuous
 62
     7
370
    25
100
AcDbEllipse
 10
529.9329032258
 20
-173.6003954536
 30
0.0
 11
17.50399937253974
 21
2005.148639620922
 31
0.0
210
0.0
220
0.0
230
1.0
 40
0.0151153781
 41
1.311895709988889
 42
1.335275674907273
  0
ELLIPSE
  5
1F3
330
1F
100
AcDbEntity
  8
0
  6
Continuous
 62
     7
370
    25
100
AcDbEllipse
 10
529.9329032258
 20
-173.6003954535
 30
0.0
 11
-17.50399937254008
 21
2005.148639620922
 31
0.0
210
0.0
220
0.0
230
1.0
 40
0.0151153781
 41
4.947909632272317
 42
4.971289597197601
  0
SPLINE
  5
1F4
330
1F
100
AcDbEntity
  8
0
  6
Continuous
 62
     7
370
    25
100
AcDbSpline
210
0.0
220
0.0
230
1.0
 70
     8
 71
     3
 72
    12
 73
     8
 74
     0
 42
0.000000001
 43
0.00000001
 40
0.0
 40
0.0
 40
0.0
 40
0.0
 40
0.2207165924318517
 40
0.4413963832147851
 40
0.6625313186674218
 40
0.8805270041951643
 40
1.0
 40
1.0
 40
1.0
 40
1.0
 10
557.324917128259
 20
291.6092594439514
 30
0.0
 10
557.1071914165626
 20
291.6433613426036
 30
0.0
 10
556.6717762961279
 20
291.7115594538554
 30
0.0
 10
556.063985982302
 20
292.2404718551012
 30
0.0
 10
555.5951766099674
 20
293.0175791751132
 30
0.0
 10
555.3573404843792
 20
293.8442337570027
 30
0.0
 10
555.3299167673905
 20
294.3705660976126
 30
0.0
 10
555.3202080334962
 20
294.5569019118674
 30
0.0
  0
SPLINE
  5
1F5
330
1F
100
AcDbEntity
  8
0
  6
Continuous
 62
     7
370
    25
100
AcDbSpline
210
0.0
220
0.0
230
1.0
 70
     8
 71
     3
 72
    51
 73
    47
 74
     0
 42
0.000000001
 43
0.00000001
 40
0.0
 40
0.0
 40
0.0
 40
0.0
 40
0.0779459166839165
 40
0.1558919151292926
 40
0.1781750016752386
 40
0.200458075768733
 40
0.2227411594980215
 40
0.245024222362883
 40
0.2673073053665767
 40
0.2895903541594058
 40
0.3118734020756017
 40
0.3156922737806854
 40
0.3380993166465922
 40
0.3670181011221347
 40
0.3892766399242851
 40
0.4040022266332027
 40
0.4327008370507029
 40
0.4554735248454534
 40
0.4758992384866893
 40
0.4949718954681411
 40
0.5140446328425865
 40
0.5331174052360065
 40
0.552190126604056
 40
0.5712627970982467
 40
0.5903353836031692
 40
0.5905901803849511
 40
0.5924904517113562
 40
0.5976742486330905
 40
0.637844749508043
 40
0.6686604104710473
 40
0.6995765456843537
 40
0.7301794046031819
 40
0.7450346400140319
 40
0.7598898962305607
 40
0.774747071362046
 40
0.7896184002252288
 40
0.8044896961506485
 40
0.8193609209722634
 40
0.8202900115360044
 40
0.8271305346368137
 40
0.845708198142047
 40
0.8590503686131626
 40
0.875094521886845
 40
0.8938406178337426
 40
0.9152885549173652
 40
1.0
 40
1.0
 40
1.0
 40
1.0
 10
497.932904472524
 20
282.0092592208065
 30
0.0
 10
497.9788545534059
 20
282.0092592208065
 30
0.0
 10
498.0707547633693
 20
282.0092592208065
 30
0.0
 10
498.6414584152748
 20
282.0092592208068
 30
0.0
 10
499.1723759415974
 20
282.0092592208063
 30
0.0
 10
499.500929360894
 20
282.0092592208073
 30
0.0
 10
499.8664420981437
 20
282.0092592208036
 30
0.0
 10
500.2688556840761
 20
282.0092592208173
 30
0.0
 10
500.7075885112743
 20
282.0092592207665
 30
0.0
 10
501.1820921105963
 20
282.0092592209562
 30
0.0
 10
501.5510931007069
 20
282.0092592204436
 30
0.0
 10
501.9355770817949
 20
282.009259221354
 30
0.0
 10
502.3892827938623
 20
282.0092592026934
 30
0.0
 10
503.0375953451447
 20
282.0092592974705
 30
0.0
 10
503.6555758693345
 20
282.0092592733244
 30
0.0
 10
504.297857804804
 20
282.0092592906894
 30
0.0
 10
504.975798838423
 20
282.0092592023909
 30
0.0
 10
505.7498255632034
 20
282.0092592247504
 30
0.0
 10
506.4466689166283
 20
282.0092592198731
 30
0.0
 10
507.1243924647025
 20
282.0092592210494
 30
0.0
 10
507.8070020924562
 20
282.0092592207415
 30
0.0
 10
508.509510367928
 20
282.009259220824
 30
0.0
 10
509.2312917718785
 20
282.0092592208018
 30
0.0
 10
509.9716692046188
 20
282.0092592208079
 30
0.0
 10
510.4806544496725
 20
282.0092592208065
 30
0.0
 10
510.7652064141994
 20
282.0092592208065
 30
0.0
 10
510.8636877509655
 20
282.0092592208065
 30
0.0
 10
511.50043924513
 20
282.0092592208065
 30
0.0
 10
512.5539467660441
 20
282.0092592208065
 30
0.0
 10
514.0145310513215
 20
282.0092592208065
 30
0.0
 10
515.3753527931968
 20
282.0092592208065
 30
0.0
 10
516.5291026300672
 20
282.0092592208065
 30
0.0
 10
517.4549176239416
 20
282.0092592208065
 30
0.0
 10
518.145815382562
 20
282.0092592208065
 30
0.0
 10
518.8433420728362
 20
282.0092592208065
 30
0.0
 10
519.5471969589861
 20
282.0092592208065
 30
0.0
 10
520.2569766110291
 20
282.0092592208065
 30
0.0
 10
520.7486233041036
 20
282.0092592208065
 30
0.0
 10
521.112829315103
 20
282.0092592208065
 30
0.0
 10
521.5373794422305
 20
282.0092592208065
 30
0.0
 10
522.165469023104
 20
282.0092592208065
 30
0.0
 10
522.9474869730257
 20
282.0092592208065
 30
0.0
 10
523.7363509531295
 20
282.0092592208065
 30
0.0
 10
524.663112597084
 20
282.0092592208065
 30
0.0
 10
526.7322166868895
 20
282.0092592208065
 30
0.0
 10
528.5123887046087
 20
282.0092592208065
 30
0.0
 10
529.9329032275785
 20
282.0092592208065
 30
0.0
  0
SPLINE
  5
1F6
330
1F
100
AcDbEntity
  8
0
  6
Continuous
 62
     7
370
    25
100
AcDbSpline
210
0.0
220
0.0
230
1.0
 70
     8
 71
     3
 72
    41
 73
    37
 74
     0
 42
0.000000001
 43
0.00000001
 40
0.0
 40
0.0
 40
0.0
 40
0.0
 40
0.10233657063675
 40
0.2046731304279579
 40
0.2456448645792745
 40
0.2866165942320466
 40
0.3275883482341199
 40
0.368560069153783
 40
0.4095317942345141
 40
0.4262267514174519
 40
0.4429217018737971
 40
0.4596166987527813
 40
0.4763117962994486
 40
0.4874781416803236
 40
0.5151390169064621
 40
0.5372012145841689
 40
0.5514121873969827
 40
0.5774195428318661
 40
0.6017482600616598
 40
0.615046758666373
 40
0.6295672265627194
 40
0.6441817985924148
 40
0.6587963117039501
 40
0.6734106982491591
 40
0.688024977975021
 40
0.6908513778319691
 40
0.7126688640911172
 40
0.7383288904856871
 40
0.7728792998237919
 40
0.7966161657390072
 40
0.8232562422090713
 40
0.8527994122410435
 40
0.8852455584800719
 40
0.9205944796019214
 40
0.958846025287425
 40
1.0
 40
1.0
 40
1.0
 40
1.0
 10
529.9329032275785
 20
282.0092592208065
 30
0.0
 10
531.6487533139638
 20
282.0092592208072
 30
0.0
 10
535.0804533048899
 20
282.0092592208083
 30
0.0
 10
539.0948510524698
 20
282.0092592208012
 30
0.0
 10
541.9916689721128
 20
282.0092592208138
 30
0.0
 10
543.8744268797174
 20
282.0092592207787
 30
0.0
 10
545.6993512925778
 20
282.0092592209106
 30
0.0
 10
547.4590071469927
 20
282.009259220418
 30
0.0
 10
548.8130009319073
 20
282.0092592218933
 30
0.0
 10
549.7996714919041
 20
282.0092592193018
 30
0.0
 10
550.4506514541158
 20
282.009259226585
 30
0.0
 10
551.0875359872939
 20
282.0092591991976
 30
0.0
 10
551.6413146695647
 20
282.0092592901757
 30
0.0
 10
552.3172289455945
 20
282.0092592789445
 30
0.0
 10
553.0368973575311
 20
282.0092592046858
 30
0.0
 10
553.7622147985293
 20
282.0092592220632
 30
0.0
 10
554.4467625350236
 20
282.0092592232544
 30
0.0
 10
555.1304654748703
 20
282.009259195924
 30
0.0
 10
555.7712603832698
 20
282.009259290181
 30
0.0
 10
556.2753024587723
 20
282.0092592762409
 30
0.0
 10
556.6726156196398
 20
282.0092592812284
 30
0.0
 10
557.06820620399
 20
282.0092592730514
 30
0.0
 10
557.4503001290448
 20
282.0092593006333
 30
0.0
 10
557.8178733589405
 20
282.0092591985016
 30
0.0
 10
558.0757960112162
 20
282.0092592216778
 30
0.0
 10
558.3838349899584
 20
282.0092592199463
 30
0.0
 10
558.7643202951659
 20
282.0092592212354
 30
0.0
 10
559.3385802490706
 20
282.0092592206345
 30
0.0
 10
559.8654297333683
 20
282.0092592208406
 30
0.0
 10
560.3373155017779
 20
282.0092592207979
 30
0.0
 10
560.7311525930241
 20
282.0092592208093
 30
0.0
 10
561.1047949091263
 20
282.0092592208057
 30
0.0
 10
561.4383784367609
 20
282.0092592208068
 30
0.0
 10
561.7066967111135
 20
282.0092592208065
 30
0.0
 10
561.89538126145
 20
282.0092592208065
 30
0.0
 10
561.920095164497
 20
282.0092592208065
 30
0.0
 10
561.9329037870706
 20
282.0092592208065
 30
0.0
  0
LINE
  5
1F7
330
1F
100
AcDbEntity
  8
0
  6
Continuous
 62
     7
370
    25
100
AcDbLine
 10
494.9527281131
 20
342.0092585782
 30
0.0
 11
496.7460456099
 21
340.0095637242
 31
0.0
  0
LINE
  5
1F8
330
1F
100
AcDbEntity
  8
0
  6
Continuous
 62
     7
370
    25
100
AcDbLine
 10
501.8788697924
 20
342.0092585782
 30
0.0
 11
500.8434979971
 21
340.0095637242
 31
0.0
  0
SPLINE
  5
1F9
330
1F
100
AcDbEntity
  8
0
  6
Continuous
 62
     7
370
    25
100
AcDbSpline
210
0.0
220
0.0
230
1.0
 70
     8
 71
     3
 72
     9
 73
     5
 74
     0
 42
0.000000001
 43
0.00000001
 40
0.0
 40
0.0
 40
0.0
 40
0.0
 40
0.499501313077259
 40
1.0
 40
1.0
 40
1.0
 40
1.0
 10
500.8434979970992
 20
340.0095637241729
 30
0.0
 10
500.606996403849
 20
340.0127380845854
 30
0.0
 10
500.1335209853497
 20
340.0190931437802
 30
0.0
 10
499.6070219395249
 20
340.0224869120377
 30
0.0
 10
499.3435098584235
 20
340.0241854885944
 30
0.0
  0
SPLINE
  5
1FA
330
1F
100
AcDbEntity
  8
0
  6
Continuous
 62
     7
370
    25
100
AcDbSpline
210
0.0
220
0.0
230
1.0
 70
     8
 71
     3
 72
    10
 73
     6
 74
     0
 42
0.000000001
 43
0.00000001
 40
0.0
 40
0.0
 40
0.0
 40
0.0
 40
0.3222751629027472
 40
0.6445678966831017
 40
1.0
 40
1.0
 40
1.0
 40
1.0
 10
496.7460456098855
 20
340.0095637241729
 30
0.0
 10
496.9433811323013
 20
340.013819141709
 30
0.0
 10
497.3380629361326
 20
340.0223302087924
 30
0.0
 10
498.2645386236898
 20
340.025433332081
 30
0.0
 10
498.9723164797814
 20
340.0246147782964
 30
0.0
 10
499.3435098584235
 20
340.0241854885944
 30
0.0
  0
LINE
  5
1FB
330
1F
100
AcDbEntity
  8
0
  6
Continuous
 62
     7
370
    25
100
AcDbLine
 10
559.0223083999
 20
340.0095637242
 30
0.0
 11
557.9869366046
 21
342.0092585782
 31
0.0
  0
LINE
  5
1FC
330
1F
100
AcDbEntity
  8
0
  6
Continuous
 62
     7
370
    25
100
AcDbLine
 10
564.9130801465
 20
342.0092585782
 30
0.0
 11
563.1197589244
 21
340.0095637242
 31
0.0
  0
SPLINE
  5
1FD
330
1F
100
AcDbEntity
  8
0
  6
Continuous
 62
     7
370
    25
100
AcDbSpline
210
0.0
220
0.0
230
1.0
 70
     8
 71
     3
 72
    10
 73
     6
 74
     0
 42
0.000000001
 43
0.00000001
 40
0.0
 40
0.0
 40
0.0
 40
0.0
 40
0.3221174488840739
 40
0.6442369547629619
 40
1.0
 40
1.0
 40
1.0
 40
1.0
 10
560.5222965385259
 20
340.0241854885944
 30
0.0
 10
560.858286275641
 20
340.0244644733687
 30
0.0
 10
561.5302678954528
 20
340.0250224446987
 30
0.0
 10
562.4768194976632
 20
340.0233750359382
 30
0.0
 10
562.8984702262687
 20
340.0143173402572
 30
0.0
 10
563.1197589244188
 20
340.0095637241729
 30
0.0
  0
SPLINE
  5
1FE
330
1F
100
AcDbEntity
  8
0
  6
Continuous
 62
     7
370
    25
100
AcDbSpline
210
0.0
220
0.0
230
1.0
 70
     8
 71
     3
 72
     9
 73
     5
 74
     0
 42
0.000000001
 43
0.00000001
 40
0.0
 40
0.0
 40
0.0
 40
0.0
 40
0.4981359250724914
 40
1.0
 40
1.0
 40
1.0
 40
1.0
 10
560.5222965385259
 20
340.0241854885944
 30
0.0
 10
560.2600383825358
 20
340.0224993092852
 30
0.0
 10
559.7335592775568
 20
340.0191143309603
 30
0.0
 10
559.2599805499074
 20
340.0127551624132
 30
0.0
 10
559.0223083998502
 20
340.0095637241729
 30
0.0
  0
LINE
  5
1FF
330
1F
100
AcDbEntity
  8
0
  6
Continuous
 62
     7
370
    25
100
AcDbLine
 10
500.8434979971
 20
340.0095637242
 30
0.0
 11
505.1156981643
 21
340.0095637242
 31
0.0
  0
LINE
  5
200
330
1F
100
AcDbEntity
  8
0
  6
Continuous
 62
     7
370
    25
100
AcDbLine
 10
554.7501138206
 20
340.0095637242
 30
0.0
 11
559.0223083999
 21
340.0095637242
 31
0.0
  0
SPLINE
  5
201
330
1F
100
AcDbEntity
  8
0
  6
Continuous
 62
     7
370
    25
100
AcDbSpline
210
0.0
220
0.0
230
1.0
 70
     8
 71
     3
 72
    11
 73
     7
 74
     0
 42
0.000000001
 43
0.00000001
 40
0.0
 40
0.0
 40
0.0
 40
0.0
 40
0.2500000320624824
 40
0.4999998298693464
 40
0.7499996266667595
 40
1.0
 40
1.0
 40
1.0
 40
1.0
 10
560.2316829170526
 20
294.5377474004753
 30
0.0
 10
560.4935906826908
 20
294.5365467315549
 30
0.0
 10
561.0174059685538
 20
294.534145394839
 30
0.0
 10
561.7464450084999
 20
294.5370288825452
 30
0.0
 10
562.384940690434
 20
294.5442290703543
 30
0.0
 10
562.6812235129817
 20
294.5526776281158
 30
0.0
 10
562.8293650950731
 20
294.5569019118674
 30
0.0
  0
SPLINE
  5
202
330
1F
100
AcDbEntity
  8
0
  6
Continuous
 62
     7
370
    25
100
AcDbSpline
210
0.0
220
0.0
230
1.0
 70
     8
 71
     3
 72
     9
 73
     5
 74
     0
 42
0.000000001
 43
0.00000001
 40
0.0
 40
0.0
 40
0.0
 40
0.0
 40
0.5000008581052859
 40
1.0
 40
1.0
 40
1.0
 40
1.0
 10
558.7319108452142
 20
294.5569019118674
 30
0.0
 10
558.9686506409731
 20
294.5526172862425
 30
0.0
 10
559.4421294199018
 20
294.5440480496993
 30
0.0
 10
559.9684987191224
 20
294.5398476144804
 30
0.0
 10
560.2316829170526
 20
294.5377474004753
 30
0.0
  0
LINE
  5
203
330
1F
100
AcDbEntity
  8
0
  6
Continuous
 62
     7
370
    25
100
AcDbLine
 10
558.7319108452
 20
294.5569019119
 30
0.0
 11
559.0223083999
 21
340.0095637242
 31
0.0
  0
LINE
  5
204
330
1F
100
AcDbEntity
  8
0
  6
Continuous
 62
     7
370
    25
100
AcDbLine
 10
563.1197589244
 20
340.0095637242
 30
0.0
 11
562.8293650951
 21
294.5569019119
 31
0.0
  0
LINE
  5
205
330
1F
100
AcDbEntity
  8
0
  6
Continuous
 62
     7
370
    25
100
AcDbLine
 10
500.8434979971
 20
340.0095637242
 30
0.0
 11
501.1338955517
 21
294.5569019119
 31
0.0
  0
SPLINE
  5
206
330
1F
100
AcDbEntity
  8
0
  6
Continuous
 62
     7
370
    25
100
AcDbSpline
210
0.0
220
0.0
230
1.0
 70
     8
 71
     3
 72
     9
 73
     5
 74
     0
 42
0.000000001
 43
0.00000001
 40
0.0
 40
0.0
 40
0.0
 40
0.0
 40
0.4999991418947141
 40
1.0
 40
1.0
 40
1.0
 40
1.0
 10
499.6341234798969
 20
294.5377474004753
 30
0.0
 10
499.8973076778269
 20
294.5398476144804
 30
0.0
 10
500.4236769770476
 20
294.5440480496993
 30
0.0
 10
500.8971557559763
 20
294.5526172862425
 30
0.0
 10
501.1338955517352
 20
294.5569019118674
 30
0.0
  0
ARC
  5
207
330
1F
100
AcDbEntity
  8
0
  6
Continuous
 62
     7
370
    25
100
AcDbCircle
 10
498.8797675843
 20
368.3887305159
 30
0.0
 40
73.85483572478934
100
AcDbArc
 50
268.569820421
 51
270.5852312878
  0
LINE
  5
208
330
1F
100
AcDbEntity
  8
0
  6
Continuous
 62
     7
370
    25
100
AcDbLine
 10
496.7460456099
 20
340.0095637242
 30
0.0
 11
497.0364431645
 21
294.5569019119
 31
0.0
  0
LINE
  5
209
330
1F
100
AcDbEntity
  8
0
  6
Continuous
 62
     7
370
    25
100
AcDbLine
 10
501.1338955517
 20
294.5569019119
 30
0.0
 11
504.5455983635
 21
294.5569019119
 31
0.0
  0
LINE
  5
20A
330
1F
100
AcDbEntity
  8
0
  6
Continuous
 62
     7
370
    25
100
AcDbLine
 10
555.3202080335
 20
294.5569019119
 30
0.0
 11
558.7319108452
 21
294.5569019119
 31
0.0
  0
LINE
  5
20B
330
1F
100
AcDbEntity
  8
0
  6
Continuous
 62
     7
370
    25
100
AcDbLine
 10
570.8786296453
 20
342.0092585782
 30
0.0
 11
569.0853121485
 21
340.0095637242
 31
0.0
  0
LINE
  5
20C
330
1F
100
AcDbEntity
  8
0
  6
Continuous
 62
     7
370
    25
100
AcDbLine
 10
563.1197589244
 20
340.0095637242
 30
0.0
 11
569.0853121485
 21
340.0095637242
 31
0.0
  0
LINE
  5
20D
330
1F
100
AcDbEntity
  8
0
  6
Continuous
 62
     7
370
    25
100
AcDbLine
 10
490.7804923858
 20
340.0095637242
 30
0.0
 11
496.7460456099
 21
340.0095637242
 31
0.0
  0
LINE
  5
20E
330
1F
100
AcDbEntity
  8
0
  6
Continuous
 62
     7
370
    25
100
AcDbLine
 10
488.987174889
 20
342.0092585782
 30
0.0
 11
490.7804923858
 21
340.0095637242
 31
0.0
  0
SPLINE
  5
20F
330
1F
100
AcDbEntity
  8
0
  6
Continuous
 62
     7
370
    25
100
AcDbSpline
210
0.0
220
0.0
230
1.0
 70
     8
 71
     3
 72
    11
 73
     7
 74
     0
 42
0.000000001
 43
0.00000001
 40
0.0
 40
0.0
 40
0.0
 40
0.0
 40
0.2500000178967583
 40
0.5000000834774225
 40
0.7499997266419951
 40
1.0
 40
1.0
 40
1.0
 40
1.0
 10
562.8293650950731
 20
294.5569019118674
 30
0.0
 10
562.7853233654736
 20
294.168989989768
 30
0.0
 10
562.6972398978744
 20
293.3931660715806
 30
0.0
 10
562.0943220964463
 20
292.4205982904708
 30
0.0
 10
561.2416615140884
 20
291.7414922076922
 30
0.0
 10
560.5683427322787
 20
291.6533370689015
 30
0.0
 10
560.2316829170526
 20
291.6092594439514
 30
0.0
  0
SPLINE
  5
210
330
1F
100
AcDbEntity
  8
0
  6
Continuous
 62
     7
370
    25
100
AcDbSpline
210
0.0
220
0.0
230
1.0
 70
     8
 71
     3
 72
    11
 73
     7
 74
     0
 42
0.000000001
 43
0.00000001
 40
0.0
 40
0.0
 40
0.0
 40
0.0
 40
0.2499999934569734
 40
0.4999999894105869
 40
0.7499999202091129
 40
1.0
 40
1.0
 40
1.0
 40
1.0
 10
560.2316829170526
 20
291.6092594439514
 30
0.0
 10
560.0373130547858
 20
291.6533372838599
 30
0.0
 10
559.6485733283115
 20
291.7414929641171
 30
0.0
 10
559.1562853418659
 20
292.4205972188103
 30
0.0
 10
558.8081961919863
 20
293.3931666716174
 30
0.0
 10
558.7573392991898
 20
294.1689900880563
 30
0.0
 10
558.7319108452142
 20
294.5569019118674
 30
0.0
  0
SPLINE
  5
211
330
1F
100
AcDbEntity
  8
0
  6
Continuous
 62
     7
370
    25
100
AcDbSpline
210
0.0
220
0.0
230
1.0
 70
     8
 71
     3
 72
    11
 73
     7
 74
     0
 42
0.000000001
 43
0.00000001
 40
0.0
 40
0.0
 40
0.0
 40
0.0
 40
0.2500000797908871
 40
0.5000000105894131
 40
0.7500000065430266
 40
1.0
 40
1.0
 40
1.0
 40
1.0
 10
501.1338955517352
 20
294.5569019118674
 30
0.0
 10
501.1084670977597
 20
294.1689900880563
 30
0.0
 10
501.0576102049631
 20
293.3931666716174
 30
0.0
 10
500.7095210550836
 20
292.4205972188103
 30
0.0
 10
500.2172330686379
 20
291.7414929641171
 30
0.0
 10
499.8284933421635
 20
291.6533372838599
 30
0.0
 10
499.6341234798969
 20
291.6092594439514
 30
0.0
  0
SPLINE
  5
212
330
1F
100
AcDbEntity
  8
0
  6
Continuous
 62
     7
370
    25
100
AcDbSpline
210
0.0
220
0.0
230
1.0
 70
     8
 71
     3
 72
    11
 73
     7
 74
     0
 42
0.000000001
 43
0.00000001
 40
0.0
 40
0.0
 40
0.0
 40
0.0
 40
0.250000056236
 40
0.4999997668038851
 40
0.7500000300979055
 40
1.0
 40
1.0
 40
1.0
 40
1.0
 10
497.0364431645215
 20
294.5569019118674
 30
0.0
 10
497.0804852436431
 20
294.16899018601
 30
0.0
 10
497.1685693409905
 20
293.3931672706499
 30
0.0
 10
497.7714816807011
 20
292.4205961511626
 30
0.0
 10
498.6241466019106
 20
291.7414933960084
 30
0.0
 10
499.2974646522654
 20
291.6533374107277
 30
0.0
 10
499.6341234798969
 20
291.6092594439514
 30
0.0
  0
LINE
  5
213
330
1F
100
AcDbEntity
  8
0
  6
Continuous
 62
     7
370
    25
100
AcDbLine
 10
557.3249171283
 20
291.609259444
 30
0.0
 11
560.2316829171
 21
291.609259444
 31
0.0
  0
LINE
  5
214
330
1F
100
AcDbEntity
  8
0
  6
Continuous
 62
     7
370
    25
100
AcDbLine
 10
502.5408892687
 20
291.609259444
 30
0.0
 11
499.6341234799
 21
291.609259444
 31
0.0
  0
LINE
  5
215
330
1F
100
AcDbEntity
  8
0
  6
Continuous
 62
     7
370
    25
100
AcDbLine
 10
562.8293650951
 20
294.5569019119
 30
0.0
 11
568.0015357937
 21
294.5569019119
 31
0.0
  0
LINE
  5
216
330
1F
100
AcDbEntity
  8
0
  6
Continuous
 62
     7
370
    25
100
AcDbLine
 10
569.0853121485
 20
340.0095637242
 30
0.0
 11
568.0015357937
 21
294.5569019119
 31
0.0
  0
LWPOLYLINE
  5
217
330
1F
100
AcDbEntity
  8
0
  6
Continuous
 62
     7
370
    25
100
AcDbPolyline
 90
       20
 70
   128
 43
0.0
 10
567.6711323466
 20
328.0092600087
 10
567.5934898462
 20
329.1455331544
 10
567.3346231486
 20
330.1586780051
 10
566.9225799646
 20
330.9388953546
 10
566.4020153488
 20
331.4016434649
 10
565.8293376471
 20
331.496772478
 10
565.2666101958
 20
331.2139782409
 10
564.7748122718
 20
330.5839012662
 10
564.4072304274
 20
329.6748224
 10
564.2037066426
 20
328.5852532188
 10
564.1862946357
 20
327.4332667986
 10
564.3568756785
 20
326.3436976174
 10
564.696972331
 20
325.4346187512
 10
565.1697228457
 20
324.8045417766
 10
565.7239007558
 20
324.5217438141
 10
566.2994506563
 20
324.6168765525
 10
566.8340074624
 20
325.0796246628
 10
567.2696391846
 20
325.8598420123
 10
567.5591389443
 20
326.8729831377
 10
567.6711323466
 20
328.0092600087
  0
LWPOLYLINE
  5
218
330
1F
100
AcDbEntity
  8
0
  6
Continuous
 62
     7
370
    25
100
AcDbPolyline
 90
       20
 70
   128
 43
0.0
 10
567.2932202722
 20
303.0092596362
 10
567.2155777718
 20
304.1455346445
 10
566.956707349
 20
305.1586757699
 10
566.544664165
 20
305.9388949821
 10
566.0240995492
 20
306.4016430924
 10
565.4514255728
 20
306.4967739681
 10
564.8886981215
 20
306.2139778683
 10
564.3968964722
 20
305.5839008937
 10
564.0293183531
 20
304.6748220275
 10
563.8257945682
 20
303.5852528463
 10
563.8083825614
 20
302.4332664261
 10
563.9789636041
 20
301.3436972449
 10
564.3190565314
 20
300.4346183787
 10
564.7918107714
 20
299.804541404
 10
565.3459886815
 20
299.5217453042
 10
565.921538582
 20
299.6168743173
 10
566.4560953881
 20
300.0796224276
 10
566.891723385
 20
300.8598416398
 10
567.1812231447
 20
301.8729846279
 10
567.2932202722
 20
303.0092596362
  0
LINE
  5
219
330
1F
100
AcDbEntity
  8
0
  6
Continuous
 62
     7
370
    25
100
AcDbLine
 10
491.8642687406
 20
294.5569019119
 30
0.0
 11
497.0364431645
 21
294.5569019119
 31
0.0
  0
LINE
  5
21A
330
1F
100
AcDbEntity
  8
0
  6
Continuous
 62
     7
370
    25
100
AcDbLine
 10
490.7804923858
 20
340.0095637242
 30
0.0
 11
491.8642687406
 21
294.5569019119
 31
0.0
  0
LWPOLYLINE
  5
21B
330
1F
100
AcDbEntity
  8
0
  6
Continuous
 62
     7
370
    25
100
AcDbPolyline
 90
       20
 70
   128
 43
0.0
 10
496.0725876297
 20
303.0092596362
 10
495.9605905022
 20
304.1455346445
 10
495.6710907425
 20
305.1586757699
 10
495.2354590203
 20
305.9388949821
 10
494.7009059395
 20
306.4016430924
 10
494.1253523137
 20
306.4967739681
 10
493.5711744036
 20
306.2139778683
 10
493.0984238889
 20
305.5839008937
 10
492.7583309616
 20
304.6748220275
 10
492.5877461936
 20
303.5852528463
 10
492.6051619257
 20
302.4332664261
 10
492.8086857106
 20
301.3436972449
 10
493.1762638296
 20
300.4346183787
 10
493.6680617537
 20
299.804541404
 10
494.2307929303
 20
299.5217453042
 10
494.8034669067
 20
299.6168743173
 10
495.3240315224
 20
300.0796224276
 10
495.7360747065
 20
300.8598416398
 10
495.994941404
 20
301.8729846279
 10
496.0725876297
 20
303.0092596362
  0
LWPOLYLINE
  5
21C
330
1F
100
AcDbEntity
  8
0
  6
Continuous
 62
     7
370
    25
100
AcDbPolyline
 90
       20
 70
   128
 43
0.0
 10
495.6946718301
 20
328.0092600087
 10
495.5826747026
 20
329.1455331544
 10
495.2931786682
 20
330.1586780051
 10
494.857546946
 20
330.9388953546
 10
494.3229901399
 20
331.4016434649
 10
493.7474402394
 20
331.496772478
 10
493.1932623293
 20
331.2139782409
 10
492.7205118145
 20
330.5839012662
 10
492.380415162
 20
329.6748224
 10
492.2098341193
 20
328.5852532188
 10
492.2272461261
 20
327.4332667986
 10
492.430769911
 20
326.3436976174
 10
492.79834803
 20
325.4346187512
 10
493.2901496794
 20
324.8045417766
 10
493.8528771307
 20
324.5217438141
 10
494.4255548324
 20
324.6168765525
 10
494.9461194481
 20
325.0796246628
 10
495.3581589069
 20
325.8598420123
 10
495.6170293297
 20
326.8729831377
 10
495.6946718301
 20
328.0092600087
  0
LINE
  5
21D
330
1F
100
AcDbEntity
  8
0
  6
Continuous
 62
     7
370
    25
100
AcDbLine
 10
565.403857341
 20
291.609259444
 30
0.0
 11
560.2316829171
 21
291.609259444
 31
0.0
  0
SPLINE
  5
21E
330
1F
100
AcDbEntity
  8
0
  6
Continuous
 62
     7
370
    25
100
AcDbSpline
210
0.0
220
0.0
230
1.0
 70
     8
 71
     3
 72
    11
 73
     7
 74
     0
 42
0.000000001
 43
0.00000001
 40
0.0
 40
0.0
 40
0.0
 40
0.0
 40
0.2500001416848013
 40
0.4999999377013696
 40
0.7500002864442621
 40
1.0
 40
1.0
 40
1.0
 40
1.0
 10
568.0015357937158
 20
294.5569019118674
 30
0.0
 10
567.9574937119395
 20
294.1689901863444
 30
0.0
 10
567.8694096092829
 20
293.3931672716531
 30
0.0
 10
567.266497309392
 20
292.4205961471499
 30
0.0
 10
566.4138326254497
 20
291.741493720541
 30
0.0
 10
565.7405154840187
 20
291.6533374988175
 30
0.0
 10
565.4038573409856
 20
291.6092594439514
 30
0.0
  0
LINE
  5
21F
330
1F
100
AcDbEntity
  8
0
  6
Continuous
 62
     7
370
    25
100
AcDbLine
 10
499.6341234799
 20
291.609259444
 30
0.0
 11
494.4619509186
 21
291.609259444
 31
0.0
  0
SPLINE
  5
220
330
1F
100
AcDbEntity
  8
0
  6
Continuous
 62
     7
370
    25
100
AcDbSpline
210
0.0
220
0.0
230
1.0
 70
     8
 71
     3
 72
    11
 73
     7
 74
     0
 42
0.000000001
 43
0.00000001
 40
0.0
 40
0.0
 40
0.0
 40
0.0
 40
0.2500000178967583
 40
0.5000000834774225
 40
0.7499997266419951
 40
1.0
 40
1.0
 40
1.0
 40
1.0
 10
491.8642687405885
 20
294.5569019118674
 30
0.0
 10
491.9083104701879
 20
294.168989989768
 30
0.0
 10
491.9963939377871
 20
293.3931660715806
 30
0.0
 10
492.5993117392152
 20
292.4205982904708
 30
0.0
 10
493.4519723215732
 20
291.7414922076922
 30
0.0
 10
494.1252911033829
 20
291.6533370689015
 30
0.0
 10
494.461950918609
 20
291.6092594439514
 30
0.0
  0
SPLINE
  5
221
330
1F
100
AcDbEntity
  8
0
  6
Continuous
 62
     7
370
    25
100
AcDbSpline
210
0.0
220
0.0
230
1.0
 70
     8
 71
     3
 72
     9
 73
     5
 74
     0
 42
0.000000001
 43
0.00000001
 40
0.0
 40
0.0
 40
0.0
 40
0.0
 40
0.4995013018326913
 40
1.0
 40
1.0
 40
1.0
 40
1.0
 10
490.7804923857988
 20
340.0095637241729
 30
0.0
 10
490.6641720424566
 20
340.0127380846017
 30
0.0
 10
490.4312990891424
 20
340.0190931439721
 30
0.0
 10
490.3959252157778
 20
340.0224869120763
 30
0.0
 10
490.3782206382097
 20
340.0241854885944
 30
0.0
  0
SPLINE
  5
222
330
1F
100
AcDbEntity
  8
0
  6
Continuous
 62
     7
370
    25
100
AcDbSpline
210
0.0
220
0.0
230
1.0
 70
     8
 71
     3
 72
     9
 73
     5
 74
     0
 42
0.000000001
 43
0.00000001
 40
0.0
 40
0.0
 40
0.0
 40
0.0
 40
0.6476752234973481
 40
0.9999999999999999
 40
0.9999999999999999
 40
0.9999999999999999
 40
0.9999999999999999
 10
569.0853121485055
 20
340.0095637241729
 30
0.0
 10
569.2379479981371
 20
340.0140509498232
 30
0.0
 10
569.4736152648379
 20
340.0209791531689
 30
0.0
 10
569.4526701560935
 20
340.022369449429
 30
0.0
 10
569.4452906753362
 20
340.0228592852481
 30
0.0
  0
SPLINE
  5
223
330
1F
100
AcDbEntity
  8
0
  6
Continuous
 62
     7
370
    25
100
AcDbSpline
210
0.0
220
0.0
230
1.0
 70
     8
 71
     3
 72
     9
 73
     5
 74
     0
 42
0.000000001
 43
0.00000001
 40
0.0
 40
0.0
 40
0.0
 40
0.0
 40
0.4999994467874286
 40
1.0
 40
1.0
 40
1.0
 40
1.0
 10
491.4628016557039
 20
294.5377474004753
 30
0.0
 10
491.4803695772821
 20
294.539847613063
 30
0.0
 10
491.5155054593139
 20
294.5440480428859
 30
0.0
 10
491.7480142277458
 20
294.5526172857132
 30
0.0
 10
491.8642687405885
 20
294.5569019118674
 30
0.0
  0
SPLINE
  5
224
330
1F
100
AcDbEntity
  8
0
  6
Continuous
 62
     7
370
    25
100
AcDbSpline
210
0.0
220
0.0
230
1.0
 70
    24
 71
     3
 72
    11
 73
     7
 74
     0
 42
0.000000001
 43
0.00000001
 40
0.0
 40
0.0
 40
0.0
 40
0.0
 40
0.2421505125382847
 40
0.5000506629002833
 40
0.7804446101654843
 40
0.9999999999999999
 40
0.9999999999999999
 40
0.9999999999999999
 40
0.9999999999999999
 10
427.6329065467656
 20
421.3159653643497
 30
0.0
 10
427.6329065467656
 20
421.5391032104162
 30
0.0
 10
427.6329065467656
 20
421.9998919433166
 30
0.0
 10
427.6329065467656
 20
422.5764859806469
 30
0.0
 10
427.6329065467656
 20
422.9475786526306
 30
0.0
 10
427.6329065467656
 20
422.9904372412411
 30
0.0
 10
427.6329065467656
 20
423.0092588166125
 30
0.0
  0
SPLINE
  5
225
330
1F
100
AcDbEntity
  8
0
  6
Continuous
 62
     7
370
    25
100
AcDbSpline
210
0.0
220
0.0
230
1.0
 70
     8
 71
     3
 72
    11
 73
     7
 74
     0
 42
0.000000001
 43
0.00000001
 40
0.0
 40
0.0
 40
0.0
 40
0.0
 40
0.2513775094679511
 40
0.5017632786419928
 40
0.7512688930445725
 40
1.0
 40
1.0
 40
1.0
 40
1.0
 10
424.6329004670919
 20
421.5092632273563
 30
0.0
 10
425.0286610137781
 20
421.5069708954397
 30
0.0
 10
425.8186207435995
 20
421.5023952753668
 30
0.0
 10
426.8106658214481
 20
421.4644773749432
 30
0.0
 10
427.4994722578977
 20
421.4058353730634
 30
0.0
 10
427.5884745684154
 20
421.3458909727924
 30
0.0
 10
427.6329065467656
 20
421.3159653643497
 30
0.0
  0
SPLINE
  5
226
330
1F
100
AcDbEntity
  8
0
  6
Continuous
 62
     7
370
    25
100
AcDbSpline
210
0.0
220
0.0
230
1.0
 70
    24
 71
     3
 72
    11
 73
     7
 74
     0
 42
0.000000001
 43
0.00000001
 40
0.0
 40
0.0
 40
0.0
 40
0.0
 40
0.2499938579123112
 40
0.4999977126356468
 40
0.7500022765475447
 40
0.9999999999999999
 40
0.9999999999999999
 40
0.9999999999999999
 40
0.9999999999999999
 10
632.2329054381192
 20
423.0092588166125
 30
0.0
 10
632.2329054381192
 20
422.9850235452657
 30
0.0
 10
632.2329054381192
 20
422.9365520334464
 30
0.0
 10
632.2329054381192
 20
422.557897300125
 30
0.0
 10
632.2329054381191
 20
422.0072525250685
 30
0.0
 10
632.2329054381192
 20
421.5463923162685
 30
0.0
 10
632.2329054381192
 20
421.3159653643497
 30
0.0
  0
SPLINE
  5
227
330
1F
100
AcDbEntity
  8
0
  6
Continuous
 62
     7
370
    25
100
AcDbSpline
210
0.0
220
0.0
230
1.0
 70
     8
 71
     3
 72
    11
 73
     7
 74
     0
 42
0.000000001
 43
0.00000001
 40
0.0
 40
0.0
 40
0.0
 40
0.0
 40
0.2513762320631157
 40
0.5017635994528223
 40
0.7512686149538659
 40
1.0
 40
1.0
 40
1.0
 40
1.0
 10
635.2329040672124
 20
421.5092632273563
 30
0.0
 10
634.8371465954192
 20
421.5069708391371
 30
0.0
 10
634.0471884839166
 20
421.5023950805032
 30
0.0
 10
633.0551384295576
 20
421.4644776630449
 30
0.0
 10
632.3663413123418
 20
421.4058351918698
 30
0.0
 10
632.2773379965913
 20
421.3458909476265
 30
0.0
 10
632.2329054381192
 20
421.3159653643497
 30
0.0
  0
LINE
  5
228
330
1F
100
AcDbEntity
  8
0
  6
Continuous
 62
     7
370
    25
100
AcDbLine
 10
424.6329004671
 20
420.0092527369
 30
0.0
 11
424.6329004671
 21
421.5092632274
 31
0.0
  0
LINE
  5
229
330
1F
100
AcDbEntity
  8
0
  6
Continuous
 62
     7
370
    25
100
AcDbLine
 10
427.6329065468
 20
420.0092527369
 30
0.0
 11
427.6329065468
 21
421.3159653643
 31
0.0
  0
LINE
  5
22A
330
1F
100
AcDbEntity
  8
0
  6
Continuous
 62
     7
370
    25
100
AcDbLine
 10
415.9829030539
 20
421.5092632274
 30
0.0
 11
424.6329004671
 21
421.5092632274
 31
0.0
  0
LINE
  5
22B
330
1F
100
AcDbEntity
  8
0
  6
Continuous
 62
     7
370
    25
100
AcDbLine
 10
635.2329040672
 20
421.5092632274
 30
0.0
 11
643.8829014804
 21
421.5092632274
 31
0.0
  0
LINE
  5
22C
330
1F
100
AcDbEntity
  8
0
  6
Continuous
 62
     7
370
    25
100
AcDbLine
 10
643.8829014804
 20
420.0092527369
 30
0.0
 11
643.8829014804
 21
421.5092632274
 31
0.0
  0
LINE
  5
22D
330
1F
100
AcDbEntity
  8
0
  6
Continuous
 62
     7
370
    25
100
AcDbLine
 10
635.2329040672
 20
420.0092527369
 30
0.0
 11
635.2329040672
 21
421.5092632274
 31
0.0
  0
LINE
  5
22E
330
1F
100
AcDbEntity
  8
0
  6
Continuous
 62
     7
370
    25
100
AcDbLine
 10
632.2329054381
 20
421.3159653643
 30
0.0
 11
632.2329054381
 21
420.0092527369
 31
0.0
  0
ARC
  5
22F
330
1F
100
AcDbEntity
  8
0
  6
Continuous
 62
     7
370
    25
100
AcDbCircle
 10
445.5550355606
 20
411.259070227
 30
0.0
 40
8.706387421067745
100
AcDbArc
 50
175.0569121849
 51
181.6441710168
  0
SPLINE
  5
230
330
1F
100
AcDbEntity
  8
0
  6
Continuous
 62
     7
370
    25
100
AcDbSpline
210
0.0
220
0.0
230
1.0
 70
     8
 71
     3
 72
    13
 73
     9
 74
     0
 42
0.000000001
 43
0.00000001
 40
0.0
 40
0.0
 40
0.0
 40
0.0
 40
0.1096673029648728
 40
0.2219883093700684
 40
0.3397006476101946
 40
0.4634401094977136
 40
0.7258348930831319
 40
0.9999999999999999
 40
0.9999999999999999
 40
0.9999999999999999
 40
0.9999999999999999
 10
435.4757602121175
 20
411.4600691298373
 30
0.0
 10
435.4830941350437
 20
411.4582968802206
 30
0.0
 10
435.4979394454274
 20
411.4547094965104
 30
0.0
 10
435.5946996876091
 20
411.4242551085611
 30
0.0
 10
435.7337396995596
 20
411.3794670376544
 30
0.0
 10
435.978305106756
 20
411.2995754081047
 30
0.0
 10
436.3585868423754
 20
411.1740624535833
 30
0.0
 10
436.6852950705265
 20
411.0649945459766
 30
0.0
 10
436.8522326256574
 20
411.0092643002399
 30
0.0
  0
ARC
  5
231
330
1F
100
AcDbEntity
  8
0
  6
Continuous
 62
     7
370
    25
100
AcDbCircle
 10
434.583247365
 20
411.0094462735
 30
0.0
 40
0.9998200542735375
100
AcDbArc
 50
26.7888581743
 51
89.9974183413
  0
ARC
  5
232
330
1F
100
AcDbEntity
  8
0
  6
Continuous
 62
     7
370
    25
100
AcDbCircle
 10
625.2825458283
 20
411.0094647032
 30
0.0
 40
0.9998016242161041
100
AcDbArc
 50
90.0019317851
 51
153.2117916994
  0
SPLINE
  5
233
330
1F
100
AcDbEntity
  8
0
  6
Continuous
 62
     7
370
    25
100
AcDbSpline
210
0.0
220
0.0
230
1.0
 70
     8
 71
     3
 72
    13
 73
     9
 74
     0
 42
0.000000001
 43
0.00000001
 40
0.0
 40
0.0
 40
0.0
 40
0.0
 40
0.2740616108313369
 40
0.5363214859067885
 40
0.6606787472380037
 40
0.7780123989742578
 40
0.8898888913945835
 40
1.0
 40
1.0
 40
1.0
 40
1.0
 10
623.0135719086469
 20
411.0092643002399
 30
0.0
 10
623.18061366019
 20
411.0650227301105
 30
0.0
 10
623.5075039536697
 20
411.1741385010839
 30
0.0
 10
623.8874530916626
 20
411.2995812367603
 30
0.0
 10
624.1326599078341
 20
411.3796486923875
 30
0.0
 10
624.272206235188
 20
411.424628121107
 30
0.0
 10
624.3684111210328
 20
411.4548998847422
 30
0.0
 10
624.3828715880186
 20
411.4583552077668
 30
0.0
 10
624.3900443221868
 20
411.4600691298373
 30
0.0
  0
ARC
  5
234
330
1F
100
AcDbEntity
  8
0
  6
Continuous
 62
     7
370
    25
100
AcDbCircle
 10
614.3107689737
 20
411.259070227
 30
0.0
 40
8.706387421067634
100
AcDbArc
 50
358.3558289832
 51
4.9430878151
  0
LINE
  5
235
330
1F
100
AcDbEntity
  8
0
  6
Continuous
 62
     7
370
    25
100
AcDbLine
 10
623.0135719086
 20
411.0092643002
 30
0.0
 11
615.6415204312
 21
411.0092643002
 31
0.0
  0
LINE
  5
236
330
1F
100
AcDbEntity
  8
0
  6
Continuous
 62
     7
370
    25
100
AcDbLine
 10
615.6127239372
 20
411.0380533437
 30
0.0
 11
615.6415204312
 21
411.0092643002
 31
0.0
  0
ELLIPSE
  5
237
330
1F
100
AcDbEntity
  8
0
  6
Continuous
 62
     7
370
    25
100
AcDbEllipse
 10
615.6127259118
 20
411.0092592232
 30
0.0
 11
0.9998963366754198
 21
-0.9998963366754198
 31
0.0
210
0.0
220
0.0
230
1.0
 40
0.0143999615
 41
1.58519529312382
 42
3.115531615339439
  0
LINE
  5
238
330
1F
100
AcDbEntity
  8
0
  6
Continuous
 62
     7
370
    25
100
AcDbLine
 10
444.2242841031
 20
411.0092643002
 30
0.0
 11
436.8522326257
 21
411.0092643002
 31
0.0
  0
ELLIPSE
  5
239
330
1F
100
AcDbEntity
  8
0
  6
Continuous
 62
     7
370
    25
100
AcDbEllipse
 10
444.2530805399
 20
411.0092592232
 30
0.0
 11
0.9998963366752491
 21
0.9998963366751923
 31
0.0
210
0.0
220
0.0
230
1.0
 40
0.0143999615
 41
0.0260610382542905
 42
1.556397360465972
  0
LINE
  5
23A
330
1F
100
AcDbEntity
  8
0
  6
Continuous
 62
     7
370
    25
100
AcDbLine
 10
444.2242841031
 20
411.0092643002
 30
0.0
 11
444.2530805971
 21
411.0380533437
 31
0.0
  0
LINE
  5
23B
330
1F
100
AcDbEntity
  8
0
  6
Continuous
 62
     7
370
    25
100
AcDbLine
 10
615.6415204312
 20
411.0092643002
 30
0.0
 11
615.6415204312
 21
396.4074599842
 31
0.0
  0
LINE
  5
23C
330
1F
100
AcDbEntity
  8
0
  6
Continuous
 62
     7
370
    25
100
AcDbLine
 10
615.6415204312
 20
396.4074599842
 30
0.0
 11
614.6135414745
 21
396.4074599842
 31
0.0
  0
LINE
  5
23D
330
1F
100
AcDbEntity
  8
0
  6
Continuous
 62
     7
370
    25
100
AcDbLine
 10
445.2522630598
 20
396.4074599842
 30
0.0
 11
444.2242841031
 21
396.4074599842
 31
0.0
  0
LINE
  5
23E
330
1F
100
AcDbEntity
  8
0
  6
Continuous
 62
     7
370
    25
100
AcDbLine
 10
444.2242841031
 20
411.0092643002
 30
0.0
 11
444.2242841031
 21
396.4074599842
 31
0.0
  0
SPLINE
  5
23F
330
1F
100
AcDbEntity
  8
0
  6
Continuous
 62
     7
370
    25
100
AcDbSpline
210
0.0
220
0.0
230
1.0
 70
     8
 71
     3
 72
    13
 73
     9
 74
     0
 42
0.000000001
 43
0.00000001
 40
0.0
 40
0.0
 40
0.0
 40
0.0
 40
0.0195561477941053
 40
0.0397580917315576
 40
0.085561835909545
 40
0.1986376436811478
 40
0.4553577804313483
 40
1.0
 40
1.0
 40
1.0
 40
1.0
 10
614.7781844045461
 20
392.421876202
 30
0.0
 10
614.778350140645
 20
392.42467909927
 30
0.0
 10
614.7786870858906
 20
392.4303774529511
 30
0.0
 10
614.7894368797564
 20
392.4878648681271
 30
0.0
 10
614.8273517390083
 20
392.6752720800242
 30
0.0
 10
614.9419569158171
 20
393.2196220252585
 30
0.0
 10
615.2152729346986
 20
394.489799583534
 30
0.0
 10
615.4690452504115
 20
395.6315051058058
 30
0.0
 10
615.6415204312146
 20
396.407459984196
 30
0.0
  0
ARC
  5
240
330
1F
100
AcDbEntity
  8
0
  6
Continuous
 62
     7
370
    25
100
AcDbCircle
 10
615.6709635164
 20
391.9710664482
 30
0.0
 40
1.000141978282849
100
AcDbArc
 50
153.2084589382
 51
180.0001447305
  0
SPLINE
  5
241
330
1F
100
AcDbEntity
  8
0
  6
Continuous
 62
     7
370
    25
100
AcDbSpline
210
0.0
220
0.0
230
1.0
 70
     8
 71
     3
 72
    13
 73
     9
 74
     0
 42
0.000000001
 43
0.00000001
 40
0.0
 40
0.0
 40
0.0
 40
0.0
 40
0.5426790643763696
 40
0.8004398431263988
 40
0.9141089202216112
 40
0.9601976300253358
 40
0.9804599558346537
 40
1.0
 40
1.0
 40
1.0
 40
1.0
 10
444.2242841030896
 20
396.407459984196
 30
0.0
 10
444.396104353318
 20
395.6344414574045
 30
0.0
 10
444.6495354936861
 20
394.4942559058764
 30
0.0
 10
444.9229259381955
 20
393.224055954392
 30
0.0
 10
445.0380199642025
 20
392.6772770357853
 30
0.0
 10
445.0762155607146
 20
392.4886443876099
 30
0.0
 10
445.0870878478962
 20
392.430501432593
 30
0.0
 10
445.0874448620135
 20
392.4247162850867
 30
0.0
 10
445.0876201297582
 20
392.421876202
 30
0.0
  0
ARC
  5
242
330
1F
100
AcDbEntity
  8
0
  6
Continuous
 62
     7
370
    25
100
AcDbCircle
 10
444.1947931183
 20
391.9710385105
 30
0.0
 40
1.000197328785878
100
AcDbArc
 50
0.0014556745
 51
26.791732857
  0
LINE
  5
243
330
1F
100
AcDbEntity
  8
0
  6
Continuous
 62
     7
370
    25
100
AcDbLine
 10
624.3900443222
 20
411.4600691298
 30
0.0
 11
614.7781844045
 21
392.421876202
 31
0.0
  0
LINE
  5
244
330
1F
100
AcDbEntity
  8
0
  6
Continuous
 62
     7
370
    25
100
AcDbLine
 10
623.0135719086
 20
411.0092643002
 30
0.0
 11
615.6415204312
 21
396.4074599842
 31
0.0
  0
LINE
  5
245
330
1F
100
AcDbEntity
  8
0
  6
Continuous
 62
     7
370
    25
100
AcDbLine
 10
444.2242841031
 20
396.4074599842
 30
0.0
 11
436.8522326257
 21
411.0092643002
 31
0.0
  0
LINE
  5
246
330
1F
100
AcDbEntity
  8
0
  6
Continuous
 62
     7
370
    25
100
AcDbLine
 10
435.4757602121
 20
411.4600691298
 30
0.0
 11
445.0876201298
 21
392.421876202
 31
0.0
  0
LINE
  5
247
330
1F
100
AcDbEntity
  8
0
  6
Continuous
 62
     8
370
    25
100
AcDbLine
 10
657.4280421044
 20
792.5092849234
 30
0.0
 11
654.3936143424
 21
792.5092849234
 31
0.0
  0
LINE
  5
248
330
1F
100
AcDbEntity
  8
0
  6
Continuous
 62
     8
370
    25
100
AcDbLine
 10
405.2611152436
 20
792.5092849234
 30
0.0
 11
402.4394909646
 21
792.5092849234
 31
0.0
  0
LINE
  5
249
330
1F
100
AcDbEntity
  8
0
  6
Continuous
 62
     8
370
    25
100
AcDbLine
 10
854.9329052474
 20
716.8092700938
 30
0.0
 11
204.9328992869
 21
716.8092700938
 31
0.0
  0
LINE
  5
24A
330
1F
100
AcDbEntity
  8
0
  6
Continuous
 62
     8
370
    25
100
AcDbLine
 10
854.9329052474
 20
705.8092627028
 30
0.0
 11
204.9328992869
 21
705.8092627028
 31
0.0
  0
LINE
  5
24B
330
1F
100
AcDbEntity
  8
0
  6
Continuous
 62
     8
370
    25
100
AcDbLine
 10
668.6201254632
 20
721.7831286887
 30
0.0
 11
534.4337630812
 21
721.7831286887
 31
0.0
  0
LINE
  5
24C
330
1F
100
AcDbEntity
  8
0
  6
Continuous
 62
     8
370
    25
100
AcDbLine
 10
525.4337630029
 20
721.7831286887
 30
0.0
 11
391.2456790711
 21
721.7831286887
 31
0.0
  0
LINE
  5
24D
330
1F
100
AcDbEntity
  8
0
  6
Continuous
 62
     8
370
    25
100
AcDbLine
 10
524.3337630089
 20
758.3092722396
 30
0.0
 11
524.9337633866
 21
758.3092722396
 31
0.0
  0
LINE
  5
24E
330
1F
100
AcDbEntity
  8
0
  6
Continuous
 62
     8
370
    25
100
AcDbLine
 10
534.9337631631
 20
758.3092722396
 30
0.0
 11
535.5337630752
 21
758.3092722396
 31
0.0
  0
SPLINE
  5
24F
330
1F
100
AcDbEntity
  8
0
  6
Continuous
 62
     8
370
    25
100
AcDbSpline
210
0.0
220
0.0
230
1.0
 70
     8
 71
     3
 72
    13
 73
     9
 74
     0
 42
0.000000001
 43
0.00000001
 40
0.0
 40
0.0
 40
0.0
 40
0.0
 40
0.1290915570228614
 40
0.2613087401041138
 40
0.3998674831166509
 40
0.5455236574583079
 40
0.8543938153331985
 40
1.0
 40
1.0
 40
1.0
 40
1.0
 10
531.6438684965909
 20
411.4600691298373
 30
0.0
 10
531.714134272767
 20
411.4582970977369
 30
0.0
 10
531.8563671334471
 20
411.4547101282533
 30
0.0
 10
532.0531169545809
 20
411.4242522085269
 30
0.0
 10
532.2279473733583
 20
411.3794815415534
 30
0.0
 10
532.4233824533861
 20
411.2994870573254
 30
0.0
 10
532.5609935585524
 20
411.2032419904887
 30
0.0
 10
532.5779806633963
 20
411.1250490926935
 30
0.0
 10
532.5834230314434
 20
411.0999974707492
 30
0.0
  0
SPLINE
  5
250
330
1F
100
AcDbEntity
  8
0
  6
Continuous
 62
     8
370
    25
100
AcDbSpline
210
0.0
220
0.0
230
1.0
 70
     8
 71
     3
 72
    13
 73
     9
 74
     0
 42
0.000000001
 43
0.00000001
 40
0.0
 40
0.0
 40
0.0
 40
0.0
 40
0.4847995641884897
 40
0.7752578970712724
 40
0.9031939953904113
 40
0.9550169241455747
 40
0.9778738085786852
 40
1.0
 40
1.0
 40
1.0
 40
1.0
 10
527.5070702917368
 20
395.9138217667468
 30
0.0
 10
527.5341805936348
 20
395.303594117517
 30
0.0
 10
527.5775335113989
 20
394.327760311089
 30
0.0
 10
527.8592102246605
 20
393.2196823529364
 30
0.0
 10
528.1169973299312
 20
392.6752692571964
 30
0.0
 10
528.3005080541634
 20
392.4878647819961
 30
0.0
 10
528.413256909802
 20
392.4303774507716
 30
0.0
 10
528.471339340326
 20
392.4246790974163
 30
0.0
 10
528.4999088178814
 20
392.421876202
 30
0.0
  0
LINE
  5
251
330
1F
100
AcDbEntity
  8
0
  6
Continuous
 62
     8
370
    25
100
AcDbLine
 10
526.5048533473
 20
396.4074599842
 30
0.0
 11
526.5048533473
 21
411.9767519931
 31
0.0
  0
LINE
  5
252
330
1F
100
AcDbEntity
  8
0
  6
Continuous
 62
     8
370
    25
100
AcDbLine
 10
533.3609530497
 20
411.9767519931
 30
0.0
 11
533.3609530497
 21
396.4074599842
 31
0.0
  0
LINE
  5
253
330
1F
100
AcDbEntity
  8
0
  6
Continuous
 62
     8
370
    25
100
AcDbLine
 10
614.6829063799
 20
391.9710639218
 30
0.0
 11
614.6708215381
 21
391.9710639218
 31
0.0
  0
LINE
  5
254
330
1F
100
AcDbEntity
  8
0
  6
Continuous
 62
     8
370
    25
100
AcDbLine
 10
445.1949904467
 20
391.9710639218
 30
0.0
 11
445.182905605
 21
391.9710639218
 31
0.0
  0
LINE
  5
255
330
1F
100
AcDbEntity
  8
0
  6
Continuous
 62
     8
370
    25
100
AcDbLine
 10
445.182905605
 20
347.0092612604
 30
0.0
 11
614.6829063799
 21
347.0092612604
 31
0.0
  0
LINE
  5
256
330
1F
100
AcDbEntity
  8
0
  6
Continuous
 62
     8
370
    25
100
AcDbLine
 10
494.9329021181
 20
285.0092592469
 30
0.0
 11
564.9329024162
 21
285.0092592469
 31
0.0
  0
ARC
  5
257
330
1F
100
AcDbEntity
  8
0
  6
Continuous
 62
     8
370
    25
100
AcDbCircle
 10
567.9462831289
 20
289.1812257645
 30
0.0
 40
5.375960090883816
100
AcDbArc
 50
85.1265086744
 51
89.4111190961
  0
LINE
  5
258
330
1F
100
AcDbEntity
  8
0
  6
Continuous
 62
     8
370
    25
100
AcDbLine
 10
424.6329004671
 20
421.5092632274
 30
0.0
 11
424.6329004671
 21
426.0092648963
 31
0.0
  0
LINE
  5
259
330
1F
100
AcDbEntity
  8
0
  6
Continuous
 62
     8
370
    25
100
AcDbLine
 10
635.2329040672
 20
426.0092648963
 30
0.0
 11
635.2329040672
 21
421.5092632274
 31
0.0
  0
LINE
  5
25A
330
1F
100
AcDbEntity
  8
0
  6
Continuous
 62
     8
370
    25
100
AcDbLine
 10
435.4757602121
 20
411.4600691298
 30
0.0
 11
435.4602704551
 21
411.4600691298
 31
0.0
  0
LINE
  5
25B
330
1F
100
AcDbEntity
  8
0
  6
Continuous
 62
     8
370
    25
100
AcDbLine
 10
624.4055340792
 20
411.4600691298
 30
0.0
 11
624.3900443222
 21
411.4600691298
 31
0.0
  0
LINE
  5
25C
330
1F
100
AcDbEntity
  8
0
  6
Continuous
 62
     8
370
    25
100
AcDbLine
 10
445.0755203869
 20
392.421876202
 30
0.0
 11
445.0876201298
 21
392.421876202
 31
0.0
  0
LINE
  5
25D
330
1F
100
AcDbEntity
  8
0
  6
Continuous
 62
     8
370
    25
100
AcDbLine
 10
614.7781844045
 20
392.421876202
 30
0.0
 11
614.7902841474
 21
392.421876202
 31
0.0
  0
CIRCLE
  5
25E
330
1F
100
AcDbEntity
  8
0
  6
Continuous
 62
     7
370
    25
100
AcDbCircle
 10
529.9329032258
 20
-84.4427373419
 30
0.0
 40
136.0401349624733
  0
ARC
  5
25F
330
1F
100
AcDbEntity
  8
0
  6
Continuous
 62
     7
370
    25
100
AcDbCircle
 10
529.9337628977
 20
-84.4429526214
 30
0.0
 40
125.0000000000002
100
AcDbArc
 50
94.1474853912
 51
174.6716120263
  0
SPLINE
  5
260
330
1F
100
AcDbEntity
  8
0
  6
Continuous
 62
     7
370
    25
100
AcDbSpline
210
0.0
220
0.0
230
1.0
 70
     8
 71
     3
 72
    13
 73
     9
 74
     0
 42
0.000000001
 43
0.00000001
 40
0.0
 40
0.0
 40
0.0
 40
0.0
 40
0.0024439681903514
 40
0.1640919672537572
 40
0.3782932393931958
 40
0.5869989387994002
 40
0.7934609903538152
 40
1.0
 40
1.0
 40
1.0
 40
1.0
 10
522.5308831575752
 20
35.32848872878315
 30
0.0
 10
522.5287193992293
 20
35.33459806712221
 30
0.0
 10
522.3834411730064
 20
35.74478889965134
 30
0.0
 10
522.0529099908783
 20
36.69472665233216
 30
0.0
 10
521.5900053531954
 20
38.07259007847903
 30
0.0
 10
521.2008443528475
 20
39.26582670422149
 30
0.0
 10
520.942637340975
 20
40.07369871962471
 30
0.0
 10
520.9097167975245
 20
40.17769092213469
 30
0.0
 10
520.8932534586132
 20
40.22969671227695
 30
0.0
  0
ARC
  5
261
330
1F
100
AcDbEntity
  8
0
  6
Continuous
 62
     7
370
    25
100
AcDbCircle
 10
529.9337628977
 20
-84.4429526214
 30
0.0
 40
120.0000000000009
100
AcDbArc
 50
93.5368605872
 51
175.2822368304
  0
SPLINE
  5
262
330
1F
100
AcDbEntity
  8
0
  6
Continuous
 62
     7
370
    25
100
AcDbSpline
210
0.0
220
0.0
230
1.0
 70
     8
 71
     3
 72
    13
 73
     9
 74
     0
 42
0.000000001
 43
0.00000001
 40
0.0
 40
0.0
 40
0.0
 40
0.0
 40
0.2065388970780273
 40
0.4130008260943905
 40
0.6217063184701801
 40
0.8359070090993236
 40
0.9975555991573398
 40
1.0
 40
1.0
 40
1.0
 40
1.0
 10
405.4739112760366
 20
-72.83496211580274
 30
0.0
 10
405.5255667880427
 20
-72.85249392941547
 30
0.0
 10
405.6288585622927
 20
-72.8875510232967
 30
0.0
 10
406.4312381276914
 20
-73.16235063982418
 30
0.0
 10
407.6161977073933
 20
-73.57602512306879
 30
0.0
 10
408.9842324647252
 20
-74.06721579398476
 30
0.0
 10
409.9271481676355
 20
-74.41728212370992
 30
0.0
 10
410.3342678659311
 20
-74.57096495435339
 30
0.0
 10
410.3403324987233
 20
-74.57325428090331
 30
0.0
  0
ARC
  5
263
330
1F
100
AcDbEntity
  8
0
  6
Continuous
 62
     7
370
    25
100
AcDbCircle
 10
529.9337628977
 20
-84.4429526214
 30
0.0
 40
125.0
100
AcDbArc
 50
274.1474853912
 51
354.6716120263
  0
SPLINE
  5
264
330
1F
100
AcDbEntity
  8
0
  6
Continuous
 62
     7
370
    25
100
AcDbSpline
210
0.0
220
0.0
230
1.0
 70
     8
 71
     3
 72
    13
 73
     9
 74
     0
 42
0.000000001
 43
0.00000001
 40
0.0
 40
0.0
 40
0.0
 40
0.0
 40
0.2065389987822535
 40
0.4130010221271679
 40
0.6217067376082196
 40
0.8359071832777855
 40
0.9975560514764638
 40
1.0
 40
1.0
 40
1.0
 40
1.0
 10
538.974272159809
 20
-209.1155984189296
 30
0.0
 10
538.9578086823288
 20
-209.0635926391479
 30
0.0
 10
538.9248878631756
 20
-208.959600461724
 30
0.0
 10
538.6666829411124
 20
-208.1517283051748
 30
0.0
 10
538.2775199053857
 20
-206.9584932960058
 30
0.0
 10
537.8146179316421
 20
-205.5806308066823
 30
0.0
 10
537.4840761849053
 20
-204.6306960542877
 30
0.0
 10
537.3388065286032
 20
-204.2204997741216
 30
0.0
 10
537.3366429265083
 20
-204.2143904354358
 30
0.0
  0
ARC
  5
265
330
1F
100
AcDbEntity
  8
0
  6
Continuous
 62
     7
370
    25
100
AcDbCircle
 10
529.9337628977
 20
-84.4429526214
 30
0.0
 40
120.0000000000007
100
AcDbArc
 50
273.5368605872
 51
355.2822368304
  0
SPLINE
  5
266
330
1F
100
AcDbEntity
  8
0
  6
Continuous
 62
     7
370
    25
100
AcDbSpline
210
0.0
220
0.0
230
1.0
 70
     8
 71
     3
 72
    13
 73
     9
 74
     0
 42
0.000000001
 43
0.00000001
 40
0.0
 40
0.0
 40
0.0
 40
0.0
 40
0.0024443595781884
 40
0.1640929543646552
 40
0.3782936512594726
 40
0.5869991497401937
 40
0.7934611032550717
 40
1.0
 40
1.0
 40
1.0
 40
1.0
 10
649.5271931196988
 20
-94.31265115103957
 30
0.0
 10
649.5332577533586
 20
-94.31494016485857
 30
0.0
 10
649.9403842920408
 20
-94.46860456165606
 30
0.0
 10
650.883289003783
 20
-94.81869968156424
 30
0.0
 10
652.2513291112588
 20
-95.30987629428797
 30
0.0
 10
653.4362872316494
 20
-95.72355430656874
 30
0.0
 10
654.2386670931462
 20
-95.99835475266075
 30
0.0
 10
654.3419588447903
 20
-96.03341099707272
 30
0.0
 10
654.3936143423856
 20
-96.05094238481757
 30
0.0
  0
ARC
  5
267
330
1F
100
AcDbEntity
  8
0
  6
Continuous
 62
     7
370
    25
100
AcDbCircle
 10
529.9337628977
 20
-84.4429526214
 30
0.0
 40
120.0000000000007
100
AcDbArc
 50
3.5368605872
 51
85.2822368304
  0
SPLINE
  5
268
330
1F
100
AcDbEntity
  8
0
  6
Continuous
 62
     7
370
    25
100
AcDbSpline
210
0.0
220
0.0
230
1.0
 70
     8
 71
     3
 72
    13
 73
     9
 74
     0
 42
0.000000001
 43
0.00000001
 40
0.0
 40
0.0
 40
0.0
 40
0.0
 40
0.0024444012165626
 40
0.1640930160007943
 40
0.3782929300288483
 40
0.5869991107318607
 40
0.7934610713292116
 40
1.0
 40
1.0
 40
1.0
 40
1.0
 10
539.8034612442792
 20
35.15047945716145
 30
0.0
 10
539.8057505708505
 20
35.15654408992347
 30
0.0
 10
539.9594334029264
 20
35.56366378619798
 30
0.0
 10
540.3094983218951
 20
36.50657840588197
 30
0.0
 10
540.8006927278824
 20
37.87460769432261
 30
0.0
 10
541.2143638839917
 20
39.05957438958152
 30
0.0
 10
541.4891646789688
 20
39.86195304289031
 30
0.0
 10
541.5242216548021
 20
39.96524505092701
 30
0.0
 10
541.5417534093798
 20
40.01690067984821
 30
0.0
  0
ARC
  5
269
330
1F
100
AcDbEntity
  8
0
  6
Continuous
 62
     7
370
    25
100
AcDbCircle
 10
529.9337628977
 20
-84.4429526214
 30
0.0
 40
125.0
100
AcDbArc
 50
4.1474853912
 51
84.6716120263
  0
SPLINE
  5
26A
330
1F
100
AcDbEntity
  8
0
  6
Continuous
 62
     7
370
    25
100
AcDbSpline
210
0.0
220
0.0
230
1.0
 70
     8
 71
     3
 72
    13
 73
     9
 74
     0
 42
0.000000001
 43
0.00000001
 40
0.0
 40
0.0
 40
0.0
 40
0.0
 40
0.0024439485235363
 40
0.1640928167222144
 40
0.3782932623917803
 40
0.586998977872832
 40
0.7934610012177464
 40
1.0
 40
1.0
 40
1.0
 40
1.0
 10
649.7052023913205
 20
-77.04007259867427
 30
0.0
 10
649.7113117300064
 20
-77.03790899657928
 30
0.0
 10
650.1215080101726
 20
-76.8926393402772
 30
0.0
 10
651.071442762567
 20
-76.56209759354046
 30
0.0
 10
652.4493052518905
 20
-76.09919561979676
 30
0.0
 10
653.6425402610595
 20
-75.71003258407009
 30
0.0
 10
654.4504124176087
 20
-75.45182766200686
 30
0.0
 10
654.5544045950327
 20
-75.41890684285359
 30
0.0
 10
654.6064103748143
 20
-75.40244336537359
 30
0.0
  0
ARC
  5
26B
330
1F
100
AcDbEntity
  8
0
  6
Continuous
 62
     7
370
    25
100
AcDbCircle
 10
531.0449375135
 20
23.3785780725
 30
0.0
 40
14.67274375092667
100
AcDbArc
 50
53.3500346396
 51
125.4690627779
  0
ARC
  5
26C
330
1F
100
AcDbEntity
  8
0
  6
Continuous
 62
     7
370
    25
100
AcDbCircle
 10
531.0449375135
 20
23.3785780725
 30
0.0
 40
19.67274375092611
100
AcDbArc
 50
57.7529135731
 51
121.0661838444
  0
ARC
  5
26D
330
1F
100
AcDbEntity
  8
0
  6
Continuous
 62
     7
370
    25
100
AcDbCircle
 10
529.9337628977
 20
-84.4429526214
 30
0.0
 40
125.0
100
AcDbArc
 50
184.1474853912
 51
264.6716120263
  0
SPLINE
  5
26E
330
1F
100
AcDbEntity
  8
0
  6
Continuous
 62
     7
370
    25
100
AcDbSpline
210
0.0
220
0.0
230
1.0
 70
     8
 71
     3
 72
    13
 73
     9
 74
     0
 42
0.000000001
 43
0.00000001
 40
0.0
 40
0.0
 40
0.0
 40
0.0
 40
0.206539000786328
 40
0.4130010434841876
 40
0.6217067339375912
 40
0.8359071816855717
 40
0.9975560514527497
 40
1.0
 40
1.0
 40
1.0
 40
1.0
 10
405.2611152436078
 20
-93.4834620665693
 30
0.0
 10
405.313121037157
 20
-93.46699871784453
 30
0.0
 10
405.4171132464796
 20
-93.43407815477076
 30
0.0
 10
406.2249852106179
 20
-93.17587129056373
 30
0.0
 10
407.4182204893668
 20
-92.78671022231534
 30
0.0
 10
408.7960828432566
 20
-92.32380774635476
 30
0.0
 10
409.7460176082782
 20
-91.99326609186824
 30
0.0
 10
410.1562138884162
 20
-91.8479964353666
 30
0.0
 10
410.1623232271016
 20
-91.84583283326862
 30
0.0
  0
ARC
  5
26F
330
1F
100
AcDbEntity
  8
0
  6
Continuous
 62
     7
370
    25
100
AcDbCircle
 10
529.9337628977
 20
-84.4429526214
 30
0.0
 40
120.0000000000007
100
AcDbArc
 50
183.5368605872
 51
265.2822368304
  0
SPLINE
  5
270
330
1F
100
AcDbEntity
  8
0
  6
Continuous
 62
     7
370
    25
100
AcDbSpline
210
0.0
220
0.0
230
1.0
 70
     8
 71
     3
 72
    13
 73
     9
 74
     0
 42
0.000000001
 43
0.00000001
 40
0.0
 40
0.0
 40
0.0
 40
0.0
 40
0.2065389890571864
 40
0.413001464040167
 40
0.6217070558015058
 40
0.8359078484330115
 40
0.9975565154680814
 40
1.0
 40
1.0
 40
1.0
 40
1.0
 10
518.325773140365
 20
-208.9028098370814
 30
0.0
 10
518.3433043940627
 20
-208.8511548868086
 30
0.0
 10
518.3783604068603
 20
-208.7478641222659
 30
0.0
 10
518.6531632904323
 20
-207.9454747989048
 30
0.0
 10
519.0668296240427
 20
-206.7605141383744
 30
0.0
 10
519.5580490583031
 20
-205.392489459204
 30
0.0
 10
519.9080562223678
 20
-204.4495541567405
 30
0.0
 10
520.0617753535186
 20
-204.0424507620255
 30
0.0
 10
520.064064374143
 20
-204.0363886143947
 30
0.0
  0
ARC
  5
271
330
1F
100
AcDbEntity
  8
0
  6
Continuous
 62
     7
370
    25
100
AcDbCircle
 10
637.7552935916
 20
-85.5541272373
 30
0.0
 40
14.67274375092657
100
AcDbArc
 50
323.3500346396
 51
35.4690627779
  0
ARC
  5
272
330
1F
100
AcDbEntity
  8
0
  6
Continuous
 62
     7
370
    25
100
AcDbCircle
 10
637.7552935916
 20
-85.5541272373
 30
0.0
 40
19.67274375092607
100
AcDbArc
 50
327.7529135731
 51
31.0661838444
  0
ARC
  5
273
330
1F
100
AcDbEntity
  8
0
  6
Continuous
 62
     7
370
    25
100
AcDbCircle
 10
422.1122322038
 20
-83.3317780055
 30
0.0
 40
19.67274375092633
100
AcDbArc
 50
147.7529135731
 51
211.0661838444
  0
ARC
  5
274
330
1F
100
AcDbEntity
  8
0
  6
Continuous
 62
     7
370
    25
100
AcDbCircle
 10
422.1122322038
 20
-83.3317780055
 30
0.0
 40
14.67274375092661
100
AcDbArc
 50
143.3500346396
 51
215.4690627779
  0
ARC
  5
275
330
1F
100
AcDbEntity
  8
0
  6
Continuous
 62
     7
370
    25
100
AcDbCircle
 10
528.8225882818
 20
-192.2644833153
 30
0.0
 40
19.67274375092583
100
AcDbArc
 50
237.7529135731
 51
301.0661838444
  0
ARC
  5
276
330
1F
100
AcDbEntity
  8
0
  6
Continuous
 62
     7
370
    25
100
AcDbCircle
 10
528.8225882818
 20
-192.2644833153
 30
0.0
 40
14.67274375092655
100
AcDbArc
 50
233.3500346396
 51
305.4690627779
  0
CIRCLE
  5
277
330
1F
100
AcDbEntity
  8
0
  6
Continuous
 62
     7
370
    25
100
AcDbCircle
 10
421.2670785322
 20
-55.3259179334
 30
0.0
 40
5.374999999103087
  0
CIRCLE
  5
278
330
1F
100
AcDbEntity
  8
0
  6
Continuous
 62
     7
370
    25
100
AcDbCircle
 10
609.483196803
 20
-4.8933607599
 30
0.0
 40
5.374999999103136
  0
CIRCLE
  5
279
330
1F
100
AcDbEntity
  8
0
  6
Continuous
 62
     7
370
    25
100
AcDbCircle
 10
559.0510133577
 20
-193.1095791709
 30
0.0
 40
5.374999999103133
  0
CIRCLE
  5
27A
330
1F
100
AcDbEntity
  8
0
  6
Continuous
 62
     7
370
    25
100
AcDbCircle
 10
609.483196803
 20
-4.8933607599
 30
0.0
 40
4.374999999999981
  0
CIRCLE
  5
27B
330
1F
100
AcDbEntity
  8
0
  6
Continuous
 62
     7
370
    25
100
AcDbCircle
 10
421.2670785322
 20
-55.3259179334
 30
0.0
 40
4.37499999999998
  0
CIRCLE
  5
27C
330
1F
100
AcDbEntity
  8
0
  6
Continuous
 62
     7
370
    25
100
AcDbCircle
 10
559.0510133577
 20
-193.1095791709
 30
0.0
 40
4.375000000000008
  0
CIRCLE
  5
27D
330
1F
100
AcDbEntity
  8
0
  6
Continuous
 62
     7
370
    25
100
AcDbCircle
 10
529.9337018585
 20
-227.5927373397
 30
0.0
 40
4.5
  0
CIRCLE
  5
27E
330
1F
100
AcDbEntity
  8
0
  6
Continuous
 62
     7
370
    25
100
AcDbCircle
 10
684.0826235176
 20
-84.4418773419
 30
0.0
 40
4.499999999999986
  0
CIRCLE
  5
27F
330
1F
100
AcDbEntity
  8
0
  6
Continuous
 62
     7
370
    25
100
AcDbCircle
 10
529.9337632258
 20
-238.5924576337
 30
0.0
 40
4.499999999999886
  0
CIRCLE
  5
280
330
1F
100
AcDbEntity
  8
0
  6
Continuous
 62
     7
370
    25
100
AcDbCircle
 10
673.0829032236
 20
-84.4419387093
 30
0.0
 40
4.500000000000014
  0
CIRCLE
  5
281
330
1F
100
AcDbEntity
  8
0
  6
Continuous
 62
     7
370
    25
100
AcDbCircle
 10
386.782903228
 20
-84.4435359746
 30
0.0
 40
4.5
  0
CIRCLE
  5
282
330
1F
100
AcDbEntity
  8
0
  6
Continuous
 62
     7
370
    25
100
AcDbCircle
 10
529.9320432258
 20
69.7069829498
 30
0.0
 40
4.5
  0
CIRCLE
  5
283
330
1F
100
AcDbEntity
  8
0
  6
Continuous
 62
     7
370
    25
100
AcDbCircle
 10
529.9321045932
 20
58.7072626558
 30
0.0
 40
4.500000000000114
  0
CIRCLE
  5
284
330
1F
100
AcDbEntity
  8
0
  6
Continuous
 62
     7
370
    25
100
AcDbCircle
 10
375.783182934
 20
-84.4435973419
 30
0.0
 40
4.5
  0
CIRCLE
  5
285
330
1F
100
AcDbEntity
  8
0
  6
Continuous
 62
     7
370
    25
100
AcDbCircle
 10
684.0826235176
 20
-84.4418773419
 30
0.0
 40
3.499999999999986
  0
SPLINE
  5
286
330
1F
100
AcDbEntity
  8
0
  6
Continuous
 62
     7
370
    25
100
AcDbSpline
210
0.0
220
0.0
230
1.0
 70
     8
 71
     3
 72
    12
 73
     8
 74
     0
 42
0.000000001
 43
0.00000001
 40
0.0
 40
0.0
 40
0.0
 40
0.0
 40
0.2165908538186001
 40
0.4332392672497589
 40
0.6487664627537068
 40
0.8638959290145108
 40
1.0
 40
1.0
 40
1.0
 40
1.0
 10
683.2626173998655
 20
-84.03755207377759
 30
0.0
 10
683.3095196945256
 20
-84.03253640605222
 30
0.0
 10
683.4033367482593
 20
-84.02250373767399
 30
0.0
 10
683.5281410610489
 20
-83.94954631645116
 30
0.0
 10
683.6218934293521
 20
-83.84304563447454
 30
0.0
 10
683.6707451458823
 20
-83.72705222450064
 30
0.0
 10
683.6761902125321
 20
-83.65125067526898
 30
0.0
 10
683.678300192529
 20
-83.62187734287505
 30
0.0
  0
ARC
  5
287
330
1F
100
AcDbEntity
  8
0
  6
Continuous
 62
     7
370
    25
100
AcDbCircle
 10
684.0484903681
 20
-170.5890175207
 30
0.0
 40
86.55503317155133
100
AcDbArc
 50
90.5202218905
 51
91.3179784733
  0
ARC
  5
288
330
1F
100
AcDbEntity
  8
0
  6
Continuous
 62
     7
370
    25
100
AcDbCircle
 10
770.8597819319
 20
-84.4418773585
 30
0.0
 40
88.80298148257893
100
AcDbArc
 50
179.7516006045
 51
180.2483993955
  0
ARC
  5
289
330
1F
100
AcDbEntity
  8
0
  6
Continuous
 62
     7
370
    25
100
AcDbCircle
 10
684.0484949476
 20
1.7058088768
 30
0.0
 40
86.55557920559458
100
AcDbArc
 50
268.6820268103
 51
269.4797783599
  0
SPLINE
  5
28A
330
1F
100
AcDbEntity
  8
0
  6
Continuous
 62
     7
370
    25
100
AcDbSpline
210
0.0
220
0.0
230
1.0
 70
     8
 71
     3
 72
    12
 73
     8
 74
     0
 42
0.000000001
 43
0.00000001
 40
0.0
 40
0.0
 40
0.0
 40
0.0
 40
0.2165902969333767
 40
0.433227572095343
 40
0.6487578511729827
 40
0.8638785692702291
 40
1.0
 40
1.0
 40
1.0
 40
1.0
 10
683.678300192529
 20
-85.26187734510091
 30
0.0
 10
683.6732826019853
 20
-85.21497519983286
 30
0.0
 10
683.6632463325875
 20
-85.1211607362662
 30
0.0
 10
683.5902916603108
 20
-84.99635723089808
 30
0.0
 10
683.4837962009474
 20
-84.90260351827845
 30
0.0
 10
683.3677999413201
 20
-84.85374659906022
 30
0.0
 10
683.2919950526717
 20
-84.84830964031477
 30
0.0
 10
683.2626173998655
 20
-84.84620258509455
 30
0.0
  0
ARC
  5
28B
330
1F
100
AcDbEntity
  8
0
  6
Continuous
 62
     7
370
    25
100
AcDbCircle
 10
770.1127401794
 20
-84.4782142625
 30
0.0
 40
86.43799247824083
100
AcDbArc
 50
180.5194614201
 51
181.3183059631
  0
ARC
  5
28C
330
1F
100
AcDbEntity
  8
0
  6
Continuous
 62
     7
370
    25
100
AcDbCircle
 10
684.0826208498
 20
2.9246949579
 30
0.0
 40
89.39239550761303
100
AcDbArc
 50
269.7532386186
 51
270.2467613814
  0
ARC
  5
28D
330
1F
100
AcDbEntity
  8
0
  6
Continuous
 62
     7
370
    25
100
AcDbCircle
 10
598.0525015202
 20
-84.4782142625
 30
0.0
 40
86.43799247824083
100
AcDbArc
 50
358.6816940369
 51
359.4805385799
  0
SPLINE
  5
28E
330
1F
100
AcDbEntity
  8
0
  6
Continuous
 62
     7
370
    25
100
AcDbSpline
210
0.0
220
0.0
230
1.0
 70
     8
 71
     3
 72
    12
 73
     8
 74
     0
 42
0.000000001
 43
0.00000001
 40
0.0
 40
0.0
 40
0.0
 40
0.0
 40
0.2165908710350236
 40
0.4332392419402891
 40
0.6487665062069359
 40
0.8638959946526191
 40
1.0
 40
1.0
 40
1.0
 40
1.0
 10
684.9026242996991
 20
-84.84620258509455
 30
0.0
 10
684.8557220092941
 20
-84.85121828225006
 30
0.0
 10
684.76190497701
 20
-84.86125100811273
 30
0.0
 10
684.6371005998791
 20
-84.93420832834646
 30
0.0
 10
684.543348285911
 20
-85.04070908750066
 30
0.0
 10
684.4944965594881
 20
-85.15670248733045
 30
0.0
 10
684.4890514881087
 20
-85.2325040269597
 30
0.0
 10
684.4869415070356
 20
-85.26187734510091
 30
0.0
  0
ARC
  5
28F
330
1F
100
AcDbEntity
  8
0
  6
Continuous
 62
     7
370
    25
100
AcDbCircle
 10
684.1167704888
 20
1.7058638841
 30
0.0
 40
86.55563399513582
100
AcDbArc
 50
270.5202055975
 51
271.3179665049
  0
ARC
  5
290
330
1F
100
AcDbEntity
  8
0
  6
Continuous
 62
     7
370
    25
100
AcDbCircle
 10
595.3233462697
 20
-84.4418773585
 30
0.0
 40
90.78509166079542
100
AcDbArc
 50
359.7570239394
 51
0.2429760606
  0
ARC
  5
291
330
1F
100
AcDbEntity
  8
0
  6
Continuous
 62
     7
370
    25
100
AcDbCircle
 10
684.1167750698
 20
-170.5890724327
 30
0.0
 40
86.55508786580666
100
AcDbArc
 50
88.682028211
 51
89.4797941527
  0
SPLINE
  5
292
330
1F
100
AcDbEntity
  8
0
  6
Continuous
 62
     7
370
    25
100
AcDbSpline
210
0.0
220
0.0
230
1.0
 70
     8
 71
     3
 72
    12
 73
     8
 74
     0
 42
0.000000001
 43
0.00000001
 40
0.0
 40
0.0
 40
0.0
 40
0.0
 40
0.2165905414248697
 40
0.4332282271490633
 40
0.648758837070329
 40
0.8639010748922222
 40
1.0
 40
1.0
 40
1.0
 40
1.0
 10
684.4869415070356
 20
-83.62187734287505
 30
0.0
 10
684.4919590900334
 20
-83.66877950329909
 30
0.0
 10
684.5019953481843
 20
-83.7625940331317
 30
0.0
 10
684.5749501841965
 20
-83.88739700551459
 30
0.0
 10
684.6814483709676
 20
-83.98115589283151
 30
0.0
 10
684.7974479901122
 20
-84.03000418119544
 30
0.0
 10
684.873251828538
 20
-84.03544418219947
 30
0.0
 10
684.9026242996991
 20
-84.03755207377759
 30
0.0
  0
ARC
  5
293
330
1F
100
AcDbEntity
  8
0
  6
Continuous
 62
     7
370
    25
100
AcDbCircle
 10
598.0525695654
 20
-84.4055394782
 30
0.0
 40
86.43792442727467
100
AcDbArc
 50
0.5194612011
 51
1.3183063152
  0
ARC
  5
294
330
1F
100
AcDbEntity
  8
0
  6
Continuous
 62
     7
370
    25
100
AcDbCircle
 10
684.0826208498
 20
-171.786137093
 30
0.0
 40
89.37008307440807
100
AcDbArc
 50
89.7531770109
 51
90.2468229891
  0
ARC
  5
295
330
1F
100
AcDbEntity
  8
0
  6
Continuous
 62
     7
370
    25
100
AcDbCircle
 10
770.1126721342
 20
-84.4055394782
 30
0.0
 40
86.4379244272749
100
AcDbArc
 50
178.6816936848
 51
179.4805387989
  0
LINE
  5
296
330
1F
100
AcDbEntity
  8
0
  6
Continuous
 62
     7
370
    25
100
AcDbLine
 10
683.2626173999
 20
-84.6712749435
 30
0.0
 11
683.2626173999
 21
-84.8462025851
 31
0.0
  0
ARC
  5
297
330
1F
100
AcDbEntity
  8
0
  6
Continuous
 62
     7
370
    25
100
AcDbCircle
 10
683.2626235176
 20
-85.2618773419
 30
0.0
 40
0.590602409753842
100
AcDbArc
 50
0.0
 51
90.0
  0
LINE
  5
298
330
1F
100
AcDbEntity
  8
0
  6
Continuous
 62
     7
370
    25
100
AcDbLine
 10
683.8532249238
 20
-85.2618773451
 30
0.0
 11
683.6783001925
 21
-85.2618773451
 31
0.0
  0
LINE
  5
299
330
1F
100
AcDbEntity
  8
0
  6
Continuous
 62
     7
370
    25
100
AcDbLine
 10
684.3120167758
 20
-85.2618773451
 30
0.0
 11
684.486941507
 21
-85.2618773451
 31
0.0
  0
ARC
  5
29A
330
1F
100
AcDbEntity
  8
0
  6
Continuous
 62
     7
370
    25
100
AcDbCircle
 10
684.9026235176
 20
-85.2618773419
 30
0.0
 40
0.590602409753842
100
AcDbArc
 50
90.0
 51
180.0
  0
LINE
  5
29B
330
1F
100
AcDbEntity
  8
0
  6
Continuous
 62
     7
370
    25
100
AcDbLine
 10
684.9026242997
 20
-84.6712749435
 30
0.0
 11
684.9026242997
 21
-84.8462025851
 31
0.0
  0
LINE
  5
29C
330
1F
100
AcDbEntity
  8
0
  6
Continuous
 62
     7
370
    25
100
AcDbLine
 10
683.8532249238
 20
-83.6218773429
 30
0.0
 11
683.6783001925
 21
-83.6218773429
 31
0.0
  0
ARC
  5
29D
330
1F
100
AcDbEntity
  8
0
  6
Continuous
 62
     7
370
    25
100
AcDbCircle
 10
683.2626235176
 20
-83.6218773419
 30
0.0
 40
0.590602409753842
100
AcDbArc
 50
270.0
 51
0.0
  0
LINE
  5
29E
330
1F
100
AcDbEntity
  8
0
  6
Continuous
 62
     7
370
    25
100
AcDbLine
 10
683.2626173999
 20
-84.2124797736
 30
0.0
 11
683.2626173999
 21
-84.0375520738
 31
0.0
  0
LINE
  5
29F
330
1F
100
AcDbEntity
  8
0
  6
Continuous
 62
     7
370
    25
100
AcDbLine
 10
684.9026242997
 20
-84.2124797736
 30
0.0
 11
684.9026242997
 21
-84.0375520738
 31
0.0
  0
ARC
  5
2A0
330
1F
100
AcDbEntity
  8
0
  6
Continuous
 62
     7
370
    25
100
AcDbCircle
 10
684.9026235176
 20
-83.6218773419
 30
0.0
 40
0.590602409753842
100
AcDbArc
 50
180.0
 51
270.0
  0
LINE
  5
2A1
330
1F
100
AcDbEntity
  8
0
  6
Continuous
 62
     7
370
    25
100
AcDbLine
 10
684.3120167758
 20
-83.6218773429
 30
0.0
 11
684.486941507
 21
-83.6218773429
 31
0.0
  0
LINE
  5
2A2
330
1F
100
AcDbEntity
  8
0
  6
Continuous
 62
     7
370
    25
100
AcDbLine
 10
685.9520236756
 20
-84.6712749435
 30
0.0
 11
684.9026242997
 21
-84.6712749435
 31
0.0
  0
LINE
  5
2A3
330
1F
100
AcDbEntity
  8
0
  6
Continuous
 62
     7
370
    25
100
AcDbLine
 10
685.9520236756
 20
-84.6712749435
 30
0.0
 11
686.1076216008
 21
-84.8268714717
 31
0.0
  0
LINE
  5
2A4
330
1F
100
AcDbEntity
  8
0
  6
Continuous
 62
     7
370
    25
100
AcDbLine
 10
684.3120167758
 20
-82.5724798005
 30
0.0
 11
684.3120167758
 21
-83.6218773429
 31
0.0
  0
LINE
  5
2A5
330
1F
100
AcDbEntity
  8
0
  6
Continuous
 62
     7
370
    25
100
AcDbLine
 10
684.3120167758
 20
-82.5724798005
 30
0.0
 11
684.467614701
 21
-82.4168832723
 31
0.0
  0
LINE
  5
2A6
330
1F
100
AcDbEntity
  8
0
  6
Continuous
 62
     7
370
    25
100
AcDbLine
 10
682.2132329251
 20
-84.6712749435
 30
0.0
 11
682.0576349999
 21
-84.8268714717
 31
0.0
  0
LINE
  5
2A7
330
1F
100
AcDbEntity
  8
0
  6
Continuous
 62
     7
370
    25
100
AcDbLine
 10
683.2626173999
 20
-84.6712749435
 30
0.0
 11
682.2132329251
 21
-84.6712749435
 31
0.0
  0
LINE
  5
2A8
330
1F
100
AcDbEntity
  8
0
  6
Continuous
 62
     7
370
    25
100
AcDbLine
 10
683.8532249238
 20
-82.5724798005
 30
0.0
 11
683.6976269986
 21
-82.4168832723
 31
0.0
  0
LINE
  5
2A9
330
1F
100
AcDbEntity
  8
0
  6
Continuous
 62
     7
370
    25
100
AcDbLine
 10
683.8532249238
 20
-82.5724798005
 30
0.0
 11
683.8532249238
 21
-83.6218773429
 31
0.0
  0
LINE
  5
2AA
330
1F
100
AcDbEntity
  8
0
  6
Continuous
 62
     7
370
    25
100
AcDbLine
 10
684.3120167758
 20
-86.3112749748
 30
0.0
 11
684.467614701
 21
-86.466871503
 31
0.0
  0
LINE
  5
2AB
330
1F
100
AcDbEntity
  8
0
  6
Continuous
 62
     7
370
    25
100
AcDbLine
 10
684.3120167758
 20
-85.2618773451
 30
0.0
 11
684.3120167758
 21
-86.3112749748
 31
0.0
  0
LINE
  5
2AC
330
1F
100
AcDbEntity
  8
0
  6
Continuous
 62
     7
370
    25
100
AcDbLine
 10
683.8532249238
 20
-85.2618773451
 30
0.0
 11
683.8532249238
 21
-86.3112749748
 31
0.0
  0
LINE
  5
2AD
330
1F
100
AcDbEntity
  8
0
  6
Continuous
 62
     7
370
    25
100
AcDbLine
 10
683.8532249238
 20
-86.3112749748
 30
0.0
 11
683.6976269986
 21
-86.466871503
 31
0.0
  0
LINE
  5
2AE
330
1F
100
AcDbEntity
  8
0
  6
Continuous
 62
     7
370
    25
100
AcDbLine
 10
685.9520236756
 20
-84.2124797736
 30
0.0
 11
686.1076216008
 21
-84.0568832454
 31
0.0
  0
LINE
  5
2AF
330
1F
100
AcDbEntity
  8
0
  6
Continuous
 62
     7
370
    25
100
AcDbLine
 10
685.9520236756
 20
-84.2124797736
 30
0.0
 11
684.9026242997
 21
-84.2124797736
 31
0.0
  0
LINE
  5
2B0
330
1F
100
AcDbEntity
  8
0
  6
Continuous
 62
     7
370
    25
100
AcDbLine
 10
683.2626173999
 20
-84.2124797736
 30
0.0
 11
682.2132329251
 21
-84.2124797736
 31
0.0
  0
LINE
  5
2B1
330
1F
100
AcDbEntity
  8
0
  6
Continuous
 62
     7
370
    25
100
AcDbLine
 10
682.2132329251
 20
-84.2124797736
 30
0.0
 11
682.0576349999
 21
-84.0568832454
 31
0.0
  0
LINE
  5
2B2
330
1F
100
AcDbEntity
  8
0
  6
Continuous
 62
     7
370
    25
100
AcDbLine
 10
682.2132329251
 20
-84.2124797736
 30
0.0
 11
682.2132329251
 21
-84.6712749435
 31
0.0
  0
LINE
  5
2B3
330
1F
100
AcDbEntity
  8
0
  6
Continuous
 62
     7
370
    25
100
AcDbLine
 10
684.3120167758
 20
-82.5724798005
 30
0.0
 11
683.8532249238
 21
-82.5724798005
 31
0.0
  0
LINE
  5
2B4
330
1F
100
AcDbEntity
  8
0
  6
Continuous
 62
     7
370
    25
100
AcDbLine
 10
684.3120167758
 20
-86.3112749748
 30
0.0
 11
683.8532249238
 21
-86.3112749748
 31
0.0
  0
LINE
  5
2B5
330
1F
100
AcDbEntity
  8
0
  6
Continuous
 62
     7
370
    25
100
AcDbLine
 10
685.9520236756
 20
-84.2124797736
 30
0.0
 11
685.9520236756
 21
-84.6712749435
 31
0.0
  0
SPLINE
  5
2B6
330
1F
100
AcDbEntity
  8
0
  6
Continuous
 62
     7
370
    25
100
AcDbSpline
210
0.0
220
0.0
230
1.0
 70
     8
 71
     3
 72
    12
 73
     8
 74
     0
 42
0.000000001
 43
0.00000001
 40
0.0
 40
0.0
 40
0.0
 40
0.0
 40
0.2165951301140756
 40
0.4332374110262933
 40
0.6487726222451089
 40
0.8638981829477161
 40
1.0
 40
1.0
 40
1.0
 40
1.0
 10
387.1872286106885
 20
-83.62353597381076
 30
0.0
 10
387.1922462065934
 20
-83.6704380986524
 30
0.0
 10
387.2022824906884
 20
-83.76425255850344
 30
0.0
 10
387.2752371386699
 20
-83.88905604966797
 30
0.0
 10
387.3817325587553
 20
-83.982809919675
 30
0.0
 10
387.4977242758328
 20
-84.03166446760572
 30
0.0
 10
387.5735238906927
 20
-84.03710320192282
 30
0.0
 10
387.6028965021909
 20
-84.03921073017915
 30
0.0
  0
LINE
  5
2B7
330
1F
100
AcDbEntity
  8
0
  6
Continuous
 62
     7
370
    25
100
AcDbLine
 10
387.6028965022
 20
-84.2141384009
 30
0.0
 11
387.6028965022
 21
-84.0392107302
 31
0.0
  0
ARC
  5
2B8
330
1F
100
AcDbEntity
  8
0
  6
Continuous
 62
     7
370
    25
100
AcDbCircle
 10
387.602903228
 20
-83.6235359746
 30
0.0
 40
0.5906024097537994
100
AcDbArc
 50
180.0
 51
270.0
  0
LINE
  5
2B9
330
1F
100
AcDbEntity
  8
0
  6
Continuous
 62
     7
370
    25
100
AcDbLine
 10
387.0123038794
 20
-83.6235359738
 30
0.0
 11
387.1872286107
 21
-83.6235359738
 31
0.0
  0
SPLINE
  5
2BA
330
1F
100
AcDbEntity
  8
0
  6
Continuous
 62
     7
370
    25
100
AcDbSpline
210
0.0
220
0.0
230
1.0
 70
     8
 71
     3
 72
    12
 73
     8
 74
     0
 42
0.000000001
 43
0.00000001
 40
0.0
 40
0.0
 40
0.0
 40
0.0
 40
0.2165937335058362
 40
0.4332251142196549
 40
0.6487702749853359
 40
0.8638939986080982
 40
0.9999999999999999
 40
0.9999999999999999
 40
0.9999999999999999
 40
0.9999999999999999
 10
387.6028965021909
 20
-84.84786127059994
 30
0.0
 10
387.5559933464552
 20
-84.85287573500973
 30
0.0
 10
387.4621788825186
 20
-84.86290553541767
 30
0.0
 10
387.3373876721633
 20
-84.9358774273688
 30
0.0
 10
387.2436148558642
 20
-85.04235803074886
 30
0.0
 10
387.1947864309166
 20
-85.15836442307902
 30
0.0
 10
387.1893394033818
 20
-85.23416308258534
 30
0.0
 10
387.1872286106885
 20
-85.2635360306063
 30
0.0
  0
LINE
  5
2BB
330
1F
100
AcDbEntity
  8
0
  6
Continuous
 62
     7
370
    25
100
AcDbLine
 10
387.0123038794
 20
-85.2635360306
 30
0.0
 11
387.1872286107
 21
-85.2635360306
 31
0.0
  0
ARC
  5
2BC
330
1F
100
AcDbEntity
  8
0
  6
Continuous
 62
     7
370
    25
100
AcDbCircle
 10
387.602903228
 20
-85.2635359746
 30
0.0
 40
0.5906024097538136
100
AcDbArc
 50
90.0
 51
180.0
  0
LINE
  5
2BD
330
1F
100
AcDbEntity
  8
0
  6
Continuous
 62
     7
370
    25
100
AcDbLine
 10
387.6028965022
 20
-84.6729335125
 30
0.0
 11
387.6028965022
 21
-84.8478612706
 31
0.0
  0
SPLINE
  5
2BE
330
1F
100
AcDbEntity
  8
0
  6
Continuous
 62
     7
370
    25
100
AcDbSpline
210
0.0
220
0.0
230
1.0
 70
     8
 71
     3
 72
    12
 73
     8
 74
     0
 42
0.000000001
 43
0.00000001
 40
0.0
 40
0.0
 40
0.0
 40
0.0
 40
0.2165914245425169
 40
0.4332404009734375
 40
0.6487681229129174
 40
0.8638981896779412
 40
1.0
 40
1.0
 40
1.0
 40
1.0
 10
385.9629045035184
 20
-84.03921073017915
 30
0.0
 10
386.0098067511526
 20
-84.03419504538444
 30
0.0
 10
386.1036237091162
 20
-84.0241623430454
 30
0.0
 10
386.2284287171062
 20
-83.95120500973525
 30
0.0
 10
386.3221784493028
 20
-83.84470404231124
 30
0.0
 10
386.371038635426
 20
-83.72871215153106
 30
0.0
 10
386.3764683781103
 20
-83.65290941660842
 30
0.0
 10
386.3785723950208
 20
-83.62353597381076
 30
0.0
  0
LINE
  5
2BF
330
1F
100
AcDbEntity
  8
0
  6
Continuous
 62
     7
370
    25
100
AcDbLine
 10
386.5535120274
 20
-83.6235359738
 30
0.0
 11
386.378572395
 21
-83.6235359738
 31
0.0
  0
ARC
  5
2C0
330
1F
100
AcDbEntity
  8
0
  6
Continuous
 62
     7
370
    25
100
AcDbCircle
 10
385.962903228
 20
-83.6235359746
 30
0.0
 40
0.590602409753842
100
AcDbArc
 50
270.0
 51
0.0
  0
LINE
  5
2C1
330
1F
100
AcDbEntity
  8
0
  6
Continuous
 62
     7
370
    25
100
AcDbLine
 10
385.9629045035
 20
-84.2141384009
 30
0.0
 11
385.9629045035
 21
-84.0392107302
 31
0.0
  0
SPLINE
  5
2C2
330
1F
100
AcDbEntity
  8
0
  6
Continuous
 62
     7
370
    25
100
AcDbSpline
210
0.0
220
0.0
230
1.0
 70
     8
 71
     3
 72
    12
 73
     8
 74
     0
 42
0.000000001
 43
0.00000001
 40
0.0
 40
0.0
 40
0.0
 40
0.0
 40
0.216589601198773
 40
0.4332416319943707
 40
0.6487752299686378
 40
0.8638991931528229
 40
0.9999999999999999
 40
0.9999999999999999
 40
0.9999999999999999
 40
0.9999999999999999
 10
386.3785723950208
 20
-85.2635360306063
 30
0.0
 10
386.3735621590488
 20
-85.2166329915353
 30
0.0
 10
386.3635402429588
 20
-85.12281339410245
 30
0.0
 10
386.2905604301802
 20
-84.99802009286269
 30
0.0
 10
386.1840698735572
 20
-84.90426129241263
 30
0.0
 10
386.0680765207197
 20
-84.8554075568205
 30
0.0
 10
385.9922770566492
 20
-84.84996880546379
 30
0.0
 10
385.9629045035184
 20
-84.84786127059994
 30
0.0
  0
LINE
  5
2C3
330
1F
100
AcDbEntity
  8
0
  6
Continuous
 62
     7
370
    25
100
AcDbLine
 10
385.9629045035
 20
-84.6729335125
 30
0.0
 11
385.9629045035
 21
-84.8478612706
 31
0.0
  0
ARC
  5
2C4
330
1F
100
AcDbEntity
  8
0
  6
Continuous
 62
     7
370
    25
100
AcDbCircle
 10
385.962903228
 20
-85.2635359746
 30
0.0
 40
0.590602409753842
100
AcDbArc
 50
0.0
 51
90.0
  0
LINE
  5
2C5
330
1F
100
AcDbEntity
  8
0
  6
Continuous
 62
     7
370
    25
100
AcDbLine
 10
386.5535120274
 20
-85.2635360306
 30
0.0
 11
386.378572395
 21
-85.2635360306
 31
0.0
  0
CIRCLE
  5
2C6
330
1F
100
AcDbEntity
  8
0
  6
Continuous
 62
     7
370
    25
100
AcDbCircle
 10
386.782903228
 20
-84.4435359746
 30
0.0
 40
3.5
  0
ARC
  5
2C7
330
1F
100
AcDbEntity
  8
0
  6
Continuous
 62
     7
370
    25
100
AcDbCircle
 10
386.8171030428
 20
1.6999221209
 30
0.0
 40
86.55135054602928
100
AcDbArc
 50
270.5201913898
 51
271.3179917804
  0
ARC
  5
2C8
330
1F
100
AcDbEntity
  8
0
  6
Continuous
 62
     7
370
    25
100
AcDbCircle
 10
300.0057692519
 20
-84.4435359567
 30
0.0
 40
88.80295910206104
100
AcDbArc
 50
359.7516005607
 51
0.2483994393
  0
ARC
  5
2C9
330
1F
100
AcDbEntity
  8
0
  6
Continuous
 62
     7
370
    25
100
AcDbCircle
 10
386.8171166708
 20
-170.5865354477
 30
0.0
 40
86.55089176722731
100
AcDbArc
 50
88.682010256
 51
89.4798148747
  0
ARC
  5
2CA
330
1F
100
AcDbEntity
  8
0
  6
Continuous
 62
     7
370
    25
100
AcDbCircle
 10
300.7528236925
 20
-84.407198536
 30
0.0
 40
86.43795740629817
100
AcDbArc
 50
0.5194612859
 51
1.3183061362
  0
ARC
  5
2CB
330
1F
100
AcDbEntity
  8
0
  6
Continuous
 62
     7
370
    25
100
AcDbCircle
 10
386.7829079534
 20
-171.8004879856
 30
0.0
 40
89.38277528017166
100
AcDbArc
 50
89.7532120596
 51
90.2467879404
  0
ARC
  5
2CC
330
1F
100
AcDbEntity
  8
0
  6
Continuous
 62
     7
370
    25
100
AcDbCircle
 10
473.1887172648
 20
-84.4142982693
 30
0.0
 40
86.81374636150939
100
AcDbArc
 50
178.6827144378
 51
179.4781014463
  0
ARC
  5
2CD
330
1F
100
AcDbEntity
  8
0
  6
Continuous
 62
     7
370
    25
100
AcDbCircle
 10
386.7487398967
 20
-170.5899988647
 30
0.0
 40
86.55435554598017
100
AcDbArc
 50
90.520201089
 51
91.3179737803
  0
ARC
  5
2CE
330
1F
100
AcDbEntity
  8
0
  6
Continuous
 62
     7
370
    25
100
AcDbCircle
 10
473.5600317538
 20
-84.4435359567
 30
0.0
 40
88.80295910206104
100
AcDbArc
 50
179.7516005607
 51
180.2483994393
  0
ARC
  5
2CF
330
1F
100
AcDbEntity
  8
0
  6
Continuous
 62
     7
370
    25
100
AcDbCircle
 10
386.7487535281
 20
1.7033857391
 30
0.0
 40
86.55481452595498
100
AcDbArc
 50
268.6820241841
 51
269.4797926457
  0
ARC
  5
2D0
330
1F
100
AcDbEntity
  8
0
  6
Continuous
 62
     7
370
    25
100
AcDbCircle
 10
473.1886710433
 20
-84.4727741336
 30
0.0
 40
86.81370013829941
100
AcDbArc
 50
180.5218985686
 51
181.3172858638
  0
ARC
  5
2D1
330
1F
100
AcDbEntity
  8
0
  6
Continuous
 62
     7
370
    25
100
AcDbCircle
 10
386.7829079534
 20
2.8938969317
 30
0.0
 40
89.36325620442699
100
AcDbArc
 50
269.7531581549
 51
270.2468418451
  0
ARC
  5
2D2
330
1F
100
AcDbEntity
  8
0
  6
Continuous
 62
     7
370
    25
100
AcDbCircle
 10
300.7528699343
 20
-84.4798738679
 30
0.0
 40
86.43791116281095
100
AcDbArc
 50
358.6816935607
 51
359.480538701
  0
LINE
  5
2D3
330
1F
100
AcDbEntity
  8
0
  6
Continuous
 62
     7
370
    25
100
AcDbLine
 10
384.9135051276
 20
-84.2141384009
 30
0.0
 11
385.9629045035
 21
-84.2141384009
 31
0.0
  0
LINE
  5
2D4
330
1F
100
AcDbEntity
  8
0
  6
Continuous
 62
     7
370
    25
100
AcDbLine
 10
384.9135051276
 20
-84.2141384009
 30
0.0
 11
384.7579072024
 21
-84.0585418727
 31
0.0
  0
LINE
  5
2D5
330
1F
100
AcDbEntity
  8
0
  6
Continuous
 62
     7
370
    25
100
AcDbLine
 10
388.6522958781
 20
-84.2141384009
 30
0.0
 11
388.8078938033
 21
-84.0585418727
 31
0.0
  0
LINE
  5
2D6
330
1F
100
AcDbEntity
  8
0
  6
Continuous
 62
     7
370
    25
100
AcDbLine
 10
387.6028965022
 20
-84.2141384009
 30
0.0
 11
388.6522958781
 21
-84.2141384009
 31
0.0
  0
LINE
  5
2D7
330
1F
100
AcDbEntity
  8
0
  6
Continuous
 62
     7
370
    25
100
AcDbLine
 10
387.0123038794
 20
-83.6235359738
 30
0.0
 11
387.0123038794
 21
-82.5741383696
 31
0.0
  0
LINE
  5
2D8
330
1F
100
AcDbEntity
  8
0
  6
Continuous
 62
     7
370
    25
100
AcDbLine
 10
387.0123038794
 20
-82.5741383696
 30
0.0
 11
387.1679018046
 21
-82.4185418414
 31
0.0
  0
LINE
  5
2D9
330
1F
100
AcDbEntity
  8
0
  6
Continuous
 62
     7
370
    25
100
AcDbLine
 10
387.0123038794
 20
-86.3129336603
 30
0.0
 11
387.1679018046
 21
-86.4685299557
 31
0.0
  0
LINE
  5
2DA
330
1F
100
AcDbEntity
  8
0
  6
Continuous
 62
     7
370
    25
100
AcDbLine
 10
387.0123038794
 20
-86.3129336603
 30
0.0
 11
387.0123038794
 21
-85.2635360306
 31
0.0
  0
LINE
  5
2DB
330
1F
100
AcDbEntity
  8
0
  6
Continuous
 62
     7
370
    25
100
AcDbLine
 10
386.5535120274
 20
-82.5741383696
 30
0.0
 11
386.3979141023
 21
-82.4185418414
 31
0.0
  0
LINE
  5
2DC
330
1F
100
AcDbEntity
  8
0
  6
Continuous
 62
     7
370
    25
100
AcDbLine
 10
386.5535120274
 20
-83.6235359738
 30
0.0
 11
386.5535120274
 21
-82.5741383696
 31
0.0
  0
LINE
  5
2DD
330
1F
100
AcDbEntity
  8
0
  6
Continuous
 62
     7
370
    25
100
AcDbLine
 10
386.5535120274
 20
-86.3129336603
 30
0.0
 11
386.5535120274
 21
-85.2635360306
 31
0.0
  0
LINE
  5
2DE
330
1F
100
AcDbEntity
  8
0
  6
Continuous
 62
     7
370
    25
100
AcDbLine
 10
386.5535120274
 20
-86.3129336603
 30
0.0
 11
386.3979141023
 21
-86.4685299557
 31
0.0
  0
LINE
  5
2DF
330
1F
100
AcDbEntity
  8
0
  6
Continuous
 62
     7
370
    25
100
AcDbLine
 10
387.6028965022
 20
-84.6729335125
 30
0.0
 11
388.6522958781
 21
-84.6729335125
 31
0.0
  0
LINE
  5
2E0
330
1F
100
AcDbEntity
  8
0
  6
Continuous
 62
     7
370
    25
100
AcDbLine
 10
388.6522958781
 20
-84.6729335125
 30
0.0
 11
388.8078938033
 21
-84.8285300407
 31
0.0
  0
LINE
  5
2E1
330
1F
100
AcDbEntity
  8
0
  6
Continuous
 62
     7
370
    25
100
AcDbLine
 10
384.9135051276
 20
-84.6729335125
 30
0.0
 11
384.7579072024
 21
-84.8285300407
 31
0.0
  0
LINE
  5
2E2
330
1F
100
AcDbEntity
  8
0
  6
Continuous
 62
     7
370
    25
100
AcDbLine
 10
384.9135051276
 20
-84.6729335125
 30
0.0
 11
385.9629045035
 21
-84.6729335125
 31
0.0
  0
LINE
  5
2E3
330
1F
100
AcDbEntity
  8
0
  6
Continuous
 62
     7
370
    25
100
AcDbLine
 10
386.5535120274
 20
-86.3129336603
 30
0.0
 11
387.0123038794
 21
-86.3129336603
 31
0.0
  0
LINE
  5
2E4
330
1F
100
AcDbEntity
  8
0
  6
Continuous
 62
     7
370
    25
100
AcDbLine
 10
388.6522958781
 20
-84.6729335125
 30
0.0
 11
388.6522958781
 21
-84.2141384009
 31
0.0
  0
LINE
  5
2E5
330
1F
100
AcDbEntity
  8
0
  6
Continuous
 62
     7
370
    25
100
AcDbLine
 10
384.9135051276
 20
-84.6729335125
 30
0.0
 11
384.9135051276
 21
-84.2141384009
 31
0.0
  0
LINE
  5
2E6
330
1F
100
AcDbEntity
  8
0
  6
Continuous
 62
     7
370
    25
100
AcDbLine
 10
386.5535120274
 20
-82.5741383696
 30
0.0
 11
387.0123038794
 21
-82.5741383696
 31
0.0
  0
SPLINE
  5
2E7
330
1F
100
AcDbEntity
  8
0
  6
Continuous
 62
     7
370
    25
100
AcDbSpline
210
0.0
220
0.0
230
1.0
 70
     8
 71
     3
 72
    12
 73
     8
 74
     0
 42
0.000000001
 43
0.00000001
 40
0.0
 40
0.0
 40
0.0
 40
0.0
 40
0.2165951705044077
 40
0.4332279287158867
 40
0.6487594197067842
 40
0.8638931942539552
 40
1.0
 40
1.0
 40
1.0
 40
1.0
 10
530.3380271214486
 20
-226.7727442767406
 30
0.0
 10
530.3430419081537
 20
-226.8196470374118
 30
0.0
 10
530.3530723518251
 20
-226.9134606982121
 30
0.0
 10
530.4260380521143
 20
-227.0382549120281
 30
0.0
 10
530.5325330548485
 20
-227.1320056837363
 30
0.0
 10
530.6485270601702
 20
-227.1808570819761
 30
0.0
 10
530.7243285650485
 20
-227.1863021771188
 30
0.0
 10
530.753701881455
 20
-227.1884121682429
 30
0.0
  0
LINE
  5
2E8
330
1F
100
AcDbEntity
  8
0
  6
Continuous
 62
     7
370
    25
100
AcDbLine
 10
530.7537018815
 20
-227.3633368995
 30
0.0
 11
530.7537018815
 21
-227.1884121682
 31
0.0
  0
ARC
  5
2E9
330
1F
100
AcDbEntity
  8
0
  6
Continuous
 62
     7
370
    25
100
AcDbCircle
 10
530.7537018585
 20
-226.7727373397
 30
0.0
 40
0.590602409753842
100
AcDbArc
 50
180.0
 51
270.0
  0
LINE
  5
2EA
330
1F
100
AcDbEntity
  8
0
  6
Continuous
 62
     7
370
    25
100
AcDbLine
 10
530.1630994507
 20
-226.7727442767
 30
0.0
 11
530.3380271214
 21
-226.7727442767
 31
0.0
  0
SPLINE
  5
2EB
330
1F
100
AcDbEntity
  8
0
  6
Continuous
 62
     7
370
    25
100
AcDbSpline
210
0.0
220
0.0
230
1.0
 70
     8
 71
     3
 72
    12
 73
     8
 74
     0
 42
0.000000001
 43
0.00000001
 40
0.0
 40
0.0
 40
0.0
 40
0.0
 40
0.2165914230245179
 40
0.4332403979370361
 40
0.648768118365972
 40
0.8638981628973815
 40
0.9999999999999999
 40
0.9999999999999999
 40
0.9999999999999999
 40
0.9999999999999999
 10
529.5293766101316
 20
-228.412736275413
 30
0.0
 10
529.5243609253235
 20
-228.3658340278149
 30
0.0
 10
529.5143282229577
 20
-228.2720170699233
 30
0.0
 10
529.4413708898478
 20
-228.1472120613937
 30
0.0
 10
529.3348699250774
 20
-228.0534623342381
 30
0.0
 10
529.2188780364309
 20
-228.0046021392427
 30
0.0
 10
529.1430752992121
 20
-227.9991723999095
 30
0.0
 10
529.1137018501253
 20
-227.9970683839106
 30
0.0
  0
LINE
  5
2EC
330
1F
100
AcDbEntity
  8
0
  6
Continuous
 62
     7
370
    25
100
AcDbLine
 10
529.1137018501
 20
-227.8221287515
 30
0.0
 11
529.1137018501
 21
-227.9970683839
 31
0.0
  0
ARC
  5
2ED
330
1F
100
AcDbEntity
  8
0
  6
Continuous
 62
     7
370
    25
100
AcDbCircle
 10
529.1137018585
 20
-228.4127373397
 30
0.0
 40
0.590602409753842
100
AcDbArc
 50
0.0
 51
90.0
  0
LINE
  5
2EE
330
1F
100
AcDbEntity
  8
0
  6
Continuous
 62
     7
370
    25
100
AcDbLine
 10
529.7043042663
 20
-228.4127362754
 30
0.0
 11
529.5293766101
 21
-228.4127362754
 31
0.0
  0
CIRCLE
  5
2EF
330
1F
100
AcDbEntity
  8
0
  6
Continuous
 62
     7
370
    25
100
AcDbCircle
 10
529.9337018585
 20
-227.5927373397
 30
0.0
 40
3.5
  0
ARC
  5
2F0
330
1F
100
AcDbEntity
  8
0
  6
Continuous
 62
     7
370
    25
100
AcDbCircle
 10
443.7909072314
 20
-227.5585229121
 30
0.0
 40
86.55068693735379
100
AcDbArc
 50
0.5201855646
 51
1.3179920717
  0
ARC
  5
2F1
330
1F
100
AcDbEntity
  8
0
  6
Continuous
 62
     7
370
    25
100
AcDbCircle
 10
529.9337018658
 20
-314.3698707809
 30
0.0
 40
88.80295835592109
100
AcDbArc
 50
89.7516005586
 51
90.2483994414
  0
ARC
  5
2F2
330
1F
100
AcDbEntity
  8
0
  6
Continuous
 62
     7
370
    25
100
AcDbCircle
 10
616.0759657174
 20
-227.558514397
 30
0.0
 40
86.5501560990846
100
AcDbArc
 50
178.6820054817
 51
179.4798168821
  0
SPLINE
  5
2F3
330
1F
100
AcDbEntity
  8
0
  6
Continuous
 62
     7
370
    25
100
AcDbSpline
210
0.0
220
0.0
230
1.0
 70
     8
 71
     3
 72
    12
 73
     8
 74
     0
 42
0.000000001
 43
0.00000001
 40
0.0
 40
0.0
 40
0.0
 40
0.0
 40
0.2165951344218793
 40
0.4332374141428198
 40
0.6487726241764457
 40
0.8638981836961158
 40
1.0
 40
1.0
 40
1.0
 40
1.0
 10
529.1137018501253
 20
-227.1884121682429
 30
0.0
 10
529.1606039762238
 20
-227.1833945725139
 30
0.0
 10
529.2544184373979
 20
-227.173358288898
 30
0.0
 10
529.3792219296205
 20
-227.1004036402517
 30
0.0
 10
529.4729757996275
 20
-226.9939082201787
 30
0.0
 10
529.5218303475582
 20
-226.8779165030984
 30
0.0
 10
529.5272690818753
 20
-226.8021168882386
 30
0.0
 10
529.5293766101316
 20
-226.7727442767405
 30
0.0
  0
ARC
  5
2F4
330
1F
100
AcDbEntity
  8
0
  6
Continuous
 62
     7
370
    25
100
AcDbCircle
 10
529.8973644728
 20
-313.6228114998
 30
0.0
 40
86.43795182047313
100
AcDbArc
 50
90.5194613595
 51
91.3183062012
  0
ARC
  5
2F5
330
1F
100
AcDbEntity
  8
0
  6
Continuous
 62
     7
370
    25
100
AcDbCircle
 10
617.2753164776
 20
-227.5927328255
 30
0.0
 40
89.36743794727462
100
AcDbArc
 50
179.7531697053
 51
180.2468302947
  0
ARC
  5
2F6
330
1F
100
AcDbEntity
  8
0
  6
Continuous
 62
     7
370
    25
100
AcDbCircle
 10
529.9044642066
 20
-141.186929101
 30
0.0
 40
86.81374077537944
100
AcDbArc
 50
268.6827143728
 51
269.4781013725
  0
ARC
  5
2F7
330
1F
100
AcDbEntity
  8
0
  6
Continuous
 62
     7
370
    25
100
AcDbCircle
 10
616.0794291044
 20
-227.6269105937
 30
0.0
 40
86.55361984778466
100
AcDbArc
 50
180.5201990818
 51
181.3179785545
  0
ARC
  5
2F8
330
1F
100
AcDbEntity
  8
0
  6
Continuous
 62
     7
370
    25
100
AcDbCircle
 10
529.9337018658
 20
-140.2773548166
 30
0.0
 40
89.34120828269019
100
AcDbArc
 50
269.7530970887
 51
270.2469029113
  0
ARC
  5
2F9
330
1F
100
AcDbEntity
  8
0
  6
Continuous
 62
     7
370
    25
100
AcDbCircle
 10
443.7874438444
 20
-227.6269020787
 30
0.0
 40
86.55415068605492
100
AcDbArc
 50
358.682023892
 51
359.4797984718
  0
SPLINE
  5
2FA
330
1F
100
AcDbEntity
  8
0
  6
Continuous
 62
     7
370
    25
100
AcDbSpline
210
0.0
220
0.0
230
1.0
 70
     8
 71
     3
 72
    12
 73
     8
 74
     0
 42
0.000000001
 43
0.00000001
 40
0.0
 40
0.0
 40
0.0
 40
0.0
 40
0.2165895341440479
 40
0.4332415078567211
 40
0.6487751858402551
 40
0.8638991698102504
 40
1.0
 40
1.0
 40
1.0
 40
1.0
 10
530.753701881455
 20
-227.9970683839106
 30
0.0
 10
530.7067988594059
 20
-228.0020786182722
 30
0.0
 10
530.6129792938586
 20
-228.012100531372
 30
0.0
 10
530.4881860566113
 20
-228.0850803872412
 30
0.0
 10
530.3944271862582
 20
-228.1915708805467
 30
0.0
 10
530.3455734926085
 20
-228.3075642649779
 30
0.0
 10
530.3401346801041
 20
-228.3833637232009
 30
0.0
 10
530.3380271214486
 20
-228.412736275413
 30
0.0
  0
ARC
  5
2FB
330
1F
100
AcDbEntity
  8
0
  6
Continuous
 62
     7
370
    25
100
AcDbCircle
 10
529.9629386254
 20
-141.1868610464
 30
0.0
 40
86.81380883543204
100
AcDbArc
 50
270.5218988121
 51
271.317285265
  0
ARC
  5
2FC
330
1F
100
AcDbEntity
  8
0
  6
Continuous
 62
     7
370
    25
100
AcDbCircle
 10
442.5655911982
 20
-227.5927328255
 30
0.0
 40
89.39393387360091
100
AcDbArc
 50
359.7532428651
 51
0.2467571349
  0
ARC
  5
2FD
330
1F
100
AcDbEntity
  8
0
  6
Continuous
 62
     7
370
    25
100
AcDbCircle
 10
529.9700383665
 20
-313.6228791098
 30
0.0
 40
86.4380194357571
100
AcDbArc
 50
88.6816941614
 51
89.4805384554
  0
LINE
  5
2FE
330
1F
100
AcDbEntity
  8
0
  6
Continuous
 62
     7
370
    25
100
AcDbLine
 10
530.1630994507
 20
-228.4127362754
 30
0.0
 11
530.3380271214
 21
-228.4127362754
 31
0.0
  0
ARC
  5
2FF
330
1F
100
AcDbEntity
  8
0
  6
Continuous
 62
     7
370
    25
100
AcDbCircle
 10
530.7537018585
 20
-228.4127373397
 30
0.0
 40
0.590602409753842
100
AcDbArc
 50
90.0
 51
180.0
  0
LINE
  5
300
330
1F
100
AcDbEntity
  8
0
  6
Continuous
 62
     7
370
    25
100
AcDbLine
 10
530.7537018815
 20
-227.8221287515
 30
0.0
 11
530.7537018815
 21
-227.9970683839
 31
0.0
  0
LINE
  5
301
330
1F
100
AcDbEntity
  8
0
  6
Continuous
 62
     7
370
    25
100
AcDbLine
 10
529.7043042663
 20
-226.7727442767
 30
0.0
 11
529.5293766101
 21
-226.7727442767
 31
0.0
  0
ARC
  5
302
330
1F
100
AcDbEntity
  8
0
  6
Continuous
 62
     7
370
    25
100
AcDbCircle
 10
529.1137018585
 20
-226.7727373397
 30
0.0
 40
0.590602409753842
100
AcDbArc
 50
270.0
 51
0.0
  0
LINE
  5
303
330
1F
100
AcDbEntity
  8
0
  6
Continuous
 62
     7
370
    25
100
AcDbLine
 10
529.1137018501
 20
-227.3633368995
 30
0.0
 11
529.1137018501
 21
-227.1884121682
 31
0.0
  0
LINE
  5
304
330
1F
100
AcDbEntity
  8
0
  6
Continuous
 62
     7
370
    25
100
AcDbLine
 10
528.0643042204
 20
-227.8221287515
 30
0.0
 11
527.9087078087
 21
-227.9777266767
 31
0.0
  0
LINE
  5
305
330
1F
100
AcDbEntity
  8
0
  6
Continuous
 62
     7
370
    25
100
AcDbLine
 10
529.1137018501
 20
-227.8221287515
 30
0.0
 11
528.0643042204
 21
-227.8221287515
 31
0.0
  0
LINE
  5
306
330
1F
100
AcDbEntity
  8
0
  6
Continuous
 62
     7
370
    25
100
AcDbLine
 10
531.8030995111
 20
-227.8221287515
 30
0.0
 11
530.7537018815
 21
-227.8221287515
 31
0.0
  0
LINE
  5
307
330
1F
100
AcDbEntity
  8
0
  6
Continuous
 62
     7
370
    25
100
AcDbLine
 10
531.8030995111
 20
-227.8221287515
 30
0.0
 11
531.9586960393
 21
-227.9777266767
 31
0.0
  0
LINE
  5
308
330
1F
100
AcDbEntity
  8
0
  6
Continuous
 62
     7
370
    25
100
AcDbLine
 10
529.7043042663
 20
-225.7233449008
 30
0.0
 11
529.5487077818
 21
-225.5677469756
 31
0.0
  0
LINE
  5
309
330
1F
100
AcDbEntity
  8
0
  6
Continuous
 62
     7
370
    25
100
AcDbLine
 10
529.7043042663
 20
-226.7727442767
 30
0.0
 11
529.7043042663
 21
-225.7233449008
 31
0.0
  0
LINE
  5
30A
330
1F
100
AcDbEntity
  8
0
  6
Continuous
 62
     7
370
    25
100
AcDbLine
 10
530.1630994507
 20
-226.7727442767
 30
0.0
 11
530.1630994507
 21
-225.7233449008
 31
0.0
  0
LINE
  5
30B
330
1F
100
AcDbEntity
  8
0
  6
Continuous
 62
     7
370
    25
100
AcDbLine
 10
530.1630994507
 20
-225.7233449008
 30
0.0
 11
530.3186959498
 21
-225.5677469756
 31
0.0
  0
LINE
  5
30C
330
1F
100
AcDbEntity
  8
0
  6
Continuous
 62
     7
370
    25
100
AcDbLine
 10
530.1630994507
 20
-229.4621356513
 30
0.0
 11
530.3186959498
 21
-229.6177335765
 31
0.0
  0
LINE
  5
30D
330
1F
100
AcDbEntity
  8
0
  6
Continuous
 62
     7
370
    25
100
AcDbLine
 10
530.1630994507
 20
-229.4621356513
 30
0.0
 11
530.1630994507
 21
-228.4127362754
 31
0.0
  0
LINE
  5
30E
330
1F
100
AcDbEntity
  8
0
  6
Continuous
 62
     7
370
    25
100
AcDbLine
 10
529.7043042663
 20
-229.4621356513
 30
0.0
 11
529.7043042663
 21
-228.4127362754
 31
0.0
  0
LINE
  5
30F
330
1F
100
AcDbEntity
  8
0
  6
Continuous
 62
     7
370
    25
100
AcDbLine
 10
529.7043042663
 20
-229.4621356513
 30
0.0
 11
529.5487077818
 21
-229.6177335765
 31
0.0
  0
LINE
  5
310
330
1F
100
AcDbEntity
  8
0
  6
Continuous
 62
     7
370
    25
100
AcDbLine
 10
529.1137018501
 20
-227.3633368995
 30
0.0
 11
528.0643042204
 21
-227.3633368995
 31
0.0
  0
LINE
  5
311
330
1F
100
AcDbEntity
  8
0
  6
Continuous
 62
     7
370
    25
100
AcDbLine
 10
528.0643042204
 20
-227.3633368995
 30
0.0
 11
527.9087078087
 21
-227.2077389743
 31
0.0
  0
LINE
  5
312
330
1F
100
AcDbEntity
  8
0
  6
Continuous
 62
     7
370
    25
100
AcDbLine
 10
531.8030995111
 20
-227.3633368995
 30
0.0
 11
531.9586960393
 21
-227.2077389743
 31
0.0
  0
LINE
  5
313
330
1F
100
AcDbEntity
  8
0
  6
Continuous
 62
     7
370
    25
100
AcDbLine
 10
531.8030995111
 20
-227.3633368995
 30
0.0
 11
530.7537018815
 21
-227.3633368995
 31
0.0
  0
LINE
  5
314
330
1F
100
AcDbEntity
  8
0
  6
Continuous
 62
     7
370
    25
100
AcDbLine
 10
528.0643042204
 20
-227.8221287515
 30
0.0
 11
528.0643042204
 21
-227.3633368995
 31
0.0
  0
LINE
  5
315
330
1F
100
AcDbEntity
  8
0
  6
Continuous
 62
     7
370
    25
100
AcDbLine
 10
530.1630994507
 20
-225.7233449008
 30
0.0
 11
529.7043042663
 21
-225.7233449008
 31
0.0
  0
LINE
  5
316
330
1F
100
AcDbEntity
  8
0
  6
Continuous
 62
     7
370
    25
100
AcDbLine
 10
531.8030995111
 20
-227.8221287515
 30
0.0
 11
531.8030995111
 21
-227.3633368995
 31
0.0
  0
LINE
  5
317
330
1F
100
AcDbEntity
  8
0
  6
Continuous
 62
     7
370
    25
100
AcDbLine
 10
530.1630994507
 20
-229.4621356513
 30
0.0
 11
529.7043042663
 21
-229.4621356513
 31
0.0
  0
SPLINE
  5
318
330
1F
100
AcDbEntity
  8
0
  6
Continuous
 62
     7
370
    25
100
AcDbSpline
210
0.0
220
0.0
230
1.0
 70
     8
 71
     3
 72
    12
 73
     8
 74
     0
 42
0.000000001
 43
0.00000001
 40
0.0
 40
0.0
 40
0.0
 40
0.0
 40
0.2165908626651655
 40
0.4332392550717957
 40
0.6487664515438177
 40
0.8638959394967128
 40
1.0
 40
1.0
 40
1.0
 40
1.0
 10
374.9631802346051
 20
-84.03927208105375
 30
0.0
 10
375.010082527552
 20
-84.03425639896484
 30
0.0
 10
375.1038995713894
 20
-84.02422370254757
 30
0.0
 10
375.2287039036716
 20
-83.95126633033772
 30
0.0
 10
375.3224562672776
 20
-83.84476563612728
 30
0.0
 10
375.3713079781349
 20
-83.7287722238631
 30
0.0
 10
375.3767530467429
 20
-83.65297067278502
 30
0.0
 10
375.3788630272687
 20
-83.62359734287526
 30
0.0
  0
LINE
  5
319
330
1F
100
AcDbEntity
  8
0
  6
Continuous
 62
     7
370
    25
100
AcDbLine
 10
375.5537877585
 20
-83.6235973429
 30
0.0
 11
375.3788630273
 21
-83.6235973429
 31
0.0
  0
ARC
  5
31A
330
1F
100
AcDbEntity
  8
0
  6
Continuous
 62
     7
370
    25
100
AcDbCircle
 10
374.963182934
 20
-83.6235973419
 30
0.0
 40
0.5906024097537994
100
AcDbArc
 50
270.0
 51
0.0
  0
LINE
  5
31B
330
1F
100
AcDbEntity
  8
0
  6
Continuous
 62
     7
370
    25
100
AcDbLine
 10
374.9631802346
 20
-84.2141997518
 30
0.0
 11
374.9631802346
 21
-84.0392720811
 31
0.0
  0
SPLINE
  5
31C
330
1F
100
AcDbEntity
  8
0
  6
Continuous
 62
     7
370
    25
100
AcDbSpline
210
0.0
220
0.0
230
1.0
 70
     8
 71
     3
 72
    12
 73
     8
 74
     0
 42
0.000000001
 43
0.00000001
 40
0.0
 40
0.0
 40
0.0
 40
0.0
 40
0.2165905500403449
 40
0.433228233382085
 40
0.6487588409330721
 40
0.8639010763889579
 40
0.9999999999999999
 40
0.9999999999999999
 40
0.9999999999999999
 40
0.9999999999999999
 10
376.1875043417753
 20
-83.62359734287526
 30
0.0
 10
376.1925219244215
 20
-83.67049950581311
 30
0.0
 10
376.2025581816141
 20
-83.7643140382919
 30
0.0
 10
376.2755130189557
 20
-83.88911701279085
 30
0.0
 10
376.382011205702
 20
-83.98287590010764
 30
0.0
 10
376.4980108248527
 20
-84.0317241884716
 30
0.0
 10
376.5738146632778
 20
-84.03716418947563
 30
0.0
 10
376.6031871344388
 20
-84.03927208105375
 30
0.0
  0
LINE
  5
31D
330
1F
100
AcDbEntity
  8
0
  6
Continuous
 62
     7
370
    25
100
AcDbLine
 10
376.6031871344
 20
-84.2141997518
 30
0.0
 11
376.6031871344
 21
-84.0392720811
 31
0.0
  0
ARC
  5
31E
330
1F
100
AcDbEntity
  8
0
  6
Continuous
 62
     7
370
    25
100
AcDbCircle
 10
376.603182934
 20
-83.6235973419
 30
0.0
 40
0.5906024097537994
100
AcDbArc
 50
180.0
 51
270.0
  0
LINE
  5
31F
330
1F
100
AcDbEntity
  8
0
  6
Continuous
 62
     7
370
    25
100
AcDbLine
 10
376.0125796105
 20
-83.6235973429
 30
0.0
 11
376.1875043418
 21
-83.6235973429
 31
0.0
  0
SPLINE
  5
320
330
1F
100
AcDbEntity
  8
0
  6
Continuous
 62
     7
370
    25
100
AcDbSpline
210
0.0
220
0.0
230
1.0
 70
     8
 71
     3
 72
    12
 73
     8
 74
     0
 42
0.000000001
 43
0.00000001
 40
0.0
 40
0.0
 40
0.0
 40
0.0
 40
0.2165906210412349
 40
0.4332282203813582
 40
0.648758821980635
 40
0.8639010852432332
 40
1.0
 40
1.0
 40
1.0
 40
1.0
 10
375.3788630272687
 20
-85.2635973814809
 30
0.0
 10
375.3738454503334
 20
-85.21669519966044
 30
0.0
 10
375.3638092081551
 20
-85.12288066298103
 30
0.0
 10
375.290854332045
 20
-84.99807770511552
 30
0.0
 10
375.1843561512411
 20
-84.90431884939932
 30
0.0
 10
375.0683565576828
 20
-84.85547046353604
 30
0.0
 10
374.9925527070144
 20
-84.850030498763
 30
0.0
 10
374.9631802346051
 20
-84.84792262147454
 30
0.0
  0
LINE
  5
321
330
1F
100
AcDbEntity
  8
0
  6
Continuous
 62
     7
370
    25
100
AcDbLine
 10
374.9631802346
 20
-84.6729949798
 30
0.0
 11
374.9631802346
 21
-84.8479226215
 31
0.0
  0
ARC
  5
322
330
1F
100
AcDbEntity
  8
0
  6
Continuous
 62
     7
370
    25
100
AcDbCircle
 10
374.963182934
 20
-85.2635973419
 30
0.0
 40
0.5906024097538136
100
AcDbArc
 50
0.0
 51
90.0
  0
LINE
  5
323
330
1F
100
AcDbEntity
  8
0
  6
Continuous
 62
     7
370
    25
100
AcDbLine
 10
375.5537877585
 20
-85.2635973815
 30
0.0
 11
375.3788630273
 21
-85.2635973815
 31
0.0
  0
CIRCLE
  5
324
330
1F
100
AcDbEntity
  8
0
  6
Continuous
 62
     7
370
    25
100
AcDbCircle
 10
375.783182934
 20
-84.4435973419
 30
0.0
 40
3.500000000000014
  0
SPLINE
  5
325
330
1F
100
AcDbEntity
  8
0
  6
Continuous
 62
     7
370
    25
100
AcDbSpline
210
0.0
220
0.0
230
1.0
 70
     8
 71
     3
 72
    12
 73
     8
 74
     0
 42
0.000000001
 43
0.00000001
 40
0.0
 40
0.0
 40
0.0
 40
0.0
 40
0.2165908617444183
 40
0.4332392233566121
 40
0.6487663437764477
 40
0.8638958229942113
 40
1.0
 40
1.0
 40
1.0
 40
1.0
 10
376.6031871344388
 20
-84.84792262147454
 30
0.0
 10
376.556284842451
 20
-84.85293831725106
 30
0.0
 10
376.4624678070008
 20
-84.86297104035538
 30
0.0
 10
376.3376634794728
 20
-84.93592836610857
 30
0.0
 10
376.2439110858208
 20
-85.0424290145604
 30
0.0
 10
376.195059380883
 20
-85.15842244630198
 30
0.0
 10
376.1896143203361
 20
-85.23422402481104
 30
0.0
 10
376.1875043417753
 20
-85.2635973814809
 30
0.0
  0
ARC
  5
326
330
1F
100
AcDbEntity
  8
0
  6
Continuous
 62
     7
370
    25
100
AcDbCircle
 10
375.8171998714
 20
1.7119413742
 30
0.0
 40
86.56343241192343
100
AcDbArc
 50
270.5202470661
 51
271.3179361041
  0
ARC
  5
327
330
1F
100
AcDbEntity
  8
0
  6
Continuous
 62
     7
370
    25
100
AcDbCircle
 10
287.0239403951
 20
-84.4435973222
 30
0.0
 40
90.78506037025245
100
AcDbArc
 50
359.7570238832
 51
0.2429761168
  0
ARC
  5
328
330
1F
100
AcDbEntity
  8
0
  6
Continuous
 62
     7
370
    25
100
AcDbCircle
 10
375.8171996654
 20
-170.5994094975
 30
0.0
 40
86.56370582321082
100
AcDbArc
 50
88.682067923
 51
89.4797544408
  0
ARC
  5
329
330
1F
100
AcDbEntity
  8
0
  6
Continuous
 62
     7
370
    25
100
AcDbCircle
 10
289.7531504133
 20
-84.4072592493
 30
0.0
 40
86.43790641268737
100
AcDbArc
 50
0.5194611577
 51
1.3183064142
  0
ARC
  5
32A
330
1F
100
AcDbEntity
  8
0
  6
Continuous
 62
     7
370
    25
100
AcDbCircle
 10
375.7831836845
 20
-171.7836741734
 30
0.0
 40
89.36590015724654
100
AcDbArc
 50
89.7531654579
 51
90.2468345421
  0
ARC
  5
32B
330
1F
100
AcDbEntity
  8
0
  6
Continuous
 62
     7
370
    25
100
AcDbCircle
 10
461.8132169557
 20
-84.4072592493
 30
0.0
 40
86.43790641268737
100
AcDbArc
 50
178.6816935858
 51
179.4805388423
  0
ARC
  5
32C
330
1F
100
AcDbEntity
  8
0
  6
Continuous
 62
     7
370
    25
100
AcDbCircle
 10
375.7491148174
 20
-170.5961128626
 30
0.0
 40
86.56040884407862
100
AcDbArc
 50
90.5202303675
 51
91.3179472687
  0
ARC
  5
32D
330
1F
100
AcDbEntity
  8
0
  6
Continuous
 62
     7
370
    25
100
AcDbCircle
 10
464.542426974
 20
-84.4435973222
 30
0.0
 40
90.78506037025245
100
AcDbArc
 50
179.7570238832
 51
180.2429761168
  0
ARC
  5
32E
330
1F
100
AcDbEntity
  8
0
  6
Continuous
 62
     7
370
    25
100
AcDbCircle
 10
375.749114614
 20
1.7086449128
 30
0.0
 40
86.56013560616765
100
AcDbArc
 50
268.6820487049
 51
269.4797681249
  0
ARC
  5
32F
330
1F
100
AcDbEntity
  8
0
  6
Continuous
 62
     7
370
    25
100
AcDbCircle
 10
461.8132464749
 20
-84.4799350136
 30
0.0
 40
86.43793593482407
100
AcDbArc
 50
180.5194612861
 51
181.3183062746
  0
ARC
  5
330
330
1F
100
AcDbEntity
  8
0
  6
Continuous
 62
     7
370
    25
100
AcDbCircle
 10
375.7831836845
 20
2.9006623977
 30
0.0
 40
89.37008307440804
100
AcDbArc
 50
269.7531770109
 51
270.2468229891
  0
ARC
  5
331
330
1F
100
AcDbEntity
  8
0
  6
Continuous
 62
     7
370
    25
100
AcDbCircle
 10
289.7531208942
 20
-84.4799350136
 30
0.0
 40
86.43793593482401
100
AcDbArc
 50
358.6816937254
 51
359.4805387139
  0
LINE
  5
332
330
1F
100
AcDbEntity
  8
0
  6
Continuous
 62
     7
370
    25
100
AcDbLine
 10
376.0125796105
 20
-85.2635973815
 30
0.0
 11
376.1875043418
 21
-85.2635973815
 31
0.0
  0
ARC
  5
333
330
1F
100
AcDbEntity
  8
0
  6
Continuous
 62
     7
370
    25
100
AcDbCircle
 10
376.603182934
 20
-85.2635973419
 30
0.0
 40
0.5906024097538136
100
AcDbArc
 50
90.0
 51
180.0
  0
LINE
  5
334
330
1F
100
AcDbEntity
  8
0
  6
Continuous
 62
     7
370
    25
100
AcDbLine
 10
376.6031871344
 20
-84.6729949798
 30
0.0
 11
376.6031871344
 21
-84.8479226215
 31
0.0
  0
LINE
  5
335
330
1F
100
AcDbEntity
  8
0
  6
Continuous
 62
     7
370
    25
100
AcDbLine
 10
375.5537877585
 20
-86.3129948948
 30
0.0
 11
375.5537877585
 21
-85.2635973815
 31
0.0
  0
LINE
  5
336
330
1F
100
AcDbEntity
  8
0
  6
Continuous
 62
     7
370
    25
100
AcDbLine
 10
375.5537877585
 20
-86.3129948948
 30
0.0
 11
375.3981898333
 21
-86.468591423
 31
0.0
  0
LINE
  5
337
330
1F
100
AcDbEntity
  8
0
  6
Continuous
 62
     7
370
    25
100
AcDbLine
 10
377.6525865104
 20
-84.2141997518
 30
0.0
 11
377.8081844355
 21
-84.0586032527
 31
0.0
  0
LINE
  5
338
330
1F
100
AcDbEntity
  8
0
  6
Continuous
 62
     7
370
    25
100
AcDbLine
 10
376.6031871344
 20
-84.2141997518
 30
0.0
 11
377.6525865104
 21
-84.2141997518
 31
0.0
  0
LINE
  5
339
330
1F
100
AcDbEntity
  8
0
  6
Continuous
 62
     7
370
    25
100
AcDbLine
 10
376.0125796105
 20
-86.3129948948
 30
0.0
 11
376.1681775357
 21
-86.468591423
 31
0.0
  0
LINE
  5
33A
330
1F
100
AcDbEntity
  8
0
  6
Continuous
 62
     7
370
    25
100
AcDbLine
 10
376.0125796105
 20
-86.3129948948
 30
0.0
 11
376.0125796105
 21
-85.2635973815
 31
0.0
  0
LINE
  5
33B
330
1F
100
AcDbEntity
  8
0
  6
Continuous
 62
     7
370
    25
100
AcDbLine
 10
373.9137808587
 20
-84.2141997518
 30
0.0
 11
374.9631802346
 21
-84.2141997518
 31
0.0
  0
LINE
  5
33C
330
1F
100
AcDbEntity
  8
0
  6
Continuous
 62
     7
370
    25
100
AcDbLine
 10
373.9137808587
 20
-84.2141997518
 30
0.0
 11
373.7581829335
 21
-84.0586032527
 31
0.0
  0
LINE
  5
33D
330
1F
100
AcDbEntity
  8
0
  6
Continuous
 62
     7
370
    25
100
AcDbLine
 10
373.9137808587
 20
-84.6729949798
 30
0.0
 11
373.7581829335
 21
-84.8285913916
 31
0.0
  0
LINE
  5
33E
330
1F
100
AcDbEntity
  8
0
  6
Continuous
 62
     7
370
    25
100
AcDbLine
 10
373.9137808587
 20
-84.6729949798
 30
0.0
 11
374.9631802346
 21
-84.6729949798
 31
0.0
  0
LINE
  5
33F
330
1F
100
AcDbEntity
  8
0
  6
Continuous
 62
     7
370
    25
100
AcDbLine
 10
376.0125796105
 20
-83.6235973429
 30
0.0
 11
376.0125796105
 21
-82.5741997205
 31
0.0
  0
LINE
  5
340
330
1F
100
AcDbEntity
  8
0
  6
Continuous
 62
     7
370
    25
100
AcDbLine
 10
376.0125796105
 20
-82.5741997205
 30
0.0
 11
376.1681775357
 21
-82.4186033087
 31
0.0
  0
LINE
  5
341
330
1F
100
AcDbEntity
  8
0
  6
Continuous
 62
     7
370
    25
100
AcDbLine
 10
375.5537877585
 20
-82.5741997205
 30
0.0
 11
375.3981898333
 21
-82.4186033087
 31
0.0
  0
LINE
  5
342
330
1F
100
AcDbEntity
  8
0
  6
Continuous
 62
     7
370
    25
100
AcDbLine
 10
375.5537877585
 20
-83.6235973429
 30
0.0
 11
375.5537877585
 21
-82.5741997205
 31
0.0
  0
LINE
  5
343
330
1F
100
AcDbEntity
  8
0
  6
Continuous
 62
     7
370
    25
100
AcDbLine
 10
376.6031871344
 20
-84.6729949798
 30
0.0
 11
377.6525865104
 21
-84.6729949798
 31
0.0
  0
LINE
  5
344
330
1F
100
AcDbEntity
  8
0
  6
Continuous
 62
     7
370
    25
100
AcDbLine
 10
377.6525865104
 20
-84.6729949798
 30
0.0
 11
377.8081844355
 21
-84.8285913916
 31
0.0
  0
LINE
  5
345
330
1F
100
AcDbEntity
  8
0
  6
Continuous
 62
     7
370
    25
100
AcDbLine
 10
375.5537877585
 20
-86.3129948948
 30
0.0
 11
376.0125796105
 21
-86.3129948948
 31
0.0
  0
LINE
  5
346
330
1F
100
AcDbEntity
  8
0
  6
Continuous
 62
     7
370
    25
100
AcDbLine
 10
373.9137808587
 20
-84.6729949798
 30
0.0
 11
373.9137808587
 21
-84.2141997518
 31
0.0
  0
LINE
  5
347
330
1F
100
AcDbEntity
  8
0
  6
Continuous
 62
     7
370
    25
100
AcDbLine
 10
377.6525865104
 20
-84.6729949798
 30
0.0
 11
377.6525865104
 21
-84.2141997518
 31
0.0
  0
LINE
  5
348
330
1F
100
AcDbEntity
  8
0
  6
Continuous
 62
     7
370
    25
100
AcDbLine
 10
375.5537877585
 20
-82.5741997205
 30
0.0
 11
376.0125796105
 21
-82.5741997205
 31
0.0
  0
SPLINE
  5
349
330
1F
100
AcDbEntity
  8
0
  6
Continuous
 62
     7
370
    25
100
AcDbSpline
210
0.0
220
0.0
230
1.0
 70
     8
 71
     3
 72
    12
 73
     8
 74
     0
 42
0.000000001
 43
0.00000001
 40
0.0
 40
0.0
 40
0.0
 40
0.0
 40
0.2165914095677484
 40
0.4332403788957474
 40
0.6487681274196092
 40
0.8638981664056526
 40
1.0
 40
1.0
 40
1.0
 40
1.0
 10
530.3363684941509
 20
70.52698352076773
 30
0.0
 10
530.3413841672551
 20
70.480081273166
 30
0.0
 10
530.3514168463923
 20
70.3862643135618
 30
0.0
 10
530.4243741870449
 20
70.26145929587518
 30
0.0
 10
530.5308751769
 20
70.16770958832019
 30
0.0
 10
530.6468670671818
 20
70.11884938374583
 30
0.0
 10
530.7226698048833
 20
70.1134196450263
 30
0.0
 10
530.7520432541572
 20
70.11131562926535
 30
0.0
  0
LINE
  5
34A
330
1F
100
AcDbEntity
  8
0
  6
Continuous
 62
     7
370
    25
100
AcDbLine
 10
530.7520432542
 20
69.9363759968
 30
0.0
 11
530.7520432542
 21
70.1113156293
 31
0.0
  0
ARC
  5
34B
330
1F
100
AcDbEntity
  8
0
  6
Continuous
 62
     7
370
    25
100
AcDbCircle
 10
530.7520432258
 20
70.5269829498
 30
0.0
 40
0.590602409753842
100
AcDbArc
 50
180.0
 51
270.0
  0
LINE
  5
34C
330
1F
100
AcDbEntity
  8
0
  6
Continuous
 62
     7
370
    25
100
AcDbLine
 10
530.1614408234
 20
70.5269835208
 30
0.0
 11
530.3363684942
 21
70.5269835208
 31
0.0
  0
SPLINE
  5
34D
330
1F
100
AcDbEntity
  8
0
  6
Continuous
 62
     7
370
    25
100
AcDbSpline
210
0.0
220
0.0
230
1.0
 70
     8
 71
     3
 72
    12
 73
     8
 74
     0
 42
0.000000001
 43
0.00000001
 40
0.0
 40
0.0
 40
0.0
 40
0.0
 40
0.2165873797087658
 40
0.4332259348221607
 40
0.6487574392814607
 40
0.8639005236172643
 40
1.0
 40
1.0
 40
1.0
 40
1.0
 10
529.1120432228275
 20
70.11131562926535
 30
0.0
 10
529.1589455898949
 20
70.11632704245721
 30
0.0
 10
529.2527614061509
 20
70.12635105294088
 30
0.0
 10
529.3775626902301
 20
70.1993104736664
 30
0.0
 10
529.471321867788
 20
70.30580728850222
 30
0.0
 10
529.520170035799
 20
70.42180726175188
 30
0.0
 10
529.525610075941
 20
70.49761106222694
 30
0.0
 10
529.5277179828339
 20
70.52698352076773
 30
0.0
  0
LINE
  5
34E
330
1F
100
AcDbEntity
  8
0
  6
Continuous
 62
     7
370
    25
100
AcDbLine
 10
529.702645639
 20
70.5269835208
 30
0.0
 11
529.5277179828
 21
70.5269835208
 31
0.0
  0
ARC
  5
34F
330
1F
100
AcDbEntity
  8
0
  6
Continuous
 62
     7
370
    25
100
AcDbCircle
 10
529.1120432258
 20
70.5269829498
 30
0.0
 40
0.590602409753842
100
AcDbArc
 50
270.0
 51
360.0
  0
LINE
  5
350
330
1F
100
AcDbEntity
  8
0
  6
Continuous
 62
     7
370
    25
100
AcDbLine
 10
529.1120432228
 20
69.9363759968
 30
0.0
 11
529.1120432228
 21
70.1113156293
 31
0.0
  0
SPLINE
  5
351
330
1F
100
AcDbEntity
  8
0
  6
Continuous
 62
     7
370
    25
100
AcDbSpline
210
0.0
220
0.0
230
1.0
 70
     8
 71
     3
 72
    12
 73
     8
 74
     0
 42
0.000000001
 43
0.00000001
 40
0.0
 40
0.0
 40
0.0
 40
0.0
 40
0.2165908596704421
 40
0.4332392710791922
 40
0.6487664645711979
 40
0.8638959080979701
 40
0.9999999999999999
 40
0.9999999999999999
 40
0.9999999999999999
 40
0.9999999999999999
 10
529.5277179828339
 20
68.88697662093405
 30
0.0
 10
529.522702303046
 20
68.93387891515657
 30
0.0
 10
529.512669610722
 20
69.02769596630937
 30
0.0
 10
529.4397121986294
 20
69.15250028291786
 30
0.0
 10
529.3332115166867
 20
69.24625264572504
 30
0.0
 10
529.2172181106075
 20
69.2951043707049
 30
0.0
 10
529.1414165603032
 20
69.30054943440756
 30
0.0
 10
529.1120432228275
 20
69.30265941359762
 30
0.0
  0
LINE
  5
352
330
1F
100
AcDbEntity
  8
0
  6
Continuous
 62
     7
370
    25
100
AcDbLine
 10
529.1120432228
 20
69.4775841449
 30
0.0
 11
529.1120432228
 21
69.3026594136
 31
0.0
  0
ARC
  5
353
330
1F
100
AcDbEntity
  8
0
  6
Continuous
 62
     7
370
    25
100
AcDbCircle
 10
529.1120432258
 20
68.8869829498
 30
0.0
 40
0.590602409753842
100
AcDbArc
 50
0.0
 51
90.0
  0
LINE
  5
354
330
1F
100
AcDbEntity
  8
0
  6
Continuous
 62
     7
370
    25
100
AcDbLine
 10
529.702645639
 20
68.8869766209
 30
0.0
 11
529.5277179828
 21
68.8869766209
 31
0.0
  0
SPLINE
  5
355
330
1F
100
AcDbEntity
  8
0
  6
Continuous
 62
     7
370
    25
100
AcDbSpline
210
0.0
220
0.0
230
1.0
 70
     8
 71
     3
 72
    12
 73
     8
 74
     0
 42
0.000000001
 43
0.00000001
 40
0.0
 40
0.0
 40
0.0
 40
0.0
 40
0.2165902873453056
 40
0.4332276309363364
 40
0.6487579004728302
 40
0.8638785752960852
 40
1.0
 40
1.0
 40
1.0
 40
1.0
 10
530.7520432541572
 20
69.30265941359762
 30
0.0
 10
530.705141110267
 20
69.29764181979436
 30
0.0
 10
530.6113266325616
 20
69.28760554206912
 30
0.0
 10
530.4865230943702
 20
69.2146508994116
 30
0.0
 10
530.3927693553567
 20
69.10815543368562
 30
0.0
 10
530.3439125170531
 20
68.99215915141224
 30
0.0
 10
530.3384755520129
 20
68.91635427270899
 30
0.0
 10
530.3363684941509
 20
68.88697662093405
 30
0.0
  0
LINE
  5
356
330
1F
100
AcDbEntity
  8
0
  6
Continuous
 62
     7
370
    25
100
AcDbLine
 10
530.1614408234
 20
68.8869766209
 30
0.0
 11
530.3363684942
 21
68.8869766209
 31
0.0
  0
ARC
  5
357
330
1F
100
AcDbEntity
  8
0
  6
Continuous
 62
     7
370
    25
100
AcDbCircle
 10
530.7520432258
 20
68.8869829498
 30
0.0
 40
0.590602409753842
100
AcDbArc
 50
90.0
 51
180.0
  0
LINE
  5
358
330
1F
100
AcDbEntity
  8
0
  6
Continuous
 62
     7
370
    25
100
AcDbLine
 10
530.7520432542
 20
69.4775841449
 30
0.0
 11
530.7520432542
 21
69.3026594136
 31
0.0
  0
CIRCLE
  5
359
330
1F
100
AcDbEntity
  8
0
  6
Continuous
 62
     7
370
    25
100
AcDbCircle
 10
529.9320432258
 20
69.7069829498
 30
0.0
 40
3.5
  0
ARC
  5
35A
330
1F
100
AcDbEntity
  8
0
  6
Continuous
 62
     7
370
    25
100
AcDbCircle
 10
616.0784512149
 20
69.6728357525
 30
0.0
 40
86.55430086126283
100
AcDbArc
 50
180.5202171323
 51
181.3179804645
  0
ARC
  5
35B
330
1F
100
AcDbEntity
  8
0
  6
Continuous
 62
     7
370
    25
100
AcDbCircle
 10
529.9320432239
 20
156.4841262319
 30
0.0
 40
88.80296656161879
100
AcDbArc
 50
269.7516005721
 51
270.2483994279
  0
ARC
  5
35C
330
1F
100
AcDbEntity
  8
0
  6
Continuous
 62
     7
370
    25
100
AcDbCircle
 10
443.7847667628
 20
69.6728517755
 30
0.0
 40
86.55516947022474
100
AcDbArc
 50
358.6820221548
 51
359.4797774814
  0
ARC
  5
35D
330
1F
100
AcDbEntity
  8
0
  6
Continuous
 62
     7
370
    25
100
AcDbCircle
 10
529.9683805289
 20
155.7370711308
 30
0.0
 40
86.43796420648891
100
AcDbArc
 50
270.5194613531
 51
271.3183061189
  0
ARC
  5
35E
330
1F
100
AcDbEntity
  8
0
  6
Continuous
 62
     7
370
    25
100
AcDbCircle
 10
442.5877835332
 20
69.7069800709
 30
0.0
 40
89.37008307440804
100
AcDbArc
 50
359.7531770109
 51
0.2468229891
  0
ARC
  5
35F
330
1F
100
AcDbEntity
  8
0
  6
Continuous
 62
     7
370
    25
100
AcDbCircle
 10
529.9612807955
 20
-16.6988360275
 30
0.0
 40
86.81375314966637
100
AcDbArc
 50
88.6827144547
 51
89.4781013794
  0
ARC
  5
360
330
1F
100
AcDbEntity
  8
0
  6
Continuous
 62
     7
370
    25
100
AcDbCircle
 10
443.7847117653
 20
69.7411321032
 30
0.0
 40
86.55522424999528
100
AcDbArc
 50
0.5202064758
 51
1.3179711604
  0
ARC
  5
361
330
1F
100
AcDbEntity
  8
0
  6
Continuous
 62
     7
370
    25
100
AcDbCircle
 10
529.9320432239
 20
-19.0522792382
 30
0.0
 40
90.78507638980001
100
AcDbArc
 50
89.7570239077
 51
90.2429760923
  0
ARC
  5
362
330
1F
100
AcDbEntity
  8
0
  6
Continuous
 62
     7
370
    25
100
AcDbCircle
 10
616.0785061174
 20
69.7411481275
 30
0.0
 40
86.55435554598014
100
AcDbArc
 50
178.6820262197
 51
179.479798911
  0
ARC
  5
363
330
1F
100
AcDbEntity
  8
0
  6
Continuous
 62
     7
370
    25
100
AcDbCircle
 10
529.9028052667
 20
-16.6988101854
 30
0.0
 40
86.81372730484759
100
AcDbArc
 50
90.5218985022
 51
91.3172856637
  0
ARC
  5
364
330
1F
100
AcDbEntity
  8
0
  6
Continuous
 62
     7
370
    25
100
AcDbCircle
 10
617.2874571751
 20
69.7069800709
 30
0.0
 40
89.3812372022169
100
AcDbArc
 50
179.7532078128
 51
180.2467921872
  0
ARC
  5
365
330
1F
100
AcDbEntity
  8
0
  6
Continuous
 62
     7
370
    25
100
AcDbCircle
 10
529.8957055368
 20
155.7370454901
 30
0.0
 40
86.43793856312274
100
AcDbArc
 50
268.6816937626
 51
269.4805387654
  0
LINE
  5
366
330
1F
100
AcDbEntity
  8
0
  6
Continuous
 62
     7
370
    25
100
AcDbLine
 10
528.0626456513
 20
69.9363759968
 30
0.0
 11
529.1120432228
 21
69.9363759968
 31
0.0
  0
LINE
  5
367
330
1F
100
AcDbEntity
  8
0
  6
Continuous
 62
     7
370
    25
100
AcDbLine
 10
528.0626456513
 20
69.9363759968
 30
0.0
 11
527.9070491231
 21
70.091973922
 31
0.0
  0
LINE
  5
368
330
1F
100
AcDbEntity
  8
0
  6
Continuous
 62
     7
370
    25
100
AcDbLine
 10
529.702645639
 20
68.8869766209
 30
0.0
 11
529.702645639
 21
67.8375921462
 31
0.0
  0
LINE
  5
369
330
1F
100
AcDbEntity
  8
0
  6
Continuous
 62
     7
370
    25
100
AcDbLine
 10
529.702645639
 20
67.8375921462
 30
0.0
 11
529.5470491254
 21
67.681994221
 31
0.0
  0
LINE
  5
36A
330
1F
100
AcDbEntity
  8
0
  6
Continuous
 62
     7
370
    25
100
AcDbLine
 10
528.0626456513
 20
69.4775841449
 30
0.0
 11
527.9070491231
 21
69.3219862197
 31
0.0
  0
LINE
  5
36B
330
1F
100
AcDbEntity
  8
0
  6
Continuous
 62
     7
370
    25
100
AcDbLine
 10
528.0626456513
 20
69.4775841449
 30
0.0
 11
529.1120432228
 21
69.4775841449
 31
0.0
  0
LINE
  5
36C
330
1F
100
AcDbEntity
  8
0
  6
Continuous
 62
     7
370
    25
100
AcDbLine
 10
531.8014408256
 20
69.9363759968
 30
0.0
 11
531.9570373538
 21
70.091973922
 31
0.0
  0
LINE
  5
36D
330
1F
100
AcDbEntity
  8
0
  6
Continuous
 62
     7
370
    25
100
AcDbLine
 10
530.7520432542
 20
69.9363759968
 30
0.0
 11
531.8014408256
 21
69.9363759968
 31
0.0
  0
LINE
  5
36E
330
1F
100
AcDbEntity
  8
0
  6
Continuous
 62
     7
370
    25
100
AcDbLine
 10
530.1614408234
 20
67.8375921462
 30
0.0
 11
530.3170373225
 21
67.681994221
 31
0.0
  0
LINE
  5
36F
330
1F
100
AcDbEntity
  8
0
  6
Continuous
 62
     7
370
    25
100
AcDbLine
 10
530.1614408234
 20
68.8869766209
 30
0.0
 11
530.1614408234
 21
67.8375921462
 31
0.0
  0
LINE
  5
370
330
1F
100
AcDbEntity
  8
0
  6
Continuous
 62
     7
370
    25
100
AcDbLine
 10
530.1614408234
 20
71.5763828967
 30
0.0
 11
530.1614408234
 21
70.5269835208
 31
0.0
  0
LINE
  5
371
330
1F
100
AcDbEntity
  8
0
  6
Continuous
 62
     7
370
    25
100
AcDbLine
 10
530.1614408234
 20
71.5763828967
 30
0.0
 11
530.3170373225
 21
71.7319808219
 31
0.0
  0
LINE
  5
372
330
1F
100
AcDbEntity
  8
0
  6
Continuous
 62
     7
370
    25
100
AcDbLine
 10
529.702645639
 20
71.5763828967
 30
0.0
 11
529.5470491254
 21
71.7319808219
 31
0.0
  0
LINE
  5
373
330
1F
100
AcDbEntity
  8
0
  6
Continuous
 62
     7
370
    25
100
AcDbLine
 10
529.702645639
 20
71.5763828967
 30
0.0
 11
529.702645639
 21
70.5269835208
 31
0.0
  0
LINE
  5
374
330
1F
100
AcDbEntity
  8
0
  6
Continuous
 62
     7
370
    25
100
AcDbLine
 10
530.7520432542
 20
69.4775841449
 30
0.0
 11
531.8014408256
 21
69.4775841449
 31
0.0
  0
LINE
  5
375
330
1F
100
AcDbEntity
  8
0
  6
Continuous
 62
     7
370
    25
100
AcDbLine
 10
531.8014408256
 20
69.4775841449
 30
0.0
 11
531.9570373538
 21
69.3219862197
 31
0.0
  0
LINE
  5
376
330
1F
100
AcDbEntity
  8
0
  6
Continuous
 62
     7
370
    25
100
AcDbLine
 10
529.702645639
 20
67.8375921462
 30
0.0
 11
530.1614408234
 21
67.8375921462
 31
0.0
  0
LINE
  5
377
330
1F
100
AcDbEntity
  8
0
  6
Continuous
 62
     7
370
    25
100
AcDbLine
 10
531.8014408256
 20
69.9363759968
 30
0.0
 11
531.8014408256
 21
69.4775841449
 31
0.0
  0
LINE
  5
378
330
1F
100
AcDbEntity
  8
0
  6
Continuous
 62
     7
370
    25
100
AcDbLine
 10
528.0626456513
 20
69.9363759968
 30
0.0
 11
528.0626456513
 21
69.4775841449
 31
0.0
  0
LINE
  5
379
330
1F
100
AcDbEntity
  8
0
  6
Continuous
 62
     7
370
    25
100
AcDbLine
 10
529.702645639
 20
71.5763828967
 30
0.0
 11
530.1614408234
 21
71.5763828967
 31
0.0
  0
SPLINE
  5
37A
330
1F
100
AcDbEntity
  8
0
  6
Continuous
 62
     7
370
    25
100
AcDbSpline
210
0.0
220
0.0
230
1.0
 70
     8
 71
     3
 72
    12
 73
     8
 74
     0
 42
0.000000001
 43
0.00000001
 40
0.0
 40
0.0
 40
0.0
 40
0.0
 40
0.2165951371761659
 40
0.4332374196519924
 40
0.6487726028342758
 40
0.8638981819654057
 40
1.0
 40
1.0
 40
1.0
 40
1.0
 10
530.7521046050318
 20
58.30293514468435
 30
0.0
 10
530.7052024796966
 20
58.29791754838329
 30
0.0
 10
530.611388020049
 20
58.28788126362333
 30
0.0
 10
530.4865845220866
 20
58.21492662687258
 30
0.0
 10
530.392830695019
 20
58.10843117882078
 30
0.0
 10
530.343976102247
 20
57.9924394858913
 30
0.0
 10
530.3385373717141
 20
57.91663986543677
 30
0.0
 10
530.3364298450255
 20
57.88726725318197
 30
0.0
  0
LINE
  5
37B
330
1F
100
AcDbEntity
  8
0
  6
Continuous
 62
     7
370
    25
100
AcDbLine
 10
530.1615021743
 20
57.8872672532
 30
0.0
 11
530.336429845
 21
57.8872672532
 31
0.0
  0
ARC
  5
37C
330
1F
100
AcDbEntity
  8
0
  6
Continuous
 62
     7
370
    25
100
AcDbCircle
 10
530.7521045932
 20
57.8872626558
 30
0.0
 40
0.590602409753842
100
AcDbArc
 50
90.0
 51
180.0
  0
LINE
  5
37D
330
1F
100
AcDbEntity
  8
0
  6
Continuous
 62
     7
370
    25
100
AcDbLine
 10
530.752104605
 20
58.4778598759
 30
0.0
 11
530.752104605
 21
58.3029351447
 31
0.0
  0
CIRCLE
  5
37E
330
1F
100
AcDbEntity
  8
0
  6
Continuous
 62
     7
370
    25
100
AcDbCircle
 10
529.9321045932
 20
58.7072626558
 30
0.0
 40
3.499999999999886
  0
SPLINE
  5
37F
330
1F
100
AcDbEntity
  8
0
  6
Continuous
 62
     7
370
    25
100
AcDbSpline
210
0.0
220
0.0
230
1.0
 70
     8
 71
     3
 72
    12
 73
     8
 74
     0
 42
0.000000001
 43
0.00000001
 40
0.0
 40
0.0
 40
0.0
 40
0.0
 40
0.216592464807337
 40
0.4332224869772335
 40
0.6487664289761766
 40
0.8638975082613227
 40
1.0
 40
1.0
 40
1.0
 40
1.0
 10
529.5277793337085
 20
57.88726725318197
 30
0.0
 10
529.5227647736039
 20
57.9341702426042
 30
0.0
 10
529.5127347838646
 20
58.0279843544767
 30
0.0
 10
529.4397638192971
 20
58.1527780503433
 30
0.0
 10
529.3332787741707
 20
58.24654297638895
 30
0.0
 10
529.2172803188695
 20
58.29540093750018
 30
0.0
 10
529.1414778995885
 20
58.30083100249295
 30
0.0
 10
529.1121045737021
 20
58.30293514468435
 30
0.0
  0
ARC
  5
380
330
1F
100
AcDbEntity
  8
0
  6
Continuous
 62
     7
370
    25
100
AcDbCircle
 10
616.0754357941
 20
58.6730544965
 30
0.0
 40
86.55122356372783
100
AcDbArc
 50
180.5201880378
 51
181.3179895984
  0
ARC
  5
381
330
1F
100
AcDbEntity
  8
0
  6
Continuous
 62
     7
370
    25
100
AcDbCircle
 10
529.9321045894
 20
145.4843952496
 30
0.0
 40
88.80295984820181
100
AcDbArc
 50
269.7516005628
 51
270.2483994372
  0
ARC
  5
382
330
1F
100
AcDbEntity
  8
0
  6
Continuous
 62
     7
370
    25
100
AcDbCircle
 10
443.789309955
 20
58.6730458885
 30
0.0
 40
86.55068693735379
100
AcDbArc
 50
358.6820079283
 51
359.4798144354
  0
ARC
  5
383
330
1F
100
AcDbEntity
  8
0
  6
Continuous
 62
     7
370
    25
100
AcDbCircle
 10
529.9651455004
 20
144.9428586181
 30
0.0
 40
86.64349741387974
100
AcDbArc
 50
270.5204089939
 51
271.3173586556
  0
ARC
  5
384
330
1F
100
AcDbEntity
  8
0
  6
Continuous
 62
     7
370
    25
100
AcDbCircle
 10
442.594671701
 20
58.7072558019
 30
0.0
 40
89.36325620442703
100
AcDbArc
 50
359.7531581549
 51
0.2468418451
  0
ARC
  5
385
330
1F
100
AcDbEntity
  8
0
  6
Continuous
 62
     7
370
    25
100
AcDbCircle
 10
529.9700991743
 20
-27.1529829002
 30
0.0
 40
86.26811870467554
100
AcDbArc
 50
88.6801990052
 51
89.4806166513
  0
SPLINE
  5
386
330
1F
100
AcDbEntity
  8
0
  6
Continuous
 62
     7
370
    25
100
AcDbSpline
210
0.0
220
0.0
230
1.0
 70
     8
 71
     3
 72
    12
 73
     8
 74
     0
 42
0.000000001
 43
0.00000001
 40
0.0
 40
0.0
 40
0.0
 40
0.0
 40
0.2165924757407122
 40
0.4332224789709105
 40
0.6487664240146365
 40
0.8638975063387331
 40
1.0
 40
1.0
 40
1.0
 40
1.0
 10
530.3364298450255
 20
59.52725925185445
 30
0.0
 10
530.3414444195068
 20
59.48035626418083
 30
0.0
 10
530.3514744373106
 20
59.38654216227529
 30
0.0
 10
530.4244453526678
 20
59.26174844638899
 30
0.0
 10
530.5309304073636
 20
59.167983530027
 30
0.0
 10
530.6469288594551
 20
59.11912556733468
 30
0.0
 10
530.722731279031
 20
59.11369550248715
 30
0.0
 10
530.7521046050318
 20
59.11159136035207
 30
0.0
  0
ARC
  5
387
330
1F
100
AcDbEntity
  8
0
  6
Continuous
 62
     7
370
    25
100
AcDbCircle
 10
443.789309955
 20
58.7414806165
 30
0.0
 40
86.55068693735379
100
AcDbArc
 50
0.5201855646
 51
1.3179920717
  0
ARC
  5
388
330
1F
100
AcDbEntity
  8
0
  6
Continuous
 62
     7
370
    25
100
AcDbCircle
 10
529.9321045894
 20
-28.0698687446
 30
0.0
 40
88.80295984820181
100
AcDbArc
 50
89.7516005628
 51
90.2483994372
  0
ARC
  5
389
330
1F
100
AcDbEntity
  8
0
  6
Continuous
 62
     7
370
    25
100
AcDbCircle
 10
616.0754357941
 20
58.7414720086
 30
0.0
 40
86.55122356372783
100
AcDbArc
 50
178.6820104016
 51
179.4798119622
  0
SPLINE
  5
38A
330
1F
100
AcDbEntity
  8
0
  6
Continuous
 62
     7
370
    25
100
AcDbSpline
210
0.0
220
0.0
230
1.0
 70
     8
 71
     3
 72
    12
 73
     8
 74
     0
 42
0.000000001
 43
0.00000001
 40
0.0
 40
0.0
 40
0.0
 40
0.0
 40
0.2165895323074369
 40
0.4332415431911582
 40
0.6487751601631582
 40
0.8638991760604376
 40
1.0
 40
1.0
 40
1.0
 40
1.0
 10
529.1121045737021
 20
59.11159136035207
 30
0.0
 10
529.1590075932223
 20
59.11660159758888
 30
0.0
 10
529.2528271621591
 20
59.12662351734241
 30
0.0
 10
529.3776204319904
 20
59.19960333309149
 30
0.0
 10
529.4713792143834
 20
59.30609389405045
 30
0.0
 10
529.5202330149157
 20
59.42208722604858
 30
0.0
 10
529.525671789859
 20
59.49788669786938
 30
0.0
 10
529.5277793337085
 20
59.52725925185445
 30
0.0
  0
ARC
  5
38B
330
1F
100
AcDbEntity
  8
0
  6
Continuous
 62
     7
370
    25
100
AcDbCircle
 10
529.8941108922
 20
-27.1530501673
 30
0.0
 40
86.26818597707023
100
AcDbArc
 50
90.5193835334
 51
91.3198006325
  0
ARC
  5
38C
330
1F
100
AcDbEntity
  8
0
  6
Continuous
 62
     7
370
    25
100
AcDbCircle
 10
617.2890566182
 20
58.7072558019
 30
0.0
 40
89.38277528017157
100
AcDbArc
 50
179.7532120596
 51
180.2467879404
  0
ARC
  5
38D
330
1F
100
AcDbEntity
  8
0
  6
Continuous
 62
     7
370
    25
100
AcDbCircle
 10
529.8990645739
 20
144.9429264522
 30
0.0
 40
86.64356525333824
100
AcDbArc
 50
268.6826417067
 51
269.4795908213
  0
LINE
  5
38E
330
1F
100
AcDbEntity
  8
0
  6
Continuous
 62
     7
370
    25
100
AcDbLine
 10
530.752104605
 20
58.9366666291
 30
0.0
 11
530.752104605
 21
59.1115913604
 31
0.0
  0
ARC
  5
38F
330
1F
100
AcDbEntity
  8
0
  6
Continuous
 62
     7
370
    25
100
AcDbCircle
 10
530.7521045932
 20
59.5272626558
 30
0.0
 40
0.590602409753842
100
AcDbArc
 50
180.0
 51
270.0
  0
LINE
  5
390
330
1F
100
AcDbEntity
  8
0
  6
Continuous
 62
     7
370
    25
100
AcDbLine
 10
530.1615021743
 20
59.5272592519
 30
0.0
 11
530.336429845
 21
59.5272592519
 31
0.0
  0
LINE
  5
391
330
1F
100
AcDbEntity
  8
0
  6
Continuous
 62
     7
370
    25
100
AcDbLine
 10
529.1121045737
 20
58.4778598759
 30
0.0
 11
529.1121045737
 21
58.3029351447
 31
0.0
  0
ARC
  5
392
330
1F
100
AcDbEntity
  8
0
  6
Continuous
 62
     7
370
    25
100
AcDbCircle
 10
529.1121045932
 20
57.8872626558
 30
0.0
 40
0.590602409753842
100
AcDbArc
 50
0.0
 51
90.0
  0
LINE
  5
393
330
1F
100
AcDbEntity
  8
0
  6
Continuous
 62
     7
370
    25
100
AcDbLine
 10
529.7027070044
 20
57.8872672532
 30
0.0
 11
529.5277793337
 21
57.8872672532
 31
0.0
  0
LINE
  5
394
330
1F
100
AcDbEntity
  8
0
  6
Continuous
 62
     7
370
    25
100
AcDbLine
 10
529.7027070044
 20
59.5272592519
 30
0.0
 11
529.5277793337
 21
59.5272592519
 31
0.0
  0
ARC
  5
395
330
1F
100
AcDbEntity
  8
0
  6
Continuous
 62
     7
370
    25
100
AcDbCircle
 10
529.1121045932
 20
59.5272626558
 30
0.0
 40
0.590602409753842
100
AcDbArc
 50
270.0
 51
360.0
  0
LINE
  5
396
330
1F
100
AcDbEntity
  8
0
  6
Continuous
 62
     7
370
    25
100
AcDbLine
 10
529.1121045737
 20
58.9366666291
 30
0.0
 11
529.1121045737
 21
59.1115913604
 31
0.0
  0
LINE
  5
397
330
1F
100
AcDbEntity
  8
0
  6
Continuous
 62
     7
370
    25
100
AcDbLine
 10
528.0627070022
 20
58.4778598759
 30
0.0
 11
527.907110474
 21
58.3222619508
 31
0.0
  0
LINE
  5
398
330
1F
100
AcDbEntity
  8
0
  6
Continuous
 62
     7
370
    25
100
AcDbLine
 10
528.0627070022
 20
58.4778598759
 30
0.0
 11
529.1121045737
 21
58.4778598759
 31
0.0
  0
LINE
  5
399
330
1F
100
AcDbEntity
  8
0
  6
Continuous
 62
     7
370
    25
100
AcDbLine
 10
530.1615021743
 20
56.8378678773
 30
0.0
 11
530.3170986734
 21
56.6822699521
 31
0.0
  0
LINE
  5
39A
330
1F
100
AcDbEntity
  8
0
  6
Continuous
 62
     7
370
    25
100
AcDbLine
 10
530.1615021743
 20
57.8872672532
 30
0.0
 11
530.1615021743
 21
56.8378678773
 31
0.0
  0
LINE
  5
39B
330
1F
100
AcDbEntity
  8
0
  6
Continuous
 62
     7
370
    25
100
AcDbLine
 10
529.7027070044
 20
57.8872672532
 30
0.0
 11
529.7027070044
 21
56.8378678773
 31
0.0
  0
LINE
  5
39C
330
1F
100
AcDbEntity
  8
0
  6
Continuous
 62
     7
370
    25
100
AcDbLine
 10
529.7027070044
 20
56.8378678773
 30
0.0
 11
529.5471105054
 21
56.6822699521
 31
0.0
  0
LINE
  5
39D
330
1F
100
AcDbEntity
  8
0
  6
Continuous
 62
     7
370
    25
100
AcDbLine
 10
530.1615021743
 20
60.5766586278
 30
0.0
 11
530.1615021743
 21
59.5272592519
 31
0.0
  0
LINE
  5
39E
330
1F
100
AcDbEntity
  8
0
  6
Continuous
 62
     7
370
    25
100
AcDbLine
 10
530.1615021743
 20
60.5766586278
 30
0.0
 11
530.3170986734
 21
60.732256553
 31
0.0
  0
LINE
  5
39F
330
1F
100
AcDbEntity
  8
0
  6
Continuous
 62
     7
370
    25
100
AcDbLine
 10
531.8015022929
 20
58.9366666291
 30
0.0
 11
531.9570985883
 21
59.0922496531
 31
0.0
  0
LINE
  5
3A0
330
1F
100
AcDbEntity
  8
0
  6
Continuous
 62
     7
370
    25
100
AcDbLine
 10
530.752104605
 20
58.9366666291
 30
0.0
 11
531.8015022929
 21
58.9366666291
 31
0.0
  0
LINE
  5
3A1
330
1F
100
AcDbEntity
  8
0
  6
Continuous
 62
     7
370
    25
100
AcDbLine
 10
529.7027070044
 20
60.5766586278
 30
0.0
 11
529.5471105054
 21
60.732256553
 31
0.0
  0
LINE
  5
3A2
330
1F
100
AcDbEntity
  8
0
  6
Continuous
 62
     7
370
    25
100
AcDbLine
 10
529.7027070044
 20
60.5766586278
 30
0.0
 11
529.7027070044
 21
59.5272592519
 31
0.0
  0
LINE
  5
3A3
330
1F
100
AcDbEntity
  8
0
  6
Continuous
 62
     7
370
    25
100
AcDbLine
 10
528.0627070022
 20
58.9366666291
 30
0.0
 11
529.1121045737
 21
58.9366666291
 31
0.0
  0
LINE
  5
3A4
330
1F
100
AcDbEntity
  8
0
  6
Continuous
 62
     7
370
    25
100
AcDbLine
 10
528.0627070022
 20
58.9366666291
 30
0.0
 11
527.907110474
 21
59.0922496531
 31
0.0
  0
LINE
  5
3A5
330
1F
100
AcDbEntity
  8
0
  6
Continuous
 62
     7
370
    25
100
AcDbLine
 10
530.752104605
 20
58.4778598759
 30
0.0
 11
531.8015022929
 21
58.4778598759
 31
0.0
  0
LINE
  5
3A6
330
1F
100
AcDbEntity
  8
0
  6
Continuous
 62
     7
370
    25
100
AcDbLine
 10
531.8015022929
 20
58.4778598759
 30
0.0
 11
531.9570985883
 21
58.3222619508
 31
0.0
  0
LINE
  5
3A7
330
1F
100
AcDbEntity
  8
0
  6
Continuous
 62
     7
370
    25
100
AcDbLine
 10
528.0627070022
 20
58.9366666291
 30
0.0
 11
528.0627070022
 21
58.4778598759
 31
0.0
  0
LINE
  5
3A8
330
1F
100
AcDbEntity
  8
0
  6
Continuous
 62
     7
370
    25
100
AcDbLine
 10
529.7027070044
 20
56.8378678773
 30
0.0
 11
530.1615021743
 21
56.8378678773
 31
0.0
  0
LINE
  5
3A9
330
1F
100
AcDbEntity
  8
0
  6
Continuous
 62
     7
370
    25
100
AcDbLine
 10
529.7027070044
 20
60.5766586278
 30
0.0
 11
530.1615021743
 21
60.5766586278
 31
0.0
  0
LINE
  5
3AA
330
1F
100
AcDbEntity
  8
0
  6
Continuous
 62
     7
370
    25
100
AcDbLine
 10
531.8015022929
 20
58.9366666291
 30
0.0
 11
531.8015022929
 21
58.4778598759
 31
0.0
  0
CIRCLE
  5
3AB
330
1F
100
AcDbEntity
  8
0
  6
Continuous
 62
     7
370
    25
100
AcDbCircle
 10
529.9337632258
 20
-238.5924576337
 30
0.0
 40
3.500000000000114
  0
SPLINE
  5
3AC
330
1F
100
AcDbEntity
  8
0
  6
Continuous
 62
     7
370
    25
100
AcDbSpline
210
0.0
220
0.0
230
1.0
 70
     8
 71
     3
 72
    12
 73
     8
 74
     0
 42
0.000000001
 43
0.00000001
 40
0.0
 40
0.0
 40
0.0
 40
0.0
 40
0.2165908663897227
 40
0.4332392326484542
 40
0.6487664249916876
 40
0.8638959088234127
 40
0.9999999999999999
 40
0.9999999999999999
 40
0.9999999999999999
 40
0.9999999999999999
 10
530.3380884723232
 20
-237.7724536444926
 30
0.0
 10
530.3431041687892
 20
-237.819355935689
 30
0.0
 10
530.3531368932727
 20
-237.9131729695563
 30
0.0
 10
530.426094216266
 20
-238.0379773218855
 30
0.0
 10
530.5325949200691
 20
-238.1317296756958
 30
0.0
 10
530.6485883358548
 20
-238.180581391376
 30
0.0
 10
530.724389894924
 20
-238.1860264573392
 30
0.0
 10
530.7537632323296
 20
-238.1881364371562
 30
0.0
  0
ARC
  5
3AD
330
1F
100
AcDbEntity
  8
0
  6
Continuous
 62
     7
370
    25
100
AcDbCircle
 10
443.7788882292
 20
-238.5584260789
 30
0.0
 40
86.56276855205826
100
AcDbArc
 50
0.5202412406
 51
1.3179363956
  0
ARC
  5
3AE
330
1F
100
AcDbEntity
  8
0
  6
Continuous
 62
     7
370
    25
100
AcDbCircle
 10
529.9337632167
 20
-327.3517103045
 30
0.0
 40
90.7850702908743
100
AcDbArc
 50
89.7570239005
 51
90.2429760995
  0
ARC
  5
3AF
330
1F
100
AcDbEntity
  8
0
  6
Continuous
 62
     7
370
    25
100
AcDbCircle
 10
616.0895753774
 20
-238.5584411135
 30
0.0
 40
86.56370582321085
100
AcDbArc
 50
178.682067923
 51
179.4797544408
  0
SPLINE
  5
3B0
330
1F
100
AcDbEntity
  8
0
  6
Continuous
 62
     7
370
    25
100
AcDbSpline
210
0.0
220
0.0
230
1.0
 70
     8
 71
     3
 72
    12
 73
     8
 74
     0
 42
0.000000001
 43
0.00000001
 40
0.0
 40
0.0
 40
0.0
 40
0.0
 40
0.2165905329757439
 40
0.4332282492586437
 40
0.6487588507721312
 40
0.8639010802013966
 40
1.0
 40
1.0
 40
1.0
 40
1.0
 10
529.1137632009999
 20
-238.1881364371562
 30
0.0
 10
529.1606653605139
 20
-238.1831188524376
 30
0.0
 10
529.2544798969737
 20
-238.1730825899414
 30
0.0
 10
529.3792828890791
 20
-238.100127770099
 30
0.0
 10
529.4730417795246
 20
-237.9936295722305
 30
0.0
 10
529.5218900685023
 20
-237.8776299542248
 30
0.0
 10
529.5273300694499
 20
-237.8018261156944
 30
0.0
 10
529.5294379610062
 20
-237.7724536444926
 30
0.0
  0
ARC
  5
3B1
330
1F
100
AcDbEntity
  8
0
  6
Continuous
 62
     7
370
    25
100
AcDbCircle
 10
529.8974258236
 20
-324.6225357687
 30
0.0
 40
86.43795182047313
100
AcDbArc
 50
90.5194613595
 51
91.3183062012
  0
ARC
  5
3B2
330
1F
100
AcDbEntity
  8
0
  6
Continuous
 62
     7
370
    25
100
AcDbCircle
 10
617.2780229802
 20
-238.5924570944
 30
0.0
 40
89.37008307440816
100
AcDbArc
 50
179.7531770109
 51
180.2468229891
  0
ARC
  5
3B3
330
1F
100
AcDbEntity
  8
0
  6
Continuous
 62
     7
370
    25
100
AcDbCircle
 10
529.8974258236
 20
-152.5623784201
 30
0.0
 40
86.4379518204731
100
AcDbArc
 50
268.6816937988
 51
269.4805386405
  0
SPLINE
  5
3B4
330
1F
100
AcDbEntity
  8
0
  6
Continuous
 62
     7
370
    25
100
AcDbSpline
210
0.0
220
0.0
230
1.0
 70
     8
 71
     3
 72
    12
 73
     8
 74
     0
 42
0.000000001
 43
0.00000001
 40
0.0
 40
0.0
 40
0.0
 40
0.0
 40
0.2165908554568908
 40
0.4332392406533317
 40
0.6487664299524787
 40
0.8638959107457346
 40
1.0
 40
1.0
 40
1.0
 40
1.0
 10
529.5294379610062
 20
-239.4124605443263
 30
0.0
 10
529.5244222789169
 20
-239.3655582513814
 30
0.0
 10
529.5143895824988
 20
-239.271741207548
 30
0.0
 10
529.4414322102954
 20
-239.1469368752357
 30
0.0
 10
529.3349315160604
 20
-239.0531845117438
 30
0.0
 10
529.2189380970652
 20
-239.0043327976445
 30
0.0
 10
529.1431365382911
 20
-238.998887731536
 30
0.0
 10
529.1137632009999
 20
-238.9967777516627
 30
0.0
  0
ARC
  5
3B5
330
1F
100
AcDbEntity
  8
0
  6
Continuous
 62
     7
370
    25
100
AcDbCircle
 10
616.0862787426
 20
-238.6265259615
 30
0.0
 40
86.56040884407862
100
AcDbArc
 50
180.5202303675
 51
181.3179472687
  0
ARC
  5
3B6
330
1F
100
AcDbEntity
  8
0
  6
Continuous
 62
     7
370
    25
100
AcDbCircle
 10
529.9337632167
 20
-149.8332038843
 30
0.0
 40
90.78507029087429
100
AcDbArc
 50
269.7570239005
 51
270.2429760995
  0
ARC
  5
3B7
330
1F
100
AcDbEntity
  8
0
  6
Continuous
 62
     7
370
    25
100
AcDbCircle
 10
443.7821847726
 20
-238.6265409947
 30
0.0
 40
86.55947166432401
100
AcDbArc
 50
358.6820484128
 51
359.479773951
  0
SPLINE
  5
3B8
330
1F
100
AcDbEntity
  8
0
  6
Continuous
 62
     7
370
    25
100
AcDbSpline
210
0.0
220
0.0
230
1.0
 70
     8
 71
     3
 72
    12
 73
     8
 74
     0
 42
0.000000001
 43
0.00000001
 40
0.0
 40
0.0
 40
0.0
 40
0.0
 40
0.2165905403211191
 40
0.4332282249413218
 40
0.6487588337642384
 40
0.8639010704897616
 40
1.0
 40
1.0
 40
1.0
 40
1.0
 10
530.7537632323296
 20
-238.9967777516627
 30
0.0
 10
530.7068610718135
 20
-239.0017953346502
 30
0.0
 10
530.613046541797
 20
-239.01183159278
 30
0.0
 10
530.4882435707917
 20
-239.0847864289497
 30
0.0
 10
530.3944846782682
 20
-239.1912846151247
 30
0.0
 10
530.3456364064918
 20
-239.307284237262
 30
0.0
 10
530.34019637555
 20
-239.383088073384
 30
0.0
 10
530.3380884723232
 20
-239.4124605443263
 30
0.0
  0
ARC
  5
3B9
330
1F
100
AcDbEntity
  8
0
  6
Continuous
 62
     7
370
    25
100
AcDbCircle
 10
529.9701006097
 20
-152.5623784201
 30
0.0
 40
86.4379518204731
100
AcDbArc
 50
270.5194613595
 51
271.3183062012
  0
ARC
  5
3BA
330
1F
100
AcDbEntity
  8
0
  6
Continuous
 62
     7
370
    25
100
AcDbCircle
 10
442.5895034531
 20
-238.5924570944
 30
0.0
 40
89.37008307440804
100
AcDbArc
 50
359.7531770109
 51
0.2468229891
  0
ARC
  5
3BB
330
1F
100
AcDbEntity
  8
0
  6
Continuous
 62
     7
370
    25
100
AcDbCircle
 10
529.9701006097
 20
-324.6225357687
 30
0.0
 40
86.43795182047313
100
AcDbArc
 50
88.6816937988
 51
89.4805386405
  0
LINE
  5
3BC
330
1F
100
AcDbEntity
  8
0
  6
Continuous
 62
     7
370
    25
100
AcDbLine
 10
529.113763201
 20
-238.8218530204
 30
0.0
 11
529.113763201
 21
-238.9967777517
 31
0.0
  0
ARC
  5
3BD
330
1F
100
AcDbEntity
  8
0
  6
Continuous
 62
     7
370
    25
100
AcDbCircle
 10
529.1137632258
 20
-239.4124576337
 30
0.0
 40
0.590602409753842
100
AcDbArc
 50
0.0
 51
90.0
  0
LINE
  5
3BE
330
1F
100
AcDbEntity
  8
0
  6
Continuous
 62
     7
370
    25
100
AcDbLine
 10
529.704365639
 20
-239.4124605443
 30
0.0
 11
529.529437961
 21
-239.4124605443
 31
0.0
  0
LINE
  5
3BF
330
1F
100
AcDbEntity
  8
0
  6
Continuous
 62
     7
370
    25
100
AcDbLine
 10
529.704365639
 20
-237.7724536445
 30
0.0
 11
529.529437961
 21
-237.7724536445
 31
0.0
  0
ARC
  5
3C0
330
1F
100
AcDbEntity
  8
0
  6
Continuous
 62
     7
370
    25
100
AcDbCircle
 10
529.1137632258
 20
-237.7724576337
 30
0.0
 40
0.5906024097538136
100
AcDbArc
 50
270.0
 51
0.0
  0
LINE
  5
3C1
330
1F
100
AcDbEntity
  8
0
  6
Continuous
 62
     7
370
    25
100
AcDbLine
 10
529.113763201
 20
-238.3630611684
 30
0.0
 11
529.113763201
 21
-238.1881364372
 31
0.0
  0
LINE
  5
3C2
330
1F
100
AcDbEntity
  8
0
  6
Continuous
 62
     7
370
    25
100
AcDbLine
 10
530.7537632323
 20
-238.3630611684
 30
0.0
 11
530.7537632323
 21
-238.1881364372
 31
0.0
  0
ARC
  5
3C3
330
1F
100
AcDbEntity
  8
0
  6
Continuous
 62
     7
370
    25
100
AcDbCircle
 10
530.7537632258
 20
-237.7724576337
 30
0.0
 40
0.590602409753842
100
AcDbArc
 50
180.0
 51
270.0
  0
LINE
  5
3C4
330
1F
100
AcDbEntity
  8
0
  6
Continuous
 62
     7
370
    25
100
AcDbLine
 10
530.1631608016
 20
-237.7724536445
 30
0.0
 11
530.3380884723
 21
-237.7724536445
 31
0.0
  0
LINE
  5
3C5
330
1F
100
AcDbEntity
  8
0
  6
Continuous
 62
     7
370
    25
100
AcDbLine
 10
530.1631608016
 20
-239.4124605443
 30
0.0
 11
530.3380884723
 21
-239.4124605443
 31
0.0
  0
ARC
  5
3C6
330
1F
100
AcDbEntity
  8
0
  6
Continuous
 62
     7
370
    25
100
AcDbCircle
 10
530.7537632258
 20
-239.4124576337
 30
0.0
 40
0.590602409753842
100
AcDbArc
 50
90.0
 51
180.0
  0
LINE
  5
3C7
330
1F
100
AcDbEntity
  8
0
  6
Continuous
 62
     7
370
    25
100
AcDbLine
 10
530.7537632323
 20
-238.8218530204
 30
0.0
 11
530.7537632323
 21
-238.9967777517
 31
0.0
  0
LINE
  5
3C8
330
1F
100
AcDbEntity
  8
0
  6
Continuous
 62
     7
370
    25
100
AcDbLine
 10
528.0643656877
 20
-238.8218530204
 30
0.0
 11
527.9087691595
 21
-238.9774509456
 31
0.0
  0
LINE
  5
3C9
330
1F
100
AcDbEntity
  8
0
  6
Continuous
 62
     7
370
    25
100
AcDbLine
 10
529.113763201
 20
-238.8218530204
 30
0.0
 11
528.0643656877
 21
-238.8218530204
 31
0.0
  0
LINE
  5
3CA
330
1F
100
AcDbEntity
  8
0
  6
Continuous
 62
     7
370
    25
100
AcDbLine
 10
530.1631608016
 20
-237.7724536445
 30
0.0
 11
530.1631608016
 21
-236.7230542686
 31
0.0
  0
LINE
  5
3CB
330
1F
100
AcDbEntity
  8
0
  6
Continuous
 62
     7
370
    25
100
AcDbLine
 10
530.1631608016
 20
-236.7230542686
 30
0.0
 11
530.3187573007
 21
-236.5674563434
 31
0.0
  0
LINE
  5
3CC
330
1F
100
AcDbEntity
  8
0
  6
Continuous
 62
     7
370
    25
100
AcDbLine
 10
529.704365639
 20
-240.4618599202
 30
0.0
 11
529.704365639
 21
-239.4124605443
 31
0.0
  0
LINE
  5
3CD
330
1F
100
AcDbEntity
  8
0
  6
Continuous
 62
     7
370
    25
100
AcDbLine
 10
529.704365639
 20
-240.4618599202
 30
0.0
 11
529.5487691326
 21
-240.6174578454
 31
0.0
  0
LINE
  5
3CE
330
1F
100
AcDbEntity
  8
0
  6
Continuous
 62
     7
370
    25
100
AcDbLine
 10
530.1631608016
 20
-240.4618599202
 30
0.0
 11
530.3187573007
 21
-240.6174578454
 31
0.0
  0
LINE
  5
3CF
330
1F
100
AcDbEntity
  8
0
  6
Continuous
 62
     7
370
    25
100
AcDbLine
 10
530.1631608016
 20
-240.4618599202
 30
0.0
 11
530.1631608016
 21
-239.4124605443
 31
0.0
  0
LINE
  5
3D0
330
1F
100
AcDbEntity
  8
0
  6
Continuous
 62
     7
370
    25
100
AcDbLine
 10
529.704365639
 20
-236.7230542686
 30
0.0
 11
529.5487691326
 21
-236.5674563434
 31
0.0
  0
LINE
  5
3D1
330
1F
100
AcDbEntity
  8
0
  6
Continuous
 62
     7
370
    25
100
AcDbLine
 10
529.704365639
 20
-237.7724536445
 30
0.0
 11
529.704365639
 21
-236.7230542686
 31
0.0
  0
LINE
  5
3D2
330
1F
100
AcDbEntity
  8
0
  6
Continuous
 62
     7
370
    25
100
AcDbLine
 10
531.8031607456
 20
-238.3630611684
 30
0.0
 11
531.9587572738
 21
-238.2074632432
 31
0.0
  0
LINE
  5
3D3
330
1F
100
AcDbEntity
  8
0
  6
Continuous
 62
     7
370
    25
100
AcDbLine
 10
531.8031607456
 20
-238.3630611684
 30
0.0
 11
530.7537632323
 21
-238.3630611684
 31
0.0
  0
LINE
  5
3D4
330
1F
100
AcDbEntity
  8
0
  6
Continuous
 62
     7
370
    25
100
AcDbLine
 10
529.113763201
 20
-238.3630611684
 30
0.0
 11
528.0643656877
 21
-238.3630611684
 31
0.0
  0
LINE
  5
3D5
330
1F
100
AcDbEntity
  8
0
  6
Continuous
 62
     7
370
    25
100
AcDbLine
 10
528.0643656877
 20
-238.3630611684
 30
0.0
 11
527.9087691595
 21
-238.2074632432
 31
0.0
  0
LINE
  5
3D6
330
1F
100
AcDbEntity
  8
0
  6
Continuous
 62
     7
370
    25
100
AcDbLine
 10
531.8031607456
 20
-238.8218530204
 30
0.0
 11
530.7537632323
 21
-238.8218530204
 31
0.0
  0
LINE
  5
3D7
330
1F
100
AcDbEntity
  8
0
  6
Continuous
 62
     7
370
    25
100
AcDbLine
 10
531.8031607456
 20
-238.8218530204
 30
0.0
 11
531.9587572738
 21
-238.9774509456
 31
0.0
  0
LINE
  5
3D8
330
1F
100
AcDbEntity
  8
0
  6
Continuous
 62
     7
370
    25
100
AcDbLine
 10
530.1631608016
 20
-236.7230542686
 30
0.0
 11
529.704365639
 21
-236.7230542686
 31
0.0
  0
LINE
  5
3D9
330
1F
100
AcDbEntity
  8
0
  6
Continuous
 62
     7
370
    25
100
AcDbLine
 10
530.1631608016
 20
-240.4618599202
 30
0.0
 11
529.704365639
 21
-240.4618599202
 31
0.0
  0
LINE
  5
3DA
330
1F
100
AcDbEntity
  8
0
  6
Continuous
 62
     7
370
    25
100
AcDbLine
 10
531.8031607456
 20
-238.8218530204
 30
0.0
 11
531.8031607456
 21
-238.3630611684
 31
0.0
  0
LINE
  5
3DB
330
1F
100
AcDbEntity
  8
0
  6
Continuous
 62
     7
370
    25
100
AcDbLine
 10
528.0643656877
 20
-238.8218530204
 30
0.0
 11
528.0643656877
 21
-238.3630611684
 31
0.0
  0
SPLINE
  5
3DC
330
1F
100
AcDbEntity
  8
0
  6
Continuous
 62
     7
370
    25
100
AcDbSpline
210
0.0
220
0.0
230
1.0
 70
     8
 71
     3
 72
    12
 73
     8
 74
     0
 42
0.000000001
 43
0.00000001
 40
0.0
 40
0.0
 40
0.0
 40
0.0
 40
0.2165924803874753
 40
0.4332224882652416
 40
0.6487665052299303
 40
0.8638975921694373
 40
1.0
 40
1.0
 40
1.0
 40
1.0
 10
673.9029000307859
 20
-84.84626393596915
 30
0.0
 10
673.8559970439037
 20
-84.8512785111402
 30
0.0
 10
673.7621829435811
 20
-84.86130853032324
 30
0.0
 10
673.6373892028956
 20
-84.93427944292044
 30
0.0
 10
673.5436243263748
 20
-85.04076455296975
 30
0.0
 10
673.4947663529338
 20
-85.1567629891012
 30
0.0
 10
673.489336282675
 20
-85.23256538923886
 30
0.0
 10
673.4872321392835
 20
-85.26193869597552
 30
0.0
  0
LINE
  5
3DD
330
1F
100
AcDbEntity
  8
0
  6
Continuous
 62
     7
370
    25
100
AcDbLine
 10
673.312307408
 20
-85.261938696
 30
0.0
 11
673.4872321393
 21
-85.261938696
 31
0.0
  0
ARC
  5
3DE
330
1F
100
AcDbEntity
  8
0
  6
Continuous
 62
     7
370
    25
100
AcDbCircle
 10
673.9029032236
 20
-85.2619387093
 30
0.0
 40
0.5906024097538136
100
AcDbArc
 50
90.0
 51
180.0
  0
LINE
  5
3DF
330
1F
100
AcDbEntity
  8
0
  6
Continuous
 62
     7
370
    25
100
AcDbLine
 10
673.9029000308
 20
-84.6713362943
 30
0.0
 11
673.9029000308
 21
-84.846263936
 31
0.0
  0
SPLINE
  5
3E0
330
1F
100
AcDbEntity
  8
0
  6
Continuous
 62
     7
370
    25
100
AcDbSpline
210
0.0
220
0.0
230
1.0
 70
     8
 71
     3
 72
    12
 73
     8
 74
     0
 42
0.000000001
 43
0.00000001
 40
0.0
 40
0.0
 40
0.0
 40
0.0
 40
0.2165895365318197
 40
0.4332415321370474
 40
0.6487751533128354
 40
0.8638991734059142
 40
0.9999999999999999
 40
0.9999999999999999
 40
0.9999999999999999
 40
0.9999999999999999
 10
673.4872321392835
 20
-83.62193870830157
 30
0.0
 10
673.49224237566
 20
-83.66884172827693
 30
0.0
 10
673.5022642932412
 20
-83.7626612939003
 30
0.0
 10
673.5752441170747
 20
-83.88745455386946
 30
0.0
 10
673.681734672485
 20
-83.98121333469885
 30
0.0
 10
673.7977280050525
 20
-84.03006713492402
 30
0.0
 10
673.8735274768211
 20
-84.03550590989555
 30
0.0
 10
673.9029000307859
 20
-84.03761345375602
 30
0.0
  0
LINE
  5
3E1
330
1F
100
AcDbEntity
  8
0
  6
Continuous
 62
     7
370
    25
100
AcDbLine
 10
673.9029000308
 20
-84.2125411245
 30
0.0
 11
673.9029000308
 21
-84.0376134538
 31
0.0
  0
ARC
  5
3E2
330
1F
100
AcDbEntity
  8
0
  6
Continuous
 62
     7
370
    25
100
AcDbCircle
 10
673.9029032236
 20
-83.6219387093
 30
0.0
 40
0.590602409753842
100
AcDbArc
 50
180.0
 51
270.0
  0
LINE
  5
3E3
330
1F
100
AcDbEntity
  8
0
  6
Continuous
 62
     7
370
    25
100
AcDbLine
 10
673.312307408
 20
-83.6219387083
 30
0.0
 11
673.4872321393
 21
-83.6219387083
 31
0.0
  0
SPLINE
  5
3E4
330
1F
100
AcDbEntity
  8
0
  6
Continuous
 62
     7
370
    25
100
AcDbSpline
210
0.0
220
0.0
230
1.0
 70
     8
 71
     3
 72
    12
 73
     8
 74
     0
 42
0.000000001
 43
0.00000001
 40
0.0
 40
0.0
 40
0.0
 40
0.0
 40
0.2165924696130169
 40
0.4332224965894266
 40
0.6487664433707854
 40
0.8638975274291866
 40
1.0
 40
1.0
 40
1.0
 40
1.0
 10
672.2629080321134
 20
-84.03761345375602
 30
0.0
 10
672.3098110215369
 20
-84.0325988936517
 30
0.0
 10
672.403625133412
 20
-84.022568903913
 30
0.0
 10
672.5284188292588
 20
-83.94959793934126
 30
0.0
 10
672.6221837553799
 20
-83.84311289423107
 30
0.0
 10
672.6710417143314
 20
-83.72711444341772
 30
0.0
 10
672.6764717809892
 20
-83.6513120292671
 30
0.0
 10
672.6785759236158
 20
-83.62193870830157
 30
0.0
  0
LINE
  5
3E5
330
1F
100
AcDbEntity
  8
0
  6
Continuous
 62
     7
370
    25
100
AcDbLine
 10
672.8535006549
 20
-83.6219387083
 30
0.0
 11
672.6785759236
 21
-83.6219387083
 31
0.0
  0
ARC
  5
3E6
330
1F
100
AcDbEntity
  8
0
  6
Continuous
 62
     7
370
    25
100
AcDbCircle
 10
672.2629032236
 20
-83.6219387093
 30
0.0
 40
0.5906024097537994
100
AcDbArc
 50
270.0
 51
0.0
  0
LINE
  5
3E7
330
1F
100
AcDbEntity
  8
0
  6
Continuous
 62
     7
370
    25
100
AcDbLine
 10
672.2629080321
 20
-84.2125411245
 30
0.0
 11
672.2629080321
 21
-84.0376134538
 31
0.0
  0
SPLINE
  5
3E8
330
1F
100
AcDbEntity
  8
0
  6
Continuous
 62
     7
370
    25
100
AcDbSpline
210
0.0
220
0.0
230
1.0
 70
     8
 71
     3
 72
    12
 73
     8
 74
     0
 42
0.000000001
 43
0.00000001
 40
0.0
 40
0.0
 40
0.0
 40
0.0
 40
0.2165950564551862
 40
0.4332374242137705
 40
0.6487726146206968
 40
0.8638981672110254
 40
0.9999999999999999
 40
0.9999999999999999
 40
0.9999999999999999
 40
0.9999999999999999
 10
672.6785759236158
 20
-85.26193869597552
 30
0.0
 10
672.6735583212625
 20
-85.21503659194464
 30
0.0
 10
672.663522020551
 20
-85.1212221389599
 30
0.0
 10
672.5905674237404
 20
-84.99641862785822
 30
0.0
 10
672.4840719703197
 20
-84.90266476398249
 30
0.0
 10
672.3680802488083
 20
-84.85381028529552
 30
0.0
 10
672.2922806429009
 20
-84.8483714885966
 30
0.0
 10
672.2629080321134
 20
-84.84626393596915
 30
0.0
  0
LINE
  5
3E9
330
1F
100
AcDbEntity
  8
0
  6
Continuous
 62
     7
370
    25
100
AcDbLine
 10
672.2629080321
 20
-84.6713362943
 30
0.0
 11
672.2629080321
 21
-84.846263936
 31
0.0
  0
ARC
  5
3EA
330
1F
100
AcDbEntity
  8
0
  6
Continuous
 62
     7
370
    25
100
AcDbCircle
 10
672.2629032236
 20
-85.2619387093
 30
0.0
 40
0.590602409753842
100
AcDbArc
 50
360.0
 51
90.0
  0
LINE
  5
3EB
330
1F
100
AcDbEntity
  8
0
  6
Continuous
 62
     7
370
    25
100
AcDbLine
 10
672.8535006549
 20
-85.261938696
 30
0.0
 11
672.6785759236
 21
-85.261938696
 31
0.0
  0
CIRCLE
  5
3EC
330
1F
100
AcDbEntity
  8
0
  6
Continuous
 62
     7
370
    25
100
AcDbCircle
 10
673.0829032236
 20
-84.4419387093
 30
0.0
 40
3.5
  0
ARC
  5
3ED
330
1F
100
AcDbEntity
  8
0
  6
Continuous
 62
     7
370
    25
100
AcDbCircle
 10
673.0486867603
 20
-170.5847391313
 30
0.0
 40
86.55069272545853
100
AcDbArc
 50
90.5201855912
 51
91.317992045
  0
ARC
  5
3EE
330
1F
100
AcDbEntity
  8
0
  6
Continuous
 62
     7
370
    25
100
AcDbCircle
 10
759.8600494573
 20
-84.441938724
 30
0.0
 40
88.80297327688017
100
AcDbArc
 50
179.7516005909
 51
180.2483994091
  0
ARC
  5
3EF
330
1F
100
AcDbEntity
  8
0
  6
Continuous
 62
     7
370
    25
100
AcDbCircle
 10
673.0486718445
 20
1.7001925132
 30
0.0
 40
86.5500233891914
100
AcDbArc
 50
268.6820076373
 51
269.4798202604
  0
ARC
  5
3F0
330
1F
100
AcDbEntity
  8
0
  6
Continuous
 62
     7
370
    25
100
AcDbCircle
 10
759.3185130252
 20
-84.474979469
 30
0.0
 40
86.64351104264344
100
AcDbArc
 50
180.520408993
 51
181.3173585678
  0
ARC
  5
3F1
330
1F
100
AcDbEntity
  8
0
  6
Continuous
 62
     7
370
    25
100
AcDbCircle
 10
673.0828965809
 20
2.9038588875
 30
0.0
 40
89.3716208644375
100
AcDbArc
 50
269.753181258
 51
270.246818742
  0
ARC
  5
3F2
330
1F
100
AcDbEntity
  8
0
  6
Continuous
 62
     7
370
    25
100
AcDbCircle
 10
586.9523612743
 20
-84.4755947524
 30
0.0
 40
86.53844355213195
100
AcDbArc
 50
358.6814492047
 51
359.4793665406
  0
ARC
  5
3F3
330
1F
100
AcDbEntity
  8
0
  6
Continuous
 62
     7
370
    25
100
AcDbCircle
 10
673.1171362184
 20
1.7001925132
 30
0.0
 40
86.55002338919141
100
AcDbArc
 50
270.5201797396
 51
271.3179923627
  0
ARC
  5
3F4
330
1F
100
AcDbEntity
  8
0
  6
Continuous
 62
     7
370
    25
100
AcDbCircle
 10
586.3057586056
 20
-84.441938724
 30
0.0
 40
88.80297327687994
100
AcDbArc
 50
359.7516005909
 51
0.2483994091
  0
ARC
  5
3F5
330
1F
100
AcDbEntity
  8
0
  6
Continuous
 62
     7
370
    25
100
AcDbCircle
 10
673.1171213026
 20
-170.5847391313
 30
0.0
 40
86.55069272545853
100
AcDbArc
 50
88.682007955
 51
89.4798144088
  0
ARC
  5
3F6
330
1F
100
AcDbEntity
  8
0
  6
Continuous
 62
     7
370
    25
100
AcDbCircle
 10
586.9523036604
 20
-84.4082835046
 30
0.0
 40
86.53850117139211
100
AcDbArc
 50
0.5206336773
 51
1.3185505108
  0
ARC
  5
3F7
330
1F
100
AcDbEntity
  8
0
  6
Continuous
 62
     7
370
    25
100
AcDbCircle
 10
673.0828965809
 20
-171.7877362481
 30
0.0
 40
89.37162086443752
100
AcDbArc
 50
89.753181258
 51
90.246818742
  0
ARC
  5
3F8
330
1F
100
AcDbEntity
  8
0
  6
Continuous
 62
     7
370
    25
100
AcDbCircle
 10
759.3185705628
 20
-84.408898786
 30
0.0
 40
86.643568585529
100
AcDbArc
 50
178.6826417157
 51
179.4795907901
  0
LINE
  5
3F9
330
1F
100
AcDbEntity
  8
0
  6
Continuous
 62
     7
370
    25
100
AcDbLine
 10
674.9522994067
 20
-84.2125411245
 30
0.0
 11
675.1078973319
 21
-84.0569446254
 31
0.0
  0
LINE
  5
3FA
330
1F
100
AcDbEntity
  8
0
  6
Continuous
 62
     7
370
    25
100
AcDbLine
 10
674.9522994067
 20
-84.2125411245
 30
0.0
 11
673.9029000308
 21
-84.2125411245
 31
0.0
  0
LINE
  5
3FB
330
1F
100
AcDbEntity
  8
0
  6
Continuous
 62
     7
370
    25
100
AcDbLine
 10
673.312307408
 20
-86.3113362092
 30
0.0
 11
673.4678904321
 21
-86.4669327374
 31
0.0
  0
LINE
  5
3FC
330
1F
100
AcDbEntity
  8
0
  6
Continuous
 62
     7
370
    25
100
AcDbLine
 10
673.312307408
 20
-85.261938696
 30
0.0
 11
673.312307408
 21
-86.3113362092
 31
0.0
  0
LINE
  5
3FD
330
1F
100
AcDbEntity
  8
0
  6
Continuous
 62
     7
370
    25
100
AcDbLine
 10
672.8535006549
 20
-82.5725411514
 30
0.0
 11
672.6979027297
 21
-82.4169446232
 31
0.0
  0
LINE
  5
3FE
330
1F
100
AcDbEntity
  8
0
  6
Continuous
 62
     7
370
    25
100
AcDbLine
 10
672.8535006549
 20
-82.5725411514
 30
0.0
 11
672.8535006549
 21
-83.6219387083
 31
0.0
  0
LINE
  5
3FF
330
1F
100
AcDbEntity
  8
0
  6
Continuous
 62
     7
370
    25
100
AcDbLine
 10
671.2135086562
 20
-84.6713362943
 30
0.0
 11
671.057910731
 21
-84.8269328225
 31
0.0
  0
LINE
  5
400
330
1F
100
AcDbEntity
  8
0
  6
Continuous
 62
     7
370
    25
100
AcDbLine
 10
672.2629080321
 20
-84.6713362943
 30
0.0
 11
671.2135086562
 21
-84.6713362943
 31
0.0
  0
LINE
  5
401
330
1F
100
AcDbEntity
  8
0
  6
Continuous
 62
     7
370
    25
100
AcDbLine
 10
674.9522994067
 20
-84.6713362943
 30
0.0
 11
673.9029000308
 21
-84.6713362943
 31
0.0
  0
LINE
  5
402
330
1F
100
AcDbEntity
  8
0
  6
Continuous
 62
     7
370
    25
100
AcDbLine
 10
674.9522994067
 20
-84.6713362943
 30
0.0
 11
675.1078973319
 21
-84.8269328225
 31
0.0
  0
LINE
  5
403
330
1F
100
AcDbEntity
  8
0
  6
Continuous
 62
     7
370
    25
100
AcDbLine
 10
672.2629080321
 20
-84.2125411245
 30
0.0
 11
671.2135086562
 21
-84.2125411245
 31
0.0
  0
LINE
  5
404
330
1F
100
AcDbEntity
  8
0
  6
Continuous
 62
     7
370
    25
100
AcDbLine
 10
671.2135086562
 20
-84.2125411245
 30
0.0
 11
671.057910731
 21
-84.0569446254
 31
0.0
  0
LINE
  5
405
330
1F
100
AcDbEntity
  8
0
  6
Continuous
 62
     7
370
    25
100
AcDbLine
 10
672.8535006549
 20
-85.261938696
 30
0.0
 11
672.8535006549
 21
-86.3113362092
 31
0.0
  0
LINE
  5
406
330
1F
100
AcDbEntity
  8
0
  6
Continuous
 62
     7
370
    25
100
AcDbLine
 10
672.8535006549
 20
-86.3113362092
 30
0.0
 11
672.6979027297
 21
-86.4669327374
 31
0.0
  0
LINE
  5
407
330
1F
100
AcDbEntity
  8
0
  6
Continuous
 62
     7
370
    25
100
AcDbLine
 10
673.312307408
 20
-82.5725411514
 30
0.0
 11
673.312307408
 21
-83.6219387083
 31
0.0
  0
LINE
  5
408
330
1F
100
AcDbEntity
  8
0
  6
Continuous
 62
     7
370
    25
100
AcDbLine
 10
673.312307408
 20
-82.5725411514
 30
0.0
 11
673.4678904321
 21
-82.4169446232
 31
0.0
  0
LINE
  5
409
330
1F
100
AcDbEntity
  8
0
  6
Continuous
 62
     7
370
    25
100
AcDbLine
 10
671.2135086562
 20
-84.2125411245
 30
0.0
 11
671.2135086562
 21
-84.6713362943
 31
0.0
  0
LINE
  5
40A
330
1F
100
AcDbEntity
  8
0
  6
Continuous
 62
     7
370
    25
100
AcDbLine
 10
674.9522994067
 20
-84.2125411245
 30
0.0
 11
674.9522994067
 21
-84.6713362943
 31
0.0
  0
LINE
  5
40B
330
1F
100
AcDbEntity
  8
0
  6
Continuous
 62
     7
370
    25
100
AcDbLine
 10
673.312307408
 20
-82.5725411514
 30
0.0
 11
672.8535006549
 21
-82.5725411514
 31
0.0
  0
LINE
  5
40C
330
1F
100
AcDbEntity
  8
0
  6
Continuous
 62
     7
370
    25
100
AcDbLine
 10
673.312307408
 20
-86.3113362092
 30
0.0
 11
672.8535006549
 21
-86.3113362092
 31
0.0
  0
CIRCLE
  5
40D
330
1F
100
AcDbEntity
  8
0
  6
Continuous
 62
     7
370
    25
100
AcDbCircle
 10
529.9329032258
 20
-84.4427373419
 30
0.0
 40
136.0512238063471
  0
CIRCLE
  5
40E
330
1F
100
AcDbEntity
  8
0
  6
Continuous
 62
     7
370
    25
100
AcDbCircle
 10
529.9329032258
 20
-84.4427373419
 30
0.0
 40
137.2500000000005
  0
CIRCLE
  5
40F
330
1F
100
AcDbEntity
  8
0
  6
Continuous
 62
     7
370
    25
100
AcDbCircle
 10
529.9329032258
 20
-84.4427373419
 30
0.0
 40
324.9999999948548
  0
CIRCLE
  5
410
330
1F
100
AcDbEntity
  8
0
  6
Continuous
 62
     7
370
    25
100
AcDbCircle
 10
529.9329032258
 20
-84.4427373419
 30
0.0
 40
320.4999999948545
  0
CIRCLE
  5
411
330
1F
100
AcDbEntity
  8
0
  6
Continuous
 62
     7
370
    25
100
AcDbCircle
 10
609.4832757811
 20
-4.8934397379
 30
0.0
 40
3.825000000000014
  0
CIRCLE
  5
412
330
1F
100
AcDbEntity
  8
0
  6
Continuous
 62
     7
370
    25
100
AcDbCircle
 10
609.4832757811
 20
-4.8934397379
 30
0.0
 40
4.249999999999944
  0
LINE
  5
413
330
1F
100
AcDbEntity
  8
0
  6
Continuous
 62
     7
370
    25
100
AcDbLine
 10
611.0946397092
 20
-6.5477826383
 30
0.0
 11
608.8562543299
 21
-7.1160905745
 31
0.0
  0
LINE
  5
414
330
1F
100
AcDbEntity
  8
0
  6
Continuous
 62
     7
370
    25
100
AcDbLine
 10
611.7216582205
 20
-4.3251328852
 30
0.0
 11
611.0946397092
 21
-6.5477826383
 31
0.0
  0
LINE
  5
415
330
1F
100
AcDbEntity
  8
0
  6
Continuous
 62
     7
370
    25
100
AcDbLine
 10
607.8719134237
 20
-3.2390990045
 30
0.0
 11
610.110298803
 21
-2.6707910683
 31
0.0
  0
LINE
  5
416
330
1F
100
AcDbEntity
  8
0
  6
Continuous
 62
     7
370
    25
100
AcDbLine
 10
608.8562543299
 20
-7.1160905745
 30
0.0
 11
607.2448949124
 21
-5.4617487576
 31
0.0
  0
LINE
  5
417
330
1F
100
AcDbEntity
  8
0
  6
Continuous
 62
     7
370
    25
100
AcDbLine
 10
610.110298803
 20
-2.6707910683
 30
0.0
 11
611.7216582205
 21
-4.3251328852
 31
0.0
  0
LINE
  5
418
330
1F
100
AcDbEntity
  8
0
  6
Continuous
 62
     7
370
    25
100
AcDbLine
 10
607.2448949124
 20
-5.4617487576
 30
0.0
 11
607.8719134237
 21
-3.2390990045
 31
0.0
  0
LINE
  5
419
330
1F
100
AcDbEntity
  8
0
  6
Continuous
 62
     7
370
    25
100
AcDbLine
 10
558.4238852169
 20
-195.3322552826
 30
0.0
 11
556.8125239368
 21
-193.6779209163
 31
0.0
  0
LINE
  5
41A
330
1F
100
AcDbEntity
  8
0
  6
Continuous
 62
     7
370
    25
100
AcDbLine
 10
560.6622668709
 20
-194.7639473464
 30
0.0
 11
558.4238852169
 21
-195.3322552826
 31
0.0
  0
LINE
  5
41B
330
1F
100
AcDbEntity
  8
0
  6
Continuous
 62
     7
370
    25
100
AcDbLine
 10
561.2892853822
 20
-192.5412975933
 30
0.0
 11
560.6622668709
 21
-194.7639473464
 31
0.0
  0
LINE
  5
41C
330
1F
100
AcDbEntity
  8
0
  6
Continuous
 62
     7
370
    25
100
AcDbLine
 10
559.6779241021
 20
-190.8869557764
 30
0.0
 11
561.2892853822
 21
-192.5412975933
 31
0.0
  0
LINE
  5
41D
330
1F
100
AcDbEntity
  8
0
  6
Continuous
 62
     7
370
    25
100
AcDbLine
 10
557.4395443107
 20
-191.4552711632
 30
0.0
 11
559.6779241021
 21
-190.8869557764
 31
0.0
  0
CIRCLE
  5
41E
330
1F
100
AcDbEntity
  8
0
  6
Continuous
 62
     7
370
    25
100
AcDbCircle
 10
559.0509054717
 20
-193.1096080789
 30
0.0
 40
3.824999999999991
  0
LINE
  5
41F
330
1F
100
AcDbEntity
  8
0
  6
Continuous
 62
     7
370
    25
100
AcDbLine
 10
556.8125239368
 20
-193.6779209163
 30
0.0
 11
557.4395443107
 21
-191.4552711632
 31
0.0
  0
CIRCLE
  5
420
330
1F
100
AcDbEntity
  8
0
  6
Continuous
 62
     7
370
    25
100
AcDbCircle
 10
559.0509054717
 20
-193.1096080789
 30
0.0
 40
4.249999999999984
  0
LINE
  5
421
330
1F
100
AcDbEntity
  8
0
  6
Continuous
 62
     7
370
    25
100
AcDbLine
 10
421.8941266443
 20
-53.1031601813
 30
0.0
 11
423.5054860617
 21
-54.7575001355
 31
0.0
  0
LINE
  5
422
330
1F
100
AcDbEntity
  8
0
  6
Continuous
 62
     7
370
    25
100
AcDbLine
 10
419.6557487156
 20
-53.6714699801
 30
0.0
 11
421.8941266443
 21
-53.1031601813
 31
0.0
  0
LINE
  5
423
330
1F
100
AcDbEntity
  8
0
  6
Continuous
 62
     7
370
    25
100
AcDbLine
 10
419.0287227537
 20
-55.8941197332
 30
0.0
 11
419.6557487156
 21
-53.6714699801
 31
0.0
  0
LINE
  5
424
330
1F
100
AcDbEntity
  8
0
  6
Continuous
 62
     7
370
    25
100
AcDbLine
 10
420.6400896217
 20
-57.5484596874
 30
0.0
 11
419.0287227537
 21
-55.8941197332
 31
0.0
  0
LINE
  5
425
330
1F
100
AcDbEntity
  8
0
  6
Continuous
 62
     7
370
    25
100
AcDbLine
 10
422.8784675505
 20
-56.9801498886
 30
0.0
 11
420.6400896217
 21
-57.5484596874
 31
0.0
  0
LINE
  5
426
330
1F
100
AcDbEntity
  8
0
  6
Continuous
 62
     7
370
    25
100
AcDbLine
 10
423.5054860617
 20
-54.7575001355
 30
0.0
 11
422.8784675505
 21
-56.9801498886
 31
0.0
  0
CIRCLE
  5
427
330
1F
100
AcDbEntity
  8
0
  6
Continuous
 62
     7
370
    25
100
AcDbCircle
 10
421.2671074401
 20
-55.3258100474
 30
0.0
 40
3.825000000000045
  0
CIRCLE
  5
428
330
1F
100
AcDbEntity
  8
0
  6
Continuous
 62
     7
370
    25
100
AcDbCircle
 10
421.2671074401
 20
-55.3258100474
 30
0.0
 40
4.250000000000002
  0
ARC
  5
429
330
1F
100
AcDbEntity
  8
0
  6
Continuous
 62
     7
370
    25
100
AcDbCircle
 10
529.9337628977
 20
25.8567103971
 30
0.0
 40
17.20033698149417
100
AcDbArc
 50
87.8971563055
 51
123.5259605916
  0
ARC
  5
42A
330
1F
100
AcDbEntity
  8
0
  6
Continuous
 62
     7
370
    25
100
AcDbCircle
 10
640.2334259162
 20
-84.4429526214
 30
0.0
 40
17.20033698149426
100
AcDbArc
 50
357.8971563055
 51
33.5259605916
  0
ARC
  5
42B
330
1F
100
AcDbEntity
  8
0
  6
Continuous
 62
     7
370
    25
100
AcDbCircle
 10
529.9337628977
 20
-194.7426156399
 30
0.0
 40
17.20033698149514
100
AcDbArc
 50
267.8971563057
 51
303.5259605915
  0
ARC
  5
42C
330
1F
100
AcDbEntity
  8
0
  6
Continuous
 62
     7
370
    25
100
AcDbCircle
 10
419.6340998792
 20
-84.4429526214
 30
0.0
 40
17.20033698149423
100
AcDbArc
 50
177.8971563055
 51
213.5259605916
  0
LINE
  5
42D
330
1F
100
AcDbEntity
  8
0
  6
Continuous
 62
     7
370
    25
100
AcDbLine
 10
663.882897308
 20
-79.4418771502
 30
0.0
 11
665.8810834195
 21
-79.4418771502
 31
0.0
  0
LINE
  5
42E
330
1F
100
AcDbEntity
  8
0
  6
Continuous
 62
     7
370
    25
100
AcDbLine
 10
665.8811579253
 20
-89.4418773923
 30
0.0
 11
663.882897308
 21
-89.4418773923
 31
0.0
  0
LINE
  5
42F
330
1F
100
AcDbEntity
  8
0
  6
Continuous
 62
     7
370
    25
100
AcDbLine
 10
395.9829072263
 20
-89.4435975451
 30
0.0
 11
393.9847211148
 21
-89.4435975451
 31
0.0
  0
LINE
  5
430
330
1F
100
AcDbEntity
  8
0
  6
Continuous
 62
     7
370
    25
100
AcDbLine
 10
393.984646609
 20
-79.443597303
 30
0.0
 11
395.9829072263
 21
-79.443597303
 31
0.0
  0
LINE
  5
431
330
1F
100
AcDbEntity
  8
0
  6
Continuous
 62
     7
370
    25
100
AcDbLine
 10
524.9337633866
 20
-220.3909941699
 30
0.0
 11
524.9337633866
 21
-218.3927335527
 31
0.0
  0
LINE
  5
432
330
1F
100
AcDbEntity
  8
0
  6
Continuous
 62
     7
370
    25
100
AcDbLine
 10
534.9337631631
 20
-218.3927335527
 30
0.0
 11
534.9337631631
 21
-220.3909196641
 31
0.0
  0
LINE
  5
433
330
1F
100
AcDbEntity
  8
0
  6
Continuous
 62
     7
370
    25
100
AcDbLine
 10
534.9320430103
 20
51.5055171464
 30
0.0
 11
534.9320430103
 21
49.5072565291
 31
0.0
  0
LINE
  5
434
330
1F
100
AcDbEntity
  8
0
  6
Continuous
 62
     7
370
    25
100
AcDbLine
 10
524.9320432338
 20
49.5072565291
 30
0.0
 11
524.9320432338
 21
51.5054575417
 31
0.0
  0
LINE
  5
435
330
1F
100
AcDbEntity
  8
0
  6
Continuous
 62
     7
370
    25
100
AcDbLine
 10
663.882897308
 20
-79.4418771502
 30
0.0
 11
656.6906730439
 21
-79.4418771502
 31
0.0
  0
LINE
  5
436
330
1F
100
AcDbEntity
  8
0
  6
Continuous
 62
     7
370
    25
100
AcDbLine
 10
663.882897308
 20
-89.4418773923
 30
0.0
 11
663.882897308
 21
-79.4418771502
 31
0.0
  0
LINE
  5
437
330
1F
100
AcDbEntity
  8
0
  6
Continuous
 62
     7
370
    25
100
AcDbLine
 10
657.0400605704
 20
-89.4418773923
 30
0.0
 11
663.882897308
 21
-89.4418773923
 31
0.0
  0
LINE
  5
438
330
1F
100
AcDbEntity
  8
0
  6
Continuous
 62
     7
370
    25
100
AcDbLine
 10
534.9337631631
 20
-218.3927335527
 30
0.0
 11
534.9337631631
 21
-211.200181463
 31
0.0
  0
LINE
  5
439
330
1F
100
AcDbEntity
  8
0
  6
Continuous
 62
     7
370
    25
100
AcDbLine
 10
524.9337633866
 20
-218.3927335527
 30
0.0
 11
534.9337631631
 21
-218.3927335527
 31
0.0
  0
LINE
  5
43A
330
1F
100
AcDbEntity
  8
0
  6
Continuous
 62
     7
370
    25
100
AcDbLine
 10
524.9337633866
 20
-211.5490325477
 30
0.0
 11
524.9337633866
 21
-218.3927335527
 31
0.0
  0
LINE
  5
43B
330
1F
100
AcDbEntity
  8
0
  6
Continuous
 62
     7
370
    25
100
AcDbLine
 10
524.9320432338
 20
49.5072565291
 30
0.0
 11
524.9320432338
 21
42.3137507651
 31
0.0
  0
LINE
  5
43C
330
1F
100
AcDbEntity
  8
0
  6
Continuous
 62
     7
370
    25
100
AcDbLine
 10
534.9320430103
 20
49.5072565291
 30
0.0
 11
524.9320432338
 21
49.5072565291
 31
0.0
  0
LINE
  5
43D
330
1F
100
AcDbEntity
  8
0
  6
Continuous
 62
     7
370
    25
100
AcDbLine
 10
534.9320430103
 20
42.6634810183
 30
0.0
 11
534.9320430103
 21
49.5072565291
 31
0.0
  0
LINE
  5
43E
330
1F
100
AcDbEntity
  8
0
  6
Continuous
 62
     7
370
    25
100
AcDbLine
 10
402.8275470044
 20
-79.443597303
 30
0.0
 11
395.9829072263
 21
-79.443597303
 31
0.0
  0
LINE
  5
43F
330
1F
100
AcDbEntity
  8
0
  6
Continuous
 62
     7
370
    25
100
AcDbLine
 10
395.9829072263
 20
-89.4435975451
 30
0.0
 11
403.1767259147
 21
-89.4435975451
 31
0.0
  0
LINE
  5
440
330
1F
100
AcDbEntity
  8
0
  6
Continuous
 62
     7
370
    25
100
AcDbLine
 10
395.9829072263
 20
-79.443597303
 30
0.0
 11
395.9829072263
 21
-89.4435975451
 31
0.0
  0
ARC
  5
441
330
1F
100
AcDbEntity
  8
0
  6
Continuous
 62
     8
370
    25
100
AcDbCircle
 10
529.9329032258
 20
-84.4427373419
 30
0.0
 40
138.6872295006044
100
AcDbArc
 50
270.23521465
 51
359.7654246554
  0
ARC
  5
442
330
1F
100
AcDbEntity
  8
0
  6
Continuous
 62
     8
370
    25
100
AcDbCircle
 10
529.9329032258
 20
-84.4427373419
 30
0.0
 40
138.6872295006044
100
AcDbArc
 50
180.23521465
 51
269.7654246554
  0
ARC
  5
443
330
1F
100
AcDbEntity
  8
0
  6
Continuous
 62
     8
370
    25
100
AcDbCircle
 10
529.9329032258
 20
-84.4427373419
 30
0.0
 40
138.6872295006044
100
AcDbArc
 50
90.23521465
 51
179.7654246554
  0
ARC
  5
444
330
1F
100
AcDbEntity
  8
0
  6
Continuous
 62
     8
370
    25
100
AcDbCircle
 10
529.9329032258
 20
-84.4427373419
 30
0.0
 40
138.6872295006045
100
AcDbArc
 50
0.23521465
 51
89.7654246554
  0
ARC
  5
445
330
1F
100
AcDbEntity
  8
0
  6
Continuous
 62
     8
370
    25
100
AcDbCircle
 10
529.9329032258
 20
-84.4427373419
 30
0.0
 40
139.5376301811102
100
AcDbArc
 50
271.0881914274
 51
358.9124478779
  0
ARC
  5
446
330
1F
100
AcDbEntity
  8
0
  6
Continuous
 62
     8
370
    25
100
AcDbCircle
 10
529.9329032258
 20
-84.4427373419
 30
0.0
 40
139.5376301811102
100
AcDbArc
 50
181.0881914274
 51
268.9124478779
  0
ARC
  5
447
330
1F
100
AcDbEntity
  8
0
  6
Continuous
 62
     8
370
    25
100
AcDbCircle
 10
529.9329032258
 20
-84.4427373419
 30
0.0
 40
139.5376301811102
100
AcDbArc
 50
91.0881914274
 51
178.9124478779
  0
ARC
  5
448
330
1F
100
AcDbEntity
  8
0
  6
Continuous
 62
     8
370
    25
100
AcDbCircle
 10
529.9329032258
 20
-84.4427373419
 30
0.0
 40
139.5376301811103
100
AcDbArc
 50
1.0881914274
 51
88.9124478779
  0
ENDSEC
  0
SECTION
  2
OBJECTS
  0
DICTIONARY
  5
C
330
0
100
AcDbDictionary
281
     1
  3
ACAD_GROUP
350
D
  3
ACAD_LAYOUT
350
1A
  3
ACAD_MLINESTYLE
350
17
  3
ACAD_PLOTSETTINGS
350
19
  3
ACAD_PLOTSTYLENAME
350
E
  3
ACAD_SCALELIST
350
47
  0
DICTIONARY
  5
D
102
{ACAD_REACTORS
330
C
102
}
330
C
100
AcDbDictionary
281
     1
  0
DICTIONARY
  5
1A
102
{ACAD_REACTORS
330
C
102
}
330
C
100
AcDbDictionary
281
     1
  3
Layout1
350
1E
  3
Layout2
350
26
  3
Model
350
22
  0
DICTIONARY
  5
17
102
{ACAD_REACTORS
330
C
102
}
330
C
100
AcDbDictionary
281
     1
  3
Standard
350
18
  0
DICTIONARY
  5
19
102
{ACAD_REACTORS
330
C
102
}
330
C
100
AcDbDictionary
281
     1
  0
ACDBDICTIONARYWDFLT
  5
E
102
{ACAD_REACTORS
330
C
102
}
330
C
100
AcDbDictionary
281
     1
  3
Normal
350
F
100
AcDbDictionaryWithDefault
340
F
  0
DICTIONARY
  5
47
102
{ACAD_REACTORS
330
C
102
}
330
C
100
AcDbDictionary
281
     1
  3
A0
350
48
  3
A1
350
49
  3
A2
350
4A
  3
A3
350
4B
  3
A4
350
4C
  3
A5
350
4D
  3
A6
350
4E
  3
A7
350
4F
  3
A8
350
50
  3
A9
350
51
  3
B0
350
52
  3
B1
350
53
  3
B2
350
54
  3
B3
350
55
  3
B4
350
56
  3
B5
350
57
  3
B6
350
58
  3
B7
350
59
  3
B8
350
5A
  3
B9
350
5B
  3
C0
350
5C
  3
C1
350
5D
  3
C2
350
5E
  3
C3
350
5F
  3
C4
350
60
  3
C5
350
61
  3
C6
350
62
  3
C7
350
63
  3
C8
350
64
  3
C9
350
65
  3
D0
350
66
  3
D1
350
67
  3
D2
350
68
  0
LAYOUT
  5
1E
102
{ACAD_REACTORS
330
1A
102
}
330
1A
100
AcDbPlotSettings
  1

  2
none_device
  4

  6

 40
0.0
 41
0.0
 42
0.0
 43
0.0
 44
0.0
 45
0.0
 46
0.0
 47
0.0
 48
0.0
 49
0.0
140
0.0
141
0.0
142
1.0
143
1.0
 70
   688
 72
     1
 73
     0
 74
     5
  7

 75
    16
147
1.0
148
0.0
149
0.0
100
AcDbLayout
  1
Layout1
 70
     1
 71
     1
 10
0.0
 20
0.0
 11
420.0
 21
297.0
 12
0.0
 22
0.0
 32
0.0
 14
1.0000000000E+20
 24
1.0000000000E+20
 34
1.0000000000E+20
 15
-1.0000000000E+20
 25
-1.0000000000E+20
 35
-1.0000000000E+20
146
0.0
 13
0.0
 23
0.0
 33
0.0
 16
1.0
 26
0.0
 36
0.0
 17
0.0
 27
1.0
 37
0.0
 76
     0
330
1B
  0
LAYOUT
  5
26
102
{ACAD_REACTORS
330
1A
102
}
330
1A
100
AcDbPlotSettings
  1

  2
none_device
  4

  6

 40
0.0
 41
0.0
 42
0.0
 43
0.0
 44
0.0
 45
0.0
 46
0.0
 47
0.0
 48
0.0
 49
0.0
140
0.0
141
0.0
142
1.0
143
1.0
 70
   688
 72
     1
 73
     0
 74
     5
  7

 75
    16
147
1.0
148
0.0
149
0.0
100
AcDbLayout
  1
Layout2
 70
     1
 71
     2
 10
0.0
 20
0.0
 11
0.0
 21
0.0
 12
0.0
 22
0.0
 32
0.0
 14
0.0
 24
0.0
 34
0.0
 15
0.0
 25
0.0
 35
0.0
146
0.0
 13
0.0
 23
0.0
 33
0.0
 16
1.0
 26
0.0
 36
0.0
 17
0.0
 27
1.0
 37
0.0
 76
     0
330
23
  0
LAYOUT
  5
22
102
{ACAD_REACTORS
330
1A
102
}
330
1A
100
AcDbPlotSettings
  1

  2
none_device
  4
Letter_(8.50_x_11.00_Inches)
  6

 40
6.35
 41
6.35
 42
6.35000508
 43
6.35000508
 44
215.9
 45
279.4
 46
0.0
 47
0.0
 48
0.0
 49
0.0
140
0.0
141
0.0
142
1.0
143
1.0
 70
  1712
 72
     1
 73
     0
 74
     0
  7

 75
     0
147
1.0
148
0.0
149
0.0
100
AcDbLayout
  1
Model
 70
     1
 71
     0
 10
0.0
 20
0.0
 11
1189.0
 21
841.0
 12
0.0
 22
0.0
 32
0.0
 14
0.0
 24
0.0
 34
0.0
 15
1189.0
 25
841.0
 35
0.0
146
0.0
 13
0.0
 23
0.0
 33
0.0
 16
1.0
 26
0.0
 36
0.0
 17
0.0
 27
1.0
 37
0.0
 76
     0
330
1F
331
29
  0
MLINESTYLE
  5
18
102
{ACAD_REACTORS
330
17
102
}
330
17
100
AcDbMlineStyle
  2
Standard
 70
     0
  3

 62
   256
 51
90.0
 52
90.0
 71
     2
 49
0.5
 62
   256
  6
BYLAYER
 49
-0.5
 62
   256
  6
BYLAYER
  0
ACDBPLACEHOLDER
  5
F
102
{ACAD_REACTORS
330
E
102
}
330
E
  0
SCALE
  5
48
102
{ACAD_REACTORS
330
47
102
}
330
47
100
AcDbScale
 70
     0
300
1:1
140
1.0
141
1.0
290
     1
  0
SCALE
  5
49
102
{ACAD_REACTORS
330
47
102
}
330
47
100
AcDbScale
 70
     0
300
1:2
140
1.0
141
2.0
290
     0
  0
SCALE
  5
4A
102
{ACAD_REACTORS
330
47
102
}
330
47
100
AcDbScale
 70
     0
300
1:4
140
1.0
141
4.0
290
     0
  0
SCALE
  5
4B
102
{ACAD_REACTORS
330
47
102
}
330
47
100
AcDbScale
 70
     0
300
1:5
140
1.0
141
5.0
290
     0
  0
SCALE
  5
4C
102
{ACAD_REACTORS
330
47
102
}
330
47
100
AcDbScale
 70
     0
300
1:8
140
1.0
141
8.0
290
     0
  0
SCALE
  5
4D
102
{ACAD_REACTORS
330
47
102
}
330
47
100
AcDbScale
 70
     0
300
1:10
140
1.0
141
10.0
290
     0
  0
SCALE
  5
4E
102
{ACAD_REACTORS
330
47
102
}
330
47
100
AcDbScale
 70
     0
300
1:16
140
1.0
141
16.0
290
     0
  0
SCALE
  5
4F
102
{ACAD_REACTORS
330
47
102
}
330
47
100
AcDbScale
 70
     0
300
1:20
140
1.0
141
20.0
290
     0
  0
SCALE
  5
50
102
{ACAD_REACTORS
330
47
102
}
330
47
100
AcDbScale
 70
     0
300
1:30
140
1.0
141
30.0
290
     0
  0
SCALE
  5
51
102
{ACAD_REACTORS
330
47
102
}
330
47
100
AcDbScale
 70
     0
300
1:40
140
1.0
141
40.0
290
     0
  0
SCALE
  5
52
102
{ACAD_REACTORS
330
47
102
}
330
47
100
AcDbScale
 70
     0
300
1:50
140
1.0
141
50.0
290
     0
  0
SCALE
  5
53
102
{ACAD_REACTORS
330
47
102
}
330
47
100
AcDbScale
 70
     0
300
1:100
140
1.0
141
100.0
290
     0
  0
SCALE
  5
54
102
{ACAD_REACTORS
330
47
102
}
330
47
100
AcDbScale
 70
     0
300
2:1
140
2.0
141
1.0
290
     0
  0
SCALE
  5
55
102
{ACAD_REACTORS
330
47
102
}
330
47
100
AcDbScale
 70
     0
300
4:1
140
4.0
141
1.0
290
     0
  0
SCALE
  5
56
102
{ACAD_REACTORS
330
47
102
}
330
47
100
AcDbScale
 70
     0
300
8:1
140
8.0
141
1.0
290
     0
  0
SCALE
  5
57
102
{ACAD_REACTORS
330
47
102
}
330
47
100
AcDbScale
 70
     0
300
10:1
140
10.0
141
1.0
290
     0
  0
SCALE
  5
58
102
{ACAD_REACTORS
330
47
102
}
330
47
100
AcDbScale
 70
     0
300
100:1
140
100.0
141
1.0
290
     0
  0
SCALE
  5
59
102
{ACAD_REACTORS
330
47
102
}
330
47
100
AcDbScale
 70
     0
300
1/128" = 1'-0"
140
0.0078125
141
12.0
290
     0
  0
SCALE
  5
5A
102
{ACAD_REACTORS
330
47
102
}
330
47
100
AcDbScale
 70
     0
300
1/64" = 1'-0"
140
0.015625
141
12.0
290
     0
  0
SCALE
  5
5B
102
{ACAD_REACTORS
330
47
102
}
330
47
100
AcDbScale
 70
     0
300
1/32" = 1'-0"
140
0.03125
141
12.0
290
     0
  0
SCALE
  5
5C
102
{ACAD_REACTORS
330
47
102
}
330
47
100
AcDbScale
 70
     0
300
1/16" = 1'-0"
140
0.0625
141
12.0
290
     0
  0
SCALE
  5
5D
102
{ACAD_REACTORS
330
47
102
}
330
47
100
AcDbScale
 70
     0
300
3/32" = 1'-0"
140
0.09375
141
12.0
290
     0
  0
SCALE
  5
5E
102
{ACAD_REACTORS
330
47
102
}
330
47
100
AcDbScale
 70
     0
300
1/8" = 1'-0"
140
0.125
141
12.0
290
     0
  0
SCALE
  5
5F
102
{ACAD_REACTORS
330
47
102
}
330
47
100
AcDbScale
 70
     0
300
3/16" = 1'-0"
140
0.1875
141
12.0
290
     0
  0
SCALE
  5
60
102
{ACAD_REACTORS
330
47
102
}
330
47
100
AcDbScale
 70
     0
300
1/4" = 1'-0"
140
0.25
141
12.0
290
     0
  0
SCALE
  5
61
102
{ACAD_REACTORS
330
47
102
}
330
47
100
AcDbScale
 70
     0
300
3/8" = 1'-0"
140
0.375
141
12.0
290
     0
  0
SCALE
  5
62
102
{ACAD_REACTORS
330
47
102
}
330
47
100
AcDbScale
 70
     0
300
1/2" = 1'-0"
140
0.5
141
12.0
290
     0
  0
SCALE
  5
63
102
{ACAD_REACTORS
330
47
102
}
330
47
100
AcDbScale
 70
     0
300
3/4" = 1'-0"
140
0.75
141
12.0
290
     0
  0
SCALE
  5
64
102
{ACAD_REACTORS
330
47
102
}
330
47
100
AcDbScale
 70
     0
300
1" = 1'-0"
140
1.0
141
12.0
290
     0
  0
SCALE
  5
65
102
{ACAD_REACTORS
330
47
102
}
330
47
100
AcDbScale
 70
     0
300
1-1/2" = 1'-0"
140
1.5
141
12.0
290
     0
  0
SCALE
  5
66
102
{ACAD_REACTORS
330
47
102
}
330
47
100
AcDbScale
 70
     0
300
3" = 1'-0"
140
3.0
141
12.0
290
     0
  0
SCALE
  5
67
102
{ACAD_REACTORS
330
47
102
}
330
47
100
AcDbScale
 70
     0
300
6" = 1'-0"
140
6.0
141
12.0
290
     0
  0
SCALE
  5
68
102
{ACAD_REACTORS
330
47
102
}
330
47
100
AcDbScale
 70
     0
300
1'-0" = 1'-0"
140
12.0
141
12.0
290
     0
  0
ENDSEC
  0
EOF
