  0
SECTION
  2
HEADER
  9
$ACADVER
  1
AC1015
  9
$ACADMAINTVER
 70
     6
  9
$DWGCODEPAGE
  3
ANSI_1254
  9
$INSBASE
 10
0.0
 20
0.0
 30
0.0
  9
$EXTMIN
 10
0.0
 20
0.0
 30
0.0
  9
$EXTMAX
 10
420.0
 20
297.0
 30
0.0
  9
$LIMMIN
 10
0.0
 20
0.0
  9
$LIMMAX
 10
420.0
 20
297.0
  9
$ORTHOMODE
 70
     0
  9
$REGENMODE
 70
     1
  9
$FILLMODE
 70
     1
  9
$QTEXTMODE
 70
     0
  9
$MIRRTEXT
 70
     1
  9
$LTSCALE
 40
1.0
  9
$ATTMODE
 70
     1
  9
$TEXTSIZE
 40
3.5
  9
$TRACEWID
 40
1.0
  9
$TEXTSTYLE
  7
Standard
  9
$CLAYER
  8
0
  9
$CELTYPE
  6
ByLayer
  9
$CECOLOR
 62
   256
  9
$CELTSCALE
 40
1.0
  9
$DISPSILH
 70
     0
  9
$DIMSCALE
 40
1.0
  9
$DIMASZ
 40
3.302
  9
$DIMEXO
 40
1.0
  9
$DIMDLI
 40
3.75
  9
$DIMRND
 40
0.0
  9
$DIMDLE
 40
0.0
  9
$DIMEXE
 40
1.0
  9
$DIMTP
 40
0.0
  9
$DIMTM
 40
0.0
  9
$DIMTXT
 40
3.5
  9
$DIMCEN
 40
2.5
  9
$DIMTSZ
 40
0.0
  9
$DIMTOL
 70
     0
  9
$DIMLIM
 70
     0
  9
$DIMTIH
 70
     1
  9
$DIMTOH
 70
     1
  9
$DIMSE1
 70
     0
  9
$DIMSE2
 70
     0
  9
$DIMTAD
 70
     1
  9
$DIMZIN
 70
     1
  9
$DIMBLK
  1

  9
$DIMASO
 70
     1
  9
$DIMSHO
 70
     1
  9
$DIMPOST
  1

  9
$DIMAPOST
  1

  9
$DIMALT
 70
     0
  9
$DIMALTD
 70
     3
  9
$DIMALTF
 40
0.0393700787
  9
$DIMLFAC
 40
1.0
  9
$DIMTOFL
 70
     1
  9
$DIMTVP
 40
0.0
  9
$DIMTIX
 70
     0
  9
$DIMSOXD
 70
     0
  9
$DIMSAH
 70
     0
  9
$DIMBLK1
  1

  9
$DIMBLK2
  1

  9
$DIMSTYLE
  2
ISO-25
  9
$DIMCLRD
 70
     0
  9
$DIMCLRE
 70
     0
  9
$DIMCLRT
 70
     0
  9
$DIMTFAC
 40
1.0
  9
$DIMGAP
 40
1.524
  9
$DIMJUST
 70
     0
  9
$DIMSD1
 70
     0
  9
$DIMSD2
 70
     0
  9
$DIMTOLJ
 70
     0
  9
$DIMTZIN
 70
     1
  9
$DIMALTZ
 70
     0
  9
$DIMALTTZ
 70
     0
  9
$DIMUPT
 70
     0
  9
$DIMDEC
 70
     2
  9
$DIMTDEC
 70
     2
  9
$DIMALTU
 70
     2
  9
$DIMALTTD
 70
     3
  9
$DIMTXSTY
  7
Standard
  9
$DIMAUNIT
 70
     0
  9
$DIMADEC
 70
     2
  9
$DIMALTRND
 40
0.0
  9
$DIMAZIN
 70
     0
  9
$DIMDSEP
 70
    44
  9
$DIMATFIT
 70
     3
  9
$DIMFRAC
 70
     0
  9
$DIMLDRBLK
  1

  9
$DIMLUNIT
 70
     2
  9
$DIMLWD
 70
    -2
  9
$DIMLWE
 70
    -2
  9
$DIMTMOVE
 70
     0
  9
$LUNITS
 70
     2
  9
$LUPREC
 70
     2
  9
$SKETCHINC
 40
1.0
  9
$FILLETRAD
 40
10.0
  9
$AUNITS
 70
     0
  9
$AUPREC
 70
     2
  9
$MENU
  1
.
  9
$ELEVATION
 40
0.0
  9
$PELEVATION
 40
0.0
  9
$THICKNESS
 40
0.0
  9
$LIMCHECK
 70
     0
  9
$CHAMFERA
 40
0.0
  9
$CHAMFERB
 40
0.0
  9
$CHAMFERC
 40
0.0
  9
$CHAMFERD
 40
0.0
  9
$SKPOLY
 70
     0
  9
$TDCREATE
 40
2459101.76113735
  9
$TDUCREATE
 40
2459101.63613735
  9
$TDUPDATE
 40
2459101.761138229
  9
$TDUUPDATE
 40
2459101.636138229
  9
$TDINDWG
 40
0.0000000116
  9
$TDUSRTIMER
 40
0.0000000116
  9
$USRTIMER
 70
     1
  9
$ANGBASE
 50
0.0
  9
$ANGDIR
 70
     0
  9
$PDMODE
 70
     0
  9
$PDSIZE
 40
-1.0
  9
$PLINEWID
 40
0.0
  9
$SPLFRAME
 70
     0
  9
$SPLINETYPE
 70
     6
  9
$SPLINESEGS
 70
     8
  9
$HANDSEED
  5
1DB
  9
$SURFTAB1
 70
     6
  9
$SURFTAB2
 70
     6
  9
$SURFTYPE
 70
     6
  9
$SURFU
 70
     6
  9
$SURFV
 70
     6
  9
$UCSBASE
  2

  9
$UCSNAME
  2

  9
$UCSORG
 10
0.0
 20
0.0
 30
0.0
  9
$UCSXDIR
 10
1.0
 20
0.0
 30
0.0
  9
$UCSYDIR
 10
0.0
 20
1.0
 30
0.0
  9
$UCSORTHOREF
  2

  9
$UCSORTHOVIEW
 70
     0
  9
$UCSORGTOP
 10
0.0
 20
0.0
 30
0.0
  9
$UCSORGBOTTOM
 10
0.0
 20
0.0
 30
0.0
  9
$UCSORGLEFT
 10
0.0
 20
0.0
 30
0.0
  9
$UCSORGRIGHT
 10
0.0
 20
0.0
 30
0.0
  9
$UCSORGFRONT
 10
0.0
 20
0.0
 30
0.0
  9
$UCSORGBACK
 10
0.0
 20
0.0
 30
0.0
  9
$PUCSBASE
  2

  9
$PUCSNAME
  2

  9
$PUCSORG
 10
0.0
 20
0.0
 30
0.0
  9
$PUCSXDIR
 10
1.0
 20
0.0
 30
0.0
  9
$PUCSYDIR
 10
0.0
 20
1.0
 30
0.0
  9
$PUCSORTHOREF
  2

  9
$PUCSORTHOVIEW
 70
     0
  9
$PUCSORGTOP
 10
0.0
 20
0.0
 30
0.0
  9
$PUCSORGBOTTOM
 10
0.0
 20
0.0
 30
0.0
  9
$PUCSORGLEFT
 10
0.0
 20
0.0
 30
0.0
  9
$PUCSORGRIGHT
 10
0.0
 20
0.0
 30
0.0
  9
$PUCSORGFRONT
 10
0.0
 20
0.0
 30
0.0
  9
$PUCSORGBACK
 10
0.0
 20
0.0
 30
0.0
  9
$USERI1
 70
     0
  9
$USERI2
 70
     0
  9
$USERI3
 70
     0
  9
$USERI4
 70
     0
  9
$USERI5
 70
     0
  9
$USERR1
 40
0.0
  9
$USERR2
 40
0.0
  9
$USERR3
 40
0.0
  9
$USERR4
 40
0.0
  9
$USERR5
 40
0.0
  9
$WORLDVIEW
 70
     1
  9
$SHADEDGE
 70
     3
  9
$SHADEDIF
 70
    70
  9
$TILEMODE
 70
     1
  9
$MAXACTVP
 70
    64
  9
$PINSBASE
 10
0.0
 20
0.0
 30
0.0
  9
$PLIMCHECK
 70
     0
  9
$PEXTMIN
 10
1.0000000000E+20
 20
1.0000000000E+20
 30
1.0000000000E+20
  9
$PEXTMAX
 10
-1.0000000000E+20
 20
-1.0000000000E+20
 30
-1.0000000000E+20
  9
$PLIMMIN
 10
0.0
 20
0.0
  9
$PLIMMAX
 10
420.0
 20
297.0
  9
$UNITMODE
 70
     0
  9
$VISRETAIN
 70
     1
  9
$PLINEGEN
 70
     0
  9
$PSLTSCALE
 70
     1
  9
$TREEDEPTH
 70
  3020
  9
$CMLSTYLE
  2
Standard
  9
$CMLJUST
 70
     0
  9
$CMLSCALE
 40
20.0
  9
$PROXYGRAPHICS
 70
     1
  9
$MEASUREMENT
 70
     1
  9
$CELWEIGHT
370
    -1
  9
$ENDCAPS
280
     0
  9
$JOINSTYLE
280
     0
  9
$LWDISPLAY
290
     1
  9
$INSUNITS
 70
     4
  9
$HYPERLINKBASE
  1

  9
$STYLESHEET
  1

  9
$XEDIT
290
     1
  9
$CEPSNTYPE
380
     0
  9
$PSTYLEMODE
290
     1
  9
$FINGERPRINTGUID
  2
{ec883157-2a43-49d5-9993-91bb700cae28}
  9
$VERSIONGUID
  2
{FAEB1C32-E019-11D5-929B-00C0DF256EC4}
  9
$EXTNAMES
290
     1
  9
$PSVPSCALE
 40
0.0
  9
$OLESTARTUP
290
     0
  0
ENDSEC
  0
SECTION
  2
CLASSES
  0
CLASS
  1
ACDBDICTIONARYWDFLT
  2
AcDbDictionaryWithDefault
  3
ObjectDBX Classes
 90
        0
280
     0
281
     0
  0
CLASS
  1
VISUALSTYLE
  2
AcDbVisualStyle
  3
ObjectDBX Classes
 90
     4095
280
     0
281
     0
  0
CLASS
  1
MATERIAL
  2
AcDbMaterial
  3
ObjectDBX Classes
 90
     1153
280
     0
281
     0
  0
CLASS
  1
SCALE
  2
AcDbScale
  3
ObjectDBX Classes
 90
     1153
280
     0
281
     0
  0
CLASS
  1
TABLESTYLE
  2
AcDbTableStyle
  3
ObjectDBX Classes
 90
     4095
280
     0
281
     0
  0
CLASS
  1
MLEADERSTYLE
  2
AcDbMLeaderStyle
  3
ACDB_MLEADERSTYLE_CLASS
 90
     4095
280
     0
281
     0
  0
CLASS
  1
SUN
  2
AcDbSun
  3
SCENEOE
 90
     1153
280
     0
281
     0
  0
CLASS
  1
ACDBPLACEHOLDER
  2
AcDbPlaceHolder
  3
ObjectDBX Classes
 90
        0
280
     0
281
     0
  0
CLASS
  1
LAYOUT
  2
AcDbLayout
  3
ObjectDBX Classes
 90
        0
280
     0
281
     0
  0
ENDSEC
  0
SECTION
  2
TABLES
  0
TABLE
  2
VPORT
  5
8
330
0
100
AcDbSymbolTable
 70
     1
  0
VPORT
  5
29
330
8
100
AcDbSymbolTableRecord
100
AcDbViewportTableRecord
  2
*Active
 70
     0
 10
0.0
 20
0.0
 11
1.0
 21
1.0
 12
210.0
 22
148.5
 13
0.0
 23
0.0
 14
10.0
 24
10.0
 15
10.0
 25
10.0
 16
0.0
 26
0.0
 36
1.0
 17
0.0
 27
0.0
 37
0.0
 40
297.0
 41
1.4141414141
 42
50.0
 43
0.0
 44
0.0
 50
0.0
 51
0.0
 71
     0
 72
  2000
 73
     1
 74
     3
 75
     0
 76
     0
 77
     0
 78
     0
281
     0
 65
     1
110
0.0
120
0.0
130
0.0
111
1.0
121
0.0
131
0.0
112
0.0
122
1.0
132
0.0
 79
     0
146
0.0
  0
ENDTAB
  0
TABLE
  2
LTYPE
  5
5
330
0
100
AcDbSymbolTable
 70
     6
  0
LTYPE
  5
14
330
5
100
AcDbSymbolTableRecord
100
AcDbLinetypeTableRecord
  2
ByBlock
 70
     0
  3

 72
    65
 73
     0
 40
0.0
  0
LTYPE
  5
15
330
5
100
AcDbSymbolTableRecord
100
AcDbLinetypeTableRecord
  2
ByLayer
 70
     0
  3

 72
    65
 73
     0
 40
0.0
  0
LTYPE
  5
16
330
5
100
AcDbSymbolTableRecord
100
AcDbLinetypeTableRecord
  2
Continuous
 70
     0
  3
Solid line
 72
    65
 73
     0
 40
0.0
  0
LTYPE
  5
6E
330
5
100
AcDbSymbolTableRecord
100
AcDbLinetypeTableRecord
  2
HIDDEN
 70
     0
  3
Hidden __ __ __ __ __ __ __ __ __ __ __ __ __ __
 72
    65
 73
     2
 40
1.905
 49
1.27
 74
     0
 49
-0.635
 74
     0
  0
LTYPE
  5
6F
330
5
100
AcDbSymbolTableRecord
100
AcDbLinetypeTableRecord
  2
PHANTOM
 70
     0
  3
Phantom ______  __  __  ______  __  __  ______
 72
    65
 73
     6
 40
12.7
 49
6.35
 74
     0
 49
-1.27
 74
     0
 49
1.27
 74
     0
 49
-1.27
 74
     0
 49
1.27
 74
     0
 49
-1.27
 74
     0
  0
LTYPE
  5
70
330
5
100
AcDbSymbolTableRecord
100
AcDbLinetypeTableRecord
  2
CENTER
 70
     0
  3
Center ____ _ ____ _ ____ _ ____ _ ____ _ ____
 72
    65
 73
     4
 40
10.16
 49
6.35
 74
     0
 49
-1.27
 74
     0
 49
1.27
 74
     0
 49
-1.27
 74
     0
  0
LTYPE
  5
71
330
5
100
AcDbSymbolTableRecord
100
AcDbLinetypeTableRecord
  2
CENTERX2
 70
     0
  3
Center (2x) ________  __  ________  __  _____
 72
    65
 73
     4
 40
20.32
 49
12.7
 74
     0
 49
-2.54
 74
     0
 49
2.54
 74
     0
 49
-2.54
 74
     0
  0
LTYPE
  5
72
330
5
100
AcDbSymbolTableRecord
100
AcDbLinetypeTableRecord
  2
DOT2
 70
     0
  3
Dot (.5x) ........................................
 72
    65
 73
     2
 40
0.635
 49
0.0
 74
     0
 49
-0.635
 74
     0
  0
ENDTAB
  0
TABLE
  2
LAYER
  5
2
330
0
100
AcDbSymbolTable
 70
     2
  0
LAYER
  5
10
330
2
100
AcDbSymbolTableRecord
100
AcDbLayerTableRecord
  2
0
 70
     0
 62
     7
  6
Continuous
370
    -3
390
F
  0
LAYER
  5
73
330
2
100
AcDbSymbolTableRecord
100
AcDbLayerTableRecord
  2
FORMAT
 70
     0
 62
     7
  6
Continuous
370
    -3
390
F
  0
ENDTAB
  0
TABLE
  2
STYLE
  5
3
330
0
100
AcDbSymbolTable
 70
     1
  0
STYLE
  5
11
330
3
100
AcDbSymbolTableRecord
100
AcDbTextStyleTableRecord
  2
Standard
 70
     0
 40
0.0
 41
1.0
 50
0.0
 71
     0
 42
3.5
  3
txt
  4

  0
ENDTAB
  0
TABLE
  2
VIEW
  5
6
330
0
100
AcDbSymbolTable
 70
     0
  0
ENDTAB
  0
TABLE
  2
UCS
  5
7
330
0
100
AcDbSymbolTable
 70
     0
  0
ENDTAB
  0
TABLE
  2
APPID
  5
9
330
0
100
AcDbSymbolTable
 70
     1
  0
APPID
  5
12
330
9
100
AcDbSymbolTableRecord
100
AcDbRegAppTableRecord
  2
ACAD
 70
     0
  0
ENDTAB
  0
TABLE
  2
DIMSTYLE
  5
A
330
0
100
AcDbSymbolTable
 70
     1
100
AcDbDimStyleTable
  0
DIMSTYLE
105
27
330
A
100
AcDbSymbolTableRecord
100
AcDbDimStyleTableRecord
  2
ISO-25
 70
     0
 41
2.5
 42
0.625
 43
3.75
 44
1.25
 73
     0
 74
     0
 77
     1
 78
     8
140
2.5
141
2.5
143
0.0393700787
147
0.625
171
     3
172
     1
178
     0
271
     2
272
     2
274
     3
278
    44
283
     0
284
     8
340
11
  0
ENDTAB
  0
TABLE
  2
BLOCK_RECORD
  5
1
330
0
100
AcDbSymbolTable
 70
     1
  0
BLOCK_RECORD
  5
1F
330
1
100
AcDbSymbolTableRecord
100
AcDbBlockTableRecord
  2
*Model_Space
340
22
  0
BLOCK_RECORD
  5
1B
330
1
100
AcDbSymbolTableRecord
100
AcDbBlockTableRecord
  2
*Paper_Space
340
1E
  0
BLOCK_RECORD
  5
23
330
1
100
AcDbSymbolTableRecord
100
AcDbBlockTableRecord
  2
*Paper_Space0
340
26
  0
ENDTAB
  0
ENDSEC
  0
SECTION
  2
BLOCKS
  0
BLOCK
  5
20
330
1F
100
AcDbEntity
  8
0
100
AcDbBlockBegin
  2
*Model_Space
 70
     0
 10
0.0
 20
0.0
 30
0.0
  3
*Model_Space
  1

  0
ENDBLK
  5
21
330
1F
100
AcDbEntity
  8
0
100
AcDbBlockEnd
  0
BLOCK
  5
1C
330
1B
100
AcDbEntity
 67
     1
  8
0
100
AcDbBlockBegin
  2
*Paper_Space
 70
     0
 10
0.0
 20
0.0
 30
0.0
  3
*Paper_Space
  1

  0
ENDBLK
  5
1D
330
1B
100
AcDbEntity
 67
     1
  8
0
100
AcDbBlockEnd
  0
BLOCK
  5
24
330
23
100
AcDbEntity
  8
0
100
AcDbBlockBegin
  2
*Paper_Space0
 70
     0
 10
0.0
 20
0.0
 30
0.0
  3
*Paper_Space0
  1

  0
ENDBLK
  5
25
330
23
100
AcDbEntity
  8
0
100
AcDbBlockEnd
  0
ENDSEC
  0
SECTION
  2
ENTITIES
  0
LINE
  5
74
330
1F
100
AcDbEntity
  8
0
  6
Continuous
 62
     7
370
    25
100
AcDbLine
 10
273.2706719747
 20
565.9788355249
 30
0.0
 11
273.2706719747
 21
599.4788355249
 31
0.0
  0
LINE
  5
75
330
1F
100
AcDbEntity
  8
0
  6
Continuous
 62
     7
370
    25
100
AcDbLine
 10
73.2706719747
 20
599.4788355249
 30
0.0
 11
73.2706719747
 21
565.9788355249
 31
0.0
  0
ARC
  5
76
330
1F
100
AcDbEntity
  8
0
  6
Continuous
 62
     7
370
    25
100
AcDbCircle
 10
79.2706719747
 20
599.4788355249
 30
0.0
 40
6.0
100
AcDbArc
 50
90.0
 51
180.0
  0
ARC
  5
77
330
1F
100
AcDbEntity
  8
0
  6
Continuous
 62
     7
370
    25
100
AcDbCircle
 10
267.2706719747
 20
599.4788355249
 30
0.0
 40
6.0
100
AcDbArc
 50
0.0
 51
90.0
  0
LINE
  5
78
330
1F
100
AcDbEntity
  8
0
  6
Continuous
 62
     7
370
    25
100
AcDbLine
 10
73.2706719747
 20
252.4244248542
 30
0.0
 11
73.2706719747
 21
245.7996751229
 31
0.0
  0
LINE
  5
79
330
1F
100
AcDbEntity
  8
0
  6
Continuous
 62
     7
370
    25
100
AcDbLine
 10
73.2706719747
 20
565.9788355249
 30
0.0
 11
73.2706719747
 21
559.347345383
 31
0.0
  0
LINE
  5
7A
330
1F
100
AcDbEntity
  8
0
  6
Continuous
 62
     7
370
    25
100
AcDbLine
 10
273.2706719747
 20
559.347345383
 30
0.0
 11
273.2706719747
 21
565.9788355249
 31
0.0
  0
LINE
  5
7B
330
1F
100
AcDbEntity
  8
0
  6
Continuous
 62
     7
370
    25
100
AcDbLine
 10
273.2706719747
 20
245.7996751229
 30
0.0
 11
273.2706719747
 21
252.4244248543
 31
0.0
  0
ARC
  5
7C
330
1F
100
AcDbEntity
  8
0
  6
Continuous
 62
     7
370
    25
100
AcDbCircle
 10
214.9874943107
 20
245.5996751264
 30
0.0
 40
0.1999999965519382
100
AcDbArc
 50
2.5618707857
 51
89.9659947008
  0
ARC
  5
7D
330
1F
100
AcDbEntity
  8
0
  6
Continuous
 62
     7
370
    25
100
AcDbCircle
 10
131.5538492121
 20
245.5996751685
 30
0.0
 40
0.1999999544064729
100
AcDbArc
 50
90.0174039025
 51
177.7614806091
  0
ARC
  5
7E
330
1F
100
AcDbEntity
  8
0
  6
Continuous
 62
     7
370
    25
100
AcDbCircle
 10
224.9645577036
 20
245.5996751263
 30
0.0
 40
0.1999999966348411
100
AcDbArc
 50
90.0339877223
 51
178.0544913714
  0
ARC
  5
7F
330
1F
100
AcDbEntity
  8
0
  6
Continuous
 62
     7
370
    25
100
AcDbCircle
 10
121.5767862367
 20
245.5996751255
 30
0.0
 40
0.1999999974478536
100
AcDbArc
 50
2.5884641418
 51
89.99969236
  0
ARC
  5
80
330
1F
100
AcDbEntity
  8
0
  6
Continuous
 62
     7
370
    25
100
AcDbCircle
 10
102.4823907461
 20
244.7996751229
 30
0.0
 40
1.000000000000028
100
AcDbArc
 50
44.427003998
 51
90.0
  0
ARC
  5
81
330
1F
100
AcDbEntity
  8
0
  6
Continuous
 62
     7
370
    25
100
AcDbCircle
 10
244.0589532033
 20
244.7996751229
 30
0.0
 40
1.000000000000013
100
AcDbArc
 50
90.0
 51
135.572996002
  0
ARC
  5
82
330
1F
100
AcDbEntity
  8
0
  6
Continuous
 62
     7
370
    25
100
AcDbCircle
 10
264.942357138
 20
245.5996751328
 30
0.0
 40
0.1999999901158691
100
AcDbArc
 50
2.0271866987
 51
89.9960421717
  0
ARC
  5
83
330
1F
100
AcDbEntity
  8
0
  6
Continuous
 62
     7
370
    25
100
AcDbCircle
 10
268.5082924135
 20
245.5996751229
 30
0.0
 40
0.1999999999999886
100
AcDbArc
 50
90.0
 51
178.0
  0
ARC
  5
84
330
1F
100
AcDbEntity
  8
0
  6
Continuous
 62
     7
370
    25
100
AcDbCircle
 10
78.0330515358
 20
245.5996751229
 30
0.0
 40
0.199999999999996
100
AcDbArc
 50
2.0
 51
90.0
  0
LINE
  5
85
330
1F
100
AcDbEntity
  8
0
  6
Continuous
 62
     7
370
    25
100
AcDbLine
 10
268.3046784277
 20
245.4996751229
 30
0.0
 11
268.3084142481
 21
245.6066550223
 31
0.0
  0
LINE
  5
86
330
1F
100
AcDbEntity
  8
0
  6
Continuous
 62
     7
370
    25
100
AcDbLine
 10
78.2329297012
 20
245.6066550223
 30
0.0
 11
78.2366655217
 21
245.4996751229
 31
0.0
  0
ARC
  5
87
330
1F
100
AcDbEntity
  8
0
  6
Continuous
 62
     7
370
    25
100
AcDbCircle
 10
96.4436348018
 20
244.7996751229
 30
0.0
 40
1.00000000000001
100
AcDbArc
 50
44.427003998
 51
90.0
  0
ARC
  5
88
330
1F
100
AcDbEntity
  8
0
  6
Continuous
 62
     7
370
    25
100
AcDbCircle
 10
250.0977091476
 20
244.7996751229
 30
0.0
 40
1.000000000000014
100
AcDbArc
 50
90.0
 51
135.572996002
  0
ARC
  5
89
330
1F
100
AcDbEntity
  8
0
  6
Continuous
 62
     7
370
    25
100
AcDbCircle
 10
95.9670728262
 20
244.7996751229
 30
0.0
 40
1.0
100
AcDbArc
 50
44.427003998
 51
90.0
  0
ARC
  5
8A
330
1F
100
AcDbEntity
  8
0
  6
Continuous
 62
     7
370
    25
100
AcDbCircle
 10
250.5742711232
 20
244.7996751229
 30
0.0
 40
1.0
100
AcDbArc
 50
90.0
 51
135.572996002
  0
LINE
  5
8B
330
1F
100
AcDbEntity
  8
0
  6
Continuous
 62
     7
370
    25
100
AcDbLine
 10
273.2706719747
 20
565.9788355249
 30
0.0
 11
73.2706719747
 21
565.9788355249
 31
0.0
  0
LINE
  5
8C
330
1F
100
AcDbEntity
  8
0
  6
Continuous
 62
     7
370
    25
100
AcDbLine
 10
173.2706719747
 20
605.4788355249
 30
0.0
 11
267.2706719747
 21
605.4788355249
 31
0.0
  0
LINE
  5
8D
330
1F
100
AcDbEntity
  8
0
  6
Continuous
 62
     7
370
    25
100
AcDbLine
 10
79.2706719747
 20
605.4788355249
 30
0.0
 11
173.2706719747
 21
605.4788355249
 31
0.0
  0
LINE
  5
8E
330
1F
100
AcDbEntity
  8
0
  6
Continuous
 62
     7
370
    25
100
AcDbLine
 10
177.9541176267
 20
214.3471726137
 30
0.0
 11
175.6610751689
 21
214.3471726137
 31
0.0
  0
SPLINE
  5
8F
330
1F
100
AcDbEntity
  8
0
  6
Continuous
 62
     7
370
    25
100
AcDbSpline
210
0.0
220
0.0
230
1.0
 70
     8
 71
     3
 72
    15
 73
    11
 74
     0
 42
0.000000001
 43
0.00000001
 40
0.0
 40
0.0
 40
0.0
 40
0.0
 40
0.1366251676211906
 40
0.2732493944585995
 40
0.4098998592221318
 40
0.5466116636651815
 40
0.6833957028379536
 40
0.8202181081837164
 40
0.9569977964245426
 40
1.0
 40
1.0
 40
1.0
 40
1.0
 10
175.6610751689008
 20
214.3471726137232
 30
0.0
 10
175.7189094963052
 20
214.4716395779789
 30
0.0
 10
175.8345777528741
 20
214.7205726494263
 30
0.0
 10
176.1523387353531
 20
214.9944576889124
 30
0.0
 10
176.5346860719117
 20
215.1533971591625
 30
0.0
 10
176.9502599892819
 20
215.1753370745215
 30
0.0
 10
177.3495661768395
 20
215.0588472988413
 30
0.0
 10
177.6866909169641
 20
214.8164832595126
 30
0.0
 10
177.8740015436791
 20
214.5539641842769
 30
0.0
 10
177.9386534701873
 20
214.3870879101855
 30
0.0
 10
177.9541176266558
 20
214.3471726137232
 30
0.0
  0
SPLINE
  5
90
330
1F
100
AcDbEntity
  8
0
  6
Continuous
 62
     7
370
    25
100
AcDbSpline
210
0.0
220
0.0
230
1.0
 70
    11
 71
     3
 72
    26
 73
    22
 74
     0
 42
0.000000001
 43
0.00000001
 40
0.0
 40
0.0
 40
0.0
 40
0.0
 40
0.0536869995529467
 40
0.1073739406334617
 40
0.1610623366108718
 40
0.2147509541800485
 40
0.2684368982816833
 40
0.3221215222675202
 40
0.3758091680001663
 40
0.4295004239784282
 40
0.4831903100926428
 40
0.5368749991461041
 40
0.590557546507519
 40
0.6442439361872746
 40
0.6979349191096929
 40
0.751625352268544
 40
0.805311646748935
 40
0.8589962526564535
 40
0.9126831874733127
 40
0.966372122832373
 40
1.0
 40
1.0
 40
1.0
 40
1.0
 10
174.188717547598
 20
213.9249928732289
 30
0.0
 10
174.1754140275169
 20
213.7896882225648
 30
0.0
 10
174.1488070018441
 20
213.5190790686018
 30
0.0
 10
173.9413914553701
 20
213.1589267819526
 30
0.0
 10
173.6359395481596
 20
212.8851360629509
 30
0.0
 10
173.2545371282715
 20
212.7285797036904
 30
0.0
 10
172.8435051841106
 20
212.7069081267886
 30
0.0
 10
172.4482957416394
 20
212.8225511192339
 30
0.0
 10
172.1136808109661
 20
213.0624744683977
 30
0.0
 10
171.8773195372321
 20
213.399649043993
 30
0.0
 10
171.7658956645044
 20
213.7960558356977
 30
0.0
 10
171.7919627419428
 20
214.2069789222286
 30
0.0
 10
171.9525601697921
 20
214.5860981040422
 30
0.0
 10
172.2295933548803
 20
214.890702355147
 30
0.0
 10
172.5918435883565
 20
215.08645262075
 30
0.0
 10
172.9985157089335
 20
215.1512529000663
 30
0.0
 10
173.4035556548278
 20
215.0778132811835
 30
0.0
 10
173.7619855607356
 20
214.8743708143451
 30
0.0
 10
174.030868089209
 20
214.5640691068328
 30
0.0
 10
174.1696475299525
 20
214.2287790928511
 30
0.0
 10
174.1834152543548
 20
214.0094586377407
 30
0.0
 10
174.188717547598
 20
213.9249928732289
 30
0.0
  0
LINE
  5
91
330
1F
100
AcDbEntity
  8
0
  6
Continuous
 62
     7
370
    25
100
AcDbLine
 10
170.1919645635
 20
214.3351010132
 30
0.0
 11
167.8989221057
 21
214.3351010132
 31
0.0
  0
SPLINE
  5
92
330
1F
100
AcDbEntity
  8
0
  6
Continuous
 62
     7
370
    25
100
AcDbSpline
210
0.0
220
0.0
230
1.0
 70
     8
 71
     3
 72
    15
 73
    11
 74
     0
 42
0.000000001
 43
0.00000001
 40
0.0
 40
0.0
 40
0.0
 40
0.0
 40
0.1366268767859325
 40
0.2732483432383773
 40
0.4099992535275446
 40
0.5468599219828467
 40
0.6837160391088789
 40
0.8204885247643133
 40
0.9571620916092696
 40
1.0
 40
1.0
 40
1.0
 40
1.0
 10
167.8989221057287
 20
214.3351010131636
 30
0.0
 10
167.9567573083626
 20
214.4595645239093
 30
0.0
 10
168.0724254233947
 20
214.7084866167284
 30
0.0
 10
168.3901277914554
 20
214.9823426993758
 30
0.0
 10
168.7725349789942
 20
215.1413553514983
 30
0.0
 10
169.1883829574693
 20
215.1632727926861
 30
0.0
 10
169.5878966229299
 20
215.0465613024096
 30
0.0
 10
169.9249587812925
 20
214.8039775364808
 30
0.0
 10
170.1120090900563
 20
214.5415472386501
 30
0.0
 10
170.1765603145933
 20
214.3748750136612
 30
0.0
 10
170.1919645634838
 20
214.3351010131636
 30
0.0
  0
LINE
  5
93
330
1F
100
AcDbEntity
  8
0
  6
Continuous
 62
     7
370
    25
100
AcDbLine
 10
167.0735123634
 20
214.46964416
 30
0.0
 11
167.0735123634
 21
214.675237817
 31
0.0
  0
SPLINE
  5
94
330
1F
100
AcDbEntity
  8
0
  6
Continuous
 62
     7
370
    25
100
AcDbSpline
210
0.0
220
0.0
230
1.0
 70
     8
 71
     3
 72
    15
 73
    11
 74
     0
 42
0.000000001
 43
0.00000001
 40
0.0
 40
0.0
 40
0.0
 40
0.0
 40
0.1355899712607429
 40
0.2711791428276863
 40
0.4067925641348172
 40
0.542487766305801
 40
0.6783018093331941
 40
0.8141898149092577
 40
0.950008108203312
 40
1.0
 40
1.0
 40
1.0
 40
1.0
 10
170.9597250103307
 20
214.7431323722993
 30
0.0
 10
170.849085128421
 20
214.9475476450797
 30
0.0
 10
170.6278060171425
 20
215.3563769850229
 30
0.0
 10
170.0623619297183
 20
215.7864667312642
 30
0.0
 10
169.3996771733355
 20
216.0155956646917
 30
0.0
 10
168.694997370842
 20
216.0097697061809
 30
0.0
 10
168.0319198425919
 20
215.7716415725156
 30
0.0
 10
167.4871174413228
 20
215.3269420613578
 30
0.0
 10
167.1902116225586
 20
214.8529615040948
 30
0.0
 10
167.0982535226503
 20
214.5509104467245
 30
0.0
 10
167.0735123633957
 20
214.4696441600042
 30
0.0
  0
LINE
  5
95
330
1F
100
AcDbEntity
  8
0
  6
Continuous
 62
     7
370
    25
100
AcDbLine
 10
170.9597250103
 20
215.8774633691
 30
0.0
 11
170.9597250103
 21
214.7431323723
 31
0.0
  0
LINE
  5
96
330
1F
100
AcDbEntity
  8
0
  6
Continuous
 62
     7
370
    25
100
AcDbLine
 10
171.7769444433
 20
215.8774633691
 30
0.0
 11
170.9597250103
 21
215.8774633691
 31
0.0
  0
LINE
  5
97
330
1F
100
AcDbEntity
  8
0
  6
Continuous
 62
     7
370
    25
100
AcDbLine
 10
171.7769444433
 20
215.4099077484
 30
0.0
 11
171.7769444433
 21
215.8774633691
 31
0.0
  0
SPLINE
  5
98
330
1F
100
AcDbEntity
  8
0
  6
Continuous
 62
     7
370
    25
100
AcDbSpline
210
0.0
220
0.0
230
1.0
 70
     8
 71
     3
 72
    14
 73
    10
 74
     0
 42
0.000000001
 43
0.00000001
 40
0.0
 40
0.0
 40
0.0
 40
0.0
 40
0.156061185083622
 40
0.31212190531342
 40
0.4681907246754052
 40
0.6242464708385729
 40
0.7802830606637249
 40
0.9363257358557491
 40
0.9999999999999999
 40
0.9999999999999999
 40
0.9999999999999999
 40
0.9999999999999999
 10
174.8832811388847
 20
214.6737236066713
 30
0.0
 10
174.8121301796378
 20
214.8653663833496
 30
0.0
 10
174.6698284730788
 20
215.2486513658668
 30
0.0
 10
174.2303056430092
 20
215.6929182616614
 30
0.0
 10
173.681446889906
 20
215.9739838393054
 30
0.0
 10
173.066523617582
 20
216.0558298100777
 30
0.0
 10
172.4622170014942
 20
215.9289936056884
 30
0.0
 10
172.031771255525
 20
215.6755272924215
 30
0.0
 10
171.8342006656345
 20
215.4695889551424
 30
0.0
 10
171.7769444433067
 20
215.4099077483818
 30
0.0
  0
SPLINE
  5
99
330
1F
100
AcDbEntity
  8
0
  6
Continuous
 62
     7
370
    25
100
AcDbSpline
210
0.0
220
0.0
230
1.0
 70
     8
 71
     3
 72
    15
 73
    11
 74
     0
 42
0.000000001
 43
0.00000001
 40
0.0
 40
0.0
 40
0.0
 40
0.0
 40
0.1376183303163672
 40
0.2752310923496794
 40
0.4129721087762829
 40
0.5507850068061686
 40
0.6885446775233761
 40
0.8262084820908454
 40
0.9638094155234269
 40
1.0
 40
1.0
 40
1.0
 40
1.0
 10
178.7544648470328
 20
214.6110830698465
 30
0.0
 10
178.6581036455991
 20
214.82262263757
 30
0.0
 10
178.4653851416778
 20
215.245693213749
 30
0.0
 10
177.9307816238648
 20
215.7135830516985
 30
0.0
 10
177.2851057176366
 20
215.9877644372112
 30
0.0
 10
176.5811002092886
 20
216.0301430079643
 30
0.0
 10
175.9032094311681
 20
215.8375756617156
 30
0.0
 10
175.3292473096195
 20
215.4313059058575
 30
0.0
 10
175.0166819483486
 20
214.9989176695301
 30
0.0
 10
174.9062728758437
 20
214.7297710653331
 30
0.0
 10
174.8832811388847
 20
214.6737236066713
 30
0.0
  0
LINE
  5
9A
330
1F
100
AcDbEntity
  8
0
  6
Continuous
 62
     7
370
    25
100
AcDbLine
 10
178.754464847
 20
215.8786070838
 30
0.0
 11
178.754464847
 21
214.6110830698
 31
0.0
  0
LINE
  5
9B
330
1F
100
AcDbEntity
  8
0
  6
Continuous
 62
     7
370
    25
100
AcDbLine
 10
179.59506577
 20
215.8786070838
 30
0.0
 11
178.754464847
 21
215.8786070838
 31
0.0
  0
LINE
  5
9C
330
1F
100
AcDbEntity
  8
0
  6
Continuous
 62
     7
370
    25
100
AcDbLine
 10
179.59506577
 20
215.5895031396
 30
0.0
 11
179.59506577
 21
215.8786070838
 31
0.0
  0
SPLINE
  5
9D
330
1F
100
AcDbEntity
  8
0
  6
Continuous
 62
     7
370
    25
100
AcDbSpline
210
0.0
220
0.0
230
1.0
 70
     8
 71
     3
 72
    11
 73
     7
 74
     0
 42
0.000000001
 43
0.00000001
 40
0.0
 40
0.0
 40
0.0
 40
0.0
 40
0.3148479347420894
 40
0.6297092088612904
 40
0.9441995163568158
 40
1.0
 40
1.0
 40
1.0
 40
1.0
 10
180.4651648597767
 20
216.0039739887398
 30
0.0
 10
180.3585051091107
 20
216.0033787799536
 30
0.0
 10
180.1451810888523
 20
216.0021883371635
 30
0.0
 10
179.8494757777195
 20
215.8658054730722
 30
0.0
 10
179.6768824286148
 20
215.7070744446478
 30
0.0
 10
179.6057803971315
 20
215.6049001591813
 30
0.0
 10
179.5950657700337
 20
215.589503139646
 30
0.0
  0
LINE
  5
9E
330
1F
100
AcDbEntity
  8
0
  6
Continuous
 62
     7
370
    25
100
AcDbLine
 10
180.4651648598
 20
215.1559134927
 30
0.0
 11
180.4651648598
 21
216.0039739887
 31
0.0
  0
SPLINE
  5
9F
330
1F
100
AcDbEntity
  8
0
  6
Continuous
 62
     7
370
    25
100
AcDbSpline
210
0.0
220
0.0
230
1.0
 70
     8
 71
     3
 72
    11
 73
     7
 74
     0
 42
0.000000001
 43
0.00000001
 40
0.0
 40
0.0
 40
0.0
 40
0.0
 40
0.2431669095412153
 40
0.4863225051991594
 40
0.7297802227626321
 40
1.0
 40
1.0
 40
1.0
 40
1.0
 10
179.5950657700337
 20
214.4795402362749
 30
0.0
 10
179.6253056027552
 20
214.572267437564
 30
0.0
 10
179.6857838612224
 20
214.7577175258021
 30
0.0
 10
179.8864182701229
 20
214.9761078658114
 30
0.0
 10
180.1516632817635
 20
215.1319662720635
 30
0.0
 10
180.357096711569
 20
215.1476585684387
 30
0.0
 10
180.4651648597767
 20
215.1559134927321
 30
0.0
  0
LINE
  5
A0
330
1F
100
AcDbEntity
  8
0
  6
Continuous
 62
     7
370
    25
100
AcDbLine
 10
179.59506577
 20
211.9111554894
 30
0.0
 11
179.59506577
 21
214.4795402363
 31
0.0
  0
LINE
  5
A1
330
1F
100
AcDbEntity
  8
0
  6
Continuous
 62
     7
370
    25
100
AcDbLine
 10
178.754464847
 20
211.9111554894
 30
0.0
 11
179.59506577
 21
211.9111554894
 31
0.0
  0
LINE
  5
A2
330
1F
100
AcDbEntity
  8
0
  6
Continuous
 62
     7
370
    25
100
AcDbLine
 10
178.754464847
 20
213.5802409274
 30
0.0
 11
178.754464847
 21
211.9111554894
 31
0.0
  0
LINE
  5
A3
330
1F
100
AcDbEntity
  8
0
  6
Continuous
 62
     7
370
    25
100
AcDbLine
 10
175.6489669242
 20
213.5802409274
 30
0.0
 11
178.754464847
 21
213.5802409274
 31
0.0
  0
LINE
  5
A4
330
1F
100
AcDbEntity
  8
0
  6
Continuous
 62
     7
370
    25
100
AcDbLine
 10
178.6960518832
 20
213.1287970215
 30
0.0
 11
177.7069426297
 21
213.1287970215
 31
0.0
  0
LINE
  5
A5
330
1F
100
AcDbEntity
  8
0
  6
Continuous
 62
     7
370
    25
100
AcDbLine
 10
171.7769444433
 20
210.8636311521
 30
0.0
 11
171.7769444433
 21
212.4721405782
 31
0.0
  0
LINE
  5
A6
330
1F
100
AcDbEntity
  8
0
  6
Continuous
 62
     7
370
    25
100
AcDbLine
 10
170.9597250103
 20
210.8636311521
 30
0.0
 11
171.7769444433
 21
210.8636311521
 31
0.0
  0
LINE
  5
A7
330
1F
100
AcDbEntity
  8
0
  6
Continuous
 62
     7
370
    25
100
AcDbLine
 10
170.9597250103
 20
213.5681693268
 30
0.0
 11
170.9597250103
 21
210.8636311521
 31
0.0
  0
LINE
  5
A8
330
1F
100
AcDbEntity
  8
0
  6
Continuous
 62
     7
370
    25
100
AcDbLine
 10
167.8868138611
 20
213.5681693268
 30
0.0
 11
170.9597250103
 21
213.5681693268
 31
0.0
  0
LINE
  5
A9
330
1F
100
AcDbEntity
  8
0
  6
Continuous
 62
     7
370
    25
100
AcDbLine
 10
170.9463161856
 20
213.116725421
 30
0.0
 11
169.9447895665
 21
213.116725421
 31
0.0
  0
LINE
  5
AA
330
1F
100
AcDbEntity
  8
0
  6
Continuous
 62
     7
370
    25
100
AcDbLine
 10
167.0735123634
 20
211.936329044
 30
0.0
 11
167.0735123634
 21
213.4213758806
 31
0.0
  0
LINE
  5
AB
330
1F
100
AcDbEntity
  8
0
  6
Continuous
 62
     7
370
    25
100
AcDbLine
 10
166.2176891733
 20
211.936329044
 30
0.0
 11
167.0735123634
 21
211.936329044
 31
0.0
  0
LINE
  5
AC
330
1F
100
AcDbEntity
  8
0
  6
Continuous
 62
     7
370
    25
100
AcDbLine
 10
166.2176891733
 20
214.4335709038
 30
0.0
 11
166.2176891733
 21
211.936329044
 31
0.0
  0
SPLINE
  5
AD
330
1F
100
AcDbEntity
  8
0
  6
Continuous
 62
     7
370
    25
100
AcDbSpline
210
0.0
220
0.0
230
1.0
 70
     8
 71
     3
 72
    16
 73
    12
 74
     0
 42
0.000000001
 43
0.00000001
 40
0.0
 40
0.0
 40
0.0
 40
0.0
 40
0.1116902380828006
 40
0.2233729341254187
 40
0.3352680175265466
 40
0.4475608710487925
 40
0.5601605136547301
 40
0.6728413317259114
 40
0.7853724140198594
 40
0.8976199051363832
 40
1.0
 40
1.0
 40
1.0
 40
1.0
 10
164.5161130205778
 20
214.3555510891051
 30
0.0
 10
164.5275353264885
 20
214.4510612022015
 30
0.0
 10
164.5503791670028
 20
214.6420749789399
 30
0.0
 10
164.7020975989915
 20
214.8938099836202
 30
0.0
 10
164.9218422177771
 20
215.0834663456376
 30
0.0
 10
165.1942528156783
 20
215.1895324242927
 30
0.0
 10
165.4864523392745
 20
215.1995407764787
 30
0.0
 10
165.7663828183847
 20
215.1118762694071
 30
0.0
 10
165.9994745155381
 20
214.9362143323161
 30
0.0
 10
166.1627926614023
 20
214.7005308412883
 30
0.0
 10
166.1999599179981
 20
214.5197876908929
 30
0.0
 10
166.2176891732507
 20
214.433570903806
 30
0.0
  0
LINE
  5
AE
330
1F
100
AcDbEntity
  8
0
  6
Continuous
 62
     7
370
    25
100
AcDbLine
 10
164.5161130206
 20
211.926260411
 30
0.0
 11
164.5161130206
 21
214.3555510891
 31
0.0
  0
LINE
  5
AF
330
1F
100
AcDbEntity
  8
0
  6
Continuous
 62
     7
370
    25
100
AcDbLine
 10
163.6904932054
 20
211.926260411
 30
0.0
 11
164.5161130206
 21
211.926260411
 31
0.0
  0
LINE
  5
B0
330
1F
100
AcDbEntity
  8
0
  6
Continuous
 62
     7
370
    25
100
AcDbLine
 10
163.6904932054
 20
217.1926208868
 30
0.0
 11
163.6904932054
 21
211.926260411
 31
0.0
  0
LINE
  5
B1
330
1F
100
AcDbEntity
  8
0
  6
Continuous
 62
     7
370
    25
100
AcDbLine
 10
164.5161130206
 20
217.1926208868
 30
0.0
 11
163.6904932054
 21
217.1926208868
 31
0.0
  0
LINE
  5
B2
330
1F
100
AcDbEntity
  8
0
  6
Continuous
 62
     7
370
    25
100
AcDbLine
 10
164.5161130206
 20
215.6607645109
 30
0.0
 11
164.5161130206
 21
217.1926208868
 31
0.0
  0
SPLINE
  5
B3
330
1F
100
AcDbEntity
  8
0
  6
Continuous
 62
     7
370
    25
100
AcDbSpline
210
0.0
220
0.0
230
1.0
 70
     8
 71
     3
 72
    14
 73
    10
 74
     0
 42
0.000000001
 43
0.00000001
 40
0.0
 40
0.0
 40
0.0
 40
0.0
 40
0.1532754592529812
 40
0.3065457892967586
 40
0.4599604998898659
 40
0.6136966135641645
 40
0.7678061083006809
 40
0.9221801831802443
 40
1.0
 40
1.0
 40
1.0
 40
1.0
 10
167.0735123633957
 20
214.6752378170095
 30
0.0
 10
167.038300109596
 20
214.8454243368118
 30
0.0
 10
166.9678767803393
 20
215.1857916812957
 30
0.0
 10
166.6558376720871
 20
215.6155656317685
 30
0.0
 10
166.2310982651005
 20
215.9226044811704
 30
0.0
 10
165.7246589015383
 20
216.0712457093937
 30
0.0
 10
165.1994541819686
 20
216.0427840383676
 30
0.0
 10
164.7872579834042
 20
215.8790357282514
 30
0.0
 10
164.584175982824
 20
215.7155550756138
 30
0.0
 10
164.5161130205778
 20
215.6607645109321
 30
0.0
  0
SPLINE
  5
B4
330
1F
100
AcDbEntity
  8
0
  6
Continuous
 62
     7
370
    25
100
AcDbSpline
210
0.0
220
0.0
230
1.0
 70
     8
 71
     3
 72
    14
 73
    10
 74
     0
 42
0.000000001
 43
0.00000001
 40
0.0
 40
0.0
 40
0.0
 40
0.0
 40
0.1623512298267351
 40
0.3247031029778688
 40
0.4870367395737932
 40
0.6493534896741923
 40
0.8116842194835199
 40
0.9740355759746908
 40
1.0
 40
1.0
 40
1.0
 40
1.0
 10
171.7769444433067
 20
212.4721405782122
 30
0.0
 10
171.9364769117701
 20
212.3365473498912
 30
0.0
 10
172.2555424808519
 20
212.0653603559543
 30
0.0
 10
172.8706797879375
 20
211.888528115597
 30
0.0
 10
173.5018249886462
 20
211.9122348292489
 30
0.0
 10
174.091920686447
 20
212.1470573237447
 30
0.0
 10
174.5692441616087
 20
212.5626892974624
 30
0.0
 10
174.7979773881491
 20
212.9598942715766
 30
0.0
 10
174.8719288656378
 20
213.1887981145421
 30
0.0
 10
174.8821250770947
 20
213.2203587008268
 30
0.0
  0
SPLINE
  5
B5
330
1F
100
AcDbEntity
  8
0
  6
Continuous
 62
     7
370
    25
100
AcDbSpline
210
0.0
220
0.0
230
1.0
 70
     8
 71
     3
 72
    15
 73
    11
 74
     0
 42
0.000000001
 43
0.00000001
 40
0.0
 40
0.0
 40
0.0
 40
0.0
 40
0.1364854871011927
 40
0.2729639204328291
 40
0.4096122898030427
 40
0.5464007086308654
 40
0.6831674194299069
 40
0.8198204710603607
 40
0.9563699315960822
 40
1.0
 40
1.0
 40
1.0
 40
1.0
 10
167.0735123633957
 20
213.4213758806495
 30
0.0
 10
167.1544117745488
 20
213.2035340689532
 30
0.0
 10
167.3162064158552
 20
212.7678617039438
 30
0.0
 10
167.8155761726538
 20
212.2629191685338
 30
0.0
 10
168.4396547054118
 20
211.942995178486
 30
0.0
 10
169.1387805142527
 20
211.849960386904
 30
0.0
 10
169.8290397533366
 20
211.9932072831062
 30
0.0
 10
170.430720664846
 20
212.3573716773961
 30
0.0
 10
170.7828024057934
 20
212.7762451527016
 30
0.0
 10
170.9144403523533
 20
213.0503512459065
 30
0.0
 10
170.9463161855667
 20
213.1167254209687
 30
0.0
  0
SPLINE
  5
B6
330
1F
100
AcDbEntity
  8
0
  6
Continuous
 62
     7
370
    25
100
AcDbSpline
210
0.0
220
0.0
230
1.0
 70
     8
 71
     3
 72
    14
 73
    10
 74
     0
 42
0.000000001
 43
0.00000001
 40
0.0
 40
0.0
 40
0.0
 40
0.0
 40
0.1608150534065446
 40
0.3216275802997585
 40
0.4824872463440104
 40
0.6433161122227857
 40
0.8040627362602674
 40
0.9647325589329133
 40
1.0
 40
1.0
 40
1.0
 40
1.0
 10
177.7069426296567
 20
213.1287970215284
 30
0.0
 10
177.6050999238621
 20
213.036652965732
 30
0.0
 10
177.4014161122906
 20
212.8523663017847
 30
0.0
 10
177.0017064907779
 20
212.7240150816463
 30
0.0
 10
176.5873952505893
 20
212.726871609247
 30
0.0
 10
176.1956850465602
 20
212.8690924154836
 30
0.0
 10
175.8746656756143
 20
213.132242035148
 30
0.0
 10
175.7121100323384
 20
213.3950086976209
 30
0.0
 10
175.6585986306747
 20
213.5519860233688
 30
0.0
 10
175.6489669242367
 20
213.5802409274081
 30
0.0
  0
SPLINE
  5
B7
330
1F
100
AcDbEntity
  8
0
  6
Continuous
 62
     7
370
    25
100
AcDbSpline
210
0.0
220
0.0
230
1.0
 70
     8
 71
     3
 72
    14
 73
    10
 74
     0
 42
0.000000001
 43
0.00000001
 40
0.0
 40
0.0
 40
0.0
 40
0.0
 40
0.1606908372325844
 40
0.321378396449897
 40
0.4821489829779825
 40
0.6430267282565464
 40
0.803932180145997
 40
0.9647322788616016
 40
1.0
 40
1.0
 40
1.0
 40
1.0
 10
169.9447895664847
 20
213.1167254209687
 30
0.0
 10
169.8429840856315
 20
213.0246097043839
 30
0.0
 10
169.6393752007075
 20
212.8403801503302
 30
0.0
 10
169.2398625639252
 20
212.7120184077643
 30
0.0
 10
168.8257284934967
 20
212.7147293130276
 30
0.0
 10
168.4339853045269
 20
212.8567489765469
 30
0.0
 10
168.1127312573271
 20
213.1198709729729
 30
0.0
 10
167.9500000699187
 20
213.3828129287826
 30
0.0
 10
167.8964467673795
 20
213.5399112488628
 30
0.0
 10
167.8868138610647
 20
213.5681693268484
 30
0.0
  0
SPLINE
  5
B8
330
1F
100
AcDbEntity
  8
0
  6
Continuous
 62
     7
370
    25
100
AcDbSpline
210
0.0
220
0.0
230
1.0
 70
     8
 71
     3
 72
    14
 73
    10
 74
     0
 42
0.000000001
 43
0.00000001
 40
0.0
 40
0.0
 40
0.0
 40
0.0
 40
0.1420864168174684
 40
0.2841726288009963
 40
0.4262665052429608
 40
0.5684089845381665
 40
0.7106451636300594
 40
0.8529620404685296
 40
1.0
 40
1.0
 40
1.0
 40
1.0
 10
174.8821250770947
 20
213.2203587008268
 30
0.0
 10
174.9849358283553
 20
213.0118893439951
 30
0.0
 10
175.1905571826629
 20
212.5949509308642
 30
0.0
 10
175.7394270103113
 20
212.1436757934294
 30
0.0
 10
176.3927352472222
 20
211.8897265258944
 30
0.0
 10
177.0981244471274
 20
211.8684837197904
 30
0.0
 10
177.7657175181425
 20
212.0828013954929
 30
0.0
 10
178.347725920798
 20
212.5053048006418
 30
0.0
 10
178.5786871163317
 20
212.9187178799753
 30
0.0
 10
178.6960518832327
 20
213.1287970215284
 30
0.0
  0
LINE
  5
B9
330
1F
100
AcDbEntity
  8
0
  6
Continuous
 62
     7
370
    25
100
AcDbLine
 10
179.59506577
 20
210.8636311521
 30
0.0
 11
179.59506577
 21
211.6966143335
 31
0.0
  0
LINE
  5
BA
330
1F
100
AcDbEntity
  8
0
  6
Continuous
 62
     7
370
    25
100
AcDbLine
 10
172.0901701769
 20
211.6966143335
 30
0.0
 11
172.0901701769
 21
210.8636311521
 31
0.0
  0
LINE
  5
BB
330
1F
100
AcDbEntity
  8
0
  6
Continuous
 62
     7
370
    25
100
AcDbLine
 10
179.59506577
 20
211.6966143335
 30
0.0
 11
172.0901701769
 21
211.6966143335
 31
0.0
  0
LINE
  5
BC
330
1F
100
AcDbEntity
  8
0
  6
Continuous
 62
     7
370
    25
100
AcDbLine
 10
172.0901701769
 20
210.8636311521
 30
0.0
 11
179.59506577
 21
210.8636311521
 31
0.0
  0
LINE
  5
BD
330
1F
100
AcDbEntity
  8
0
  6
Continuous
 62
     7
370
    25
100
AcDbLine
 10
170.7647696423
 20
210.8636311521
 30
0.0
 11
170.7647696423
 21
211.6966143335
 31
0.0
  0
LINE
  5
BE
330
1F
100
AcDbEntity
  8
0
  6
Continuous
 62
     7
370
    25
100
AcDbLine
 10
163.6904932054
 20
210.8636311521
 30
0.0
 11
170.7647696423
 21
210.8636311521
 31
0.0
  0
LINE
  5
BF
330
1F
100
AcDbEntity
  8
0
  6
Continuous
 62
     7
370
    25
100
AcDbLine
 10
163.6904932054
 20
211.6966143335
 30
0.0
 11
163.6904932054
 21
210.8636311521
 31
0.0
  0
LINE
  5
C0
330
1F
100
AcDbEntity
  8
0
  6
Continuous
 62
     7
370
    25
100
AcDbLine
 10
170.7647696423
 20
211.6966143335
 30
0.0
 11
163.6904932054
 21
211.6966143335
 31
0.0
  0
LINE
  5
C1
330
1F
100
AcDbEntity
  8
0
  6
Continuous
 62
     7
370
    25
100
AcDbLine
 10
181.260393488
 20
216.0039739887
 30
0.0
 11
181.6580078021
 21
216.0039739887
 31
0.0
  0
LINE
  5
C2
330
1F
100
AcDbEntity
  8
0
  6
Continuous
 62
     7
370
    25
100
AcDbLine
 10
181.260393488
 20
216.799202617
 30
0.0
 11
181.260393488
 21
216.0039739887
 31
0.0
  0
LINE
  5
C3
330
1F
100
AcDbEntity
  8
0
  6
Continuous
 62
     7
370
    25
100
AcDbLine
 10
180.4651648598
 20
216.799202617
 30
0.0
 11
181.260393488
 21
216.799202617
 31
0.0
  0
LINE
  5
C4
330
1F
100
AcDbEntity
  8
0
  6
Continuous
 62
     7
370
    25
100
AcDbLine
 10
181.6560197306
 20
218.3896598734
 30
0.0
 11
181.6560197306
 21
217.1968169311
 31
0.0
  0
LINE
  5
C5
330
1F
100
AcDbEntity
  8
0
  6
Continuous
 62
     7
370
    25
100
AcDbLine
 10
182.0556221162
 20
218.3896598734
 30
0.0
 11
181.6560197306
 21
218.3896598734
 31
0.0
  0
LINE
  5
C6
330
1F
100
AcDbEntity
  8
0
  6
Continuous
 62
     7
370
    25
100
AcDbLine
 10
182.0556221162
 20
217.5944312452
 30
0.0
 11
182.0556221162
 21
218.3896598734
 31
0.0
  0
LINE
  5
C7
330
1F
100
AcDbEntity
  8
0
  6
Continuous
 62
     7
370
    25
100
AcDbLine
 10
182.8508507445
 20
217.5944312452
 30
0.0
 11
182.0556221162
 21
217.5944312452
 31
0.0
  0
LINE
  5
C8
330
1F
100
AcDbEntity
  8
0
  6
Continuous
 62
     7
370
    25
100
AcDbLine
 10
182.8508507445
 20
217.1948288595
 30
0.0
 11
182.8508507445
 21
217.5944312452
 31
0.0
  0
LINE
  5
C9
330
1F
100
AcDbEntity
  8
0
  6
Continuous
 62
     7
370
    25
100
AcDbLine
 10
181.6580078021
 20
217.1948288595
 30
0.0
 11
182.8508507445
 21
217.1948288595
 31
0.0
  0
LINE
  5
CA
330
1F
100
AcDbEntity
  8
0
  6
Continuous
 62
     7
370
    25
100
AcDbLine
 10
181.6580078021
 20
216.0039739887
 30
0.0
 11
181.6580078021
 21
217.1948288595
 31
0.0
  0
LINE
  5
CB
330
1F
100
AcDbEntity
  8
0
  6
Continuous
 62
     7
370
    25
100
AcDbLine
 10
180.4651648598
 20
217.1968169311
 30
0.0
 11
180.4651648598
 21
216.799202617
 31
0.0
  0
LINE
  5
CC
330
1F
100
AcDbEntity
  8
0
  6
Continuous
 62
     7
370
    25
100
AcDbLine
 10
181.6560197306
 20
217.1968169311
 30
0.0
 11
180.4651648598
 21
217.1968169311
 31
0.0
  0
SPLINE
  5
CD
330
1F
100
AcDbEntity
  8
0
  6
Continuous
 62
     7
370
    25
100
AcDbSpline
210
0.0
220
0.0
230
1.0
 70
    11
 71
     3
 72
    36
 73
    32
 74
     0
 42
0.000000001
 43
0.00000001
 40
0.0
 40
0.0
 40
0.0
 40
0.0
 40
0.0731264260771405
 40
0.1463337003459678
 40
0.195502946372917
 40
0.2446562862268623
 40
0.2932025666845837
 40
0.3089489473325149
 40
0.314517256319112
 40
0.3201342310962293
 40
0.3244441441369384
 40
0.3252410813928315
 40
0.3307360925135542
 40
0.3402878069174585
 40
0.3711566288207632
 40
0.440169122937271
 40
0.5094086743476665
 40
0.5915661397637975
 40
0.6735260920240289
 40
0.7147773885647907
 40
0.7558207671719807
 40
0.7841810092048959
 40
0.8010531857362035
 40
0.8144459748099956
 40
0.8279103645509941
 40
0.8398059634154403
 40
0.8576227728636757
 40
0.8873906934829925
 40
0.9171714599682357
 40
0.9470319669621934
 40
1.0
 40
1.0
 40
1.0
 40
1.0
 10
266.030327192506
 20
242.0820235595402
 30
0.0
 10
266.6725576964254
 20
242.1030658261439
 30
0.0
 10
267.9577287509285
 20
242.1451736235704
 30
0.0
 10
269.3604922186049
 20
241.4646053896383
 30
0.0
 10
270.4099177953353
 20
240.7501148318971
 30
0.0
 10
271.1800345744467
 20
239.8747468216945
 30
0.0
 10
271.6641419935194
 20
238.7736109656133
 30
0.0
 10
271.90229081019
 20
237.7950162363865
 30
0.0
 10
271.9678242297861
 20
237.2692693803981
 30
0.0
 10
271.9895462887868
 20
236.9053244159172
 30
0.0
 10
271.9876527241387
 20
236.6373396216408
 30
0.0
 10
271.9777537400664
 20
236.3857310572008
 30
0.0
 10
271.9491568689171
 20
236.0329301395968
 30
0.0
 10
271.8155948439068
 20
235.2424527484968
 30
0.0
 10
271.3878546342945
 20
234.0797392979835
 30
0.0
 10
270.5602070506761
 20
232.8532052184291
 30
0.0
 10
269.2014049302128
 20
231.8966115291149
 30
0.0
 10
267.439077751699
 20
231.2562428752252
 30
0.0
 10
265.5954168752203
 20
231.3915435338844
 30
0.0
 10
263.9738470546807
 20
232.0624272709057
 30
0.0
 10
262.8572228060822
 20
232.9585442979781
 30
0.0
 10
262.0348668720882
 20
234.1027933901455
 30
0.0
 10
261.5936405495867
 20
235.2055122047206
 30
0.0
 10
261.3971873973149
 20
236.211487683901
 30
0.0
 10
261.3910740212077
 20
237.1842664210775
 30
0.0
 10
261.5637261459831
 20
238.1914467512227
 30
0.0
 10
261.9978089851898
 20
239.3438090184764
 30
0.0
 10
262.7354285315728
 20
240.3803387559111
 30
0.0
 10
263.6293429003051
 20
241.1689914322865
 30
0.0
 10
264.7592372881784
 20
241.8129956154559
 30
0.0
 10
265.5345331490734
 20
241.9770880614768
 30
0.0
 10
266.030327192506
 20
242.0820235595402
 30
0.0
  0
LINE
  5
CE
330
1F
100
AcDbEntity
  8
0
  6
Continuous
 62
     7
370
    25
100
AcDbLine
 10
73.2709844752
 20
243.4996751229
 30
0.0
 11
73.2709844752
 21
206.9996751229
 31
0.0
  0
LINE
  5
CF
330
1F
100
AcDbEntity
  8
0
  6
Continuous
 62
     7
370
    25
100
AcDbLine
 10
273.2703594742
 20
243.4996751229
 30
0.0
 11
73.2709844752
 21
243.4996751229
 31
0.0
  0
LINE
  5
D0
330
1F
100
AcDbEntity
  8
0
  6
Continuous
 62
     7
370
    25
100
AcDbLine
 10
273.2703594742
 20
243.4996751229
 30
0.0
 11
273.2703594742
 21
206.9996751229
 31
0.0
  0
LINE
  5
D1
330
1F
100
AcDbEntity
  8
0
  6
Continuous
 62
     7
370
    25
100
AcDbLine
 10
73.2709844752
 20
206.9996751229
 30
0.0
 11
273.2703594742
 21
206.9996751229
 31
0.0
  0
SPLINE
  5
D2
330
1F
100
AcDbEntity
  8
0
  6
Continuous
 62
     7
370
    25
100
AcDbSpline
210
0.0
220
0.0
230
1.0
 70
    11
 71
     3
 72
    37
 73
    33
 74
     0
 42
0.000000001
 43
0.00000001
 40
0.0
 40
0.0
 40
0.0
 40
0.0
 40
0.0737458295313384
 40
0.1476747804290185
 40
0.2212121531753645
 40
0.2603682326749849
 40
0.2994227417659073
 40
0.3384685528617608
 40
0.3553992664666655
 40
0.3724666792042735
 40
0.3844544282772991
 40
0.396441438114961
 40
0.4125345678497906
 40
0.4380691240864918
 40
0.4625686480140158
 40
0.4871331374627961
 40
0.5233379676415275
 40
0.5595844934885077
 40
0.6327306705398016
 40
0.7059589734559238
 40
0.7551135257381245
 40
0.8042553063434427
 40
0.8528170689616993
 40
0.8687938059135131
 40
0.8744449315894404
 40
0.8801446831185029
 40
0.8844537523438186
 40
0.8887507031542091
 40
0.8962655237933973
 40
0.9168688484845899
 40
0.9583488243622039
 40
1.0
 40
1.0
 40
1.0
 40
1.0
 10
270.5259037808597
 20
209.9966872346766
 30
0.0
 10
270.0889338062066
 20
209.6060395558727
 30
0.0
 10
269.2139087984054
 20
208.8237741646082
 30
0.0
 10
267.5286388639672
 20
208.2914067668055
 30
0.0
 10
265.888357765353
 20
208.3591591543507
 30
0.0
 10
264.4157137339027
 20
208.8433281270104
 30
0.0
 10
263.2410087835667
 20
209.598623538405
 30
0.0
 10
262.288392573771
 20
210.653368511485
 30
0.0
 10
261.6883059043222
 20
211.9052486011147
 30
0.0
 10
261.429341376162
 20
212.9204958425672
 30
0.0
 10
261.379402336914
 20
213.9388439547343
 30
0.0
 10
261.4950178733734
 20
214.9057871358837
 30
0.0
 10
261.843797149996
 20
216.0142284612959
 30
0.0
 10
262.4444843353407
 20
217.0106057787594
 30
0.0
 10
263.1792676062514
 20
217.7991576540948
 30
0.0
 10
264.0373432182758
 20
218.4267906785466
 30
0.0
 10
264.9952451154924
 20
218.8776689468994
 30
0.0
 10
266.3678013759978
 20
219.188203910171
 30
0.0
 10
267.928617177364
 20
219.1157982487626
 30
0.0
 10
269.3480005487364
 20
218.4795404976473
 30
0.0
 10
270.3973750261148
 20
217.7583621676276
 30
0.0
 10
271.1698966863793
 20
216.8858915644883
 30
0.0
 10
271.6566406493739
 20
215.7910944552566
 30
0.0
 10
271.8976237381902
 20
214.8199101326173
 30
0.0
 10
271.9655769439521
 20
214.2935572949702
 30
0.0
 10
271.9888899281545
 20
213.9289315258634
 30
0.0
 10
271.9877776619056
 20
213.5717362783412
 30
0.0
 10
271.9654797562955
 20
213.1970797562146
 30
0.0
 10
271.883138726295
 20
212.5728190473323
 30
0.0
 10
271.6324579087433
 20
211.6832863364129
 30
0.0
 10
271.1883672755064
 20
210.7477198257548
 30
0.0
 10
270.7470279095617
 20
210.2473749007457
 30
0.0
 10
270.5259037808597
 20
209.9966872346766
 30
0.0
  0
SPLINE
  5
D3
330
1F
100
AcDbEntity
  8
0
  6
Continuous
 62
     7
370
    25
100
AcDbSpline
210
0.0
220
0.0
230
1.0
 70
     8
 71
     3
 72
    42
 73
    38
 74
     0
 42
0.000000001
 43
0.00000001
 40
0.0
 40
0.0
 40
0.0
 40
0.0
 40
0.0457048278746844
 40
0.0689003786718436
 40
0.0924304840846929
 40
0.138032170295164
 40
0.1611698129952762
 40
0.1846340144780682
 40
0.230510341925581
 40
0.253774435276764
 40
0.2773499158188543
 40
0.3009891459321449
 40
0.3247752074819116
 40
0.3489920196676596
 40
0.3733430285401415
 40
0.3994114424554312
 40
0.4256022998861062
 40
0.4626886258369042
 40
0.4999679987535555
 40
0.5260629991249713
 40
0.5522129275633111
 40
0.5785713293150936
 40
0.6050245697717461
 40
0.6466425725631749
 40
0.6887375969976836
 40
0.7170055290271523
 40
0.7455312199734818
 40
0.7749203191428851
 40
0.8046268580130855
 40
0.8288669313215175
 40
0.8532916507933064
 40
0.8783069744931914
 40
0.9035292721467526
 40
0.9271867234882207
 40
0.9512075131243776
 40
0.9754132991306835
 40
1.0
 40
1.0
 40
1.0
 40
1.0
 10
73.32371042552256
 20
222.958387275409
 30
0.0
 10
73.32045369938587
 20
222.9631026507181
 30
0.0
 10
73.315544159749
 20
222.9702111151734
 30
0.0
 10
73.3097332763655
 20
223.0144179600356
 30
0.0
 10
73.30432666748823
 20
223.073968755853
 30
0.0
 10
73.29958249507028
 20
223.1586577560667
 30
0.0
 10
73.29551116028655
 20
223.2655362593459
 30
0.0
 10
73.29186769736354
 20
223.3872255190987
 30
0.0
 10
73.28885018961367
 20
223.5295905896458
 30
0.0
 10
73.28640667245668
 20
223.6889096384893
 30
0.0
 10
73.28482178723834
 20
223.8178995727559
 30
0.0
 10
73.28348121169846
 20
223.9548140998086
 30
0.0
 10
73.28236467327574
 20
224.0990014327804
 30
0.0
 10
73.28145483175751
 20
224.2497131474407
 30
0.0
 10
73.28071880642632
 20
224.4093670485049
 30
0.0
 10
73.28015310362674
 20
224.5765815777449
 30
0.0
 10
73.27969026012006
 20
224.7742991081183
 30
0.0
 10
73.27939469464106
 20
224.9990872406122
 30
0.0
 10
73.27930426032057
 20
225.2245780988556
 30
0.0
 10
73.27936106212239
 20
225.425492651604
 30
0.0
 10
73.27951802493462
 20
225.6015563496219
 30
0.0
 10
73.27980185473334
 20
225.7775796221387
 30
0.0
 10
73.28032333937514
 20
225.9861445741801
 30
0.0
 10
73.28125701757078
 20
226.2249141412715
 30
0.0
 10
73.28271927831321
 20
226.4573536778205
 30
0.0
 10
73.28447312754616
 20
226.6510458937261
 30
0.0
 10
73.28636765601716
 20
226.8100354038011
 30
0.0
 10
73.28871371258306
 20
226.9596419463943
 30
0.0
 10
73.29139060057068
 20
227.0885445621148
 30
0.0
 10
73.29431720541633
 20
227.1968775431178
 30
0.0
 10
73.29743106431354
 20
227.2869863860946
 30
0.0
 10
73.30096920349357
 20
227.3654345707374
 30
0.0
 10
73.30485995943715
 20
227.4294339187488
 30
0.0
 10
73.3090651064668
 20
227.4790234920489
 30
0.0
 10
73.31355980477205
 20
227.5141724603107
 30
0.0
 10
73.31842491424078
 20
227.5367215387501
 30
0.0
 10
73.3219394426483
 20
227.5395418206687
 30
0.0
 10
73.32371042552262
 20
227.5409629703648
 30
0.0
  0
LINE
  5
D4
330
1F
100
AcDbEntity
  8
0
  6
Continuous
 62
     7
370
    25
100
AcDbLine
 10
273.2176335239
 20
222.9583872754
 30
0.0
 11
73.3237104255
 21
222.9583872754
 31
0.0
  0
SPLINE
  5
D5
330
1F
100
AcDbEntity
  8
0
  6
Continuous
 62
     7
370
    25
100
AcDbSpline
210
0.0
220
0.0
230
1.0
 70
     8
 71
     3
 72
    42
 73
    38
 74
     0
 42
0.000000001
 43
0.00000001
 40
0.0
 40
0.0
 40
0.0
 40
0.0
 40
0.0457048278746836
 40
0.0689003786718431
 40
0.0924304840846946
 40
0.1380321702951646
 40
0.1611698129952764
 40
0.1846340144780726
 40
0.2305103419255818
 40
0.2537744352767642
 40
0.2773499158188574
 40
0.300989145932144
 40
0.3247752074819102
 40
0.3489920196676615
 40
0.3733430285401508
 40
0.399411442455436
 40
0.4256022998861063
 40
0.4626886258369019
 40
0.4999679987535525
 40
0.5260629991249678
 40
0.5522129275633112
 40
0.5785713293150891
 40
0.6050245697717411
 40
0.6466425725631691
 40
0.6887375969976693
 40
0.7170055290271448
 40
0.745531219973477
 40
0.7749203191428979
 40
0.8046268580130801
 40
0.8288669313215091
 40
0.8532916507932955
 40
0.87830697449318
 40
0.9035292721467404
 40
0.9271867234882227
 40
0.951207513124379
 40
0.975413299130684
 40
1.0
 40
1.0
 40
1.0
 40
1.0
 10
273.2176335238614
 20
227.5409629703631
 30
0.0
 10
273.2208902499981
 20
227.536247595054
 30
0.0
 10
273.225799789635
 20
227.5291391305987
 30
0.0
 10
273.2316106730185
 20
227.4849322857364
 30
0.0
 10
273.237017281896
 20
227.4253814899191
 30
0.0
 10
273.2417614543137
 20
227.3406924897052
 30
0.0
 10
273.2458327890975
 20
227.2338139864262
 30
0.0
 10
273.2494762520204
 20
227.1121247266732
 30
0.0
 10
273.2524937597703
 20
226.9697596561262
 30
0.0
 10
273.2549372769273
 20
226.8104406072827
 30
0.0
 10
273.2565221621456
 20
226.6814506730161
 30
0.0
 10
273.2578627376855
 20
226.5445361459633
 30
0.0
 10
273.2589792761083
 20
226.4003488129916
 30
0.0
 10
273.2598891176265
 20
226.2496370983312
 30
0.0
 10
273.2606251429577
 20
226.0899831972671
 30
0.0
 10
273.2611908457573
 20
225.922768668027
 30
0.0
 10
273.2616536892639
 20
225.7250511376537
 30
0.0
 10
273.261949254743
 20
225.5002630051598
 30
0.0
 10
273.2620396890634
 20
225.2747721469164
 30
0.0
 10
273.2619828872616
 20
225.0738575941679
 30
0.0
 10
273.2618259244493
 20
224.8977938961501
 30
0.0
 10
273.2615420946506
 20
224.7217706236332
 30
0.0
 10
273.2610206100089
 20
224.5132056715918
 30
0.0
 10
273.2600869318134
 20
224.2744361045004
 30
0.0
 10
273.2586246710707
 20
224.0419965679514
 30
0.0
 10
273.2568708218379
 20
223.8483043520458
 30
0.0
 10
273.2549762933669
 20
223.6893148419707
 30
0.0
 10
273.2526302368009
 20
223.5397082993778
 30
0.0
 10
273.2499533488134
 20
223.410805683657
 30
0.0
 10
273.2470267439677
 20
223.3024727026543
 30
0.0
 10
273.2439128850705
 20
223.2123638596775
 30
0.0
 10
273.2403747458904
 20
223.1339156750347
 30
0.0
 10
273.236483989947
 20
223.0699163270233
 30
0.0
 10
273.2322788429172
 20
223.0203267537232
 30
0.0
 10
273.227784144612
 20
222.9851777854614
 30
0.0
 10
273.2229190351432
 20
222.962628707022
 30
0.0
 10
273.2194045067358
 20
222.9598084251034
 30
0.0
 10
273.2176335238614
 20
222.9583872754073
 30
0.0
  0
LINE
  5
D6
330
1F
100
AcDbEntity
  8
0
  6
Continuous
 62
     7
370
    25
100
AcDbLine
 10
73.3237104255
 20
227.5409629704
 30
0.0
 11
273.2176335239
 21
227.5409629704
 31
0.0
  0
ARC
  5
D7
330
1F
100
AcDbEntity
  8
0
  6
Continuous
 62
     7
370
    25
100
AcDbCircle
 10
74.32372402
 20
222.958517323
 30
0.0
 40
1.000013602936675
100
AcDbArc
 50
113.5985836248
 51
180.0074510748
  0
LINE
  5
D8
330
1F
100
AcDbEntity
  8
0
  6
Continuous
 62
     7
370
    25
100
AcDbLine
 10
73.9233921948
 20
223.8749024144
 30
0.0
 11
272.6179517546
 21
223.8749024144
 31
0.0
  0
ARC
  5
D9
330
1F
100
AcDbEntity
  8
0
  6
Continuous
 62
     7
370
    25
100
AcDbCircle
 10
272.2176199294
 20
222.958517323
 30
0.0
 40
1.00001360294287
100
AcDbArc
 50
359.9925489254
 51
66.401416375
  0
LINE
  5
DA
330
1F
100
AcDbEntity
  8
0
  6
Continuous
 62
     7
370
    25
100
AcDbLine
 10
272.6179517546
 20
226.6244478314
 30
0.0
 11
73.9233921948
 21
226.6244478314
 31
0.0
  0
ARC
  5
DB
330
1F
100
AcDbEntity
  8
0
  6
Continuous
 62
     7
370
    25
100
AcDbCircle
 10
74.32372402
 20
227.5408329228
 30
0.0
 40
1.000013602942614
100
AcDbArc
 50
179.9925489254
 51
246.401416375
  0
ARC
  5
DC
330
1F
100
AcDbEntity
  8
0
  6
Continuous
 62
     7
370
    25
100
AcDbCircle
 10
272.2176199294
 20
227.5408329228
 30
0.0
 40
1.000013602942529
100
AcDbArc
 50
293.598583625
 51
0.0074510746
  0
SPLINE
  5
DD
330
1F
100
AcDbEntity
  8
0
  6
Continuous
 62
     7
370
    25
100
AcDbSpline
210
0.0
220
0.0
230
1.0
 70
     8
 71
     3
 72
    15
 73
    11
 74
     0
 42
0.000000001
 43
0.00000001
 40
0.0
 40
0.0
 40
0.0
 40
0.0
 40
0.0757902677318367
 40
0.2212649217929085
 40
0.3666925444907425
 40
0.4576825722255048
 40
0.6030098204796763
 40
0.748325756161468
 40
0.893646970734062
 40
1.0
 40
1.0
 40
1.0
 40
1.0
 10
272.6179517545658
 20
223.8749024143987
 30
0.0
 10
272.539552800042
 20
223.9141676918616
 30
0.0
 10
272.3106719811653
 20
224.0288002008501
 30
0.0
 10
271.9982623300481
 20
224.3299424636313
 30
0.0
 10
271.7911700054249
 20
224.7281602453668
 30
0.0
 10
271.7015695335057
 20
225.1626153366002
 30
0.0
 10
271.7325119274752
 20
225.6116610973168
 30
0.0
 10
271.9365606775754
 20
226.0804863135279
 30
0.0
 10
272.2504032977647
 20
226.4311282444518
 30
0.0
 10
272.5087704303507
 20
226.567021693114
 30
0.0
 10
272.6179517545664
 20
226.624447831372
 30
0.0
  0
SPLINE
  5
DE
330
1F
100
AcDbEntity
  8
0
  6
Continuous
 62
     7
370
    25
100
AcDbSpline
210
0.0
220
0.0
230
1.0
 70
     8
 71
     3
 72
    15
 73
    11
 74
     0
 42
0.000000001
 43
0.00000001
 40
0.0
 40
0.0
 40
0.0
 40
0.0
 40
0.0757902677318393
 40
0.221264921792906
 40
0.3666925444907266
 40
0.457682572225496
 40
0.603009820479655
 40
0.7483257561614501
 40
0.8936469707340639
 40
1.0
 40
1.0
 40
1.0
 40
1.0
 10
73.92339219481819
 20
226.6244478313733
 30
0.0
 10
74.00179114934198
 20
226.5851825539104
 30
0.0
 10
74.23067196821872
 20
226.470550044922
 30
0.0
 10
74.54308161933587
 20
226.1694077821408
 30
0.0
 10
74.75017394395913
 20
225.7711900004053
 30
0.0
 10
74.83977441587831
 20
225.3367349091719
 30
0.0
 10
74.80883202190893
 20
224.8876891484553
 30
0.0
 10
74.60478327180869
 20
224.4188639322441
 30
0.0
 10
74.29094065161928
 20
224.0682220013205
 30
0.0
 10
74.03257351903326
 20
223.9323285526581
 30
0.0
 10
73.92339219481758
 20
223.8749024144001
 30
0.0
  0
SPLINE
  5
DF
330
1F
100
AcDbEntity
  8
0
  6
Continuous
 62
     7
370
    25
100
AcDbSpline
210
0.0
220
0.0
230
1.0
 70
     8
 71
     3
 72
    12
 73
     8
 74
     0
 42
0.000000001
 43
0.00000001
 40
0.0
 40
0.0
 40
0.0
 40
0.0
 40
0.2273310442191866
 40
0.4546620997279766
 40
0.6819928279498086
 40
0.9093228636643067
 40
0.9999999999999999
 40
0.9999999999999999
 40
0.9999999999999999
 40
0.9999999999999999
 10
272.1268518106512
 20
206.9996751228859
 30
0.0
 10
272.0987440547671
 20
206.9969114696178
 30
0.0
 10
272.042528541603
 20
206.9913841629443
 30
0.0
 10
271.9676337436096
 20
206.9482817506814
 30
0.0
 10
271.911003146008
 20
206.8848439032136
 30
0.0
 10
271.8842391586825
 20
206.8214008188716
 30
0.0
 10
271.8792308183452
 20
206.7825473139793
 30
0.0
 10
271.877802731184
 20
206.7714685557943
 30
0.0
  0
LINE
  5
E0
330
1F
100
AcDbEntity
  8
0
  6
Continuous
 62
     7
370
    25
100
AcDbLine
 10
271.8778027312
 20
206.7714685558
 30
0.0
 11
74.6635412188
 21
206.7714685495
 31
0.0
  0
SPLINE
  5
E1
330
1F
100
AcDbEntity
  8
0
  6
Continuous
 62
     7
370
    25
100
AcDbSpline
210
0.0
220
0.0
230
1.0
 70
     8
 71
     3
 72
    12
 73
     8
 74
     0
 42
0.000000001
 43
0.00000001
 40
0.0
 40
0.0
 40
0.0
 40
0.0
 40
0.2273293214040686
 40
0.4546586283832293
 40
0.6819883309521815
 40
0.9093187462188512
 40
1.0
 40
1.0
 40
1.0
 40
1.0
 10
74.66354121875224
 20
206.7714685494877
 30
0.0
 10
74.65833785355701
 20
206.7992281739608
 30
0.0
 10
74.64793112349678
 20
206.8547474211456
 30
0.0
 10
74.59846422591322
 20
206.9255992087173
 30
0.0
 10
74.53033148518232
 20
206.9764839869607
 30
0.0
 10
74.46479646932568
 20
206.9976158807673
 30
0.0
 10
74.42565372121692
 20
206.9992182158863
 30
0.0
 10
74.41449213873294
 20
206.9996751228859
 30
0.0
  0
SPLINE
  5
E2
330
1F
100
AcDbEntity
  8
0
  6
Continuous
 62
     7
370
    25
100
AcDbSpline
210
0.0
220
0.0
230
1.0
 70
     8
 71
     3
 72
    12
 73
     8
 74
     0
 42
0.000000001
 43
0.00000001
 40
0.0
 40
0.0
 40
0.0
 40
0.0
 40
0.2273310441817127
 40
0.4546620996535392
 40
0.6819928278382126
 40
0.9093228635153962
 40
1.0
 40
1.0
 40
1.0
 40
1.0
 10
74.41449213873294
 20
243.4996751228859
 30
0.0
 10
74.44259989461703
 20
243.5024387761541
 30
0.0
 10
74.49881540778114
 20
243.5079660828276
 30
0.0
 10
74.57371020577456
 20
243.5510684950904
 30
0.0
 10
74.63034080337597
 20
243.6145063425582
 30
0.0
 10
74.65710479071038
 20
243.6779494269192
 30
0.0
 10
74.66211313104363
 20
243.7168029318326
 30
0.0
 10
74.66354121820554
 20
243.7278816900379
 30
0.0
  0
LINE
  5
E3
330
1F
100
AcDbEntity
  8
0
  6
Continuous
 62
     7
370
    25
100
AcDbLine
 10
74.6635412182
 20
243.72788169
 30
0.0
 11
271.8778027306
 21
243.7278816963
 31
0.0
  0
SPLINE
  5
E4
330
1F
100
AcDbEntity
  8
0
  6
Continuous
 62
     7
370
    25
100
AcDbSpline
210
0.0
220
0.0
230
1.0
 70
     8
 71
     3
 72
    12
 73
     8
 74
     0
 42
0.000000001
 43
0.00000001
 40
0.0
 40
0.0
 40
0.0
 40
0.0
 40
0.2273293213968754
 40
0.4546586283690269
 40
0.6819883309306968
 40
0.9093187461903363
 40
1.0
 40
1.0
 40
1.0
 40
1.0
 10
271.8778027306309
 20
243.7278816962956
 30
0.0
 10
271.8830060958249
 20
243.7001220718223
 30
0.0
 10
271.8934128258825
 20
243.644602824637
 30
0.0
 10
271.9428797234628
 20
243.5737510370631
 30
0.0
 10
272.0110124641913
 20
243.5228662588164
 30
0.0
 10
272.0765474800507
 20
243.5017343650053
 30
0.0
 10
272.1156902281634
 20
243.5001320298859
 30
0.0
 10
272.1268518106512
 20
243.4996751228859
 30
0.0
  0
LINE
  5
E5
330
1F
100
AcDbEntity
  8
0
  6
Continuous
 62
     7
370
    25
100
AcDbLine
 10
74.7985872396
 20
205.2278904359
 30
0.0
 11
74.6635412188
 21
206.7714685495
 31
0.0
  0
LINE
  5
E6
330
1F
100
AcDbEntity
  8
0
  6
Continuous
 62
     7
370
    25
100
AcDbLine
 10
271.7427567098
 20
205.2278904359
 30
0.0
 11
271.8778027312
 21
206.7714685558
 31
0.0
  0
LINE
  5
E7
330
1F
100
AcDbEntity
  8
0
  6
Continuous
 62
     7
370
    25
100
AcDbLine
 10
74.7985872396
 20
205.2278904359
 30
0.0
 11
271.7427567098
 21
205.2278904359
 31
0.0
  0
LINE
  5
E8
330
1F
100
AcDbEntity
  8
0
  6
Continuous
 62
     7
370
    25
100
AcDbLine
 10
271.7427567098
 20
245.2714598098
 30
0.0
 11
271.8778027306
 21
243.7278816963
 31
0.0
  0
LINE
  5
E9
330
1F
100
AcDbEntity
  8
0
  6
Continuous
 62
     7
370
    25
100
AcDbLine
 10
74.7985872396
 20
245.2714598098
 30
0.0
 11
74.6635412182
 21
243.72788169
 31
0.0
  0
LINE
  5
EA
330
1F
100
AcDbEntity
  8
0
  6
Continuous
 62
     7
370
    25
100
AcDbLine
 10
271.7427567098
 20
245.2714598098
 30
0.0
 11
74.7985872396
 21
245.2714598098
 31
0.0
  0
SPLINE
  5
EB
330
1F
100
AcDbEntity
  8
0
  6
Continuous
 62
     7
370
    25
100
AcDbSpline
210
0.0
220
0.0
230
1.0
 70
     8
 71
     3
 72
    12
 73
     8
 74
     0
 42
0.000000001
 43
0.00000001
 40
0.0
 40
0.0
 40
0.0
 40
0.0
 40
0.227323926917053
 40
0.454647839430895
 40
0.6819721477183758
 40
0.9092971724844483
 40
1.0
 40
1.0
 40
1.0
 40
1.0
 10
74.79858723960785
 20
245.2714598098167
 30
0.0
 10
74.80378963059724
 20
245.2992196158171
 30
0.0
 10
74.81419441224638
 20
245.3547392260589
 30
0.0
 10
74.86365882304065
 20
245.4255927602868
 30
0.0
 10
74.93178977773313
 20
245.4764798853451
 30
0.0
 10
74.99732690275053
 20
245.4976151299758
 30
0.0
 10
75.03647258409318
 20
245.499217982792
 30
0.0
 10
75.04763709046367
 20
245.4996751228867
 30
0.0
  0
LINE
  5
EC
330
1F
100
AcDbEntity
  8
0
  6
Continuous
 62
     7
370
    25
100
AcDbLine
 10
75.0476370905
 20
245.4996751229
 30
0.0
 11
271.4937068589
 21
245.4996751229
 31
0.0
  0
SPLINE
  5
ED
330
1F
100
AcDbEntity
  8
0
  6
Continuous
 62
     7
370
    25
100
AcDbSpline
210
0.0
220
0.0
230
1.0
 70
     8
 71
     3
 72
    12
 73
     8
 74
     0
 42
0.000000001
 43
0.00000001
 40
0.0
 40
0.0
 40
0.0
 40
0.0
 40
0.2273256599059352
 40
0.4546513313870668
 40
0.6819766687465002
 40
0.9093013075552476
 40
1.0
 40
1.0
 40
1.0
 40
1.0
 10
271.4937068589205
 20
245.4996751228851
 30
0.0
 10
271.5218146154879
 20
245.4969114695018
 30
0.0
 10
271.5780301300539
 20
245.4913841625944
 30
0.0
 10
271.6529249429034
 20
245.4482817496454
 30
0.0
 10
271.7095554975551
 20
245.3848438961996
 30
0.0
 10
271.7363207782212
 20
245.3213980640492
 30
0.0
 10
271.7413285249884
 20
245.2825415086211
 30
0.0
 10
271.7427567097762
 20
245.2714598098151
 30
0.0
  0
SPLINE
  5
EE
330
1F
100
AcDbEntity
  8
0
  6
Continuous
 62
     7
370
    25
100
AcDbSpline
210
0.0
220
0.0
230
1.0
 70
     8
 71
     3
 72
    12
 73
     8
 74
     0
 42
0.000000001
 43
0.00000001
 40
0.0
 40
0.0
 40
0.0
 40
0.0
 40
0.227323926968537
 40
0.4546478395338656
 40
0.6819721478726415
 40
0.9092971726901823
 40
1.0
 40
1.0
 40
1.0
 40
1.0
 10
271.742756709769
 20
205.2278904358716
 30
0.0
 10
271.7375543187703
 20
205.200130629873
 30
0.0
 10
271.7271495371025
 20
205.1446110196347
 30
0.0
 10
271.6776851262845
 20
205.0737574854234
 30
0.0
 10
271.609554171575
 20
205.0228703603875
 30
0.0
 10
271.5440170465777
 20
205.0017351157889
 30
0.0
 10
271.504871365263
 20
205.0001322629776
 30
0.0
 10
271.4937068589205
 20
204.9996751228851
 30
0.0
  0
LINE
  5
EF
330
1F
100
AcDbEntity
  8
0
  6
Continuous
 62
     7
370
    25
100
AcDbLine
 10
271.4937068589
 20
204.9996751229
 30
0.0
 11
75.0476370905
 21
204.9996751229
 31
0.0
  0
SPLINE
  5
F0
330
1F
100
AcDbEntity
  8
0
  6
Continuous
 62
     7
370
    25
100
AcDbSpline
210
0.0
220
0.0
230
1.0
 70
     8
 71
     3
 72
    12
 73
     8
 74
     0
 42
0.000000001
 43
0.00000001
 40
0.0
 40
0.0
 40
0.0
 40
0.0
 40
0.2273256599575052
 40
0.454651331490157
 40
0.6819766689010858
 40
0.9093013077613675
 40
1.0
 40
1.0
 40
1.0
 40
1.0
 10
75.04763709046374
 20
204.9996751228867
 30
0.0
 10
75.01952933389633
 20
205.0024387762701
 30
0.0
 10
74.96331381933027
 20
205.0079660831775
 30
0.0
 10
74.88841900648092
 20
205.0510684961265
 30
0.0
 10
74.83178845182871
 20
205.1145063495723
 30
0.0
 10
74.80502317117504
 20
205.1779521816963
 30
0.0
 10
74.80001542440215
 20
205.2168087370953
 30
0.0
 10
74.79858723961522
 20
205.2278904358732
 30
0.0
  0
SPLINE
  5
F1
330
1F
100
AcDbEntity
  8
0
  6
Continuous
 62
     7
370
    25
100
AcDbSpline
210
0.0
220
0.0
230
1.0
 70
    11
 71
     3
 72
    38
 73
    34
 74
     0
 42
0.000000001
 43
0.00000001
 40
0.0
 40
0.0
 40
0.0
 40
0.0
 40
0.068057733087163
 40
0.1361197239129583
 40
0.1988004247597818
 40
0.2198541091859567
 40
0.2401991208540089
 40
0.2473838575072424
 40
0.2513800014065954
 40
0.2553367474623368
 40
0.2601162935370119
 40
0.2606513494282078
 40
0.266056863249687
 40
0.2817667826218976
 40
0.3308113128890948
 40
0.3803573154664052
 40
0.4299169233153837
 40
0.5039803532182243
 40
0.577969136505159
 40
0.6144353363630912
 40
0.6508631722209504
 40
0.6753197183827653
 40
0.6997135151951079
 40
0.7246849364045153
 40
0.7400934163708368
 40
0.7513870777442466
 40
0.7626452704848196
 40
0.7788933945400499
 40
0.7953338992593852
 40
0.8339668968701694
 40
0.8731699738413427
 40
0.9124676364074156
 40
1.0
 40
1.0
 40
1.0
 40
1.0
 10
267.2782905603207
 20
208.9746038676209
 30
0.0
 10
267.7381051528029
 20
209.1174436044545
 30
0.0
 10
268.6577631040849
 20
209.4031320142737
 30
0.0
 10
269.7173369835206
 20
210.2967198200222
 30
0.0
 10
270.3781798692652
 20
211.2042881260108
 30
0.0
 10
270.7486372892265
 20
212.126149744938
 30
0.0
 10
270.9018294869129
 20
212.6870980121045
 30
0.0
 10
270.974713912486
 20
213.2502650573338
 30
0.0
 10
270.9944513090838
 20
213.588583562941
 30
0.0
 10
270.9954015398238
 20
213.8995127617399
 30
0.0
 10
270.9830981339467
 20
214.1088712326683
 30
0.0
 10
270.9640553891808
 20
214.3251755060768
 30
0.0
 10
270.9150439056619
 20
214.7154597756335
 30
0.0
 10
270.7028677907603
 20
215.5871591859467
 30
0.0
 10
270.2765274047149
 20
216.5781634360005
 30
0.0
 10
269.5954029199845
 20
217.3628769029515
 30
0.0
 10
268.6637690860832
 20
218.01763358545
 30
0.0
 10
267.3942326621405
 20
218.6096835230867
 30
0.0
 10
265.9861081293719
 20
218.6888182149989
 30
0.0
 10
264.7402997554169
 20
218.4175708048132
 30
0.0
 10
263.8703362461166
 20
218.013386708035
 30
0.0
 10
263.087988375318
 20
217.4471497514071
 30
0.0
 10
262.4195603614109
 20
216.7334537088433
 30
0.0
 10
261.8700708825766
 20
215.8300065209406
 30
0.0
 10
261.5475031373319
 20
214.8140711962869
 30
0.0
 10
261.4400653947193
 20
213.9240683114692
 30
0.0
 10
261.4866719642656
 20
212.9844124538315
 30
0.0
 10
261.7264441421659
 20
212.0549395622342
 30
0.0
 10
262.2781550370077
 20
210.9113800818749
 30
0.0
 10
263.1486763615556
 20
209.9573446716894
 30
0.0
 10
264.2139555499685
 20
209.2813174759992
 30
0.0
 10
265.6745222239377
 20
208.7963410360289
 30
0.0
 10
266.6234106007277
 20
208.9018123345164
 30
0.0
 10
267.2782905603207
 20
208.9746038676209
 30
0.0
  0
SPLINE
  5
F2
330
1F
100
AcDbEntity
  8
0
  6
Continuous
 62
     7
370
    25
100
AcDbSpline
210
0.0
220
0.0
230
1.0
 70
    11
 71
     3
 72
    40
 73
    36
 74
     0
 42
0.000000001
 43
0.00000001
 40
0.0
 40
0.0
 40
0.0
 40
0.0
 40
0.0402966565187868
 40
0.1102311526775271
 40
0.1799740475399774
 40
0.2052288568818745
 40
0.210756032308052
 40
0.2199923177276685
 40
0.2251432535057292
 40
0.2287236005583719
 40
0.2298433035613723
 40
0.2342897520455582
 40
0.2350750868149616
 40
0.2403907123562953
 40
0.2558549805152306
 40
0.3048678793380804
 40
0.3544062890026888
 40
0.4039611510474133
 40
0.4779840832134171
 40
0.551933536296878
 40
0.6052710360928018
 40
0.6351016995586611
 40
0.6648566551837565
 40
0.6941131964804608
 40
0.711260425013459
 40
0.722506177037527
 40
0.7329446113250874
 40
0.7351778229738093
 40
0.7478620317041439
 40
0.7641368967841861
 40
0.7920242554138981
 40
0.8331125290822251
 40
0.8743970293873669
 40
0.9371587227842082
 40
1.0
 40
1.0
 40
1.0
 40
1.0
 10
267.7988972839137
 20
232.120613388345
 30
0.0
 10
268.0594154154774
 20
232.2285102309115
 30
0.0
 10
268.7720604936684
 20
232.5236611033126
 30
0.0
 10
269.7389487598704
 20
233.2481587941041
 30
0.0
 10
270.4468085543017
 20
234.3073435604184
 30
0.0
 10
270.7914553300304
 20
235.2588927129344
 30
0.0
 10
270.9083698110031
 20
235.7859779846889
 30
0.0
 10
270.9601888755546
 20
236.1027383199854
 30
0.0
 10
270.9905474070491
 20
236.4818003404795
 30
0.0
 10
270.9952360913255
 20
236.7192092569451
 30
0.0
 10
270.9924291094968
 20
236.9362543145786
 30
0.0
 10
270.9848324547274
 20
237.0820860161971
 30
0.0
 10
270.9669724397522
 20
237.2985913598671
 30
0.0
 10
270.9191071309509
 20
237.6934179772389
 30
0.0
 10
270.7092819291468
 20
238.5718136598642
 30
0.0
 10
270.2854540514797
 20
239.5690207374881
 30
0.0
 10
269.6060461622426
 20
240.354378137337
 30
0.0
 10
268.676685079909
 20
241.009317535128
 30
0.0
 10
267.4098552288169
 20
241.6048254929711
 30
0.0
 10
265.8758472459315
 20
241.7006777854499
 30
0.0
 10
264.524319959687
 20
241.3516627936124
 30
0.0
 10
263.4992547788286
 20
240.7837566034877
 30
0.0
 10
262.685717968527
 20
240.0689348827773
 30
0.0
 10
262.0120315601222
 20
239.1310251121813
 30
0.0
 10
261.6109380601122
 20
238.0759056650556
 30
0.0
 10
261.4597871962168
 20
237.1998992088673
 30
0.0
 10
261.4538878408272
 20
236.6176534786304
 30
0.0
 10
261.5025763543047
 20
236.024028426978
 30
0.0
 10
261.6385496359689
 20
235.3290302398221
 30
0.0
 10
262.0451465461933
 20
234.3226025005237
 30
0.0
 10
262.7988679429054
 20
233.2816883950966
 30
0.0
 10
263.8149865799246
 20
232.473046476726
 30
0.0
 10
265.1089099861207
 20
231.9503723664488
 30
0.0
 10
266.4855493079858
 20
231.7735207369799
 30
0.0
 10
267.3609297407959
 20
232.0048669764734
 30
0.0
 10
267.7988972839137
 20
232.120613388345
 30
0.0
  0
SPLINE
  5
F3
330
1F
100
AcDbEntity
  8
0
  6
Continuous
 62
     7
370
    25
100
AcDbSpline
210
0.0
220
0.0
230
1.0
 70
     8
 71
     3
 72
    19
 73
    15
 74
     0
 42
0.000000001
 43
0.00000001
 40
0.0
 40
0.0
 40
0.0
 40
0.0
 40
0.0844892217743158
 40
0.1721476172445061
 40
0.2586130235370089
 40
0.2798647228382734
 40
0.3672738930418389
 40
0.4999303072313773
 40
0.5967122309485208
 40
0.6566119272576831
 40
0.7524857903287687
 40
0.8373134081297332
 40
0.9189902352656998
 40
1.0
 40
1.0
 40
1.0
 40
1.0
 10
73.9233921948182
 20
226.6244478313734
 30
0.0
 10
73.9203454659033
 20
226.6131972587625
 30
0.0
 10
73.91413772588542
 20
226.5902741068277
 30
0.0
 10
73.9208205579163
 20
226.4078153860831
 30
0.0
 10
73.93856620035557
 20
226.2096678466472
 30
0.0
 10
73.96577668134745
 20
225.9894034995194
 30
0.0
 10
74.01313706786438
 20
225.6953189974879
 30
0.0
 10
74.06796594620813
 20
225.2951193049263
 30
0.0
 10
74.0325101907341
 20
224.9291668784034
 30
0.0
 10
73.9818310520891
 20
224.6174691976401
 30
0.0
 10
73.94092146148898
 20
224.3288626280377
 30
0.0
 10
73.91993570112463
 20
224.0718681992703
 30
0.0
 10
73.91445674993277
 20
223.9058869080274
 30
0.0
 10
73.92042186609372
 20
223.8852023079813
 30
0.0
 10
73.92339219481758
 20
223.8749024144001
 30
0.0
  0
SPLINE
  5
F4
330
1F
100
AcDbEntity
  8
0
  6
Continuous
 62
     7
370
    25
100
AcDbSpline
210
0.0
220
0.0
230
1.0
 70
     8
 71
     3
 72
    45
 73
    41
 74
     0
 42
0.000000001
 43
0.00000001
 40
0.0
 40
0.0
 40
0.0
 40
0.0
 40
0.0207174526730593
 40
0.0416048340370704
 40
0.0630326713923563
 40
0.0846480873491378
 40
0.1061252868247359
 40
0.1277886638318436
 40
0.1500392361988086
 40
0.1724907931903122
 40
0.1937213715661955
 40
0.2151165572882592
 40
0.2370113776854711
 40
0.2590686858653017
 40
0.2802483299547967
 40
0.3018426625966777
 40
0.3235457426218729
 40
0.36755915278269
 40
0.4004133592309467
 40
0.4333815649389344
 40
0.4666471944518801
 40
0.5000364973899846
 40
0.5481236461290908
 40
0.5965791851009783
 40
0.6263896719521302
 40
0.6563035399592996
 40
0.679947240775774
 40
0.7037012278321486
 40
0.7278731502914981
 40
0.7522246489560185
 40
0.7730752181911348
 40
0.7940673400525015
 40
0.8155269687778723
 40
0.837157275045431
 40
0.8775453035631486
 40
0.8980663770348205
 40
0.9189105540368941
 40
0.9589630198054155
 40
0.9793195989805155
 40
0.9999999999999999
 40
0.9999999999999999
 40
0.9999999999999999
 40
0.9999999999999999
 10
272.6179517545658
 20
223.8749024143987
 30
0.0
 10
272.6188888173111
 20
223.8755196013429
 30
0.0
 10
272.6207706287778
 20
223.8767590375219
 30
0.0
 10
272.6227664532036
 20
223.8877222474386
 30
0.0
 10
272.624107725502
 20
223.9056197006842
 30
0.0
 10
272.6246624688665
 20
223.9311498249908
 30
0.0
 10
272.6243915446799
 20
223.9638442791995
 30
0.0
 10
272.6232284829965
 20
224.0037357826409
 30
0.0
 10
272.6210728400487
 20
224.0509058978301
 30
0.0
 10
272.6178769391124
 20
224.1040389053776
 30
0.0
 10
272.6136337929373
 20
224.1619794941785
 30
0.0
 10
272.6083048669088
 20
224.2241991482906
 30
0.0
 10
272.6016873584151
 20
224.2915185775155
 30
0.0
 10
272.5938060230912
 20
224.3623112456484
 30
0.0
 10
272.5846933702502
 20
224.4357332299068
 30
0.0
 10
272.574432830883
 20
224.5110658531747
 30
0.0
 10
272.5591165841448
 20
224.6154609495745
 30
0.0
 10
272.5399331206769
 20
224.7363331895637
 30
0.0
 10
272.5191306550021
 20
224.872826159446
 30
0.0
 10
272.5031981685216
 20
224.9970687700794
 30
0.0
 10
272.4923986274597
 20
225.1228429472561
 30
0.0
 10
272.4879843767864
 20
225.2683044709881
 30
0.0
 10
272.4952493724645
 20
225.433055813939
 30
0.0
 10
272.5141300875206
 20
225.5919480622005
 30
0.0
 10
272.5342892532764
 20
225.7265686787373
 30
0.0
 10
272.5504979542991
 20
225.8292603508088
 30
0.0
 10
272.5649344878185
 20
225.9231063662376
 30
0.0
 10
272.5772837435829
 20
226.0083473844551
 30
0.0
 10
272.5883767737296
 20
226.0920711351768
 30
0.0
 10
272.5975275032241
 20
226.1693443680549
 30
0.0
 10
272.604901011952
 20
226.2395485206986
 30
0.0
 10
272.6107821249126
 20
226.3029883473195
 30
0.0
 10
272.6155883974722
 20
226.3628242062953
 30
0.0
 10
272.6204192078931
 20
226.4341904445225
 30
0.0
 10
272.6232986370068
 20
226.4945235664199
 30
0.0
 10
272.6245025422279
 20
226.5425147671947
 30
0.0
 10
272.6246577563892
 20
226.5820973761526
 30
0.0
 10
272.623327515519
 20
226.6086983304419
 30
0.0
 10
272.6207434408836
 20
226.6226083147945
 30
0.0
 10
272.618887199192
 20
226.623831441957
 30
0.0
 10
272.6179517545664
 20
226.624447831372
 30
0.0
  0
LINE
  5
F5
330
1F
100
AcDbEntity
  8
0
  6
Continuous
 62
     7
370
    25
100
AcDbLine
 10
73.2709844752
 20
243.7996751229
 30
0.0
 11
73.2709844752
 21
243.4996751229
 31
0.0
  0
LINE
  5
F6
330
1F
100
AcDbEntity
  8
0
  6
Continuous
 62
     7
370
    25
100
AcDbLine
 10
73.2709844752
 20
243.7996751229
 30
0.0
 11
74.4144921387
 21
243.7996751229
 31
0.0
  0
SPLINE
  5
F7
330
1F
100
AcDbEntity
  8
0
  6
Continuous
 62
     7
370
    25
100
AcDbSpline
210
0.0
220
0.0
230
1.0
 70
     8
 71
     3
 72
    12
 73
     8
 74
     0
 42
0.000000001
 43
0.00000001
 40
0.0
 40
0.0
 40
0.0
 40
0.0
 40
0.2273293213968856
 40
0.4546586283690473
 40
0.6819883309306826
 40
0.9093187461903323
 40
1.0
 40
1.0
 40
1.0
 40
1.0
 10
74.66354121875429
 20
244.027881696332
 30
0.0
 10
74.65833785356037
 20
244.0001220718586
 30
0.0
 10
74.64793112350266
 20
243.9446028246734
 30
0.0
 10
74.59846422592251
 20
243.8737510370995
 30
0.0
 10
74.53033148519394
 20
243.8228662588528
 30
0.0
 10
74.46479646933459
 20
243.8017343650419
 30
0.0
 10
74.42565372122183
 20
243.8001320299222
 30
0.0
 10
74.414492138734
 20
243.7996751229223
 30
0.0
  0
LINE
  5
F8
330
1F
100
AcDbEntity
  8
0
  6
Continuous
 62
     7
370
    25
100
AcDbLine
 10
74.7985872396
 20
245.5714598099
 30
0.0
 11
74.6635412188
 21
244.0278816963
 31
0.0
  0
SPLINE
  5
F9
330
1F
100
AcDbEntity
  8
0
  6
Continuous
 62
     7
370
    25
100
AcDbSpline
210
0.0
220
0.0
230
1.0
 70
     8
 71
     3
 72
    12
 73
     8
 74
     0
 42
0.000000001
 43
0.00000001
 40
0.0
 40
0.0
 40
0.0
 40
0.0
 40
0.2273256599059239
 40
0.4546513313870806
 40
0.6819766687464466
 40
0.9093013075552522
 40
1.0
 40
1.0
 40
1.0
 40
1.0
 10
75.04763709046479
 20
245.7996751229215
 30
0.0
 10
75.01952933389737
 20
245.7969114695382
 30
0.0
 10
74.96331381933135
 20
245.7913841626308
 30
0.0
 10
74.8884190064819
 20
245.7482817496817
 30
0.0
 10
74.83178845183009
 20
245.6848438962359
 30
0.0
 10
74.8050231711641
 20
245.6213980640857
 30
0.0
 10
74.80001542439686
 20
245.5825415086575
 30
0.0
 10
74.798587239609
 20
245.5714598098515
 30
0.0
  0
SPLINE
  5
FA
330
1F
100
AcDbEntity
  8
0
  6
Continuous
 62
     7
370
    25
100
AcDbSpline
210
0.0
220
0.0
230
1.0
 70
     8
 71
     3
 72
    12
 73
     8
 74
     0
 42
0.000000001
 43
0.00000001
 40
0.0
 40
0.0
 40
0.0
 40
0.0
 40
0.227323926917053
 40
0.454647839430895
 40
0.6819721477183758
 40
0.9092971724844483
 40
1.0
 40
1.0
 40
1.0
 40
1.0
 10
271.7427567097774
 20
245.5714598098515
 30
0.0
 10
271.7375543187881
 20
245.5992196158518
 30
0.0
 10
271.7271495371389
 20
245.6547392260936
 30
0.0
 10
271.6776851263447
 20
245.7255927603215
 30
0.0
 10
271.6095541716522
 20
245.7764798853798
 30
0.0
 10
271.5440170466348
 20
245.7976151300105
 30
0.0
 10
271.5048713652922
 20
245.7992179828267
 30
0.0
 10
271.4937068589217
 20
245.7996751229215
 30
0.0
  0
LINE
  5
FB
330
1F
100
AcDbEntity
  8
0
  6
Continuous
 62
     7
370
    25
100
AcDbLine
 10
271.7427567098
 20
245.5714598099
 30
0.0
 11
271.8778027312
 21
244.0278816901
 31
0.0
  0
SPLINE
  5
FC
330
1F
100
AcDbEntity
  8
0
  6
Continuous
 62
     7
370
    25
100
AcDbSpline
210
0.0
220
0.0
230
1.0
 70
     8
 71
     3
 72
    12
 73
     8
 74
     0
 42
0.000000001
 43
0.00000001
 40
0.0
 40
0.0
 40
0.0
 40
0.0
 40
0.2273310441817127
 40
0.4546620996535392
 40
0.6819928278382126
 40
0.9093228635153962
 40
1.0
 40
1.0
 40
1.0
 40
1.0
 10
272.1268518106524
 20
243.7996751229206
 30
0.0
 10
272.0987440547683
 20
243.8024387761888
 30
0.0
 10
272.0425285416042
 20
243.8079660828623
 30
0.0
 10
271.9676337436107
 20
243.8510684951251
 30
0.0
 10
271.9110031460094
 20
243.9145063425929
 30
0.0
 10
271.8842391586749
 20
243.977949426954
 30
0.0
 10
271.8792308183417
 20
244.0168029318673
 30
0.0
 10
271.8778027311798
 20
244.0278816900726
 30
0.0
  0
LINE
  5
FD
330
1F
100
AcDbEntity
  8
0
  6
Continuous
 62
     7
370
    25
100
AcDbLine
 10
273.2703594742
 20
243.7996751229
 30
0.0
 11
272.1268518107
 21
243.7996751229
 31
0.0
  0
LINE
  5
FE
330
1F
100
AcDbEntity
  8
0
  6
Continuous
 62
     7
370
    25
100
AcDbLine
 10
273.2703594742
 20
243.7996751229
 30
0.0
 11
273.2703594742
 21
243.4996751229
 31
0.0
  0
CIRCLE
  5
FF
330
1F
100
AcDbEntity
  8
0
  6
Continuous
 62
     7
370
    25
100
AcDbCircle
 10
84.2706407291
 20
545.8858851189
 30
0.0
 40
3.825000000000007
  0
CIRCLE
  5
100
330
1F
100
AcDbEntity
  8
0
  6
Continuous
 62
     7
370
    25
100
AcDbCircle
 10
84.2706407291
 20
545.8858851189
 30
0.0
 40
4.250000000000036
  0
LINE
  5
101
330
1F
100
AcDbEntity
  8
0
  6
Continuous
 62
     7
370
    25
100
AcDbLine
 10
85.9614466688
 20
547.4589406279
 30
0.0
 11
86.4783497313
 21
545.2081319768
 31
0.0
  0
LINE
  5
102
330
1F
100
AcDbEntity
  8
0
  6
Continuous
 62
     7
370
    25
100
AcDbLine
 10
82.0629317269
 20
546.563638261
 30
0.0
 11
83.7537376666
 21
548.13669377
 31
0.0
  0
LINE
  5
103
330
1F
100
AcDbEntity
  8
0
  6
Continuous
 62
     7
370
    25
100
AcDbLine
 10
82.5798347895
 20
544.3128296099
 30
0.0
 11
82.0629317269
 21
546.563638261
 31
0.0
  0
LINE
  5
104
330
1F
100
AcDbEntity
  8
0
  6
Continuous
 62
     7
370
    25
100
AcDbLine
 10
84.7875437917
 20
543.6350764678
 30
0.0
 11
82.5798347895
 21
544.3128296099
 31
0.0
  0
LINE
  5
105
330
1F
100
AcDbEntity
  8
0
  6
Continuous
 62
     7
370
    25
100
AcDbLine
 10
86.4783497313
 20
545.2081319768
 30
0.0
 11
84.7875437917
 21
543.6350764678
 31
0.0
  0
LINE
  5
106
330
1F
100
AcDbEntity
  8
0
  6
Continuous
 62
     7
370
    25
100
AcDbLine
 10
83.7537376666
 20
548.13669377
 30
0.0
 11
85.9614466688
 21
547.4589406279
 31
0.0
  0
CIRCLE
  5
107
330
1F
100
AcDbEntity
  8
0
  6
Continuous
 62
     7
370
    25
100
AcDbCircle
 10
262.2706407291
 20
545.8858851189
 30
0.0
 40
3.824999999999985
  0
CIRCLE
  5
108
330
1F
100
AcDbEntity
  8
0
  6
Continuous
 62
     7
370
    25
100
AcDbCircle
 10
262.2706407291
 20
545.8858851189
 30
0.0
 40
4.249999999999958
  0
LINE
  5
109
330
1F
100
AcDbEntity
  8
0
  6
Continuous
 62
     7
370
    25
100
AcDbLine
 10
262.54278169
 20
548.1791944433
 30
0.0
 11
264.3927753432
 21
546.7968587957
 31
0.0
  0
LINE
  5
10A
330
1F
100
AcDbEntity
  8
0
  6
Continuous
 62
     7
370
    25
100
AcDbLine
 10
260.4206470759
 20
547.2682207666
 30
0.0
 11
262.54278169
 21
548.1791944433
 31
0.0
  0
LINE
  5
10B
330
1F
100
AcDbEntity
  8
0
  6
Continuous
 62
     7
370
    25
100
AcDbLine
 10
260.1485061151
 20
544.9749114422
 30
0.0
 11
260.4206470759
 21
547.2682207666
 31
0.0
  0
LINE
  5
10C
330
1F
100
AcDbEntity
  8
0
  6
Continuous
 62
     7
370
    25
100
AcDbLine
 10
261.9984997683
 20
543.5925757945
 30
0.0
 11
260.1485061151
 21
544.9749114422
 31
0.0
  0
LINE
  5
10D
330
1F
100
AcDbEntity
  8
0
  6
Continuous
 62
     7
370
    25
100
AcDbLine
 10
264.1206343824
 20
544.5035494712
 30
0.0
 11
261.9984997683
 21
543.5925757945
 31
0.0
  0
LINE
  5
10E
330
1F
100
AcDbEntity
  8
0
  6
Continuous
 62
     7
370
    25
100
AcDbLine
 10
264.3927753432
 20
546.7968587957
 30
0.0
 11
264.1206343824
 21
544.5035494712
 31
0.0
  0
CIRCLE
  5
10F
330
1F
100
AcDbEntity
  8
0
  6
Continuous
 62
     7
370
    25
100
AcDbCircle
 10
84.2706407291
 20
265.8858851189
 30
0.0
 40
3.824999999999943
  0
CIRCLE
  5
110
330
1F
100
AcDbEntity
  8
0
  6
Continuous
 62
     7
370
    25
100
AcDbCircle
 10
84.2706407291
 20
265.8858851189
 30
0.0
 40
4.249999999999982
  0
LINE
  5
111
330
1F
100
AcDbEntity
  8
0
  6
Continuous
 62
     7
370
    25
100
AcDbLine
 10
83.8471638531
 20
268.1561264487
 30
0.0
 11
86.0249889554
 21
267.3877475164
 31
0.0
  0
LINE
  5
112
330
1F
100
AcDbEntity
  8
0
  6
Continuous
 62
     7
370
    25
100
AcDbLine
 10
84.6941176052
 20
263.6156437891
 30
0.0
 11
82.5162925029
 21
264.3840227214
 31
0.0
  0
LINE
  5
113
330
1F
100
AcDbEntity
  8
0
  6
Continuous
 62
     7
370
    25
100
AcDbLine
 10
82.0928156268
 20
266.6542640512
 30
0.0
 11
83.8471638531
 21
268.1561264487
 31
0.0
  0
LINE
  5
114
330
1F
100
AcDbEntity
  8
0
  6
Continuous
 62
     7
370
    25
100
AcDbLine
 10
86.4484658315
 20
265.1175061866
 30
0.0
 11
84.6941176052
 21
263.6156437891
 31
0.0
  0
LINE
  5
115
330
1F
100
AcDbEntity
  8
0
  6
Continuous
 62
     7
370
    25
100
AcDbLine
 10
86.0249889554
 20
267.3877475164
 30
0.0
 11
86.4484658315
 21
265.1175061866
 31
0.0
  0
LINE
  5
116
330
1F
100
AcDbEntity
  8
0
  6
Continuous
 62
     7
370
    25
100
AcDbLine
 10
82.5162925029
 20
264.3840227214
 30
0.0
 11
82.0928156268
 21
266.6542640512
 31
0.0
  0
LINE
  5
117
330
1F
100
AcDbEntity
  8
0
  6
Continuous
 62
     7
370
    25
100
AcDbLine
 10
267.2432414533
 20
234.4891427856
 30
0.0
 11
265.0492782839
 21
235.2101517807
 31
0.0
  0
LINE
  5
118
330
1F
100
AcDbEntity
  8
0
  6
Continuous
 62
     7
370
    25
100
AcDbLine
 10
268.9646351442
 20
236.0286661278
 30
0.0
 11
267.2432414533
 21
234.4891427856
 31
0.0
  0
LINE
  5
119
330
1F
100
AcDbEntity
  8
0
  6
Continuous
 62
     7
370
    25
100
AcDbLine
 10
268.4920656655
 20
238.2891984651
 30
0.0
 11
268.9646351442
 21
236.0286661278
 31
0.0
  0
LINE
  5
11A
330
1F
100
AcDbEntity
  8
0
  6
Continuous
 62
     7
370
    25
100
AcDbLine
 10
266.2981024961
 20
239.0102074602
 30
0.0
 11
268.4920656655
 21
238.2891984651
 31
0.0
  0
LINE
  5
11B
330
1F
100
AcDbEntity
  8
0
  6
Continuous
 62
     7
370
    25
100
AcDbLine
 10
264.5767088052
 20
237.470684118
 30
0.0
 11
266.2981024961
 21
239.0102074602
 31
0.0
  0
LINE
  5
11C
330
1F
100
AcDbEntity
  8
0
  6
Continuous
 62
     7
370
    25
100
AcDbLine
 10
265.0492782839
 20
235.2101517807
 30
0.0
 11
264.5767088052
 21
237.470684118
 31
0.0
  0
CIRCLE
  5
11D
330
1F
100
AcDbEntity
  8
0
  6
Continuous
 62
     7
370
    25
100
AcDbCircle
 10
266.7706719747
 20
236.7496751229
 30
0.0
 40
3.825000000000069
  0
LINE
  5
11E
330
1F
100
AcDbEntity
  8
0
  6
Continuous
 62
     7
370
    25
100
AcDbLine
 10
263.1636952298
 20
268.0156226659
 30
0.0
 11
264.5615747985
 21
266.1773460078
 31
0.0
  0
CIRCLE
  5
11F
330
1F
100
AcDbEntity
  8
0
  6
Continuous
 62
     7
370
    25
100
AcDbCircle
 10
262.2706407291
 20
265.8858851189
 30
0.0
 40
3.825000000000039
  0
LINE
  5
120
330
1F
100
AcDbEntity
  8
0
  6
Continuous
 62
     7
370
    25
100
AcDbLine
 10
263.6685202979
 20
264.0476084609
 30
0.0
 11
261.3775862285
 21
263.756147572
 31
0.0
  0
LINE
  5
121
330
1F
100
AcDbEntity
  8
0
  6
Continuous
 62
     7
370
    25
100
AcDbLine
 10
264.5615747985
 20
266.1773460078
 30
0.0
 11
263.6685202979
 21
264.0476084609
 31
0.0
  0
LINE
  5
122
330
1F
100
AcDbEntity
  8
0
  6
Continuous
 62
     7
370
    25
100
AcDbLine
 10
259.9797066598
 20
265.59442423
 30
0.0
 11
260.8727611604
 21
267.7241617769
 31
0.0
  0
LINE
  5
123
330
1F
100
AcDbEntity
  8
0
  6
Continuous
 62
     7
370
    25
100
AcDbLine
 10
261.3775862285
 20
263.756147572
 30
0.0
 11
259.9797066598
 21
265.59442423
 31
0.0
  0
LINE
  5
124
330
1F
100
AcDbEntity
  8
0
  6
Continuous
 62
     7
370
    25
100
AcDbLine
 10
260.8727611604
 20
267.7241617769
 30
0.0
 11
263.1636952298
 21
268.0156226659
 31
0.0
  0
CIRCLE
  5
125
330
1F
100
AcDbEntity
  8
0
  6
Continuous
 62
     7
370
    25
100
AcDbCircle
 10
262.2706407291
 20
265.8858851189
 30
0.0
 40
4.250000000000043
  0
CIRCLE
  5
126
330
1F
100
AcDbEntity
  8
0
  6
Continuous
 62
     7
370
    25
100
AcDbCircle
 10
266.7706719747
 20
213.7496751229
 30
0.0
 40
3.825000000000038
  0
LINE
  5
127
330
1F
100
AcDbEntity
  8
0
  6
Continuous
 62
     7
370
    25
100
AcDbLine
 10
265.3663523303
 20
211.9163135393
 30
0.0
 11
264.4807744467
 21
214.0491708182
 31
0.0
  0
LINE
  5
128
330
1F
100
AcDbEntity
  8
0
  6
Continuous
 62
     7
370
    25
100
AcDbLine
 10
267.6562498582
 20
211.616817844
 30
0.0
 11
265.3663523303
 21
211.9163135393
 31
0.0
  0
LINE
  5
129
330
1F
100
AcDbEntity
  8
0
  6
Continuous
 62
     7
370
    25
100
AcDbLine
 10
269.0605695026
 20
213.4501794276
 30
0.0
 11
267.6562498582
 21
211.616817844
 31
0.0
  0
LINE
  5
12A
330
1F
100
AcDbEntity
  8
0
  6
Continuous
 62
     7
370
    25
100
AcDbLine
 10
268.1749916191
 20
215.5830367065
 30
0.0
 11
269.0605695026
 21
213.4501794276
 31
0.0
  0
LINE
  5
12B
330
1F
100
AcDbEntity
  8
0
  6
Continuous
 62
     7
370
    25
100
AcDbLine
 10
265.8850940912
 20
215.8825324018
 30
0.0
 11
268.1749916191
 21
215.5830367065
 31
0.0
  0
LINE
  5
12C
330
1F
100
AcDbEntity
  8
0
  6
Continuous
 62
     7
370
    25
100
AcDbLine
 10
264.4807744467
 20
214.0491708182
 30
0.0
 11
265.8850940912
 21
215.8825324018
 31
0.0
  0
SPLINE
  5
12D
330
1F
100
AcDbEntity
  8
0
  6
Continuous
 62
     7
370
    25
100
AcDbSpline
210
0.0
220
0.0
230
1.0
 70
    11
 71
     3
 72
    38
 73
    34
 74
     0
 42
0.000000001
 43
0.00000001
 40
0.0
 40
0.0
 40
0.0
 40
0.0
 40
0.0046342677879548
 40
0.0136853642929
 40
0.0227934174241891
 40
0.0310531681035834
 40
0.0451748086325173
 40
0.0633592670079668
 40
0.0816265980875488
 40
0.1393262099796369
 40
0.1972167325978039
 40
0.2609782536414619
 40
0.3246679742165264
 40
0.3814429747155938
 40
0.4100900898912848
 40
0.4386723103467262
 40
0.4683421977245214
 40
0.4926722469678883
 40
0.5006181678217207
 40
0.5203514579528284
 40
0.5400972773662098
 40
0.5635072205175766
 40
0.5973111501941293
 40
0.6254969740734878
 40
0.653746525535059
 40
0.7048677358759289
 40
0.7561009237193017
 40
0.8110322358342598
 40
0.8661316721057701
 40
0.9210191685424003
 40
0.9671211929003654
 40
0.985778344639992
 40
1.0
 40
1.0
 40
1.0
 40
1.0
 10
269.8582372602201
 20
547.3653896586976
 30
0.0
 10
269.8772845457495
 20
547.2548927007248
 30
0.0
 10
269.9335327068806
 20
546.9285863256279
 30
0.0
 10
269.9949313806842
 20
546.3082422409251
 30
0.0
 10
269.9976033623108
 20
545.5325569376214
 30
0.0
 10
269.9188821440653
 20
544.6703581753919
 30
0.0
 10
269.7290577505044
 20
543.7451017957304
 30
0.0
 10
269.4231761026521
 20
542.8362223368474
 30
0.0
 10
268.7673835111217
 20
541.4793226841155
 30
0.0
 10
267.6591948612266
 20
540.0398257774914
 30
0.0
 10
265.8979069709358
 20
538.7994056972299
 30
0.0
 10
263.783089293689
 20
537.9904701013049
 30
0.0
 10
261.3986667693585
 20
537.8687704090042
 30
0.0
 10
259.2800939523491
 20
538.41333661933
 30
0.0
 10
257.6232304363852
 20
539.349420636148
 30
0.0
 10
256.3843034220513
 20
540.4090249155387
 30
0.0
 10
255.2990508277798
 20
541.8374999619057
 30
0.0
 10
254.6750083513704
 20
543.2933189032765
 30
0.0
 10
254.3444867195616
 20
544.6745758137185
 30
0.0
 10
254.2199810703485
 20
546.0503463051326
 30
0.0
 10
254.456911151667
 20
547.846246096475
 30
0.0
 10
255.1668144092282
 20
549.7318262932121
 30
0.0
 10
256.2813685713004
 20
551.2640718990554
 30
0.0
 10
257.5640974620381
 20
552.3794264298227
 30
0.0
 10
259.1279509875583
 20
553.2821594509161
 30
0.0
 10
260.9870351095325
 20
553.829848001117
 30
0.0
 10
263.0743181433162
 20
553.8438125637978
 30
0.0
 10
265.0060316946427
 20
553.395417730131
 30
0.0
 10
266.7566578935515
 20
552.4566264266515
 30
0.0
 10
268.1891630384289
 20
551.1011143959887
 30
0.0
 10
269.1118307937151
 20
549.6714211745273
 30
0.0
 10
269.6277118443829
 20
548.3923757440658
 30
0.0
 10
269.788631722513
 20
547.6754809275072
 30
0.0
 10
269.8582372602201
 20
547.3653896586976
 30
0.0
  0
SPLINE
  5
12E
330
1F
100
AcDbEntity
  8
0
  6
Continuous
 62
     7
370
    25
100
AcDbSpline
210
0.0
220
0.0
230
1.0
 70
    11
 71
     3
 72
    37
 73
    33
 74
     0
 42
0.000000001
 43
0.00000001
 40
0.0
 40
0.0
 40
0.0
 40
0.0
 40
0.0116994238617516
 40
0.0477188633657696
 40
0.0782503501266246
 40
0.1088513870041203
 40
0.1644158221602875
 40
0.2200980095136188
 40
0.2750673366902907
 40
0.3301781316551474
 40
0.3849984660304832
 40
0.4220342771018985
 40
0.4375516318683011
 40
0.4532099716774901
 40
0.4617925355945383
 40
0.4703977763303131
 40
0.4814462709782737
 40
0.5010603552825976
 40
0.5195218085086761
 40
0.5739237697236769
 40
0.6285452607744942
 40
0.6819887214951217
 40
0.7355653844795498
 40
0.7888703304832794
 40
0.8258077465376357
 40
0.8626591349632262
 40
0.8972618739371158
 40
0.9267730880291553
 40
0.9476368245079861
 40
0.9686058764373372
 40
0.9872030551582425
 40
1.0
 40
1.0
 40
1.0
 40
1.0
 10
91.67133288728232
 20
542.8844099052981
 30
0.0
 10
91.55220097135415
 20
542.6196234938229
 30
0.0
 10
91.06629331591284
 20
541.5396295779171
 30
0.0
 10
89.99937453928072
 20
540.2320158473599
 30
0.0
 10
88.60889904428646
 20
539.136198932974
 30
0.0
 10
86.912600889546
 20
538.2931910449317
 30
0.0
 10
84.92377922199044
 20
537.8593853905963
 30
0.0
 10
82.78298607093474
 20
538.0364458364488
 30
0.0
 10
80.87973829507435
 20
538.6568677805697
 30
0.0
 10
79.21232711525101
 20
539.7459503026854
 30
0.0
 10
77.94581728950877
 20
541.210356299912
 30
0.0
 10
77.16717937875671
 20
542.6584061260487
 30
0.0
 10
76.76726720363177
 20
543.9195375129004
 30
0.0
 10
76.5904637889324
 20
544.8667066777244
 30
0.0
 10
76.53638662000476
 20
545.8027420904277
 30
0.0
 10
76.56675512686625
 20
546.6209905283467
 30
0.0
 10
76.70882439616828
 20
547.6224077187728
 30
0.0
 10
76.98597238271566
 20
548.5883524010043
 30
0.0
 10
77.60276897728869
 20
550.0207237114084
 30
0.0
 10
78.63011104446657
 20
551.464637373739
 30
0.0
 10
80.17679972367
 20
552.6768906138334
 30
0.0
 10
81.9471136092255
 20
553.5308084574056
 30
0.0
 10
83.91514288901959
 20
553.9069349849264
 30
0.0
 10
85.85360288537416
 20
553.7504080988109
 30
0.0
 10
87.6714129006288
 20
553.1607099234734
 30
0.0
 10
89.24779010303234
 20
552.2129786218505
 30
0.0
 10
90.66764467504576
 20
550.8081704985526
 30
0.0
 10
91.6817380226675
 20
549.0698448250375
 30
0.0
 10
92.2187874452644
 20
547.2016872577626
 30
0.0
 10
92.30785015762264
 20
545.4337929356982
 30
0.0
 10
92.06510973525715
 20
543.9568661524719
 30
0.0
 10
91.78536363569913
 20
543.1949740970185
 30
0.0
 10
91.67133288728232
 20
542.8844099052981
 30
0.0
  0
SPLINE
  5
12F
330
1F
100
AcDbEntity
  8
0
  6
Continuous
 62
     7
370
    25
100
AcDbSpline
210
0.0
220
0.0
230
1.0
 70
    11
 71
     3
 72
    37
 73
    33
 74
     0
 42
0.000000001
 43
0.00000001
 40
0.0
 40
0.0
 40
0.0
 40
0.0
 40
0.0116994238617513
 40
0.0477188633657683
 40
0.0782503501266248
 40
0.1088513870041208
 40
0.1644158221602879
 40
0.2200980095136192
 40
0.2750673366902906
 40
0.330178131655146
 40
0.3849984660304814
 40
0.4220342771018952
 40
0.4375516318683026
 40
0.4532099716774928
 40
0.4617925355945414
 40
0.4703977763303155
 40
0.481446270978275
 40
0.5010603552826006
 40
0.5195218085086749
 40
0.5739237697236753
 40
0.6285452607744916
 40
0.6819887214951191
 40
0.7355653844795486
 40
0.7888703304832783
 40
0.8258077465376354
 40
0.8626591349632265
 40
0.8972618739371182
 40
0.9267730880291553
 40
0.9476368245079867
 40
0.9686058764373409
 40
0.9872030551582412
 40
1.0
 40
1.0
 40
1.0
 40
1.0
 10
91.6713328872823
 20
262.884409905298
 30
0.0
 10
91.55220097135415
 20
262.6196234938229
 30
0.0
 10
91.06629331591286
 20
261.5396295779173
 30
0.0
 10
89.99937453928061
 20
260.2320158473598
 30
0.0
 10
88.60889904428653
 20
259.1361989329739
 30
0.0
 10
86.91260088954594
 20
258.2931910449313
 30
0.0
 10
84.92377922199047
 20
257.8593853905962
 30
0.0
 10
82.7829860709347
 20
258.0364458364488
 30
0.0
 10
80.87973829507442
 20
258.6568677805693
 30
0.0
 10
79.21232711525114
 20
259.7459503026852
 30
0.0
 10
77.94581728950878
 20
261.2103562999118
 30
0.0
 10
77.16717937875706
 20
262.6584061260481
 30
0.0
 10
76.7672672036317
 20
263.9195375129004
 30
0.0
 10
76.59046378893241
 20
264.8667066777244
 30
0.0
 10
76.53638662000473
 20
265.8027420904278
 30
0.0
 10
76.56675512686627
 20
266.6209905283467
 30
0.0
 10
76.70882439616827
 20
267.6224077187726
 30
0.0
 10
76.98597238271559
 20
268.5883524010043
 30
0.0
 10
77.60276897728882
 20
270.0207237114079
 30
0.0
 10
78.63011104446656
 20
271.464637373739
 30
0.0
 10
80.17679972367002
 20
272.6768906138333
 30
0.0
 10
81.94711360922555
 20
273.5308084574056
 30
0.0
 10
83.9151428890196
 20
273.9069349849261
 30
0.0
 10
85.85360288537431
 20
273.7504080988109
 30
0.0
 10
87.67141290062888
 20
273.1607099234732
 30
0.0
 10
89.2477901030325
 20
272.2129786218506
 30
0.0
 10
90.66764467504574
 20
270.8081704985521
 30
0.0
 10
91.6817380226677
 20
269.0698448250374
 30
0.0
 10
92.21878744526448
 20
267.2016872577624
 30
0.0
 10
92.30785015762268
 20
265.4337929356979
 30
0.0
 10
92.06510973525708
 20
263.9568661524718
 30
0.0
 10
91.78536363569913
 20
263.1949740970185
 30
0.0
 10
91.67133288728232
 20
262.8844099052981
 30
0.0
  0
SPLINE
  5
130
330
1F
100
AcDbEntity
  8
0
  6
Continuous
 62
     7
370
    25
100
AcDbSpline
210
0.0
220
0.0
230
1.0
 70
    11
 71
     3
 72
    38
 73
    34
 74
     0
 42
0.000000001
 43
0.00000001
 40
0.0
 40
0.0
 40
0.0
 40
0.0
 40
0.004634267787934
 40
0.0136853642928806
 40
0.0227934174241743
 40
0.0310531681035685
 40
0.0451748086324972
 40
0.0633592670079281
 40
0.0816265980874929
 40
0.1393262099795327
 40
0.1972167325976511
 40
0.260978253641265
 40
0.3246679742162865
 40
0.3814429747154768
 40
0.4100900898912286
 40
0.4386723103467308
 40
0.468342197724527
 40
0.4926722469678915
 40
0.500618167821705
 40
0.5203514579528139
 40
0.5400972773661988
 40
0.5635072205175606
 40
0.5973111501941084
 40
0.6254969740734622
 40
0.6537465255350284
 40
0.7048677358758874
 40
0.7561009237192494
 40
0.8110322358342053
 40
0.8661316721057108
 40
0.9210191685423391
 40
0.9671211929003299
 40
0.9857783446399662
 40
1.0
 40
1.0
 40
1.0
 40
1.0
 10
269.8582372602202
 20
267.3653896586969
 30
0.0
 10
269.8772845457496
 20
267.2548927007246
 30
0.0
 10
269.9335327068807
 20
266.9285863256283
 30
0.0
 10
269.9949313806842
 20
266.3082422409258
 30
0.0
 10
269.997603362311
 20
265.532556937622
 30
0.0
 10
269.9188821440654
 20
264.6703581753924
 30
0.0
 10
269.7290577505047
 20
263.7451017957314
 30
0.0
 10
269.4231761026526
 20
262.8362223368489
 30
0.0
 10
268.7673835111229
 20
261.4793226841177
 30
0.0
 10
267.6591948612291
 20
260.0398257774941
 30
0.0
 10
265.8979069709403
 20
258.7994056972322
 30
0.0
 10
263.7830892936959
 20
257.9904701013065
 30
0.0
 10
261.3986667693658
 20
257.8687704090034
 30
0.0
 10
259.2800939523548
 20
258.4133366193275
 30
0.0
 10
257.6232304363872
 20
259.3494206361462
 30
0.0
 10
256.3843034220514
 20
260.4090249155378
 30
0.0
 10
255.2990508277792
 20
261.8374999619062
 30
0.0
 10
254.6750083513704
 20
263.2933189032767
 30
0.0
 10
254.3444867195615
 20
264.6745758137183
 30
0.0
 10
254.2199810703484
 20
266.0503463051318
 30
0.0
 10
254.4569111516668
 20
267.8462460964743
 30
0.0
 10
255.166814409228
 20
269.731826293211
 30
0.0
 10
256.2813685712998
 20
271.2640718990546
 30
0.0
 10
257.5640974620372
 20
272.3794264298219
 30
0.0
 10
259.127950987557
 20
273.2821594509158
 30
0.0
 10
260.987035109531
 20
273.8298480011165
 30
0.0
 10
263.0743181433145
 20
273.8438125637977
 30
0.0
 10
265.0060316946409
 20
273.3954177301313
 30
0.0
 10
266.7566578935501
 20
272.4566264266526
 30
0.0
 10
268.1891630384276
 20
271.10111439599
 30
0.0
 10
269.1118307937144
 20
269.671421174529
 30
0.0
 10
269.6277118443828
 20
268.3923757440665
 30
0.0
 10
269.788631722513
 20
267.6754809275071
 30
0.0
 10
269.8582372602202
 20
267.3653896586969
 30
0.0
  0
LINE
  5
131
330
1F
100
AcDbEntity
  8
0
  6
Continuous
 62
     7
370
    25
100
AcDbLine
 10
273.2688407129
 20
556.3926156436
 30
0.0
 11
273.2688407129
 21
255.3791545942
 31
0.0
  0
SPLINE
  5
132
330
1F
100
AcDbEntity
  8
0
  6
Continuous
 62
     7
370
    25
100
AcDbSpline
210
0.0
220
0.0
230
1.0
 70
     8
 71
     3
 72
    12
 73
     8
 74
     0
 42
0.000000001
 43
0.00000001
 40
0.0
 40
0.0
 40
0.0
 40
0.0
 40
0.2195726163197168
 40
0.4391480952739852
 40
0.658667036522994
 40
0.8781852168061268
 40
1.0
 40
1.0
 40
1.0
 40
1.0
 10
273.2252470755089
 20
252.8806775266958
 30
0.0
 10
273.2329735352724
 20
252.9180860380324
 30
0.0
 10
273.2484265555316
 20
252.9929035484118
 30
0.0
 10
273.2608825476725
 20
253.4497001360586
 30
0.0
 10
273.2669447203993
 20
254.103361129278
 30
0.0
 10
273.2686419522225
 20
254.7884790998487
 30
0.0
 10
273.2687884359049
 20
255.2237981063737
 30
0.0
 10
273.2688407129478
 20
255.3791545942437
 30
0.0
  0
SPLINE
  5
133
330
1F
100
AcDbEntity
  8
0
  6
Continuous
 62
     7
370
    25
100
AcDbSpline
210
0.0
220
0.0
230
1.0
 70
     8
 71
     3
 72
    12
 73
     8
 74
     0
 42
0.000000001
 43
0.00000001
 40
0.0
 40
0.0
 40
0.0
 40
0.0
 40
0.2195379647745956
 40
0.4390761957676809
 40
0.6586056759299437
 40
0.8781181439305171
 40
0.9999999999999999
 40
0.9999999999999999
 40
0.9999999999999999
 40
0.9999999999999999
 10
73.2724407453484
 20
255.3791545942435
 30
0.0
 10
73.27258795209165
 20
255.0980986041758
 30
0.0
 10
73.2728823657567
 20
254.5359862832229
 30
0.0
 10
73.27634314324305
 20
253.7869204567618
 30
0.0
 10
73.28511202695611
 20
253.2212564953332
 30
0.0
 10
73.29910512343493
 20
252.9343239902047
 30
0.0
 10
73.31158051781387
 20
252.8947912040752
 30
0.0
 10
73.31603438278731
 20
252.8806775266958
 30
0.0
  0
LINE
  5
134
330
1F
100
AcDbEntity
  8
0
  6
Continuous
 62
     7
370
    25
100
AcDbLine
 10
73.2724407453
 20
255.3791545942
 30
0.0
 11
73.2724407453
 21
556.3926156436
 31
0.0
  0
SPLINE
  5
135
330
1F
100
AcDbEntity
  8
0
  6
Continuous
 62
     7
370
    25
100
AcDbSpline
210
0.0
220
0.0
230
1.0
 70
     8
 71
     3
 72
    12
 73
     8
 74
     0
 42
0.000000001
 43
0.00000001
 40
0.0
 40
0.0
 40
0.0
 40
0.0
 40
0.2195726163197118
 40
0.4391480952740164
 40
0.6586670365229538
 40
0.8781852168060796
 40
1.0
 40
1.0
 40
1.0
 40
1.0
 10
73.31603438278721
 20
558.8910927111491
 30
0.0
 10
73.30830792302368
 20
558.8536841998126
 30
0.0
 10
73.2928549027644
 20
558.7788666894336
 30
0.0
 10
73.28039891062389
 20
558.3220701017863
 30
0.0
 10
73.27433673789669
 20
557.6684091085674
 30
0.0
 10
73.27263950607367
 20
556.9832911379966
 30
0.0
 10
73.2724930223913
 20
556.5479721314715
 30
0.0
 10
73.27244074534832
 20
556.3926156436015
 30
0.0
  0
SPLINE
  5
136
330
1F
100
AcDbEntity
  8
0
  6
Continuous
 62
     7
370
    25
100
AcDbSpline
210
0.0
220
0.0
230
1.0
 70
     8
 71
     3
 72
    12
 73
     8
 74
     0
 42
0.000000001
 43
0.00000001
 40
0.0
 40
0.0
 40
0.0
 40
0.0
 40
0.2195379647746324
 40
0.4390761957677526
 40
0.6586056759299559
 40
0.8781181439305107
 40
0.9999999999999999
 40
0.9999999999999999
 40
0.9999999999999999
 40
0.9999999999999999
 10
273.2688407129478
 20
556.3926156435986
 30
0.0
 10
273.2686935062046
 20
556.6736716336665
 30
0.0
 10
273.2683990925395
 20
557.2357839546193
 30
0.0
 10
273.2649383150531
 20
557.9848497810806
 30
0.0
 10
273.2561694313401
 20
558.5505137425087
 30
0.0
 10
273.2421763348613
 20
558.8374462476373
 30
0.0
 10
273.2297009404824
 20
558.8769790337668
 30
0.0
 10
273.2252470755089
 20
558.8910927111461
 30
0.0
  0
ELLIPSE
  5
137
330
1F
100
AcDbEntity
  8
0
  6
Continuous
 62
     7
370
    25
100
AcDbEllipse
 10
173.2706407291
 20
252.9858851189
 30
0.0
 11
100.0
 21
5.684341886080801E-14
 31
0.0
210
0.0
220
0.0
230
1.0
 40
0.0349207695
 41
3.171724725660082
 42
6.253053235110074
  0
ELLIPSE
  5
138
330
1F
100
AcDbEntity
  8
0
  6
Continuous
 62
     7
370
    25
100
AcDbEllipse
 10
173.2706407291
 20
558.7858851189
 30
0.0
 11
100.0000000000001
 21
-1.477928890381009E-12
 31
0.0
210
0.0
220
0.0
230
1.0
 40
0.0349207695
 41
0.0301320720703112
 42
3.111460581519484
  0
SPLINE
  5
139
330
1F
100
AcDbEntity
  8
0
  6
Continuous
 62
     7
370
    25
100
AcDbSpline
210
0.0
220
0.0
230
1.0
 70
    11
 71
     3
 72
    37
 73
    33
 74
     0
 42
0.000000001
 43
0.00000001
 40
0.0
 40
0.0
 40
0.0
 40
0.0
 40
0.0124766227895877
 40
0.0304887968137056
 40
0.050748586966701
 40
0.0710386255585198
 40
0.1000659263189742
 40
0.1344660508054974
 40
0.171433714145788
 40
0.2084857841595794
 40
0.2623145323760239
 40
0.3163967848333269
 40
0.3703587509935696
 40
0.4254284600125721
 40
0.480293151449969
 40
0.4987359933598486
 40
0.518106713231537
 40
0.5288187439400271
 40
0.5370572201107014
 40
0.545287663646879
 40
0.5605582513419625
 40
0.5759414158806943
 40
0.6130634443199587
 40
0.668440834965595
 40
0.7240827317497522
 40
0.7795957960578668
 40
0.8357200831786341
 40
0.8917310618845814
 40
0.9223429659857196
 40
0.9528858205200915
 40
0.988528354811626
 40
1.0
 40
1.0
 40
1.0
 40
1.0
 10
91.61290356149979
 20
543.0636929740726
 30
0.0
 10
91.71982344900073
 20
543.3551772913526
 30
0.0
 10
91.98110078184445
 20
544.067469894391
 30
0.0
 10
92.21054920226092
 20
545.4585273594432
 30
0.0
 10
92.12595283020158
 20
547.1294025683397
 30
0.0
 10
91.61852090886183
 20
548.889952710765
 30
0.0
 10
90.66476740812604
 20
550.5206312908081
 30
0.0
 10
89.33442471709691
 20
551.8340227580261
 30
0.0
 10
87.86034202504715
 20
552.717485276055
 30
0.0
 10
86.15996397523402
 20
553.2626965923872
 30
0.0
 10
84.3517248081097
 20
553.4017147225088
 30
0.0
 10
82.52073762561332
 20
553.0394339930423
 30
0.0
 10
80.88027188670631
 20
552.2313474218766
 30
0.0
 10
79.45076829212094
 20
551.0961852736569
 30
0.0
 10
78.50386076004597
 20
549.7469439749559
 30
0.0
 10
77.93518039340303
 20
548.4077316289741
 30
0.0
 10
77.68071327100323
 20
547.5122395482138
 30
0.0
 10
77.54885002157519
 20
546.5756973873833
 30
0.0
 10
77.52051903432617
 20
545.807796532343
 30
0.0
 10
77.57103268203922
 20
544.9282761497903
 30
0.0
 10
77.73445120157264
 20
544.0477306345164
 30
0.0
 10
78.10227602285231
 20
542.872562088693
 30
0.0
 10
78.81991867014725
 20
541.5219236115822
 30
0.0
 10
79.98831328049049
 20
540.1494235339669
 30
0.0
 10
81.53238476842014
 20
539.1252247432097
 30
0.0
 10
83.29917130545671
 20
538.5379998174726
 30
0.0
 10
85.29236127051965
 20
538.3603636287477
 30
0.0
 10
87.14902100396728
 20
538.7591481816501
 30
0.0
 10
88.73830297894496
 20
539.5440731043477
 30
0.0
 10
90.03804562953366
 20
540.5673140134938
 30
0.0
 10
91.04132281636431
 20
541.7919963960436
 30
0.0
 10
91.50098277619333
 20
542.8146830469611
 30
0.0
 10
91.6129035614998
 20
543.0636929740726
 30
0.0
  0
SPLINE
  5
13A
330
1F
100
AcDbEntity
  8
0
  6
Continuous
 62
     7
370
    25
100
AcDbSpline
210
0.0
220
0.0
230
1.0
 70
    11
 71
     3
 72
    37
 73
    33
 74
     0
 42
0.000000001
 43
0.00000001
 40
0.0
 40
0.0
 40
0.0
 40
0.0
 40
0.0124766227895856
 40
0.0304887968137069
 40
0.0507485869666984
 40
0.0710386255585202
 40
0.1000659263189708
 40
0.1344660508054966
 40
0.1714337141457876
 40
0.2084857841595782
 40
0.262314532376024
 40
0.3163967848333285
 40
0.3703587509935728
 40
0.4254284600125735
 40
0.4802931514499685
 40
0.4987359933598473
 40
0.5181067132315335
 40
0.5288187439400268
 40
0.5370572201106965
 40
0.5452876636468792
 40
0.5605582513419637
 40
0.5759414158806929
 40
0.6130634443199596
 40
0.668440834965596
 40
0.7240827317497518
 40
0.7795957960578663
 40
0.8357200831786337
 40
0.8917310618845797
 40
0.9223429659857181
 40
0.9528858205200907
 40
0.9885283548116235
 40
1.0
 40
1.0
 40
1.0
 40
1.0
 10
91.61290356149989
 20
263.0636929740726
 30
0.0
 10
91.71982344900081
 20
263.3551772913524
 30
0.0
 10
91.98110078184446
 20
264.067469894391
 30
0.0
 10
92.21054920226105
 20
265.4585273594433
 30
0.0
 10
92.1259528302015
 20
267.1294025683397
 30
0.0
 10
91.61852090886195
 20
268.889952710765
 30
0.0
 10
90.66476740812584
 20
270.5206312908075
 30
0.0
 10
89.33442471709714
 20
271.8340227580262
 30
0.0
 10
87.86034202504719
 20
272.7174852760548
 30
0.0
 10
86.15996397523396
 20
273.2626965923873
 30
0.0
 10
84.35172480810971
 20
273.4017147225086
 30
0.0
 10
82.52073762561318
 20
273.039433993042
 30
0.0
 10
80.88027188670627
 20
272.2313474218762
 30
0.0
 10
79.4507682921209
 20
271.0961852736564
 30
0.0
 10
78.5038607600463
 20
269.7469439749556
 30
0.0
 10
77.93518039340297
 20
268.4077316289738
 30
0.0
 10
77.68071327100313
 20
267.5122395482137
 30
0.0
 10
77.54885002157532
 20
266.5756973873831
 30
0.0
 10
77.5205190343263
 20
265.8077965323428
 30
0.0
 10
77.57103268203913
 20
264.92827614979
 30
0.0
 10
77.7344512015726
 20
264.0477306345159
 30
0.0
 10
78.10227602285237
 20
262.8725620886929
 30
0.0
 10
78.8199186701472
 20
261.521923611582
 30
0.0
 10
79.98831328049047
 20
260.1494235339666
 30
0.0
 10
81.53238476842013
 20
259.1252247432096
 30
0.0
 10
83.29917130545674
 20
258.5379998174724
 30
0.0
 10
85.29236127051962
 20
258.3603636287476
 30
0.0
 10
87.14902100396733
 20
258.7591481816498
 30
0.0
 10
88.73830297894497
 20
259.5440731043475
 30
0.0
 10
90.03804562953353
 20
260.5673140134941
 30
0.0
 10
91.04132281636457
 20
261.7919963960433
 30
0.0
 10
91.50098277619345
 20
262.8146830469609
 30
0.0
 10
91.61290356149988
 20
263.0636929740726
 30
0.0
  0
SPLINE
  5
13B
330
1F
100
AcDbEntity
  8
0
  6
Continuous
 62
     7
370
    25
100
AcDbSpline
210
0.0
220
0.0
230
1.0
 70
    11
 71
     3
 72
    38
 73
    34
 74
     0
 42
0.000000001
 43
0.00000001
 40
0.0
 40
0.0
 40
0.0
 40
0.0
 40
0.0140112744128841
 40
0.0423915478815741
 40
0.0709364866569014
 40
0.0789943338287459
 40
0.1622207096176612
 40
0.245501629355626
 40
0.2971031862305332
 40
0.3485966666792877
 40
0.376820001108698
 40
0.4049796885729907
 40
0.4383750336397704
 40
0.4612241345515412
 40
0.480329854144285
 40
0.4994070475682489
 40
0.50712336898604
 40
0.5309223184950607
 40
0.5602662705889093
 40
0.5888285397909919
 40
0.6174555576118029
 40
0.6745746509602181
 40
0.7389027980396722
 40
0.8032999393113414
 40
0.8617030315016234
 40
0.919928807168298
 40
0.9381457151368637
 40
0.9562799187282268
 40
0.9700963551712583
 40
0.9780491690145705
 40
0.9867589359474666
 40
0.9954850913308769
 40
1.0
 40
1.0
 40
1.0
 40
1.0
 10
268.8860985556853
 20
547.2635164041346
 30
0.0
 10
268.8217328872669
 20
547.5515411746754
 30
0.0
 10
268.6269925492871
 20
548.4229691041886
 30
0.0
 10
268.1803390117369
 20
549.4314250970536
 30
0.0
 10
267.7222884403142
 20
550.1488689422129
 30
0.0
 10
266.8156392383308
 20
551.3349574861701
 30
0.0
 10
265.2847578267092
 20
552.6194345175861
 30
0.0
 10
262.9463714072588
 20
553.338780093656
 30
0.0
 10
260.6604076787858
 20
553.3368847401689
 30
0.0
 10
258.9238242170254
 20
552.8304210177776
 30
0.0
 10
257.4579233656809
 20
551.9882087388543
 30
0.0
 10
256.2585656405557
 20
550.9464901909962
 30
0.0
 10
255.2126996900705
 20
549.5128566420462
 30
0.0
 10
254.5424532915515
 20
547.737324856752
 30
0.0
 10
254.3180500805881
 20
546.0413653954691
 30
0.0
 10
254.4357571522372
 20
544.744031313553
 30
0.0
 10
254.7467426166719
 20
543.4432428417444
 30
0.0
 10
255.3361711370583
 20
542.070883022844
 30
0.0
 10
256.354163318123
 20
540.7336222737703
 30
0.0
 10
257.5133582961541
 20
539.7434405632041
 30
0.0
 10
259.0655450702029
 20
538.870626762189
 30
0.0
 10
261.0450845511286
 20
538.3689982324216
 30
0.0
 10
263.2661467482923
 20
538.4937678664211
 30
0.0
 10
265.2287553526818
 20
539.2621084372674
 30
0.0
 10
266.8580907671412
 20
540.4251824888194
 30
0.0
 10
267.8794974333908
 20
541.7723607065681
 30
0.0
 10
268.4848147162536
 20
543.0396763260077
 30
0.0
 10
268.7653521728909
 20
543.8843413735477
 30
0.0
 10
268.9408491731403
 20
544.7472052613108
 30
0.0
 10
269.0139321820732
 20
545.5542444629899
 30
0.0
 10
269.0114553413005
 20
546.2824099004494
 30
0.0
 10
268.9547535130982
 20
546.8594459999928
 30
0.0
 10
268.9035558286413
 20
547.1607712040155
 30
0.0
 10
268.8860985556853
 20
547.2635164041346
 30
0.0
  0
SPLINE
  5
13C
330
1F
100
AcDbEntity
  8
0
  6
Continuous
 62
     7
370
    25
100
AcDbSpline
210
0.0
220
0.0
230
1.0
 70
    11
 71
     3
 72
    38
 73
    34
 74
     0
 42
0.000000001
 43
0.00000001
 40
0.0
 40
0.0
 40
0.0
 40
0.0
 40
0.0140112744129057
 40
0.042391547881551
 40
0.0709364866568335
 40
0.0789943338288039
 40
0.1622207096177151
 40
0.245501629355675
 40
0.2971031862305715
 40
0.3485966666793158
 40
0.3768200011087194
 40
0.4049796885730069
 40
0.4383750336397814
 40
0.4612241345515491
 40
0.4803298541442932
 40
0.4994070475682563
 40
0.5071233689860317
 40
0.5309223184950511
 40
0.5602662705888999
 40
0.5888285397910448
 40
0.6174555576119183
 40
0.6745746509604562
 40
0.7389027980398659
 40
0.8032999393114908
 40
0.8617030315017229
 40
0.9199288071683481
 40
0.9381457151368974
 40
0.9562799187282452
 40
0.9700963551712708
 40
0.9780491690145866
 40
0.9867589359474829
 40
0.9954850913308916
 40
1.0
 40
1.0
 40
1.0
 40
1.0
 10
268.8860985556854
 20
267.2635164041344
 30
0.0
 10
268.8217328872668
 20
267.5515411746755
 30
0.0
 10
268.626992549287
 20
268.4229691041879
 30
0.0
 10
268.1803390117373
 20
269.4314250970522
 30
0.0
 10
267.7222884403145
 20
270.1488689422122
 30
0.0
 10
266.8156392383303
 20
271.3349574861701
 30
0.0
 10
265.2847578267078
 20
272.6194345175865
 30
0.0
 10
262.9463714072573
 20
273.3387800936562
 30
0.0
 10
260.6604076787844
 20
273.3368847401684
 30
0.0
 10
258.9238242170242
 20
272.8304210177771
 30
0.0
 10
257.4579233656801
 20
271.9882087388534
 30
0.0
 10
256.2585656405553
 20
270.9464901909952
 30
0.0
 10
255.2126996900701
 20
269.5128566420455
 30
0.0
 10
254.5424532915513
 20
267.7373248567513
 30
0.0
 10
254.3180500805881
 20
266.0413653954683
 30
0.0
 10
254.4357571522373
 20
264.744031313553
 30
0.0
 10
254.7467426166716
 20
263.4432428417446
 30
0.0
 10
255.336171137058
 20
262.0708830228446
 30
0.0
 10
256.3541633181232
 20
260.7336222737694
 30
0.0
 10
257.5133582961561
 20
259.7434405632023
 30
0.0
 10
259.0655450702083
 20
258.8706267621867
 30
0.0
 10
261.0450845511355
 20
258.3689982324209
 30
0.0
 10
263.2661467482986
 20
258.4937678664227
 30
0.0
 10
265.2287553526861
 20
259.2621084372698
 30
0.0
 10
266.8580907671436
 20
260.4251824888216
 30
0.0
 10
267.8794974333922
 20
261.7723607065697
 30
0.0
 10
268.4848147162542
 20
263.0396763260089
 30
0.0
 10
268.7653521728911
 20
263.8843413735485
 30
0.0
 10
268.9408491731403
 20
264.7472052613116
 30
0.0
 10
269.0139321820731
 20
265.5542444629908
 30
0.0
 10
269.0114553413005
 20
266.2824099004504
 30
0.0
 10
268.9547535130981
 20
266.8594459999929
 30
0.0
 10
268.9035558286413
 20
267.1607712040155
 30
0.0
 10
268.8860985556854
 20
267.2635164041344
 30
0.0
  0
CIRCLE
  5
13D
330
1F
100
AcDbEntity
  8
0
  6
Continuous
 62
     7
370
    25
100
AcDbCircle
 10
84.2706407291
 20
265.8858851189
 30
0.0
 40
6.2263756430565
  0
CIRCLE
  5
13E
330
1F
100
AcDbEntity
  8
0
  6
Continuous
 62
     7
370
    25
100
AcDbCircle
 10
84.2706407291
 20
545.8858851189
 30
0.0
 40
6.2263756430565
  0
CIRCLE
  5
13F
330
1F
100
AcDbEntity
  8
0
  6
Continuous
 62
     7
370
    25
100
AcDbCircle
 10
262.2706407291
 20
545.8858851189
 30
0.0
 40
6.226375643056542
  0
CIRCLE
  5
140
330
1F
100
AcDbEntity
  8
0
  6
Continuous
 62
     7
370
    25
100
AcDbCircle
 10
262.2706407291
 20
265.8858851189
 30
0.0
 40
6.226375643056542
  0
CIRCLE
  5
141
330
1F
100
AcDbEntity
  8
0
  6
Continuous
 62
     7
370
    25
100
AcDbCircle
 10
262.2706407291
 20
545.8858851189
 30
0.0
 40
5.726680229546901
  0
CIRCLE
  5
142
330
1F
100
AcDbEntity
  8
0
  6
Continuous
 62
     7
370
    25
100
AcDbCircle
 10
84.2706407291
 20
545.8858851189
 30
0.0
 40
5.726680229546957
  0
CIRCLE
  5
143
330
1F
100
AcDbEntity
  8
0
  6
Continuous
 62
     7
370
    25
100
AcDbCircle
 10
262.2706407291
 20
265.8858851189
 30
0.0
 40
5.726680229546901
  0
CIRCLE
  5
144
330
1F
100
AcDbEntity
  8
0
  6
Continuous
 62
     7
370
    25
100
AcDbCircle
 10
84.2706407291
 20
265.8858851189
 30
0.0
 40
5.726680229546957
  0
SPLINE
  5
145
330
1F
100
AcDbEntity
  8
0
  6
Continuous
 62
     7
370
    25
100
AcDbSpline
210
0.0
220
0.0
230
1.0
 70
     8
 71
     3
 72
    11
 73
     7
 74
     0
 42
0.000000001
 43
0.00000001
 40
0.0
 40
0.0
 40
0.0
 40
0.0
 40
0.006909362612675
 40
0.4122230476987624
 40
0.7521572126928647
 40
1.0
 40
1.0
 40
1.0
 40
1.0
 10
273.2704727721012
 20
559.6938367576605
 30
0.0
 10
273.2704740986601
 20
559.693168547253
 30
0.0
 10
273.2705532431717
 20
559.6533021013646
 30
0.0
 10
273.2706500481845
 20
559.5802083180907
 30
0.0
 10
273.270673058015
 20
559.4618194020957
 30
0.0
 10
273.2706722960039
 20
559.3812980993422
 30
0.0
 10
273.2706719746932
 20
559.3473453830375
 30
0.0
  0
ELLIPSE
  5
146
330
1F
100
AcDbEntity
  8
0
  6
Continuous
 62
     7
370
    25
100
AcDbEllipse
 10
173.2706719747
 20
559.6868804846
 30
0.0
 11
100.0
 21
0.0
 31
0.0
210
0.0
220
0.0
230
1.0
 40
0.034850928
 41
0.0019960093093674
 42
3.139596644280355
  0
SPLINE
  5
147
330
1F
100
AcDbEntity
  8
0
  6
Continuous
 62
     7
370
    25
100
AcDbSpline
210
0.0
220
0.0
230
1.0
 70
     8
 71
     3
 72
    11
 73
     7
 74
     0
 42
0.000000001
 43
0.00000001
 40
0.0
 40
0.0
 40
0.0
 40
0.0
 40
0.2478427873070867
 40
0.5877769523011224
 40
0.9930906373872304
 40
1.0
 40
1.0
 40
1.0
 40
1.0
 10
73.2706719746932
 20
559.3473453830375
 30
0.0
 10
73.2706716533826
 20
559.3812980993422
 30
0.0
 10
73.27067089137144
 20
559.4618194020956
 30
0.0
 10
73.27069390120177
 20
559.5802083180912
 30
0.0
 10
73.27079070621527
 20
559.6533021013632
 30
0.0
 10
73.27086985072637
 20
559.6931685472531
 30
0.0
 10
73.27087117728522
 20
559.6938367576607
 30
0.0
  0
LINE
  5
148
330
1F
100
AcDbEntity
  8
0
  6
Continuous
 62
     7
370
    25
100
AcDbLine
 10
73.2706719747
 20
559.347345383
 30
0.0
 11
73.2706719747
 21
252.4244248543
 31
0.0
  0
SPLINE
  5
149
330
1F
100
AcDbEntity
  8
0
  6
Continuous
 62
     7
370
    25
100
AcDbSpline
210
0.0
220
0.0
230
1.0
 70
     8
 71
     3
 72
    11
 73
     7
 74
     0
 42
0.000000001
 43
0.00000001
 40
0.0
 40
0.0
 40
0.0
 40
0.0
 40
0.0069093626111423
 40
0.4122230476990392
 40
0.7521572126929565
 40
1.0
 40
1.0
 40
1.0
 40
1.0
 10
73.27087117729268
 20
252.0779334797095
 30
0.0
 10
73.27086985073385
 20
252.0786016901172
 30
0.0
 10
73.27079070622226
 20
252.1184681360169
 30
0.0
 10
73.27069390120938
 20
252.1915619192752
 30
0.0
 10
73.27067089137893
 20
252.3099508352754
 30
0.0
 10
73.27067165339002
 20
252.3904721380283
 30
0.0
 10
73.2706719747006
 20
252.424424854333
 30
0.0
  0
ELLIPSE
  5
14A
330
1F
100
AcDbEntity
  8
0
  6
Continuous
 62
     7
370
    25
100
AcDbEllipse
 10
173.2706719747
 20
252.0848897528
 30
0.0
 11
100.0
 21
0.0
 31
0.0
210
0.0
220
0.0
230
1.0
 40
0.034850928
 41
3.143588662899606
 42
6.281189297870718
  0
SPLINE
  5
14B
330
1F
100
AcDbEntity
  8
0
  6
Continuous
 62
     7
370
    25
100
AcDbSpline
210
0.0
220
0.0
230
1.0
 70
     8
 71
     3
 72
    11
 73
     7
 74
     0
 42
0.000000001
 43
0.00000001
 40
0.0
 40
0.0
 40
0.0
 40
0.0
 40
0.2478427873072573
 40
0.587776952301468
 40
0.9930906373897145
 40
0.9999999999999999
 40
0.9999999999999999
 40
0.9999999999999999
 40
0.9999999999999999
 10
273.2706719747006
 20
252.424424854333
 30
0.0
 10
273.2706722960112
 20
252.3904721380282
 30
0.0
 10
273.2706730580226
 20
252.3099508352751
 30
0.0
 10
273.2706500481919
 20
252.1915619192771
 30
0.0
 10
273.2705532431792
 20
252.1184681360121
 30
0.0
 10
273.2704740986675
 20
252.0786016901175
 30
0.0
 10
273.2704727721087
 20
252.07793347971
 30
0.0
  0
LINE
  5
14C
330
1F
100
AcDbEntity
  8
0
  6
Continuous
 62
     7
370
    25
100
AcDbLine
 10
273.2706719747
 20
252.4244248543
 30
0.0
 11
273.2706719747
 21
559.347345383
 31
0.0
  0
LINE
  5
14D
330
1F
100
AcDbEntity
  8
0
  6
Continuous
 62
     7
370
    25
100
AcDbLine
 10
173.2706719747
 20
245.7996751229
 30
0.0
 11
73.2706719747
 21
245.7996751229
 31
0.0
  0
LINE
  5
14E
330
1F
100
AcDbEntity
  8
0
  6
Continuous
 62
     7
370
    25
100
AcDbLine
 10
273.2706719747
 20
245.7996751229
 30
0.0
 11
173.2706719747
 21
245.7996751229
 31
0.0
  0
SPLINE
  5
14F
330
1F
100
AcDbEntity
  8
0
  6
Continuous
 62
     7
370
    25
100
AcDbSpline
210
0.0
220
0.0
230
1.0
 70
     8
 71
     3
 72
    12
 73
     8
 74
     0
 42
0.000000001
 43
0.00000001
 40
0.0
 40
0.0
 40
0.0
 40
0.0
 40
0.1417734453224305
 40
0.3566145455376025
 40
0.5712143675137428
 40
0.7856411463925951
 40
1.0
 40
1.0
 40
1.0
 40
1.0
 10
73.27087117728522
 20
559.6938367576607
 30
0.0
 10
73.27184475175737
 20
559.6790283217052
 30
0.0
 10
73.27429366464895
 20
559.6417794303745
 30
0.0
 10
73.2982835925876
 20
559.5854506142266
 30
0.0
 10
73.34350277517865
 20
559.5346523542582
 30
0.0
 10
73.40341392480806
 20
559.500135470485
 30
0.0
 10
73.44837059979814
 20
559.4957109139916
 30
0.0
 10
73.47084537642952
 20
559.4934989861988
 30
0.0
  0
SPLINE
  5
150
330
1F
100
AcDbEntity
  8
0
  6
Continuous
 62
     7
370
    25
100
AcDbSpline
210
0.0
220
0.0
230
1.0
 70
     8
 71
     3
 72
    12
 73
     8
 74
     0
 42
0.000000001
 43
0.00000001
 40
0.0
 40
0.0
 40
0.0
 40
0.0
 40
0.2143588536073582
 40
0.4287856324865175
 40
0.6433854544624487
 40
0.8582265546775715
 40
1.0
 40
1.0
 40
1.0
 40
1.0
 10
273.0704985729569
 20
559.4934989861987
 30
0.0
 10
273.0929733495882
 20
559.4957109139915
 30
0.0
 10
273.1379300245783
 20
559.500135470485
 30
0.0
 10
273.1978411742078
 20
559.5346523542581
 30
0.0
 10
273.2430603567987
 20
559.5854506142266
 30
0.0
 10
273.2670502847375
 20
559.6417794303744
 30
0.0
 10
273.269499197629
 20
559.679028321705
 30
0.0
 10
273.2704727721012
 20
559.6938367576605
 30
0.0
  0
ELLIPSE
  5
151
330
1F
100
AcDbEntity
  8
0
  6
Continuous
 62
     7
370
    25
100
AcDbEllipse
 10
173.2706719747
 20
559.4870023192
 30
0.0
 11
99.79999999999998
 21
0.0
 31
0.0
210
0.0
220
0.0
230
1.0
 40
0.0349207695
 41
0.0018641313533364
 42
3.139728522236418
  0
SPLINE
  5
152
330
1F
100
AcDbEntity
  8
0
  6
Continuous
 62
     7
370
    25
100
AcDbSpline
210
0.0
220
0.0
230
1.0
 70
     8
 71
     3
 72
    12
 73
     8
 74
     0
 42
0.000000001
 43
0.00000001
 40
0.0
 40
0.0
 40
0.0
 40
0.0
 40
0.2143588536070248
 40
0.4287856324864224
 40
0.643385454461717
 40
0.8582265546767068
 40
1.0
 40
1.0
 40
1.0
 40
1.0
 10
73.470845376437
 20
252.2782712511715
 30
0.0
 10
73.44837059980563
 20
252.2760593233786
 30
0.0
 10
73.40341392481552
 20
252.271634766885
 30
0.0
 10
73.34350277518617
 20
252.2371178831123
 30
0.0
 10
73.29828359259524
 20
252.1863196231436
 30
0.0
 10
73.2742936646562
 20
252.1299908069959
 30
0.0
 10
73.27184475176477
 20
252.0927419156651
 30
0.0
 10
73.27087117729269
 20
252.0779334797095
 30
0.0
  0
ELLIPSE
  5
153
330
1F
100
AcDbEntity
  8
0
  6
Continuous
 62
     7
370
    25
100
AcDbEllipse
 10
173.2706719747
 20
252.2847679182
 30
0.0
 11
99.79999999999998
 21
0.0
 31
0.0
210
0.0
220
0.0
230
1.0
 40
0.0349207695
 41
3.14345678494358
 42
6.281321175826602
  0
SPLINE
  5
154
330
1F
100
AcDbEntity
  8
0
  6
Continuous
 62
     7
370
    25
100
AcDbSpline
210
0.0
220
0.0
230
1.0
 70
     8
 71
     3
 72
    12
 73
     8
 74
     0
 42
0.000000001
 43
0.00000001
 40
0.0
 40
0.0
 40
0.0
 40
0.0
 40
0.141773445321948
 40
0.356614545537107
 40
0.5712143675129406
 40
0.7856411463920604
 40
1.0
 40
1.0
 40
1.0
 40
1.0
 10
273.2704727721087
 20
252.07793347971
 30
0.0
 10
273.2694991976365
 20
252.0927419156654
 30
0.0
 10
273.267050284745
 20
252.1299908069961
 30
0.0
 10
273.2430603568062
 20
252.1863196231436
 30
0.0
 10
273.1978411742152
 20
252.2371178831121
 30
0.0
 10
273.1379300245858
 20
252.2716347668851
 30
0.0
 10
273.0929733495957
 20
252.2760593233787
 30
0.0
 10
273.0704985729643
 20
252.2782712511715
 30
0.0
  0
LINE
  5
155
330
1F
100
AcDbEntity
  8
0
  6
Continuous
 62
     7
370
    25
100
AcDbLine
 10
271.1960930795
 20
559.4934989862
 30
0.0
 11
273.070498573
 21
559.4934989862
 31
0.0
  0
LINE
  5
156
330
1F
100
AcDbEntity
  8
0
  6
Continuous
 62
     7
370
    25
100
AcDbLine
 10
73.4708453764
 20
559.4934989862
 30
0.0
 11
75.3451883788
 21
559.4934989862
 31
0.0
  0
LINE
  5
157
330
1F
100
AcDbEntity
  8
0
  6
Continuous
 62
     7
370
    25
100
AcDbLine
 10
75.3451883816
 20
252.2782712512
 30
0.0
 11
73.4708453764
 21
252.2782712512
 31
0.0
  0
LINE
  5
158
330
1F
100
AcDbEntity
  8
0
  6
Continuous
 62
     7
370
    25
100
AcDbLine
 10
273.070498573
 20
252.2782712512
 30
0.0
 11
271.1960930767
 21
252.2782712512
 31
0.0
  0
SPLINE
  5
159
330
1F
100
AcDbEntity
  8
0
  6
Continuous
 62
     7
370
    25
100
AcDbSpline
210
0.0
220
0.0
230
1.0
 70
     8
 71
     3
 72
    12
 73
     8
 74
     0
 42
0.000000001
 43
0.00000001
 40
0.0
 40
0.0
 40
0.0
 40
0.0
 40
0.2208373887279658
 40
0.4416527303291432
 40
0.6623246591803729
 40
0.882965061474942
 40
1.0
 40
1.0
 40
1.0
 40
1.0
 10
130.680192578684
 20
245.6066550222655
 30
0.0
 10
130.6144456941659
 20
245.6073280662816
 30
0.0
 10
130.4829584889183
 20
245.6086740871209
 30
0.0
 10
130.1839823165695
 20
245.6094720855601
 30
0.0
 10
129.8512751011695
 20
245.6092137141303
 30
0.0
 10
129.5629963322786
 20
245.6081071134226
 30
0.0
 10
129.4069509385952
 20
245.6070287666177
 30
0.0
 10
129.35286714612
 20
245.606655022264
 30
0.0
  0
LWPOLYLINE
  5
15A
330
1F
100
AcDbEntity
  8
0
  6
Continuous
 62
     7
370
    25
100
AcDbPolyline
 90
        9
 70
   128
 43
0.0
 10
129.3528671461
 20
245.6066550223
 10
129.3505546818
 20
245.6446653338
 10
129.344933161
 20
245.6810224515
 10
129.3362091501
 20
245.7143904102
 10
129.3247032183
 20
245.743543083
 10
129.3108381585
 20
245.7674092365
 10
129.2951234511
 20
245.7851118938
 10
129.2781365428
 20
245.7960005596
 10
129.2605016285
 20
245.7996751229
  0
ARC
  5
15B
330
1F
100
AcDbEntity
  8
0
  6
Continuous
 62
     7
370
    25
100
AcDbCircle
 10
130.8670512431
 20
245.6132085146
 30
0.0
 40
0.1869735509271586
100
AcDbArc
 50
94.2201228498
 51
182.0086497421
  0
SPLINE
  5
15C
330
1F
100
AcDbEntity
  8
0
  6
Continuous
 62
     7
370
    25
100
AcDbSpline
210
0.0
220
0.0
230
1.0
 70
     8
 71
     3
 72
    12
 73
     8
 74
     0
 42
0.000000001
 43
0.00000001
 40
0.0
 40
0.0
 40
0.0
 40
0.0
 40
0.2208373887574813
 40
0.441652730758944
 40
0.6623246611107141
 40
0.8829650626914334
 40
0.9999999999999999
 40
0.9999999999999999
 40
0.9999999999999999
 40
0.9999999999999999
 10
217.1884768031416
 20
245.606655022265
 30
0.0
 10
217.0836962709583
 20
245.6073280590124
 30
0.0
 10
216.8741456670979
 20
245.6086740653162
 30
0.0
 10
216.5288880672723
 20
245.6094720800865
 30
0.0
 10
216.2111648494748
 20
245.6092137288606
 30
0.0
 10
215.9870646116447
 20
245.6081071316311
 30
0.0
 10
215.8935593653958
 20
245.6070287713038
 30
0.0
 10
215.8611513705782
 20
245.606655022265
 30
0.0
  0
ARC
  5
15D
330
1F
100
AcDbEntity
  8
0
  6
Continuous
 62
     7
370
    25
100
AcDbCircle
 10
215.6742927061
 20
245.6132085146
 30
0.0
 40
0.1869735509269331
100
AcDbArc
 50
357.9913502579
 51
85.7798771504
  0
LWPOLYLINE
  5
15E
330
1F
100
AcDbEntity
  8
0
  6
Continuous
 62
     7
370
    25
100
AcDbPolyline
 90
        9
 70
   128
 43
0.0
 10
217.1884768031
 20
245.6066550223
 10
217.1907892675
 20
245.6446653338
 10
217.1964107883
 20
245.6810224515
 10
217.2051347992
 20
245.7143904102
 10
217.2166407309
 20
245.743543083
 10
217.2305057907
 20
245.7674092365
 10
217.2462204982
 20
245.7851118938
 10
217.2632074064
 20
245.7960005596
 10
217.2808423208
 20
245.7996751229
  0
LINE
  5
15F
330
1F
100
AcDbEntity
  8
0
  6
Continuous
 62
     7
370
    25
100
AcDbLine
 10
224.3018316004
 20
245.6066550223
 30
0.0
 11
217.1884768031
 21
245.6066550223
 31
0.0
  0
LWPOLYLINE
  5
160
330
1F
100
AcDbEntity
  8
0
  6
Continuous
 62
     7
370
    25
100
AcDbPolyline
 90
        9
 70
   128
 43
0.0
 10
224.3018316004
 20
245.6066550223
 10
224.304518614
 20
245.6446653338
 10
224.311050651
 20
245.6810224515
 10
224.3211876875
 20
245.7143904102
 10
224.3345572319
 20
245.743543083
 10
224.3506680116
 20
245.7674092365
 10
224.3689280259
 20
245.7851118938
 10
224.388666299
 20
245.7960005596
 10
224.4091575356
 20
245.7996751229
  0
LINE
  5
161
330
1F
100
AcDbEntity
  8
0
  6
Continuous
 62
     7
370
    25
100
AcDbLine
 10
129.3528671461
 20
245.6066550223
 30
0.0
 11
122.2395123488
 21
245.6066550223
 31
0.0
  0
LWPOLYLINE
  5
162
330
1F
100
AcDbEntity
  8
0
  6
Continuous
 62
     7
370
    25
100
AcDbPolyline
 90
        9
 70
   128
 43
0.0
 10
122.2395123488
 20
245.6066550223
 10
122.2368253353
 20
245.6446653338
 10
122.2302932983
 20
245.6810224515
 10
122.2201562617
 20
245.7143904102
 10
122.2067867174
 20
245.743543083
 10
122.1906759377
 20
245.7674092365
 10
122.1724159234
 20
245.7851118938
 10
122.1526776503
 20
245.7960005596
 10
122.1321864137
 20
245.7996751229
  0
LINE
  5
163
330
1F
100
AcDbEntity
  8
0
  6
Continuous
 62
     7
370
    25
100
AcDbLine
 10
215.8611513706
 20
245.6066550223
 30
0.0
 11
215.3213755328
 21
245.6066550223
 31
0.0
  0
ARC
  5
164
330
1F
100
AcDbEntity
  8
0
  6
Continuous
 62
     7
370
    25
100
AcDbCircle
 10
215.1345168684
 20
245.6132085146
 30
0.0
 40
0.1869735509275971
100
AcDbArc
 50
357.991350258
 51
85.7798771502
  0
LINE
  5
165
330
1F
100
AcDbEntity
  8
0
  6
Continuous
 62
     7
370
    25
100
AcDbLine
 10
131.2199684164
 20
245.6066550223
 30
0.0
 11
130.6801925787
 21
245.6066550223
 31
0.0
  0
ARC
  5
166
330
1F
100
AcDbEntity
  8
0
  6
Continuous
 62
     7
370
    25
100
AcDbCircle
 10
131.4068270809
 20
245.6132085146
 30
0.0
 40
0.1869735509270328
100
AcDbArc
 50
94.2201228497
 51
182.0086497421
  0
ARC
  5
167
330
1F
100
AcDbEntity
  8
0
  6
Continuous
 62
     7
370
    25
100
AcDbCircle
 10
160.9629946136
 20
244.7996751229
 30
0.0
 40
1.0
100
AcDbArc
 50
44.427003998
 51
90.0
  0
ARC
  5
168
330
1F
100
AcDbEntity
  8
0
  6
Continuous
 62
     7
370
    25
100
AcDbCircle
 10
185.5783493358
 20
244.7996751229
 30
0.0
 40
1.0
100
AcDbArc
 50
90.0
 51
135.572996002
  0
ARC
  5
169
330
1F
100
AcDbEntity
  8
0
  6
Continuous
 62
     7
370
    25
100
AcDbCircle
 10
81.5979301876
 20
245.5997785708
 30
0.0
 40
0.1998965729157465
100
AcDbArc
 50
90.0261317263
 51
178.0286335651
  0
SPLINE
  5
16A
330
1F
100
AcDbEntity
  8
0
  6
Continuous
 62
     7
370
    25
100
AcDbSpline
210
0.0
220
0.0
230
1.0
 70
     8
 71
     3
 72
    12
 73
     8
 74
     0
 42
0.000000001
 43
0.00000001
 40
0.0
 40
0.0
 40
0.0
 40
0.0
 40
0.2089883328669204
 40
0.4179521706541284
 40
0.6267542311377707
 40
0.8354987839465158
 40
1.0
 40
1.0
 40
1.0
 40
1.0
 10
81.3981519247912
 20
245.6066550222625
 30
0.0
 10
81.39206340339412
 20
245.6073961331769
 30
0.0
 10
81.3798870742227
 20
245.6088782681418
 30
0.0
 10
81.2208520354069
 20
245.6098583797317
 30
0.0
 10
80.97736018366768
 20
245.6097350081758
 30
0.0
 10
80.68836947709416
 20
245.6085985421824
 30
0.0
 10
80.48801778673041
 20
245.6072495609567
 30
0.0
 10
80.39971645968879
 20
245.6066550222625
 30
0.0
  0
LINE
  5
16B
330
1F
100
AcDbEntity
  8
0
  6
Continuous
 62
     7
370
    25
100
AcDbLine
 10
80.3997164597
 20
245.7996751229
 30
0.0
 11
80.3997164597
 21
245.6066550223
 31
0.0
  0
SPLINE
  5
16C
330
1F
100
AcDbEntity
  8
0
  6
Continuous
 62
     7
370
    25
100
AcDbSpline
210
0.0
220
0.0
230
1.0
 70
     8
 71
     3
 72
    12
 73
     8
 74
     0
 42
0.000000001
 43
0.00000001
 40
0.0
 40
0.0
 40
0.0
 40
0.0
 40
0.2089883327390509
 40
0.4179521709492293
 40
0.6267542336557524
 40
0.8354987858788122
 40
1.0
 40
1.0
 40
1.0
 40
1.0
 10
266.141627489689
 20
245.606655022261
 30
0.0
 10
266.029204584689
 20
245.6073961232603
 30
0.0
 10
265.8043719512432
 20
245.6088782383981
 30
0.0
 10
265.5047094325032
 20
245.6098583688564
 30
0.0
 10
265.2789169229952
 20
245.6097350247036
 30
0.0
 10
265.1529853829032
 20
245.6085985699407
 30
0.0
 10
265.1461878932624
 20
245.6072495694451
 30
0.0
 10
265.1431920245889
 20
245.606655022261
 30
0.0
  0
LINE
  5
16D
330
1F
100
AcDbEntity
  8
0
  6
Continuous
 62
     7
370
    25
100
AcDbLine
 10
266.1416274897
 20
245.6066550223
 30
0.0
 11
266.1416274897
 21
245.7996751229
 31
0.0
  0
SPLINE
  5
16E
330
1F
100
AcDbEntity
  8
0
  6
Continuous
 62
     7
370
    25
100
AcDbSpline
210
0.0
220
0.0
230
1.0
 70
     8
 71
     3
 72
    12
 73
     8
 74
     0
 42
0.000000001
 43
0.00000001
 40
0.0
 40
0.0
 40
0.0
 40
0.0
 40
0.2208373887280074
 40
0.4416527303292634
 40
0.6623246591803096
 40
0.8829650614749189
 40
1.0
 40
1.0
 40
1.0
 40
1.0
 10
79.3201647842154
 20
245.6066550222625
 30
0.0
 10
79.20775281336483
 20
245.6073280662786
 30
0.0
 10
78.98294009422426
 20
245.6086740871181
 30
0.0
 10
78.68339597546758
 20
245.6094720855563
 30
0.0
 10
78.45728960505345
 20
245.6092137141275
 30
0.0
 10
78.3439466653054
 20
245.6081071134196
 30
0.0
 10
78.32743151009609
 20
245.6070287666147
 30
0.0
 10
78.32170752039059
 20
245.606655022261
 30
0.0
  0
ARC
  5
16F
330
1F
100
AcDbEntity
  8
0
  6
Continuous
 62
     7
370
    25
100
AcDbCircle
 10
78.1219269791
 20
245.5997762115
 30
0.0
 40
0.1998989312666538
100
AcDbArc
 50
1.9720197966
 51
89.9744651086
  0
LINE
  5
170
330
1F
100
AcDbEntity
  8
0
  6
Continuous
 62
     7
370
    25
100
AcDbLine
 10
79.3201647842
 20
245.6066550223
 30
0.0
 11
79.3201647842
 21
245.7996751229
 31
0.0
  0
ARC
  5
171
330
1F
100
AcDbEntity
  8
0
  6
Continuous
 62
     7
370
    25
100
AcDbCircle
 10
268.4194169703
 20
245.5997762115
 30
0.0
 40
0.1998989312695169
100
AcDbArc
 50
90.0255348922
 51
178.0279802022
  0
SPLINE
  5
172
330
1F
100
AcDbEntity
  8
0
  6
Continuous
 62
     7
370
    25
100
AcDbSpline
210
0.0
220
0.0
230
1.0
 70
     8
 71
     3
 72
    12
 73
     8
 74
     0
 42
0.000000001
 43
0.00000001
 40
0.0
 40
0.0
 40
0.0
 40
0.0
 40
0.2208373887572652
 40
0.4416527307590009
 40
0.6623246611106887
 40
0.8829650626911841
 40
1.0
 40
1.0
 40
1.0
 40
1.0
 10
268.2196364289894
 20
245.606655022261
 30
0.0
 10
268.2037721428076
 20
245.6073280590084
 30
0.0
 10
268.1720451542158
 20
245.6086740653122
 30
0.0
 10
267.986975723964
 20
245.6094720800825
 30
0.0
 10
267.7238072163214
 20
245.6092137288566
 30
0.0
 10
267.4517220387544
 20
245.6081071316271
 30
0.0
 10
267.2805171044396
 20
245.6070287712998
 30
0.0
 10
267.2211791651622
 20
245.606655022261
 30
0.0
  0
LINE
  5
173
330
1F
100
AcDbEntity
  8
0
  6
Continuous
 62
     7
370
    25
100
AcDbLine
 10
267.2211791652
 20
245.6066550223
 30
0.0
 11
267.2211791652
 21
245.7996751229
 31
0.0
  0
LINE
  5
174
330
1F
100
AcDbEntity
  8
0
  6
Continuous
 62
     7
370
    25
100
AcDbLine
 10
267.2211791652
 20
245.6066550223
 30
0.0
 11
266.1416274897
 21
245.6066550223
 31
0.0
  0
LINE
  5
175
330
1F
100
AcDbEntity
  8
0
  6
Continuous
 62
     7
370
    25
100
AcDbLine
 10
80.3997164597
 20
245.6066550223
 30
0.0
 11
79.3201647842
 21
245.6066550223
 31
0.0
  0
LINE
  5
176
330
1F
100
AcDbEntity
  8
0
  6
Continuous
 62
     7
370
    25
100
AcDbLine
 10
73.4708453764
 20
559.4934989862
 30
0.0
 11
73.4708453764
 21
559.2936208208
 31
0.0
  0
SPLINE
  5
177
330
1F
100
AcDbEntity
  8
0
  6
Continuous
 62
     7
370
    25
100
AcDbSpline
210
0.0
220
0.0
230
1.0
 70
     8
 71
     3
 72
     9
 73
     5
 74
     0
 42
0.000000001
 43
0.00000001
 40
0.0
 40
0.0
 40
0.0
 40
0.0
 40
0.6426010967597009
 40
1.0
 40
1.0
 40
1.0
 40
1.0
 10
73.47084537642951
 20
559.293620820795
 30
0.0
 10
73.42562325661997
 20
559.2975427725088
 30
0.0
 10
73.35524970755884
 20
559.3036460171712
 30
0.0
 10
73.2929410283167
 20
559.335839476118
 30
0.0
 10
73.27067197469322
 20
559.3473453830374
 30
0.0
  0
SPLINE
  5
178
330
1F
100
AcDbEntity
  8
0
  6
Continuous
 62
     7
370
    25
100
AcDbSpline
210
0.0
220
0.0
230
1.0
 70
     8
 71
     3
 72
     9
 73
     5
 74
     0
 42
0.000000001
 43
0.00000001
 40
0.0
 40
0.0
 40
0.0
 40
0.0
 40
0.3573989032403848
 40
0.9999999999999999
 40
0.9999999999999999
 40
0.9999999999999999
 40
0.9999999999999999
 10
273.2706719746932
 20
559.3473453830375
 30
0.0
 10
273.2484029210697
 20
559.3358394761182
 30
0.0
 10
273.1860942418276
 20
559.303646017171
 30
0.0
 10
273.1157206927664
 20
559.2975427725087
 30
0.0
 10
273.0704985729569
 20
559.293620820795
 30
0.0
  0
LINE
  5
179
330
1F
100
AcDbEntity
  8
0
  6
Continuous
 62
     7
370
    25
100
AcDbLine
 10
273.070498573
 20
559.4934989862
 30
0.0
 11
273.070498573
 21
559.2936208208
 31
0.0
  0
LINE
  5
17A
330
1F
100
AcDbEntity
  8
0
  6
Continuous
 62
     7
370
    25
100
AcDbLine
 10
273.070498573
 20
252.2782712512
 30
0.0
 11
273.070498573
 21
252.4781494166
 31
0.0
  0
SPLINE
  5
17B
330
1F
100
AcDbEntity
  8
0
  6
Continuous
 62
     7
370
    25
100
AcDbSpline
210
0.0
220
0.0
230
1.0
 70
     8
 71
     3
 72
     9
 73
     5
 74
     0
 42
0.000000001
 43
0.00000001
 40
0.0
 40
0.0
 40
0.0
 40
0.0
 40
0.6426010967598152
 40
0.9999999999999999
 40
0.9999999999999999
 40
0.9999999999999999
 40
0.9999999999999999
 10
273.0704985729643
 20
252.4781494165755
 30
0.0
 10
273.1157206927739
 20
252.4742274648618
 30
0.0
 10
273.1860942418351
 20
252.4681242201996
 30
0.0
 10
273.2484029210771
 20
252.4359307612523
 30
0.0
 10
273.2706719747006
 20
252.424424854333
 30
0.0
  0
SPLINE
  5
17C
330
1F
100
AcDbEntity
  8
0
  6
Continuous
 62
     7
370
    25
100
AcDbSpline
210
0.0
220
0.0
230
1.0
 70
     8
 71
     3
 72
     9
 73
     5
 74
     0
 42
0.000000001
 43
0.00000001
 40
0.0
 40
0.0
 40
0.0
 40
0.0
 40
0.3573989032404561
 40
1.0
 40
1.0
 40
1.0
 40
1.0
 10
73.2706719747006
 20
252.424424854333
 30
0.0
 10
73.29294102832411
 20
252.4359307612523
 30
0.0
 10
73.35524970756623
 20
252.4681242201995
 30
0.0
 10
73.42562325662743
 20
252.4742274648618
 30
0.0
 10
73.47084537643701
 20
252.4781494165755
 30
0.0
  0
LINE
  5
17D
330
1F
100
AcDbEntity
  8
0
  6
Continuous
 62
     7
370
    25
100
AcDbLine
 10
73.4708453764
 20
252.4781494166
 30
0.0
 11
73.4708453764
 21
252.2782712512
 31
0.0
  0
LINE
  5
17E
330
1F
100
AcDbEntity
  8
0
  6
Continuous
 62
     8
370
    25
100
AcDbLine
 10
173.2706719747
 20
599.4788355249
 30
0.0
 11
73.2706719747
 21
599.4788355249
 31
0.0
  0
LINE
  5
17F
330
1F
100
AcDbEntity
  8
0
  6
Continuous
 62
     8
370
    25
100
AcDbLine
 10
273.2706719747
 20
599.4788355249
 30
0.0
 11
173.2706719747
 21
599.4788355249
 31
0.0
  0
LINE
  5
180
330
1F
100
AcDbEntity
  8
0
  6
Continuous
 62
     8
370
    25
100
AcDbLine
 10
76.7735865265
 20
245.4996751229
 30
0.0
 11
76.7735865265
 21
245.7996751229
 31
0.0
  0
LINE
  5
181
330
1F
100
AcDbEntity
  8
0
  6
Continuous
 62
     8
370
    25
100
AcDbLine
 10
269.7677574229
 20
245.7996751229
 30
0.0
 11
269.7677574229
 21
245.4996751229
 31
0.0
  0
LINE
  5
182
330
1F
100
AcDbEntity
  8
0
  6
Continuous
 62
     8
370
    25
100
AcDbLine
 10
269.2677725242
 20
245.4996751229
 30
0.0
 11
269.2677725242
 21
245.7996751229
 31
0.0
  0
LINE
  5
183
330
1F
100
AcDbEntity
  8
0
  6
Continuous
 62
     8
370
    25
100
AcDbLine
 10
77.2735714252
 20
245.7996751229
 30
0.0
 11
77.2735714252
 21
245.4996751229
 31
0.0
  0
ELLIPSE
  5
184
330
1F
100
AcDbEntity
  8
0
  6
Continuous
 62
     8
370
    25
100
AcDbEllipse
 10
173.2706407291
 20
559.486068056
 30
0.0
 11
96.19999999999996
 21
-1.136868377216160E-13
 31
0.0
210
0.0
220
0.0
230
1.0
 40
0.0349207695
 41
0.0891684238489672
 42
3.052424229740381
  0
ELLIPSE
  5
185
330
1F
100
AcDbEntity
  8
0
  6
Continuous
 62
     8
370
    25
100
AcDbEllipse
 10
173.2706407291
 20
252.2857021814
 30
0.0
 11
96.19999999999996
 21
0.0
 31
0.0
210
0.0
220
0.0
230
1.0
 40
0.0349207695
 41
3.23076107723475
 42
6.194016883535427
  0
ELLIPSE
  5
186
330
1F
100
AcDbEntity
  8
0
  6
Continuous
 62
     8
370
    25
100
AcDbEllipse
 10
173.2706407291
 20
559.2861898906
 30
0.0
 11
96.00000000000003
 21
-1.136868377216160E-13
 31
0.0
210
0.0
220
0.0
230
1.0
 40
0.0349935211
 41
0.2109050277154919
 42
2.930687625873299
  0
ELLIPSE
  5
187
330
1F
100
AcDbEntity
  8
0
  6
Continuous
 62
     8
370
    25
100
AcDbEllipse
 10
173.2706407291
 20
252.4855803468
 30
0.0
 11
95.99999999999997
 21
0.0
 31
0.0
210
0.0
220
0.0
230
1.0
 40
0.0349935211
 41
3.352497680962373
 42
6.072280279807773
  0
ARC
  5
188
330
1F
100
AcDbEntity
  8
0
  6
Continuous
 62
     8
370
    25
100
AcDbCircle
 10
171.7118604889
 20
245.3690150871
 30
0.0
 40
0.4311000963574862
100
AcDbArc
 50
17.642998746
 51
87.4109421734
  0
ARC
  5
189
330
1F
100
AcDbEntity
  8
0
  6
Continuous
 62
     8
370
    25
100
AcDbCircle
 10
171.3336179125
 20
245.517899181
 30
0.0
 40
1.415996522070019
100
AcDbArc
 50
359.2625755608
 51
11.4781837208
  0
ARC
  5
18A
330
1F
100
AcDbEntity
  8
0
  6
Continuous
 62
     8
370
    25
100
AcDbCircle
 10
175.2077260368
 20
245.517899181
 30
0.0
 40
1.415996522031879
100
AcDbArc
 50
168.521816279
 51
180.7374244394
  0
ARC
  5
18B
330
1F
100
AcDbEntity
  8
0
  6
Continuous
 62
     8
370
    25
100
AcDbCircle
 10
174.8294834604
 20
245.3690150871
 30
0.0
 40
0.4311000963581894
100
AcDbArc
 50
92.5890578267
 51
162.3570012539
  0
SPLINE
  5
18C
330
1F
100
AcDbEntity
  8
0
  6
Continuous
 62
     8
370
    25
100
AcDbSpline
210
0.0
220
0.0
230
1.0
 70
     8
 71
     3
 72
    11
 73
     7
 74
     0
 42
0.000000001
 43
0.00000001
 40
0.0
 40
0.0
 40
0.0
 40
0.0
 40
0.0955333327331449
 40
0.5064499708660738
 40
0.9532706801479922
 40
1.0
 40
1.0
 40
1.0
 40
1.0
 10
174.8100097176793
 20
245.799675122925
 30
0.0
 10
174.8158966827341
 20
245.7991773250216
 30
0.0
 10
174.8471051959853
 20
245.796538353613
 30
0.0
 10
174.8807254809647
 20
245.7339064343916
 30
0.0
 10
174.8887224657201
 20
245.6176231513112
 30
0.0
 10
174.8849604613023
 20
245.5098765698942
 30
0.0
 10
174.8846042747004
 20
245.4996751228903
 30
0.0
  0
ARC
  5
18D
330
1F
100
AcDbEntity
  8
0
  6
Continuous
 62
     8
370
    25
100
AcDbCircle
 10
181.1991759256
 20
244.8878904769
 30
0.0
 40
0.9118114432625843
100
AcDbArc
 50
90.4392698271
 51
137.85916812
  0
SPLINE
  5
18E
330
1F
100
AcDbEntity
  8
0
  6
Continuous
 62
     8
370
    25
100
AcDbSpline
210
0.0
220
0.0
230
1.0
 70
     8
 71
     3
 72
    11
 73
     7
 74
     0
 42
0.000000001
 43
0.00000001
 40
0.0
 40
0.0
 40
0.0
 40
0.0
 40
0.2257717023756171
 40
0.5854770337976987
 40
0.950343165097875
 40
1.0
 40
1.0
 40
1.0
 40
1.0
 10
171.6577605672647
 20
245.4996751228903
 30
0.0
 10
171.6567622137007
 20
245.5435394277521
 30
0.0
 10
171.6541732573471
 20
245.6572894807031
 30
0.0
 10
171.6698239407092
 20
245.7615925456734
 30
0.0
 10
171.702332670725
 20
245.7983700805432
 30
0.0
 10
171.7282317147037
 20
245.7995355126405
 30
0.0
 10
171.7313342317072
 20
245.799675122925
 30
0.0
  0
ARC
  5
18F
330
1F
100
AcDbEntity
  8
0
  6
Continuous
 62
     8
370
    25
100
AcDbCircle
 10
165.3421680238
 20
244.8878904769
 30
0.0
 40
0.9118114432623216
100
AcDbArc
 50
42.14083188
 51
89.5607301729
  0
SPLINE
  5
190
330
1F
100
AcDbEntity
  8
0
  6
Continuous
 62
     8
370
    25
100
AcDbSpline
210
0.0
220
0.0
230
1.0
 70
     8
 71
     3
 72
     9
 73
     5
 74
     0
 42
0.000000001
 43
0.00000001
 40
0.0
 40
0.0
 40
0.0
 40
0.0
 40
0.6439649608593501
 40
1.0
 40
1.0
 40
1.0
 40
1.0
 10
215.3213755328422
 20
245.606655022265
 30
0.0
 10
215.2705502936592
 20
245.6074357538697
 30
0.0
 10
215.1916248205787
 20
245.6086481359902
 30
0.0
 10
215.1987656783027
 20
245.6090742831832
 30
0.0
 10
215.201308073862
 20
245.6092260065158
 30
0.0
  0
SPLINE
  5
191
330
1F
100
AcDbEntity
  8
0
  6
Continuous
 62
     8
370
    25
100
AcDbSpline
210
0.0
220
0.0
230
1.0
 70
     8
 71
     3
 72
     9
 73
     5
 74
     0
 42
0.000000001
 43
0.00000001
 40
0.0
 40
0.0
 40
0.0
 40
0.0
 40
0.4946388216751475
 40
1.0
 40
1.0
 40
1.0
 40
1.0
 10
131.3441018191002
 20
245.6092696156487
 30
0.0
 10
131.342544081936
 20
245.6090082288681
 30
0.0
 10
131.3393948403157
 20
245.6084797891883
 30
0.0
 10
131.2600607737716
 20
245.6072676103776
 30
0.0
 10
131.2199684164215
 20
245.6066550222655
 30
0.0
  0
LINE
  5
192
330
1F
100
AcDbEntity
  8
0
  6
Continuous
 62
     8
370
    25
100
AcDbLine
 10
165.3491585445
 20
245.4996751229
 30
0.0
 11
165.3491585445
 21
245.7996751229
 31
0.0
  0
LINE
  5
193
330
1F
100
AcDbEntity
  8
0
  6
Continuous
 62
     8
370
    25
100
AcDbLine
 10
162.9815403916
 20
245.4996751229
 30
0.0
 11
162.9815403916
 21
245.7996751229
 31
0.0
  0
LINE
  5
194
330
1F
100
AcDbEntity
  8
0
  6
Continuous
 62
     8
370
    25
100
AcDbLine
 10
183.5598035578
 20
245.4996751229
 30
0.0
 11
183.5598035578
 21
245.7996751229
 31
0.0
  0
LINE
  5
195
330
1F
100
AcDbEntity
  8
0
  6
Continuous
 62
     8
370
    25
100
AcDbLine
 10
181.1921854049
 20
245.4996751229
 30
0.0
 11
181.1921854049
 21
245.7996751229
 31
0.0
  0
SPLINE
  5
196
330
1F
100
AcDbEntity
  8
0
  6
Continuous
 62
     8
370
    25
100
AcDbSpline
210
0.0
220
0.0
230
1.0
 70
     8
 71
     3
 72
    11
 73
     7
 74
     0
 42
0.000000001
 43
0.00000001
 40
0.0
 40
0.0
 40
0.0
 40
0.0
 40
0.1502027151464982
 40
0.486062521699918
 40
0.8218743452440409
 40
1.0
 40
1.0
 40
1.0
 40
1.0
 10
224.7507338455295
 20
245.6089271844329
 30
0.0
 10
224.7538997109485
 20
245.6090720041877
 30
0.0
 10
224.7641445891948
 20
245.6095406472155
 30
0.0
 10
224.6601960225624
 20
245.6091723942466
 30
0.0
 10
224.4902527255042
 20
245.6081120320751
 30
0.0
 10
224.3503280954288
 20
245.6070300325983
 30
0.0
 10
224.3018316004249
 20
245.6066550222645
 30
0.0
  0
SPLINE
  5
197
330
1F
100
AcDbEntity
  8
0
  6
Continuous
 62
     8
370
    25
100
AcDbSpline
210
0.0
220
0.0
230
1.0
 70
     8
 71
     3
 72
    10
 73
     6
 74
     0
 42
0.000000001
 43
0.00000001
 40
0.0
 40
0.0
 40
0.0
 40
0.0
 40
0.3360729302978028
 40
0.6721123095837148
 40
1.0
 40
1.0
 40
1.0
 40
1.0
 10
122.2395123488428
 20
245.6066550222655
 30
0.0
 10
122.1510333402553
 20
245.6073239143478
 30
0.0
 10
121.9740841561638
 20
245.6086616317353
 30
0.0
 10
121.8086521200234
 20
245.6095150248173
 30
0.0
 10
121.7880443236563
 20
245.6091998342661
 30
0.0
 10
121.7778669366153
 20
245.6090441739435
 30
0.0
  0
LINE
  5
198
330
1F
100
AcDbEntity
  8
0
  6
Continuous
 62
     8
370
    25
100
AcDbLine
 10
268.3084142481
 20
245.6066550223
 30
0.0
 11
268.219636429
 21
245.6066550223
 31
0.0
  0
LINE
  5
199
330
1F
100
AcDbEntity
  8
0
  6
Continuous
 62
     8
370
    25
100
AcDbLine
 10
78.3217075204
 20
245.6066550223
 30
0.0
 11
78.2329297012
 21
245.6066550223
 31
0.0
  0
LINE
  5
19A
330
1F
100
AcDbEntity
  8
0
  6
Continuous
 62
     8
370
    25
100
AcDbLine
 10
273.070498573
 20
559.2936208208
 30
0.0
 11
272.2079877291
 21
559.2936208208
 31
0.0
  0
LINE
  5
19B
330
1F
100
AcDbEntity
  8
0
  6
Continuous
 62
     8
370
    25
100
AcDbLine
 10
74.3332937292
 20
559.2936208208
 30
0.0
 11
73.4708453764
 21
559.2936208208
 31
0.0
  0
LINE
  5
19C
330
1F
100
AcDbEntity
  8
0
  6
Continuous
 62
     8
370
    25
100
AcDbLine
 10
272.2079877271
 20
252.4781494166
 30
0.0
 11
273.070498573
 21
252.4781494166
 31
0.0
  0
LINE
  5
19D
330
1F
100
AcDbEntity
  8
0
  6
Continuous
 62
     8
370
    25
100
AcDbLine
 10
73.4708453764
 20
252.4781494166
 30
0.0
 11
74.3332937312
 21
252.4781494166
 31
0.0
  0
ARC
  5
19E
330
1F
100
AcDbEntity
  8
0
  6
Continuous
 62
     8
370
    25
100
AcDbCircle
 10
99.0328846033
 20
245.3525890715
 30
0.0
 40
0.4526989999197366
100
AcDbArc
 50
18.9600715162
 51
80.9681203222
  0
ARC
  5
19F
330
1F
100
AcDbEntity
  8
0
  6
Continuous
 62
     8
370
    25
100
AcDbCircle
 10
101.851309551
 20
244.9802581151
 30
0.0
 40
0.8195632530290026
100
AcDbArc
 50
91.0824147281
 51
140.6709653967
  0
ARC
  5
1A0
330
1F
100
AcDbEntity
  8
0
  6
Continuous
 62
     8
370
    25
100
AcDbCircle
 10
244.6900343984
 20
244.9802581151
 30
0.0
 40
0.8195632530197982
100
AcDbArc
 50
39.329034603
 51
88.9175852722
  0
ARC
  5
1A1
330
1F
100
AcDbEntity
  8
0
  6
Continuous
 62
     8
370
    25
100
AcDbCircle
 10
247.5084593461
 20
245.3525890715
 30
0.0
 40
0.4526989999144376
100
AcDbArc
 50
99.0318796774
 51
161.0399284842
  0
ARC
  5
1A2
330
1F
100
AcDbEntity
  8
0
  6
Continuous
 62
     8
370
    25
100
AcDbCircle
 10
97.3606097875
 20
245.3525890715
 30
0.0
 40
0.452698999918607
100
AcDbArc
 50
18.9600715161
 51
80.9681203223
  0
ARC
  5
1A3
330
1F
100
AcDbEntity
  8
0
  6
Continuous
 62
     8
370
    25
100
AcDbCircle
 10
249.1807341619
 20
245.3525890715
 30
0.0
 40
0.4526989999183866
100
AcDbArc
 50
99.0318796777
 51
161.0399284839
  0
ARC
  5
1A4
330
1F
100
AcDbEntity
  8
0
  6
Continuous
 62
     8
370
    25
100
AcDbCircle
 10
243.4815453525
 20
244.9493449093
 30
0.0
 40
0.8582854831723284
100
AcDbArc
 50
39.8811466801
 51
70.2876064673
  0
ARC
  5
1A5
330
1F
100
AcDbEntity
  8
0
  6
Continuous
 62
     8
370
    25
100
AcDbCircle
 10
103.0597985893
 20
244.9493449172
 30
0.0
 40
0.8582854723075216
100
AcDbArc
 50
109.7123874119
 51
140.1188534029
  0
LWPOLYLINE
  5
1A6
330
1F
100
AcDbEntity
  8
0
  6
Continuous
 62
     8
370
    25
100
AcDbPolyline
 90
        3
 70
   128
 43
0.0
 10
243.4032816417
 20
245.4996751229
 10
243.4065127353
 20
245.5190149233
 10
243.4149054513
 20
245.5646604125
  0
LWPOLYLINE
  5
1A7
330
1F
100
AcDbEntity
  8
0
  6
Continuous
 62
     8
370
    25
100
AcDbPolyline
 90
        3
 70
   128
 43
0.0
 10
103.1380623076
 20
245.4996751229
 10
103.1348312141
 20
245.5190149233
 10
103.126438498
 20
245.5646604125
  0
SPLINE
  5
1A8
330
1F
100
AcDbEntity
  8
0
  6
Continuous
 62
     7
370
    25
100
AcDbSpline
210
0.0
220
0.0
230
1.0
 70
     8
 71
     3
 72
    10
 73
     6
 74
     0
 42
0.000000001
 43
0.00000001
 40
0.0
 40
0.0
 40
0.0
 40
0.0
 40
0.0589623903478527
 40
0.3796449450815548
 40
1.0
 40
1.0
 40
1.0
 40
1.0
 10
85.12988455177812
 20
145.7626088283229
 30
0.0
 10
85.12936969357885
 20
145.7617282796979
 30
0.0
 10
85.12605464288936
 20
145.7560586344807
 30
0.0
 10
85.12331509274156
 20
145.7510269751333
 30
0.0
 10
85.11997713627493
 20
145.7449380177619
 30
0.0
 10
85.11777667356657
 20
145.7409240278368
 30
0.0
  0
CIRCLE
  5
1A9
330
1F
100
AcDbEntity
  8
0
  6
Continuous
 62
     7
370
    25
100
AcDbCircle
 10
94.1757480991
 20
98.5256833566
 30
0.0
 40
6.000000000000022
  0
LINE
  5
1AA
330
1F
100
AcDbEntity
  8
0
  6
Continuous
 62
     7
370
    25
100
AcDbLine
 10
91.7590490604
 20
100.1045750849
 30
0.0
 11
91.6000382332
 21
97.2222064599
 31
0.0
  0
LINE
  5
1AB
330
1F
100
AcDbEntity
  8
0
  6
Continuous
 62
     7
370
    25
100
AcDbLine
 10
91.6000382332
 20
97.2222064599
 30
0.0
 11
94.016737272
 21
95.6433147316
 31
0.0
  0
LINE
  5
1AC
330
1F
100
AcDbEntity
  8
0
  6
Continuous
 62
     7
370
    25
100
AcDbLine
 10
94.016737272
 20
95.6433147316
 30
0.0
 11
96.5924471378
 21
96.9467916283
 31
0.0
  0
LINE
  5
1AD
330
1F
100
AcDbEntity
  8
0
  6
Continuous
 62
     7
370
    25
100
AcDbLine
 10
96.5924471378
 20
96.9467916283
 30
0.0
 11
96.751457965
 21
99.8291602533
 31
0.0
  0
LINE
  5
1AE
330
1F
100
AcDbEntity
  8
0
  6
Continuous
 62
     7
370
    25
100
AcDbLine
 10
96.751457965
 20
99.8291602533
 30
0.0
 11
94.3347589263
 21
101.4080519816
 31
0.0
  0
LINE
  5
1AF
330
1F
100
AcDbEntity
  8
0
  6
Continuous
 62
     7
370
    25
100
AcDbLine
 10
94.3347589263
 20
101.4080519816
 30
0.0
 11
91.7590490604
 21
100.1045750849
 31
0.0
  0
CIRCLE
  5
1B0
330
1F
100
AcDbEntity
  8
0
  6
Continuous
 62
     7
370
    25
100
AcDbCircle
 10
94.1757480991
 20
98.5256833566
 30
0.0
 40
6.855000000000047
  0
CIRCLE
  5
1B1
330
1F
100
AcDbEntity
  8
0
  6
Continuous
 62
     7
370
    25
100
AcDbCircle
 10
252.3655958503
 20
98.5256833566
 30
0.0
 40
6.855000000000047
  0
CIRCLE
  5
1B2
330
1F
100
AcDbEntity
  8
0
  6
Continuous
 62
     7
370
    25
100
AcDbCircle
 10
173.2706719747
 20
98.5256833566
 30
0.0
 40
93.99999999999997
  0
CIRCLE
  5
1B3
330
1F
100
AcDbEntity
  8
0
  6
Continuous
 62
     7
370
    25
100
AcDbCircle
 10
173.2706719747
 20
98.5256833566
 30
0.0
 40
99.99999999999997
  0
CIRCLE
  5
1B4
330
1F
100
AcDbEntity
  8
0
  6
Continuous
 62
     7
370
    25
100
AcDbCircle
 10
252.3655958503
 20
98.5256833566
 30
0.0
 40
3.299999999999969
  0
LINE
  5
1B5
330
1F
100
AcDbEntity
  8
0
  6
Continuous
 62
     7
370
    25
100
AcDbLine
 10
182.0556221162
 20
-1.0876925073
 30
0.0
 11
182.0556221162
 21
-1.3888533786
 31
0.0
  0
ARC
  5
1B6
330
1F
100
AcDbEntity
  8
0
  6
Continuous
 62
     7
370
    25
100
AcDbCircle
 10
173.2706719747
 20
98.5256833566
 30
0.0
 40
100.2999999999985
100
AcDbArc
 50
274.7956777143
 51
275.0247891903
  0
LINE
  5
1B7
330
1F
100
AcDbEntity
  8
0
  6
Continuous
 62
     7
370
    25
100
AcDbLine
 10
181.6560197306
 20
-1.1221261678
 30
0.0
 11
181.6560197306
 21
-1.4231832854
 31
0.0
  0
LINE
  5
1B8
330
1F
100
AcDbEntity
  8
0
  6
Continuous
 62
     7
370
    25
100
AcDbLine
 10
182.8508507445
 20
-1.0143597152
 30
0.0
 11
182.8508507445
 21
-1.3157417872
 31
0.0
  0
ARC
  5
1B9
330
1F
100
AcDbEntity
  8
0
  6
Continuous
 62
     7
370
    25
100
AcDbCircle
 10
173.2706719747
 20
98.5256833566
 30
0.0
 40
100.2999999999986
100
AcDbArc
 50
275.0247891903
 51
275.4809758595
  0
LINE
  5
1BA
330
1F
100
AcDbEntity
  8
0
  6
Continuous
 62
     7
370
    25
100
AcDbLine
 10
180.4651648598
 20
-1.2151772379
 30
0.0
 11
180.4651648598
 21
-1.5159543355
 31
0.0
  0
ARC
  5
1BB
330
1F
100
AcDbEntity
  8
0
  6
Continuous
 62
     7
370
    25
100
AcDbCircle
 10
173.2706719747
 20
98.5256833566
 30
0.0
 40
100.2999999999989
100
AcDbArc
 50
274.1133438011
 51
274.7956777143
  0
LINE
  5
1BC
330
1F
100
AcDbEntity
  8
0
  6
Continuous
 62
     7
370
    25
100
AcDbLine
 10
164.5161130206
 20
-1.0903680484
 30
0.0
 11
164.5161130206
 21
-1.3915208553
 31
0.0
  0
LINE
  5
1BD
330
1F
100
AcDbEntity
  8
0
  6
Continuous
 62
     7
370
    25
100
AcDbLine
 10
163.6904932054
 20
-1.0143597153
 30
0.0
 11
163.6904932054
 21
-1.3157417872
 31
0.0
  0
ARC
  5
1BE
330
1F
100
AcDbEntity
  8
0
  6
Continuous
 62
     7
370
    25
100
AcDbCircle
 10
173.2706719747
 20
98.5256833566
 30
0.0
 40
100.299999999999
100
AcDbArc
 50
264.5190241408
 51
264.992638339
  0
LINE
  5
1BF
330
1F
100
AcDbEntity
  8
0
  6
Continuous
 62
     7
370
    25
100
AcDbLine
 10
167.0735123634
 20
-1.2821079863
 30
0.0
 11
167.0735123634
 21
-1.5826839898
 31
0.0
  0
SPLINE
  5
1C0
330
1F
100
AcDbEntity
  8
0
  6
Continuous
 62
     7
370
    25
100
AcDbSpline
210
0.0
220
0.0
230
1.0
 70
     8
 71
     3
 72
    14
 73
    10
 74
     0
 42
0.000000001
 43
0.00000001
 40
0.0
 40
0.0
 40
0.0
 40
0.0
 40
0.1532754592529781
 40
0.3065457892967593
 40
0.4599604998898769
 40
0.6136966135641707
 40
0.7678061083006846
 40
0.9221801831802504
 40
1.0
 40
1.0
 40
1.0
 40
1.0
 10
167.0735123633957
 20
-1.582683989754488
 30
0.0
 10
167.038300109596
 20
-1.580508287381557
 30
0.0
 10
166.9678767803393
 20
-1.576156955443234
 30
0.0
 10
166.655837672087
 20
-1.556188866985289
 30
0.0
 10
166.2310982651005
 20
-1.527346575522573
 30
0.0
 10
165.7246589015383
 20
-1.490519046753472
 30
0.0
 10
165.1994541819686
 20
-1.449484356478639
 30
0.0
 10
164.7872579834042
 20
-1.415125539130937
 30
0.0
 10
164.584175982824
 20
-1.397446116402925
 30
0.0
 10
164.5161130205778
 20
-1.391520855285391
 30
0.0
  0
LINE
  5
1C1
330
1F
100
AcDbEntity
  8
0
  6
Continuous
 62
     7
370
    25
100
AcDbLine
 10
174.8832811389
 20
-1.4613132564
 30
0.0
 11
174.8832811389
 21
-1.7613521549
 31
0.0
  0
SPLINE
  5
1C2
330
1F
100
AcDbEntity
  8
0
  6
Continuous
 62
     7
370
    25
100
AcDbSpline
210
0.0
220
0.0
230
1.0
 70
     8
 71
     3
 72
    14
 73
    10
 74
     0
 42
0.000000001
 43
0.00000001
 40
0.0
 40
0.0
 40
0.0
 40
0.0
 40
0.1560611850836204
 40
0.3121219053134163
 40
0.4681907246754063
 40
0.6242464708385724
 40
0.7802830606637229
 40
0.9363257358557447
 40
1.0
 40
1.0
 40
1.0
 40
1.0
 10
174.8832811388847
 20
-1.761352154896492
 30
0.0
 10
174.8121301796378
 20
-1.762480868125152
 30
0.0
 10
174.6698284730788
 20
-1.764738291220605
 30
0.0
 10
174.2303056430092
 20
-1.770149622629238
 30
0.0
 10
173.681446889906
 20
-1.774054414136375
 30
0.0
 10
173.066523617582
 20
-1.774752665596471
 30
0.0
 10
172.4622170014942
 20
-1.771609659678278
 30
0.0
 10
172.031771255525
 20
-1.766868883702824
 30
0.0
 10
171.8342006656345
 20
-1.764019143640563
 30
0.0
 10
171.7769444433067
 20
-1.763193285142531
 30
0.0
  0
SPLINE
  5
1C3
330
1F
100
AcDbEntity
  8
0
  6
Continuous
 62
     7
370
    25
100
AcDbSpline
210
0.0
220
0.0
230
1.0
 70
     8
 71
     3
 72
    11
 73
     7
 74
     0
 42
0.000000001
 43
0.00000001
 40
0.0
 40
0.0
 40
0.0
 40
0.0
 40
0.3148479347420882
 40
0.6297092088612896
 40
0.9441995163567948
 40
1.0
 40
1.0
 40
1.0
 40
1.0
 10
180.4651648597768
 20
-1.515954335548311
 30
0.0
 10
180.3585051091107
 20
-1.523523660257889
 30
0.0
 10
180.1451810888523
 20
-1.538662630371848
 30
0.0
 10
179.8494757777195
 20
-1.558437114051583
 30
0.0
 10
179.6768824286147
 20
-1.569549750598989
 30
0.0
 10
179.6057803971315
 20
-1.574048513246398
 30
0.0
 10
179.5950657700338
 20
-1.574726448365218
 30
0.0
  0
SPLINE
  5
1C4
330
1F
100
AcDbEntity
  8
0
  6
Continuous
 62
     7
370
    25
100
AcDbSpline
210
0.0
220
0.0
230
1.0
 70
     8
 71
     3
 72
    15
 73
    11
 74
     0
 42
0.000000001
 43
0.00000001
 40
0.0
 40
0.0
 40
0.0
 40
0.0
 40
0.1355899712607409
 40
0.2711791428276902
 40
0.4067925641348225
 40
0.5424877663058042
 40
0.6783018093332007
 40
0.8141898149092602
 40
0.9500081082033129
 40
1.0
 40
1.0
 40
1.0
 40
1.0
 10
170.9597250103307
 20
-1.747690597448517
 30
0.0
 10
170.8490851284209
 20
-1.745077973774559
 30
0.0
 10
170.6278060171425
 20
-1.739852741835426
 30
0.0
 10
170.0623619297183
 20
-1.723645699171508
 30
0.0
 10
169.3996771733355
 20
-1.700391254266589
 30
0.0
 10
168.694997370842
 20
-1.670704651785773
 30
0.0
 10
168.0319198425919
 20
-1.638037061658784
 30
0.0
 10
167.4871174413228
 20
-1.607788513386846
 30
0.0
 10
167.1902116225586
 20
-1.589887375315527
 30
0.0
 10
167.0982535226502
 20
-1.584211164053842
 30
0.0
 10
167.0735123633957
 20
-1.582683989754488
 30
0.0
  0
SPLINE
  5
1C5
330
1F
100
AcDbEntity
  8
0
  6
Continuous
 62
     7
370
    25
100
AcDbSpline
210
0.0
220
0.0
230
1.0
 70
     8
 71
     3
 72
    15
 73
    11
 74
     0
 42
0.000000001
 43
0.00000001
 40
0.0
 40
0.0
 40
0.0
 40
0.0
 40
0.1376183303163669
 40
0.2752310923496657
 40
0.4129721087762713
 40
0.550785006806157
 40
0.6885446775233659
 40
0.8262084820908357
 40
0.9638094155234168
 40
1.0
 40
1.0
 40
1.0
 40
1.0
 10
178.7544648470328
 20
-1.624294255648487
 30
0.0
 10
178.6581036455991
 20
-1.629530425338879
 30
0.0
 10
178.4653851416778
 20
-1.640002552855027
 30
0.0
 10
177.9307816238648
 20
-1.666606086545022
 30
0.0
 10
177.2851057176366
 20
-1.694727653345343
 30
0.0
 10
176.5811002092886
 20
-1.720500325777877
 30
0.0
 10
175.9032094311681
 20
-1.740434931245219
 30
0.0
 10
175.3292473096195
 20
-1.753600683135806
 30
0.0
 10
175.0166819483486
 20
-1.759181626101794
 30
0.0
 10
174.9062728758437
 20
-1.760978062510313
 30
0.0
 10
174.8832811388847
 20
-1.761352154896492
 30
0.0
  0
LINE
  5
1C6
330
1F
100
AcDbEntity
  8
0
  6
Continuous
 62
     7
370
    25
100
AcDbLine
 10
179.59506577
 20
-1.2741264785
 30
0.0
 11
179.59506577
 21
-1.5747264484
 31
0.0
  0
LINE
  5
1C7
330
1F
100
AcDbEntity
  8
0
  6
Continuous
 62
     7
370
    25
100
AcDbLine
 10
178.754464847
 20
-1.3238435113
 30
0.0
 11
178.754464847
 21
-1.6242942556
 31
0.0
  0
ARC
  5
1C8
330
1F
100
AcDbEntity
  8
0
  6
Continuous
 62
     7
370
    25
100
AcDbCircle
 10
173.2706719747
 20
98.5256833566
 30
0.0
 40
100.2999999999985
100
AcDbArc
 50
273.1341468961
 51
273.615170707
  0
LINE
  5
1C9
330
1F
100
AcDbEntity
  8
0
  6
Continuous
 62
     7
370
    25
100
AcDbLine
 10
171.7769444433
 20
-1.4631599113
 30
0.0
 11
171.7769444433
 21
-1.7631932851
 31
0.0
  0
LINE
  5
1CA
330
1F
100
AcDbEntity
  8
0
  6
Continuous
 62
     7
370
    25
100
AcDbLine
 10
170.9597250103
 20
-1.447610698
 30
0.0
 11
170.9597250103
 21
-1.7476905974
 31
0.0
  0
ARC
  5
1CB
330
1F
100
AcDbEntity
  8
0
  6
Continuous
 62
     7
370
    25
100
AcDbCircle
 10
173.2706719747
 20
98.5256833566
 30
0.0
 40
100.2999999999988
100
AcDbArc
 50
268.6797684401
 51
269.1466854714
  0
ARC
  5
1CC
330
1F
100
AcDbEntity
  8
0
  6
Continuous
 62
     7
370
    25
100
AcDbCircle
 10
173.2706719747
 20
98.5256833566
 30
0.0
 40
100.2999999999985
100
AcDbArc
 50
94.7956777143
 51
95.0247891903
  0
LINE
  5
1CD
330
1F
100
AcDbEntity
  8
0
  6
Continuous
 62
     7
370
    25
100
AcDbLine
 10
164.4857218331
 20
198.1390592205
 30
0.0
 11
164.4857218331
 21
198.4402200918
 31
0.0
  0
ARC
  5
1CE
330
1F
100
AcDbEntity
  8
0
  6
Continuous
 62
     7
370
    25
100
AcDbCircle
 10
173.2706719747
 20
98.5256833566
 30
0.0
 40
100.2999999999986
100
AcDbArc
 50
95.0247891903
 51
95.4809758595
  0
ARC
  5
1CF
330
1F
100
AcDbEntity
  8
0
  6
Continuous
 62
     7
370
    25
100
AcDbCircle
 10
173.2706719747
 20
98.5256833566
 30
0.0
 40
100.2999999999989
100
AcDbArc
 50
94.1133438011
 51
94.7956777143
  0
ARC
  5
1D0
330
1F
100
AcDbEntity
  8
0
  6
Continuous
 62
     7
370
    25
100
AcDbCircle
 10
173.2706719747
 20
98.5256833566
 30
0.0
 40
100.299999999999
100
AcDbArc
 50
84.5190241408
 51
84.992638339
  0
LINE
  5
1D1
330
1F
100
AcDbEntity
  8
0
  6
Continuous
 62
     7
370
    25
100
AcDbLine
 10
182.850850744
 20
198.0657264285
 30
0.0
 11
182.850850744
 21
198.3671085004
 31
0.0
  0
SPLINE
  5
1D2
330
1F
100
AcDbEntity
  8
0
  6
Continuous
 62
     7
370
    25
100
AcDbSpline
210
0.0
220
0.0
230
1.0
 70
     8
 71
     3
 72
    14
 73
    10
 74
     0
 42
0.000000001
 43
0.00000001
 40
0.0
 40
0.0
 40
0.0
 40
0.0
 40
0.1532754592529782
 40
0.3065457892967596
 40
0.4599604998898758
 40
0.6136966135641695
 40
0.7678061083006841
 40
0.9221801831802485
 40
1.0
 40
1.0
 40
1.0
 40
1.0
 10
179.4678315859894
 20
198.634050702955
 30
0.0
 10
179.5030438397891
 20
198.6318750005822
 30
0.0
 10
179.5734671690458
 20
198.6275236686441
 30
0.0
 10
179.8855062772981
 20
198.607555580186
 30
0.0
 10
180.3102456842846
 20
198.5787132887231
 30
0.0
 10
180.8166850478469
 20
198.5418857599543
 30
0.0
 10
181.3418897674165
 20
198.5008510696793
 30
0.0
 10
181.7540859659809
 20
198.4664922523316
 30
0.0
 10
181.9571679665611
 20
198.4488128296035
 30
0.0
 10
182.0252309288074
 20
198.442887568486
 30
0.0
  0
SPLINE
  5
1D3
330
1F
100
AcDbEntity
  8
0
  6
Continuous
 62
     7
370
    25
100
AcDbSpline
210
0.0
220
0.0
230
1.0
 70
     8
 71
     3
 72
    14
 73
    10
 74
     0
 42
0.000000001
 43
0.00000001
 40
0.0
 40
0.0
 40
0.0
 40
0.0
 40
0.1560611850836214
 40
0.3121219053134137
 40
0.4681907246754049
 40
0.6242464708385719
 40
0.7802830606637227
 40
0.9363257358557447
 40
1.0
 40
1.0
 40
1.0
 40
1.0
 10
171.6580628105004
 20
198.8127188680971
 30
0.0
 10
171.7292137697473
 20
198.8138475813259
 30
0.0
 10
171.8715154763063
 20
198.8161050044215
 30
0.0
 10
172.311038306376
 20
198.8215163358297
 30
0.0
 10
172.8598970594791
 20
198.8254211273375
 30
0.0
 10
173.4748203318031
 20
198.8261193787968
 30
0.0
 10
174.0791269478909
 20
198.8229763728794
 30
0.0
 10
174.5095726938602
 20
198.8182355969034
 30
0.0
 10
174.7071432837506
 20
198.8153858568409
 30
0.0
 10
174.7643995060784
 20
198.8145599983431
 30
0.0
  0
SPLINE
  5
1D4
330
1F
100
AcDbEntity
  8
0
  6
Continuous
 62
     7
370
    25
100
AcDbSpline
210
0.0
220
0.0
230
1.0
 70
     8
 71
     3
 72
    11
 73
     7
 74
     0
 42
0.000000001
 43
0.00000001
 40
0.0
 40
0.0
 40
0.0
 40
0.0
 40
0.314847934742089
 40
0.6297092088612897
 40
0.9441995163567944
 40
1.0
 40
1.0
 40
1.0
 40
1.0
 10
166.0761790896084
 20
198.567321048749
 30
0.0
 10
166.1828388402744
 20
198.5748903734584
 30
0.0
 10
166.3961628605328
 20
198.5900293435724
 30
0.0
 10
166.6918681716656
 20
198.6098038272524
 30
0.0
 10
166.8644615207704
 20
198.6209164638
 30
0.0
 10
166.9355635522537
 20
198.6254152264469
 30
0.0
 10
166.9462781793514
 20
198.626093161566
 30
0.0
  0
SPLINE
  5
1D5
330
1F
100
AcDbEntity
  8
0
  6
Continuous
 62
     7
370
    25
100
AcDbSpline
210
0.0
220
0.0
230
1.0
 70
     8
 71
     3
 72
    15
 73
    11
 74
     0
 42
0.000000001
 43
0.00000001
 40
0.0
 40
0.0
 40
0.0
 40
0.0
 40
0.1376183303163673
 40
0.2752310923496675
 40
0.4129721087762735
 40
0.5507850068061588
 40
0.6885446775233677
 40
0.8262084820908364
 40
0.9638094155234167
 40
1.0
 40
1.0
 40
1.0
 40
1.0
 10
167.7868791023524
 20
198.675660968849
 30
0.0
 10
167.883240303786
 20
198.6808971385394
 30
0.0
 10
168.0759588077073
 20
198.6913692660553
 30
0.0
 10
168.6105623255203
 20
198.7179727997461
 30
0.0
 10
169.2562382317485
 20
198.7460943665458
 30
0.0
 10
169.9602437400965
 20
198.7718670389783
 30
0.0
 10
170.638134518217
 20
198.7918016444455
 30
0.0
 10
171.2120966397656
 20
198.8049673963367
 30
0.0
 10
171.5246620010365
 20
198.8105483393017
 30
0.0
 10
171.6350710735414
 20
198.812344775711
 30
0.0
 10
171.6580628105004
 20
198.8127188680971
 30
0.0
  0
SPLINE
  5
1D6
330
1F
100
AcDbEntity
  8
0
  6
Continuous
 62
     7
370
    25
100
AcDbSpline
210
0.0
220
0.0
230
1.0
 70
     8
 71
     3
 72
    15
 73
    11
 74
     0
 42
0.000000001
 43
0.00000001
 40
0.0
 40
0.0
 40
0.0
 40
0.0
 40
0.1355899712607419
 40
0.2711791428276882
 40
0.4067925641348213
 40
0.5424877663058033
 40
0.6783018093331998
 40
0.8141898149092602
 40
0.9500081082033129
 40
1.0
 40
1.0
 40
1.0
 40
1.0
 10
175.5816189390544
 20
198.7990573106491
 30
0.0
 10
175.6922588209642
 20
198.796444686975
 30
0.0
 10
175.9135379322426
 20
198.7912194550359
 30
0.0
 10
176.4789820196669
 20
198.7750124123723
 30
0.0
 10
177.1416667760496
 20
198.7517579674671
 30
0.0
 10
177.8463465785431
 20
198.7220713649863
 30
0.0
 10
178.5094241067933
 20
198.6894037748592
 30
0.0
 10
179.0542265080623
 20
198.6591552265872
 30
0.0
 10
179.3511323268266
 20
198.641254088517
 30
0.0
 10
179.4430904267349
 20
198.6355778772544
 30
0.0
 10
179.4678315859894
 20
198.634050702955
 30
0.0
  0
ARC
  5
1D7
330
1F
100
AcDbEntity
  8
0
  6
Continuous
 62
     7
370
    25
100
AcDbCircle
 10
173.2706719747
 20
98.5256833566
 30
0.0
 40
100.2999999999985
100
AcDbArc
 50
93.1341468961
 51
93.615170707
  0
LINE
  5
1D8
330
1F
100
AcDbEntity
  8
0
  6
Continuous
 62
     7
370
    25
100
AcDbLine
 10
174.7643995061
 20
198.5145266245
 30
0.0
 11
174.7643995061
 21
198.8145599983
 31
0.0
  0
ARC
  5
1D9
330
1F
100
AcDbEntity
  8
0
  6
Continuous
 62
     7
370
    25
100
AcDbCircle
 10
173.2706719747
 20
98.5256833566
 30
0.0
 40
100.2999999999988
100
AcDbArc
 50
88.6797684401
 51
89.1466854714
  0
CIRCLE
  5
1DA
330
1F
100
AcDbEntity
  8
0
  6
Continuous
 62
     7
370
    25
100
AcDbCircle
 10
252.3655958503
 20
98.5256833566
 30
0.0
 40
2.499999999999957
  0
ENDSEC
  0
SECTION
  2
OBJECTS
  0
DICTIONARY
  5
C
330
0
100
AcDbDictionary
281
     1
  3
ACAD_GROUP
350
D
  3
ACAD_LAYOUT
350
1A
  3
ACAD_MLINESTYLE
350
17
  3
ACAD_PLOTSETTINGS
350
19
  3
ACAD_PLOTSTYLENAME
350
E
  3
ACAD_SCALELIST
350
47
  0
DICTIONARY
  5
D
102
{ACAD_REACTORS
330
C
102
}
330
C
100
AcDbDictionary
281
     1
  0
DICTIONARY
  5
1A
102
{ACAD_REACTORS
330
C
102
}
330
C
100
AcDbDictionary
281
     1
  3
Layout1
350
1E
  3
Layout2
350
26
  3
Model
350
22
  0
DICTIONARY
  5
17
102
{ACAD_REACTORS
330
C
102
}
330
C
100
AcDbDictionary
281
     1
  3
Standard
350
18
  0
DICTIONARY
  5
19
102
{ACAD_REACTORS
330
C
102
}
330
C
100
AcDbDictionary
281
     1
  0
ACDBDICTIONARYWDFLT
  5
E
102
{ACAD_REACTORS
330
C
102
}
330
C
100
AcDbDictionary
281
     1
  3
Normal
350
F
100
AcDbDictionaryWithDefault
340
F
  0
DICTIONARY
  5
47
102
{ACAD_REACTORS
330
C
102
}
330
C
100
AcDbDictionary
281
     1
  3
A0
350
48
  3
A1
350
49
  3
A2
350
4A
  3
A3
350
4B
  3
A4
350
4C
  3
A5
350
4D
  3
A6
350
4E
  3
A7
350
4F
  3
A8
350
50
  3
A9
350
51
  3
B0
350
52
  3
B1
350
53
  3
B2
350
54
  3
B3
350
55
  3
B4
350
56
  3
B5
350
57
  3
B6
350
58
  3
B7
350
59
  3
B8
350
5A
  3
B9
350
5B
  3
C0
350
5C
  3
C1
350
5D
  3
C2
350
5E
  3
C3
350
5F
  3
C4
350
60
  3
C5
350
61
  3
C6
350
62
  3
C7
350
63
  3
C8
350
64
  3
C9
350
65
  3
D0
350
66
  3
D1
350
67
  3
D2
350
68
  0
LAYOUT
  5
1E
102
{ACAD_REACTORS
330
1A
102
}
330
1A
100
AcDbPlotSettings
  1

  2
none_device
  4

  6

 40
0.0
 41
0.0
 42
0.0
 43
0.0
 44
0.0
 45
0.0
 46
0.0
 47
0.0
 48
0.0
 49
0.0
140
0.0
141
0.0
142
1.0
143
1.0
 70
   688
 72
     1
 73
     0
 74
     5
  7

 75
    16
147
1.0
148
0.0
149
0.0
100
AcDbLayout
  1
Layout1
 70
     1
 71
     1
 10
0.0
 20
0.0
 11
420.0
 21
297.0
 12
0.0
 22
0.0
 32
0.0
 14
1.0000000000E+20
 24
1.0000000000E+20
 34
1.0000000000E+20
 15
-1.0000000000E+20
 25
-1.0000000000E+20
 35
-1.0000000000E+20
146
0.0
 13
0.0
 23
0.0
 33
0.0
 16
1.0
 26
0.0
 36
0.0
 17
0.0
 27
1.0
 37
0.0
 76
     0
330
1B
  0
LAYOUT
  5
26
102
{ACAD_REACTORS
330
1A
102
}
330
1A
100
AcDbPlotSettings
  1

  2
none_device
  4

  6

 40
0.0
 41
0.0
 42
0.0
 43
0.0
 44
0.0
 45
0.0
 46
0.0
 47
0.0
 48
0.0
 49
0.0
140
0.0
141
0.0
142
1.0
143
1.0
 70
   688
 72
     1
 73
     0
 74
     5
  7

 75
    16
147
1.0
148
0.0
149
0.0
100
AcDbLayout
  1
Layout2
 70
     1
 71
     2
 10
0.0
 20
0.0
 11
0.0
 21
0.0
 12
0.0
 22
0.0
 32
0.0
 14
0.0
 24
0.0
 34
0.0
 15
0.0
 25
0.0
 35
0.0
146
0.0
 13
0.0
 23
0.0
 33
0.0
 16
1.0
 26
0.0
 36
0.0
 17
0.0
 27
1.0
 37
0.0
 76
     0
330
23
  0
LAYOUT
  5
22
102
{ACAD_REACTORS
330
1A
102
}
330
1A
100
AcDbPlotSettings
  1

  2
none_device
  4
Letter_(8.50_x_11.00_Inches)
  6

 40
6.35
 41
6.35
 42
6.35000508
 43
6.35000508
 44
215.9
 45
279.4
 46
0.0
 47
0.0
 48
0.0
 49
0.0
140
0.0
141
0.0
142
1.0
143
1.0
 70
  1712
 72
     1
 73
     0
 74
     0
  7

 75
     0
147
1.0
148
0.0
149
0.0
100
AcDbLayout
  1
Model
 70
     1
 71
     0
 10
0.0
 20
0.0
 11
420.0
 21
297.0
 12
0.0
 22
0.0
 32
0.0
 14
0.0
 24
0.0
 34
0.0
 15
420.0
 25
297.0
 35
0.0
146
0.0
 13
0.0
 23
0.0
 33
0.0
 16
1.0
 26
0.0
 36
0.0
 17
0.0
 27
1.0
 37
0.0
 76
     0
330
1F
331
29
  0
MLINESTYLE
  5
18
102
{ACAD_REACTORS
330
17
102
}
330
17
100
AcDbMlineStyle
  2
Standard
 70
     0
  3

 62
   256
 51
90.0
 52
90.0
 71
     2
 49
0.5
 62
   256
  6
BYLAYER
 49
-0.5
 62
   256
  6
BYLAYER
  0
ACDBPLACEHOLDER
  5
F
102
{ACAD_REACTORS
330
E
102
}
330
E
  0
SCALE
  5
48
102
{ACAD_REACTORS
330
47
102
}
330
47
100
AcDbScale
 70
     0
300
1:1
140
1.0
141
1.0
290
     1
  0
SCALE
  5
49
102
{ACAD_REACTORS
330
47
102
}
330
47
100
AcDbScale
 70
     0
300
1:2
140
1.0
141
2.0
290
     0
  0
SCALE
  5
4A
102
{ACAD_REACTORS
330
47
102
}
330
47
100
AcDbScale
 70
     0
300
1:4
140
1.0
141
4.0
290
     0
  0
SCALE
  5
4B
102
{ACAD_REACTORS
330
47
102
}
330
47
100
AcDbScale
 70
     0
300
1:5
140
1.0
141
5.0
290
     0
  0
SCALE
  5
4C
102
{ACAD_REACTORS
330
47
102
}
330
47
100
AcDbScale
 70
     0
300
1:8
140
1.0
141
8.0
290
     0
  0
SCALE
  5
4D
102
{ACAD_REACTORS
330
47
102
}
330
47
100
AcDbScale
 70
     0
300
1:10
140
1.0
141
10.0
290
     0
  0
SCALE
  5
4E
102
{ACAD_REACTORS
330
47
102
}
330
47
100
AcDbScale
 70
     0
300
1:16
140
1.0
141
16.0
290
     0
  0
SCALE
  5
4F
102
{ACAD_REACTORS
330
47
102
}
330
47
100
AcDbScale
 70
     0
300
1:20
140
1.0
141
20.0
290
     0
  0
SCALE
  5
50
102
{ACAD_REACTORS
330
47
102
}
330
47
100
AcDbScale
 70
     0
300
1:30
140
1.0
141
30.0
290
     0
  0
SCALE
  5
51
102
{ACAD_REACTORS
330
47
102
}
330
47
100
AcDbScale
 70
     0
300
1:40
140
1.0
141
40.0
290
     0
  0
SCALE
  5
52
102
{ACAD_REACTORS
330
47
102
}
330
47
100
AcDbScale
 70
     0
300
1:50
140
1.0
141
50.0
290
     0
  0
SCALE
  5
53
102
{ACAD_REACTORS
330
47
102
}
330
47
100
AcDbScale
 70
     0
300
1:100
140
1.0
141
100.0
290
     0
  0
SCALE
  5
54
102
{ACAD_REACTORS
330
47
102
}
330
47
100
AcDbScale
 70
     0
300
2:1
140
2.0
141
1.0
290
     0
  0
SCALE
  5
55
102
{ACAD_REACTORS
330
47
102
}
330
47
100
AcDbScale
 70
     0
300
4:1
140
4.0
141
1.0
290
     0
  0
SCALE
  5
56
102
{ACAD_REACTORS
330
47
102
}
330
47
100
AcDbScale
 70
     0
300
8:1
140
8.0
141
1.0
290
     0
  0
SCALE
  5
57
102
{ACAD_REACTORS
330
47
102
}
330
47
100
AcDbScale
 70
     0
300
10:1
140
10.0
141
1.0
290
     0
  0
SCALE
  5
58
102
{ACAD_REACTORS
330
47
102
}
330
47
100
AcDbScale
 70
     0
300
100:1
140
100.0
141
1.0
290
     0
  0
SCALE
  5
59
102
{ACAD_REACTORS
330
47
102
}
330
47
100
AcDbScale
 70
     0
300
1/128" = 1'-0"
140
0.0078125
141
12.0
290
     0
  0
SCALE
  5
5A
102
{ACAD_REACTORS
330
47
102
}
330
47
100
AcDbScale
 70
     0
300
1/64" = 1'-0"
140
0.015625
141
12.0
290
     0
  0
SCALE
  5
5B
102
{ACAD_REACTORS
330
47
102
}
330
47
100
AcDbScale
 70
     0
300
1/32" = 1'-0"
140
0.03125
141
12.0
290
     0
  0
SCALE
  5
5C
102
{ACAD_REACTORS
330
47
102
}
330
47
100
AcDbScale
 70
     0
300
1/16" = 1'-0"
140
0.0625
141
12.0
290
     0
  0
SCALE
  5
5D
102
{ACAD_REACTORS
330
47
102
}
330
47
100
AcDbScale
 70
     0
300
3/32" = 1'-0"
140
0.09375
141
12.0
290
     0
  0
SCALE
  5
5E
102
{ACAD_REACTORS
330
47
102
}
330
47
100
AcDbScale
 70
     0
300
1/8" = 1'-0"
140
0.125
141
12.0
290
     0
  0
SCALE
  5
5F
102
{ACAD_REACTORS
330
47
102
}
330
47
100
AcDbScale
 70
     0
300
3/16" = 1'-0"
140
0.1875
141
12.0
290
     0
  0
SCALE
  5
60
102
{ACAD_REACTORS
330
47
102
}
330
47
100
AcDbScale
 70
     0
300
1/4" = 1'-0"
140
0.25
141
12.0
290
     0
  0
SCALE
  5
61
102
{ACAD_REACTORS
330
47
102
}
330
47
100
AcDbScale
 70
     0
300
3/8" = 1'-0"
140
0.375
141
12.0
290
     0
  0
SCALE
  5
62
102
{ACAD_REACTORS
330
47
102
}
330
47
100
AcDbScale
 70
     0
300
1/2" = 1'-0"
140
0.5
141
12.0
290
     0
  0
SCALE
  5
63
102
{ACAD_REACTORS
330
47
102
}
330
47
100
AcDbScale
 70
     0
300
3/4" = 1'-0"
140
0.75
141
12.0
290
     0
  0
SCALE
  5
64
102
{ACAD_REACTORS
330
47
102
}
330
47
100
AcDbScale
 70
     0
300
1" = 1'-0"
140
1.0
141
12.0
290
     0
  0
SCALE
  5
65
102
{ACAD_REACTORS
330
47
102
}
330
47
100
AcDbScale
 70
     0
300
1-1/2" = 1'-0"
140
1.5
141
12.0
290
     0
  0
SCALE
  5
66
102
{ACAD_REACTORS
330
47
102
}
330
47
100
AcDbScale
 70
     0
300
3" = 1'-0"
140
3.0
141
12.0
290
     0
  0
SCALE
  5
67
102
{ACAD_REACTORS
330
47
102
}
330
47
100
AcDbScale
 70
     0
300
6" = 1'-0"
140
6.0
141
12.0
290
     0
  0
SCALE
  5
68
102
{ACAD_REACTORS
330
47
102
}
330
47
100
AcDbScale
 70
     0
300
1'-0" = 1'-0"
140
12.0
141
12.0
290
     0
  0
ENDSEC
  0
EOF
