  0
SECTION
  2
HEADER
  9
$ACADVER
  1
AC1015
  9
$ACADMAINTVER
 70
     6
  9
$DWGCODEPAGE
  3
ANSI_1254
  9
$INSBASE
 10
0.0
 20
0.0
 30
0.0
  9
$EXTMIN
 10
101.6424771025374
 20
110.6649541528818
 30
0.0
  9
$EXTMAX
 10
702.2604121466677
 20
1520.187724744274
 30
0.0
  9
$LIMMIN
 10
0.0
 20
0.0
  9
$LIMMAX
 10
420.0
 20
297.0
  9
$ORTHOMODE
 70
     0
  9
$REGENMODE
 70
     1
  9
$FILLMODE
 70
     1
  9
$QTEXTMODE
 70
     0
  9
$MIRRTEXT
 70
     1
  9
$LTSCALE
 40
1.0
  9
$ATTMODE
 70
     1
  9
$TEXTSIZE
 40
3.5
  9
$TRACEWID
 40
1.0
  9
$TEXTSTYLE
  7
Standard
  9
$CLAYER
  8
0
  9
$CELTYPE
  6
ByLayer
  9
$CECOLOR
 62
   256
  9
$CELTSCALE
 40
1.0
  9
$DISPSILH
 70
     0
  9
$DIMSCALE
 40
1.0
  9
$DIMASZ
 40
3.302
  9
$DIMEXO
 40
1.0
  9
$DIMDLI
 40
3.75
  9
$DIMRND
 40
0.0
  9
$DIMDLE
 40
0.0
  9
$DIMEXE
 40
1.0
  9
$DIMTP
 40
0.0
  9
$DIMTM
 40
0.0
  9
$DIMTXT
 40
3.5
  9
$DIMCEN
 40
2.5
  9
$DIMTSZ
 40
0.0
  9
$DIMTOL
 70
     0
  9
$DIMLIM
 70
     0
  9
$DIMTIH
 70
     1
  9
$DIMTOH
 70
     1
  9
$DIMSE1
 70
     0
  9
$DIMSE2
 70
     0
  9
$DIMTAD
 70
     1
  9
$DIMZIN
 70
     1
  9
$DIMBLK
  1

  9
$DIMASO
 70
     1
  9
$DIMSHO
 70
     1
  9
$DIMPOST
  1

  9
$DIMAPOST
  1

  9
$DIMALT
 70
     0
  9
$DIMALTD
 70
     3
  9
$DIMALTF
 40
0.0393700787
  9
$DIMLFAC
 40
7.0
  9
$DIMTOFL
 70
     1
  9
$DIMTVP
 40
0.0
  9
$DIMTIX
 70
     0
  9
$DIMSOXD
 70
     0
  9
$DIMSAH
 70
     0
  9
$DIMBLK1
  1

  9
$DIMBLK2
  1

  9
$DIMSTYLE
  2
ISO-25
  9
$DIMCLRD
 70
     0
  9
$DIMCLRE
 70
     0
  9
$DIMCLRT
 70
     0
  9
$DIMTFAC
 40
1.0
  9
$DIMGAP
 40
1.524
  9
$DIMJUST
 70
     0
  9
$DIMSD1
 70
     0
  9
$DIMSD2
 70
     0
  9
$DIMTOLJ
 70
     0
  9
$DIMTZIN
 70
     1
  9
$DIMALTZ
 70
     0
  9
$DIMALTTZ
 70
     0
  9
$DIMUPT
 70
     0
  9
$DIMDEC
 70
     2
  9
$DIMTDEC
 70
     2
  9
$DIMALTU
 70
     2
  9
$DIMALTTD
 70
     3
  9
$DIMTXSTY
  7
Standard
  9
$DIMAUNIT
 70
     0
  9
$DIMADEC
 70
     2
  9
$DIMALTRND
 40
0.0
  9
$DIMAZIN
 70
     0
  9
$DIMDSEP
 70
    44
  9
$DIMATFIT
 70
     3
  9
$DIMFRAC
 70
     0
  9
$DIMLDRBLK
  1

  9
$DIMLUNIT
 70
     2
  9
$DIMLWD
 70
    -2
  9
$DIMLWE
 70
    -2
  9
$DIMTMOVE
 70
     0
  9
$LUNITS
 70
     2
  9
$LUPREC
 70
     2
  9
$SKETCHINC
 40
1.0
  9
$FILLETRAD
 40
10.0
  9
$AUNITS
 70
     0
  9
$AUPREC
 70
     2
  9
$MENU
  1
.
  9
$ELEVATION
 40
0.0
  9
$PELEVATION
 40
0.0
  9
$THICKNESS
 40
0.0
  9
$LIMCHECK
 70
     0
  9
$CHAMFERA
 40
0.0
  9
$CHAMFERB
 40
0.0
  9
$CHAMFERC
 40
0.0
  9
$CHAMFERD
 40
0.0
  9
$SKPOLY
 70
     0
  9
$TDCREATE
 40
2460175.475619051
  9
$TDUCREATE
 40
2460175.350619051
  9
$TDUPDATE
 40
2460175.476743183
  9
$TDUUPDATE
 40
2460175.351743183
  9
$TDINDWG
 40
0.0002949884
  9
$TDUSRTIMER
 40
0.0002949769
  9
$USRTIMER
 70
     1
  9
$ANGBASE
 50
0.0
  9
$ANGDIR
 70
     0
  9
$PDMODE
 70
     0
  9
$PDSIZE
 40
-1.0
  9
$PLINEWID
 40
0.0
  9
$SPLFRAME
 70
     0
  9
$SPLINETYPE
 70
     6
  9
$SPLINESEGS
 70
     8
  9
$HANDSEED
  5
16C
  9
$SURFTAB1
 70
     6
  9
$SURFTAB2
 70
     6
  9
$SURFTYPE
 70
     6
  9
$SURFU
 70
     6
  9
$SURFV
 70
     6
  9
$UCSBASE
  2

  9
$UCSNAME
  2

  9
$UCSORG
 10
0.0
 20
0.0
 30
0.0
  9
$UCSXDIR
 10
1.0
 20
0.0
 30
0.0
  9
$UCSYDIR
 10
0.0
 20
1.0
 30
0.0
  9
$UCSORTHOREF
  2

  9
$UCSORTHOVIEW
 70
     0
  9
$UCSORGTOP
 10
0.0
 20
0.0
 30
0.0
  9
$UCSORGBOTTOM
 10
0.0
 20
0.0
 30
0.0
  9
$UCSORGLEFT
 10
0.0
 20
0.0
 30
0.0
  9
$UCSORGRIGHT
 10
0.0
 20
0.0
 30
0.0
  9
$UCSORGFRONT
 10
0.0
 20
0.0
 30
0.0
  9
$UCSORGBACK
 10
0.0
 20
0.0
 30
0.0
  9
$PUCSBASE
  2

  9
$PUCSNAME
  2

  9
$PUCSORG
 10
0.0
 20
0.0
 30
0.0
  9
$PUCSXDIR
 10
1.0
 20
0.0
 30
0.0
  9
$PUCSYDIR
 10
0.0
 20
1.0
 30
0.0
  9
$PUCSORTHOREF
  2

  9
$PUCSORTHOVIEW
 70
     0
  9
$PUCSORGTOP
 10
0.0
 20
0.0
 30
0.0
  9
$PUCSORGBOTTOM
 10
0.0
 20
0.0
 30
0.0
  9
$PUCSORGLEFT
 10
0.0
 20
0.0
 30
0.0
  9
$PUCSORGRIGHT
 10
0.0
 20
0.0
 30
0.0
  9
$PUCSORGFRONT
 10
0.0
 20
0.0
 30
0.0
  9
$PUCSORGBACK
 10
0.0
 20
0.0
 30
0.0
  9
$USERI1
 70
     0
  9
$USERI2
 70
     0
  9
$USERI3
 70
     0
  9
$USERI4
 70
     0
  9
$USERI5
 70
     0
  9
$USERR1
 40
0.0
  9
$USERR2
 40
0.0
  9
$USERR3
 40
0.0
  9
$USERR4
 40
0.0
  9
$USERR5
 40
0.0
  9
$WORLDVIEW
 70
     1
  9
$SHADEDGE
 70
     3
  9
$SHADEDIF
 70
    70
  9
$TILEMODE
 70
     1
  9
$MAXACTVP
 70
    64
  9
$PINSBASE
 10
0.0
 20
0.0
 30
0.0
  9
$PLIMCHECK
 70
     0
  9
$PEXTMIN
 10
1.000000000000000E+20
 20
1.000000000000000E+20
 30
1.000000000000000E+20
  9
$PEXTMAX
 10
-1.000000000000000E+20
 20
-1.000000000000000E+20
 30
-1.000000000000000E+20
  9
$PLIMMIN
 10
0.0
 20
0.0
  9
$PLIMMAX
 10
0.0
 20
0.0
  9
$UNITMODE
 70
     0
  9
$VISRETAIN
 70
     1
  9
$PLINEGEN
 70
     0
  9
$PSLTSCALE
 70
     1
  9
$TREEDEPTH
 70
  3020
  9
$CMLSTYLE
  2
Standard
  9
$CMLJUST
 70
     0
  9
$CMLSCALE
 40
20.0
  9
$PROXYGRAPHICS
 70
     1
  9
$MEASUREMENT
 70
     1
  9
$CELWEIGHT
370
    -1
  9
$ENDCAPS
280
     0
  9
$JOINSTYLE
280
     0
  9
$LWDISPLAY
290
     1
  9
$INSUNITS
 70
     4
  9
$HYPERLINKBASE
  1

  9
$STYLESHEET
  1

  9
$XEDIT
290
     1
  9
$CEPSNTYPE
380
     0
  9
$PSTYLEMODE
290
     1
  9
$FINGERPRINTGUID
  2
{7624485e-4f15-4537-9a83-c7d85b491de7}
  9
$VERSIONGUID
  2
{FAEB1C32-E019-11D5-929B-00C0DF256EC4}
  9
$EXTNAMES
290
     1
  9
$PSVPSCALE
 40
0.0
  9
$OLESTARTUP
290
     0
  0
ENDSEC
  0
SECTION
  2
CLASSES
  0
CLASS
  1
ACDBDICTIONARYWDFLT
  2
AcDbDictionaryWithDefault
  3
ObjectDBX Classes
 90
        0
280
     0
281
     0
  0
CLASS
  1
VISUALSTYLE
  2
AcDbVisualStyle
  3
ObjectDBX Classes
 90
     4095
280
     0
281
     0
  0
CLASS
  1
MATERIAL
  2
AcDbMaterial
  3
ObjectDBX Classes
 90
     1153
280
     0
281
     0
  0
CLASS
  1
SCALE
  2
AcDbScale
  3
ObjectDBX Classes
 90
     1153
280
     0
281
     0
  0
CLASS
  1
TABLESTYLE
  2
AcDbTableStyle
  3
ObjectDBX Classes
 90
     4095
280
     0
281
     0
  0
CLASS
  1
MLEADERSTYLE
  2
AcDbMLeaderStyle
  3
ACDB_MLEADERSTYLE_CLASS
 90
     4095
280
     0
281
     0
  0
CLASS
  1
SUN
  2
AcDbSun
  3
SCENEOE
 90
     1153
280
     0
281
     0
  0
CLASS
  1
ACDBPLACEHOLDER
  2
AcDbPlaceHolder
  3
ObjectDBX Classes
 90
        0
280
     0
281
     0
  0
CLASS
  1
LAYOUT
  2
AcDbLayout
  3
ObjectDBX Classes
 90
        0
280
     0
281
     0
  0
ENDSEC
  0
SECTION
  2
TABLES
  0
TABLE
  2
VPORT
  5
8
330
0
100
AcDbSymbolTable
 70
     1
  0
VPORT
  5
29
330
8
100
AcDbSymbolTableRecord
100
AcDbViewportTableRecord
  2
*Active
 70
     0
 10
0.0
 20
0.0
 11
1.0
 21
1.0
 12
924.7553479701726
 22
-49.77447633654174
 13
0.0
 23
0.0
 14
10.0
 24
10.0
 15
10.0
 25
10.0
 16
0.0
 26
0.0
 36
1.0
 17
0.0
 27
0.0
 37
0.0
 40
4321.918822824955
 41
1.928843710292249
 42
50.0
 43
0.0
 44
0.0
 50
0.0
 51
0.0
 71
    16
 72
  2000
 73
     1
 74
     3
 75
     0
 76
     0
 77
     0
 78
     0
281
     0
 65
     1
110
0.0
120
0.0
130
0.0
111
1.0
121
0.0
131
0.0
112
0.0
122
1.0
132
0.0
 79
     0
146
0.0
  0
ENDTAB
  0
TABLE
  2
LTYPE
  5
5
330
0
100
AcDbSymbolTable
 70
     6
  0
LTYPE
  5
14
330
5
100
AcDbSymbolTableRecord
100
AcDbLinetypeTableRecord
  2
ByBlock
 70
     0
  3

 72
    65
 73
     0
 40
0.0
  0
LTYPE
  5
15
330
5
100
AcDbSymbolTableRecord
100
AcDbLinetypeTableRecord
  2
ByLayer
 70
     0
  3

 72
    65
 73
     0
 40
0.0
  0
LTYPE
  5
16
330
5
100
AcDbSymbolTableRecord
100
AcDbLinetypeTableRecord
  2
Continuous
 70
     0
  3
Solid line
 72
    65
 73
     0
 40
0.0
  0
LTYPE
  5
6E
330
5
100
AcDbSymbolTableRecord
100
AcDbLinetypeTableRecord
  2
HIDDEN
 70
     0
  3
Hidden __ __ __ __ __ __ __ __ __ __ __ __ __ __
 72
    65
 73
     2
 40
1.905
 49
1.27
 74
     0
 49
-0.635
 74
     0
  0
LTYPE
  5
6F
330
5
100
AcDbSymbolTableRecord
100
AcDbLinetypeTableRecord
  2
PHANTOM
 70
     0
  3
Phantom ______  __  __  ______  __  __  ______
 72
    65
 73
     6
 40
12.7
 49
6.35
 74
     0
 49
-1.27
 74
     0
 49
1.27
 74
     0
 49
-1.27
 74
     0
 49
1.27
 74
     0
 49
-1.27
 74
     0
  0
LTYPE
  5
70
330
5
100
AcDbSymbolTableRecord
100
AcDbLinetypeTableRecord
  2
CENTER
 70
     0
  3
Center ____ _ ____ _ ____ _ ____ _ ____ _ ____
 72
    65
 73
     4
 40
10.16
 49
6.35
 74
     0
 49
-1.27
 74
     0
 49
1.27
 74
     0
 49
-1.27
 74
     0
  0
LTYPE
  5
71
330
5
100
AcDbSymbolTableRecord
100
AcDbLinetypeTableRecord
  2
CENTERX2
 70
     0
  3
Center (2x) ________  __  ________  __  _____
 72
    65
 73
     4
 40
20.32
 49
12.7
 74
     0
 49
-2.54
 74
     0
 49
2.54
 74
     0
 49
-2.54
 74
     0
  0
LTYPE
  5
72
330
5
100
AcDbSymbolTableRecord
100
AcDbLinetypeTableRecord
  2
DOT2
 70
     0
  3
Dot (.5x) ........................................
 72
    65
 73
     2
 40
0.635
 49
0.0
 74
     0
 49
-0.635
 74
     0
  0
ENDTAB
  0
TABLE
  2
LAYER
  5
2
330
0
100
AcDbSymbolTable
 70
     5
  0
LAYER
  5
10
330
2
100
AcDbSymbolTableRecord
100
AcDbLayerTableRecord
  2
0
 70
     0
 62
     7
  6
Continuous
370
    -3
390
F
  0
LAYER
  5
73
330
2
100
AcDbSymbolTableRecord
100
AcDbLayerTableRecord
  2
FORMAT
 70
     0
 62
     7
  6
Continuous
370
    -3
390
F
  0
LAYER
  5
74
330
2
100
AcDbSymbolTableRecord
100
AcDbLayerTableRecord
  2
SLD-0
 70
     0
 62
   179
  6
Continuous
370
    -3
390
F
  0
LAYER
  5
75
330
2
100
AcDbSymbolTableRecord
100
AcDbLayerTableRecord
  2
AAA_EKSEN
 70
     0
 62
     1
  6
CENTER
370
    -3
390
F
  0
LAYER
  5
76
330
2
100
AcDbSymbolTableRecord
100
AcDbLayerTableRecord
  2
03
 70
     0
 62
     3
  6
HIDDEN
370
    -3
390
F
  0
ENDTAB
  0
TABLE
  2
STYLE
  5
3
330
0
100
AcDbSymbolTable
 70
     1
  0
STYLE
  5
11
330
3
100
AcDbSymbolTableRecord
100
AcDbTextStyleTableRecord
  2
Standard
 70
     0
 40
0.0
 41
1.0
 50
0.0
 71
     0
 42
3.5
  3
txt
  4

  0
ENDTAB
  0
TABLE
  2
VIEW
  5
6
330
0
100
AcDbSymbolTable
 70
     0
  0
ENDTAB
  0
TABLE
  2
UCS
  5
7
330
0
100
AcDbSymbolTable
 70
     0
  0
ENDTAB
  0
TABLE
  2
APPID
  5
9
330
0
100
AcDbSymbolTable
 70
     1
  0
APPID
  5
12
330
9
100
AcDbSymbolTableRecord
100
AcDbRegAppTableRecord
  2
ACAD
 70
     0
  0
ENDTAB
  0
TABLE
  2
DIMSTYLE
  5
A
330
0
100
AcDbSymbolTable
 70
     1
100
AcDbDimStyleTable
  0
DIMSTYLE
105
27
330
A
100
AcDbSymbolTableRecord
100
AcDbDimStyleTableRecord
  2
ISO-25
 70
     0
 41
2.5
 42
0.625
 43
3.75
 44
1.25
 73
     0
 74
     0
 77
     1
 78
     8
140
2.5
141
2.5
143
0.0393700787
147
0.625
171
     3
172
     1
178
     0
271
     2
272
     2
274
     3
278
    44
283
     0
284
     8
340
11
  0
ENDTAB
  0
TABLE
  2
BLOCK_RECORD
  5
1
330
0
100
AcDbSymbolTable
 70
     1
  0
BLOCK_RECORD
  5
1F
102
{ACAD_XDICTIONARY
360
169
102
}
330
1
100
AcDbSymbolTableRecord
100
AcDbBlockTableRecord
  2
*Model_Space
340
22
  0
BLOCK_RECORD
  5
1B
330
1
100
AcDbSymbolTableRecord
100
AcDbBlockTableRecord
  2
*Paper_Space
340
1E
  0
BLOCK_RECORD
  5
23
330
1
100
AcDbSymbolTableRecord
100
AcDbBlockTableRecord
  2
*Paper_Space0
340
26
  0
ENDTAB
  0
ENDSEC
  0
SECTION
  2
BLOCKS
  0
BLOCK
  5
20
330
1F
100
AcDbEntity
  8
0
100
AcDbBlockBegin
  2
*Model_Space
 70
     0
 10
0.0
 20
0.0
 30
0.0
  3
*Model_Space
  1

  0
ENDBLK
  5
21
330
1F
100
AcDbEntity
  8
0
100
AcDbBlockEnd
  0
BLOCK
  5
1C
330
1B
100
AcDbEntity
 67
     1
  8
0
100
AcDbBlockBegin
  2
*Paper_Space
 70
     0
 10
0.0
 20
0.0
 30
0.0
  3
*Paper_Space
  1

  0
ENDBLK
  5
1D
330
1B
100
AcDbEntity
 67
     1
  8
0
100
AcDbBlockEnd
  0
BLOCK
  5
24
330
23
100
AcDbEntity
  8
0
100
AcDbBlockBegin
  2
*Paper_Space0
 70
     0
 10
0.0
 20
0.0
 30
0.0
  3
*Paper_Space0
  1

  0
ENDBLK
  5
25
330
23
100
AcDbEntity
  8
0
100
AcDbBlockEnd
  0
ENDSEC
  0
SECTION
  2
ENTITIES
  0
LINE
  5
77
330
1F
100
AcDbEntity
  8
0
  6
Continuous
 62
     7
370
    25
100
AcDbLine
 10
359.6554110685379
 20
884.3758224302117
 30
0.0
 11
362.6695310132378
 21
884.3758224302117
 31
0.0
  0
LINE
  5
78
330
1F
100
AcDbEntity
  8
0
  6
Continuous
 62
     7
370
    25
100
AcDbLine
 10
362.3027071407379
 20
892.3758224302117
 30
0.0
 11
359.6554110685379
 21
892.3758224302117
 31
0.0
  0
LINE
  5
79
330
1F
100
AcDbEntity
  8
0
  6
Continuous
 62
     7
370
    25
100
AcDbLine
 10
444.2474781806378
 20
892.3758224302117
 30
0.0
 11
441.5980187127378
 21
892.3758224302117
 31
0.0
  0
LINE
  5
7A
330
1F
100
AcDbEntity
  8
0
  6
Continuous
 62
     7
370
    25
100
AcDbLine
 10
441.2326000975379
 20
884.3758224302117
 30
0.0
 11
444.2474781806378
 21
884.3758224302117
 31
0.0
  0
LINE
  5
7B
330
1F
100
AcDbEntity
  8
0
  6
Continuous
 62
     7
370
    25
100
AcDbLine
 10
359.6554110685379
 20
864.3758224302117
 30
0.0
 11
363.5865906945379
 21
864.3758224302117
 31
0.0
  0
LINE
  5
7C
330
1F
100
AcDbEntity
  8
0
  6
Continuous
 62
     7
370
    25
100
AcDbLine
 10
363.2197668220379
 20
872.3758224302117
 30
0.0
 11
359.6554110685379
 21
872.3758224302117
 31
0.0
  0
LINE
  5
7D
330
1F
100
AcDbEntity
  8
0
  6
Continuous
 62
     7
370
    25
100
AcDbLine
 10
444.2474781806378
 20
872.3758224302117
 30
0.0
 11
440.6844721747378
 21
872.3758224302117
 31
0.0
  0
LINE
  5
7E
330
1F
100
AcDbEntity
  8
0
  6
Continuous
 62
     7
370
    25
100
AcDbLine
 10
440.3190535595379
 20
864.3758224302117
 30
0.0
 11
444.2474781806378
 21
864.3758224302117
 31
0.0
  0
SPLINE
  5
7F
330
1F
100
AcDbEntity
  8
0
  6
Continuous
 62
     7
370
    25
100
AcDbSpline
210
0.0
220
0.0
230
1.0
 70
     8
 71
     3
 72
    19
 73
    15
 74
     0
 42
0.000000001
 43
0.00000001
 40
0.0
 40
0.0
 40
0.0
 40
0.0
 40
0.0065314931977399
 40
0.0923893450461386
 40
0.1754174550690955
 40
0.2582905631633368
 40
0.3443225280359238
 40
0.4371576489567071
 40
0.5386570233091854
 40
0.6503220331201655
 40
0.7473254383503952
 40
0.8390066248673897
 40
0.929375560645841
 40
1.0
 40
1.0
 40
1.0
 40
1.0
 10
489.9612848749329
 20
1420.078401902871
 30
0.0
 10
489.9873297039359
 20
1420.086636571115
 30
0.0
 10
490.3557392881738
 20
1420.203117685412
 30
0.0
 10
490.9655086371779
 20
1420.642413569963
 30
0.0
 10
491.7338998143408
 20
1421.355163799424
 30
0.0
 10
492.3272129684739
 20
1422.230863819318
 30
0.0
 10
492.7605375209819
 20
1423.236083913067
 30
0.0
 10
493.0151504627419
 20
1424.389915862112
 30
0.0
 10
493.0501279955619
 20
1425.688183107451
 30
0.0
 10
492.8148884787948
 20
1426.979394108663
 30
0.0
 10
492.3278898013799
 20
1428.141986958859
 30
0.0
 10
491.6499409353169
 20
1429.091267796299
 30
0.0
 10
490.8685984974959
 20
1429.820767836863
 30
0.0
 10
490.2605225677198
 20
1430.114260365477
 30
0.0
 10
489.9937723266619
 20
1430.243009422828
 30
0.0
  0
LINE
  5
80
330
1F
100
AcDbEntity
  8
0
  6
Continuous
 62
     7
370
    25
100
AcDbLine
 10
488.6345868708379
 20
1419.925822430212
 30
0.0
 11
489.3098206955378
 21
1419.925822430212
 31
0.0
  0
LINE
  5
81
330
1F
100
AcDbEntity
  8
0
  6
Continuous
 62
     7
370
    25
100
AcDbLine
 10
489.3098206955378
 20
1430.425822430212
 30
0.0
 11
488.6345868708379
 21
1430.425822430212
 31
0.0
  0
SPLINE
  5
82
330
1F
100
AcDbEntity
  8
0
  6
Continuous
 62
     7
370
    25
100
AcDbSpline
210
0.0
220
0.0
230
1.0
 70
     8
 71
     3
 72
    13
 73
     9
 74
     0
 42
0.000000001
 43
0.00000001
 40
0.0
 40
0.0
 40
0.0
 40
0.0
 40
0.0493003768409382
 40
0.2417248283499085
 40
0.4364827720468694
 40
0.6356398936172498
 40
0.8406134156375082
 40
1.0
 40
1.0
 40
1.0
 40
1.0
 10
343.8726585911902
 20
1429.413858668207
 30
0.0
 10
343.7877133182756
 20
1429.352268626218
 30
0.0
 10
343.3712178910562
 20
1429.05028630312
 30
0.0
 10
342.8038842418632
 20
1428.29100113366
 30
0.0
 10
342.2229313083168
 20
1427.181226251191
 30
0.0
 10
341.9177601486002
 20
1425.928483420939
 30
0.0
 10
341.8818588193881
 20
1424.711717881869
 30
0.0
 10
342.054482102227
 20
1423.951682308317
 30
0.0
 10
342.1299948571941
 20
1423.619210470866
 30
0.0
  0
SPLINE
  5
83
330
1F
100
AcDbEntity
  8
0
  6
Continuous
 62
     7
370
    25
100
AcDbSpline
210
0.0
220
0.0
230
1.0
 70
     8
 71
     3
 72
    10
 73
     6
 74
     0
 42
0.000000001
 43
0.00000001
 40
0.0
 40
0.0
 40
0.0
 40
0.0
 40
0.3993394266790916
 40
0.7766971712625317
 40
1.0
 40
1.0
 40
1.0
 40
1.0
 10
342.1299948571941
 20
1423.619210470866
 30
0.0
 10
342.2795952751136
 20
1423.207106535923
 30
0.0
 10
342.570561339707
 20
1422.405582971875
 30
0.0
 10
343.2075177407771
 20
1421.489053166622
 30
0.0
 10
343.7168767028729
 20
1421.073086644778
 30
0.0
 10
343.9062370540108
 20
1420.918446062204
 30
0.0
  0
LINE
  5
84
330
1F
100
AcDbEntity
  8
0
  6
Continuous
 62
     7
370
    25
100
AcDbLine
 10
346.8758343209379
 20
1430.425822430212
 30
0.0
 11
346.4468130138379
 21
1430.425822430212
 31
0.0
  0
LINE
  5
85
330
1F
100
AcDbEntity
  8
0
  6
Continuous
 62
     7
370
    25
100
AcDbLine
 10
346.4468130138379
 20
1419.925822430212
 30
0.0
 11
346.8758343209379
 21
1419.925822430212
 31
0.0
  0
LINE
  5
86
330
1F
100
AcDbEntity
  8
0
  6
Continuous
 62
     7
370
    25
100
AcDbLine
 10
488.6345868709378
 20
1431.425822430212
 30
0.0
 11
487.6217361339378
 21
1431.425822430212
 31
0.0
  0
LINE
  5
87
330
1F
100
AcDbEntity
  8
0
  6
Continuous
 62
     7
370
    25
100
AcDbLine
 10
487.6217361339378
 20
1418.925822430212
 30
0.0
 11
488.6345868709378
 21
1418.925822430212
 31
0.0
  0
LINE
  5
88
330
1F
100
AcDbEntity
  8
0
  6
Continuous
 62
     7
370
    25
100
AcDbLine
 10
346.8758343210378
 20
1418.925822430312
 30
0.0
 11
347.5193662817378
 21
1418.925822430312
 31
0.0
  0
LINE
  5
89
330
1F
100
AcDbEntity
  8
0
  6
Continuous
 62
     7
370
    25
100
AcDbLine
 10
347.5193662817378
 20
1431.425822430312
 30
0.0
 11
346.8758343210378
 21
1431.425822430312
 31
0.0
  0
LINE
  5
8A
330
1F
100
AcDbEntity
  8
0
  6
Continuous
 62
     7
370
    25
100
AcDbLine
 10
301.9514446246378
 20
1115.175822430212
 30
0.0
 11
301.9514446246378
 21
1112.375822430212
 31
0.0
  0
LINE
  5
8B
330
1F
100
AcDbEntity
  8
0
  6
Continuous
 62
     7
370
    25
100
AcDbLine
 10
501.9514446246378
 20
1112.375822430212
 30
0.0
 11
501.9514446246378
 21
1115.175822430212
 31
0.0
  0
LINE
  5
8C
330
1F
100
AcDbEntity
  8
0
  6
Continuous
 62
     7
370
    25
100
AcDbLine
 10
500.9514446246378
 20
1109.375822430212
 30
0.0
 11
500.9514446246378
 21
1112.375822430212
 31
0.0
  0
LINE
  5
8D
330
1F
100
AcDbEntity
  8
0
  6
Continuous
 62
     7
370
    25
100
AcDbLine
 10
302.9514446246378
 20
1112.375822430212
 30
0.0
 11
302.9514446246378
 21
1109.375822430212
 31
0.0
  0
LINE
  5
8E
330
1F
100
AcDbEntity
  8
0
  6
Continuous
 62
     7
370
    25
100
AcDbLine
 10
301.9514446246378
 20
1415.175822430212
 30
0.0
 11
301.9514446246378
 21
1115.175822430212
 31
0.0
  0
LINE
  5
8F
330
1F
100
AcDbEntity
  8
0
  6
Continuous
 62
     7
370
    25
100
AcDbLine
 10
501.9514446246378
 20
1115.175822430212
 30
0.0
 11
501.9514446246378
 21
1415.175822430212
 31
0.0
  0
LINE
  5
90
330
1F
100
AcDbEntity
  8
0
  6
Continuous
 62
     7
370
    25
100
AcDbLine
 10
464.3004642254378
 20
918.3758224302117
 30
0.0
 11
464.3004642254378
 21
916.3758224302117
 31
0.0
  0
LINE
  5
91
330
1F
100
AcDbEntity
  8
0
  6
Continuous
 62
     7
370
    25
100
AcDbLine
 10
477.3004642254378
 20
916.3758224302117
 30
0.0
 11
477.3004642254378
 21
918.4967752857117
 31
0.0
  0
LINE
  5
92
330
1F
100
AcDbEntity
  8
0
  6
Continuous
 62
     7
370
    25
100
AcDbLine
 10
326.6024250237379
 20
918.5014153041117
 30
0.0
 11
326.6024250237379
 21
916.3758224302117
 31
0.0
  0
LINE
  5
93
330
1F
100
AcDbEntity
  8
0
  6
Continuous
 62
     7
370
    25
100
AcDbLine
 10
339.6024250237379
 20
916.3758224302117
 30
0.0
 11
339.6024250237379
 21
918.3758224302117
 31
0.0
  0
LINE
  5
94
330
1F
100
AcDbEntity
  8
0
  6
Continuous
 62
     7
370
    25
100
AcDbLine
 10
501.9514446246378
 20
943.3758224302117
 30
0.0
 11
501.9514446246378
 21
1109.375822430212
 31
0.0
  0
LINE
  5
95
330
1F
100
AcDbEntity
  8
0
  6
Continuous
 62
     7
370
    25
100
AcDbLine
 10
301.9514446246378
 20
1109.375822430212
 30
0.0
 11
301.9514446246378
 21
943.3758224302117
 31
0.0
  0
ARC
  5
96
330
1F
100
AcDbEntity
  8
0
  6
Continuous
 62
     7
370
    25
100
AcDbCircle
 10
101.8924771025379
 20
1469.740724770112
 30
0.0
 40
0.2500000000004437
100
AcDbArc
 50
109.2853693241094
 51
258.6022384923976
  0
ARC
  5
97
330
1F
100
AcDbEntity
  8
0
  6
Continuous
 62
     7
370
    25
100
AcDbCircle
 10
702.0104121466379
 20
1469.740724770112
 30
0.0
 40
0.2500000000004213
100
AcDbArc
 50
281.3977615076024
 51
70.7146306760136
  0
ARC
  5
98
330
1F
100
AcDbEntity
  8
0
  6
Continuous
 62
     7
370
    25
100
AcDbCircle
 10
397.3362442182379
 20
625.3946406937117
 30
0.0
 40
894.7930840505618
100
AcDbArc
 50
90.0
 51
109.2853693241
  0
ARC
  5
99
330
1F
100
AcDbEntity
  8
0
  6
Continuous
 62
     7
370
    25
100
AcDbCircle
 10
406.5666450309378
 20
625.3946406937117
 30
0.0
 40
894.7930840505617
100
AcDbArc
 50
70.7146306759
 51
90.0
  0
LINE
  5
9A
330
1F
100
AcDbEntity
  8
0
  6
Continuous
 62
     7
370
    25
100
AcDbLine
 10
406.5666450309378
 20
1520.187724744212
 30
0.0
 11
397.3362442182379
 21
1520.187724744212
 31
0.0
  0
ARC
  5
9B
330
1F
100
AcDbEntity
  8
0
  6
Continuous
 62
     7
370
    25
100
AcDbCircle
 10
300.4514446246378
 20
2454.682072430212
 30
0.0
 40
1005.006249999996
100
AcDbArc
 50
258.6022384923
 51
269.9430462893
  0
ARC
  5
9C
330
1F
100
AcDbEntity
  8
0
  6
Continuous
 62
     7
370
    25
100
AcDbCircle
 10
503.4514446246378
 20
2454.682072430212
 30
0.0
 40
1005.006249999996
100
AcDbArc
 50
270.0569537107
 51
281.3977615077
  0
ARC
  5
9D
330
1F
100
AcDbEntity
  8
0
  6
Continuous
 62
     7
370
    25
100
AcDbCircle
 10
299.4514446246378
 20
1448.676319445212
 30
0.0
 40
1.0
100
AcDbArc
 50
0.0
 51
89.9430462892983
  0
ARC
  5
9E
330
1F
100
AcDbEntity
  8
0
  6
Continuous
 62
     7
370
    25
100
AcDbCircle
 10
504.4514446246378
 20
1448.676319445212
 30
0.0
 40
0.9999999999998863
100
AcDbArc
 50
90.0569537107017
 51
180.0
  0
LINE
  5
9F
330
1F
100
AcDbEntity
  8
0
  6
Continuous
 62
     7
370
    25
100
AcDbLine
 10
300.4514446246378
 20
1448.676319445212
 30
0.0
 11
300.4514446246378
 21
1415.175822430212
 31
0.0
  0
LINE
  5
A0
330
1F
100
AcDbEntity
  8
0
  6
Continuous
 62
     7
370
    25
100
AcDbLine
 10
503.4514446246378
 20
1415.175822430212
 30
0.0
 11
503.4514446246378
 21
1448.676319445212
 31
0.0
  0
LINE
  5
A1
330
1F
100
AcDbEntity
  8
0
  6
Continuous
 62
     7
370
    25
100
AcDbLine
 10
501.9514446246378
 20
933.3758224302117
 30
0.0
 11
501.9514446246378
 21
940.3758224302117
 31
0.0
  0
LINE
  5
A2
330
1F
100
AcDbEntity
  8
0
  6
Continuous
 62
     7
370
    25
100
AcDbLine
 10
301.9514446246378
 20
940.3758224302117
 30
0.0
 11
301.9514446246378
 21
933.3758224302117
 31
0.0
  0
ARC
  5
A3
330
1F
100
AcDbEntity
  8
0
  6
Continuous
 62
     7
370
    25
100
AcDbCircle
 10
486.9514446246378
 20
933.3758224302117
 30
0.0
 40
15.00000000000023
100
AcDbArc
 50
270.0
 51
0.0
  0
ARC
  5
A4
330
1F
100
AcDbEntity
  8
0
  6
Continuous
 62
     7
370
    25
100
AcDbCircle
 10
316.9514446246378
 20
933.3758224302117
 30
0.0
 40
15.0
100
AcDbArc
 50
180.0
 51
270.0
  0
LINE
  5
A5
330
1F
100
AcDbEntity
  8
0
  6
Continuous
 62
     7
370
    25
100
AcDbLine
 10
302.9514446246378
 20
943.3758224302117
 30
0.0
 11
302.9514446246378
 21
940.3758224302117
 31
0.0
  0
LINE
  5
A6
330
1F
100
AcDbEntity
  8
0
  6
Continuous
 62
     7
370
    25
100
AcDbLine
 10
500.9514446246378
 20
940.3758224302117
 30
0.0
 11
500.9514446246378
 21
943.3758224302117
 31
0.0
  0
ARC
  5
A7
330
1F
100
AcDbEntity
  8
0
  6
Continuous
 62
     7
370
    25
100
AcDbCircle
 10
391.1075040432379
 20
916.3758224449117
 30
0.0
 40
1.999999985343354
100
AcDbArc
 50
2.059430890598712
 51
89.98857042119965
  0
ARC
  5
A8
330
1F
100
AcDbEntity
  8
0
  6
Continuous
 62
     7
370
    25
100
AcDbCircle
 10
412.7953840863379
 20
916.3758228454117
 30
0.0
 40
1.9999995848864
100
AcDbArc
 50
90.00336139080072
 51
177.7920046935014
  0
LINE
  5
A9
330
1F
100
AcDbEntity
  8
0
  6
Continuous
 62
     7
370
    25
100
AcDbLine
 10
393.1077184094379
 20
916.4530637350117
 30
0.0
 11
395.7591700462378
 21
850.2960742580117
 31
0.0
  0
LINE
  5
AA
330
1F
100
AcDbEntity
  8
0
  6
Continuous
 62
     7
370
    25
100
AcDbLine
 10
408.1446568492379
 20
850.2958546998117
 30
0.0
 11
410.7940899663379
 21
916.4544243180117
 31
0.0
  0
ARC
  5
AB
330
1F
100
AcDbEntity
  8
0
  6
Continuous
 62
     7
370
    25
100
AcDbCircle
 10
406.1480519465379
 20
850.3758224302117
 30
0.0
 40
2.0
100
AcDbArc
 50
270.0
 51
357.6961916992012
  0
ARC
  5
AC
330
1F
100
AcDbEntity
  8
0
  6
Continuous
 62
     7
370
    25
100
AcDbCircle
 10
397.7548373026378
 20
850.3758224302117
 30
0.0
 40
2.000000000000068
100
AcDbArc
 50
182.3038083007986
 51
270.0
  0
SPLINE
  5
AD
330
1F
100
AcDbEntity
  8
0
  6
Continuous
 62
     7
370
    25
100
AcDbSpline
210
0.0
220
0.0
230
1.0
 70
    24
 71
     3
 72
     9
 73
     5
 74
     0
 42
0.000000001
 43
0.00000001
 40
0.0
 40
0.0
 40
0.0
 40
0.0
 40
0.0961751639813091
 40
1.0
 40
1.0
 40
1.0
 40
1.0
 10
396.4770375468712
 20
848.3758224302607
 30
0.0
 10
396.4961050139784
 20
848.3758224302607
 30
0.0
 10
396.6943627170893
 20
848.3758224302607
 30
0.0
 10
396.8244340832488
 20
848.3758224302607
 30
0.0
 10
396.9419958144388
 20
848.3758224302607
 30
0.0
  0
LINE
  5
AE
330
1F
100
AcDbEntity
  8
0
  6
Continuous
 62
     7
370
    25
100
AcDbLine
 10
397.7642586803379
 20
848.3758224302117
 30
0.0
 11
397.8154858469378
 21
848.3758224302117
 31
0.0
  0
SPLINE
  5
AF
330
1F
100
AcDbEntity
  8
0
  6
Continuous
 62
     7
370
    25
100
AcDbSpline
210
0.0
220
0.0
230
1.0
 70
    24
 71
     3
 72
     9
 73
     5
 74
     0
 42
0.000000001
 43
0.00000001
 40
0.0
 40
0.0
 40
0.0
 40
0.0
 40
0.5188772233023894
 40
1.0
 40
1.0
 40
1.0
 40
1.0
 10
406.0870098565539
 20
848.3758224302607
 30
0.0
 10
406.0869560384929
 20
848.3758224302607
 30
0.0
 10
406.0868523182705
 20
848.3758224302607
 30
0.0
 10
406.1374154231432
 20
848.3758224302607
 30
0.0
 10
406.161742484558
 20
848.3758224302607
 30
0.0
  0
LINE
  5
B0
330
1F
100
AcDbEntity
  8
0
  6
Continuous
 62
     7
370
    25
100
AcDbLine
 10
406.5117424845379
 20
848.3758224302117
 30
0.0
 11
407.0191941310378
 21
848.3758224302117
 31
0.0
  0
ARC
  5
B1
330
1F
100
AcDbEntity
  8
0
  6
Continuous
 62
     7
370
    25
100
AcDbCircle
 10
440.9514446246378
 20
916.3758224302117
 30
0.0
 40
2.0
100
AcDbArc
 50
90.0
 51
180.0
  0
ARC
  5
B2
330
1F
100
AcDbEntity
  8
0
  6
Continuous
 62
     7
370
    25
100
AcDbCircle
 10
362.9514446246378
 20
916.3758224302117
 30
0.0
 40
2.0
100
AcDbArc
 50
0.0
 51
90.0
  0
ARC
  5
B3
330
1F
100
AcDbEntity
  8
0
  6
Continuous
 62
     7
370
    25
100
AcDbCircle
 10
436.9514446246378
 20
850.3758224302117
 30
0.0
 40
2.0
100
AcDbArc
 50
270.0
 51
0.0
  0
LINE
  5
B4
330
1F
100
AcDbEntity
  8
0
  6
Continuous
 62
     7
370
    25
100
AcDbLine
 10
438.9514446246378
 20
850.3758224302117
 30
0.0
 11
438.9514446246378
 21
916.3758224302117
 31
0.0
  0
LINE
  5
B5
330
1F
100
AcDbEntity
  8
0
  6
Continuous
 62
     7
370
    25
100
AcDbLine
 10
364.9514446246378
 20
916.3758224302117
 30
0.0
 11
364.9514446246378
 21
850.3758224302117
 31
0.0
  0
ARC
  5
B6
330
1F
100
AcDbEntity
  8
0
  6
Continuous
 62
     7
370
    25
100
AcDbCircle
 10
366.9514446246378
 20
850.3758224302117
 30
0.0
 40
2.0
100
AcDbArc
 50
180.0
 51
270.0
  0
ARC
  5
B7
330
1F
100
AcDbEntity
  8
0
  6
Continuous
 62
     7
370
    25
100
AcDbCircle
 10
359.1897999933378
 20
916.3758225497118
 30
0.0
 40
1.999999880518035
100
AcDbArc
 50
2.507978652599949
 51
89.99943938289923
  0
ARC
  5
B8
330
1F
100
AcDbEntity
  8
0
  6
Continuous
 62
     7
370
    25
100
AcDbCircle
 10
444.7130894223378
 20
916.3758224893118
 30
0.0
 40
1.999999940942927
100
AcDbArc
 50
90.0110825917992
 51
177.6340285589008
  0
LINE
  5
B9
330
1F
100
AcDbEntity
  8
0
  6
Continuous
 62
     7
370
    25
100
AcDbLine
 10
361.1981327204379
 20
916.4652997613117
 30
0.0
 11
364.2327881302379
 21
850.2830114851117
 31
0.0
  0
LINE
  5
BA
330
1F
100
AcDbEntity
  8
0
  6
Continuous
 62
     7
370
    25
100
AcDbLine
 10
439.6753221375378
 20
850.2828037350117
 30
0.0
 11
442.6982898051378
 21
916.4637270208117
 31
0.0
  0
ARC
  5
BB
330
1F
100
AcDbEntity
  8
0
  6
Continuous
 62
     7
370
    25
100
AcDbCircle
 10
366.2144829885378
 20
850.3758224302117
 30
0.0
 40
2.0
100
AcDbArc
 50
182.6777367449995
 51
270.0
  0
ARC
  5
BC
330
1F
100
AcDbEntity
  8
0
  6
Continuous
 62
     7
370
    25
100
AcDbCircle
 10
437.6884062606379
 20
850.3758224302117
 30
0.0
 40
2.000000000000064
100
AcDbArc
 50
270.0
 51
357.3222632550006
  0
LWPOLYLINE
  5
BD
330
1F
100
AcDbEntity
  8
0
  6
Continuous
 62
     7
370
    25
100
AcDbPolyline
 90
       13
 70
   128
 43
0.0
 10
359.6554110685379
 20
892.3758224302117
 10
359.5045617198379
 20
892.3644284394117
 10
358.9234324031379
 20
892.0982986134117
 10
358.4073426032379
 20
891.5014104427117
 10
358.0021491634378
 20
890.6268000607117
 10
357.7438552991379
 20
889.5521804380116
 10
357.6554115537378
 20
888.3730362439117
 10
357.7446765420378
 20
887.1941396147117
 10
358.0037186781378
 20
886.1202406894117
 10
358.4095209314379
 20
885.2467601003117
 10
358.9260259909379
 20
884.6513104308117
 10
359.5073401154378
 20
884.3867999972117
 10
359.6554110685379
 20
884.3758224302117
  0
SPLINE
  5
BE
330
1F
100
AcDbEntity
  8
0
  6
Continuous
 62
     7
370
    25
100
AcDbSpline
210
0.0
220
0.0
230
1.0
 70
    24
 71
     3
 72
     9
 73
     5
 74
     0
 42
0.000000001
 43
0.00000001
 40
0.0
 40
0.0
 40
0.0
 40
0.0
 40
0.1289594393881231
 40
1.0
 40
1.0
 40
1.0
 40
1.0
 10
400.7981374595005
 20
870.3766262478025
 30
0.0
 10
400.7485827627274
 20
870.2909328975184
 30
0.0
 10
400.3643170043767
 20
869.626434426598
 30
0.0
 10
399.978289618591
 20
868.9588896297652
 30
0.0
 10
399.6420441080646
 20
868.3774310356986
 30
0.0
  0
LINE
  5
BF
330
1F
100
AcDbEntity
  8
0
  6
Continuous
 62
     7
370
    25
100
AcDbLine
 10
399.6420441080379
 20
868.3774310357117
 30
0.0
 11
400.7953512731378
 21
866.3766272181117
 31
0.0
  0
LINE
  5
C0
330
1F
100
AcDbEntity
  8
0
  6
Continuous
 62
     7
370
    25
100
AcDbLine
 10
400.7953512731378
 20
866.3766272181117
 30
0.0
 11
403.1047517896378
 21
866.3750186127118
 31
0.0
  0
SPLINE
  5
C1
330
1F
100
AcDbEntity
  8
0
  6
Continuous
 62
     7
370
    25
100
AcDbSpline
210
0.0
220
0.0
230
1.0
 70
    24
 71
     3
 72
     9
 73
     5
 74
     0
 42
0.000000001
 43
0.00000001
 40
0.0
 40
0.0
 40
0.0
 40
0.0
 40
0.8710405606118768
 40
1.0
 40
1.0
 40
1.0
 40
1.0
 10
403.104751789677
 20
866.375018612719
 30
0.0
 10
403.4409973002034
 20
866.9564772067858
 30
0.0
 10
403.8270246859893
 20
867.6240220036186
 30
0.0
 10
404.21129044434
 20
868.2885204745389
 30
0.0
 10
404.2608451411129
 20
868.374213824823
 30
0.0
  0
LINE
  5
C2
330
1F
100
AcDbEntity
  8
0
  6
Continuous
 62
     7
370
    25
100
AcDbLine
 10
404.2608451411379
 20
868.3742138248117
 30
0.0
 11
403.1075379760379
 21
870.3750176424116
 31
0.0
  0
LINE
  5
C3
330
1F
100
AcDbEntity
  8
0
  6
Continuous
 62
     7
370
    25
100
AcDbLine
 10
403.1075379760379
 20
870.3750176424116
 30
0.0
 11
400.7981374595379
 21
870.3766262478117
 31
0.0
  0
CIRCLE
  5
C4
330
1F
100
AcDbEntity
  8
0
  6
Continuous
 62
     7
370
    25
100
AcDbCircle
 10
401.9514446246378
 20
868.3758224302117
 30
0.0
 40
3.000000000000179
  0
CIRCLE
  5
C5
330
1F
100
AcDbEntity
  8
0
  6
Continuous
 62
     7
370
    25
100
AcDbCircle
 10
401.9514446246378
 20
868.3758224302117
 30
0.0
 40
3.999999999999801
  0
SPLINE
  5
C6
330
1F
100
AcDbEntity
  8
0
  6
Continuous
 62
     7
370
    25
100
AcDbSpline
210
0.0
220
0.0
230
1.0
 70
    24
 71
     3
 72
     9
 73
     5
 74
     0
 42
0.000000001
 43
0.00000001
 40
0.0
 40
0.0
 40
0.0
 40
0.0
 40
0.1289594393881233
 40
1.0
 40
1.0
 40
1.0
 40
1.0
 10
400.7981374595005
 20
890.3766262478025
 30
0.0
 10
400.7485827627274
 20
890.2909328975182
 30
0.0
 10
400.3643170043767
 20
889.626434426598
 30
0.0
 10
399.978289618591
 20
888.9588896297654
 30
0.0
 10
399.6420441080646
 20
888.3774310356985
 30
0.0
  0
LINE
  5
C7
330
1F
100
AcDbEntity
  8
0
  6
Continuous
 62
     7
370
    25
100
AcDbLine
 10
399.6420441080379
 20
888.3774310357117
 30
0.0
 11
400.7953512731378
 21
886.3766272181117
 31
0.0
  0
LINE
  5
C8
330
1F
100
AcDbEntity
  8
0
  6
Continuous
 62
     7
370
    25
100
AcDbLine
 10
400.7953512731378
 20
886.3766272181117
 30
0.0
 11
403.1047517896378
 21
886.3750186127118
 31
0.0
  0
SPLINE
  5
C9
330
1F
100
AcDbEntity
  8
0
  6
Continuous
 62
     7
370
    25
100
AcDbSpline
210
0.0
220
0.0
230
1.0
 70
    24
 71
     3
 72
     9
 73
     5
 74
     0
 42
0.000000001
 43
0.00000001
 40
0.0
 40
0.0
 40
0.0
 40
0.0
 40
0.8710405606118766
 40
1.0
 40
1.0
 40
1.0
 40
1.0
 10
403.104751789677
 20
886.375018612719
 30
0.0
 10
403.4409973002034
 20
886.9564772067858
 30
0.0
 10
403.8270246859893
 20
887.6240220036186
 30
0.0
 10
404.21129044434
 20
888.2885204745389
 30
0.0
 10
404.2608451411129
 20
888.374213824823
 30
0.0
  0
LINE
  5
CA
330
1F
100
AcDbEntity
  8
0
  6
Continuous
 62
     7
370
    25
100
AcDbLine
 10
404.2608451411379
 20
888.3742138248117
 30
0.0
 11
403.1075379760379
 21
890.3750176424116
 31
0.0
  0
LINE
  5
CB
330
1F
100
AcDbEntity
  8
0
  6
Continuous
 62
     7
370
    25
100
AcDbLine
 10
403.1075379760379
 20
890.3750176424116
 30
0.0
 11
400.7981374595379
 21
890.3766262478117
 31
0.0
  0
CIRCLE
  5
CC
330
1F
100
AcDbEntity
  8
0
  6
Continuous
 62
     7
370
    25
100
AcDbCircle
 10
401.9514446246378
 20
888.3758224302117
 30
0.0
 40
2.999999999999982
  0
CIRCLE
  5
CD
330
1F
100
AcDbEntity
  8
0
  6
Continuous
 62
     7
370
    25
100
AcDbCircle
 10
401.9514446246378
 20
888.3758224302117
 30
0.0
 40
3.999999999999998
  0
LWPOLYLINE
  5
CE
330
1F
100
AcDbEntity
  8
0
  6
Continuous
 62
     7
370
    25
100
AcDbPolyline
 90
       10
 70
   128
 43
0.0
 10
445.2486843921379
 20
884.9131147486117
 10
445.7145291126378
 20
885.6571745583117
 10
446.0500199198378
 20
886.6427981620117
 10
446.2253469831379
 20
887.7824085771117
 10
446.2249317235379
 20
888.9747464173117
 10
446.0488110388378
 20
890.1138672329117
 10
445.7126340246379
 20
891.0985551404117
 10
445.2462714839379
 20
891.8413162982117
 10
444.6911617751379
 20
892.2761531177117
 10
444.2474781806378
 20
892.3758224302117
  0
LWPOLYLINE
  5
CF
330
1F
100
AcDbEntity
  8
0
  6
Continuous
 62
     7
370
    25
100
AcDbPolyline
 90
        3
 70
   128
 43
0.0
 10
444.2474781806378
 20
884.3758224302117
 10
444.6938781060379
 20
884.4767317123117
 10
445.2486843921379
 20
884.9131147486117
  0
LWPOLYLINE
  5
D0
330
1F
100
AcDbEntity
  8
0
  6
Continuous
 62
     7
370
    25
100
AcDbPolyline
 90
       13
 70
   128
 43
0.0
 10
359.6554110685379
 20
872.3758224302117
 10
359.5045617198379
 20
872.3644284394117
 10
358.9234324031379
 20
872.0982986134117
 10
358.4073426032379
 20
871.5014104427117
 10
358.0021491634378
 20
870.6268000607117
 10
357.7438552991379
 20
869.5521804380116
 10
357.6554115537378
 20
868.3730362439117
 10
357.7446765420378
 20
867.1941396147117
 10
358.0037186781378
 20
866.1202406894117
 10
358.4095209314379
 20
865.2467601003117
 10
358.9260259909379
 20
864.6513104308117
 10
359.5073401154378
 20
864.3867999972117
 10
359.6554110685379
 20
864.3758224302117
  0
LWPOLYLINE
  5
D1
330
1F
100
AcDbEntity
  8
0
  6
Continuous
 62
     7
370
    25
100
AcDbPolyline
 90
       10
 70
   128
 43
0.0
 10
445.2486843921379
 20
864.9131147486117
 10
445.7145291126378
 20
865.6571745583117
 10
446.0500199198378
 20
866.6427981620117
 10
446.2253469831379
 20
867.7824085771117
 10
446.2249317235379
 20
868.9747464173117
 10
446.0488110388378
 20
870.1138672329117
 10
445.7126340246379
 20
871.0985551404117
 10
445.2462714839379
 20
871.8413162982117
 10
444.6911617751379
 20
872.2761531177117
 10
444.2474781806378
 20
872.3758224302117
  0
LWPOLYLINE
  5
D2
330
1F
100
AcDbEntity
  8
0
  6
Continuous
 62
     7
370
    25
100
AcDbPolyline
 90
        3
 70
   128
 43
0.0
 10
444.2474781806378
 20
864.3758224302117
 10
444.6938781060379
 20
864.4767317123117
 10
445.2486843921379
 20
864.9131147486117
  0
LWPOLYLINE
  5
D3
330
1F
100
AcDbEntity
  8
0
  6
Continuous
 62
     7
370
    25
100
AcDbPolyline
 90
       10
 70
   128
 43
0.0
 10
486.6408109404379
 20
1423.504686334812
 10
486.4998038814379
 20
1424.849752456612
 10
486.5502948246378
 20
1426.217039708212
 10
486.7888428955379
 20
1427.513369723012
 10
487.1991914374379
 20
1428.650399752812
 10
487.7533758752379
 20
1429.550643080112
 10
488.4136294554379
 20
1430.152749609812
 10
489.1349569876379
 20
1430.415686777012
 10
489.8682011925379
 20
1430.321535848212
 10
489.9780151197378
 20
1430.275823714312
  0
LWPOLYLINE
  5
D4
330
1F
100
AcDbEntity
  8
0
  6
Continuous
 62
     7
370
    25
100
AcDbPolyline
 90
        7
 70
   128
 43
0.0
 10
489.9634065590378
 20
1420.069242922012
 10
489.4846844034379
 20
1419.935958083512
 10
488.7514401985378
 20
1420.030109012312
 10
488.0562487017379
 20
1420.474931806812
 10
487.4464860646378
 20
1421.240112528712
 10
486.9637066034379
 20
1422.273505376312
 10
486.6408109404379
 20
1423.504686334812
  0
LWPOLYLINE
  5
D5
330
1F
100
AcDbEntity
  8
0
  6
Continuous
 62
     7
370
    25
100
AcDbPolyline
 90
       18
 70
   128
 43
0.0
 10
489.9532714756378
 20
1424.257511818912
 10
489.8744112627379
 20
1425.307477701512
 10
490.0042814328378
 20
1426.339662810212
 10
490.3253422998379
 20
1427.214664826612
 10
490.7942328145378
 20
1427.814309879612
 10
491.3476267147379
 20
1428.057612582312
 10
491.9107850877378
 20
1427.911713556412
 10
492.4076502746378
 20
1427.396317273812
 10
492.7711178789378
 20
1426.581030858412
 10
492.9520995863379
 20
1425.575963258212
 10
492.9261528146378
 20
1424.516854422012
 10
492.6967818190378
 20
1423.546742866812
 10
492.2949644234378
 20
1422.796647533612
 10
491.7749682937379
 20
1422.367872953712
 10
491.2070217886378
 20
1422.318327510012
 10
490.6678292307379
 20
1422.654702589212
 10
490.2302115627378
 20
1423.331568872912
 10
489.9532714756378
 20
1424.257511818912
  0
LWPOLYLINE
  5
D6
330
1F
100
AcDbEntity
  8
0
  6
Continuous
 62
     7
370
    25
100
AcDbPolyline
 90
        9
 70
   128
 43
0.0
 10
485.9655771157379
 20
1423.504686334812
 10
485.8245700567379
 20
1424.849752456612
 10
485.8750609999379
 20
1426.217039708212
 10
486.1136090708378
 20
1427.513369723012
 10
486.5239576127378
 20
1428.650399752812
 10
487.0781420505378
 20
1429.550643080112
 10
487.7383956307378
 20
1430.152749609812
 10
488.4597231629378
 20
1430.415686777012
 10
488.6345868708379
 20
1430.425822430212
  0
LWPOLYLINE
  5
D7
330
1F
100
AcDbEntity
  8
0
  6
Continuous
 62
     7
370
    25
100
AcDbPolyline
 90
        6
 70
   128
 43
0.0
 10
488.6345868708379
 20
1419.925822430212
 10
488.0762063738379
 20
1420.030109012312
 10
487.3810148770378
 20
1420.474931806812
 10
486.7712522399379
 20
1421.240112528712
 10
486.2884727787379
 20
1422.273505376312
 10
485.9655771157379
 20
1423.504686334812
  0
LINE
  5
D8
330
1F
100
AcDbEntity
  8
0
  6
Continuous
 62
     7
370
    25
100
AcDbLine
 10
492.6338029725379
 20
1424.717805610712
 30
0.0
 11
492.2395810649379
 21
1426.907085798712
 31
0.0
  0
LINE
  5
D9
330
1F
100
AcDbEntity
  8
0
  6
Continuous
 62
     7
370
    25
100
AcDbLine
 10
492.2395810649379
 20
1426.907085798712
 30
0.0
 11
491.0257044901379
 21
1427.365102618312
 31
0.0
  0
LINE
  5
DA
330
1F
100
AcDbEntity
  8
0
  6
Continuous
 62
     7
370
    25
100
AcDbLine
 10
491.0257044901379
 20
1427.365102618312
 30
0.0
 11
490.2060498229379
 21
1425.633839249812
 31
0.0
  0
LINE
  5
DB
330
1F
100
AcDbEntity
  8
0
  6
Continuous
 62
     7
370
    25
100
AcDbLine
 10
490.2060498229379
 20
1425.633839249812
 30
0.0
 11
490.6002717305379
 21
1423.444559061812
 31
0.0
  0
LINE
  5
DC
330
1F
100
AcDbEntity
  8
0
  6
Continuous
 62
     7
370
    25
100
AcDbLine
 10
490.6002717305379
 20
1423.444559061812
 30
0.0
 11
491.8141483053379
 21
1422.986542242212
 31
0.0
  0
LINE
  5
DD
330
1F
100
AcDbEntity
  8
0
  6
Continuous
 62
     7
370
    25
100
AcDbLine
 10
491.8141483053379
 20
1422.986542242212
 30
0.0
 11
492.6338029725379
 21
1424.717805610712
 31
0.0
  0
LINE
  5
DE
330
1F
100
AcDbEntity
  8
0
  6
Continuous
 62
     7
370
    25
100
AcDbLine
 10
490.5236972703378
 20
1424.717805610712
 30
0.0
 11
490.3166733279379
 21
1425.867496702912
 31
0.0
  0
LINE
  5
DF
330
1F
100
AcDbEntity
  8
0
  6
Continuous
 62
     7
370
    25
100
AcDbLine
 10
490.4130737653379
 20
1424.484148157612
 30
0.0
 11
490.5236972703378
 21
1424.717805610712
 31
0.0
  0
LINE
  5
E0
330
1F
100
AcDbEntity
  8
0
  6
Continuous
 62
     7
370
    25
100
AcDbLine
 10
490.8088595948378
 20
1426.907085798712
 30
0.0
 11
492.2395810649379
 21
1426.907085798712
 31
0.0
  0
LINE
  5
E1
330
1F
100
AcDbEntity
  8
0
  6
Continuous
 62
     7
370
    25
100
AcDbLine
 10
490.5236972703378
 20
1424.717805610712
 30
0.0
 11
492.6338029725379
 21
1424.717805610712
 31
0.0
  0
LWPOLYLINE
  5
E2
330
1F
100
AcDbEntity
  8
0
  6
Continuous
 62
     7
370
    25
100
AcDbPolyline
 90
       19
 70
   128
 43
0.0
 10
343.8649775309378
 20
1429.442632748712
 10
343.9971347077378
 20
1429.550643080112
 10
345.0363034921379
 20
1430.152749609812
 10
346.1715961695379
 20
1430.415686777012
 10
347.3256444199378
 20
1430.321535848212
 10
348.4198017624378
 20
1429.876713053712
 10
349.3795031822378
 20
1429.111532331812
 10
350.1393466135379
 20
1428.078139484212
 10
350.6475499822378
 20
1426.846958525712
 10
350.8694800685379
 20
1425.501892403912
 10
350.7900127038379
 20
1424.134605152312
 10
350.4145634578379
 20
1422.838275137512
 10
349.7687185760378
 20
1421.701245107712
 10
348.8964913198379
 20
1420.801001780412
 10
347.8573225354379
 20
1420.198895250712
 10
346.7220298580379
 20
1419.935958083512
 10
345.5679816076379
 20
1420.030109012312
 10
344.4738242651379
 20
1420.474931806812
 10
343.8861726260378
 20
1420.891121041112
  0
LWPOLYLINE
  5
E3
330
1F
100
AcDbEntity
  8
0
  6
Continuous
 62
     7
370
    25
100
AcDbPolyline
 90
       18
 70
   128
 43
0.0
 10
342.7977628554379
 20
1424.257511818912
 10
342.6736452830379
 20
1425.307477701512
 10
342.8780470929379
 20
1426.339662810212
 10
343.3833626881378
 20
1427.214664826612
 10
344.1213463974378
 20
1427.814309879612
 10
344.9923294315379
 20
1428.057612582312
 10
345.8786807054379
 20
1427.911713556412
 10
346.6606935682379
 20
1427.396317273812
 10
347.2327528493379
 20
1426.581030858412
 10
347.5175987730379
 20
1425.575963258212
 10
347.4767613190379
 20
1424.516854422012
 10
347.1157558117378
 20
1423.546742866812
 10
346.4833380452378
 20
1422.796647533612
 10
345.6649195432378
 20
1422.367872953712
 10
344.7710322595378
 20
1422.318327510012
 10
343.9224006250379
 20
1422.654702589212
 10
343.2336370442379
 20
1423.331568872912
 10
342.7977628554379
 20
1424.257511818912
  0
LINE
  5
E4
330
1F
100
AcDbEntity
  8
0
  6
Continuous
 62
     7
370
    25
100
AcDbLine
 10
347.0166338177379
 20
1424.717805610712
 30
0.0
 11
346.3961705400378
 21
1426.907085798712
 31
0.0
  0
LINE
  5
E5
330
1F
100
AcDbEntity
  8
0
  6
Continuous
 62
     7
370
    25
100
AcDbLine
 10
346.3961705400378
 20
1426.907085798712
 30
0.0
 11
344.4856581512379
 21
1427.365102618312
 31
0.0
  0
LINE
  5
E6
330
1F
100
AcDbEntity
  8
0
  6
Continuous
 62
     7
370
    25
100
AcDbLine
 10
344.4856581512379
 20
1427.365102618312
 30
0.0
 11
343.1956090402379
 21
1425.633839249812
 31
0.0
  0
LINE
  5
E7
330
1F
100
AcDbEntity
  8
0
  6
Continuous
 62
     7
370
    25
100
AcDbLine
 10
343.1956090402379
 20
1425.633839249812
 30
0.0
 11
343.8160723180379
 21
1423.444559061812
 31
0.0
  0
LINE
  5
E8
330
1F
100
AcDbEntity
  8
0
  6
Continuous
 62
     7
370
    25
100
AcDbLine
 10
343.8160723180379
 20
1423.444559061812
 30
0.0
 11
345.7265847067379
 21
1422.986542242212
 31
0.0
  0
LINE
  5
E9
330
1F
100
AcDbEntity
  8
0
  6
Continuous
 62
     7
370
    25
100
AcDbLine
 10
345.7265847067379
 20
1422.986542242212
 30
0.0
 11
347.0166338177379
 21
1424.717805610712
 31
0.0
  0
LWPOLYLINE
  5
EA
330
1F
100
AcDbEntity
  8
0
  6
Continuous
 62
     7
370
    25
100
AcDbPolyline
 90
       14
 70
   128
 43
0.0
 10
346.8758343209379
 20
1430.425822430212
 10
347.7546657271379
 20
1430.321535848212
 10
348.8488230696379
 20
1429.876713053712
 10
349.8085244893379
 20
1429.111532331812
 10
350.5683679206379
 20
1428.078139484212
 10
351.0765712893378
 20
1426.846958525712
 10
351.2985013756379
 20
1425.501892403912
 10
351.2190340110378
 20
1424.134605152312
 10
350.8435847649379
 20
1422.838275137512
 10
350.1977398831378
 20
1421.701245107712
 10
349.3255126270378
 20
1420.801001780412
 10
348.2863438425378
 20
1420.198895250712
 10
347.1510511652378
 20
1419.935958083512
 10
346.8758343209379
 20
1419.925822430212
  0
LINE
  5
EB
330
1F
100
AcDbEntity
  8
0
  6
Continuous
 62
     7
370
    25
100
AcDbLine
 10
345.1567639028378
 20
1423.444559061812
 30
0.0
 11
343.8160723180379
 21
1423.444559061812
 31
0.0
  0
LINE
  5
EC
330
1F
100
AcDbEntity
  8
0
  6
Continuous
 62
     7
370
    25
100
AcDbLine
 10
345.1567639028378
 20
1423.444559061812
 30
0.0
 11
345.9297843737379
 21
1423.259238945712
 31
0.0
  0
LINE
  5
ED
330
1F
100
AcDbEntity
  8
0
  6
Continuous
 62
     7
370
    25
100
AcDbLine
 10
345.6231500690378
 20
1427.092405914812
 30
0.0
 11
344.5363006250378
 21
1425.633839249812
 31
0.0
  0
LINE
  5
EE
330
1F
100
AcDbEntity
  8
0
  6
Continuous
 62
     7
370
    25
100
AcDbLine
 10
344.5363006250378
 20
1425.633839249812
 30
0.0
 11
343.1956090402379
 21
1425.633839249812
 31
0.0
  0
LINE
  5
EF
330
1F
100
AcDbEntity
  8
0
  6
Continuous
 62
     7
370
    25
100
AcDbLine
 10
344.5363006250378
 20
1425.633839249812
 30
0.0
 11
345.1567639028378
 21
1423.444559061812
 31
0.0
  0
LWPOLYLINE
  5
F0
330
1F
100
AcDbEntity
  8
0
  6
Continuous
 62
     7
370
    25
100
AcDbPolyline
 90
       21
 70
   128
 43
0.0
 10
490.9410823903379
 20
1420.641025329512
 10
490.5394103481378
 20
1420.033234723112
 10
489.8240630247378
 20
1419.332633626412
 10
489.0395876708378
 20
1418.971617423812
 10
488.2315751425378
 20
1418.971167064812
 10
487.4469841909379
 20
1419.331308722712
 10
486.7314123904379
 20
1420.031112273312
 10
486.1264461729379
 20
1421.029907677912
 10
485.6672439761379
 20
1422.269648578212
 10
485.3804929625379
 20
1423.678285739312
 10
485.2828580586379
 20
1425.173954289512
 10
485.3800134503379
 20
1426.669731409212
 10
485.6663128193378
 20
1428.078687969312
 10
486.1251174870379
 20
1429.318940535712
 10
486.7297633937378
 20
1430.318410137412
 10
487.4451107171378
 20
1431.019011234112
 10
488.2295860711379
 20
1431.380027436712
 10
489.0375985994378
 20
1431.380477795712
 10
489.8221895509379
 20
1431.020336137812
 10
490.5377613514379
 20
1430.320532587212
 10
490.8191138891378
 20
1429.915973768012
  0
LWPOLYLINE
  5
F1
330
1F
100
AcDbEntity
  8
0
  6
Continuous
 62
     7
370
    25
100
AcDbPolyline
 90
       15
 70
   128
 43
0.0
 10
487.6217361339378
 20
1418.925822430212
 10
487.2187244054379
 20
1418.971167064812
 10
486.4341334539379
 20
1419.331308722712
 10
485.7185616534379
 20
1420.031112273312
 10
485.1135954359379
 20
1421.029907677912
 10
484.6543932390379
 20
1422.269648578212
 10
484.3676422254379
 20
1423.678285739312
 10
484.2700073216379
 20
1425.173954289512
 10
484.3671627133378
 20
1426.669731409212
 10
484.6534620823379
 20
1428.078687969312
 10
485.1122667499378
 20
1429.318940535712
 10
485.7169126566379
 20
1430.318410137412
 10
486.4322599801378
 20
1431.019011234112
 10
487.2167353340378
 20
1431.380027436712
 10
487.6217361339378
 20
1431.425822430212
  0
LWPOLYLINE
  5
F2
330
1F
100
AcDbEntity
  8
0
  6
Continuous
 62
     7
370
    25
100
AcDbPolyline
 90
       27
 70
   128
 43
0.0
 10
352.1510983408378
 20
1425.177690571012
 10
351.9981861063378
 20
1423.681913451312
 10
351.5475814050378
 20
1422.272956891212
 10
350.8254717443378
 20
1421.032704324812
 10
349.8738235129379
 20
1420.033234723112
 10
348.7479430469378
 20
1419.332633626412
 10
347.5132624266379
 20
1418.971617423812
 10
346.2415368018378
 20
1418.971167064812
 10
345.0066742432379
 20
1419.331308722712
 10
343.8804404742378
 20
1420.031112273312
 10
342.9282881077379
 20
1421.029907677912
 10
342.2055527785378
 20
1422.269648578212
 10
341.7542372367378
 20
1423.678285739312
 10
341.6005703011379
 20
1425.173954289512
 10
341.7534825357378
 20
1426.669731409212
 10
342.2040872369379
 20
1428.078687969312
 10
342.9261968976379
 20
1429.318940535712
 10
343.8778451290378
 20
1430.318410137412
 10
345.0037255950378
 20
1431.019011234112
 10
346.2384062153378
 20
1431.380027436712
 10
347.5101318402378
 20
1431.380477795712
 10
348.7449943988379
 20
1431.020336137812
 10
349.8712281678379
 20
1430.320532587212
 10
350.8233805342379
 20
1429.321737182612
 10
351.5461158635378
 20
1428.081996282312
 10
351.9974314053378
 20
1426.673359121212
 10
352.1510983408378
 20
1425.177690571012
  0
LWPOLYLINE
  5
F3
330
1F
100
AcDbEntity
  8
0
  6
Continuous
 62
     7
370
    25
100
AcDbPolyline
 90
        8
 70
   128
 43
0.0
 10
352.7946303015378
 20
1425.177690571012
 10
352.6417180670379
 20
1423.681913451312
 10
352.1911133657378
 20
1422.272956891212
 10
351.4690037050378
 20
1421.032704324812
 10
350.5173554736378
 20
1420.033234723112
 10
349.3914750076378
 20
1419.332633626412
 10
348.1567943873379
 20
1418.971617423812
 10
347.5193662817378
 20
1418.925822430312
  0
ARC
  5
F4
330
1F
100
AcDbEntity
  8
0
  6
Continuous
 62
     7
370
    25
100
AcDbCircle
 10
346.9453005573379
 20
1425.590137430812
 30
0.0
 40
5.863852903026869
100
AcDbArc
 50
355.9666462246004
 51
84.38179783540042
  0
LINE
  5
F5
330
1F
100
AcDbEntity
  8
0
  6
Continuous
 62
     7
370
    25
100
AcDbLine
 10
427.8333491348378
 20
1115.175822430212
 30
0.0
 11
501.9514446246378
 21
1115.175822430212
 31
0.0
  0
LINE
  5
F6
330
1F
100
AcDbEntity
  8
0
  6
Continuous
 62
     7
370
    25
100
AcDbLine
 10
301.9514446246378
 20
1115.175822430212
 30
0.0
 11
427.8333491348378
 21
1115.175822430212
 31
0.0
  0
LINE
  5
F7
330
1F
100
AcDbEntity
  8
0
  6
Continuous
 62
     7
370
    25
100
AcDbLine
 10
501.9514446246378
 20
1112.375822430212
 30
0.0
 11
301.9514446246378
 21
1112.375822430212
 31
0.0
  0
LINE
  5
F8
330
1F
100
AcDbEntity
  8
0
  6
Continuous
 62
     7
370
    25
100
AcDbLine
 10
301.9514446246378
 20
1115.175822430212
 30
0.0
 11
501.9514446246378
 21
1115.175822430212
 31
0.0
  0
LINE
  5
F9
330
1F
100
AcDbEntity
  8
0
  6
Continuous
 62
     7
370
    25
100
AcDbLine
 10
476.3750789154378
 20
916.3758224302117
 30
0.0
 11
477.3004642254378
 21
916.3758224302117
 31
0.0
  0
LINE
  5
FA
330
1F
100
AcDbEntity
  8
0
  6
Continuous
 62
     7
370
    25
100
AcDbLine
 10
464.3004642254378
 20
916.3758224302117
 30
0.0
 11
476.3750789154378
 21
916.3758224302117
 31
0.0
  0
LINE
  5
FB
330
1F
100
AcDbEntity
  8
0
  6
Continuous
 62
     7
370
    25
100
AcDbLine
 10
327.4202509644379
 20
916.3758224302117
 30
0.0
 11
339.6024250237379
 21
916.3758224302117
 31
0.0
  0
LINE
  5
FC
330
1F
100
AcDbEntity
  8
0
  6
Continuous
 62
     7
370
    25
100
AcDbLine
 10
326.6024250237379
 20
916.3758224302117
 30
0.0
 11
327.4202509644379
 21
916.3758224302117
 31
0.0
  0
LINE
  5
FD
330
1F
100
AcDbEntity
  8
0
  6
Continuous
 62
     7
370
    25
100
AcDbLine
 10
301.9514446246378
 20
1109.375822430212
 30
0.0
 11
501.9514446246378
 21
1109.375822430212
 31
0.0
  0
LINE
  5
FE
330
1F
100
AcDbEntity
  8
0
  6
Continuous
 62
     7
370
    25
100
AcDbLine
 10
301.9514446246378
 20
943.3758224302117
 30
0.0
 11
501.9514446246378
 21
943.3758224302117
 31
0.0
  0
LINE
  5
FF
330
1F
100
AcDbEntity
  8
0
  6
Continuous
 62
     7
370
    25
100
AcDbLine
 10
300.4514446246378
 20
1415.175822430212
 30
0.0
 11
503.4514446246378
 21
1415.175822430212
 31
0.0
  0
LINE
  5
100
330
1F
100
AcDbEntity
  8
0
  6
Continuous
 62
     7
370
    25
100
AcDbLine
 10
401.9514446246378
 20
940.3758224302117
 30
0.0
 11
501.9514446246378
 21
940.3758224302117
 31
0.0
  0
LINE
  5
101
330
1F
100
AcDbEntity
  8
0
  6
Continuous
 62
     7
370
    25
100
AcDbLine
 10
301.9514446246378
 20
940.3758224302117
 30
0.0
 11
401.9514446246378
 21
940.3758224302117
 31
0.0
  0
SPLINE
  5
102
330
1F
100
AcDbEntity
  8
0
  6
Continuous
 62
     7
370
    25
100
AcDbSpline
210
0.0
220
0.0
230
1.0
 70
     8
 71
     3
 72
    12
 73
     8
 74
     0
 42
0.000000001
 43
0.00000001
 40
0.0
 40
0.0
 40
0.0
 40
0.0
 40
0.2221160378965215
 40
0.4786470294599648
 40
0.7373731160707696
 40
0.9944468959509506
 40
1.0
 40
1.0
 40
1.0
 40
1.0
 10
472.7870322965392
 20
918.3758224302608
 30
0.0
 10
473.4667170973206
 20
918.3889962941766
 30
0.0
 10
474.9313979638805
 20
918.4173851979656
 30
0.0
 10
476.7605437327735
 20
918.5164435802646
 30
0.0
 10
477.9501274714421
 20
918.5153712315937
 30
0.0
 10
478.4036670907907
 20
918.4329963499492
 30
0.0
 10
478.2958576701164
 20
918.4156040073473
 30
0.0
 10
478.2935780979662
 20
918.4152362556279
 30
0.0
  0
LINE
  5
103
330
1F
100
AcDbEntity
  8
0
  6
Continuous
 62
     7
370
    25
100
AcDbLine
 10
472.7870322965379
 20
918.3758224302117
 30
0.0
 11
331.1158569526378
 21
918.3758224302117
 31
0.0
  0
SPLINE
  5
104
330
1F
100
AcDbEntity
  8
0
  6
Continuous
 62
     7
370
    25
100
AcDbSpline
210
0.0
220
0.0
230
1.0
 70
     8
 71
     3
 72
     9
 73
     5
 74
     0
 42
0.000000001
 43
0.00000001
 40
0.0
 40
0.0
 40
0.0
 40
0.0
 40
0.5
 40
1.0
 40
1.0
 40
1.0
 40
1.0
 10
325.8459420871262
 20
918.3758224302607
 30
0.0
 10
325.8353580085015
 20
918.3758224302607
 30
0.0
 10
325.8148450145891
 20
918.3759738930333
 30
0.0
 10
325.7956517802779
 20
918.3764140841993
 30
0.0
 10
325.7863877631855
 20
918.3767028519156
 30
0.0
  0
SPLINE
  5
105
330
1F
100
AcDbEntity
  8
0
  6
Continuous
 62
     7
370
    25
100
AcDbSpline
210
0.0
220
0.0
230
1.0
 70
     8
 71
     3
 72
    12
 73
     8
 74
     0
 42
0.000000001
 43
0.00000001
 40
0.0
 40
0.0
 40
0.0
 40
0.0
 40
0.0773410339635634
 40
0.3351389539684838
 40
0.5934233208565055
 40
0.8506120173822502
 40
1.0
 40
1.0
 40
1.0
 40
1.0
 10
325.6860997301488
 20
918.4208167058136
 30
0.0
 10
325.6625745035768
 20
918.427259992106
 30
0.0
 10
325.5606335361342
 20
918.4551804389558
 30
0.0
 10
326.2146500490395
 20
918.5270196252484
 30
0.0
 10
327.6241223338878
 20
918.4966455546082
 30
0.0
 10
329.4044164946507
 20
918.3986771689658
 30
0.0
 10
330.6559920457962
 20
918.3819635099791
 30
0.0
 10
331.1158569526403
 20
918.3758224302608
 30
0.0
  0
LINE
  5
106
330
1F
100
AcDbEntity
  8
0
  6
Continuous
 62
     7
370
    25
100
AcDbLine
 10
325.8459420871378
 20
918.3758224302117
 30
0.0
 11
316.9514446246378
 21
918.3758224302117
 31
0.0
  0
LINE
  5
107
330
1F
100
AcDbEntity
  8
0
  6
Continuous
 62
     7
370
    25
100
AcDbLine
 10
486.9514446246378
 20
918.3758224302117
 30
0.0
 11
478.0569471620379
 21
918.3758224302117
 31
0.0
  0
LINE
  5
108
330
1F
100
AcDbEntity
  8
0
  6
Continuous
 62
     7
370
    25
100
AcDbLine
 10
477.3004642254378
 20
918.3758224302117
 30
0.0
 11
478.0569471620379
 21
918.3758224302117
 31
0.0
  0
LINE
  5
109
330
1F
100
AcDbEntity
  8
0
  6
Continuous
 62
     7
370
    25
100
AcDbLine
 10
325.8459420871378
 20
918.3758224302117
 30
0.0
 11
326.6024250237379
 21
918.3758224302117
 31
0.0
  0
ARC
  5
10A
330
1F
100
AcDbEntity
  8
0
  6
Continuous
 62
     7
370
    25
100
AcDbCircle
 10
412.2610166731379
 20
916.9023384644117
 30
0.0
 40
3.165650855545875
100
AcDbArc
 50
152.2600010547003
 51
188.2951659488004
  0
LINE
  5
10B
330
1F
100
AcDbEntity
  8
0
  6
Continuous
 62
     7
370
    25
100
AcDbLine
 10
409.1284849679379
 20
916.4456214237117
 30
0.0
 11
394.7744042812378
 21
916.4456214237117
 31
0.0
  0
ARC
  5
10C
330
1F
100
AcDbEntity
  8
0
  6
Continuous
 62
     7
370
    25
100
AcDbCircle
 10
391.6418725760378
 20
916.9023384644117
 30
0.0
 40
3.165650855542979
100
AcDbArc
 50
351.7048340511005
 51
27.73999894529985
  0
LINE
  5
10D
330
1F
100
AcDbEntity
  8
0
  6
Continuous
 62
     7
370
    25
100
AcDbLine
 10
397.5401355497379
 20
850.3060234368118
 30
0.0
 11
406.3627536994378
 21
850.3060234368118
 31
0.0
  0
SPLINE
  5
10E
330
1F
100
AcDbEntity
  8
0
  6
Continuous
 62
     7
370
    25
100
AcDbSpline
210
0.0
220
0.0
230
1.0
 70
     8
 71
     3
 72
     8
 73
     4
 74
     0
 42
0.000000001
 43
0.00000001
 40
0.0
 40
0.0
 40
0.0
 40
0.0
 40
1.0
 40
1.0
 40
1.0
 40
1.0
 10
394.7744042812375
 20
916.4456214236657
 30
0.0
 10
395.6905283277316
 20
894.3981802647507
 30
0.0
 10
396.6120827381789
 20
872.3515768096761
 30
0.0
 10
397.5401355497505
 20
850.3060234368559
 30
0.0
  0
SPLINE
  5
10F
330
1F
100
AcDbEntity
  8
0
  6
Continuous
 62
     7
370
    25
100
AcDbSpline
210
0.0
220
0.0
230
1.0
 70
     8
 71
     3
 72
     8
 73
     4
 74
     0
 42
0.000000001
 43
0.00000001
 40
0.0
 40
0.0
 40
0.0
 40
0.0
 40
1.0
 40
1.0
 40
1.0
 40
1.0
 10
406.3627536994293
 20
850.3060234368559
 30
0.0
 10
407.2908065110009
 20
872.3515768096762
 30
0.0
 10
408.2123609214482
 20
894.3981802647507
 30
0.0
 10
409.1284849679423
 20
916.4456214236657
 30
0.0
  0
ARC
  5
110
330
1F
100
AcDbEntity
  8
0
  6
Continuous
 62
     7
370
    25
100
AcDbCircle
 10
401.7620367049378
 20
849.8407328387117
 30
0.0
 40
4.624185572019612
100
AcDbArc
 50
341.5309001461999
 51
5.774936780800246
  0
LINE
  5
111
330
1F
100
AcDbEntity
  8
0
  6
Continuous
 62
     7
370
    25
100
AcDbLine
 10
406.1480519465379
 20
848.3758224302117
 30
0.0
 11
397.7548373026378
 21
848.3758224302117
 31
0.0
  0
ARC
  5
112
330
1F
100
AcDbEntity
  8
0
  6
Continuous
 62
     7
370
    25
100
AcDbCircle
 10
402.1408525442379
 20
849.8407328387117
 30
0.0
 40
4.6241855720198
100
AcDbArc
 50
174.2250632193005
 51
198.4690998537996
  0
ARC
  5
113
330
1F
100
AcDbEntity
  8
0
  6
Continuous
 62
     7
370
    25
100
AcDbCircle
 10
396.9400669454378
 20
849.8975927735117
 30
0.0
 40
2.751077278482198
100
AcDbArc
 50
169.9892122339998
 51
213.5836843428007
  0
SPLINE
  5
114
330
1F
100
AcDbEntity
  8
0
  6
Continuous
 62
     7
370
    25
100
AcDbSpline
210
0.0
220
0.0
230
1.0
 70
    24
 71
     3
 72
    10
 73
     6
 74
     0
 42
0.000000001
 43
0.00000001
 40
0.0
 40
0.0
 40
0.0
 40
0.0
 40
0.2471517926877312
 40
0.7394386936161433
 40
1.0
 40
1.0
 40
1.0
 40
1.0
 10
394.6482028101524
 20
848.3758224302607
 30
0.0
 10
394.8647032323061
 20
848.3758224302607
 30
0.0
 10
395.5124379203041
 20
848.3758224302607
 30
0.0
 10
396.3408467659809
 20
848.3758224302607
 30
0.0
 10
396.7501108057605
 20
848.3758224302607
 30
0.0
 10
396.89175738448
 20
848.3758224302607
 30
0.0
  0
ARC
  5
115
330
1F
100
AcDbEntity
  8
0
  6
Continuous
 62
     7
370
    25
100
AcDbCircle
 10
406.9628223037379
 20
849.8975927735117
 30
0.0
 40
2.751077278480967
100
AcDbArc
 50
326.4163156571001
 51
10.01078776599971
  0
SPLINE
  5
116
330
1F
100
AcDbEntity
  8
0
  6
Continuous
 62
     7
370
    25
100
AcDbSpline
210
0.0
220
0.0
230
1.0
 70
    24
 71
     3
 72
    10
 73
     6
 74
     0
 42
0.000000001
 43
0.00000001
 40
0.0
 40
0.0
 40
0.0
 40
0.0
 40
0.2651746131367524
 40
0.6325890622652878
 40
1.0
 40
1.0
 40
1.0
 40
1.0
 10
406.5117424845581
 20
848.3758224302607
 30
0.0
 10
406.6558147528064
 20
848.3758224302607
 30
0.0
 10
406.9995073106708
 20
848.3758224302607
 30
0.0
 10
407.9695159722617
 20
848.3758224302607
 30
0.0
 10
408.8262976481612
 20
848.3758224302607
 30
0.0
 10
409.2546864390274
 20
848.3758224302607
 30
0.0
  0
ELLIPSE
  5
117
330
1F
100
AcDbEntity
  8
0
  6
Continuous
 62
     7
370
    25
100
AcDbEllipse
 10
401.9514446246378
 20
791.0684057346117
 30
0.0
 11
-36.54544864003105
 21
1116.813862007421
 31
0.0
210
0.0
220
0.0
230
1.0
 40
0.0051771242
 41
1.458189350404686
 42
1.517497806260129
  0
ELLIPSE
  5
118
330
1F
100
AcDbEntity
  8
0
  6
Continuous
 62
     7
370
    25
100
AcDbEllipse
 10
401.9514446246378
 20
791.0684057346117
 30
0.0
 11
36.54544864003093
 21
1116.813862007418
 31
0.0
210
0.0
220
0.0
230
1.0
 40
0.0051771242
 41
4.765687500919466
 42
4.824995956774939
  0
LINE
  5
119
330
1F
100
AcDbEntity
  8
0
  6
Continuous
 62
     7
370
    25
100
AcDbLine
 10
436.9514446246378
 20
848.3758224302117
 30
0.0
 11
409.2546864390379
 21
848.3758224302117
 31
0.0
  0
LINE
  5
11A
330
1F
100
AcDbEntity
  8
0
  6
Continuous
 62
     7
370
    25
100
AcDbLine
 10
394.6482028101378
 20
848.3758224302117
 30
0.0
 11
366.9514446246378
 21
848.3758224302117
 31
0.0
  0
LINE
  5
11B
330
1F
100
AcDbEntity
  8
0
  6
Continuous
 62
     7
370
    25
100
AcDbLine
 10
364.9198562451379
 20
916.4456214237117
 30
0.0
 11
362.4712591923378
 21
916.4456214237117
 31
0.0
  0
LWPOLYLINE
  5
11C
330
1F
100
AcDbEntity
  8
0
  6
Continuous
 62
     7
370
    25
100
AcDbPolyline
 90
        9
 70
   128
 43
0.0
 10
362.4712591923378
 20
916.4456214237117
 10
362.4533259138378
 20
916.8257245389117
 10
362.4097307343378
 20
917.1892957164117
 10
362.3420755863378
 20
917.5229753030117
 10
362.2528465011378
 20
917.8145020309117
 10
362.1453222578378
 20
918.0531635661117
 10
362.0234539029378
 20
918.2301901394117
 10
361.8917195662378
 20
918.3390767971117
 10
361.7549599094378
 20
918.3758224302117
  0
LWPOLYLINE
  5
11D
330
1F
100
AcDbEntity
  8
0
  6
Continuous
 62
     7
370
    25
100
AcDbPolyline
 90
        9
 70
   128
 43
0.0
 10
442.1479293398379
 20
918.3758224302117
 10
442.0111696829379
 20
918.3390767971117
 10
441.8794353462379
 20
918.2301901394117
 10
441.7575669913379
 20
918.0531635661117
 10
441.6500427480379
 20
917.8145020309117
 10
441.5608136628379
 20
917.5229753030117
 10
441.4931585148379
 20
917.1892957164117
 10
441.4495633353379
 20
916.8257245389117
 10
441.4316300568379
 20
916.4456214237117
  0
LINE
  5
11E
330
1F
100
AcDbEntity
  8
0
  6
Continuous
 62
     7
370
    25
100
AcDbLine
 10
441.4316300568379
 20
916.4456214237117
 30
0.0
 11
438.9830330040379
 21
916.4456214237117
 31
0.0
  0
SPLINE
  5
11F
330
1F
100
AcDbEntity
  8
0
  6
Continuous
 62
     7
370
    25
100
AcDbSpline
210
0.0
220
0.0
230
1.0
 70
    24
 71
     3
 72
    10
 73
     6
 74
     0
 42
0.000000001
 43
0.00000001
 40
0.0
 40
0.0
 40
0.0
 40
0.0
 40
0.3236164920608549
 40
0.9727267898960349
 40
1.0
 40
1.0
 40
1.0
 40
1.0
 10
366.285084762609
 20
848.3758224302607
 30
0.0
 10
366.4866896846877
 20
848.3758224302607
 30
0.0
 10
367.0926739700743
 20
848.3758224302607
 30
0.0
 10
367.6984115619201
 20
848.3758224302607
 30
0.0
 10
367.9320053498112
 20
848.3758224302607
 30
0.0
 10
367.9414243441856
 20
848.3758224302607
 30
0.0
  0
SPLINE
  5
120
330
1F
100
AcDbEntity
  8
0
  6
Continuous
 62
     7
370
    25
100
AcDbSpline
210
0.0
220
0.0
230
1.0
 70
    24
 71
     3
 72
     9
 73
     5
 74
     0
 42
0.000000001
 43
0.00000001
 40
0.0
 40
0.0
 40
0.0
 40
0.0
 40
0.4408450857647909
 40
1.0
 40
1.0
 40
1.0
 40
1.0
 10
435.7825582650125
 20
848.3758224302607
 30
0.0
 10
435.9924779477889
 20
848.3758224302607
 30
0.0
 10
436.4686535694635
 20
848.3758224302607
 30
0.0
 10
437.2056880402625
 20
848.3758224302607
 30
0.0
 10
437.6178044865707
 20
848.3758224302607
 30
0.0
  0
LINE
  5
121
330
1F
100
AcDbEntity
  8
0
  6
Continuous
 62
     7
370
    25
100
AcDbLine
 10
366.2850847626379
 20
848.3758224302117
 30
0.0
 11
366.2144829885378
 21
848.3758224302117
 31
0.0
  0
LINE
  5
122
330
1F
100
AcDbEntity
  8
0
  6
Continuous
 62
     7
370
    25
100
AcDbLine
 10
437.6884062606379
 20
848.3758224302117
 30
0.0
 11
437.6178044865378
 21
848.3758224302117
 31
0.0
  0
LINE
  5
123
330
1F
100
AcDbEntity
  8
0
  6
Continuous
 62
     8
370
    25
100
AcDbLine
 10
101.8430723420379
 20
1469.495655046012
 30
0.0
 11
702.0598169071379
 21
1469.495655046012
 31
0.0
  0
LINE
  5
124
330
1F
100
AcDbEntity
  8
0
  6
Continuous
 62
     8
370
    25
100
AcDbLine
 10
101.8099087577378
 20
1469.976696099812
 30
0.0
 11
702.0929804914379
 21
1469.976696099812
 31
0.0
  0
LINE
  5
125
330
1F
100
AcDbEntity
  8
0
  6
Continuous
 62
     8
370
    25
100
AcDbLine
 10
299.4524386542379
 20
1449.676318951212
 30
0.0
 11
504.4504505949378
 21
1449.676318951212
 31
0.0
  0
LINE
  5
126
330
1F
100
AcDbEntity
  8
0
  6
Continuous
 62
     8
370
    25
100
AcDbLine
 10
503.4514446246378
 20
1448.676319445212
 30
0.0
 11
300.4514446246378
 21
1448.676319445212
 31
0.0
  0
LINE
  5
127
330
1F
100
AcDbEntity
  8
0
  6
Continuous
 62
     8
370
    25
100
AcDbLine
 10
501.9514446246378
 20
933.3758224302117
 30
0.0
 11
301.9514446246378
 21
933.3758224302117
 31
0.0
  0
SPLINE
  5
128
330
1F
100
AcDbEntity
  8
0
  6
Continuous
 62
     8
370
    25
100
AcDbSpline
210
0.0
220
0.0
230
1.0
 70
     8
 71
     3
 72
    12
 73
     8
 74
     0
 42
0.000000001
 43
0.00000001
 40
0.0
 40
0.0
 40
0.0
 40
0.0
 40
0.1285495644865801
 40
0.368615269989825
 40
0.6084622458990586
 40
0.8483724352253054
 40
1.0
 40
1.0
 40
1.0
 40
1.0
 10
393.1341909200747
 20
916.4544197700823
 30
0.0
 10
393.1293441668321
 20
916.4580542024505
 30
0.0
 10
393.1154461247638
 20
916.4684759201285
 30
0.0
 10
393.3405653996497
 20
916.4750837165711
 30
0.0
 10
393.7657016669308
 20
916.4732431312159
 30
0.0
 10
394.2799205184948
 20
916.4619751837131
 30
0.0
 10
394.636366438688
 20
916.4501866650844
 30
0.0
 10
394.7744042812375
 20
916.4456214236657
 30
0.0
  0
SPLINE
  5
129
330
1F
100
AcDbEntity
  8
0
  6
Continuous
 62
     8
370
    25
100
AcDbSpline
210
0.0
220
0.0
230
1.0
 70
     8
 71
     3
 72
    12
 73
     8
 74
     0
 42
0.000000001
 43
0.00000001
 40
0.0
 40
0.0
 40
0.0
 40
0.0
 40
0.2406694982741053
 40
0.4811232268407115
 40
0.721357867569567
 40
0.961655800026113
 40
1.0
 40
1.0
 40
1.0
 40
1.0
 10
409.1284849679423
 20
916.4456214236657
 30
0.0
 10
409.3466344589972
 20
916.4526052639275
 30
0.0
 10
409.7827378614749
 20
916.4665666831622
 30
0.0
 10
410.3190642808646
 20
916.475324839767
 30
0.0
 10
410.6737243421833
 20
916.4729708185398
 30
0.0
 10
410.8085718660041
 20
916.4645366392689
 30
0.0
 10
410.7909117317805
 20
916.4564365914927
 30
0.0
 10
410.7884815044767
 20
916.4553219364725
 30
0.0
  0
ARC
  5
12A
330
1F
100
AcDbEntity
  8
0
  6
Continuous
 62
     8
370
    25
100
AcDbCircle
 10
396.5798762804378
 20
862.4530120277117
 30
0.0
 40
12.18488529659011
100
AcDbArc
 50
266.1254199051001
 51
274.5200190089
  0
ARC
  5
12B
330
1F
100
AcDbEntity
  8
0
  6
Continuous
 62
     8
370
    25
100
AcDbCircle
 10
407.3246644454379
 20
862.5232493950117
 30
0.0
 40
12.25503498140062
100
AcDbArc
 50
265.4981626352998
 51
273.8447991255
  0
SPLINE
  5
12C
330
1F
100
AcDbEntity
  8
0
  6
Continuous
 62
     8
370
    25
100
AcDbSpline
210
0.0
220
0.0
230
1.0
 70
     8
 71
     3
 72
    14
 73
    10
 74
     0
 42
0.000000001
 43
0.00000001
 40
0.0
 40
0.0
 40
0.0
 40
0.0
 40
0.25
 40
0.25
 40
0.5
 40
0.5
 40
0.75
 40
0.75
 40
1.0
 40
1.0
 40
1.0
 40
1.0
 10
395.7845114138162
 20
850.3111793697748
 30
0.0
 10
395.7487850618609
 20
850.313820635005
 30
0.0
 10
395.6854127885715
 20
850.317331809195
 30
0.0
 10
395.5045157931951
 20
850.3260582390689
 30
0.0
 10
395.3885547345012
 20
850.3311868476859
 30
0.0
 10
395.1147413351486
 20
850.3425819161315
 30
0.0
 10
394.9557350282745
 20
850.3488915665451
 30
0.0
 10
394.6128146748391
 20
850.3619744203348
 30
0.0
 10
394.4251196695739
 20
850.3688928490986
 30
0.0
 10
394.2308747064702
 20
850.3758224302607
 30
0.0
  0
SPLINE
  5
12D
330
1F
100
AcDbEntity
  8
0
  6
Continuous
 62
     8
370
    25
100
AcDbSpline
210
0.0
220
0.0
230
1.0
 70
     8
 71
     3
 72
    11
 73
     7
 74
     0
 42
0.000000001
 43
0.00000001
 40
0.0
 40
0.0
 40
0.0
 40
0.0
 40
0.1965468893352835
 40
0.464176844392685
 40
0.7320390892331067
 40
1.0
 40
1.0
 40
1.0
 40
1.0
 10
408.117776482089
 20
850.3099783516791
 30
0.0
 10
408.1374803571016
 20
850.3118503829066
 30
0.0
 10
408.1840142023156
 20
850.3162714833917
 30
0.0
 10
408.5147093137836
 20
850.3314632243348
 30
0.0
 10
409.0234383129995
 20
850.3521938511847
 30
0.0
 10
409.4557959281769
 20
850.3679452704188
 30
0.0
 10
409.6720145427097
 20
850.3758224302607
 30
0.0
  0
ARC
  5
12E
330
1F
100
AcDbEntity
  8
0
  6
Continuous
 62
     8
370
    25
100
AcDbCircle
 10
388.0209851945378
 20
1031.057487903612
 30
0.0
 40
114.7541698027101
100
AcDbArc
 50
272.0368461731
 51
272.5562940507
  0
ARC
  5
12F
330
1F
100
AcDbEntity
  8
0
  6
Continuous
 62
     8
370
    25
100
AcDbCircle
 10
415.9374620637378
 20
1032.503146752612
 30
0.0
 40
116.2008899778628
100
AcDbArc
 50
267.4576764634999
 51
267.9611119864
  0
ARC
  5
130
330
1F
100
AcDbEntity
  8
0
  6
Continuous
 62
     8
370
    25
100
AcDbCircle
 10
415.5613436030378
 20
916.6370605479117
 30
0.0
 40
3.76712238797634
100
AcDbArc
 50
154.223823998899
 51
183.9764740228994
  0
ARC
  5
131
330
1F
100
AcDbEntity
  8
0
  6
Continuous
 62
     8
370
    25
100
AcDbCircle
 10
388.3415427570378
 20
916.6370603140117
 30
0.0
 40
3.767125253928789
100
AcDbArc
 50
356.0235325730005
 51
25.77614950579979
  0
LINE
  5
132
330
1F
100
AcDbEntity
  8
0
  6
Continuous
 62
     8
370
    25
100
AcDbLine
 10
438.9514446246378
 20
916.3758224302117
 30
0.0
 11
411.8032901531378
 21
916.3758224302117
 31
0.0
  0
LINE
  5
133
330
1F
100
AcDbEntity
  8
0
  6
Continuous
 62
     8
370
    25
100
AcDbLine
 10
392.0995990960379
 20
916.3758224302117
 30
0.0
 11
364.9514446246378
 21
916.3758224302117
 31
0.0
  0
LINE
  5
134
330
1F
100
AcDbEntity
  8
0
  6
Continuous
 62
     8
370
    25
100
AcDbLine
 10
409.6720145427379
 20
850.3758224302117
 30
0.0
 11
438.9514446246378
 21
850.3758224302117
 31
0.0
  0
LINE
  5
135
330
1F
100
AcDbEntity
  8
0
  6
Continuous
 62
     8
370
    25
100
AcDbLine
 10
364.9514446246378
 20
850.3758224302117
 30
0.0
 11
394.2308747064378
 21
850.3758224302117
 31
0.0
  0
LINE
  5
136
330
1F
100
AcDbEntity
  8
0
  6
Continuous
 62
     8
370
    25
100
AcDbLine
 10
364.9198562451379
 20
916.4456214237117
 30
0.0
 11
364.9028938028379
 21
916.8138248331117
 31
0.0
  0
ELLIPSE
  5
137
330
1F
100
AcDbEntity
  8
0
  6
Continuous
 62
     8
370
    25
100
AcDbEllipse
 10
402.6677439075379
 20
791.1382047280117
 30
0.0
 11
-13.99121707045356
 21
1116.813784915387
 31
0.0
210
0.0
220
0.0
230
1.0
 40
0.0325962365
 41
1.457950402170024
 42
1.461153008356587
  0
LINE
  5
138
330
1F
100
AcDbEntity
  8
0
  6
Continuous
 62
     8
370
    25
100
AcDbLine
 10
438.9999954463378
 20
916.8138248331117
 30
0.0
 11
438.9830330040379
 21
916.4456214237117
 31
0.0
  0
ELLIPSE
  5
139
330
1F
100
AcDbEntity
  8
0
  6
Continuous
 62
     8
370
    25
100
AcDbEllipse
 10
401.2351453416378
 20
791.1382047280117
 30
0.0
 11
13.99121707045413
 21
1116.813784915387
 31
0.0
210
0.0
220
0.0
230
1.0
 40
0.0325962365
 41
4.822032298823019
 42
4.825234905009565
  0
SPLINE
  5
13A
330
1F
100
AcDbEntity
  8
0
  6
Continuous
 62
     8
370
    25
100
AcDbSpline
210
0.0
220
0.0
230
1.0
 70
     8
 71
     3
 72
    11
 73
     7
 74
     0
 42
0.000000001
 43
0.00000001
 40
0.0
 40
0.0
 40
0.0
 40
0.0
 40
0.2639813854164648
 40
0.5435761186271114
 40
0.8232445132950091
 40
1.0
 40
1.0
 40
1.0
 40
1.0
 10
361.1938515422434
 20
916.4650476677267
 30
0.0
 10
361.2106279110845
 20
916.4685728097635
 30
0.0
 10
361.2451728978268
 20
916.4758315906162
 30
0.0
 10
361.5743133125555
 20
916.4730270596315
 30
0.0
 10
362.0087731610297
 20
916.4620085590259
 30
0.0
 10
362.342153684987
 20
916.4501959822069
 30
0.0
 10
362.4712591923343
 20
916.4456214236657
 30
0.0
  0
SPLINE
  5
13B
330
1F
100
AcDbEntity
  8
0
  6
Continuous
 62
     8
370
    25
100
AcDbSpline
210
0.0
220
0.0
230
1.0
 70
     8
 71
     3
 72
    11
 73
     7
 74
     0
 42
0.000000001
 43
0.00000001
 40
0.0
 40
0.0
 40
0.0
 40
0.0
 40
0.280282139313708
 40
0.5603129530436853
 40
0.8400886240156973
 40
1.0
 40
1.0
 40
1.0
 40
1.0
 10
441.4316300568453
 20
916.4456214236657
 30
0.0
 10
441.6344420149474
 20
916.4526368047311
 30
0.0
 10
442.0398840721361
 20
916.4666612762551
 30
0.0
 10
442.4675352499492
 20
916.4749549749113
 30
0.0
 10
442.7019766474953
 20
916.474442843477
 30
0.0
 10
442.6912002841207
 20
916.4668499562449
 30
0.0
 10
442.6872809894603
 20
916.4640884715632
 30
0.0
  0
ARC
  5
13C
330
1F
100
AcDbEntity
  8
0
  6
Continuous
 62
     8
370
    25
100
AcDbCircle
 10
366.3638574246379
 20
848.8602191864117
 30
0.0
 40
0.4907599715459439
100
AcDbArc
 50
203.2364564038054
 51
260.7634081882954
  0
ARC
  5
13D
330
1F
100
AcDbEntity
  8
0
  6
Continuous
 62
     8
370
    25
100
AcDbCircle
 10
437.5390318245379
 20
848.8602191864117
 30
0.0
 40
0.4907599715454403
100
AcDbArc
 50
279.236591811593
 51
336.7635435960968
  0
SPLINE
  5
13E
330
1F
100
AcDbEntity
  8
0
  6
Continuous
 62
     8
370
    25
100
AcDbSpline
210
0.0
220
0.0
230
1.0
 70
     8
 71
     3
 72
     9
 73
     5
 74
     0
 42
0.000000001
 43
0.00000001
 40
0.0
 40
0.0
 40
0.0
 40
0.0
 40
0.6075662926195996
 40
1.0
 40
1.0
 40
1.0
 40
1.0
 10
362.4712591923343
 20
916.4456214236657
 30
0.0
 10
362.9661047282505
 20
905.4446107458214
 30
0.0
 10
363.780576403074
 20
887.3379270612938
 30
0.0
 10
364.6214553729739
 20
869.2322500596788
 30
0.0
 10
364.9514446245898
 20
862.126972109303
 30
0.0
  0
SPLINE
  5
13F
330
1F
100
AcDbEntity
  8
0
  6
Continuous
 62
     8
370
    25
100
AcDbSpline
210
0.0
220
0.0
230
1.0
 70
     8
 71
     3
 72
     9
 73
     5
 74
     0
 42
0.000000001
 43
0.00000001
 40
0.0
 40
0.0
 40
0.0
 40
0.0
 40
0.3924337073803568
 40
1.0
 40
1.0
 40
1.0
 40
1.0
 10
438.95144462459
 20
862.1269721093068
 30
0.0
 10
439.2814338762059
 20
869.2322500596814
 30
0.0
 10
440.1223128461057
 20
887.3379270612951
 30
0.0
 10
440.9367845209291
 20
905.4446107458214
 30
0.0
 10
441.4316300568453
 20
916.4456214236657
 30
0.0
  0
ARC
  5
140
330
1F
100
AcDbEntity
  8
0
  6
Continuous
 62
     8
370
    25
100
AcDbCircle
 10
364.5362389792379
 20
858.3116394955117
 30
0.0
 40
8.035779069106342
100
AcDbArc
 50
267.7210165604996
 51
272.9759551029997
  0
ARC
  5
141
330
1F
100
AcDbEntity
  8
0
  6
Continuous
 62
     8
370
    25
100
AcDbCircle
 10
439.3587365606379
 20
857.0798691374117
 30
0.0
 40
6.805489798763621
100
AcDbArc
 50
266.5521801214004
 51
272.7580521199999
  0
ARC
  5
142
330
1F
100
AcDbEntity
  8
0
  6
Continuous
 62
     8
370
    25
100
AcDbCircle
 10
366.3548622081379
 20
848.9500473727117
 30
0.0
 40
0.5911350183194665
100
AcDbArc
 50
200.9677631737936
 51
256.2624961630008
  0
ARC
  5
143
330
1F
100
AcDbEntity
  8
0
  6
Continuous
 62
     8
370
    25
100
AcDbCircle
 10
437.5480270410378
 20
848.9500473727117
 30
0.0
 40
0.5911350183190419
100
AcDbArc
 50
283.7375038368974
 51
339.0322368262009
  0
CIRCLE
  5
144
330
1F
100
AcDbEntity
  8
0
  6
Continuous
 62
     7
370
    25
100
AcDbCircle
 10
401.9514446246378
 20
410.9739216749117
 30
0.0
 40
300.3089675220299
  0
CIRCLE
  5
145
330
1F
100
AcDbEntity
  8
0
  6
Continuous
 62
     7
370
    25
100
AcDbCircle
 10
401.9514446246378
 20
410.9739216749117
 30
0.0
 40
300.1415358668036
  0
ENDSEC
  0
SECTION
  2
OBJECTS
  0
DICTIONARY
  5
C
330
0
100
AcDbDictionary
281
     1
  3
ACAD_GROUP
350
D
  3
ACAD_LAYOUT
350
1A
  3
ACAD_MLINESTYLE
350
17
  3
ACAD_PLOTSETTINGS
350
19
  3
ACAD_PLOTSTYLENAME
350
E
  3
ACAD_SCALELIST
350
47
  3
APPDATA
350
168
  3
DWGPROPS
350
16B
  0
DICTIONARY
  5
169
330
1F
100
AcDbDictionary
280
     1
281
     1
  3
DIM_BOUNDING_BOXES_V1
360
16A
  0
DICTIONARY
  5
D
102
{ACAD_REACTORS
330
C
102
}
330
C
100
AcDbDictionary
281
     1
  0
DICTIONARY
  5
1A
102
{ACAD_REACTORS
330
C
102
}
330
C
100
AcDbDictionary
281
     1
  3
Layout1
350
1E
  3
Layout2
350
26
  3
Model
350
22
  0
DICTIONARY
  5
17
102
{ACAD_REACTORS
330
C
102
}
330
C
100
AcDbDictionary
281
     1
  3
Standard
350
18
  0
DICTIONARY
  5
19
102
{ACAD_REACTORS
330
C
102
}
330
C
100
AcDbDictionary
281
     1
  0
ACDBDICTIONARYWDFLT
  5
E
102
{ACAD_REACTORS
330
C
102
}
330
C
100
AcDbDictionary
281
     1
  3
Normal
350
F
100
AcDbDictionaryWithDefault
340
F
  0
DICTIONARY
  5
47
102
{ACAD_REACTORS
330
C
102
}
330
C
100
AcDbDictionary
281
     1
  3
A0
350
48
  3
A1
350
49
  3
A2
350
4A
  3
A3
350
4B
  3
A4
350
4C
  3
A5
350
4D
  3
A6
350
4E
  3
A7
350
4F
  3
A8
350
50
  3
A9
350
51
  3
B0
350
52
  3
B1
350
53
  3
B2
350
54
  3
B3
350
55
  3
B4
350
56
  3
B5
350
57
  3
B6
350
58
  3
B7
350
59
  3
B8
350
5A
  3
B9
350
5B
  3
C0
350
5C
  3
C1
350
5D
  3
C2
350
5E
  3
C3
350
5F
  3
C4
350
60
  3
C5
350
61
  3
C6
350
62
  3
C7
350
63
  3
C8
350
64
  3
C9
350
65
  3
D0
350
66
  3
D1
350
67
  3
D2
350
68
  0
DICTIONARY
  5
168
102
{ACAD_REACTORS
330
C
102
}
330
C
100
AcDbDictionary
281
     1
  0
XRECORD
  5
16B
102
{ACAD_REACTORS
330
C
102
}
330
C
100
AcDbXrecord
280
     1
  1
DWGPROPS COOKIE
  2

  3

  4

  6

  7

  8
eakin
  9

300
=
301
=
302
=
303
=
304
=
305
=
306
=
307
=
308
=
309
=
 40
0.0
 41
2460175.350619051
 42
2460175.351743183
  1

 90
        0
  0
DICTIONARY
  5
16A
102
{ACAD_REACTORS
330
169
102
}
330
169
100
AcDbDictionary
281
     1
  0
LAYOUT
  5
1E
102
{ACAD_REACTORS
330
1A
102
}
330
1A
100
AcDbPlotSettings
  1

  2
none_device
  4

  6

 40
0.0
 41
0.0
 42
0.0
 43
0.0
 44
0.0
 45
0.0
 46
0.0
 47
0.0
 48
0.0
 49
0.0
140
0.0
141
0.0
142
1.0
143
1.0
 70
   688
 72
     1
 73
     0
 74
     5
  7

 75
    16
147
1.0
148
0.0
149
0.0
100
AcDbLayout
  1
Layout1
 70
     1
 71
     1
 10
0.0
 20
0.0
 11
420.0
 21
297.0
 12
0.0
 22
0.0
 32
0.0
 14
1.000000000000000E+20
 24
1.000000000000000E+20
 34
1.000000000000000E+20
 15
-1.000000000000000E+20
 25
-1.000000000000000E+20
 35
-1.000000000000000E+20
146
0.0
 13
0.0
 23
0.0
 33
0.0
 16
1.0
 26
0.0
 36
0.0
 17
0.0
 27
1.0
 37
0.0
 76
     0
330
1B
  0
LAYOUT
  5
26
102
{ACAD_REACTORS
330
1A
102
}
330
1A
100
AcDbPlotSettings
  1

  2
none_device
  4

  6

 40
0.0
 41
0.0
 42
0.0
 43
0.0
 44
0.0
 45
0.0
 46
0.0
 47
0.0
 48
0.0
 49
0.0
140
0.0
141
0.0
142
1.0
143
1.0
 70
   688
 72
     1
 73
     0
 74
     5
  7

 75
    16
147
1.0
148
0.0
149
0.0
100
AcDbLayout
  1
Layout2
 70
     1
 71
     2
 10
0.0
 20
0.0
 11
0.0
 21
0.0
 12
0.0
 22
0.0
 32
0.0
 14
0.0
 24
0.0
 34
0.0
 15
0.0
 25
0.0
 35
0.0
146
0.0
 13
0.0
 23
0.0
 33
0.0
 16
1.0
 26
0.0
 36
0.0
 17
0.0
 27
1.0
 37
0.0
 76
     0
330
23
  0
LAYOUT
  5
22
102
{ACAD_REACTORS
330
1A
102
}
330
1A
100
AcDbPlotSettings
  1

  2
none_device
  4
Letter_(8.50_x_11.00_Inches)
  6

 40
6.35
 41
6.35
 42
6.35000508
 43
6.35000508
 44
215.9
 45
279.4
 46
0.0
 47
0.0
 48
0.0
 49
0.0
140
0.0
141
0.0
142
1.0
143
1.0
 70
  1712
 72
     1
 73
     0
 74
     0
  7

 75
     0
147
1.0
148
0.0
149
0.0
100
AcDbLayout
  1
Model
 70
     1
 71
     0
 10
0.0
 20
0.0
 11
420.0
 21
297.0
 12
0.0
 22
0.0
 32
0.0
 14
101.6424771025374
 24
110.6649541528818
 34
0.0
 15
702.2604121466677
 25
1520.187724744274
 35
0.0
146
0.0
 13
0.0
 23
0.0
 33
0.0
 16
1.0
 26
0.0
 36
0.0
 17
0.0
 27
1.0
 37
0.0
 76
     0
330
1F
331
29
  0
MLINESTYLE
  5
18
102
{ACAD_REACTORS
330
17
102
}
330
17
100
AcDbMlineStyle
  2
Standard
 70
     0
  3

 62
   256
 51
90.0
 52
90.0
 71
     2
 49
0.5
 62
   256
  6
BYLAYER
 49
-0.5
 62
   256
  6
BYLAYER
  0
ACDBPLACEHOLDER
  5
F
102
{ACAD_REACTORS
330
E
102
}
330
E
  0
SCALE
  5
48
102
{ACAD_REACTORS
330
47
102
}
330
47
100
AcDbScale
 70
     0
300
1:1
140
1.0
141
1.0
290
     1
  0
SCALE
  5
49
102
{ACAD_REACTORS
330
47
102
}
330
47
100
AcDbScale
 70
     0
300
1:2
140
1.0
141
2.0
290
     0
  0
SCALE
  5
4A
102
{ACAD_REACTORS
330
47
102
}
330
47
100
AcDbScale
 70
     0
300
1:4
140
1.0
141
4.0
290
     0
  0
SCALE
  5
4B
102
{ACAD_REACTORS
330
47
102
}
330
47
100
AcDbScale
 70
     0
300
1:5
140
1.0
141
5.0
290
     0
  0
SCALE
  5
4C
102
{ACAD_REACTORS
330
47
102
}
330
47
100
AcDbScale
 70
     0
300
1:8
140
1.0
141
8.0
290
     0
  0
SCALE
  5
4D
102
{ACAD_REACTORS
330
47
102
}
330
47
100
AcDbScale
 70
     0
300
1:10
140
1.0
141
10.0
290
     0
  0
SCALE
  5
4E
102
{ACAD_REACTORS
330
47
102
}
330
47
100
AcDbScale
 70
     0
300
1:16
140
1.0
141
16.0
290
     0
  0
SCALE
  5
4F
102
{ACAD_REACTORS
330
47
102
}
330
47
100
AcDbScale
 70
     0
300
1:20
140
1.0
141
20.0
290
     0
  0
SCALE
  5
50
102
{ACAD_REACTORS
330
47
102
}
330
47
100
AcDbScale
 70
     0
300
1:30
140
1.0
141
30.0
290
     0
  0
SCALE
  5
51
102
{ACAD_REACTORS
330
47
102
}
330
47
100
AcDbScale
 70
     0
300
1:40
140
1.0
141
40.0
290
     0
  0
SCALE
  5
52
102
{ACAD_REACTORS
330
47
102
}
330
47
100
AcDbScale
 70
     0
300
1:50
140
1.0
141
50.0
290
     0
  0
SCALE
  5
53
102
{ACAD_REACTORS
330
47
102
}
330
47
100
AcDbScale
 70
     0
300
1:100
140
1.0
141
100.0
290
     0
  0
SCALE
  5
54
102
{ACAD_REACTORS
330
47
102
}
330
47
100
AcDbScale
 70
     0
300
2:1
140
2.0
141
1.0
290
     0
  0
SCALE
  5
55
102
{ACAD_REACTORS
330
47
102
}
330
47
100
AcDbScale
 70
     0
300
4:1
140
4.0
141
1.0
290
     0
  0
SCALE
  5
56
102
{ACAD_REACTORS
330
47
102
}
330
47
100
AcDbScale
 70
     0
300
8:1
140
8.0
141
1.0
290
     0
  0
SCALE
  5
57
102
{ACAD_REACTORS
330
47
102
}
330
47
100
AcDbScale
 70
     0
300
10:1
140
10.0
141
1.0
290
     0
  0
SCALE
  5
58
102
{ACAD_REACTORS
330
47
102
}
330
47
100
AcDbScale
 70
     0
300
100:1
140
100.0
141
1.0
290
     0
  0
SCALE
  5
59
102
{ACAD_REACTORS
330
47
102
}
330
47
100
AcDbScale
 70
     0
300
1/128" = 1'-0"
140
0.0078125
141
12.0
290
     0
  0
SCALE
  5
5A
102
{ACAD_REACTORS
330
47
102
}
330
47
100
AcDbScale
 70
     0
300
1/64" = 1'-0"
140
0.015625
141
12.0
290
     0
  0
SCALE
  5
5B
102
{ACAD_REACTORS
330
47
102
}
330
47
100
AcDbScale
 70
     0
300
1/32" = 1'-0"
140
0.03125
141
12.0
290
     0
  0
SCALE
  5
5C
102
{ACAD_REACTORS
330
47
102
}
330
47
100
AcDbScale
 70
     0
300
1/16" = 1'-0"
140
0.0625
141
12.0
290
     0
  0
SCALE
  5
5D
102
{ACAD_REACTORS
330
47
102
}
330
47
100
AcDbScale
 70
     0
300
3/32" = 1'-0"
140
0.09375
141
12.0
290
     0
  0
SCALE
  5
5E
102
{ACAD_REACTORS
330
47
102
}
330
47
100
AcDbScale
 70
     0
300
1/8" = 1'-0"
140
0.125
141
12.0
290
     0
  0
SCALE
  5
5F
102
{ACAD_REACTORS
330
47
102
}
330
47
100
AcDbScale
 70
     0
300
3/16" = 1'-0"
140
0.1875
141
12.0
290
     0
  0
SCALE
  5
60
102
{ACAD_REACTORS
330
47
102
}
330
47
100
AcDbScale
 70
     0
300
1/4" = 1'-0"
140
0.25
141
12.0
290
     0
  0
SCALE
  5
61
102
{ACAD_REACTORS
330
47
102
}
330
47
100
AcDbScale
 70
     0
300
3/8" = 1'-0"
140
0.375
141
12.0
290
     0
  0
SCALE
  5
62
102
{ACAD_REACTORS
330
47
102
}
330
47
100
AcDbScale
 70
     0
300
1/2" = 1'-0"
140
0.5
141
12.0
290
     0
  0
SCALE
  5
63
102
{ACAD_REACTORS
330
47
102
}
330
47
100
AcDbScale
 70
     0
300
3/4" = 1'-0"
140
0.75
141
12.0
290
     0
  0
SCALE
  5
64
102
{ACAD_REACTORS
330
47
102
}
330
47
100
AcDbScale
 70
     0
300
1" = 1'-0"
140
1.0
141
12.0
290
     0
  0
SCALE
  5
65
102
{ACAD_REACTORS
330
47
102
}
330
47
100
AcDbScale
 70
     0
300
1-1/2" = 1'-0"
140
1.5
141
12.0
290
     0
  0
SCALE
  5
66
102
{ACAD_REACTORS
330
47
102
}
330
47
100
AcDbScale
 70
     0
300
3" = 1'-0"
140
3.0
141
12.0
290
     0
  0
SCALE
  5
67
102
{ACAD_REACTORS
330
47
102
}
330
47
100
AcDbScale
 70
     0
300
6" = 1'-0"
140
6.0
141
12.0
290
     0
  0
SCALE
  5
68
102
{ACAD_REACTORS
330
47
102
}
330
47
100
AcDbScale
 70
     0
300
1'-0" = 1'-0"
140
12.0
141
12.0
290
     0
  0
ENDSEC
  0
EOF
