  0
SECTION
  2
HEADER
  9
$ACADVER
  1
AC1015
  9
$ACADMAINTVER
 70
     6
  9
$DWGCODEPAGE
  3
ANSI_1254
  9
$INSBASE
 10
0.0
 20
0.0
 30
0.0
  9
$EXTMIN
 10
0.0
 20
0.0
 30
0.0
  9
$EXTMAX
 10
1189.0
 20
841.0
 30
0.0
  9
$LIMMIN
 10
0.0
 20
0.0
  9
$LIMMAX
 10
1189.0
 20
841.0
  9
$ORTHOMODE
 70
     0
  9
$REGENMODE
 70
     1
  9
$FILLMODE
 70
     1
  9
$QTEXTMODE
 70
     0
  9
$MIRRTEXT
 70
     1
  9
$LTSCALE
 40
1.0
  9
$ATTMODE
 70
     1
  9
$TEXTSIZE
 40
4.9388888889
  9
$TRACEWID
 40
1.0
  9
$TEXTSTYLE
  7
Standard
  9
$CLAYER
  8
0
  9
$CELTYPE
  6
ByLayer
  9
$CECOLOR
 62
   256
  9
$CELTSCALE
 40
1.0
  9
$DISPSILH
 70
     0
  9
$DIMSCALE
 40
1.0
  9
$DIMASZ
 40
3.65
  9
$DIMEXO
 40
0.5
  9
$DIMDLI
 40
3.75
  9
$DIMRND
 40
0.0
  9
$DIMDLE
 40
0.0
  9
$DIMEXE
 40
1.0
  9
$DIMTP
 40
0.0
  9
$DIMTM
 40
0.0
  9
$DIMTXT
 40
4.2333333333
  9
$DIMCEN
 40
2.5
  9
$DIMTSZ
 40
0.0
  9
$DIMTOL
 70
     0
  9
$DIMLIM
 70
     0
  9
$DIMTIH
 70
     1
  9
$DIMTOH
 70
     1
  9
$DIMSE1
 70
     0
  9
$DIMSE2
 70
     0
  9
$DIMTAD
 70
     1
  9
$DIMZIN
 70
     0
  9
$DIMBLK
  1

  9
$DIMASO
 70
     1
  9
$DIMSHO
 70
     1
  9
$DIMPOST
  1

  9
$DIMAPOST
  1

  9
$DIMALT
 70
     0
  9
$DIMALTD
 70
     3
  9
$DIMALTF
 40
0.0393700787
  9
$DIMLFAC
 40
1.0
  9
$DIMTOFL
 70
     1
  9
$DIMTVP
 40
0.0
  9
$DIMTIX
 70
     0
  9
$DIMSOXD
 70
     0
  9
$DIMSAH
 70
     0
  9
$DIMBLK1
  1

  9
$DIMBLK2
  1

  9
$DIMSTYLE
  2
ISO-25
  9
$DIMCLRD
 70
     0
  9
$DIMCLRE
 70
     0
  9
$DIMCLRT
 70
     0
  9
$DIMTFAC
 40
1.0
  9
$DIMGAP
 40
1.524
  9
$DIMJUST
 70
     0
  9
$DIMSD1
 70
     0
  9
$DIMSD2
 70
     0
  9
$DIMTOLJ
 70
     0
  9
$DIMTZIN
 70
     0
  9
$DIMALTZ
 70
     0
  9
$DIMALTTZ
 70
     0
  9
$DIMUPT
 70
     0
  9
$DIMDEC
 70
     2
  9
$DIMTDEC
 70
     2
  9
$DIMALTU
 70
     2
  9
$DIMALTTD
 70
     3
  9
$DIMTXSTY
  7
Standard
  9
$DIMAUNIT
 70
     0
  9
$DIMADEC
 70
     2
  9
$DIMALTRND
 40
0.0
  9
$DIMAZIN
 70
     0
  9
$DIMDSEP
 70
    44
  9
$DIMATFIT
 70
     3
  9
$DIMFRAC
 70
     0
  9
$DIMLDRBLK
  1

  9
$DIMLUNIT
 70
     2
  9
$DIMLWD
 70
    -2
  9
$DIMLWE
 70
    -2
  9
$DIMTMOVE
 70
     0
  9
$LUNITS
 70
     2
  9
$LUPREC
 70
     2
  9
$SKETCHINC
 40
1.0
  9
$FILLETRAD
 40
10.0
  9
$AUNITS
 70
     0
  9
$AUPREC
 70
     2
  9
$MENU
  1
.
  9
$ELEVATION
 40
0.0
  9
$PELEVATION
 40
0.0
  9
$THICKNESS
 40
0.0
  9
$LIMCHECK
 70
     0
  9
$CHAMFERA
 40
0.0
  9
$CHAMFERB
 40
0.0
  9
$CHAMFERC
 40
0.0
  9
$CHAMFERD
 40
0.0
  9
$SKPOLY
 70
     0
  9
$TDCREATE
 40
2459080.484913611
  9
$TDUCREATE
 40
2459080.359913611
  9
$TDUPDATE
 40
2459080.484914606
  9
$TDUUPDATE
 40
2459080.359914606
  9
$TDINDWG
 40
0.0000000116
  9
$TDUSRTIMER
 40
0.0000000116
  9
$USRTIMER
 70
     1
  9
$ANGBASE
 50
0.0
  9
$ANGDIR
 70
     0
  9
$PDMODE
 70
     0
  9
$PDSIZE
 40
-1.0
  9
$PLINEWID
 40
0.0
  9
$SPLFRAME
 70
     0
  9
$SPLINETYPE
 70
     6
  9
$SPLINESEGS
 70
     8
  9
$HANDSEED
  5
258
  9
$SURFTAB1
 70
     6
  9
$SURFTAB2
 70
     6
  9
$SURFTYPE
 70
     6
  9
$SURFU
 70
     6
  9
$SURFV
 70
     6
  9
$UCSBASE
  2

  9
$UCSNAME
  2

  9
$UCSORG
 10
0.0
 20
0.0
 30
0.0
  9
$UCSXDIR
 10
1.0
 20
0.0
 30
0.0
  9
$UCSYDIR
 10
0.0
 20
1.0
 30
0.0
  9
$UCSORTHOREF
  2

  9
$UCSORTHOVIEW
 70
     0
  9
$UCSORGTOP
 10
0.0
 20
0.0
 30
0.0
  9
$UCSORGBOTTOM
 10
0.0
 20
0.0
 30
0.0
  9
$UCSORGLEFT
 10
0.0
 20
0.0
 30
0.0
  9
$UCSORGRIGHT
 10
0.0
 20
0.0
 30
0.0
  9
$UCSORGFRONT
 10
0.0
 20
0.0
 30
0.0
  9
$UCSORGBACK
 10
0.0
 20
0.0
 30
0.0
  9
$PUCSBASE
  2

  9
$PUCSNAME
  2

  9
$PUCSORG
 10
0.0
 20
0.0
 30
0.0
  9
$PUCSXDIR
 10
1.0
 20
0.0
 30
0.0
  9
$PUCSYDIR
 10
0.0
 20
1.0
 30
0.0
  9
$PUCSORTHOREF
  2

  9
$PUCSORTHOVIEW
 70
     0
  9
$PUCSORGTOP
 10
0.0
 20
0.0
 30
0.0
  9
$PUCSORGBOTTOM
 10
0.0
 20
0.0
 30
0.0
  9
$PUCSORGLEFT
 10
0.0
 20
0.0
 30
0.0
  9
$PUCSORGRIGHT
 10
0.0
 20
0.0
 30
0.0
  9
$PUCSORGFRONT
 10
0.0
 20
0.0
 30
0.0
  9
$PUCSORGBACK
 10
0.0
 20
0.0
 30
0.0
  9
$USERI1
 70
     0
  9
$USERI2
 70
     0
  9
$USERI3
 70
     0
  9
$USERI4
 70
     0
  9
$USERI5
 70
     0
  9
$USERR1
 40
0.0
  9
$USERR2
 40
0.0
  9
$USERR3
 40
0.0
  9
$USERR4
 40
0.0
  9
$USERR5
 40
0.0
  9
$WORLDVIEW
 70
     1
  9
$SHADEDGE
 70
     3
  9
$SHADEDIF
 70
    70
  9
$TILEMODE
 70
     1
  9
$MAXACTVP
 70
    64
  9
$PINSBASE
 10
0.0
 20
0.0
 30
0.0
  9
$PLIMCHECK
 70
     0
  9
$PEXTMIN
 10
1.0000000000E+20
 20
1.0000000000E+20
 30
1.0000000000E+20
  9
$PEXTMAX
 10
-1.0000000000E+20
 20
-1.0000000000E+20
 30
-1.0000000000E+20
  9
$PLIMMIN
 10
0.0
 20
0.0
  9
$PLIMMAX
 10
420.0
 20
297.0
  9
$UNITMODE
 70
     0
  9
$VISRETAIN
 70
     1
  9
$PLINEGEN
 70
     0
  9
$PSLTSCALE
 70
     1
  9
$TREEDEPTH
 70
  3020
  9
$CMLSTYLE
  2
Standard
  9
$CMLJUST
 70
     0
  9
$CMLSCALE
 40
20.0
  9
$PROXYGRAPHICS
 70
     1
  9
$MEASUREMENT
 70
     1
  9
$CELWEIGHT
370
    -1
  9
$ENDCAPS
280
     0
  9
$JOINSTYLE
280
     0
  9
$LWDISPLAY
290
     1
  9
$INSUNITS
 70
     4
  9
$HYPERLINKBASE
  1

  9
$STYLESHEET
  1

  9
$XEDIT
290
     1
  9
$CEPSNTYPE
380
     0
  9
$PSTYLEMODE
290
     1
  9
$FINGERPRINTGUID
  2
{ea386e76-4427-473b-aac4-95bab0591926}
  9
$VERSIONGUID
  2
{FAEB1C32-E019-11D5-929B-00C0DF256EC4}
  9
$EXTNAMES
290
     1
  9
$PSVPSCALE
 40
0.0
  9
$OLESTARTUP
290
     0
  0
ENDSEC
  0
SECTION
  2
CLASSES
  0
CLASS
  1
ACDBDICTIONARYWDFLT
  2
AcDbDictionaryWithDefault
  3
ObjectDBX Classes
 90
        0
280
     0
281
     0
  0
CLASS
  1
VISUALSTYLE
  2
AcDbVisualStyle
  3
ObjectDBX Classes
 90
     4095
280
     0
281
     0
  0
CLASS
  1
MATERIAL
  2
AcDbMaterial
  3
ObjectDBX Classes
 90
     1153
280
     0
281
     0
  0
CLASS
  1
SCALE
  2
AcDbScale
  3
ObjectDBX Classes
 90
     1153
280
     0
281
     0
  0
CLASS
  1
TABLESTYLE
  2
AcDbTableStyle
  3
ObjectDBX Classes
 90
     4095
280
     0
281
     0
  0
CLASS
  1
MLEADERSTYLE
  2
AcDbMLeaderStyle
  3
ACDB_MLEADERSTYLE_CLASS
 90
     4095
280
     0
281
     0
  0
CLASS
  1
SUN
  2
AcDbSun
  3
SCENEOE
 90
     1153
280
     0
281
     0
  0
CLASS
  1
ACDBPLACEHOLDER
  2
AcDbPlaceHolder
  3
ObjectDBX Classes
 90
        0
280
     0
281
     0
  0
CLASS
  1
LAYOUT
  2
AcDbLayout
  3
ObjectDBX Classes
 90
        0
280
     0
281
     0
  0
ENDSEC
  0
SECTION
  2
TABLES
  0
TABLE
  2
VPORT
  5
8
330
0
100
AcDbSymbolTable
 70
     1
  0
VPORT
  5
29
330
8
100
AcDbSymbolTableRecord
100
AcDbViewportTableRecord
  2
*Active
 70
     0
 10
0.0
 20
0.0
 11
1.0
 21
1.0
 12
594.5
 22
420.5
 13
0.0
 23
0.0
 14
10.0
 24
10.0
 15
10.0
 25
10.0
 16
0.0
 26
0.0
 36
1.0
 17
0.0
 27
0.0
 37
0.0
 40
841.0
 41
1.4137931034
 42
50.0
 43
0.0
 44
0.0
 50
0.0
 51
0.0
 71
     0
 72
  2000
 73
     1
 74
     3
 75
     0
 76
     0
 77
     0
 78
     0
281
     0
 65
     1
110
0.0
120
0.0
130
0.0
111
1.0
121
0.0
131
0.0
112
0.0
122
1.0
132
0.0
 79
     0
146
0.0
  0
ENDTAB
  0
TABLE
  2
LTYPE
  5
5
330
0
100
AcDbSymbolTable
 70
     6
  0
LTYPE
  5
14
330
5
100
AcDbSymbolTableRecord
100
AcDbLinetypeTableRecord
  2
ByBlock
 70
     0
  3

 72
    65
 73
     0
 40
0.0
  0
LTYPE
  5
15
330
5
100
AcDbSymbolTableRecord
100
AcDbLinetypeTableRecord
  2
ByLayer
 70
     0
  3

 72
    65
 73
     0
 40
0.0
  0
LTYPE
  5
16
330
5
100
AcDbSymbolTableRecord
100
AcDbLinetypeTableRecord
  2
Continuous
 70
     0
  3
Solid line
 72
    65
 73
     0
 40
0.0
  0
LTYPE
  5
6E
330
5
100
AcDbSymbolTableRecord
100
AcDbLinetypeTableRecord
  2
HIDDEN
 70
     0
  3
Hidden __ __ __ __ __ __ __ __ __ __ __ __ __ __
 72
    65
 73
     2
 40
1.905
 49
1.27
 74
     0
 49
-0.635
 74
     0
  0
LTYPE
  5
6F
330
5
100
AcDbSymbolTableRecord
100
AcDbLinetypeTableRecord
  2
PHANTOM
 70
     0
  3
Phantom ______  __  __  ______  __  __  ______
 72
    65
 73
     6
 40
12.7
 49
6.35
 74
     0
 49
-1.27
 74
     0
 49
1.27
 74
     0
 49
-1.27
 74
     0
 49
1.27
 74
     0
 49
-1.27
 74
     0
  0
LTYPE
  5
70
330
5
100
AcDbSymbolTableRecord
100
AcDbLinetypeTableRecord
  2
CENTER
 70
     0
  3
Center ____ _ ____ _ ____ _ ____ _ ____ _ ____
 72
    65
 73
     4
 40
10.16
 49
6.35
 74
     0
 49
-1.27
 74
     0
 49
1.27
 74
     0
 49
-1.27
 74
     0
  0
LTYPE
  5
71
330
5
100
AcDbSymbolTableRecord
100
AcDbLinetypeTableRecord
  2
CENTERX2
 70
     0
  3
Center (2x) ________  __  ________  __  _____
 72
    65
 73
     4
 40
20.32
 49
12.7
 74
     0
 49
-2.54
 74
     0
 49
2.54
 74
     0
 49
-2.54
 74
     0
  0
LTYPE
  5
72
330
5
100
AcDbSymbolTableRecord
100
AcDbLinetypeTableRecord
  2
DOT2
 70
     0
  3
Dot (.5x) ........................................
 72
    65
 73
     2
 40
0.635
 49
0.0
 74
     0
 49
-0.635
 74
     0
  0
ENDTAB
  0
TABLE
  2
LAYER
  5
2
330
0
100
AcDbSymbolTable
 70
     5
  0
LAYER
  5
10
330
2
100
AcDbSymbolTableRecord
100
AcDbLayerTableRecord
  2
0
 70
     0
 62
     7
  6
Continuous
370
    -3
390
F
  0
LAYER
  5
73
330
2
100
AcDbSymbolTableRecord
100
AcDbLayerTableRecord
  2
FORMAT
 70
     0
 62
     7
  6
Continuous
370
    -3
390
F
  0
LAYER
  5
74
330
2
100
AcDbSymbolTableRecord
100
AcDbLayerTableRecord
  2
SLD-0
 70
     0
 62
   179
  6
Continuous
370
    -3
390
F
  0
LAYER
  5
75
330
2
100
AcDbSymbolTableRecord
100
AcDbLayerTableRecord
  2
AAA_EKSEN
 70
     0
 62
     1
  6
CENTER
370
    -3
390
F
  0
LAYER
  5
76
330
2
100
AcDbSymbolTableRecord
100
AcDbLayerTableRecord
  2
03
 70
     0
 62
     3
  6
HIDDEN
370
    -3
390
F
  0
ENDTAB
  0
TABLE
  2
STYLE
  5
3
330
0
100
AcDbSymbolTable
 70
     1
  0
STYLE
  5
11
330
3
100
AcDbSymbolTableRecord
100
AcDbTextStyleTableRecord
  2
Standard
 70
     0
 40
0.0
 41
1.0
 50
0.0
 71
     0
 42
4.9388888889
  3
txt
  4

  0
ENDTAB
  0
TABLE
  2
VIEW
  5
6
330
0
100
AcDbSymbolTable
 70
     0
  0
ENDTAB
  0
TABLE
  2
UCS
  5
7
330
0
100
AcDbSymbolTable
 70
     0
  0
ENDTAB
  0
TABLE
  2
APPID
  5
9
330
0
100
AcDbSymbolTable
 70
     1
  0
APPID
  5
12
330
9
100
AcDbSymbolTableRecord
100
AcDbRegAppTableRecord
  2
ACAD
 70
     0
  0
ENDTAB
  0
TABLE
  2
DIMSTYLE
  5
A
330
0
100
AcDbSymbolTable
 70
     1
100
AcDbDimStyleTable
  0
DIMSTYLE
105
27
330
A
100
AcDbSymbolTableRecord
100
AcDbDimStyleTableRecord
  2
ISO-25
 70
     0
 41
2.5
 42
0.625
 43
3.75
 44
1.25
 73
     0
 74
     0
 77
     1
 78
     8
140
2.5
141
2.5
143
0.0393700787
147
0.625
171
     3
172
     1
178
     0
271
     2
272
     2
274
     3
278
    44
283
     0
284
     8
340
11
  0
ENDTAB
  0
TABLE
  2
BLOCK_RECORD
  5
1
330
0
100
AcDbSymbolTable
 70
     1
  0
BLOCK_RECORD
  5
1F
330
1
100
AcDbSymbolTableRecord
100
AcDbBlockTableRecord
  2
*Model_Space
340
22
  0
BLOCK_RECORD
  5
1B
330
1
100
AcDbSymbolTableRecord
100
AcDbBlockTableRecord
  2
*Paper_Space
340
1E
  0
BLOCK_RECORD
  5
23
330
1
100
AcDbSymbolTableRecord
100
AcDbBlockTableRecord
  2
*Paper_Space0
340
26
  0
ENDTAB
  0
ENDSEC
  0
SECTION
  2
BLOCKS
  0
BLOCK
  5
20
330
1F
100
AcDbEntity
  8
0
100
AcDbBlockBegin
  2
*Model_Space
 70
     0
 10
0.0
 20
0.0
 30
0.0
  3
*Model_Space
  1

  0
ENDBLK
  5
21
330
1F
100
AcDbEntity
  8
0
100
AcDbBlockEnd
  0
BLOCK
  5
1C
330
1B
100
AcDbEntity
 67
     1
  8
0
100
AcDbBlockBegin
  2
*Paper_Space
 70
     0
 10
0.0
 20
0.0
 30
0.0
  3
*Paper_Space
  1

  0
ENDBLK
  5
1D
330
1B
100
AcDbEntity
 67
     1
  8
0
100
AcDbBlockEnd
  0
BLOCK
  5
24
330
23
100
AcDbEntity
  8
0
100
AcDbBlockBegin
  2
*Paper_Space0
 70
     0
 10
0.0
 20
0.0
 30
0.0
  3
*Paper_Space0
  1

  0
ENDBLK
  5
25
330
23
100
AcDbEntity
  8
0
100
AcDbBlockEnd
  0
ENDSEC
  0
SECTION
  2
ENTITIES
  0
CIRCLE
  5
77
330
1F
100
AcDbEntity
  8
0
  6
Continuous
 62
     7
370
    25
100
AcDbCircle
 10
580.0986199934
 20
247.1797999071
 30
0.0
 40
89.35000000000004
  0
CIRCLE
  5
78
330
1F
100
AcDbEntity
  8
0
  6
Continuous
 62
     7
370
    25
100
AcDbCircle
 10
580.0986199934
 20
247.1797999071
 30
0.0
 40
89.85000000000001
  0
LINE
  5
79
330
1F
100
AcDbEntity
  8
0
  6
Continuous
 62
     7
370
    25
100
AcDbLine
 10
591.8353472924
 20
145.7307734316
 30
0.0
 11
591.8353488667
 21
147.3563383794
 31
0.0
  0
LINE
  5
7A
330
1F
100
AcDbEntity
  8
0
  6
Continuous
 62
     7
370
    25
100
AcDbLine
 10
593.4602579457
 20
145.7307726405
 30
0.0
 11
591.8353472924
 21
145.7307734316
 31
0.0
  0
LINE
  5
7B
330
1F
100
AcDbEntity
  8
0
  6
Continuous
 62
     7
370
    25
100
AcDbLine
 10
593.4602588945
 20
146.2676896372
 30
0.0
 11
593.4602579457
 21
145.7307726405
 31
0.0
  0
LINE
  5
7C
330
1F
100
AcDbEntity
  8
0
  6
Continuous
 62
     7
370
    25
100
AcDbLine
 10
592.3712639398
 20
146.2676877934
 30
0.0
 11
593.4602588945
 21
146.2676896372
 31
0.0
  0
LINE
  5
7D
330
1F
100
AcDbEntity
  8
0
  6
Continuous
 62
     7
370
    25
100
AcDbLine
 10
592.3712677915
 20
147.3563376072
 30
0.0
 11
592.3712639398
 21
146.2676877934
 31
0.0
  0
LINE
  5
7E
330
1F
100
AcDbEntity
  8
0
  6
Continuous
 62
     7
370
    25
100
AcDbLine
 10
591.8353488667
 20
147.3563383794
 30
0.0
 11
592.3712677915
 21
147.3563376072
 31
0.0
  0
SPLINE
  5
7F
330
1F
100
AcDbEntity
  8
0
  6
Continuous
 62
     7
370
    25
100
AcDbSpline
210
0.0
220
0.0
230
1.0
 70
     8
 71
     3
 72
    15
 73
    11
 74
     0
 42
0.000000001
 43
0.00000001
 40
0.0
 40
0.0
 40
0.0
 40
0.0
 40
0.1262577353450259
 40
0.2486163548969567
 40
0.3716683672784606
 40
0.5015512889024559
 40
0.6294222284169305
 40
0.7516078376102147
 40
0.8737551054224598
 40
0.9999999999999999
 40
0.9999999999999999
 40
0.9999999999999999
 40
0.9999999999999999
 10
592.6489400085394
 20
144.3913194943572
 30
0.0
 10
592.5789305982058
 20
144.3991636655604
 30
0.0
 10
592.4410738216841
 20
144.4146097627551
 30
0.0
 10
592.2655956359209
 20
144.5341624850342
 30
0.0
 10
592.1456682919965
 20
144.7080316876297
 30
0.0
 10
592.1038334755314
 20
144.9197226232872
 30
0.0
 10
592.145903609071
 20
145.1308864765411
 30
0.0
 10
592.2660654291411
 20
145.3025540218019
 30
0.0
 10
592.4412160108525
 20
145.42121848526
 30
0.0
 10
592.5789395862516
 20
145.4366453327384
 30
0.0
 10
592.6489373594898
 20
145.4444860017628
 30
0.0
  0
SPLINE
  5
80
330
1F
100
AcDbEntity
  8
0
  6
Continuous
 62
     7
370
    25
100
AcDbSpline
210
0.0
220
0.0
230
1.0
 70
     8
 71
     3
 72
    15
 73
    11
 74
     0
 42
0.000000001
 43
0.00000001
 40
0.0
 40
0.0
 40
0.0
 40
0.0
 40
0.1259004563802824
 40
0.2479058861645347
 40
0.3702266012815941
 40
0.4984444964729463
 40
0.6286802303026615
 40
0.7518720285785165
 40
0.8740920204406556
 40
1.0
 40
1.0
 40
1.0
 40
1.0
 10
592.6489373594898
 20
145.4444860017628
 30
0.0
 10
592.718541312611
 20
145.4366315097253
 30
0.0
 10
592.8555958569328
 20
145.4211655228266
 30
0.0
 10
593.0297343909851
 20
145.3023780996159
 30
0.0
 10
593.1490922780733
 20
145.1307147292045
 30
0.0
 10
593.1908454771803
 20
144.9197203898855
 30
0.0
 10
593.1493240239071
 20
144.7082003707728
 30
0.0
 10
593.0302031292122
 20
144.5343358599263
 30
0.0
 10
592.8557391964474
 20
144.414660561482
 30
0.0
 10
592.7185527499236
 20
144.3991765642317
 30
0.0
 10
592.6489400085394
 20
144.3913194943572
 30
0.0
  0
LINE
  5
81
330
1F
100
AcDbEntity
  8
0
  6
Continuous
 62
     7
370
    25
100
AcDbLine
 10
589.0477793846
 20
136.8582739305
 30
0.0
 11
578.4754728465
 21
136.8582697869
 31
0.0
  0
LINE
  5
82
330
1F
100
AcDbEntity
  8
0
  6
Continuous
 62
     7
370
    25
100
AcDbLine
 10
589.0477809202
 20
138.0649151501
 30
0.0
 11
589.0477793846
 21
136.8582739305
 31
0.0
  0
LINE
  5
83
330
1F
100
AcDbEntity
  8
0
  6
Continuous
 62
     7
370
    25
100
AcDbLine
 10
578.4754706568
 20
138.0649174589
 30
0.0
 11
589.0477809202
 21
138.0649151501
 31
0.0
  0
LINE
  5
84
330
1F
100
AcDbEntity
  8
0
  6
Continuous
 62
     7
370
    25
100
AcDbLine
 10
578.4754728465
 20
136.8582697869
 30
0.0
 11
578.4754706568
 21
138.0649174589
 31
0.0
  0
LINE
  5
85
330
1F
100
AcDbEntity
  8
0
  6
Continuous
 62
     7
370
    25
100
AcDbLine
 10
590.2086076853
 20
144.0921097715
 30
0.0
 11
590.2086074351
 21
142.8194914344
 31
0.0
  0
LINE
  5
86
330
1F
100
AcDbEntity
  8
0
  6
Continuous
 62
     7
370
    25
100
AcDbLine
 10
590.1099062943
 20
144.0921120237
 30
0.0
 11
590.2086076853
 21
144.0921097715
 31
0.0
  0
SPLINE
  5
87
330
1F
100
AcDbEntity
  8
0
  6
Continuous
 62
     7
370
    25
100
AcDbSpline
210
0.0
220
0.0
230
1.0
 70
     8
 71
     3
 72
    10
 73
     6
 74
     0
 42
0.000000001
 43
0.00000001
 40
0.0
 40
0.0
 40
0.0
 40
0.0
 40
0.2967616228678266
 40
0.5687637844135798
 40
1.0
 40
1.0
 40
1.0
 40
1.0
 10
588.9165241952664
 20
143.4210071815403
 30
0.0
 10
589.0014544825681
 20
143.5339304719448
 30
0.0
 10
589.1642291403903
 20
143.7503556194359
 30
0.0
 10
589.5648033353768
 20
144.0306442510936
 30
0.0
 10
589.9027018856638
 20
144.0687469084015
 30
0.0
 10
590.1099062943197
 20
144.0921120236676
 30
0.0
  0
LINE
  5
88
330
1F
100
AcDbEntity
  8
0
  6
Continuous
 62
     7
370
    25
100
AcDbLine
 10
588.9165207959
 20
143.9141744496
 30
0.0
 11
588.9165241953
 21
143.4210071815
 31
0.0
  0
LINE
  5
89
330
1F
100
AcDbEntity
  8
0
  6
Continuous
 62
     7
370
    25
100
AcDbLine
 10
587.722625781
 20
143.9141749814
 30
0.0
 11
588.9165207959
 21
143.9141744496
 31
0.0
  0
LINE
  5
8A
330
1F
100
AcDbEntity
  8
0
  6
Continuous
 62
     7
370
    25
100
AcDbLine
 10
587.7226230307
 20
142.1373652844
 30
0.0
 11
587.722625781
 21
143.9141749814
 31
0.0
  0
SPLINE
  5
8B
330
1F
100
AcDbEntity
  8
0
  6
Continuous
 62
     7
370
    25
100
AcDbSpline
210
0.0
220
0.0
230
1.0
 70
     8
 71
     3
 72
     9
 73
     5
 74
     0
 42
0.000000001
 43
0.00000001
 40
0.0
 40
0.0
 40
0.0
 40
0.0
 40
0.57096015925561
 40
1.0
 40
1.0
 40
1.0
 40
1.0
 10
587.042735101612
 20
143.2339406570287
 30
0.0
 10
587.2059477332945
 20
143.0454679763932
 30
0.0
 10
587.4918041613422
 20
142.7153701970994
 30
0.0
 10
587.653324409238
 20
142.3108993795727
 30
0.0
 10
587.7226230306723
 20
142.1373652844353
 30
0.0
  0
SPLINE
  5
8C
330
1F
100
AcDbEntity
  8
0
  6
Continuous
 62
     7
370
    25
100
AcDbSpline
210
0.0
220
0.0
230
1.0
 70
     8
 71
     3
 72
     9
 73
     5
 74
     0
 42
0.000000001
 43
0.00000001
 40
0.0
 40
0.0
 40
0.0
 40
0.0
 40
0.5537737206286102
 40
1.0
 40
1.0
 40
1.0
 40
1.0
 10
585.0697264843387
 20
144.0921142484218
 30
0.0
 10
585.4853991964333
 20
144.0449853412556
 30
0.0
 10
586.2360175385652
 20
143.9598803508767
 30
0.0
 10
586.7938262124592
 20
143.4579259166345
 30
0.0
 10
587.042735101612
 20
143.2339406570287
 30
0.0
  0
SPLINE
  5
8D
330
1F
100
AcDbEntity
  8
0
  6
Continuous
 62
     7
370
    25
100
AcDbSpline
210
0.0
220
0.0
230
1.0
 70
     8
 71
     3
 72
     9
 73
     5
 74
     0
 42
0.000000001
 43
0.00000001
 40
0.0
 40
0.0
 40
0.0
 40
0.0
 40
0.5556337420412512
 40
1.0
 40
1.0
 40
1.0
 40
1.0
 10
583.0071511648291
 20
143.2241205157087
 30
0.0
 10
583.3428156322095
 20
143.5026972986626
 30
0.0
 10
583.9469266535222
 20
144.0040649476653
 30
0.0
 10
584.7242916913924
 20
144.0650254556191
 30
0.0
 10
585.0697264843387
 20
144.0921142484218
 30
0.0
  0
SPLINE
  5
8E
330
1F
100
AcDbEntity
  8
0
  6
Continuous
 62
     7
370
    25
100
AcDbSpline
210
0.0
220
0.0
230
1.0
 70
     8
 71
     3
 72
     9
 73
     5
 74
     0
 42
0.000000001
 43
0.00000001
 40
0.0
 40
0.0
 40
0.0
 40
0.0
 40
0.5510617805703567
 40
1.0
 40
1.0
 40
1.0
 40
1.0
 10
582.4213145367133
 20
142.365773160796
 30
0.0
 10
582.5086452857679
 20
142.5375549688365
 30
0.0
 10
582.6671225239536
 20
142.8492837333728
 30
0.0
 10
582.9017968781227
 20
143.1079812936342
 30
0.0
 10
583.0071511648291
 20
143.2241205157088
 30
0.0
  0
SPLINE
  5
8F
330
1F
100
AcDbEntity
  8
0
  6
Continuous
 62
     7
370
    25
100
AcDbSpline
210
0.0
220
0.0
230
1.0
 70
     8
 71
     3
 72
     9
 73
     5
 74
     0
 42
0.000000001
 43
0.00000001
 40
0.0
 40
0.0
 40
0.0
 40
0.0
 40
0.5640794437698022
 40
1.0
 40
1.0
 40
1.0
 40
1.0
 10
581.8845661268654
 20
143.2044845390266
 30
0.0
 10
582.0061217175769
 20
143.0596541694497
 30
0.0
 10
582.2216154606198
 20
142.8028988999987
 30
0.0
 10
582.3606893635784
 20
142.49847694761
 30
0.0
 10
582.4213145367133
 20
142.365773160796
 30
0.0
  0
SPLINE
  5
90
330
1F
100
AcDbEntity
  8
0
  6
Continuous
 62
     7
370
    25
100
AcDbSpline
210
0.0
220
0.0
230
1.0
 70
     8
 71
     3
 72
     9
 73
     5
 74
     0
 42
0.000000001
 43
0.00000001
 40
0.0
 40
0.0
 40
0.0
 40
0.0
 40
0.5520560625919505
 40
1.0
 40
1.0
 40
1.0
 40
1.0
 10
579.9017415448708
 20
144.0922811635732
 30
0.0
 10
580.320768736869
 20
144.0428466794654
 30
0.0
 10
581.0797988796243
 20
143.9533005491761
 30
0.0
 10
581.635598884341
 20
143.4361423976734
 30
0.0
 10
581.8845661268654
 20
143.2044845390266
 30
0.0
  0
SPLINE
  5
91
330
1F
100
AcDbEntity
  8
0
  6
Continuous
 62
     7
370
    25
100
AcDbSpline
210
0.0
220
0.0
230
1.0
 70
     8
 71
     3
 72
    10
 73
     6
 74
     0
 42
0.000000001
 43
0.00000001
 40
0.0
 40
0.0
 40
0.0
 40
0.0
 40
0.2804589779235159
 40
0.5493179403633834
 40
1.0
 40
1.0
 40
1.0
 40
1.0
 10
578.125449916495
 20
143.2044843796788
 30
0.0
 10
578.2472685318571
 20
143.3549804057425
 30
0.0
 10
578.4858672438121
 20
143.6497478176552
 30
0.0
 10
579.089000514071
 20
144.0177057425685
 30
0.0
 10
579.5887347281058
 20
144.0635603112316
 30
0.0
 10
579.9017415448708
 20
144.0922811635732
 30
0.0
  0
LINE
  5
92
330
1F
100
AcDbEntity
  8
0
  6
Continuous
 62
     7
370
    25
100
AcDbLine
 10
578.1254521487
 20
143.9139993036
 30
0.0
 11
578.1254499165
 21
143.2044843797
 31
0.0
  0
LINE
  5
93
330
1F
100
AcDbEntity
  8
0
  6
Continuous
 62
     7
370
    25
100
AcDbLine
 10
576.9215630106
 20
143.9140024658
 30
0.0
 11
578.1254521487
 21
143.9139993036
 31
0.0
  0
LINE
  5
94
330
1F
100
AcDbEntity
  8
0
  6
Continuous
 62
     7
370
    25
100
AcDbLine
 10
576.9215601021
 20
142.2221147604
 30
0.0
 11
576.9215630106
 21
143.9140024658
 31
0.0
  0
SPLINE
  5
95
330
1F
100
AcDbEntity
  8
0
  6
Continuous
 62
     7
370
    25
100
AcDbSpline
210
0.0
220
0.0
230
1.0
 70
     8
 71
     3
 72
     9
 73
     5
 74
     0
 42
0.000000001
 43
0.00000001
 40
0.0
 40
0.0
 40
0.0
 40
0.0
 40
0.5711024809500207
 40
1.0
 40
1.0
 40
1.0
 40
1.0
 10
576.2721612493334
 20
143.2339408647568
 30
0.0
 10
576.4246455451457
 20
143.0592482156756
 30
0.0
 10
576.6916454285268
 20
142.753361522992
 30
0.0
 10
576.852548971659
 20
142.3815736546978
 30
0.0
 10
576.9215601021145
 20
142.2221147603736
 30
0.0
  0
SPLINE
  5
96
330
1F
100
AcDbEntity
  8
0
  6
Continuous
 62
     7
370
    25
100
AcDbSpline
210
0.0
220
0.0
230
1.0
 70
     8
 71
     3
 72
     9
 73
     5
 74
     0
 42
0.000000001
 43
0.00000001
 40
0.0
 40
0.0
 40
0.0
 40
0.0
 40
0.5536377445413064
 40
1.0
 40
1.0
 40
1.0
 40
1.0
 10
574.2986388286657
 20
144.0921103200624
 30
0.0
 10
574.7142539210453
 20
144.044936177601
 30
0.0
 10
575.4649525438854
 20
143.9597285794441
 30
0.0
 10
576.0230483476175
 20
143.4579264120078
 30
0.0
 10
576.2721612493334
 20
143.2339408647568
 30
0.0
  0
SPLINE
  5
97
330
1F
100
AcDbEntity
  8
0
  6
Continuous
 62
     7
370
    25
100
AcDbSpline
210
0.0
220
0.0
230
1.0
 70
     8
 71
     3
 72
     9
 73
     5
 74
     0
 42
0.000000001
 43
0.00000001
 40
0.0
 40
0.0
 40
0.0
 40
0.0
 40
0.5554805551520855
 40
1.0
 40
1.0
 40
1.0
 40
1.0
 10
572.2365773125505
 20
143.2241207234369
 30
0.0
 10
572.5720057028886
 20
143.5026969110478
 30
0.0
 10
573.1758583260399
 20
144.0042017522653
 30
0.0
 10
573.9531275463542
 20
144.0650583700912
 30
0.0
 10
574.2986388286657
 20
144.0921103200624
 30
0.0
  0
SPLINE
  5
98
330
1F
100
AcDbEntity
  8
0
  6
Continuous
 62
     7
370
    25
100
AcDbSpline
210
0.0
220
0.0
230
1.0
 70
     8
 71
     3
 72
     9
 73
     5
 74
     0
 42
0.000000001
 43
0.00000001
 40
0.0
 40
0.0
 40
0.0
 40
0.0
 40
0.5511543313701859
 40
1.0
 40
1.0
 40
1.0
 40
1.0
 10
571.5597875958467
 20
142.1356401294447
 30
0.0
 10
571.6518108108959
 20
142.3562253414312
 30
0.0
 10
571.8187753248468
 20
142.7564493792938
 30
0.0
 10
572.107144194458
 20
143.0792383100054
 30
0.0
 10
572.2365773125505
 20
143.2241207234369
 30
0.0
  0
SPLINE
  5
99
330
1F
100
AcDbEntity
  8
0
  6
Continuous
 62
     7
370
    25
100
AcDbSpline
210
0.0
220
0.0
230
1.0
 70
     8
 71
     3
 72
     9
 73
     5
 74
     0
 42
0.000000001
 43
0.00000001
 40
0.0
 40
0.0
 40
0.0
 40
0.0
 40
0.5257932277605245
 40
0.9999999999999999
 40
0.9999999999999999
 40
0.9999999999999999
 40
0.9999999999999999
 10
571.5179296472027
 20
142.4446663548265
 30
0.0
 10
571.5272327142725
 20
142.3907689247932
 30
0.0
 10
571.5449261088971
 20
142.2882620319925
 30
0.0
 10
571.5550071146484
 20
142.1847338801607
 30
0.0
 10
571.5597875958467
 20
142.1356401294447
 30
0.0
  0
SPLINE
  5
9A
330
1F
100
AcDbEntity
  8
0
  6
Continuous
 62
     7
370
    25
100
AcDbSpline
210
0.0
220
0.0
230
1.0
 70
     8
 71
     3
 72
     9
 73
     5
 74
     0
 42
0.000000001
 43
0.00000001
 40
0.0
 40
0.0
 40
0.0
 40
0.0
 40
0.5505547516114232
 40
1.0
 40
1.0
 40
1.0
 40
1.0
 10
571.0636914169579
 20
143.3620983308597
 30
0.0
 10
571.1781205328188
 20
143.2086234571964
 30
0.0
 10
571.3859638318297
 20
142.9298594047309
 30
0.0
 10
571.477009571929
 20
142.5951154394492
 30
0.0
 10
571.5179296472027
 20
142.4446663548265
 30
0.0
  0
SPLINE
  5
9B
330
1F
100
AcDbEntity
  8
0
  6
Continuous
 62
     7
370
    25
100
AcDbSpline
210
0.0
220
0.0
230
1.0
 70
     8
 71
     3
 72
    10
 73
     6
 74
     0
 42
0.000000001
 43
0.00000001
 40
0.0
 40
0.0
 40
0.0
 40
0.0
 40
0.2855074220293222
 40
0.558211860371436
 40
0.9999999999999999
 40
0.9999999999999999
 40
0.9999999999999999
 40
0.9999999999999999
 10
569.4558682529944
 20
144.0921117658634
 30
0.0
 10
569.628954587069
 20
144.0815095106009
 30
0.0
 10
569.9673655602827
 20
144.0607804360568
 30
0.0
 10
570.5487558763072
 20
143.8488716323082
 30
0.0
 10
570.8669464474448
 20
143.5480831596255
 30
0.0
 10
571.0636914169579
 20
143.3620983308597
 30
0.0
  0
SPLINE
  5
9C
330
1F
100
AcDbEntity
  8
0
  6
Continuous
 62
     7
370
    25
100
AcDbSpline
210
0.0
220
0.0
230
1.0
 70
     8
 71
     3
 72
     9
 73
     5
 74
     0
 42
0.000000001
 43
0.00000001
 40
0.0
 40
0.0
 40
0.0
 40
0.0
 40
0.5619751105691057
 40
0.9999999999999999
 40
0.9999999999999999
 40
0.9999999999999999
 40
0.9999999999999999
 10
568.6862358133734
 20
143.9438000178372
 30
0.0
 10
568.82682282048
 20
143.9914472209314
 30
0.0
 10
569.0769887165534
 20
144.0762324760043
 30
0.0
 10
569.3404608853772
 20
144.0872749064767
 30
0.0
 10
569.4558682529944
 20
144.0921117658634
 30
0.0
  0
SPLINE
  5
9D
330
1F
100
AcDbEntity
  8
0
  6
Continuous
 62
     7
370
    25
100
AcDbSpline
210
0.0
220
0.0
230
1.0
 70
     8
 71
     3
 72
     9
 73
     5
 74
     0
 42
0.000000001
 43
0.00000001
 40
0.0
 40
0.0
 40
0.0
 40
0.0
 40
0.5259382633965141
 40
0.9999999999999999
 40
0.9999999999999999
 40
0.9999999999999999
 40
0.9999999999999999
 10
568.0547501712547
 20
143.5000708728363
 30
0.0
 10
568.1487570732126
 20
143.6020195977504
 30
0.0
 10
568.3274983980036
 20
143.7958612175933
 30
0.0
 10
568.5708650131606
 20
143.8962225502094
 30
0.0
 10
568.6862358133734
 20
143.9438000178372
 30
0.0
  0
LINE
  5
9E
330
1F
100
AcDbEntity
  8
0
  6
Continuous
 62
     7
370
    25
100
AcDbLine
 10
568.0547471307
 20
145.7395567538
 30
0.0
 11
568.0547501713
 21
143.5000708728
 31
0.0
  0
LINE
  5
9F
330
1F
100
AcDbEntity
  8
0
  6
Continuous
 62
     7
370
    25
100
AcDbLine
 10
566.7421662038
 20
145.7395583461
 30
0.0
 11
568.0547471307
 21
145.7395567538
 31
0.0
  0
LINE
  5
A0
330
1F
100
AcDbEntity
  8
0
  6
Continuous
 62
     7
370
    25
100
AcDbLine
 10
566.7421649928
 20
138.2733485287
 30
0.0
 11
566.7421662038
 21
145.7395583461
 31
0.0
  0
LINE
  5
A1
330
1F
100
AcDbEntity
  8
0
  6
Continuous
 62
     7
370
    25
100
AcDbLine
 10
568.0547459197
 20
138.2733469364
 30
0.0
 11
566.7421649928
 21
138.2733485287
 31
0.0
  0
LINE
  5
A2
330
1F
100
AcDbEntity
  8
0
  6
Continuous
 62
     7
370
    25
100
AcDbLine
 10
568.0547506562
 20
141.1028010223
 30
0.0
 11
568.0547459197
 21
138.2733469364
 31
0.0
  0
SPLINE
  5
A3
330
1F
100
AcDbEntity
  8
0
  6
Continuous
 62
     7
370
    25
100
AcDbSpline
210
0.0
220
0.0
230
1.0
 70
     8
 71
     3
 72
    10
 73
     6
 74
     0
 42
0.000000001
 43
0.00000001
 40
0.0
 40
0.0
 40
0.0
 40
0.0
 40
0.1971696930929547
 40
0.4557195996970784
 40
1.0
 40
1.0
 40
1.0
 40
1.0
 10
568.2614519632353
 20
142.3354530116876
 30
0.0
 10
568.2249988502581
 20
142.2605989899374
 30
0.0
 10
568.1407445320965
 20
142.0875884004671
 30
0.0
 10
568.069106260121
 20
141.6687661833277
 30
0.0
 10
568.0605508282401
 20
141.3314709770182
 30
0.0
 10
568.0547506562128
 20
141.1028010223205
 30
0.0
  0
SPLINE
  5
A4
330
1F
100
AcDbEntity
  8
0
  6
Continuous
 62
     7
370
    25
100
AcDbSpline
210
0.0
220
0.0
230
1.0
 70
     8
 71
     3
 72
    10
 73
     6
 74
     0
 42
0.000000001
 43
0.00000001
 40
0.0
 40
0.0
 40
0.0
 40
0.0
 40
0.294461187098508
 40
0.56564608568091
 40
1.0
 40
1.0
 40
1.0
 40
1.0
 10
569.1599336947688
 20
142.8091625877921
 30
0.0
 10
569.0559726892751
 20
142.8026727514556
 30
0.0
 10
568.8562684892057
 20
142.7902060812073
 30
0.0
 10
568.5198436266428
 20
142.6530010520842
 30
0.0
 10
568.3599116057511
 20
142.4564540769957
 30
0.0
 10
568.2614519632353
 20
142.3354530116876
 30
0.0
  0
SPLINE
  5
A5
330
1F
100
AcDbEntity
  8
0
  6
Continuous
 62
     7
370
    25
100
AcDbSpline
210
0.0
220
0.0
230
1.0
 70
     8
 71
     3
 72
    11
 73
     7
 74
     0
 42
0.000000001
 43
0.00000001
 40
0.0
 40
0.0
 40
0.0
 40
0.0
 40
0.2715849002362054
 40
0.5330239930830057
 40
0.753020131618001
 40
1.0
 40
1.0
 40
1.0
 40
1.0
 10
570.1068178648231
 20
142.2765504951409
 30
0.0
 10
570.0536505225116
 20
142.3673276481896
 30
0.0
 10
569.9493020514594
 20
142.5454907218976
 30
0.0
 10
569.7028178379843
 20
142.7117269038249
 30
0.0
 10
569.4343118412322
 20
142.7969052357074
 30
0.0
 10
569.2548497544932
 20
142.8049223828868
 30
0.0
 10
569.1599336947688
 20
142.8091625877921
 30
0.0
  0
SPLINE
  5
A6
330
1F
100
AcDbEntity
  8
0
  6
Continuous
 62
     7
370
    25
100
AcDbSpline
210
0.0
220
0.0
230
1.0
 70
     8
 71
     3
 72
     9
 73
     5
 74
     0
 42
0.000000001
 43
0.00000001
 40
0.0
 40
0.0
 40
0.0
 40
0.0
 40
0.6382465989406969
 40
1.0
 40
1.0
 40
1.0
 40
1.0
 10
570.2740796953799
 20
141.1215787794065
 30
0.0
 10
570.2727258331859
 20
141.3732525306945
 30
0.0
 10
570.2706046120211
 20
141.7675730828224
 30
0.0
 10
570.150328248422
 20
142.1413392962371
 30
0.0
 10
570.1068178648231
 20
142.2765504951409
 30
0.0
  0
LINE
  5
A7
330
1F
100
AcDbEntity
  8
0
  6
Continuous
 62
     7
370
    25
100
AcDbLine
 10
570.2740772536
 20
138.2733452558
 30
0.0
 11
570.2740796954
 21
141.1215787794
 31
0.0
  0
LINE
  5
A8
330
1F
100
AcDbEntity
  8
0
  6
Continuous
 62
     7
370
    25
100
AcDbLine
 10
571.5871752101
 20
138.2733496622
 30
0.0
 11
570.2740772536
 21
138.2733452558
 31
0.0
  0
LINE
  5
A9
330
1F
100
AcDbEntity
  8
0
  6
Continuous
 62
     7
370
    25
100
AcDbLine
 10
571.5871778693
 20
140.0945947799
 30
0.0
 11
571.5871752101
 21
138.2733496622
 31
0.0
  0
SPLINE
  5
AA
330
1F
100
AcDbEntity
  8
0
  6
Continuous
 62
     7
370
    25
100
AcDbSpline
210
0.0
220
0.0
230
1.0
 70
     8
 71
     3
 72
     9
 73
     5
 74
     0
 42
0.000000001
 43
0.00000001
 40
0.0
 40
0.0
 40
0.0
 40
0.0
 40
0.5688601220070443
 40
1.0
 40
1.0
 40
1.0
 40
1.0
 10
572.2365764108332
 20
139.1093007320267
 30
0.0
 10
572.0848159583421
 20
139.2778619409796
 30
0.0
 10
571.8180360477453
 20
139.5741759247375
 30
0.0
 10
571.6567253456657
 20
139.9378153307489
 30
0.0
 10
571.5871778692522
 20
140.0945947798901
 30
0.0
  0
SPLINE
  5
AB
330
1F
100
AcDbEntity
  8
0
  6
Continuous
 62
     7
370
    25
100
AcDbSpline
210
0.0
220
0.0
230
1.0
 70
     8
 71
     3
 72
     9
 73
     5
 74
     0
 42
0.000000001
 43
0.00000001
 40
0.0
 40
0.0
 40
0.0
 40
0.0
 40
0.5578442756400316
 40
1.0
 40
1.0
 40
1.0
 40
1.0
 10
574.2793431570749
 20
138.2702467723717
 30
0.0
 10
573.850633655842
 20
138.3149130373966
 30
0.0
 10
573.0821225857212
 20
138.3949824527789
 30
0.0
 10
572.495815461875
 20
138.8902953147549
 30
0.0
 10
572.2365764108332
 20
139.1093007320266
 30
0.0
  0
SPLINE
  5
AC
330
1F
100
AcDbEntity
  8
0
  6
Continuous
 62
     7
370
    25
100
AcDbSpline
210
0.0
220
0.0
230
1.0
 70
     8
 71
     3
 72
     9
 73
     5
 74
     0
 42
0.000000001
 43
0.00000001
 40
0.0
 40
0.0
 40
0.0
 40
0.0
 40
0.5652225849602676
 40
0.9999999999999999
 40
0.9999999999999999
 40
0.9999999999999999
 40
0.9999999999999999
 10
575.886483412748
 20
138.7735708366015
 30
0.0
 10
575.6030939528424
 20
138.6121591728706
 30
0.0
 10
575.1017172077402
 20
138.326587314941
 30
0.0
 10
574.5285453400728
 20
138.287319521917
 30
0.0
 10
574.2793431570749
 20
138.2702467723717
 30
0.0
  0
SPLINE
  5
AD
330
1F
100
AcDbEntity
  8
0
  6
Continuous
 62
     7
370
    25
100
AcDbSpline
210
0.0
220
0.0
230
1.0
 70
     8
 71
     3
 72
     9
 73
     5
 74
     0
 42
0.000000001
 43
0.00000001
 40
0.0
 40
0.0
 40
0.0
 40
0.0
 40
0.5374790053944832
 40
0.9999999999999999
 40
0.9999999999999999
 40
0.9999999999999999
 40
0.9999999999999999
 10
576.9031304214816
 20
140.0269009009841
 30
0.0
 10
576.7743460081888
 20
139.757973814072
 30
0.0
 10
576.5347377407024
 20
139.2576248065516
 30
0.0
 10
576.0914932810704
 20
138.9266524842837
 30
0.0
 10
575.886483412748
 20
138.7735708366015
 30
0.0
  0
LINE
  5
AE
330
1F
100
AcDbEntity
  8
0
  6
Continuous
 62
     7
370
    25
100
AcDbLine
 10
575.4527435937
 20
140.0269025152
 30
0.0
 11
576.9031304215
 21
140.026900901
 31
0.0
  0
SPLINE
  5
AF
330
1F
100
AcDbEntity
  8
0
  6
Continuous
 62
     7
370
    25
100
AcDbSpline
210
0.0
220
0.0
230
1.0
 70
     8
 71
     3
 72
     9
 73
     5
 74
     0
 42
0.000000001
 43
0.00000001
 40
0.0
 40
0.0
 40
0.0
 40
0.0
 40
0.5894078818940497
 40
1.0
 40
1.0
 40
1.0
 40
1.0
 10
574.229394306115
 20
139.5531973040097
 30
0.0
 10
574.5022335965687
 20
139.5714293369051
 30
0.0
 10
574.9651376377852
 20
139.6023621314189
 30
0.0
 10
575.3108123013839
 20
139.9033282138879
 30
0.0
 10
575.4527435936864
 20
140.0269025151669
 30
0.0
  0
SPLINE
  5
B0
330
1F
100
AcDbEntity
  8
0
  6
Continuous
 62
     7
370
    25
100
AcDbSpline
210
0.0
220
0.0
230
1.0
 70
     8
 71
     3
 72
     9
 73
     5
 74
     0
 42
0.000000001
 43
0.00000001
 40
0.0
 40
0.0
 40
0.0
 40
0.0
 40
0.5593126805153179
 40
1.0
 40
1.0
 40
1.0
 40
1.0
 10
573.3319439168258
 20
139.8393146405167
 30
0.0
 10
573.4877794234665
 20
139.7474607976454
 30
0.0
 10
573.7663990794649
 20
139.5832345140811
 30
0.0
 10
574.0877701503339
 20
139.5623852918625
 30
0.0
 10
574.229394306115
 20
139.5531973040097
 30
0.0
  0
SPLINE
  5
B1
330
1F
100
AcDbEntity
  8
0
  6
Continuous
 62
     7
370
    25
100
AcDbSpline
210
0.0
220
0.0
230
1.0
 70
     8
 71
     3
 72
     9
 73
     5
 74
     0
 42
0.000000001
 43
0.00000001
 40
0.0
 40
0.0
 40
0.0
 40
0.0
 40
0.5603535208278922
 40
1.0
 40
1.0
 40
1.0
 40
1.0
 10
572.7889998918349
 20
140.5987839276706
 30
0.0
 10
572.8570578158794
 20
140.4320577820526
 30
0.0
 10
572.978513149905
 20
140.1345203535884
 30
0.0
 10
573.2240114524633
 20
139.9294660452269
 30
0.0
 10
573.3319439168258
 20
139.8393146405167
 30
0.0
  0
LINE
  5
B2
330
1F
100
AcDbEntity
  8
0
  6
Continuous
 62
     7
370
    25
100
AcDbLine
 10
576.9215610373
 20
140.5987880906
 30
0.0
 11
572.7889998918
 21
140.5987839277
 31
0.0
  0
LINE
  5
B3
330
1F
100
AcDbEntity
  8
0
  6
Continuous
 62
     7
370
    25
100
AcDbLine
 10
576.9215638297
 20
136.8481088276
 30
0.0
 11
576.9215610373
 21
140.5987880906
 31
0.0
  0
LINE
  5
B4
330
1F
100
AcDbEntity
  8
0
  6
Continuous
 62
     7
370
    25
100
AcDbLine
 10
578.2339710053
 20
136.8481101582
 30
0.0
 11
576.9215638297
 21
136.8481088276
 31
0.0
  0
LINE
  5
B5
330
1F
100
AcDbEntity
  8
0
  6
Continuous
 62
     7
370
    25
100
AcDbLine
 10
578.2339692718
 20
139.040915888
 30
0.0
 11
578.2339710053
 21
136.8481101582
 31
0.0
  0
SPLINE
  5
B6
330
1F
100
AcDbEntity
  8
0
  6
Continuous
 62
     7
370
    25
100
AcDbSpline
210
0.0
220
0.0
230
1.0
 70
     8
 71
     3
 72
    10
 73
     6
 74
     0
 42
0.000000001
 43
0.00000001
 40
0.0
 40
0.0
 40
0.0
 40
0.0
 40
0.2910946647068989
 40
0.564353404759036
 40
1.0
 40
1.0
 40
1.0
 40
1.0
 10
579.9017425363321
 20
138.2705894829713
 30
0.0
 10
579.7177136141155
 20
138.2815441443326
 30
0.0
 10
579.3609315723298
 20
138.3027822540845
 30
0.0
 10
578.7532111081281
 20
138.5236395304563
 30
0.0
 10
578.4316063837945
 20
138.8440268889318
 30
0.0
 10
578.2339692717653
 20
139.0409158879691
 30
0.0
  0
SPLINE
  5
B7
330
1F
100
AcDbEntity
  8
0
  6
Continuous
 62
     7
370
    25
100
AcDbSpline
210
0.0
220
0.0
230
1.0
 70
     8
 71
     3
 72
     9
 73
     5
 74
     0
 42
0.000000001
 43
0.00000001
 40
0.0
 40
0.0
 40
0.0
 40
0.0
 40
0.5590009280293423
 40
1.0
 40
1.0
 40
1.0
 40
1.0
 10
581.8747496389728
 20
139.1490892474968
 30
0.0
 10
581.556134651924
 20
138.8670926104291
 30
0.0
 10
580.9861624549687
 20
138.3626271919873
 30
0.0
 10
580.2336151843076
 20
138.2987564298152
 30
0.0
 10
579.9017425363321
 20
138.2705894829713
 30
0.0
  0
SPLINE
  5
B8
330
1F
100
AcDbEntity
  8
0
  6
Continuous
 62
     7
370
    25
100
AcDbSpline
210
0.0
220
0.0
230
1.0
 70
     8
 71
     3
 72
     9
 73
     5
 74
     0
 42
0.000000001
 43
0.00000001
 40
0.0
 40
0.0
 40
0.0
 40
0.0
 40
0.5529150545337392
 40
1.0
 40
1.0
 40
1.0
 40
1.0
 10
582.4068429894803
 20
139.9781543540687
 30
0.0
 10
582.3272924233698
 20
139.8132349607337
 30
0.0
 10
582.1834175813698
 20
139.5149623924923
 30
0.0
 10
581.9701143172014
 20
139.2621277913573
 30
0.0
 10
581.8747496389728
 20
139.1490892474968
 30
0.0
  0
SPLINE
  5
B9
330
1F
100
AcDbEntity
  8
0
  6
Continuous
 62
     7
370
    25
100
AcDbSpline
210
0.0
220
0.0
230
1.0
 70
     8
 71
     3
 72
     9
 73
     5
 74
     0
 42
0.000000001
 43
0.00000001
 40
0.0
 40
0.0
 40
0.0
 40
0.0
 40
0.568922596473454
 40
1.0
 40
1.0
 40
1.0
 40
1.0
 10
583.0071502631118
 20
139.1093005242985
 30
0.0
 10
582.8710165161642
 20
139.259091128919
 30
0.0
 10
582.6317330920367
 20
139.5223793258529
 30
0.0
 10
582.4745856854728
 20
139.8408631668336
 30
0.0
 10
582.4068429894803
 20
139.9781543540687
 30
0.0
  0
SPLINE
  5
BA
330
1F
100
AcDbEntity
  8
0
  6
Continuous
 62
     7
370
    25
100
AcDbSpline
210
0.0
220
0.0
230
1.0
 70
     8
 71
     3
 72
     9
 73
     5
 74
     0
 42
0.000000001
 43
0.00000001
 40
0.0
 40
0.0
 40
0.0
 40
0.0
 40
0.55754286261966
 40
1.0
 40
1.0
 40
1.0
 40
1.0
 10
585.0504377642342
 20
138.2702461109842
 30
0.0
 10
584.6219549016689
 20
138.3150207537277
 30
0.0
 10
583.853434862596
 20
138.3953278399546
 30
0.0
 10
583.266738330995
 20
138.8902976146825
 30
0.0
 10
583.0071502631118
 20
139.1093005242985
 30
0.0
  0
SPLINE
  5
BB
330
1F
100
AcDbEntity
  8
0
  6
Continuous
 62
     7
370
    25
100
AcDbSpline
210
0.0
220
0.0
230
1.0
 70
     8
 71
     3
 72
     9
 73
     5
 74
     0
 42
0.000000001
 43
0.00000001
 40
0.0
 40
0.0
 40
0.0
 40
0.0
 40
0.5654976965028506
 40
1.0
 40
1.0
 40
1.0
 40
1.0
 10
586.6582655746266
 20
138.7735713884026
 30
0.0
 10
586.3745726921527
 20
138.6121603695295
 30
0.0
 10
585.8729033056487
 20
138.3267285810867
 30
0.0
 10
585.2995577352656
 20
138.2873543186928
 30
0.0
 10
585.0504377642342
 20
138.2702461109842
 30
0.0
  0
SPLINE
  5
BC
330
1F
100
AcDbEntity
  8
0
  6
Continuous
 62
     7
370
    25
100
AcDbSpline
210
0.0
220
0.0
230
1.0
 70
     8
 71
     3
 72
     9
 73
     5
 74
     0
 42
0.000000001
 43
0.00000001
 40
0.0
 40
0.0
 40
0.0
 40
0.0
 40
0.5374183645646096
 40
1.0
 40
1.0
 40
1.0
 40
1.0
 10
587.6749093571642
 20
140.0268995901401
 30
0.0
 10
587.5461923853486
 20
139.7579604862666
 30
0.0
 10
587.306682572691
 20
139.2575326601886
 30
0.0
 10
586.8633452694222
 20
138.9266374403523
 30
0.0
 10
586.6582655746266
 20
138.7735713884026
 30
0.0
  0
LINE
  5
BD
330
1F
100
AcDbEntity
  8
0
  6
Continuous
 62
     7
370
    25
100
AcDbLine
 10
586.2245225294
 20
140.0269012043
 30
0.0
 11
587.6749093572
 21
140.0268995901
 31
0.0
  0
SPLINE
  5
BE
330
1F
100
AcDbEntity
  8
0
  6
Continuous
 62
     7
370
    25
100
AcDbSpline
210
0.0
220
0.0
230
1.0
 70
     8
 71
     3
 72
     9
 73
     5
 74
     0
 42
0.000000001
 43
0.00000001
 40
0.0
 40
0.0
 40
0.0
 40
0.0
 40
0.5889645763685627
 40
1.0
 40
1.0
 40
1.0
 40
1.0
 10
585.000481961788
 20
139.5532012323691
 30
0.0
 10
585.273155010241
 20
139.5715395396353
 30
0.0
 10
585.7361252114955
 20
139.6026760595587
 30
0.0
 10
586.0822521121345
 20
139.9033241777132
 30
0.0
 10
586.224522529369
 20
140.0269012043229
 30
0.0
  0
SPLINE
  5
BF
330
1F
100
AcDbEntity
  8
0
  6
Continuous
 62
     7
370
    25
100
AcDbSpline
210
0.0
220
0.0
230
1.0
 70
     8
 71
     3
 72
     9
 73
     5
 74
     0
 42
0.000000001
 43
0.00000001
 40
0.0
 40
0.0
 40
0.0
 40
0.0
 40
0.5591002721781708
 40
1.0
 40
1.0
 40
1.0
 40
1.0
 10
584.1030352977891
 20
139.8393121164841
 30
0.0
 10
584.2587988312666
 20
139.7474605492539
 30
0.0
 10
584.5373956076028
 20
139.5831759445043
 30
0.0
 10
584.8587825474734
 20
139.5623731699903
 30
0.0
 10
585.000481961788
 20
139.5532012323691
 30
0.0
  0
SPLINE
  5
C0
330
1F
100
AcDbEntity
  8
0
  6
Continuous
 62
     7
370
    25
100
AcDbSpline
210
0.0
220
0.0
230
1.0
 70
     8
 71
     3
 72
     9
 73
     5
 74
     0
 42
0.000000001
 43
0.00000001
 40
0.0
 40
0.0
 40
0.0
 40
0.0
 40
0.5602821309398238
 40
1.0
 40
1.0
 40
1.0
 40
1.0
 10
583.5600875475079
 20
140.59878785603
 30
0.0
 10
583.6280987779606
 20
140.4320530050141
 30
0.0
 10
583.7494862481244
 20
140.1344621274749
 30
0.0
 10
583.9950545342883
 20
139.9294566765225
 30
0.0
 10
584.1030352977891
 20
139.8393121164841
 30
0.0
  0
LINE
  5
C1
330
1F
100
AcDbEntity
  8
0
  6
Continuous
 62
     7
370
    25
100
AcDbLine
 10
587.7226241111
 20
140.5987887175
 30
0.0
 11
583.5600875475
 21
140.598787856
 31
0.0
  0
LINE
  5
C2
330
1F
100
AcDbEntity
  8
0
  6
Continuous
 62
     7
370
    25
100
AcDbLine
 10
587.7226259033
 20
138.2733476503
 30
0.0
 11
587.7226241111
 21
140.5987887175
 31
0.0
  0
LINE
  5
C3
330
1F
100
AcDbEntity
  8
0
  6
Continuous
 62
     7
370
    25
100
AcDbLine
 10
589.0350330789
 20
138.2733489809
 30
0.0
 11
587.7226259033
 21
138.2733476503
 31
0.0
  0
LINE
  5
C4
330
1F
100
AcDbEntity
  8
0
  6
Continuous
 62
     7
370
    25
100
AcDbLine
 10
589.0350368633
 20
141.3985629633
 30
0.0
 11
589.0350330789
 21
138.2733489809
 31
0.0
  0
SPLINE
  5
C5
330
1F
100
AcDbEntity
  8
0
  6
Continuous
 62
     7
370
    25
100
AcDbSpline
210
0.0
220
0.0
230
1.0
 70
     8
 71
     3
 72
     9
 73
     5
 74
     0
 42
0.000000001
 43
0.00000001
 40
0.0
 40
0.0
 40
0.0
 40
0.0
 40
0.4673238939396918
 40
1.0
 40
1.0
 40
1.0
 40
1.0
 10
589.0832676403639
 20
142.040212168195
 30
0.0
 10
589.0679563034296
 20
141.9408717687391
 30
0.0
 10
589.0351924385111
 20
141.7282988600045
 30
0.0
 10
589.0350909329279
 20
141.513161496387
 30
0.0
 10
589.0350368633292
 20
141.3985629632672
 30
0.0
  0
SPLINE
  5
C6
330
1F
100
AcDbEntity
  8
0
  6
Continuous
 62
     7
370
    25
100
AcDbSpline
210
0.0
220
0.0
230
1.0
 70
     8
 71
     3
 72
     9
 73
     5
 74
     0
 42
0.000000001
 43
0.00000001
 40
0.0
 40
0.0
 40
0.0
 40
0.0
 40
0.5548581309581069
 40
0.9999999999999999
 40
0.9999999999999999
 40
0.9999999999999999
 40
0.9999999999999999
 10
589.4096883986743
 20
142.5626643007904
 30
0.0
 10
589.323331883155
 20
142.4815502648811
 30
0.0
 10
589.1676947739535
 20
142.3353614800664
 30
0.0
 10
589.1092734276496
 20
142.1311259526111
 30
0.0
 10
589.0832676403639
 20
142.040212168195
 30
0.0
  0
SPLINE
  5
C7
330
1F
100
AcDbEntity
  8
0
  6
Continuous
 62
     7
370
    25
100
AcDbSpline
210
0.0
220
0.0
230
1.0
 70
     8
 71
     3
 72
     9
 73
     5
 74
     0
 42
0.000000001
 43
0.00000001
 40
0.0
 40
0.0
 40
0.0
 40
0.0
 40
0.5759342498872235
 40
1.0
 40
1.0
 40
1.0
 40
1.0
 10
590.208607435052
 20
142.8194914343512
 30
0.0
 10
590.0419838570058
 20
142.8079370218619
 30
0.0
 10
589.7526737871863
 20
142.7878749878857
 30
0.0
 10
589.511824382245
 20
142.6297287175485
 30
0.0
 10
589.4096883986743
 20
142.5626643007904
 30
0.0
  0
LINE
  5
C8
330
1F
100
AcDbEntity
  8
0
  6
Continuous
 62
     7
370
    25
100
AcDbLine
 10
576.6854009755
 20
136.8584445199
 30
0.0
 11
566.7421698793
 21
136.8584450073
 31
0.0
  0
LINE
  5
C9
330
1F
100
AcDbEntity
  8
0
  6
Continuous
 62
     7
370
    25
100
AcDbLine
 10
576.6853996957
 20
138.0645765259
 30
0.0
 11
576.6854009755
 21
136.8584445199
 31
0.0
  0
LINE
  5
CA
330
1F
100
AcDbEntity
  8
0
  6
Continuous
 62
     7
370
    25
100
AcDbLine
 10
566.7421621472
 20
138.0645732879
 30
0.0
 11
576.6853996957
 21
138.0645765259
 31
0.0
  0
LINE
  5
CB
330
1F
100
AcDbEntity
  8
0
  6
Continuous
 62
     7
370
    25
100
AcDbLine
 10
566.7421698793
 20
136.8584450073
 30
0.0
 11
566.7421621472
 21
138.0645732879
 31
0.0
  0
LINE
  5
CC
330
1F
100
AcDbEntity
  8
0
  6
Continuous
 62
     7
370
    25
100
AcDbLine
 10
591.8343459943
 20
145.7307717455
 30
0.0
 11
591.8343481453
 21
144.1052003453
 31
0.0
  0
LINE
  5
CD
330
1F
100
AcDbEntity
  8
0
  6
Continuous
 62
     7
370
    25
100
AcDbLine
 10
590.2086040689
 20
145.7307743801
 30
0.0
 11
591.8343459943
 21
145.7307717455
 31
0.0
  0
LINE
  5
CE
330
1F
100
AcDbEntity
  8
0
  6
Continuous
 62
     7
370
    25
100
AcDbLine
 10
590.2086062388
 20
145.1941947083
 30
0.0
 11
590.2086040689
 21
145.7307743801
 31
0.0
  0
LINE
  5
CF
330
1F
100
AcDbEntity
  8
0
  6
Continuous
 62
     7
370
    25
100
AcDbLine
 10
591.2977712195
 20
145.1942000816
 30
0.0
 11
590.2086062388
 21
145.1941947083
 31
0.0
  0
LINE
  5
D0
330
1F
100
AcDbEntity
  8
0
  6
Continuous
 62
     7
370
    25
100
AcDbLine
 10
591.2977749259
 20
144.1052019007
 30
0.0
 11
591.2977712195
 21
145.1942000816
 31
0.0
  0
LINE
  5
D1
330
1F
100
AcDbEntity
  8
0
  6
Continuous
 62
     7
370
    25
100
AcDbLine
 10
591.8343481453
 20
144.1052003453
 30
0.0
 11
591.2977749259
 21
144.1052019007
 31
0.0
  0
CIRCLE
  5
D2
330
1F
100
AcDbEntity
  8
0
  6
Continuous
 62
     7
370
    25
100
AcDbCircle
 10
580.1012127727
 20
247.1823926267
 30
0.0
 40
90.50000000000023
  0
CIRCLE
  5
D3
330
1F
100
AcDbEntity
  8
0
  6
Continuous
 62
     7
370
    25
100
AcDbCircle
 10
525.9262127727
 20
341.0162451268
 30
0.0
 40
6.299999999999955
  0
CIRCLE
  5
D4
330
1F
100
AcDbEntity
  8
0
  6
Continuous
 62
     7
370
    25
100
AcDbCircle
 10
634.2762127727
 20
341.0162451268
 30
0.0
 40
6.300000000000068
  0
CIRCLE
  5
D5
330
1F
100
AcDbEntity
  8
0
  6
Continuous
 62
     7
370
    25
100
AcDbCircle
 10
471.7512127727
 20
247.1823926267
 30
0.0
 40
6.300000000000125
  0
CIRCLE
  5
D6
330
1F
100
AcDbEntity
  8
0
  6
Continuous
 62
     7
370
    25
100
AcDbCircle
 10
525.9262127727
 20
153.3485401267
 30
0.0
 40
6.300000000000182
  0
CIRCLE
  5
D7
330
1F
100
AcDbEntity
  8
0
  6
Continuous
 62
     7
370
    25
100
AcDbCircle
 10
634.2762127727
 20
153.3485401267
 30
0.0
 40
6.299999999999955
  0
CIRCLE
  5
D8
330
1F
100
AcDbEntity
  8
0
  6
Continuous
 62
     7
370
    25
100
AcDbCircle
 10
688.4512127727
 20
247.1823926267
 30
0.0
 40
6.300000000000068
  0
CIRCLE
  5
D9
330
1F
100
AcDbEntity
  8
0
  6
Continuous
 62
     7
370
    25
100
AcDbCircle
 10
580.1012127727
 20
247.1823926267
 30
0.0
 40
119.6500000000002
  0
SPLINE
  5
DA
330
1F
100
AcDbEntity
  8
0
  6
Continuous
 62
     7
370
    25
100
AcDbSpline
210
0.0
220
0.0
230
1.0
 70
     8
 71
     3
 72
    15
 73
    11
 74
     0
 42
0.000000001
 43
0.00000001
 40
0.0
 40
0.0
 40
0.0
 40
0.0
 40
0.1269465238363708
 40
0.2477078294010272
 40
0.3702622402880032
 40
0.5017670102173835
 40
0.6309634481258666
 40
0.7525308186705065
 40
0.873062980695934
 40
1.0
 40
1.0
 40
1.0
 40
1.0
 10
592.6489401832007
 20
144.4690063957192
 30
0.0
 10
592.5897831107134
 20
144.4755149457275
 30
0.0
 10
592.4743512770822
 20
144.4882149295188
 30
0.0
 10
592.3293388615235
 20
144.5916174058674
 30
0.0
 10
592.234590812845
 20
144.7411092985862
 30
0.0
 10
592.203042459514
 20
144.9197552828525
 30
0.0
 10
592.2347998412698
 20
145.0979178759617
 30
0.0
 10
592.3297775555808
 20
145.2453489072332
 30
0.0
 10
592.4744853579431
 20
145.3479282479358
 30
0.0
 10
592.5897935418845
 20
145.3606296659451
 30
0.0
 10
592.6489398044303
 20
145.3671447404056
 30
0.0
  0
SPLINE
  5
DB
330
1F
100
AcDbEntity
  8
0
  6
Continuous
 62
     7
370
    25
100
AcDbSpline
210
0.0
220
0.0
230
1.0
 70
     8
 71
     3
 72
    15
 73
    11
 74
     0
 42
0.000000001
 43
0.00000001
 40
0.0
 40
0.0
 40
0.0
 40
0.0
 40
0.1258051717355544
 40
0.2463520753151721
 40
0.3684449934149146
 40
0.4982235843382091
 40
0.6303237951252106
 40
0.7534081817922281
 40
0.874185900405567
 40
1.0
 40
1.0
 40
1.0
 40
1.0
 10
592.6489398044303
 20
145.3671447404056
 30
0.0
 10
592.7072913446503
 20
145.3605519074711
 30
0.0
 10
592.8215555106838
 20
145.3476418016845
 30
0.0
 10
592.9649370278303
 20
145.2450365873695
 30
0.0
 10
593.0597987571924
 20
145.0979293943762
 30
0.0
 10
593.0918303778687
 20
144.9197561555059
 30
0.0
 10
593.0600092726246
 20
144.7410966704252
 30
0.0
 10
592.9653733670071
 20
144.5919298232158
 30
0.0
 10
592.8216895032045
 20
144.4885042165754
 30
0.0
 10
592.707302038136
 20
144.4755935648748
 30
0.0
 10
592.6489401832007
 20
144.4690063957192
 30
0.0
  0
LINE
  5
DC
330
1F
100
AcDbEntity
  8
0
  6
Continuous
 62
     7
370
    25
100
AcDbLine
 10
592.5390392699
 20
144.8758742334
 30
0.0
 11
592.5390425061
 21
144.6109408834
 31
0.0
  0
LINE
  5
DD
330
1F
100
AcDbEntity
  8
0
  6
Continuous
 62
     7
370
    25
100
AcDbLine
 10
592.6403278052
 20
144.8758687148
 30
0.0
 11
592.5390392699
 21
144.8758742334
 31
0.0
  0
LINE
  5
DE
330
1F
100
AcDbEntity
  8
0
  6
Continuous
 62
     7
370
    25
100
AcDbLine
 10
592.8077579061
 20
144.6109424771
 30
0.0
 11
592.6403278052
 21
144.8758687148
 31
0.0
  0
LINE
  5
DF
330
1F
100
AcDbEntity
  8
0
  6
Continuous
 62
     7
370
    25
100
AcDbLine
 10
592.9107685544
 20
144.6109418541
 30
0.0
 11
592.8077579061
 21
144.6109424771
 31
0.0
  0
LINE
  5
E0
330
1F
100
AcDbEntity
  8
0
  6
Continuous
 62
     7
370
    25
100
AcDbLine
 10
592.7347234389
 20
144.882758009
 30
0.0
 11
592.9107685544
 21
144.6109418541
 31
0.0
  0
SPLINE
  5
E1
330
1F
100
AcDbEntity
  8
0
  6
Continuous
 62
     7
370
    25
100
AcDbSpline
210
0.0
220
0.0
230
1.0
 70
     8
 71
     3
 72
    12
 73
     8
 74
     0
 42
0.000000001
 43
0.00000001
 40
0.0
 40
0.0
 40
0.0
 40
0.0
 40
0.2163972037222214
 40
0.3997941565848876
 40
0.5704671893203401
 40
0.7765275071220377
 40
1.0
 40
1.0
 40
1.0
 40
1.0
 10
592.8966403919009
 20
145.0501938217614
 30
0.0
 10
592.8955173904295
 20
145.0313805187072
 30
0.0
 10
592.8934426435364
 20
144.9966229132588
 30
0.0
 10
592.872518920875
 20
144.950577982679
 30
0.0
 10
592.8381678603118
 20
144.915315308036
 30
0.0
 10
592.7907309266071
 20
144.89158854841
 30
0.0
 10
592.7538904086218
 20
144.8857800099802
 30
0.0
 10
592.734723438862
 20
144.8827580090279
 30
0.0
  0
SPLINE
  5
E2
330
1F
100
AcDbEntity
  8
0
  6
Continuous
 62
     7
370
    25
100
AcDbSpline
210
0.0
220
0.0
230
1.0
 70
     8
 71
     3
 72
    12
 73
     8
 74
     0
 42
0.000000001
 43
0.00000001
 40
0.0
 40
0.0
 40
0.0
 40
0.0
 40
0.2334106817623145
 40
0.4250411019670467
 40
0.5899261643671979
 40
0.7796656593885664
 40
1.0
 40
1.0
 40
1.0
 40
1.0
 10
592.680980597026
 20
145.226235003752
 30
0.0
 10
592.7057687922371
 20
145.2253392788872
 30
0.0
 10
592.7509081223176
 20
145.2237081629473
 30
0.0
 10
592.811785413521
 20
145.205963191787
 30
0.0
 10
592.8605459159235
 20
145.1725550374504
 30
0.0
 10
592.892510389277
 20
145.1175945216359
 30
0.0
 10
592.8951969122013
 20
145.0737510808885
 30
0.0
 10
592.8966403919009
 20
145.0501938217614
 30
0.0
  0
LINE
  5
E3
330
1F
100
AcDbEntity
  8
0
  6
Continuous
 62
     7
370
    25
100
AcDbLine
 10
592.4432682218
 20
145.2262383809
 30
0.0
 11
592.680980597
 21
145.2262350038
 31
0.0
  0
LINE
  5
E4
330
1F
100
AcDbEntity
  8
0
  6
Continuous
 62
     7
370
    25
100
AcDbLine
 10
592.4432650853
 20
144.6109450654
 30
0.0
 11
592.4432682218
 21
145.2262383809
 31
0.0
  0
LINE
  5
E5
330
1F
100
AcDbEntity
  8
0
  6
Continuous
 62
     7
370
    25
100
AcDbLine
 10
592.5390425061
 20
144.6109408834
 30
0.0
 11
592.4432650853
 21
144.6109450654
 31
0.0
  0
SPLINE
  5
E6
330
1F
100
AcDbEntity
  8
0
  6
Continuous
 62
     7
370
    25
100
AcDbSpline
210
0.0
220
0.0
230
1.0
 70
     8
 71
     3
 72
    13
 73
     9
 74
     0
 42
0.000000001
 43
0.00000001
 40
0.0
 40
0.0
 40
0.0
 40
0.0
 40
0.2587150330181288
 40
0.5005197586995513
 40
0.6140592476095165
 40
0.7282229142325268
 40
0.8528033044254086
 40
1.0
 40
1.0
 40
1.0
 40
1.0
 10
592.6658186587166
 20
145.148724564691
 30
0.0
 10
592.6819958860407
 20
145.1483058842582
 30
0.0
 10
592.713292953792
 20
145.1474958894667
 30
0.0
 10
592.7511997818972
 20
145.1374060374315
 30
0.0
 10
592.7759405631103
 20
145.1210015546353
 30
0.0
 10
592.7901991182559
 20
145.1037889093575
 30
0.0
 10
592.7994301289231
 20
145.0809820892322
 30
0.0
 10
592.8003628310768
 20
145.0639170986571
 30
0.0
 10
592.8008679902023
 20
145.0546745599952
 30
0.0
  0
SPLINE
  5
E7
330
1F
100
AcDbEntity
  8
0
  6
Continuous
 62
     7
370
    25
100
AcDbSpline
210
0.0
220
0.0
230
1.0
 70
     8
 71
     3
 72
    13
 73
     9
 74
     0
 42
0.000000001
 43
0.00000001
 40
0.0
 40
0.0
 40
0.0
 40
0.0
 40
0.1471076920897802
 40
0.267325978399853
 40
0.3750249546468231
 40
0.4829117525711192
 40
0.7236633551816803
 40
1.0
 40
1.0
 40
1.0
 40
1.0
 10
592.8008679902023
 20
145.0546745599952
 30
0.0
 10
592.8003431684913
 20
145.0438165360641
 30
0.0
 10
592.79938945577
 20
145.024085196189
 30
0.0
 10
592.7891556964504
 20
144.9978694030277
 30
0.0
 10
592.7727137961333
 20
144.9788313022246
 30
0.0
 10
592.7433138353856
 20
144.9617062438318
 30
0.0
 10
592.6971846788659
 20
144.9535096211646
 30
0.0
 10
592.6592299021481
 20
144.9533169613483
 30
0.0
 10
592.6389465255578
 20
144.9532140021968
 30
0.0
  0
LINE
  5
E8
330
1F
100
AcDbEntity
  8
0
  6
Continuous
 62
     7
370
    25
100
AcDbLine
 10
592.6389465256
 20
144.9532140022
 30
0.0
 11
592.5390400512
 21
144.9532173574
 31
0.0
  0
LINE
  5
E9
330
1F
100
AcDbEntity
  8
0
  6
Continuous
 62
     7
370
    25
100
AcDbLine
 10
592.5390400512
 20
144.9532173574
 30
0.0
 11
592.5390414393
 21
145.1487256386
 31
0.0
  0
LINE
  5
EA
330
1F
100
AcDbEntity
  8
0
  6
Continuous
 62
     7
370
    25
100
AcDbLine
 10
592.5390414393
 20
145.1487256386
 30
0.0
 11
592.6658186587
 21
145.1487245647
 31
0.0
  0
SPLINE
  5
EB
330
1F
100
AcDbEntity
  8
0
  6
Continuous
 62
     7
370
    25
100
AcDbSpline
210
0.0
220
0.0
230
1.0
 70
     8
 71
     3
 72
    15
 73
    11
 74
     0
 42
0.000000001
 43
0.00000001
 40
0.0
 40
0.0
 40
0.0
 40
0.0
 40
0.1271512327962625
 40
0.2499564590172124
 40
0.372780387193905
 40
0.4999885661308627
 40
0.6272027483195155
 40
0.7500362930349197
 40
0.8728472642451472
 40
1.0
 40
1.0
 40
1.0
 40
1.0
 10
579.7396488941209
 20
139.5576789269301
 30
0.0
 10
579.5236302235121
 20
139.5827036117332
 30
0.0
 10
579.0989763621255
 20
139.6318976420531
 30
0.0
 10
578.5650228315476
 20
140.0071989033478
 30
0.0
 10
578.2039383143798
 20
140.5376194622187
 30
0.0
 10
578.075124576198
 20
141.1792941097277
 30
0.0
 10
578.2039460896464
 20
141.8209813573268
 30
0.0
 10
578.5650194296597
 20
142.3514467620394
 30
0.0
 10
579.0989625173977
 20
142.72681872508
 30
0.0
 10
579.5236284562418
 20
142.7760309888158
 30
0.0
 10
579.7396495601114
 20
142.8010645188538
 30
0.0
  0
SPLINE
  5
EC
330
1F
100
AcDbEntity
  8
0
  6
Continuous
 62
     7
370
    25
100
AcDbSpline
210
0.0
220
0.0
230
1.0
 70
     8
 71
     3
 72
    15
 73
    11
 74
     0
 42
0.000000001
 43
0.00000001
 40
0.0
 40
0.0
 40
0.0
 40
0.0
 40
0.1272594124571026
 40
0.2500638390616301
 40
0.3728453809000267
 40
0.5000118891551245
 40
0.6271714126794841
 40
0.749943698638449
 40
0.8727413512143791
 40
1.0
 40
1.0
 40
1.0
 40
1.0
 10
579.7396495601114
 20
142.8010645188538
 30
0.0
 10
579.9559358377276
 20
142.7760614258344
 30
0.0
 10
580.380936832725
 20
142.7269305261381
 30
0.0
 10
580.9152776459404
 20
142.3515502298793
 30
0.0
 10
581.2763086494621
 20
141.8209593000818
 30
0.0
 10
581.4049939225602
 20
141.1792925988089
 30
0.0
 10
581.276316193007
 20
140.5376381829818
 30
0.0
 10
580.9152743552554
 20
140.007094653993
 30
0.0
 10
580.3809220286631
 20
139.6317875746668
 30
0.0
 10
579.9559338639386
 20
139.5826738717915
 30
0.0
 10
579.7396488941209
 20
139.5576789269301
 30
0.0
  0
SPLINE
  5
ED
330
1F
100
AcDbEntity
  8
0
  6
Continuous
 62
     7
370
    25
100
AcDbSpline
210
0.0
220
0.0
230
1.0
 70
     8
 71
     3
 72
     9
 73
     5
 74
     0
 42
0.000000001
 43
0.00000001
 40
0.0
 40
0.0
 40
0.0
 40
0.0
 40
0.5553962608400527
 40
1.0
 40
1.0
 40
1.0
 40
1.0
 10
575.2062492304947
 20
142.5230408711136
 30
0.0
 10
575.3478502954966
 20
142.4082568356442
 30
0.0
 10
575.6028053158775
 20
142.2015863130594
 30
0.0
 10
575.7240555748967
 20
141.8982582762905
 30
0.0
 10
575.7779638934308
 20
141.7633974969511
 30
0.0
  0
LINE
  5
EE
330
1F
100
AcDbEntity
  8
0
  6
Continuous
 62
     7
370
    25
100
AcDbLine
 10
575.7779638934
 20
141.763397497
 30
0.0
 11
572.7695330073
 21
141.7634028379
 31
0.0
  0
SPLINE
  5
EF
330
1F
100
AcDbEntity
  8
0
  6
Continuous
 62
     7
370
    25
100
AcDbSpline
210
0.0
220
0.0
230
1.0
 70
     8
 71
     3
 72
     9
 73
     5
 74
     0
 42
0.000000001
 43
0.00000001
 40
0.0
 40
0.0
 40
0.0
 40
0.0
 40
0.5493155132246635
 40
1.0
 40
1.0
 40
1.0
 40
1.0
 10
572.7695330072675
 20
141.7634028378718
 30
0.0
 10
572.8416297598657
 20
141.9285018610566
 30
0.0
 10
572.9728781059662
 20
142.2290559492082
 30
0.0
 10
573.234165000649
 20
142.4249434817195
 30
0.0
 10
573.3519229506803
 20
142.513226953775
 30
0.0
  0
SPLINE
  5
F0
330
1F
100
AcDbEntity
  8
0
  6
Continuous
 62
     7
370
    25
100
AcDbSpline
210
0.0
220
0.0
230
1.0
 70
     8
 71
     3
 72
     9
 73
     5
 74
     0
 42
0.000000001
 43
0.00000001
 40
0.0
 40
0.0
 40
0.0
 40
0.0
 40
0.5637919587418784
 40
1.0
 40
1.0
 40
1.0
 40
1.0
 10
573.3519229506803
 20
142.513226953775
 30
0.0
 10
573.5163081987236
 20
142.6081897375324
 30
0.0
 10
573.8078789554442
 20
142.7766255981099
 30
0.0
 10
574.1423885670656
 20
142.7990355597495
 30
0.0
 10
574.288304349533
 20
142.808810965221
 30
0.0
  0
SPLINE
  5
F1
330
1F
100
AcDbEntity
  8
0
  6
Continuous
 62
     7
370
    25
100
AcDbSpline
210
0.0
220
0.0
230
1.0
 70
     8
 71
     3
 72
     9
 73
     5
 74
     0
 42
0.000000001
 43
0.00000001
 40
0.0
 40
0.0
 40
0.0
 40
0.0
 40
0.5630928090328197
 40
1.0
 40
1.0
 40
1.0
 40
1.0
 10
574.288304349533
 20
142.808810965221
 30
0.0
 10
574.4736466443462
 20
142.7942949589247
 30
0.0
 10
574.8027971712933
 20
142.7685158936207
 30
0.0
 10
575.0835752631127
 20
142.5976802098339
 30
0.0
 10
575.2062492304947
 20
142.5230408711136
 30
0.0
  0
SPLINE
  5
F2
330
1F
100
AcDbEntity
  8
0
  6
Continuous
 62
     7
370
    25
100
AcDbSpline
210
0.0
220
0.0
230
1.0
 70
     8
 71
     3
 72
     9
 73
     5
 74
     0
 42
0.000000001
 43
0.00000001
 40
0.0
 40
0.0
 40
0.0
 40
0.0
 40
0.5490652353882874
 40
1.0
 40
1.0
 40
1.0
 40
1.0
 10
583.5407981395556
 20
141.7633973909403
 30
0.0
 10
583.6126898017355
 20
141.9285261041269
 30
0.0
 10
583.7436244476507
 20
142.2292712661656
 30
0.0
 10
584.0051063002069
 20
142.4249761545917
 30
0.0
 10
584.1230175578396
 20
142.5132262923874
 30
0.0
  0
LINE
  5
F3
330
1F
100
AcDbEntity
  8
0
  6
Continuous
 62
     7
370
    25
100
AcDbLine
 10
586.5497428291
 20
141.7633961861
 30
0.0
 11
583.5407981396
 21
141.7633973909
 31
0.0
  0
SPLINE
  5
F4
330
1F
100
AcDbEntity
  8
0
  6
Continuous
 62
     7
370
    25
100
AcDbSpline
210
0.0
220
0.0
230
1.0
 70
     8
 71
     3
 72
     9
 73
     5
 74
     0
 42
0.000000001
 43
0.00000001
 40
0.0
 40
0.0
 40
0.0
 40
0.0
 40
0.5552720020496783
 40
1.0
 40
1.0
 40
1.0
 40
1.0
 10
585.9778576410483
 20
142.5230443458136
 30
0.0
 10
586.1193710735201
 20
142.4082343824728
 30
0.0
 10
586.374225328641
 20
142.2014709171494
 30
0.0
 10
586.4957135954437
 20
141.8982479356166
 30
0.0
 10
586.5497428291134
 20
141.763396186107
 30
0.0
  0
SPLINE
  5
F5
330
1F
100
AcDbEntity
  8
0
  6
Continuous
 62
     7
370
    25
100
AcDbSpline
210
0.0
220
0.0
230
1.0
 70
     8
 71
     3
 72
     9
 73
     5
 74
     0
 42
0.000000001
 43
0.00000001
 40
0.0
 40
0.0
 40
0.0
 40
0.0
 40
0.5632107964542735
 40
1.0
 40
1.0
 40
1.0
 40
1.0
 10
585.0599127600866
 20
142.808814439921
 30
0.0
 10
585.2453003686621
 20
142.794308768916
 30
0.0
 10
585.5744623977686
 20
142.7685534547488
 30
0.0
 10
585.8552240030787
 20
142.5976800181102
 30
0.0
 10
585.9778576410483
 20
142.5230443458136
 30
0.0
  0
SPLINE
  5
F6
330
1F
100
AcDbEntity
  8
0
  6
Continuous
 62
     7
370
    25
100
AcDbSpline
210
0.0
220
0.0
230
1.0
 70
     8
 71
     3
 72
     9
 73
     5
 74
     0
 42
0.000000001
 43
0.00000001
 40
0.0
 40
0.0
 40
0.0
 40
0.0
 40
0.564063541694938
 40
1.0
 40
1.0
 40
1.0
 40
1.0
 10
584.1230175578396
 20
142.5132262923874
 30
0.0
 10
584.2876010717853
 20
142.6081892782633
 30
0.0
 10
584.5793829399258
 20
142.7765443993733
 30
0.0
 10
584.9140285416734
 20
142.7990175668739
 30
0.0
 10
585.0599127600866
 20
142.808814439921
 30
0.0
  0
CIRCLE
  5
F7
330
1F
100
AcDbEntity
  8
0
  6
Continuous
 62
     7
370
    25
100
AcDbCircle
 10
580.1012127727
 20
247.1823926267
 30
0.0
 40
119.7421906373336
  0
CIRCLE
  5
F8
330
1F
100
AcDbEntity
  8
0
  6
Continuous
 62
     7
370
    25
100
AcDbCircle
 10
580.1012127727
 20
247.1823926267
 30
0.0
 40
120.1192458401646
  0
CIRCLE
  5
F9
330
1F
100
AcDbEntity
  8
0
  6
Continuous
 62
     7
370
    25
100
AcDbCircle
 10
580.1012127727
 20
247.1823926268
 30
0.0
 40
126.8927090505842
  0
CIRCLE
  5
FA
330
1F
100
AcDbEntity
  8
0
  6
Continuous
 62
     7
370
    25
100
AcDbCircle
 10
580.1012127727
 20
247.1823926268
 30
0.0
 40
126.4999999999999
  0
CIRCLE
  5
FB
330
1F
100
AcDbEntity
  8
0
  6
Continuous
 62
     7
370
    25
100
AcDbCircle
 10
580.1012127727
 20
247.1823926268
 30
0.0
 40
121.4999999999999
  0
ARC
  5
FC
330
1F
100
AcDbEntity
  8
0
  6
Continuous
 62
     7
370
    25
100
AcDbCircle
 10
580.1012127727
 20
247.1823926268
 30
0.0
 40
133.4999999999998
100
AcDbArc
 50
93.474789031
 51
86.3840428426
  0
ELLIPSE
  5
FD
330
1F
100
AcDbEntity
  8
0
  6
Continuous
 62
     7
370
    25
100
AcDbEllipse
 10
540.8037421217
 20
286.5768057708
 30
0.0
 11
-78.60092740874813
 21
78.79482716206945
 31
0.0
210
0.0
220
0.0
230
1.0
 40
0.8660473877
 41
5.122009152856196
 42
5.122864210888581
  0
ARC
  5
FE
330
1F
100
AcDbEntity
  8
0
  6
Continuous
 62
     7
370
    25
100
AcDbCircle
 10
580.1012127727
 20
247.1823926268
 30
0.0
 40
133.4563656610462
100
AcDbArc
 50
93.4394114658
 51
86.4194204077
  0
ELLIPSE
  5
FF
330
1F
100
AcDbEntity
  8
0
  6
Continuous
 62
     7
370
    25
100
AcDbEllipse
 10
619.4956259167
 20
286.4798632777
 30
0.0
 11
78.79482716208906
 21
78.60092740874244
 31
0.0
210
0.0
220
0.0
230
1.0
 40
0.8660473877
 41
1.160321096291319
 42
1.161176154323702
  0
LINE
  5
100
330
1F
100
AcDbEntity
  8
0
  6
Continuous
 62
     7
370
    25
100
AcDbLine
 10
580.2753742931
 20
388.5588606909
 30
0.0
 11
572.0947625625
 21
380.3983779707
 31
0.0
  0
LINE
  5
101
330
1F
100
AcDbEntity
  8
0
  6
Continuous
 62
     7
370
    25
100
AcDbLine
 10
588.4358607385
 20
380.3782425079
 30
0.0
 11
580.2753742931
 21
388.5588606909
 31
0.0
  0
LINE
  5
102
330
1F
100
AcDbEntity
  8
0
  6
Continuous
 62
     7
370
    25
100
AcDbLine
 10
580.2753742931
 20
388.5588606909
 30
0.0
 11
580.2755298379
 21
388.6822858184
 31
0.0
  0
LINE
  5
103
330
1F
100
AcDbEntity
  8
0
  6
Continuous
 62
     7
370
    25
100
AcDbLine
 10
580.2755298379
 20
388.6822858184
 30
0.0
 11
572.0098646948
 21
380.4369598387
 31
0.0
  0
LINE
  5
104
330
1F
100
AcDbEntity
  8
0
  6
Continuous
 62
     7
370
    25
100
AcDbLine
 10
588.5208558176
 20
380.4166206752
 30
0.0
 11
580.2755298379
 21
388.6822858184
 31
0.0
  0
LINE
  5
105
330
1F
100
AcDbEntity
  8
0
  6
Continuous
 62
     7
370
    25
100
AcDbLine
 10
457.1016943712
 20
299.0800578524
 30
0.0
 11
455.1757517537
 21
299.8429644195
 31
0.0
  0
LINE
  5
106
330
1F
100
AcDbEntity
  8
0
  6
Continuous
 62
     7
370
    25
100
AcDbLine
 10
455.1757517537
 20
299.8429644195
 30
0.0
 11
457.148065275
 21
298.9641720191
 31
0.0
  0
LINE
  5
107
330
1F
100
AcDbEntity
  8
0
  6
Continuous
 62
     7
370
    25
100
AcDbLine
 10
457.4064538875
 20
304.849563717
 30
0.0
 11
455.1757517537
 21
299.8429644195
 31
0.0
  0
LINE
  5
108
330
1F
100
AcDbEntity
  8
0
  6
Continuous
 62
     7
370
    25
100
AcDbLine
 10
459.2616096276
 20
303.9277955841
 30
0.0
 11
457.4064538875
 21
304.849563717
 31
0.0
  0
LINE
  5
109
330
1F
100
AcDbEntity
  8
0
  6
Continuous
 62
     7
370
    25
100
AcDbLine
 10
459.4570233284
 20
303.9359599375
 30
0.0
 11
457.4064538875
 21
304.849563717
 31
0.0
  0
LINE
  5
10A
330
1F
100
AcDbEntity
  8
0
  6
Continuous
 62
     7
370
    25
100
AcDbLine
 10
703.1007311742
 20
195.2847274011
 30
0.0
 11
705.0266737916
 21
194.521820834
 31
0.0
  0
LINE
  5
10B
330
1F
100
AcDbEntity
  8
0
  6
Continuous
 62
     7
370
    25
100
AcDbLine
 10
705.0266737916
 20
194.521820834
 30
0.0
 11
702.9751438516
 21
195.4359110549
 31
0.0
  0
LINE
  5
10C
330
1F
100
AcDbEntity
  8
0
  6
Continuous
 62
     7
370
    25
100
AcDbLine
 10
700.9408159178
 20
190.4369896694
 30
0.0
 11
702.7959716579
 21
189.5152215365
 31
0.0
  0
LINE
  5
10D
330
1F
100
AcDbEntity
  8
0
  6
Continuous
 62
     7
370
    25
100
AcDbLine
 10
700.8330449927
 20
190.3897806623
 30
0.0
 11
702.7959716579
 21
189.5152215365
 31
0.0
  0
LINE
  5
10E
330
1F
100
AcDbEntity
  8
0
  6
Continuous
 62
     7
370
    25
100
AcDbLine
 10
705.0266737916
 20
194.521820834
 30
0.0
 11
702.7959716579
 21
189.5152215365
 31
0.0
  0
LINE
  5
10F
330
1F
100
AcDbEntity
  8
0
  6
Continuous
 62
     7
370
    25
100
AcDbLine
 10
689.6639679687
 20
323.4598533952
 30
0.0
 11
691.3898299424
 21
324.6055853966
 31
0.0
  0
LINE
  5
110
330
1F
100
AcDbEntity
  8
0
  6
Continuous
 62
     7
370
    25
100
AcDbLine
 10
686.5456773239
 20
327.7542713898
 30
0.0
 11
688.1693353966
 21
329.0407265118
 31
0.0
  0
LINE
  5
111
330
1F
100
AcDbEntity
  8
0
  6
Continuous
 62
     7
370
    25
100
AcDbLine
 10
688.1693353966
 20
329.0407265118
 30
0.0
 11
691.3898299424
 21
324.6055853966
 31
0.0
  0
LINE
  5
112
330
1F
100
AcDbEntity
  8
0
  6
Continuous
 62
     7
370
    25
100
AcDbLine
 10
688.1693353966
 20
329.0407265118
 30
0.0
 11
686.3876557773
 21
327.7470262441
 31
0.0
  0
LINE
  5
113
330
1F
100
AcDbEntity
  8
0
  6
Continuous
 62
     7
370
    25
100
AcDbLine
 10
563.5461515387
 20
379.6519345032
 30
0.0
 11
563.243875309
 21
381.7012966914
 31
0.0
  0
LINE
  5
114
330
1F
100
AcDbEntity
  8
0
  6
Continuous
 62
     7
370
    25
100
AcDbLine
 10
563.243875309
 20
381.7012966914
 30
0.0
 11
563.4768665613
 21
379.4785059381
 31
0.0
  0
LINE
  5
115
330
1F
100
AcDbEntity
  8
0
  6
Continuous
 62
     7
370
    25
100
AcDbLine
 10
568.824371276
 20
380.2052600778
 30
0.0
 11
568.6950701593
 21
382.2727505914
 31
0.0
  0
LINE
  5
116
330
1F
100
AcDbEntity
  8
0
  6
Continuous
 62
     7
370
    25
100
AcDbLine
 10
563.243875309
 20
381.7012966914
 30
0.0
 11
568.6950701593
 21
382.2727505914
 31
0.0
  0
LINE
  5
117
330
1F
100
AcDbEntity
  8
0
  6
Continuous
 62
     7
370
    25
100
AcDbLine
 10
591.3780542694
 20
114.1595251757
 30
0.0
 11
591.5073553861
 21
112.0920346621
 31
0.0
  0
LINE
  5
118
330
1F
100
AcDbEntity
  8
0
  6
Continuous
 62
     7
370
    25
100
AcDbLine
 10
596.6562740067
 20
114.7128507503
 30
0.0
 11
596.9585502364
 21
112.663488562
 31
0.0
  0
LINE
  5
119
330
1F
100
AcDbEntity
  8
0
  6
Continuous
 62
     7
370
    25
100
AcDbLine
 10
596.9585502364
 20
112.663488562
 30
0.0
 11
591.5073553861
 21
112.0920346621
 31
0.0
  0
LINE
  5
11A
330
1F
100
AcDbEntity
  8
0
  6
Continuous
 62
     7
370
    25
100
AcDbLine
 10
591.2848892492
 20
114.2139386396
 30
0.0
 11
591.5073553861
 21
112.0920346621
 31
0.0
  0
LINE
  5
11B
330
1F
100
AcDbEntity
  8
0
  6
Continuous
 62
     7
370
    25
100
AcDbLine
 10
473.6567482215
 20
166.6105138637
 30
0.0
 11
472.0330901488
 21
165.3240587417
 31
0.0
  0
LINE
  5
11C
330
1F
100
AcDbEntity
  8
0
  6
Continuous
 62
     7
370
    25
100
AcDbLine
 10
472.0330901488
 20
165.3240587417
 30
0.0
 11
473.7500406567
 21
166.5707585198
 31
0.0
  0
LINE
  5
11D
330
1F
100
AcDbEntity
  8
0
  6
Continuous
 62
     7
370
    25
100
AcDbLine
 10
470.5384575767
 20
170.9049318583
 30
0.0
 11
468.812595603
 21
169.7591998569
 31
0.0
  0
LINE
  5
11E
330
1F
100
AcDbEntity
  8
0
  6
Continuous
 62
     7
370
    25
100
AcDbLine
 10
472.0330901488
 20
165.3240587417
 30
0.0
 11
468.812595603
 21
169.7591998569
 31
0.0
  0
LINE
  5
11F
330
1F
100
AcDbEntity
  8
0
  6
Continuous
 62
     7
370
    25
100
AcDbLine
 10
470.6127142983
 20
171.0663516452
 30
0.0
 11
468.812595603
 21
169.7591998569
 31
0.0
  0
LINE
  5
120
330
1F
100
AcDbEntity
  8
0
  6
Continuous
 62
     7
370
    25
100
AcDbLine
 10
689.5845347834
 20
323.2946739147
 30
0.0
 11
691.3898299424
 21
324.6055853966
 31
0.0
  0
LINE
  5
121
330
1F
100
AcDbEntity
  8
0
  6
Continuous
 62
     7
370
    25
100
AcDbLine
 10
596.9585502364
 20
112.663488562
 30
0.0
 11
596.7271857984
 21
114.8707434493
 31
0.0
  0
LINE
  5
122
330
1F
100
AcDbEntity
  8
0
  6
Continuous
 62
     7
370
    25
100
AcDbLine
 10
568.9238824367
 20
380.0903307667
 30
0.0
 11
568.6950701593
 21
382.2727505914
 31
0.0
  0
SPLINE
  5
123
330
1F
100
AcDbEntity
  8
0
  6
Continuous
 62
     7
370
    25
100
AcDbSpline
210
0.0
220
0.0
230
1.0
 70
     8
 71
     3
 72
    11
 73
     7
 74
     0
 42
0.000000001
 43
0.00000001
 40
0.0
 40
0.0
 40
0.0
 40
0.0
 40
0.248599077875982
 40
0.4973826867571197
 40
0.7489497178360787
 40
0.9999999999999999
 40
0.9999999999999999
 40
0.9999999999999999
 40
0.9999999999999999
 10
720.3567772727248
 20
256.6116913016602
 30
0.0
 10
720.457178677416
 20
254.8365465619379
 30
0.0
 10
720.658056013109
 20
251.2849394217605
 30
0.0
 10
720.6971260252172
 20
246.0186049244226
 30
0.0
 10
720.5630905885845
 20
240.5447296571319
 30
0.0
 10
720.2802580174662
 20
236.8048121029099
 30
0.0
 10
720.1389871242567
 20
234.9367758603869
 30
0.0
  0
SPLINE
  5
124
330
1F
100
AcDbEntity
  8
0
  6
Continuous
 62
     7
370
    25
100
AcDbSpline
210
0.0
220
0.0
230
1.0
 70
     8
 71
     3
 72
    18
 73
    14
 74
     0
 42
0.000000001
 43
0.00000001
 40
0.0
 40
0.0
 40
0.0
 40
0.0
 40
0.0772033505063994
 40
0.1544651604312458
 40
0.2337289204644928
 40
0.3130322871809854
 40
0.4310059115229966
 40
0.491924930598574
 40
0.5528300457676091
 40
0.6643353574141576
 40
0.7761929138944166
 40
0.8882255224745728
 40
1.0
 40
1.0
 40
1.0
 40
1.0
 10
478.9679423550577
 20
344.8174008116474
 30
0.0
 10
479.9231113156425
 20
345.7900579342917
 30
0.0
 10
481.8341725036337
 20
347.7361086886744
 30
0.0
 10
484.7980859395233
 20
350.5407800120196
 30
0.0
 10
487.8158222806819
 20
353.2466716417358
 30
0.0
 10
491.4123687824325
 20
356.2845747408444
 30
0.0
 10
494.9023695784722
 20
359.0277567376859
 30
0.0
 10
498.3150422348783
 20
361.5280871057934
 30
0.0
 10
501.6986108935413
 20
363.8900145663942
 30
0.0
 10
505.8242268004516
 20
366.576391711213
 30
0.0
 10
510.7159829390984
 20
369.4782476466146
 30
0.0
 10
515.8153709749238
 20
372.2515117978029
 30
0.0
 10
519.3824670972915
 20
373.9529384439788
 30
0.0
 10
521.1639580782005
 20
374.8026705848746
 30
0.0
  0
SPLINE
  5
125
330
1F
100
AcDbEntity
  8
0
  6
Continuous
 62
     7
370
    25
100
AcDbSpline
210
0.0
220
0.0
230
1.0
 70
     8
 71
     3
 72
    18
 73
    14
 74
     0
 42
0.000000001
 43
0.00000001
 40
0.0
 40
0.0
 40
0.0
 40
0.0
 40
0.0774284539640779
 40
0.1549160247440083
 40
0.234406465098679
 40
0.3139363503647072
 40
0.4326316709023023
 40
0.4939731739348133
 40
0.5553039206673102
 40
0.6661920610042038
 40
0.7774104810140076
 40
0.8888312561172304
 40
1.0
 40
1.0
 40
1.0
 40
1.0
 10
546.0927598776672
 20
110.7860626473892
 30
0.0
 10
544.7702155767048
 20
111.1278470403735
 30
0.0
 10
542.1241172089397
 20
111.8116767795705
 30
0.0
 10
538.205777361652
 20
112.9794460698292
 30
0.0
 10
534.3462891739081
 20
114.2435484829853
 30
0.0
 10
529.9024491615879
 20
115.8463639994989
 30
0.0
 10
525.7622243168249
 20
117.5074212680522
 30
0.0
 10
521.8683060218472
 20
119.2258230786085
 30
0.0
 10
518.1331206236508
 20
120.9780032415246
 30
0.0
 10
513.7650682044346
 20
123.201090259696
 30
0.0
 10
508.8379850085412
 20
125.9717604172006
 30
0.0
 10
503.917908908525
 20
128.983917549265
 30
0.0
 10
500.6813281850493
 20
131.208016544848
 30
0.0
 10
499.064870163382
 20
132.3188069034248
 30
0.0
  0
SPLINE
  5
126
330
1F
100
AcDbEntity
  8
0
  6
Continuous
 62
     7
370
    25
100
AcDbSpline
210
0.0
220
0.0
230
1.0
 70
     8
 71
     3
 72
    11
 73
     7
 74
     0
 42
0.000000001
 43
0.00000001
 40
0.0
 40
0.0
 40
0.0
 40
0.0
 40
0.2627129211080891
 40
0.5322791986121056
 40
0.766037796130719
 40
1.0
 40
1.0
 40
1.0
 40
1.0
 10
714.5549853980417
 20
288.2032983414973
 30
0.0
 10
715.1045200861283
 20
286.3207371666633
 30
0.0
 10
716.2179250992908
 20
282.506504698567
 30
0.0
 10
717.4846555412696
 20
277.090112763838
 30
0.0
 10
718.5034609147302
 20
272.0011538662883
 30
0.0
 10
719.0097823961388
 20
268.6973772904743
 30
0.0
 10
719.2630533417652
 20
267.0447699091572
 30
0.0
  0
SPLINE
  5
127
330
1F
100
AcDbEntity
  8
0
  6
Continuous
 62
     7
370
    25
100
AcDbSpline
210
0.0
220
0.0
230
1.0
 70
     8
 71
     3
 72
    11
 73
     7
 74
     0
 42
0.000000001
 43
0.00000001
 40
0.0
 40
0.0
 40
0.0
 40
0.0
 40
0.2696349305550306
 40
0.5445370180869928
 40
0.7710324307509757
 40
1.0
 40
1.0
 40
1.0
 40
1.0
 10
719.2630533417652
 20
267.0447699091572
 30
0.0
 10
719.3900095915782
 20
266.1178296866966
 30
0.0
 10
719.6464021055539
 20
264.2458420193547
 30
0.0
 10
719.9456294403892
 20
261.5397476962423
 30
0.0
 10
720.1864441213716
 20
258.9758194360302
 30
0.0
 10
720.2997944750375
 20
257.4025804158309
 30
0.0
 10
720.3567772727248
 20
256.6116913016602
 30
0.0
  0
ARC
  5
128
330
1F
100
AcDbEntity
  8
0
  6
Continuous
 62
     7
370
    25
100
AcDbCircle
 10
580.1012127727
 20
247.1823926268
 30
0.0
 40
140.5721653808355
100
AcDbArc
 50
136.008283858
 51
234.7970019146
  0
ARC
  5
129
330
1F
100
AcDbEntity
  8
0
  6
Continuous
 62
     7
370
    25
100
AcDbCircle
 10
580.1012127727
 20
247.1823926268
 30
0.0
 40
140.5721653808358
100
AcDbArc
 50
255.9995926451
 51
355.0024785842
  0
ARC
  5
12A
330
1F
100
AcDbEntity
  8
0
  6
Continuous
 62
     7
370
    25
100
AcDbCircle
 10
580.1012127727
 20
247.1823926268
 30
0.0
 40
140.5721653808357
100
AcDbArc
 50
16.9665814927
 51
89.5499808656
  0
ARC
  5
12B
330
1F
100
AcDbEntity
  8
0
  6
Continuous
 62
     7
370
    25
100
AcDbCircle
 10
580.1012127727
 20
247.1823926268
 30
0.0
 40
140.5721653808355
100
AcDbArc
 50
90.3088510079
 51
114.7883107017
  0
CIRCLE
  5
12C
330
1F
100
AcDbEntity
  8
0
  6
Continuous
 62
     7
370
    25
100
AcDbCircle
 10
688.4512127727
 20
247.1823926267
 30
0.0
 40
6.000000000000025
  0
LINE
  5
12D
330
1F
100
AcDbEntity
  8
0
  6
Continuous
 62
     7
370
    25
100
AcDbLine
 10
689.8945903628
 20
249.6823921069
 30
0.0
 11
687.0078331521
 21
249.6823921323
 31
0.0
  0
LINE
  5
12E
330
1F
100
AcDbEntity
  8
0
  6
Continuous
 62
     7
370
    25
100
AcDbLine
 10
687.0078331521
 20
249.6823921323
 30
0.0
 11
685.564461021
 21
247.1823907658
 31
0.0
  0
LINE
  5
12F
330
1F
100
AcDbEntity
  8
0
  6
Continuous
 62
     7
370
    25
100
AcDbLine
 10
689.8945848187
 20
244.6823915768
 30
0.0
 11
691.3379652648
 21
247.1823934423
 31
0.0
  0
LINE
  5
130
330
1F
100
AcDbEntity
  8
0
  6
Continuous
 62
     7
370
    25
100
AcDbLine
 10
691.3379652648
 20
247.1823934423
 30
0.0
 11
689.8945903628
 21
249.6823921069
 31
0.0
  0
LINE
  5
131
330
1F
100
AcDbEntity
  8
0
  6
Continuous
 62
     7
370
    25
100
AcDbLine
 10
685.564461021
 20
247.1823907658
 30
0.0
 11
687.007835923
 21
244.6823921012
 31
0.0
  0
LINE
  5
132
330
1F
100
AcDbEntity
  8
0
  6
Continuous
 62
     7
370
    25
100
AcDbLine
 10
687.007835923
 20
244.6823921012
 30
0.0
 11
689.8945848187
 21
244.6823915768
 31
0.0
  0
LINE
  5
133
330
1F
100
AcDbEntity
  8
0
  6
Continuous
 62
     7
370
    25
100
AcDbLine
 10
635.7195883125
 20
150.8485403574
 30
0.0
 11
637.1629624599
 21
153.348542888
 31
0.0
  0
LINE
  5
134
330
1F
100
AcDbEntity
  8
0
  6
Continuous
 62
     7
370
    25
100
AcDbLine
 10
637.1629624599
 20
153.348542888
 30
0.0
 11
635.7195875579
 21
155.8485415526
 31
0.0
  0
LINE
  5
135
330
1F
100
AcDbEntity
  8
0
  6
Continuous
 62
     7
370
    25
100
AcDbLine
 10
635.7195875579
 20
155.8485415526
 30
0.0
 11
632.8328385084
 21
155.8485376867
 31
0.0
  0
LINE
  5
136
330
1F
100
AcDbEntity
  8
0
  6
Continuous
 62
     7
370
    25
100
AcDbLine
 10
632.8328385084
 20
155.8485376867
 30
0.0
 11
631.3894606357
 21
153.3485416085
 31
0.0
  0
LINE
  5
137
330
1F
100
AcDbEntity
  8
0
  6
Continuous
 62
     7
370
    25
100
AcDbLine
 10
631.3894606357
 20
153.3485416085
 30
0.0
 11
632.8328355377
 21
150.8485429439
 31
0.0
  0
LINE
  5
138
330
1F
100
AcDbEntity
  8
0
  6
Continuous
 62
     7
370
    25
100
AcDbLine
 10
632.8328355377
 20
150.8485429439
 30
0.0
 11
635.7195883125
 21
150.8485403574
 31
0.0
  0
CIRCLE
  5
139
330
1F
100
AcDbEntity
  8
0
  6
Continuous
 62
     7
370
    25
100
AcDbCircle
 10
634.2762127727
 20
153.3485401267
 30
0.0
 40
6.000000000000032
  0
LINE
  5
13A
330
1F
100
AcDbEntity
  8
0
  6
Continuous
 62
     7
370
    25
100
AcDbLine
 10
527.3695900076
 20
343.5162423096
 30
0.0
 11
524.4828372329
 21
343.5162448961
 31
0.0
  0
LINE
  5
13B
330
1F
100
AcDbEntity
  8
0
  6
Continuous
 62
     7
370
    25
100
AcDbLine
 10
524.4828372329
 20
343.5162448961
 30
0.0
 11
523.0394630855
 21
341.0162423655
 31
0.0
  0
LINE
  5
13C
330
1F
100
AcDbEntity
  8
0
  6
Continuous
 62
     7
370
    25
100
AcDbLine
 10
527.3695870369
 20
338.5162475668
 30
0.0
 11
528.8129649096
 21
341.016243645
 31
0.0
  0
CIRCLE
  5
13D
330
1F
100
AcDbEntity
  8
0
  6
Continuous
 62
     7
370
    25
100
AcDbCircle
 10
525.9262127727
 20
341.0162451268
 30
0.0
 40
6.0
  0
LINE
  5
13E
330
1F
100
AcDbEntity
  8
0
  6
Continuous
 62
     7
370
    25
100
AcDbLine
 10
524.4828379875
 20
338.5162437009
 30
0.0
 11
527.3695870369
 21
338.5162475668
 31
0.0
  0
LINE
  5
13F
330
1F
100
AcDbEntity
  8
0
  6
Continuous
 62
     7
370
    25
100
AcDbLine
 10
523.0394630855
 20
341.0162423655
 30
0.0
 11
524.4828379875
 21
338.5162437009
 31
0.0
  0
LINE
  5
140
330
1F
100
AcDbEntity
  8
0
  6
Continuous
 62
     7
370
    25
100
AcDbLine
 10
528.8129649096
 20
341.016243645
 30
0.0
 11
527.3695900076
 21
343.5162423096
 31
0.0
  0
LINE
  5
141
330
1F
100
AcDbEntity
  8
0
  6
Continuous
 62
     7
370
    25
100
AcDbLine
 10
473.1945923933
 20
244.6823931212
 30
0.0
 11
474.6379645244
 21
247.1823944877
 31
0.0
  0
LINE
  5
142
330
1F
100
AcDbEntity
  8
0
  6
Continuous
 62
     7
370
    25
100
AcDbLine
 10
474.6379645244
 20
247.1823944877
 30
0.0
 11
473.1945896223
 21
249.6823931523
 31
0.0
  0
LINE
  5
143
330
1F
100
AcDbEntity
  8
0
  6
Continuous
 62
     7
370
    25
100
AcDbLine
 10
473.1945896223
 20
249.6823931523
 30
0.0
 11
470.3078407266
 21
249.6823936767
 31
0.0
  0
LINE
  5
144
330
1F
100
AcDbEntity
  8
0
  6
Continuous
 62
     7
370
    25
100
AcDbLine
 10
468.8644602806
 20
247.1823918112
 30
0.0
 11
470.3078351826
 21
244.6823931466
 31
0.0
  0
CIRCLE
  5
145
330
1F
100
AcDbEntity
  8
0
  6
Continuous
 62
     7
370
    25
100
AcDbCircle
 10
471.7512127727
 20
247.1823926267
 30
0.0
 40
6.0
  0
LINE
  5
146
330
1F
100
AcDbEntity
  8
0
  6
Continuous
 62
     7
370
    25
100
AcDbLine
 10
470.3078407266
 20
249.6823936767
 30
0.0
 11
468.8644602806
 21
247.1823918112
 31
0.0
  0
LINE
  5
147
330
1F
100
AcDbEntity
  8
0
  6
Continuous
 62
     7
370
    25
100
AcDbLine
 10
470.3078351826
 20
244.6823931466
 30
0.0
 11
473.1945923933
 21
244.6823931212
 31
0.0
  0
LINE
  5
148
330
1F
100
AcDbEntity
  8
0
  6
Continuous
 62
     7
370
    25
100
AcDbLine
 10
637.162964627
 20
341.016247047
 30
0.0
 11
635.719589725
 21
343.5162457116
 31
0.0
  0
LINE
  5
149
330
1F
100
AcDbEntity
  8
0
  6
Continuous
 62
     7
370
    25
100
AcDbLine
 10
635.719589725
 20
343.5162457116
 30
0.0
 11
632.8328343769
 21
343.5162425108
 31
0.0
  0
LINE
  5
14A
330
1F
100
AcDbEntity
  8
0
  6
Continuous
 62
     7
370
    25
100
AcDbLine
 10
632.8328343769
 20
343.5162425108
 30
0.0
 11
631.3894603832
 21
341.0162443705
 31
0.0
  0
LINE
  5
14B
330
1F
100
AcDbEntity
  8
0
  6
Continuous
 62
     7
370
    25
100
AcDbLine
 10
631.3894603832
 20
341.0162443705
 30
0.0
 11
632.8328352853
 21
338.5162457059
 31
0.0
  0
LINE
  5
14C
330
1F
100
AcDbEntity
  8
0
  6
Continuous
 62
     7
370
    25
100
AcDbLine
 10
632.8328352853
 20
338.5162457059
 30
0.0
 11
635.7195860436
 21
338.5162419553
 31
0.0
  0
LINE
  5
14D
330
1F
100
AcDbEntity
  8
0
  6
Continuous
 62
     7
370
    25
100
AcDbLine
 10
635.7195860436
 20
338.5162419553
 30
0.0
 11
637.162964627
 21
341.016247047
 31
0.0
  0
CIRCLE
  5
14E
330
1F
100
AcDbEntity
  8
0
  6
Continuous
 62
     7
370
    25
100
AcDbCircle
 10
634.2762127727
 20
341.0162451268
 30
0.0
 40
6.0
  0
CIRCLE
  5
14F
330
1F
100
AcDbEntity
  8
0
  6
Continuous
 62
     7
370
    25
100
AcDbCircle
 10
525.9262127727
 20
153.3485401267
 30
0.0
 40
6.0
  0
LINE
  5
150
330
1F
100
AcDbEntity
  8
0
  6
Continuous
 62
     7
370
    25
100
AcDbLine
 10
528.8129651621
 20
153.348540883
 30
0.0
 11
527.3695902601
 21
155.8485395476
 31
0.0
  0
LINE
  5
151
330
1F
100
AcDbEntity
  8
0
  6
Continuous
 62
     7
370
    25
100
AcDbLine
 10
527.3695911684
 20
150.8485427427
 30
0.0
 11
528.8129651621
 21
153.348540883
 31
0.0
  0
LINE
  5
152
330
1F
100
AcDbEntity
  8
0
  6
Continuous
 62
     7
370
    25
100
AcDbLine
 10
524.4828358203
 20
150.8485395419
 30
0.0
 11
527.3695911684
 21
150.8485427427
 31
0.0
  0
LINE
  5
153
330
1F
100
AcDbEntity
  8
0
  6
Continuous
 62
     7
370
    25
100
AcDbLine
 10
523.0394609183
 20
153.3485382065
 30
0.0
 11
524.4828358203
 21
150.8485395419
 31
0.0
  0
LINE
  5
154
330
1F
100
AcDbEntity
  8
0
  6
Continuous
 62
     7
370
    25
100
AcDbLine
 10
524.4828395018
 20
155.8485432982
 30
0.0
 11
523.0394609183
 21
153.3485382065
 31
0.0
  0
LINE
  5
155
330
1F
100
AcDbEntity
  8
0
  6
Continuous
 62
     7
370
    25
100
AcDbLine
 10
527.3695902601
 20
155.8485395476
 30
0.0
 11
524.4828395018
 21
155.8485432982
 31
0.0
  0
SPLINE
  5
156
330
1F
100
AcDbEntity
  8
0
  6
Continuous
 62
     8
370
    25
100
AcDbSpline
210
0.0
220
0.0
230
1.0
 70
     8
 71
     3
 72
    12
 73
     8
 74
     0
 42
0.000000001
 43
0.00000001
 40
0.0
 40
0.0
 40
0.0
 40
0.0
 40
0.2797920872688961
 40
0.5022386998197622
 40
0.7246855318492245
 40
0.947133131332084
 40
0.9999999999999999
 40
0.9999999999999999
 40
0.9999999999999999
 40
0.9999999999999999
 10
720.3567772727248
 20
256.6116913016602
 30
0.0
 10
720.0340718966524
 20
255.4818083911756
 30
0.0
 10
719.4548020177738
 20
253.4536204983388
 30
0.0
 10
717.9259831751915
 20
250.8031703761724
 30
0.0
 10
716.1504818399204
 20
248.6469734485921
 30
0.0
 10
714.617220355795
 20
247.1998907017402
 30
0.0
 10
713.6265782630701
 20
246.6099761428515
 30
0.0
 10
713.4363516260001
 20
246.4966986397855
 30
0.0
  0
SPLINE
  5
157
330
1F
100
AcDbEntity
  8
0
  6
Continuous
 62
     8
370
    25
100
AcDbSpline
210
0.0
220
0.0
230
1.0
 70
     8
 71
     3
 72
     9
 73
     5
 74
     0
 42
0.000000001
 43
0.00000001
 40
0.0
 40
0.0
 40
0.0
 40
0.0
 40
0.7717176171387568
 40
1.0
 40
1.0
 40
1.0
 40
1.0
 10
720.1389871242567
 20
234.9367758603869
 30
0.0
 10
718.2748657044451
 20
233.8460285278637
 30
0.0
 10
715.8593170913098
 20
232.4326263865892
 30
0.0
 10
713.1636901813042
 20
231.7598798333941
 30
0.0
 10
712.5483260469832
 20
231.606303647169
 30
0.0
  0
SPLINE
  5
158
330
1F
100
AcDbEntity
  8
0
  6
Continuous
 62
     8
370
    25
100
AcDbSpline
210
0.0
220
0.0
230
1.0
 70
     8
 71
     3
 72
    19
 73
    15
 74
     0
 42
0.000000001
 43
0.00000001
 40
0.0
 40
0.0
 40
0.0
 40
0.0
 40
0.0862546894877501
 40
0.1758805962396687
 40
0.2655062440497025
 40
0.3551316648557888
 40
0.4447568878737975
 40
0.5343821952574693
 40
0.6240072628035087
 40
0.7136323244141429
 40
0.8032575009759836
 40
0.8928826766277546
 40
0.9720765403321959
 40
1.0
 40
1.0
 40
1.0
 40
1.0
 10
492.6438015195641
 20
347.8247435176395
 30
0.0
 10
492.692082808864
 20
348.6943183752107
 30
0.0
 10
492.7905324351939
 20
350.4674549470649
 30
0.0
 10
493.5005284770372
 20
353.0667626308311
 30
0.0
 10
494.6236963177863
 20
355.5425116844413
 30
0.0
 10
496.1483905146226
 20
357.7984170006833
 30
0.0
 10
498.0344654404886
 20
359.7601602970643
 30
0.0
 10
500.2180654789282
 20
361.3848538252327
 30
0.0
 10
502.6477760428352
 20
362.6118979351926
 30
0.0
 10
505.2454841889394
 20
363.4207891124341
 30
0.0
 10
507.9461124422451
 20
363.7798882428078
 30
0.0
 10
510.55357187175
 20
363.6673996206727
 30
0.0
 10
512.5234332082438
 20
363.3325271849343
 30
0.0
 10
513.5339055897887
 20
362.9510536648685
 30
0.0
 10
513.7973166226936
 20
362.8516107352232
 30
0.0
  0
SPLINE
  5
159
330
1F
100
AcDbEntity
  8
0
  6
Continuous
 62
     8
370
    25
100
AcDbSpline
210
0.0
220
0.0
230
1.0
 70
     8
 71
     3
 72
     9
 73
     5
 74
     0
 42
0.000000001
 43
0.00000001
 40
0.0
 40
0.0
 40
0.0
 40
0.0
 40
0.4808801779474325
 40
1.0
 40
1.0
 40
1.0
 40
1.0
 10
481.0344304331447
 20
336.4163834751571
 30
0.0
 10
480.5504444846225
 20
337.724976109584
 30
0.0
 10
479.5439859722587
 20
340.4462208071976
 30
0.0
 10
479.1647903295986
 20
343.323663350567
 30
0.0
 10
478.9679423550577
 20
344.8174008116474
 30
0.0
  0
SPLINE
  5
15A
330
1F
100
AcDbEntity
  8
0
  6
Continuous
 62
     8
370
    25
100
AcDbSpline
210
0.0
220
0.0
230
1.0
 70
     8
 71
     3
 72
     9
 73
     5
 74
     0
 42
0.000000001
 43
0.00000001
 40
0.0
 40
0.0
 40
0.0
 40
0.0
 40
0.4601424094239193
 40
1.0
 40
1.0
 40
1.0
 40
1.0
 10
521.1639580782005
 20
374.8026705848746
 30
0.0
 10
522.3543356624957
 20
374.2117867495245
 30
0.0
 10
524.9413121287283
 20
372.9276542217491
 30
0.0
 10
527.1704164611
 20
371.0880532836358
 30
0.0
 10
528.3738153551169
 20
370.0949307535644
 30
0.0
  0
SPLINE
  5
15B
330
1F
100
AcDbEntity
  8
0
  6
Continuous
 62
     8
370
    25
100
AcDbSpline
210
0.0
220
0.0
230
1.0
 70
     8
 71
     3
 72
    19
 73
    15
 74
     0
 42
0.000000001
 43
0.00000001
 40
0.0
 40
0.0
 40
0.0
 40
0.0
 40
0.0296408002298746
 40
0.1203507901143771
 40
0.2110606533870988
 40
0.3017702949599363
 40
0.3924799391505364
 40
0.4831892058045963
 40
0.5738983776786354
 40
0.6646073233120977
 40
0.7553164229885689
 40
0.8460257025788435
 40
0.936734803860913
 40
1.0
 40
1.0
 40
1.0
 40
1.0
 10
536.5151762405687
 20
121.1012372347502
 30
0.0
 10
536.263837350057
 20
120.9466417401273
 30
0.0
 10
535.2433239420187
 20
120.3189363549251
 30
0.0
 10
533.2346168568879
 20
119.6362658441308
 30
0.0
 10
530.5807680126687
 20
119.0824352449588
 30
0.0
 10
527.859246185172
 20
119.0214611338896
 30
0.0
 10
525.1679896727803
 20
119.4007766498754
 30
0.0
 10
522.5807577713589
 20
120.2377965219363
 30
0.0
 10
520.1662871301254
 20
121.4881797166528
 30
0.0
 10
518.0028910658476
 20
123.134167624015
 30
0.0
 10
516.1352031033009
 20
125.1125627592397
 30
0.0
 10
514.6504974704847
 20
127.3849148773685
 30
0.0
 10
513.6146630438841
 20
129.6090106456022
 30
0.0
 10
513.2841734743865
 20
131.1071505704596
 30
0.0
 10
513.1483814117737
 20
131.7227086069457
 30
0.0
  0
SPLINE
  5
15C
330
1F
100
AcDbEntity
  8
0
  6
Continuous
 62
     8
370
    25
100
AcDbSpline
210
0.0
220
0.0
230
1.0
 70
     8
 71
     3
 72
    10
 73
     6
 74
     0
 42
0.000000001
 43
0.00000001
 40
0.0
 40
0.0
 40
0.0
 40
0.0
 40
0.0410099041962382
 40
0.6413302676342758
 40
1.0
 40
1.0
 40
1.0
 40
1.0
 10
552.2227161649987
 20
116.6452682717831
 30
0.0
 10
552.157785349822
 20
116.5487919082408
 30
0.0
 10
551.1423697352006
 20
115.0400536348016
 30
0.0
 10
549.0499354423843
 20
113.0588089124855
 30
0.0
 10
546.8977091867988
 20
111.4047088846125
 30
0.0
 10
546.0927598776672
 20
110.7860626473892
 30
0.0
  0
SPLINE
  5
15D
330
1F
100
AcDbEntity
  8
0
  6
Continuous
 62
     8
370
    25
100
AcDbSpline
210
0.0
220
0.0
230
1.0
 70
     8
 71
     3
 72
     9
 73
     5
 74
     0
 42
0.000000001
 43
0.00000001
 40
0.0
 40
0.0
 40
0.0
 40
0.0
 40
0.5731345978962009
 40
1.0
 40
1.0
 40
1.0
 40
1.0
 10
499.064870163382
 20
132.3188069034248
 30
0.0
 10
498.976776905169
 20
133.974112567602
 30
0.0
 10
498.8230725946348
 20
136.8622747379774
 30
0.0
 10
499.2954840646385
 20
139.7123171680298
 30
0.0
 10
499.4971401767401
 20
140.9289016759469
 30
0.0
  0
SPLINE
  5
15E
330
1F
100
AcDbEntity
  8
0
  6
Continuous
 62
     8
370
    25
100
AcDbSpline
210
0.0
220
0.0
230
1.0
 70
     8
 71
     3
 72
    12
 73
     8
 74
     0
 42
0.000000001
 43
0.00000001
 40
0.0
 40
0.0
 40
0.0
 40
0.0
 40
0.1274164990778173
 40
0.3497704153373928
 40
0.5721215472790531
 40
0.7944728397675107
 40
1.0
 40
1.0
 40
1.0
 40
1.0
 10
710.3858229637469
 20
275.4930043130366
 30
0.0
 10
710.8834178192013
 20
275.2984982234426
 30
0.0
 10
712.2493630501694
 20
274.7645604976743
 30
0.0
 10
714.2625328156522
 20
273.4256181887695
 30
0.0
 10
716.3404093737231
 20
271.5524903369782
 30
0.0
 10
718.0558329335367
 20
269.4114729240108
 30
0.0
 10
718.8713350222496
 20
267.8127166084112
 30
0.0
 10
719.2630533417652
 20
267.0447699091572
 30
0.0
  0
SPLINE
  5
15F
330
1F
100
AcDbEntity
  8
0
  6
Continuous
 62
     8
370
    25
100
AcDbSpline
210
0.0
220
0.0
230
1.0
 70
     8
 71
     3
 72
     9
 73
     5
 74
     0
 42
0.000000001
 43
0.00000001
 40
0.0
 40
0.0
 40
0.0
 40
0.0
 40
0.5172672271064651
 40
1.0
 40
1.0
 40
1.0
 40
1.0
 10
706.3952191048108
 20
289.9316584802188
 30
0.0
 10
707.836474516192
 20
289.7936296191787
 30
0.0
 10
710.6227624073525
 20
289.5267871559275
 30
0.0
 10
713.2747729803809
 20
288.6341861163974
 30
0.0
 10
714.5549853980417
 20
288.2032983414973
 30
0.0
  0
SPLINE
  5
160
330
1F
100
AcDbEntity
  8
0
  6
Continuous
 62
     8
370
    25
100
AcDbSpline
210
0.0
220
0.0
230
1.0
 70
     8
 71
     3
 72
    19
 73
    15
 74
     0
 42
0.000000001
 43
0.00000001
 40
0.0
 40
0.0
 40
0.0
 40
0.0
 40
0.0742720349948048
 40
0.163372459260319
 40
0.2524783483338454
 40
0.3415842471469262
 40
0.4306949540515385
 40
0.5198053272258731
 40
0.6089183675382351
 40
0.6980315080428915
 40
0.7871443698837386
 40
0.8762571681009612
 40
0.9653671997383598
 40
0.9999999999999999
 40
0.9999999999999999
 40
0.9999999999999999
 40
0.9999999999999999
 10
713.409124572442
 20
249.8091487322966
 30
0.0
 10
713.8860880476434
 20
250.2547614299521
 30
0.0
 10
714.9352406112758
 20
251.23495326526
 30
0.0
 10
716.2084869900874
 20
253.0677613869098
 30
0.0
 10
717.2362990698118
 20
255.1836789677496
 30
0.0
 10
717.8936798820348
 20
257.4471087820663
 30
0.0
 10
718.1558769942394
 20
259.7878454052281
 30
0.0
 10
718.0289250313908
 20
262.1403014762898
 30
0.0
 10
717.5011825984091
 20
264.4365315549586
 30
0.0
 10
716.6022003434649
 20
266.6132006711372
 30
0.0
 10
715.3465989729493
 20
268.6095873968666
 30
0.0
 10
713.7683910791906
 20
270.3500549133859
 30
0.0
 10
712.3268739777728
 20
271.566257078541
 30
0.0
 10
711.3647718539032
 20
272.071214973445
 30
0.0
 10
711.0955013824268
 20
272.2125411872253
 30
0.0
  0
SPLINE
  5
161
330
1F
100
AcDbEntity
  8
0
  6
Continuous
 62
     8
370
    25
100
AcDbSpline
210
0.0
220
0.0
230
1.0
 70
     8
 71
     3
 72
    18
 73
    14
 74
     0
 42
0.000000001
 43
0.00000001
 40
0.0
 40
0.0
 40
0.0
 40
0.0
 40
0.0280133239313081
 40
0.1270325238848923
 40
0.2260517687146647
 40
0.3250737965531452
 40
0.4240958716467271
 40
0.5231199260793875
 40
0.6221440094442803
 40
0.7211686730099336
 40
0.820193275802301
 40
0.919217051903001
 40
0.9999999999999999
 40
0.9999999999999999
 40
0.9999999999999999
 40
0.9999999999999999
 10
512.1068433567425
 20
361.8802956751164
 30
0.0
 10
511.8850741835258
 20
361.9546321192657
 30
0.0
 10
510.8794135249526
 20
362.291726929581
 30
0.0
 10
508.9684612601424
 20
362.3814641401651
 30
0.0
 10
506.4951891833691
 20
362.2563410464017
 30
0.0
 10
504.073940719825
 20
361.6633156266956
 30
0.0
 10
501.7848405858267
 20
360.6925502427324
 30
0.0
 10
499.6952372021659
 20
359.3406436004169
 30
0.0
 10
497.857357528223
 20
357.6643389604531
 30
0.0
 10
496.3305558458909
 20
355.6979401799799
 30
0.0
 10
495.1601278145238
 20
353.506345405912
 30
0.0
 10
494.3873404546483
 20
351.2948651313442
 30
0.0
 10
494.2018960183356
 20
349.8044988681092
 30
0.0
 10
494.1185801782837
 20
349.1349122270888
 30
0.0
  0
SPLINE
  5
162
330
1F
100
AcDbEntity
  8
0
  6
Continuous
 62
     8
370
    25
100
AcDbSpline
210
0.0
220
0.0
230
1.0
 70
     8
 71
     3
 72
    18
 73
    14
 74
     0
 42
0.000000001
 43
0.00000001
 40
0.0
 40
0.0
 40
0.0
 40
0.0
 40
0.0803789190253103
 40
0.1798102012074414
 40
0.2792446883494321
 40
0.3786791914306417
 40
0.5027166490084334
 40
0.602153258097307
 40
0.7015899670872796
 40
0.8010271198042775
 40
0.9004639265676333
 40
0.9998996501640395
 40
1.0
 40
1.0
 40
1.0
 40
1.0
 10
514.7913191259868
 20
130.8134778105592
 30
0.0
 10
515.0011794901284
 20
130.1794600895168
 30
0.0
 10
515.470643806884
 20
128.7611422597657
 30
0.0
 10
516.654679567149
 20
126.7500596285316
 30
0.0
 10
518.2270169441671
 20
124.8296465765817
 30
0.0
 10
520.2596435623616
 20
123.0665249948891
 30
0.0
 10
522.5953916487151
 20
121.7148380111236
 30
0.0
 10
525.1371275720979
 20
120.8339835865473
 30
0.0
 10
527.586559428555
 20
120.4213617679505
 30
0.0
 10
530.0767486841855
 20
120.4226842703907
 30
0.0
 10
532.5082800136487
 20
120.8769044366467
 30
0.0
 10
534.1156576778933
 20
121.3453483609542
 30
0.0
 10
534.8376945218367
 20
121.7452212285765
 30
0.0
 10
534.8384224617317
 20
121.7456243706262
 30
0.0
  0
LINE
  5
163
330
1F
100
AcDbEntity
  8
0
  6
Continuous
 62
     7
370
    25
100
AcDbLine
 10
699.7512133636
 20
797.5072900649
 30
0.0
 11
699.7512133636
 21
797.7746466991
 31
0.0
  0
LINE
  5
164
330
1F
100
AcDbEntity
  8
0
  6
Continuous
 62
     7
370
    25
100
AcDbLine
 10
460.4512121818
 20
797.7746466991
 30
0.0
 11
460.4512121818
 21
797.5072900649
 31
0.0
  0
LINE
  5
165
330
1F
100
AcDbEntity
  8
0
  6
Continuous
 62
     7
370
    25
100
AcDbLine
 10
713.6012118879
 20
747.5073079463
 30
0.0
 11
713.5575777054
 21
752.5073031779
 31
0.0
  0
LINE
  5
166
330
1F
100
AcDbEntity
  8
0
  6
Continuous
 62
     7
370
    25
100
AcDbLine
 10
446.64484784
 20
752.5073031779
 30
0.0
 11
446.6012136574
 21
747.5073079463
 31
0.0
  0
LINE
  5
167
330
1F
100
AcDbEntity
  8
0
  6
Continuous
 62
     7
370
    25
100
AcDbLine
 10
706.9939227209
 20
752.5073031779
 30
0.0
 11
706.6012103543
 21
797.5072900649
 31
0.0
  0
LINE
  5
168
330
1F
100
AcDbEntity
  8
0
  6
Continuous
 62
     7
370
    25
100
AcDbLine
 10
453.6012151911
 20
797.5072900649
 30
0.0
 11
453.2085028244
 21
752.5073031779
 31
0.0
  0
LINE
  5
169
330
1F
100
AcDbEntity
  8
0
  6
Continuous
 62
     7
370
    25
100
AcDbLine
 10
476.1185286457
 20
732.5367967483
 30
0.0
 11
476.1767818149
 21
732.5073073503
 31
0.0
  0
LINE
  5
16A
330
1F
100
AcDbEntity
  8
0
  6
Continuous
 62
     7
370
    25
100
AcDbLine
 10
683.9515156426
 20
732.5073073503
 30
0.0
 11
684.0780340976
 21
732.5713525411
 31
0.0
  0
LINE
  5
16B
330
1F
100
AcDbEntity
  8
0
  6
Continuous
 62
     7
370
    25
100
AcDbLine
 10
476.0577503099
 20
737.4872903224
 30
0.0
 11
476.1008790041
 21
732.5455288287
 31
0.0
  0
LINE
  5
16C
330
1F
100
AcDbEntity
  8
0
  6
Continuous
 62
     7
370
    25
100
AcDbLine
 10
684.1018755512
 20
732.5832138654
 30
0.0
 11
684.1283558548
 21
735.6176267263
 31
0.0
  0
LINE
  5
16D
330
1F
100
AcDbEntity
  8
0
  6
Continuous
 62
     7
370
    25
100
AcDbLine
 10
439.5290478782
 20
419.2807639834
 30
0.0
 11
439.5290478782
 21
415.4373968836
 31
0.0
  0
LINE
  5
16E
330
1F
100
AcDbEntity
  8
0
  6
Continuous
 62
     7
370
    25
100
AcDbLine
 10
720.6733776672
 20
415.4373968836
 30
0.0
 11
720.6733776672
 21
421.3944042917
 31
0.0
  0
SPLINE
  5
16F
330
1F
100
AcDbEntity
  8
0
  6
Continuous
 62
     7
370
    25
100
AcDbSpline
210
0.0
220
0.0
230
1.0
 70
     8
 71
     3
 72
    14
 73
    10
 74
     0
 42
0.000000001
 43
0.00000001
 40
0.0
 40
0.0
 40
0.0
 40
0.0
 40
0.1707188938581676
 40
0.3386067088111622
 40
0.4989585856263147
 40
0.6507402725159983
 40
0.7925270557718808
 40
0.9222839920081828
 40
1.0
 40
1.0
 40
1.0
 40
1.0
 10
512.7347287000669
 20
424.8267973657743
 30
0.0
 10
512.2473623861895
 20
424.3831186185167
 30
0.0
 10
511.280711889587
 20
423.5031187720841
 30
0.0
 10
509.7009682189336
 20
422.3953692799307
 30
0.0
 10
508.0955514143774
 20
421.4692411224254
 30
0.0
 10
506.5024726273601
 20
420.7363346463255
 30
0.0
 10
504.9643448303635
 20
420.1861671060675
 30
0.0
 10
503.6655327393756
 20
419.820911462916
 30
0.0
 10
502.8808912197914
 20
419.674649589375
 30
0.0
 10
502.5869772020694
 20
419.6198622580663
 30
0.0
  0
LINE
  5
170
330
1F
100
AcDbEntity
  8
0
  6
Continuous
 62
     7
370
    25
100
AcDbLine
 10
685.4508638855
 20
660.3258962628
 30
0.0
 11
684.3386429709
 21
670.9079931375
 31
0.0
  0
LINE
  5
171
330
1F
100
AcDbEntity
  8
0
  6
Continuous
 62
     7
370
    25
100
AcDbLine
 10
475.8637825745
 20
670.9079931375
 30
0.0
 11
474.7515616598
 21
660.3258962628
 31
0.0
  0
ARC
  5
172
330
1F
100
AcDbEntity
  8
0
  6
Continuous
 62
     7
370
    25
100
AcDbCircle
 10
686.8315145337
 20
672.6922338103
 30
0.0
 40
3.06560636182908
100
AcDbArc
 50
183.0829617511
 51
215.5927115049
  0
ARC
  5
173
330
1F
100
AcDbEntity
  8
0
  6
Continuous
 62
     7
370
    25
100
AcDbCircle
 10
473.3709110116
 20
672.6922338103
 30
0.0
 40
3.065606361829092
100
AcDbArc
 50
324.4072884951
 51
356.9170382489
  0
LINE
  5
174
330
1F
100
AcDbEntity
  8
0
  6
Continuous
 62
     7
370
    25
100
AcDbLine
 10
683.7703421865
 20
672.527361929
 30
0.0
 11
680.539836339
 21
732.5073073503
 31
0.0
  0
LINE
  5
175
330
1F
100
AcDbEntity
  8
0
  6
Continuous
 62
     7
370
    25
100
AcDbLine
 10
479.6625892064
 20
732.5073073503
 30
0.0
 11
476.4320833589
 21
672.527361929
 31
0.0
  0
ARC
  5
176
330
1F
100
AcDbEntity
  8
0
  6
Continuous
 62
     7
370
    25
100
AcDbCircle
 10
543.4743950759
 20
423.3897183688
 30
0.0
 40
1.988034530969736
100
AcDbArc
 50
58.2881489205
 51
90.0002496079
  0
ARC
  5
177
330
1F
100
AcDbEntity
  8
0
  6
Continuous
 62
     7
370
    25
100
AcDbCircle
 10
514.1104035972
 20
423.3895902719
 30
0.0
 40
1.988162628019593
100
AcDbArc
 50
90.0006937088
 51
133.7375002363
  0
ARC
  5
178
330
1F
100
AcDbEntity
  8
0
  6
Continuous
 62
     7
370
    25
100
AcDbCircle
 10
459.8826306648
 20
421.2241403538
 30
0.0
 40
1.988071570576555
100
AcDbArc
 50
282.1726343497
 51
356.9170382489
  0
LINE
  5
179
330
1F
100
AcDbEntity
  8
0
  6
Continuous
 62
     7
370
    25
100
AcDbLine
 10
463.7599557195
 20
456.2479297515
 30
0.0
 11
461.8678216852
 21
421.1172203418
 31
0.0
  0
LINE
  5
17A
330
1F
100
AcDbEntity
  8
0
  6
Continuous
 62
     7
370
    25
100
AcDbLine
 10
469.2557586897
 20
558.2869148698
 30
0.0
 11
464.3729257438
 21
467.628751218
 31
0.0
  0
LINE
  5
17B
330
1F
100
AcDbEntity
  8
0
  6
Continuous
 62
     7
370
    25
100
AcDbLine
 10
464.2219813342
 20
466.8300191756
 30
0.0
 11
463.7599557195
 21
456.2479297515
 31
0.0
  0
ARC
  5
17C
330
1F
100
AcDbEntity
  8
0
  6
Continuous
 62
     7
370
    25
100
AcDbCircle
 10
461.3117584569
 20
467.7936277073
 30
0.0
 40
3.065606361829052
100
AcDbArc
 50
341.6797559906
 51
356.9170382489
  0
LINE
  5
17D
330
1F
100
AcDbEntity
  8
0
  6
Continuous
 62
     7
370
    25
100
AcDbLine
 10
474.7515616598
 20
660.3258962628
 30
0.0
 11
469.8837228754
 21
569.946144044
 31
0.0
  0
ARC
  5
17E
330
1F
100
AcDbEntity
  8
0
  6
Continuous
 62
     7
370
    25
100
AcDbCircle
 10
466.8225549223
 20
570.1110165647
 30
0.0
 40
3.065606361829079
100
AcDbArc
 50
336.0998903689
 51
356.9170382489
  0
LINE
  5
17F
330
1F
100
AcDbEntity
  8
0
  6
Continuous
 62
     7
370
    25
100
AcDbLine
 10
469.6252917604
 20
568.8690061566
 30
0.0
 11
469.2557586897
 21
558.2869148698
 31
0.0
  0
LINE
  5
180
330
1F
100
AcDbEntity
  8
0
  6
Continuous
 62
     7
370
    25
100
AcDbLine
 10
687.3014448941
 20
625.9666795727
 30
0.0
 11
685.4508638855
 21
660.3258962628
 31
0.0
  0
SPLINE
  5
181
330
1F
100
AcDbEntity
  8
0
  6
Continuous
 62
     7
370
    25
100
AcDbSpline
210
0.0
220
0.0
230
1.0
 70
     8
 71
     3
 72
     9
 73
     5
 74
     0
 42
0.000000001
 43
0.00000001
 40
0.0
 40
0.0
 40
0.0
 40
0.0
 40
0.4103743435252469
 40
1.0
 40
1.0
 40
1.0
 40
1.0
 10
692.0572111607993
 20
531.1101263273554
 30
0.0
 10
691.876485709985
 20
534.8194834049428
 30
0.0
 10
691.436094019652
 20
543.858442921084
 30
0.0
 10
690.9933265412274
 20
552.8899781457255
 30
0.0
 10
690.7322594760956
 20
558.2152030315297
 30
0.0
  0
SPLINE
  5
182
330
1F
100
AcDbEntity
  8
0
  6
Continuous
 62
     7
370
    25
100
AcDbSpline
210
0.0
220
0.0
230
1.0
 70
     8
 71
     3
 72
    10
 73
     6
 74
     0
 42
0.000000001
 43
0.00000001
 40
0.0
 40
0.0
 40
0.0
 40
0.0
 40
0.0157862462451269
 40
0.6929470824644376
 40
1.0
 40
1.0
 40
1.0
 40
1.0
 10
690.1567193929435
 20
569.8575640913145
 30
0.0
 10
690.1469471578781
 20
570.0564006272442
 30
0.0
 10
689.717988830954
 20
578.7844538528417
 30
0.0
 10
689.0912098505376
 20
591.3662468257394
 30
0.0
 10
688.4690475936449
 20
603.739305690556
 30
0.0
 10
688.2749467335111
 20
607.599426328768
 30
0.0
  0
ARC
  5
183
330
1F
100
AcDbEntity
  8
0
  6
Continuous
 62
     7
370
    25
100
AcDbCircle
 10
718.0981791394
 20
421.4016888654
 30
0.0
 40
3.976064259173642
100
AcDbArc
 50
60.1557499842
 51
90.0192658328
  0
SPLINE
  5
184
330
1F
100
AcDbEntity
  8
0
  6
Continuous
 62
     7
370
    25
100
AcDbSpline
210
0.0
220
0.0
230
1.0
 70
     8
 71
     3
 72
    12
 73
     8
 74
     0
 42
0.000000001
 43
0.00000001
 40
0.0
 40
0.0
 40
0.0
 40
0.0
 40
0.3345049244421913
 40
0.6749155171662217
 40
0.8509086967246878
 40
0.9625379268362809
 40
1.0
 40
1.0
 40
1.0
 40
1.0
 10
690.3691924046261
 20
568.6044788803952
 30
0.0
 10
690.3364189265216
 20
568.7161665789187
 30
0.0
 10
690.2702933561396
 20
568.9415138168878
 30
0.0
 10
690.1999218811501
 20
569.3509679165377
 30
0.0
 10
690.1610317448501
 20
569.7469436174024
 30
0.0
 10
690.1505903624363
 20
569.9971505752766
 30
0.0
 10
690.150013535098
 20
570.1138394183386
 30
0.0
 10
690.1498685960742
 20
570.1431597467558
 30
0.0
  0
SPLINE
  5
185
330
1F
100
AcDbEntity
  8
0
  6
Continuous
 62
     7
370
    25
100
AcDbSpline
210
0.0
220
0.0
230
1.0
 70
     8
 71
     3
 72
     9
 73
     5
 74
     0
 42
0.000000001
 43
0.00000001
 40
0.0
 40
0.0
 40
0.0
 40
0.0
 40
0.0247477946303159
 40
1.0
 40
1.0
 40
1.0
 40
1.0
 10
690.7306189942302
 20
558.2129417803185
 30
0.0
 10
690.7279307048271
 20
558.2965219810948
 30
0.0
 10
690.6193032718328
 20
561.6738007255201
 30
0.0
 10
690.5097824901634
 20
565.0500580608984
 30
0.0
 10
690.4029721063065
 20
568.3427604731219
 30
0.0
  0
LINE
  5
186
330
1F
100
AcDbEntity
  8
0
  6
Continuous
 62
     7
370
    25
100
AcDbLine
 10
460.4512121818
 20
797.7746466991
 30
0.0
 11
699.7512133636
 21
797.7746466991
 31
0.0
  0
LINE
  5
187
330
1F
100
AcDbEntity
  8
0
  6
Continuous
 62
     7
370
    25
100
AcDbLine
 10
446.6012136574
 20
747.5073079463
 30
0.0
 11
713.6012118879
 21
747.5073079463
 31
0.0
  0
LINE
  5
188
330
1F
100
AcDbEntity
  8
0
  6
Continuous
 62
     7
370
    25
100
AcDbLine
 10
446.64484784
 20
752.5073031779
 30
0.0
 11
713.5575777054
 21
752.5073031779
 31
0.0
  0
LINE
  5
189
330
1F
100
AcDbEntity
  8
0
  6
Continuous
 62
     7
370
    25
100
AcDbLine
 10
453.6013077269
 20
797.5072900649
 30
0.0
 11
706.6012103543
 21
797.5072900649
 31
0.0
  0
LINE
  5
18A
330
1F
100
AcDbEntity
  8
0
  6
Continuous
 62
     7
370
    25
100
AcDbLine
 10
454.0825713608
 20
747.4494318362
 30
0.0
 11
476.0740739775
 21
735.6172243949
 31
0.0
  0
SPLINE
  5
18B
330
1F
100
AcDbEntity
  8
0
  6
Continuous
 62
     7
370
    25
100
AcDbSpline
210
0.0
220
0.0
230
1.0
 70
     8
 71
     3
 72
    13
 73
     9
 74
     0
 42
0.000000001
 43
0.00000001
 40
0.0
 40
0.0
 40
0.0
 40
0.0
 40
0.0127490729100205
 40
0.2131447548588947
 40
0.4135402959816747
 40
0.619757930914364
 40
0.82597544249109
 40
1.0
 40
1.0
 40
1.0
 40
1.0
 10
476.1230401289992
 20
732.5457076426641
 30
0.0
 10
476.115923574033
 20
732.5456081282724
 30
0.0
 10
475.996945796245
 20
732.5439444017599
 30
0.0
 10
476.450145619732
 20
732.5409984308477
 30
0.0
 10
477.5219163698608
 20
732.5366769332784
 30
0.0
 10
479.4365569142024
 20
732.5325228633892
 30
0.0
 10
481.8982166265111
 20
732.5287861849301
 30
0.0
 10
484.0023602422918
 20
732.526532916519
 30
0.0
 10
484.9653590565787
 20
732.5255016680852
 30
0.0
  0
LINE
  5
18C
330
1F
100
AcDbEntity
  8
0
  6
Continuous
 62
     7
370
    25
100
AcDbLine
 10
484.9653590566
 20
732.5255016681
 30
0.0
 11
458.2436036794
 21
747.4102864858
 31
0.0
  0
LINE
  5
18D
330
1F
100
AcDbEntity
  8
0
  6
Continuous
 62
     7
370
    25
100
AcDbLine
 10
458.2436036794
 20
747.4102864858
 30
0.0
 11
460.0392948819
 21
747.4089453813
 31
0.0
  0
LINE
  5
18E
330
1F
100
AcDbEntity
  8
0
  6
Continuous
 62
     7
370
    25
100
AcDbLine
 10
460.0392948819
 20
747.4089453813
 30
0.0
 11
486.6515052137
 21
732.523922145
 31
0.0
  0
SPLINE
  5
18F
330
1F
100
AcDbEntity
  8
0
  6
Continuous
 62
     7
370
    25
100
AcDbSpline
210
0.0
220
0.0
230
1.0
 70
     8
 71
     3
 72
    16
 73
    12
 74
     0
 42
0.000000001
 43
0.00000001
 40
0.0
 40
0.0
 40
0.0
 40
0.0
 40
0.1113009429153446
 40
0.2226018905522987
 40
0.3371363538234091
 40
0.4516708394369912
 40
0.5629717586379941
 40
0.674272722550824
 40
0.7888071966399401
 40
0.9033416355935678
 40
1.0
 40
1.0
 40
1.0
 40
1.0
 10
486.6515052137363
 20
732.5239221449987
 30
0.0
 10
487.9788129776914
 20
732.5228353583817
 30
0.0
 10
490.6334285619087
 20
732.5206617851017
 30
0.0
 10
495.4499880701403
 20
732.5177128022892
 30
0.0
 10
500.8736226433068
 20
732.5150872462945
 30
0.0
 10
506.881092226536
 20
732.512807096718
 30
0.0
 10
513.3486212639126
 20
732.5109267213114
 30
0.0
 10
520.2789338360451
 20
732.5094171961339
 30
0.0
 10
527.7104242045735
 20
732.5083036372612
 30
0.0
 10
535.1668278841771
 20
732.507588898204
 30
0.0
 10
540.2241726150581
 20
732.5074161950685
 30
0.0
 10
542.5388095825548
 20
732.5073371525899
 30
0.0
  0
LINE
  5
190
330
1F
100
AcDbEntity
  8
0
  6
Continuous
 62
     7
370
    25
100
AcDbLine
 10
542.5388095826
 20
732.5073371526
 30
0.0
 11
532.3250059742
 21
747.3922560807
 31
0.0
  0
LINE
  5
191
330
1F
100
AcDbEntity
  8
0
  6
Continuous
 62
     7
370
    25
100
AcDbLine
 10
532.3250059742
 20
747.3922560807
 30
0.0
 11
536.326130226
 21
747.3921964761
 31
0.0
  0
LINE
  5
192
330
1F
100
AcDbEntity
  8
0
  6
Continuous
 62
     7
370
    25
100
AcDbLine
 10
536.326130226
 20
747.3921964761
 30
0.0
 11
546.2958922223
 21
732.5073073503
 31
0.0
  0
LINE
  5
193
330
1F
100
AcDbEntity
  8
0
  6
Continuous
 62
     7
370
    25
100
AcDbLine
 10
546.2958922223
 20
732.5073073503
 30
0.0
 11
476.1767818149
 21
732.5073073503
 31
0.0
  0
LINE
  5
194
330
1F
100
AcDbEntity
  8
0
  6
Continuous
 62
     7
370
    25
100
AcDbLine
 10
546.2958922223
 20
732.5073073503
 30
0.0
 11
546.3748065736
 21
747.5073079463
 31
0.0
  0
LINE
  5
195
330
1F
100
AcDbEntity
  8
0
  6
Continuous
 62
     7
370
    25
100
AcDbLine
 10
536.3267310676
 20
747.5073079463
 30
0.0
 11
536.326130226
 21
747.3921964761
 31
0.0
  0
LINE
  5
196
330
1F
100
AcDbEntity
  8
0
  6
Continuous
 62
     7
370
    25
100
AcDbLine
 10
532.3237258692
 20
747.5073079463
 30
0.0
 11
532.3250059742
 21
747.3922560807
 31
0.0
  0
SPLINE
  5
197
330
1F
100
AcDbEntity
  8
0
  6
Continuous
 62
     7
370
    25
100
AcDbSpline
210
0.0
220
0.0
230
1.0
 70
     8
 71
     3
 72
    10
 73
     6
 74
     0
 42
0.000000001
 43
0.00000001
 40
0.0
 40
0.0
 40
0.0
 40
0.0
 40
0.3375865223939754
 40
0.6771146939268525
 40
1.0
 40
1.0
 40
1.0
 40
1.0
 10
599.9753307663856
 20
732.5151006575719
 30
0.0
 10
602.5319854857212
 20
732.5158509339711
 30
0.0
 10
607.6599996774113
 20
732.5173558020289
 30
0.0
 10
615.0637212813444
 20
732.5199279321373
 30
0.0
 10
619.8046333599301
 20
732.521811789158
 30
0.0
 10
622.1155326687608
 20
732.5227300521033
 30
0.0
  0
LINE
  5
198
330
1F
100
AcDbEntity
  8
0
  6
Continuous
 62
     7
370
    25
100
AcDbLine
 10
622.1155326688
 20
732.5227300521
 30
0.0
 11
634.3927952181
 21
747.4077681895
 31
0.0
  0
LINE
  5
199
330
1F
100
AcDbEntity
  8
0
  6
Continuous
 62
     7
370
    25
100
AcDbLine
 10
634.3927952181
 20
747.4077681895
 30
0.0
 11
638.2559367753
 21
747.4090198871
 31
0.0
  0
LINE
  5
19A
330
1F
100
AcDbEntity
  8
0
  6
Continuous
 62
     7
370
    25
100
AcDbLine
 10
638.2559367753
 20
747.4090198871
 30
0.0
 11
625.7431081204
 21
732.5242648717
 31
0.0
  0
SPLINE
  5
19B
330
1F
100
AcDbEntity
  8
0
  6
Continuous
 62
     7
370
    25
100
AcDbSpline
210
0.0
220
0.0
230
1.0
 70
     8
 71
     3
 72
    16
 73
    12
 74
     0
 42
0.000000001
 43
0.00000001
 40
0.0
 40
0.0
 40
0.0
 40
0.0
 40
0.1113013530551128
 40
0.2226027010608451
 40
0.3371376073129776
 40
0.4516725055582463
 40
0.5629738820578214
 40
0.6742752230803783
 40
0.7888100690437969
 40
0.9033450339053994
 40
1.0
 40
1.0
 40
1.0
 40
1.0
 10
625.7431081203513
 20
732.5242648717061
 30
0.0
 10
628.3021713551827
 20
732.525419135565
 30
0.0
 10
633.4202977087494
 20
732.5277276632305
 30
0.0
 10
640.7162353508319
 20
732.5315504142912
 30
0.0
 10
647.6706702840635
 20
732.5356443193435
 30
0.0
 10
654.1320621486974
 20
732.5399453078792
 30
0.0
 10
660.00574044152
 20
732.5443750974855
 30
0.0
 10
665.3278520784932
 20
732.5489335757889
 30
0.0
 10
670.0772471555542
 20
732.5536694149798
 30
0.0
 10
674.0458070652669
 20
732.558260340055
 30
0.0
 10
676.1281764998577
 20
732.5612719459649
 30
0.0
 10
677.0812112690132
 20
732.5626502629415
 30
0.0
  0
LINE
  5
19C
330
1F
100
AcDbEntity
  8
0
  6
Continuous
 62
     7
370
    25
100
AcDbLine
 10
677.081211269
 20
732.5626502629
 30
0.0
 11
704.6576832984
 21
747.447748005
 31
0.0
  0
LINE
  5
19D
330
1F
100
AcDbEntity
  8
0
  6
Continuous
 62
     7
370
    25
100
AcDbLine
 10
704.6576832984
 20
747.447748005
 30
0.0
 11
706.1198541846
 21
747.4495510455
 31
0.0
  0
LINE
  5
19E
330
1F
100
AcDbEntity
  8
0
  6
Continuous
 62
     7
370
    25
100
AcDbLine
 10
706.1198541846
 20
747.4495510455
 30
0.0
 11
678.4542782543
 21
732.5648407336
 31
0.0
  0
SPLINE
  5
19F
330
1F
100
AcDbEntity
  8
0
  6
Continuous
 62
     7
370
    25
100
AcDbSpline
210
0.0
220
0.0
230
1.0
 70
     8
 71
     3
 72
    11
 73
     7
 74
     0
 42
0.000000001
 43
0.00000001
 40
0.0
 40
0.0
 40
0.0
 40
0.0
 40
0.2518973661093185
 40
0.5037949658461097
 40
0.7630105702246388
 40
1.0
 40
1.0
 40
1.0
 40
1.0
 10
678.4542782542583
 20
732.564840733637
 30
0.0
 10
679.3261562806474
 20
732.5664267378512
 30
0.0
 10
681.0699131420673
 20
732.5695987477508
 30
0.0
 10
682.8096315440325
 20
732.5743753219111
 30
0.0
 10
683.9120532811953
 20
732.5789884402191
 30
0.0
 10
684.0202639723065
 20
732.5819590185461
 30
0.0
 10
684.0719458139181
 20
732.5833777781622
 30
0.0
  0
LINE
  5
1A0
330
1F
100
AcDbEntity
  8
0
  6
Continuous
 62
     7
370
    25
100
AcDbLine
 10
683.9515156426
 20
732.5073073503
 30
0.0
 11
599.9754890559
 21
732.5073073503
 31
0.0
  0
LINE
  5
1A1
330
1F
100
AcDbEntity
  8
0
  6
Continuous
 62
     7
370
    25
100
AcDbLine
 10
599.9754890559
 20
732.5073073503
 30
0.0
 11
599.9753307664
 21
732.5151006576
 31
0.0
  0
LINE
  5
1A2
330
1F
100
AcDbEntity
  8
0
  6
Continuous
 62
     7
370
    25
100
AcDbLine
 10
638.2570663423
 20
747.5073079463
 30
0.0
 11
638.2559367753
 21
747.4090198871
 31
0.0
  0
LINE
  5
1A3
330
1F
100
AcDbEntity
  8
0
  6
Continuous
 62
     7
370
    25
100
AcDbLine
 10
634.3923680338
 20
747.5073079463
 30
0.0
 11
634.3927952181
 21
747.4077681895
 31
0.0
  0
LINE
  5
1A4
330
1F
100
AcDbEntity
  8
0
  6
Continuous
 62
     7
370
    25
100
AcDbLine
 10
622.0509844612
 20
747.5073079463
 30
0.0
 11
622.1155326688
 21
732.5227300521
 31
0.0
  0
ELLIPSE
  5
1A5
330
1F
100
AcDbEntity
  8
0
  6
Continuous
 62
     7
370
    25
100
AcDbEllipse
 10
579.9741387059
 20
727.5073043795
 30
0.0
 11
-3.472686766300058
 21
3.597355358555546
 31
0.0
210
0.0
220
0.0
230
1.0
 40
0.9999784835
 41
0.0
 42
6.283185307179586
  0
LINE
  5
1A6
330
1F
100
AcDbEntity
  8
0
  6
Continuous
 62
     7
370
    25
100
AcDbLine
 10
594.4506906099
 20
717.5073067542
 30
0.0
 11
594.9736971201
 21
747.5073079463
 31
0.0
  0
LINE
  5
1A7
330
1F
100
AcDbEntity
  8
0
  6
Continuous
 62
     7
370
    25
100
AcDbLine
 10
594.4506906099
 20
717.5073067542
 30
0.0
 11
565.4980182803
 21
717.5073067542
 31
0.0
  0
LINE
  5
1A8
330
1F
100
AcDbEntity
  8
0
  6
Continuous
 62
     7
370
    25
100
AcDbLine
 10
565.4980182803
 20
717.5073067542
 30
0.0
 11
564.9737176022
 21
747.5073079463
 31
0.0
  0
LINE
  5
1A9
330
1F
100
AcDbEntity
  8
0
  6
Continuous
 62
     7
370
    25
100
AcDbLine
 10
594.4530975505
 20
717.5073067542
 30
0.0
 11
594.9773950024
 21
747.5073079463
 31
0.0
  0
LINE
  5
1AA
330
1F
100
AcDbEntity
  8
0
  6
Continuous
 62
     7
370
    25
100
AcDbLine
 10
594.4530975505
 20
717.5073067542
 30
0.0
 11
594.4506906099
 21
717.5073067542
 31
0.0
  0
ELLIPSE
  5
1AB
330
1F
100
AcDbEntity
  8
0
  6
Continuous
 62
     7
370
    25
100
AcDbEllipse
 10
579.9769743453
 20
727.5073043795
 30
0.0
 11
3.472686766300057
 21
3.597355358555433
 31
0.0
210
0.0
220
0.0
230
1.0
 40
0.9999784835
 41
0.7677558798203732
 42
3.909348533410226
  0
ELLIPSE
  5
1AC
330
1F
100
AcDbEntity
  8
0
  6
Continuous
 62
     7
370
    25
100
AcDbEllipse
 10
504.1114241636
 20
6231.7619142218
 30
0.0
 11
-151.9911526384804
 21
8707.5739073234
 31
0.0
210
0.0
220
0.0
230
1.0
 40
0.0000186172
 41
2.252124907609234
 42
2.25434354263807
  0
LINE
  5
1AD
330
1F
100
AcDbEntity
  8
0
  6
Continuous
 62
     7
370
    25
100
AcDbLine
 10
559.9799718205
 20
732.5073073503
 30
0.0
 11
559.9755019754
 21
732.5073073503
 31
0.0
  0
LINE
  5
1AE
330
1F
100
AcDbEntity
  8
0
  6
Continuous
 62
     7
370
    25
100
AcDbLine
 10
559.9755070572
 20
732.5078735944
 30
0.0
 11
559.9755019754
 21
732.5073073503
 31
0.0
  0
ELLIPSE
  5
1AF
330
1F
100
AcDbEntity
  8
0
  6
Continuous
 62
     7
370
    25
100
AcDbEllipse
 10
656.0910013818
 20
6231.7619142218
 30
0.0
 11
151.9911526092448
 21
8707.57390564956
 31
0.0
210
0.0
220
0.0
230
1.0
 40
0.0000186172
 41
2.25212555763975
 42
2.254345263454019
  0
SPLINE
  5
1B0
330
1F
100
AcDbEntity
  8
0
  6
Continuous
 62
     7
370
    25
100
AcDbSpline
210
0.0
220
0.0
230
1.0
 70
     8
 71
     3
 72
     9
 73
     5
 74
     0
 42
0.000000001
 43
0.00000001
 40
0.0
 40
0.0
 40
0.0
 40
0.0
 40
0.4988379606899534
 40
1.0
 40
1.0
 40
1.0
 40
1.0
 10
546.2958922222927
 20
732.5073073502675
 30
0.0
 10
548.5391887154602
 20
732.5073348818743
 30
0.0
 10
553.0362331867047
 20
732.5073900733572
 30
0.0
 10
557.6588346705967
 20
732.5077121711874
 30
0.0
 10
559.9755070571815
 20
732.5078735943929
 30
0.0
  0
LINE
  5
1B1
330
1F
100
AcDbEntity
  8
0
  6
Continuous
 62
     7
370
    25
100
AcDbLine
 10
559.9755019754
 20
732.5073073503
 30
0.0
 11
546.2958922223
 21
732.5073073503
 31
0.0
  0
LINE
  5
1B2
330
1F
100
AcDbEntity
  8
0
  6
Continuous
 62
     7
370
    25
100
AcDbLine
 10
486.6515052137
 20
732.523922145
 30
0.0
 11
486.5903748855
 21
747.5073079463
 31
0.0
  0
LINE
  5
1B3
330
1F
100
AcDbEntity
  8
0
  6
Continuous
 62
     7
370
    25
100
AcDbLine
 10
677.1565459133
 20
747.5073079463
 30
0.0
 11
677.081211269
 21
732.5626502629
 31
0.0
  0
LINE
  5
1B4
330
1F
100
AcDbEntity
  8
0
  6
Continuous
 62
     7
370
    25
100
AcDbLine
 10
460.0388974486
 20
747.5073079463
 30
0.0
 11
460.0392948819
 21
747.4089453813
 31
0.0
  0
LINE
  5
1B5
330
1F
100
AcDbEntity
  8
0
  6
Continuous
 62
     7
370
    25
100
AcDbLine
 10
458.242486859
 20
747.5073079463
 30
0.0
 11
458.2436036794
 21
747.4102864858
 31
0.0
  0
LINE
  5
1B6
330
1F
100
AcDbEntity
  8
0
  6
Continuous
 62
     7
370
    25
100
AcDbLine
 10
706.1204969642
 20
747.5073079463
 30
0.0
 11
706.1198541846
 21
747.4495510455
 31
0.0
  0
LINE
  5
1B7
330
1F
100
AcDbEntity
  8
0
  6
Continuous
 62
     7
370
    25
100
AcDbLine
 10
704.6579903053
 20
747.5073079463
 30
0.0
 11
704.6576832984
 21
747.447748005
 31
0.0
  0
SPLINE
  5
1B8
330
1F
100
AcDbEntity
  8
0
  6
Continuous
 62
     7
370
    25
100
AcDbSpline
210
0.0
220
0.0
230
1.0
 70
     8
 71
     3
 72
     9
 73
     5
 74
     0
 42
0.000000001
 43
0.00000001
 40
0.0
 40
0.0
 40
0.0
 40
0.0
 40
0.3339186493354105
 40
0.9999999999999999
 40
0.9999999999999999
 40
0.9999999999999999
 40
0.9999999999999999
 10
720.0645734181303
 20
424.8293752666608
 30
0.0
 10
720.1030910624645
 20
424.8147887379419
 30
0.0
 10
720.2184414461906
 20
424.7711058566533
 30
0.0
 10
720.3014721016139
 20
424.5281187252062
 30
0.0
 10
720.3567772727248
 20
424.3662695284978
 30
0.0
  0
LINE
  5
1B9
330
1F
100
AcDbEntity
  8
0
  6
Continuous
 62
     7
370
    25
100
AcDbLine
 10
439.5290478782
 20
419.2807639834
 30
0.0
 11
499.0648701634
 21
419.2807639834
 31
0.0
  0
SPLINE
  5
1BA
330
1F
100
AcDbEntity
  8
0
  6
Continuous
 62
     7
370
    25
100
AcDbSpline
210
0.0
220
0.0
230
1.0
 70
     8
 71
     3
 72
    18
 73
    14
 74
     0
 42
0.000000001
 43
0.00000001
 40
0.0
 40
0.0
 40
0.0
 40
0.0
 40
0.0774284539640779
 40
0.1549160247440083
 40
0.234406465098679
 40
0.3139363503647072
 40
0.4326316709023023
 40
0.4939731739348133
 40
0.5553039206673102
 40
0.6661920610042038
 40
0.7774104810140076
 40
0.8888312561172304
 40
1.0
 40
1.0
 40
1.0
 40
1.0
 10
546.0927598776672
 20
419.2807639833585
 30
0.0
 10
544.7702155767048
 20
419.3287210635928
 30
0.0
 10
542.1241172089397
 20
419.4246718394104
 30
0.0
 10
538.205777361652
 20
420.0993962907008
 30
0.0
 10
534.3462891739081
 20
421.0567143553512
 30
0.0
 10
529.9024491615879
 20
422.3397780765995
 30
0.0
 10
525.7622243168249
 20
423.4421601301003
 30
0.0
 10
521.8683060218472
 20
423.772217971769
 30
0.0
 10
518.1331206236508
 20
423.5594709659851
 30
0.0
 10
513.7650682044346
 20
422.4717037948067
 30
0.0
 10
508.8379850085412
 20
420.8714029565606
 30
0.0
 10
503.917908908525
 20
419.5858717221038
 30
0.0
 10
500.6813281850493
 20
419.3823897641668
 30
0.0
 10
499.064870163382
 20
419.2807639833585
 30
0.0
  0
LINE
  5
1BB
330
1F
100
AcDbEntity
  8
0
  6
Continuous
 62
     7
370
    25
100
AcDbLine
 10
546.0927598777
 20
419.2807639834
 30
0.0
 11
720.1389871243
 21
419.2807639834
 31
0.0
  0
SPLINE
  5
1BC
330
1F
100
AcDbEntity
  8
0
  6
Continuous
 62
     7
370
    25
100
AcDbSpline
210
0.0
220
0.0
230
1.0
 70
     8
 71
     3
 72
    11
 73
     7
 74
     0
 42
0.000000001
 43
0.00000001
 40
0.0
 40
0.0
 40
0.0
 40
0.0
 40
0.248599077875982
 40
0.4973826867571197
 40
0.7489497178360787
 40
0.9999999999999999
 40
0.9999999999999999
 40
0.9999999999999999
 40
0.9999999999999999
 10
720.3567772727248
 20
424.3662695284978
 30
0.0
 10
720.457178677416
 20
423.8376263067331
 30
0.0
 10
720.658056013109
 20
422.779947460038
 30
0.0
 10
720.6971260252172
 20
420.9152940638901
 30
0.0
 10
720.5630905885845
 20
419.5878558970198
 30
0.0
 10
720.2802580174662
 20
419.3830577691664
 30
0.0
 10
720.1389871242567
 20
419.2807639833585
 30
0.0
  0
LINE
  5
1BD
330
1F
100
AcDbEntity
  8
0
  6
Continuous
 62
     7
370
    25
100
AcDbLine
 10
439.5290478782
 20
415.4373968836
 30
0.0
 11
720.6733776672
 21
415.4373968836
 31
0.0
  0
SPLINE
  5
1BE
330
1F
100
AcDbEntity
  8
0
  6
Continuous
 62
     7
370
    25
100
AcDbSpline
210
0.0
220
0.0
230
1.0
 70
     8
 71
     3
 72
    11
 73
     7
 74
     0
 42
0.000000001
 43
0.00000001
 40
0.0
 40
0.0
 40
0.0
 40
0.0
 40
0.2707415435561676
 40
0.4784089439219975
 40
0.691044309501145
 40
0.9999999999999999
 40
0.9999999999999999
 40
0.9999999999999999
 40
0.9999999999999999
 10
556.0336205133056
 20
419.3412254449025
 30
0.0
 10
554.8405259645472
 20
419.5349385579316
 30
0.0
 10
552.7322898380431
 20
419.8772358079611
 30
0.0
 10
549.9942638847119
 20
421.0127203762665
 30
0.0
 10
547.3490862394916
 20
422.5393298461963
 30
0.0
 10
545.7774465770083
 20
423.9706120615525
 30
0.0
 10
544.8465122531167
 20
424.8184080120221
 30
0.0
  0
LINE
  5
1BF
330
1F
100
AcDbEntity
  8
0
  6
Continuous
 62
     7
370
    25
100
AcDbLine
 10
687.0481262519
 20
419.2319254275
 30
0.0
 11
685.3094383668
 21
456.2479297515
 31
0.0
  0
LINE
  5
1C0
330
1F
100
AcDbEntity
  8
0
  6
Continuous
 62
     7
370
    25
100
AcDbLine
 10
677.0728285777
 20
660.3258962628
 30
0.0
 11
685.4508638855
 21
660.3258962628
 31
0.0
  0
ELLIPSE
  5
1C1
330
1F
100
AcDbEntity
  8
0
  6
Continuous
 62
     7
370
    25
100
AcDbEllipse
 10
623.7840756166
 20
1123.1711224824
 30
0.0
 11
-51.83198139860951
 21
454.9994807335493
 31
0.0
210
0.0
220
0.0
230
1.0
 40
0.0269021326
 41
3.09142106563569
 42
3.185635063246581
  0
LINE
  5
1C2
330
1F
100
AcDbEntity
  8
0
  6
Continuous
 62
     7
370
    25
100
AcDbLine
 10
675.720196078
 20
660.3258962628
 30
0.0
 11
674.9369694597
 21
668.6742494699
 31
0.0
  0
LINE
  5
1C3
330
1F
100
AcDbEntity
  8
0
  6
Continuous
 62
     7
370
    25
100
AcDbLine
 10
592.5541759654
 20
660.3258962628
 30
0.0
 11
675.720196078
 21
660.3258962628
 31
0.0
  0
ELLIPSE
  5
1C4
330
1F
100
AcDbEntity
  8
0
  6
Continuous
 62
     7
370
    25
100
AcDbEllipse
 10
585.0871937171
 20
1123.1711224824
 30
0.0
 11
-5.938142674911319
 21
455.0014455715045
 31
0.0
210
0.0
220
0.0
230
1.0
 40
0.0665822787
 41
3.093616701564559
 42
3.187830699175142
  0
LINE
  5
1C5
330
1F
100
AcDbEntity
  8
0
  6
Continuous
 62
     7
370
    25
100
AcDbLine
 10
589.6135804532
 20
660.3258962628
 30
0.0
 11
589.5656281143
 21
668.6742494699
 31
0.0
  0
LINE
  5
1C6
330
1F
100
AcDbEntity
  8
0
  6
Continuous
 62
     7
370
    25
100
AcDbLine
 10
495.7318638417
 20
660.3258962628
 30
0.0
 11
589.6135804532
 21
660.3258962628
 31
0.0
  0
LINE
  5
1C7
330
1F
100
AcDbEntity
  8
0
  6
Continuous
 62
     7
370
    25
100
AcDbLine
 10
495.7318638417
 20
660.3258962628
 30
0.0
 11
496.4157680512
 21
668.6742494699
 31
0.0
  0
ELLIPSE
  5
1C8
330
1F
100
AcDbEntity
  8
0
  6
Continuous
 62
     7
370
    25
100
AcDbEllipse
 10
541.4043308731
 20
1123.1711224824
 30
0.0
 11
45.95246563515252
 21
454.998097691366
 31
0.0
210
0.0
220
0.0
230
1.0
 40
0.0389459453
 41
3.098418974494549
 42
3.192632972105283
  0
LINE
  5
1C9
330
1F
100
AcDbEntity
  8
0
  6
Continuous
 62
     7
370
    25
100
AcDbLine
 10
474.7515616598
 20
660.3258962628
 30
0.0
 11
493.8623359839
 21
660.3258962628
 31
0.0
  0
LINE
  5
1CA
330
1F
100
AcDbEntity
  8
0
  6
Continuous
 62
     7
370
    25
100
AcDbLine
 10
537.6783207187
 20
670.9079931375
 30
0.0
 11
684.3386429709
 21
670.9079931375
 31
0.0
  0
LINE
  5
1CB
330
1F
100
AcDbEntity
  8
0
  6
Continuous
 62
     7
370
    25
100
AcDbLine
 10
475.8637825745
 20
670.9079931375
 30
0.0
 11
537.6783207187
 21
670.9079931375
 31
0.0
  0
LINE
  5
1CC
330
1F
100
AcDbEntity
  8
0
  6
Continuous
 62
     7
370
    25
100
AcDbLine
 10
596.0929315417
 20
466.8300191756
 30
0.0
 11
684.9109605848
 21
466.8300191756
 31
0.0
  0
LINE
  5
1CD
330
1F
100
AcDbEntity
  8
0
  6
Continuous
 62
     7
370
    25
100
AcDbLine
 10
685.3094383668
 20
456.2479297515
 30
0.0
 11
684.9109605848
 21
466.8300191756
 31
0.0
  0
LINE
  5
1CE
330
1F
100
AcDbEntity
  8
0
  6
Continuous
 62
     7
370
    25
100
AcDbLine
 10
684.774827102
 20
467.628751218
 30
0.0
 11
684.9109605848
 21
466.8300191756
 31
0.0
  0
LINE
  5
1CF
330
1F
100
AcDbEntity
  8
0
  6
Continuous
 62
     7
370
    25
100
AcDbLine
 10
594.4283738422
 20
558.2869148698
 30
0.0
 11
680.5155959846
 21
558.2869148698
 31
0.0
  0
LINE
  5
1D0
330
1F
100
AcDbEntity
  8
0
  6
Continuous
 62
     7
370
    25
100
AcDbLine
 10
684.774827102
 20
467.628751218
 30
0.0
 11
680.5155959846
 21
558.2869148698
 31
0.0
  0
LINE
  5
1D1
330
1F
100
AcDbEntity
  8
0
  6
Continuous
 62
     7
370
    25
100
AcDbLine
 10
589.5656281143
 20
668.6742494699
 30
0.0
 11
591.5072703084
 21
419.2807639834
 31
0.0
  0
LINE
  5
1D2
330
1F
100
AcDbEntity
  8
0
  6
Continuous
 62
     7
370
    25
100
AcDbLine
 10
592.4192749018
 20
668.6742494699
 30
0.0
 11
596.9583487482
 21
419.2807639834
 31
0.0
  0
LINE
  5
1D3
330
1F
100
AcDbEntity
  8
0
  6
Continuous
 62
     7
370
    25
100
AcDbLine
 10
589.6950059756
 20
456.2479297515
 30
0.0
 11
589.7020557014
 21
466.8300191756
 31
0.0
  0
LINE
  5
1D4
330
1F
100
AcDbEntity
  8
0
  6
Continuous
 62
     7
370
    25
100
AcDbLine
 10
589.6904816149
 20
467.628751218
 30
0.0
 11
589.7020557014
 21
466.8300191756
 31
0.0
  0
LINE
  5
1D5
330
1F
100
AcDbEntity
  8
0
  6
Continuous
 62
     7
370
    25
100
AcDbLine
 10
589.6904816149
 20
467.628751218
 30
0.0
 11
589.6543808579
 21
558.2869148698
 31
0.0
  0
LINE
  5
1D6
330
1F
100
AcDbEntity
  8
0
  6
Continuous
 62
     7
370
    25
100
AcDbLine
 10
589.6543808579
 20
558.2869148698
 30
0.0
 11
589.6710582305
 21
568.8690061566
 31
0.0
  0
LINE
  5
1D7
330
1F
100
AcDbEntity
  8
0
  6
Continuous
 62
     7
370
    25
100
AcDbLine
 10
589.649730989
 20
569.946144044
 30
0.0
 11
589.6710582305
 21
568.8690061566
 31
0.0
  0
LINE
  5
1D8
330
1F
100
AcDbEntity
  8
0
  6
Continuous
 62
     7
370
    25
100
AcDbLine
 10
589.649730989
 20
569.946144044
 30
0.0
 11
589.6135804532
 21
660.3258962628
 31
0.0
  0
SPLINE
  5
1D9
330
1F
100
AcDbEntity
  8
0
  6
Continuous
 62
     7
370
    25
100
AcDbSpline
210
0.0
220
0.0
230
1.0
 70
     8
 71
     3
 72
    12
 73
     8
 74
     0
 42
0.000000001
 43
0.00000001
 40
0.0
 40
0.0
 40
0.0
 40
0.0
 40
0.2219052187260432
 40
0.4438079024257895
 40
0.6657279239808466
 40
0.8876967293151726
 40
0.9999999999999999
 40
0.9999999999999999
 40
0.9999999999999999
 40
0.9999999999999999
 10
589.7089515664833
 20
421.1172203417913
 30
0.0
 10
589.7113349052785
 20
420.8952663236959
 30
0.0
 10
589.7161015556419
 20
420.4513608230889
 30
0.0
 10
589.7521080880258
 20
419.8750954168802
 30
0.0
 10
589.8049438543727
 20
419.4528561499874
 30
0.0
 10
589.8600306115957
 20
419.2580427582346
 30
0.0
 10
589.8949064670012
 20
419.2415996782878
 30
0.0
 10
589.9066234870903
 20
419.2360754009381
 30
0.0
  0
LINE
  5
1DA
330
1F
100
AcDbEntity
  8
0
  6
Continuous
 62
     7
370
    25
100
AcDbLine
 10
589.7089515665
 20
421.1172203418
 30
0.0
 11
589.6950059756
 21
456.2479297515
 31
0.0
  0
SPLINE
  5
1DB
330
1F
100
AcDbEntity
  8
0
  6
Continuous
 62
     7
370
    25
100
AcDbSpline
210
0.0
220
0.0
230
1.0
 70
    24
 71
     3
 72
    26
 73
    22
 74
     0
 42
0.000000001
 43
0.00000001
 40
0.0
 40
0.0
 40
0.0
 40
0.0
 40
0.0306150122528142
 40
0.085047510183767
 40
0.1379475243799475
 40
0.1923816893413014
 40
0.2452834328427785
 40
0.2997192291469316
 40
0.3666638991295298
 40
0.4195667907348941
 40
0.4740037915047734
 40
0.5269067405787262
 40
0.581344029407605
 40
0.6342464014344007
 40
0.6886831807956666
 40
0.7415842220767811
 40
0.7960194909880195
 40
0.8489189635953
 40
0.9033524101276245
 40
0.9562503341750542
 40
1.0
 40
1.0
 40
1.0
 40
1.0
 10
514.1598165342082
 20
425.3777528997556
 30
0.0
 10
514.1532614525046
 20
425.3777528997556
 30
0.0
 10
514.1350516483296
 20
425.3777528997556
 30
0.0
 10
514.5663579492038
 20
425.3777528997556
 30
0.0
 10
515.406523249427
 20
425.3777528997556
 30
0.0
 10
516.6359301252111
 20
425.3777528997556
 30
0.0
 10
518.2183358883505
 20
425.3777528997556
 30
0.0
 10
520.2493233156017
 20
425.3777528997556
 30
0.0
 10
522.5855297459611
 20
425.3777528997556
 30
0.0
 10
525.1244967287546
 20
425.3777528997556
 30
0.0
 10
527.5642368835158
 20
425.3777528997556
 30
0.0
 10
530.0610633011478
 20
425.3777528997556
 30
0.0
 10
532.4995524859256
 20
425.3777528997556
 30
0.0
 10
534.8545380018988
 20
425.3777528997556
 30
0.0
 10
537.0168808367577
 20
425.3777528997555
 30
0.0
 10
538.9646155206973
 20
425.3777528997556
 30
0.0
 10
540.606375892703
 20
425.3777528997556
 30
0.0
 10
541.9295546183862
 20
425.3777528997556
 30
0.0
 10
542.8569899296166
 20
425.3777528997556
 30
0.0
 10
543.4000972224688
 20
425.3777528997555
 30
0.0
 10
543.4279346057962
 20
425.3777528997556
 30
0.0
 10
543.4405358120924
 20
425.3777528997556
 30
0.0
  0
LINE
  5
1DC
330
1F
100
AcDbEntity
  8
0
  6
Continuous
 62
     7
370
    25
100
AcDbLine
 10
544.5111971482
 20
425.0679205056
 30
0.0
 11
544.4070661316
 21
425.1124600764
 31
0.0
  0
LINE
  5
1DD
330
1F
100
AcDbEntity
  8
0
  6
Continuous
 62
     7
370
    25
100
AcDbLine
 10
594.2357733161
 20
568.8690061566
 30
0.0
 11
680.2014515552
 21
568.8690061566
 31
0.0
  0
LINE
  5
1DE
330
1F
100
AcDbEntity
  8
0
  6
Continuous
 62
     7
370
    25
100
AcDbLine
 10
680.5155959846
 20
558.2869148698
 30
0.0
 11
680.2014515552
 21
568.8690061566
 31
0.0
  0
LINE
  5
1DF
330
1F
100
AcDbEntity
  8
0
  6
Continuous
 62
     7
370
    25
100
AcDbLine
 10
679.9677435308
 20
569.946144044
 30
0.0
 11
680.2014515552
 21
568.8690061566
 31
0.0
  0
LINE
  5
1E0
330
1F
100
AcDbEntity
  8
0
  6
Continuous
 62
     7
370
    25
100
AcDbLine
 10
679.9677435308
 20
569.946144044
 30
0.0
 11
675.720196078
 21
660.3258962628
 31
0.0
  0
LINE
  5
1E1
330
1F
100
AcDbEntity
  8
0
  6
Continuous
 62
     7
370
    25
100
AcDbLine
 10
558.4022266122
 20
421.1172203418
 30
0.0
 11
589.7089515665
 21
421.1172203418
 31
0.0
  0
LINE
  5
1E2
330
1F
100
AcDbEntity
  8
0
  6
Continuous
 62
     7
370
    25
100
AcDbLine
 10
555.6320301492
 20
456.2479297515
 30
0.0
 11
589.6950059756
 21
456.2479297515
 31
0.0
  0
LINE
  5
1E3
330
1F
100
AcDbEntity
  8
0
  6
Continuous
 62
     7
370
    25
100
AcDbLine
 10
556.6284107838
 20
421.2118576165
 30
0.0
 11
558.4022266122
 21
421.1172203418
 31
0.0
  0
SPLINE
  5
1E4
330
1F
100
AcDbEntity
  8
0
  6
Continuous
 62
     7
370
    25
100
AcDbSpline
210
0.0
220
0.0
230
1.0
 70
     8
 71
     3
 72
     9
 73
     5
 74
     0
 42
0.000000001
 43
0.00000001
 40
0.0
 40
0.0
 40
0.0
 40
0.0
 40
0.5227090841805598
 40
1.0
 40
1.0
 40
1.0
 40
1.0
 10
555.6320301492344
 20
456.247929751505
 30
0.0
 10
555.8202795091848
 20
450.1440392696671
 30
0.0
 10
556.18042125083
 20
438.4666250701283
 30
0.0
 10
556.4836719701938
 20
426.7866186009733
 30
0.0
 10
556.6284107837618
 20
421.2118576165334
 30
0.0
  0
LINE
  5
1E5
330
1F
100
AcDbEntity
  8
0
  6
Continuous
 62
     7
370
    25
100
AcDbLine
 10
556.3318279752
 20
466.8300191756
 30
0.0
 11
589.7020557014
 21
466.8300191756
 31
0.0
  0
LINE
  5
1E6
330
1F
100
AcDbEntity
  8
0
  6
Continuous
 62
     7
370
    25
100
AcDbLine
 10
555.6244014868
 20
456.2478030916
 30
0.0
 11
555.6320301492
 21
456.2479297515
 31
0.0
  0
SPLINE
  5
1E7
330
1F
100
AcDbEntity
  8
0
  6
Continuous
 62
     7
370
    25
100
AcDbSpline
210
0.0
220
0.0
230
1.0
 70
     8
 71
     3
 72
    10
 73
     6
 74
     0
 42
0.000000001
 43
0.00000001
 40
0.0
 40
0.0
 40
0.0
 40
0.0
 40
0.4931152122550908
 40
0.9999879609407759
 40
1.0
 40
1.0
 40
1.0
 40
1.0
 10
555.3732891805274
 20
466.7706753011838
 30
0.0
 10
555.4169276802448
 20
465.0411007136938
 30
0.0
 10
555.5054221603716
 20
461.5336977335065
 30
0.0
 10
555.5721176919476
 20
458.0254471441338
 30
0.0
 10
555.6244002450396
 20
456.2478453115914
 30
0.0
 10
555.6244014868066
 20
456.2478030916349
 30
0.0
  0
LINE
  5
1E8
330
1F
100
AcDbEntity
  8
0
  6
Continuous
 62
     7
370
    25
100
AcDbLine
 10
556.3318279752
 20
466.8300191756
 30
0.0
 11
555.3732891805
 21
466.7706753012
 31
0.0
  0
SPLINE
  5
1E9
330
1F
100
AcDbEntity
  8
0
  6
Continuous
 62
     7
370
    25
100
AcDbSpline
210
0.0
220
0.0
230
1.0
 70
     8
 71
     3
 72
    10
 73
     6
 74
     0
 42
0.000000001
 43
0.00000001
 40
0.0
 40
0.0
 40
0.0
 40
0.0
 40
0.1532448641596231
 40
0.4240993014745647
 40
1.0
 40
1.0
 40
1.0
 40
1.0
 10
555.2566530467933
 20
467.6287512179509
 30
0.0
 10
555.2892954507333
 20
467.5643089036339
 30
0.0
 10
555.3796320553911
 20
467.3859672630369
 30
0.0
 10
555.7534643265998
 20
467.1024081938805
 30
0.0
 10
556.0977024606892
 20
466.9402840914999
 30
0.0
 10
556.3318279752448
 20
466.8300191756383
 30
0.0
  0
LINE
  5
1EA
330
1F
100
AcDbEntity
  8
0
  6
Continuous
 62
     7
370
    25
100
AcDbLine
 10
555.2566530468
 20
467.628751218
 30
0.0
 11
589.6904816149
 21
467.628751218
 31
0.0
  0
SPLINE
  5
1EB
330
1F
100
AcDbEntity
  8
0
  6
Continuous
 62
     7
370
    25
100
AcDbSpline
210
0.0
220
0.0
230
1.0
 70
     8
 71
     3
 72
    10
 73
     6
 74
     0
 42
0.000000001
 43
0.00000001
 40
0.0
 40
0.0
 40
0.0
 40
0.0
 40
0.2188114564121108
 40
0.6093811015464444
 40
1.0
 40
1.0
 40
1.0
 40
1.0
 10
551.0118354724312
 20
558.286914869775
 30
0.0
 10
551.4113784029089
 20
551.6813747204736
 30
0.0
 10
552.5240893874334
 20
533.285211199176
 30
0.0
 10
553.9614222749834
 20
503.0645419828535
 30
0.0
 10
554.824891309177
 20
479.4411779510518
 30
0.0
 10
555.2566530467933
 20
467.6287512179509
 30
0.0
  0
LINE
  5
1EC
330
1F
100
AcDbEntity
  8
0
  6
Continuous
 62
     7
370
    25
100
AcDbLine
 10
551.0118354724
 20
558.2869148698
 30
0.0
 11
589.6543808579
 21
558.2869148698
 31
0.0
  0
LINE
  5
1ED
330
1F
100
AcDbEntity
  8
0
  6
Continuous
 62
     7
370
    25
100
AcDbLine
 10
492.0765741847
 20
569.946144044
 30
0.0
 11
495.7318638417
 21
660.3258962628
 31
0.0
  0
LINE
  5
1EE
330
1F
100
AcDbEntity
  8
0
  6
Continuous
 62
     7
370
    25
100
AcDbLine
 10
550.2343149032
 20
569.946144044
 30
0.0
 11
589.649730989
 21
569.946144044
 31
0.0
  0
SPLINE
  5
1EF
330
1F
100
AcDbEntity
  8
0
  6
Continuous
 62
     7
370
    25
100
AcDbSpline
210
0.0
220
0.0
230
1.0
 70
     8
 71
     3
 72
    31
 73
    27
 74
     0
 42
0.000000001
 43
0.00000001
 40
0.0
 40
0.0
 40
0.0
 40
0.0
 40
0.0595712927844287
 40
0.1412319307931273
 40
0.2229266124483937
 40
0.3045595166275997
 40
0.3861358841352069
 40
0.4139545385838292
 40
0.4417668327109918
 40
0.4694485906100498
 40
0.4787082213759321
 40
0.4879186966980544
 40
0.4939035308470566
 40
0.4974883518414847
 40
0.5006701073519858
 40
0.5038081873726271
 40
0.5065546595309022
 40
0.5123683098353725
 40
0.5225839003946848
 40
0.5328618155311888
 40
0.5526516874554538
 40
0.5838381179226775
 40
0.6331646856935462
 40
0.7112432512475662
 40
0.8347547273611248
 40
1.0
 40
1.0
 40
1.0
 40
1.0
 10
519.2990241416372
 20
569.9461440440314
 30
0.0
 10
519.6658350545191
 20
573.4246758707397
 30
0.0
 10
520.5354722747451
 20
581.6715972190674
 30
0.0
 10
521.9804358504829
 20
594.6810024443064
 30
0.0
 10
523.735111761295
 20
608.9579515133582
 30
0.0
 10
525.8534133611829
 20
623.1800056832011
 30
0.0
 10
527.9737250707235
 20
634.1869036126906
 30
0.0
 10
529.7035434048965
 20
642.04199689053
 30
0.0
 10
530.9623802025535
 20
646.7577112470256
 30
0.0
 10
532.2907045380604
 20
650.3033963389217
 30
0.0
 10
533.4755382123875
 20
652.7034742118061
 30
0.0
 10
534.2709019722703
 20
653.8672140302875
 30
0.0
 10
535.050286846103
 20
654.5979053743164
 30
0.0
 10
535.6879859601063
 20
654.8999511741303
 30
0.0
 10
536.2241311903849
 20
654.9578682970425
 30
0.0
 10
536.7015937118933
 20
654.8395608771211
 30
0.0
 10
537.2587734944466
 20
654.5303663281986
 30
0.0
 10
538.0074657434799
 20
653.7912242421712
 30
0.0
 10
538.8057284575177
 20
652.5230274087165
 30
0.0
 10
539.7429345477785
 20
650.4098012695268
 30
0.0
 10
540.8767307298714
 20
647.0537970708531
 30
0.0
 10
542.2801468431552
 20
641.3956514114703
 30
0.0
 10
543.9793275630436
 20
632.308255689838
 30
0.0
 10
546.0092209367047
 20
617.7919977247394
 30
0.0
 10
548.2535017028515
 20
596.4519035513484
 30
0.0
 10
549.5133489120185
 20
579.5935712578233
 30
0.0
 10
550.2343149031567
 20
569.9461440440314
 30
0.0
  0
LINE
  5
1F0
330
1F
100
AcDbEntity
  8
0
  6
Continuous
 62
     7
370
    25
100
AcDbLine
 10
492.0765741847
 20
569.946144044
 30
0.0
 11
519.2990241416
 21
569.946144044
 31
0.0
  0
LINE
  5
1F1
330
1F
100
AcDbEntity
  8
0
  6
Continuous
 62
     7
370
    25
100
AcDbLine
 10
553.2939177482
 20
568.8690061566
 30
0.0
 11
589.6710582305
 21
568.8690061566
 31
0.0
  0
LINE
  5
1F2
330
1F
100
AcDbEntity
  8
0
  6
Continuous
 62
     7
370
    25
100
AcDbLine
 10
550.9890297459
 20
558.2863057848
 30
0.0
 11
551.0118354724
 21
558.2869148698
 31
0.0
  0
SPLINE
  5
1F3
330
1F
100
AcDbEntity
  8
0
  6
Continuous
 62
     7
370
    25
100
AcDbSpline
210
0.0
220
0.0
230
1.0
 70
     8
 71
     3
 72
    10
 73
     6
 74
     0
 42
0.000000001
 43
0.00000001
 40
0.0
 40
0.0
 40
0.0
 40
0.0
 40
0.4568224262632659
 40
0.9999411290626162
 40
0.9999999999999999
 40
0.9999999999999999
 40
0.9999999999999999
 40
0.9999999999999999
 10
550.6200960512729
 20
568.6280506547587
 30
0.0
 10
550.6774561878809
 20
567.0532522355251
 30
0.0
 10
550.8030121073489
 20
563.6061672877582
 30
0.0
 10
550.9233491749808
 20
560.1597664595402
 30
0.0
 10
550.9890226280295
 20
558.2865088131374
 30
0.0
 10
550.9890297458817
 20
558.2863057848112
 30
0.0
  0
LINE
  5
1F4
330
1F
100
AcDbEntity
  8
0
  6
Continuous
 62
     7
370
    25
100
AcDbLine
 10
553.2939177482
 20
568.8690061566
 30
0.0
 11
550.6200960513
 21
568.6280506548
 31
0.0
  0
SPLINE
  5
1F5
330
1F
100
AcDbEntity
  8
0
  6
Continuous
 62
     7
370
    25
100
AcDbSpline
210
0.0
220
0.0
230
1.0
 70
     8
 71
     3
 72
    10
 73
     6
 74
     0
 42
0.000000001
 43
0.00000001
 40
0.0
 40
0.0
 40
0.0
 40
0.0
 40
0.0675206949777074
 40
0.2756052514066504
 40
0.9999999999999999
 40
0.9999999999999999
 40
0.9999999999999999
 40
0.9999999999999999
 10
550.2343149031567
 20
569.9461440440314
 30
0.0
 10
550.2855552667536
 20
569.8901362636055
 30
0.0
 10
550.49470763546
 20
569.6615243038194
 30
0.0
 10
551.5516123181116
 20
569.2748775339161
 30
0.0
 10
552.5321719165053
 20
569.0464554284061
 30
0.0
 10
553.2939177482181
 20
568.8690061565535
 30
0.0
  0
LWPOLYLINE
  5
1F6
330
1F
100
AcDbEntity
  8
0
  6
Continuous
 62
     7
370
    25
100
AcDbPolyline
 90
        9
 70
   128
 43
0.0
 10
544.8465122531
 20
424.818408012
 10
545.0858418065
 20
424.6867562529
 10
545.3957593958
 20
424.6515373584
 10
545.7571049668
 20
424.7149194475
 10
546.1475638608
 20
424.8729984161
 10
546.5430003205
 20
425.1159991022
 10
546.9189685434
 20
425.4289011356
 10
547.2522486907
 20
425.7923702594
 10
547.5222298383
 20
426.1839504238
  0
SPLINE
  5
1F7
330
1F
100
AcDbEntity
  8
0
  6
Continuous
 62
     7
370
    25
100
AcDbSpline
210
0.0
220
0.0
230
1.0
 70
     8
 71
     3
 72
    11
 73
     7
 74
     0
 42
0.000000001
 43
0.00000001
 40
0.0
 40
0.0
 40
0.0
 40
0.0
 40
0.3188415593452285
 40
0.5253598309344022
 40
0.7370299429185286
 40
1.0
 40
1.0
 40
1.0
 40
1.0
 10
547.5222298382673
 20
426.1839504238263
 30
0.0
 10
548.2717295186973
 20
425.4204538948706
 30
0.0
 10
549.5066909403033
 20
424.1624296642937
 30
0.0
 10
551.661086093368
 20
422.75690092005
 30
0.0
 10
553.8841518647705
 20
421.7141994679263
 30
0.0
 10
555.6500377908288
 20
421.3909506668362
 30
0.0
 10
556.6284107837618
 20
421.2118576165334
 30
0.0
  0
ARC
  5
1F8
330
1F
100
AcDbEntity
  8
0
  6
Continuous
 62
     7
370
    25
100
AcDbCircle
 10
553.8432093583
 20
421.0675698251
 30
0.0
 40
2.788936346916542
100
AcDbArc
 50
321.7570429242
 51
2.9655656619
  0
SPLINE
  5
1F9
330
1F
100
AcDbEntity
  8
0
  6
Continuous
 62
     7
370
    25
100
AcDbSpline
210
0.0
220
0.0
230
1.0
 70
     8
 71
     3
 72
    13
 73
     9
 74
     0
 42
0.000000001
 43
0.00000001
 40
0.0
 40
0.0
 40
0.0
 40
0.0
 40
0.0146462259244156
 40
0.1966192058719639
 40
0.3974642728688191
 40
0.5983094692823163
 40
0.7991549303552649
 40
1.0
 40
1.0
 40
1.0
 40
1.0
 10
542.5465485665394
 20
455.4531912203923
 30
0.0
 10
542.5872087405069
 20
455.4578766296883
 30
0.0
 10
543.133053872033
 20
455.5207762093947
 30
0.0
 10
544.4019616989028
 20
455.6463122966734
 30
0.0
 10
546.6687168471746
 20
455.8211939565007
 30
0.0
 10
549.3792023787263
 20
455.9861070766377
 30
0.0
 10
552.3822861342454
 20
456.1325690096874
 30
0.0
 10
554.54369707135
 20
456.2093917559391
 30
0.0
 10
555.6244014868066
 20
456.2478030916349
 30
0.0
  0
SPLINE
  5
1FA
330
1F
100
AcDbEntity
  8
0
  6
Continuous
 62
     7
370
    25
100
AcDbSpline
210
0.0
220
0.0
230
1.0
 70
     8
 71
     3
 72
    10
 73
     6
 74
     0
 42
0.000000001
 43
0.00000001
 40
0.0
 40
0.0
 40
0.0
 40
0.0
 40
0.3983699888558241
 40
0.81477153428233
 40
1.0
 40
1.0
 40
1.0
 40
1.0
 10
544.8188086916552
 20
427.3246566649572
 30
0.0
 10
545.1719196489619
 20
427.3024990274309
 30
0.0
 10
545.8941245451765
 20
427.2571808236797
 30
0.0
 10
546.866587686137
 20
426.8285600381122
 30
0.0
 10
547.3678900256198
 20
426.3356931492999
 30
0.0
 10
547.5222298382673
 20
426.1839504238263
 30
0.0
  0
LINE
  5
1FB
330
1F
100
AcDbEntity
  8
0
  6
Continuous
 62
     7
370
    25
100
AcDbLine
 10
542.7025346111
 20
427.3484761711
 30
0.0
 11
544.8188086917
 21
427.324656665
 31
0.0
  0
SPLINE
  5
1FC
330
1F
100
AcDbEntity
  8
0
  6
Continuous
 62
     7
370
    25
100
AcDbSpline
210
0.0
220
0.0
230
1.0
 70
     8
 71
     3
 72
     9
 73
     5
 74
     0
 42
0.000000001
 43
0.00000001
 40
0.0
 40
0.0
 40
0.0
 40
0.0
 40
0.344825394836152
 40
1.0
 40
1.0
 40
1.0
 40
1.0
 10
542.702534611135
 20
427.3484761711255
 30
0.0
 10
542.6873940011874
 20
430.5789345527166
 30
0.0
 10
542.643485953305
 20
439.9473233952087
 30
0.0
 10
542.5849196930064
 20
449.315439469977
 30
0.0
 10
542.5465485665394
 20
455.4531912203923
 30
0.0
  0
SPLINE
  5
1FD
330
1F
100
AcDbEntity
  8
0
  6
Continuous
 62
     7
370
    25
100
AcDbSpline
210
0.0
220
0.0
230
1.0
 70
     8
 71
     3
 72
     9
 73
     5
 74
     0
 42
0.000000001
 43
0.00000001
 40
0.0
 40
0.0
 40
0.0
 40
0.0
 40
0.8518640340508472
 40
1.0
 40
1.0
 40
1.0
 40
1.0
 10
542.5465485665394
 20
455.4531912203923
 30
0.0
 10
542.536837968336
 20
458.0697624209581
 30
0.0
 10
542.5254387334637
 20
461.1413455562656
 30
0.0
 10
542.5129066428156
 20
464.2129109800304
 30
0.0
 10
542.5110501894621
 20
464.6679202910558
 30
0.0
  0
SPLINE
  5
1FE
330
1F
100
AcDbEntity
  8
0
  6
Continuous
 62
     7
370
    25
100
AcDbSpline
210
0.0
220
0.0
230
1.0
 70
     8
 71
     3
 72
    13
 73
     9
 74
     0
 42
0.000000001
 43
0.00000001
 40
0.0
 40
0.0
 40
0.0
 40
0.0
 40
0.0047820861980399
 40
0.0168076287496855
 40
0.1305491384863939
 40
0.3873474128780466
 40
0.6968572265579754
 40
1.0
 40
1.0
 40
1.0
 40
1.0
 10
542.5110501894621
 20
464.6679202910558
 30
0.0
 10
542.5242785446496
 20
464.6710462458138
 30
0.0
 10
542.5707723286918
 20
464.6820330588668
 30
0.0
 10
542.9367725128496
 20
464.7676023199982
 30
0.0
 10
544.1004524556597
 20
465.0214581361838
 30
0.0
 10
546.6316612025868
 20
465.4883636153786
 30
0.0
 10
550.582316917609
 20
466.1032957998996
 30
0.0
 10
553.7874014573459
 20
466.5497621128564
 30
0.0
 10
555.3732891805274
 20
466.7706753011838
 30
0.0
  0
LINE
  5
1FF
330
1F
100
AcDbEntity
  8
0
  6
Continuous
 62
     7
370
    25
100
AcDbLine
 10
542.5110501895
 20
464.6679202911
 30
0.0
 11
542.4665233619
 21
466.7330200668
 31
0.0
  0
ARC
  5
200
330
1F
100
AcDbEntity
  8
0
  6
Continuous
 62
     7
370
    25
100
AcDbCircle
 10
560.3492267137
 20
303.1490931485
 30
0.0
 40
164.5584766130078
100
AcDbArc
 50
91.773409538
 51
96.2386994072
  0
SPLINE
  5
201
330
1F
100
AcDbEntity
  8
0
  6
Continuous
 62
     7
370
    25
100
AcDbSpline
210
0.0
220
0.0
230
1.0
 70
     8
 71
     3
 72
     9
 73
     5
 74
     0
 42
0.000000001
 43
0.00000001
 40
0.0
 40
0.0
 40
0.0
 40
0.0
 40
0.779741598836684
 40
1.0
 40
1.0
 40
1.0
 40
1.0
 10
542.4665233619107
 20
466.733020066847
 30
0.0
 10
542.2579409016564
 20
490.3476489914207
 30
0.0
 10
541.9904388720541
 20
520.6328472671123
 30
0.0
 10
541.4449480390235
 20
550.9100026725889
 30
0.0
 10
541.324799100291
 20
557.5788005139725
 30
0.0
  0
SPLINE
  5
202
330
1F
100
AcDbEntity
  8
0
  6
Continuous
 62
     7
370
    25
100
AcDbSpline
210
0.0
220
0.0
230
1.0
 70
     8
 71
     3
 72
    12
 73
     8
 74
     0
 42
0.000000001
 43
0.00000001
 40
0.0
 40
0.0
 40
0.0
 40
0.0
 40
0.0133662947404321
 40
0.253611977885579
 40
0.4986956308860674
 40
0.7466809166134436
 40
1.0
 40
1.0
 40
1.0
 40
1.0
 10
541.324799100291
 20
557.5788005139725
 30
0.0
 10
541.3589258331008
 20
557.5822680393331
 30
0.0
 10
542.0064462098941
 20
557.6480608399701
 30
0.0
 10
543.3895646239081
 20
557.7763257016862
 30
0.0
 10
545.6787127653952
 20
557.9570501979788
 30
0.0
 10
548.2197202576036
 20
558.1309613773738
 30
0.0
 10
550.0594019442811
 20
558.2341583160692
 30
0.0
 10
550.9890297458817
 20
558.2863057848112
 30
0.0
  0
ARC
  5
203
330
1F
100
AcDbEntity
  8
0
  6
Continuous
 62
     7
370
    25
100
AcDbCircle
 10
543.0217516101
 20
427.1663576537
 30
0.0
 40
1.804015723733993
100
AcDbArc
 50
277.494490404
 51
5.0340719883
  0
SPLINE
  5
204
330
1F
100
AcDbEntity
  8
0
  6
Continuous
 62
     7
370
    25
100
AcDbSpline
210
0.0
220
0.0
230
1.0
 70
     8
 71
     3
 72
    27
 73
    23
 74
     0
 42
0.000000001
 43
0.00000001
 40
0.0
 40
0.0
 40
0.0
 40
0.0
 40
0.0233354276186188
 40
0.2032528873282078
 40
0.3831423465875517
 40
0.4281605703125241
 40
0.4731438218824708
 40
0.4845154407224968
 40
0.4957693074818048
 40
0.49861080044531
 40
0.4992781897435766
 40
0.4998465446330088
 40
0.5004178970340286
 40
0.5010728437265676
 40
0.5021866981867618
 40
0.5056600232074222
 40
0.5216340388165053
 40
0.5533273491847968
 40
0.5850471549774704
 40
0.7116188095136976
 40
0.8382161816795003
 40
1.0
 40
1.0
 40
1.0
 40
1.0
 10
541.0910015908697
 20
569.0504110302822
 30
0.0
 10
541.0615498260623
 20
570.3803119410777
 30
0.0
 10
540.8050232977355
 20
581.963823689709
 30
0.0
 10
540.3236821605583
 20
603.8019224963259
 30
0.0
 10
539.2610289392305
 20
626.8428646365036
 30
0.0
 10
538.3297144504397
 20
642.1937250628355
 30
0.0
 10
537.6753903759255
 20
647.9202756303941
 30
0.0
 10
537.1509409162921
 20
651.7323122630307
 30
0.0
 10
536.7891607817754
 20
653.1243883665016
 30
0.0
 10
536.4025456406298
 20
653.8750116364973
 30
0.0
 10
536.2282129153866
 20
654.0094233429928
 30
0.0
 10
536.1371673396621
 20
654.0403627373427
 30
0.0
 10
536.0419786023987
 20
654.0315985313885
 30
0.0
 10
535.930612847076
 20
653.9712799011293
 30
0.0
 10
535.7346526017844
 20
653.7555657697636
 30
0.0
 10
535.257739134597
 20
652.6830756460834
 30
0.0
 10
534.6960598309697
 20
649.8126816664582
 30
0.0
 10
534.0402129359119
 20
645.3399405877248
 30
0.0
 10
533.0054238620646
 20
634.5485067136466
 30
0.0
 10
531.7893254351279
 20
618.3447374102668
 30
0.0
 10
530.5896982471534
 20
594.7031107680943
 30
0.0
 10
529.8673093086461
 20
578.2696787046244
 30
0.0
 10
529.4620441781875
 20
569.0504110302822
 30
0.0
  0
LWPOLYLINE
  5
205
330
1F
100
AcDbEntity
  8
0
  6
Continuous
 62
     7
370
    25
100
AcDbPolyline
 90
        9
 70
   128
 43
0.0
 10
529.4620441782
 20
569.0504110303
 10
528.1140333669
 20
569.1709651496
 10
526.7759776073
 20
569.2901483621
 10
525.4541114771
 20
569.4074074622
 10
524.1546011808
 20
569.5221911069
 10
522.8834946593
 20
569.6339721676
 10
521.6467178647
 20
569.7422216531
 10
520.4500367765
 20
569.8464403745
 10
519.2990241416
 20
569.946144044
  0
ARC
  5
206
330
1F
100
AcDbEntity
  8
0
  6
Continuous
 62
     7
370
    25
100
AcDbCircle
 10
562.3349471904
 20
399.3136811199
 30
0.0
 40
171.0609911853425
100
AcDbArc
 50
94.0564168445
 51
97.1339415863
  0
ARC
  5
207
330
1F
100
AcDbEntity
  8
0
  6
Continuous
 62
     7
370
    25
100
AcDbCircle
 10
540.8169078455
 20
427.2619907008
 30
0.0
 40
1.887609079208365
100
AcDbArc
 50
273.4248657417
 51
2.626066934
  0
SPLINE
  5
208
330
1F
100
AcDbEntity
  8
0
  6
Continuous
 62
     7
370
    25
100
AcDbSpline
210
0.0
220
0.0
230
1.0
 70
     8
 71
     3
 72
    12
 73
     8
 74
     0
 42
0.000000001
 43
0.00000001
 40
0.0
 40
0.0
 40
0.0
 40
0.0
 40
0.005129331089963
 40
0.0445031321811516
 40
0.2259740828574069
 40
0.5576296791400378
 40
1.0
 40
1.0
 40
1.0
 40
1.0
 10
541.2458190409524
 20
566.3147031214135
 30
0.0
 10
541.2586808375266
 20
566.3181692844744
 30
0.0
 10
541.3702724316325
 20
566.3482424285479
 30
0.0
 10
541.9450658357895
 20
566.5019089239869
 30
0.0
 10
543.4442402646789
 20
566.8891658446154
 30
0.0
 10
546.3577575546359
 20
567.5999447533788
 30
0.0
 10
549.0699991424997
 20
568.2541564225484
 30
0.0
 10
550.6200960512729
 20
568.6280506547587
 30
0.0
  0
LINE
  5
209
330
1F
100
AcDbEntity
  8
0
  6
Continuous
 62
     7
370
    25
100
AcDbLine
 10
541.245819041
 20
566.3147031214
 30
0.0
 11
541.0910015909
 21
569.0504110303
 31
0.0
  0
LINE
  5
20A
330
1F
100
AcDbEntity
  8
0
  6
Continuous
 62
     7
370
    25
100
AcDbLine
 10
541.3247991003
 20
557.578800514
 30
0.0
 11
541.245819041
 21
566.3147031214
 31
0.0
  0
ARC
  5
20B
330
1F
100
AcDbEntity
  8
0
  6
Continuous
 62
     7
370
    25
100
AcDbCircle
 10
527.4542836955
 20
426.8878557982
 30
0.0
 40
2.448613530692221
100
AcDbArc
 50
169.1572152262
 51
218.0768256471
  0
LINE
  5
20C
330
1F
100
AcDbEntity
  8
0
  6
Continuous
 62
     7
370
    25
100
AcDbLine
 10
525.0493851333
 20
427.3484761711
 30
0.0
 11
542.7025346111
 21
427.3484761711
 31
0.0
  0
SPLINE
  5
20D
330
1F
100
AcDbEntity
  8
0
  6
Continuous
 62
     7
370
    25
100
AcDbSpline
210
0.0
220
0.0
230
1.0
 70
     8
 71
     3
 72
     9
 73
     5
 74
     0
 42
0.000000001
 43
0.00000001
 40
0.0
 40
0.0
 40
0.0
 40
0.0
 40
0.8561883033388588
 40
1.0
 40
1.0
 40
1.0
 40
1.0
 10
525.9522110333302
 20
464.6679202910558
 30
0.0
 10
525.8974040009061
 20
462.0380781690897
 30
0.0
 10
525.8333911754445
 20
458.9665083850706
 30
0.0
 10
525.7705180600632
 20
455.8949213616699
 30
0.0
 10
525.7614761706657
 20
455.4531912203923
 30
0.0
  0
LINE
  5
20E
330
1F
100
AcDbEntity
  8
0
  6
Continuous
 62
     7
370
    25
100
AcDbLine
 10
526.0647181493
 20
466.7330200668
 30
0.0
 11
525.9522110333
 21
464.6679202911
 31
0.0
  0
SPLINE
  5
20F
330
1F
100
AcDbEntity
  8
0
  6
Continuous
 62
     7
370
    25
100
AcDbSpline
210
0.0
220
0.0
230
1.0
 70
     8
 71
     3
 72
     9
 73
     5
 74
     0
 42
0.000000001
 43
0.00000001
 40
0.0
 40
0.0
 40
0.0
 40
0.0
 40
0.2202583999816216
 40
1.0
 40
1.0
 40
1.0
 40
1.0
 10
529.0020736107963
 20
557.5788005139725
 30
0.0
 10
528.7503363711808
 20
550.910002667534
 30
0.0
 10
527.6074185998873
 20
520.6328470766692
 30
0.0
 10
526.7406071197579
 20
490.3476489280922
 30
0.0
 10
526.0647181493275
 20
466.733020066847
 30
0.0
  0
LINE
  5
210
330
1F
100
AcDbEntity
  8
0
  6
Continuous
 62
     7
370
    25
100
AcDbLine
 10
529.2069164942
 20
566.3147031214
 30
0.0
 11
529.0020736108
 21
557.578800514
 31
0.0
  0
LINE
  5
211
330
1F
100
AcDbEntity
  8
0
  6
Continuous
 62
     7
370
    25
100
AcDbLine
 10
529.4620441782
 20
569.0504110303
 30
0.0
 11
529.2069164942
 21
566.3147031214
 31
0.0
  0
SPLINE
  5
212
330
1F
100
AcDbEntity
  8
0
  6
Continuous
 62
     7
370
    25
100
AcDbSpline
210
0.0
220
0.0
230
1.0
 70
     8
 71
     3
 72
     9
 73
     5
 74
     0
 42
0.000000001
 43
0.00000001
 40
0.0
 40
0.0
 40
0.0
 40
0.0
 40
0.6551746064623047
 40
1.0
 40
1.0
 40
1.0
 40
1.0
 10
525.7614761706657
 20
455.4531912203923
 30
0.0
 10
525.6016415545425
 20
449.3154394815334
 30
0.0
 10
525.3576842727026
 20
439.9473234429699
 30
0.0
 10
525.1284358208947
 20
430.5789345559176
 30
0.0
 10
525.049385133282
 20
427.3484761711255
 30
0.0
  0
LINE
  5
213
330
1F
100
AcDbEntity
  8
0
  6
Continuous
 62
     7
370
    25
100
AcDbLine
 10
509.9845526454
 20
456.2479297515
 30
0.0
 11
509.9907699488
 21
456.2478030916
 31
0.0
  0
SPLINE
  5
214
330
1F
100
AcDbEntity
  8
0
  6
Continuous
 62
     7
370
    25
100
AcDbSpline
210
0.0
220
0.0
230
1.0
 70
     8
 71
     3
 72
    13
 73
     9
 74
     0
 42
0.000000001
 43
0.00000001
 40
0.0
 40
0.0
 40
0.0
 40
0.0
 40
0.0146463627322149
 40
0.1966230441301126
 40
0.3974676669870136
 40
0.5983119395806663
 40
0.7991560594586723
 40
1.0
 40
1.0
 40
1.0
 40
1.0
 10
525.7614761706657
 20
455.4531912203923
 30
0.0
 10
525.6816281839386
 20
455.4578766197944
 30
0.0
 10
524.6096928164353
 20
455.5207767070205
 30
0.0
 10
522.4053479110603
 20
455.6463232220929
 30
0.0
 10
519.1550962189368
 20
455.8211903405134
 30
0.0
 10
515.8833470780917
 20
455.986107803597
 30
0.0
 10
512.762860545176
 20
456.1325688831859
 30
0.0
 10
510.9147998725603
 20
456.2093917002513
 30
0.0
 10
509.9907699487929
 20
456.2478030916349
 30
0.0
  0
LINE
  5
215
330
1F
100
AcDbEntity
  8
0
  6
Continuous
 62
     7
370
    25
100
AcDbLine
 10
521.1568197506
 20
427.324656665
 30
0.0
 11
525.0493851333
 21
427.3484761711
 31
0.0
  0
SPLINE
  5
216
330
1F
100
AcDbEntity
  8
0
  6
Continuous
 62
     7
370
    25
100
AcDbSpline
210
0.0
220
0.0
230
1.0
 70
     8
 71
     3
 72
    10
 73
     6
 74
     0
 42
0.000000001
 43
0.00000001
 40
0.0
 40
0.0
 40
0.0
 40
0.0
 40
0.3361414139514394
 40
0.8533515033969551
 40
0.9999999999999999
 40
0.9999999999999999
 40
0.9999999999999999
 40
0.9999999999999999
 10
517.2223146076733
 20
426.1839504238263
 30
0.0
 10
517.613335030717
 20
426.4428930007556
 30
0.0
 10
518.6060061269109
 20
427.1002622749504
 30
0.0
 10
520.0330798789322
 20
427.3016553136802
 30
0.0
 10
520.953496712122
 20
427.3204949325593
 30
0.0
 10
521.1568197506007
 20
427.3246566649572
 30
0.0
  0
SPLINE
  5
217
330
1F
100
AcDbEntity
  8
0
  6
Continuous
 62
     7
370
    25
100
AcDbSpline
210
0.0
220
0.0
230
1.0
 70
     8
 71
     3
 72
     9
 73
     5
 74
     0
 42
0.000000001
 43
0.00000001
 40
0.0
 40
0.0
 40
0.0
 40
0.0
 40
0.4772909070430933
 40
1.0
 40
1.0
 40
1.0
 40
1.0
 10
507.7166608820995
 20
421.2118576165334
 30
0.0
 10
508.0655226669047
 20
426.7866186477616
 30
0.0
 10
508.7964433269407
 20
438.4666254297153
 30
0.0
 10
509.5767035381179
 20
450.1440393258002
 30
0.0
 10
509.9845526453728
 20
456.247929751505
 30
0.0
  0
ARC
  5
218
330
1F
100
AcDbEntity
  8
0
  6
Continuous
 62
     7
370
    25
100
AcDbCircle
 10
531.9374694589
 20
426.8455725469
 30
0.0
 40
10.7912895302589
100
AcDbArc
 50
177.4554919611
 51
187.8175437477
  0
SPLINE
  5
219
330
1F
100
AcDbEntity
  8
0
  6
Continuous
 62
     7
370
    25
100
AcDbSpline
210
0.0
220
0.0
230
1.0
 70
     8
 71
     3
 72
    13
 73
     9
 74
     0
 42
0.000000001
 43
0.00000001
 40
0.0
 40
0.0
 40
0.0
 40
0.0
 40
0.0047819427821293
 40
0.0168077971393122
 40
0.1305493302261545
 40
0.3873471639627955
 40
0.6968575821310101
 40
1.0
 40
1.0
 40
1.0
 40
1.0
 10
525.9522110333302
 20
464.6679202910558
 30
0.0
 10
525.9266633003781
 20
464.6710462718324
 30
0.0
 10
525.8368669284034
 20
464.6820336159198
 30
0.0
 10
525.1384681340397
 20
464.7675987986664
 30
0.0
 10
523.0732909245263
 20
465.0214609448998
 30
0.0
 10
519.3668249695744
 20
465.4883638155952
 30
0.0
 10
514.7319016433431
 20
466.1032947109042
 30
0.0
 10
511.9355768009705
 20
466.5497619857749
 30
0.0
 10
510.5519470779008
 20
466.7706753011838
 30
0.0
  0
SPLINE
  5
21A
330
1F
100
AcDbEntity
  8
0
  6
Continuous
 62
     7
370
    25
100
AcDbSpline
210
0.0
220
0.0
230
1.0
 70
     8
 71
     3
 72
    10
 73
     6
 74
     0
 42
0.000000001
 43
0.00000001
 40
0.0
 40
0.0
 40
0.0
 40
0.0
 40
0.0000120390591358
 40
0.5068848077098435
 40
1.0
 40
1.0
 40
1.0
 40
1.0
 10
509.9907699487929
 20
456.2478030916349
 30
0.0
 10
509.9907720995891
 20
456.2478453115914
 30
0.0
 10
510.0813278419838
 20
458.0254472270468
 30
0.0
 10
510.2717536773629
 20
461.533697438892
 30
0.0
 10
510.459409852803
 20
465.041100663293
 30
0.0
 10
510.5519470779008
 20
466.7706753011838
 30
0.0
  0
SPLINE
  5
21B
330
1F
100
AcDbEntity
  8
0
  6
Continuous
 62
     7
370
    25
100
AcDbSpline
210
0.0
220
0.0
230
1.0
 70
     8
 71
     3
 72
    11
 73
     7
 74
     0
 42
0.000000001
 43
0.00000001
 40
0.0
 40
0.0
 40
0.0
 40
0.0
 40
0.0133772431535294
 40
0.4190676782038046
 40
0.7053826649022913
 40
1.0
 40
1.0
 40
1.0
 40
1.0
 10
529.0020736107963
 20
557.5788005139725
 30
0.0
 10
528.9507667413399
 20
557.5822680719205
 30
0.0
 10
527.3434811136315
 20
557.6908959440195
 30
0.0
 10
524.6380953816695
 20
557.8709928335765
 30
0.0
 10
521.0357778655731
 20
558.1050720247695
 30
0.0
 10
519.1240001139512
 20
558.2253216852882
 30
0.0
 10
518.1544502277607
 20
558.2863057848112
 30
0.0
  0
LWPOLYLINE
  5
21C
330
1F
100
AcDbEntity
  8
0
  6
Continuous
 62
     7
370
    25
100
AcDbPolyline
 90
        9
 70
   128
 43
0.0
 10
526.0647181493
 20
466.7330200668
 10
524.0585518707
 20
466.8649325963
 10
522.0378725607
 20
466.9936711784
 10
520.0236454422
 20
467.1179021593
 10
518.0367841664
 20
467.2363440391
 10
516.0978903205
 20
467.3477600213
 10
514.2270867253
 20
467.4510027167
 10
512.4437872076
 20
467.5449917909
 10
510.7664965042
 20
467.628751218
  0
SPLINE
  5
21D
330
1F
100
AcDbEntity
  8
0
  6
Continuous
 62
     7
370
    25
100
AcDbSpline
210
0.0
220
0.0
230
1.0
 70
     8
 71
     3
 72
    10
 73
     6
 74
     0
 42
0.000000001
 43
0.00000001
 40
0.0
 40
0.0
 40
0.0
 40
0.0
 40
0.3905742073208611
 40
0.7811885423272673
 40
1.0
 40
1.0
 40
1.0
 40
1.0
 10
510.7664965041678
 20
467.6287512179509
 30
0.0
 10
511.6154366670546
 20
479.4398264440059
 30
0.0
 10
513.313404213139
 20
503.0631903687508
 30
0.0
 10
515.7856877214789
 20
533.2838622040199
 30
0.0
 10
517.5142422781305
 20
551.6813747328907
 30
0.0
 10
518.1348716422816
 20
558.286914869775
 30
0.0
  0
LINE
  5
21E
330
1F
100
AcDbEntity
  8
0
  6
Continuous
 62
     7
370
    25
100
AcDbLine
 10
518.1348716423
 20
558.2869148698
 30
0.0
 11
518.1544502278
 21
558.2863057848
 31
0.0
  0
LINE
  5
21F
330
1F
100
AcDbEntity
  8
0
  6
Continuous
 62
     7
370
    25
100
AcDbLine
 10
510.5519470779
 20
466.7706753012
 30
0.0
 11
509.7723843039
 21
466.8300191756
 31
0.0
  0
SPLINE
  5
220
330
1F
100
AcDbEntity
  8
0
  6
Continuous
 62
     7
370
    25
100
AcDbSpline
210
0.0
220
0.0
230
1.0
 70
     8
 71
     3
 72
    10
 73
     6
 74
     0
 42
0.000000001
 43
0.00000001
 40
0.0
 40
0.0
 40
0.0
 40
0.0
 40
0.4254299734452111
 40
0.8544542452235381
 40
1.0
 40
1.0
 40
1.0
 40
1.0
 10
509.7723843038995
 20
466.8300191756383
 30
0.0
 10
509.9309299687283
 20
466.9112257164433
 30
0.0
 10
510.2493607912623
 20
467.0743248816686
 30
0.0
 10
510.6232526992625
 20
467.3262656449937
 30
0.0
 10
510.7375448713298
 20
467.5676145338699
 30
0.0
 10
510.7664965041678
 20
467.6287512179509
 30
0.0
  0
SPLINE
  5
221
330
1F
100
AcDbEntity
  8
0
  6
Continuous
 62
     7
370
    25
100
AcDbSpline
210
0.0
220
0.0
230
1.0
 70
     8
 71
     3
 72
    12
 73
     8
 74
     0
 42
0.000000001
 43
0.00000001
 40
0.0
 40
0.0
 40
0.0
 40
0.0
 40
0.0051292098324795
 40
0.0445035199160252
 40
0.2259741820779134
 40
0.5576296808153451
 40
1.0
 40
1.0
 40
1.0
 40
1.0
 10
529.2069164941651
 20
566.3147031214135
 30
0.0
 10
529.1878312467784
 20
566.318169292475
 30
0.0
 10
529.0222383552975
 20
566.3482434789308
 30
0.0
 10
528.1817975376002
 20
566.501904883537
 30
0.0
 10
526.1381579282352
 20
566.8891690216632
 30
0.0
 10
522.6569448917337
 20
567.5999436276504
 30
0.0
 10
520.1744724755611
 20
568.2541559835543
 30
0.0
 10
518.7556927789645
 20
568.6280506547587
 30
0.0
  0
SPLINE
  5
222
330
1F
100
AcDbEntity
  8
0
  6
Continuous
 62
     7
370
    25
100
AcDbSpline
210
0.0
220
0.0
230
1.0
 70
     8
 71
     3
 72
    10
 73
     6
 74
     0
 42
0.000000001
 43
0.00000001
 40
0.0
 40
0.0
 40
0.0
 40
0.0
 40
0.0000589236317452
 40
0.5432986193672622
 40
1.0
 40
1.0
 40
1.0
 40
1.0
 10
518.1544502277607
 20
558.2863057848112
 30
0.0
 10
518.1544634653723
 20
558.2865088131259
 30
0.0
 10
518.2765193523545
 20
560.1585082102703
 30
0.0
 10
518.4551674951084
 20
563.6071783110247
 30
0.0
 10
518.6614690307877
 20
567.0538556144156
 30
0.0
 10
518.7556927789645
 20
568.6280506547587
 30
0.0
  0
LINE
  5
223
330
1F
100
AcDbEntity
  8
0
  6
Continuous
 62
     7
370
    25
100
AcDbLine
 10
518.755692779
 20
568.6280506548
 30
0.0
 11
516.4819835562
 21
568.8690061566
 31
0.0
  0
SPLINE
  5
224
330
1F
100
AcDbEntity
  8
0
  6
Continuous
 62
     7
370
    25
100
AcDbSpline
210
0.0
220
0.0
230
1.0
 70
     8
 71
     3
 72
    12
 73
     8
 74
     0
 42
0.000000001
 43
0.00000001
 40
0.0
 40
0.0
 40
0.0
 40
0.0
 40
0.5432292662414709
 40
0.7686586727243989
 40
0.8975706783622632
 40
0.9719175797112267
 40
1.0
 40
1.0
 40
1.0
 40
1.0
 10
516.4819835562324
 20
568.8690061565535
 30
0.0
 10
517.0123999056113
 20
568.9976850212903
 30
0.0
 10
517.7629285542718
 20
569.1797630710623
 30
0.0
 10
518.6244526469739
 20
569.4841247405641
 30
0.0
 10
519.0168306291779
 20
569.6827048473992
 30
0.0
 10
519.2172050833817
 20
569.8277779820037
 30
0.0
 10
519.2814190039871
 20
569.9206750291157
 30
0.0
 10
519.2990241416372
 20
569.9461440440314
 30
0.0
  0
LINE
  5
225
330
1F
100
AcDbEntity
  8
0
  6
Continuous
 62
     7
370
    25
100
AcDbLine
 10
487.9398013441
 20
467.628751218
 30
0.0
 11
491.6051121555
 21
558.2869148698
 31
0.0
  0
LINE
  5
226
330
1F
100
AcDbEntity
  8
0
  6
Continuous
 62
     7
370
    25
100
AcDbLine
 10
491.6051121555
 20
558.2869148698
 30
0.0
 11
518.1348716423
 21
558.2869148698
 31
0.0
  0
LINE
  5
227
330
1F
100
AcDbEntity
  8
0
  6
Continuous
 62
     7
370
    25
100
AcDbLine
 10
487.9398013441
 20
467.628751218
 30
0.0
 11
510.7664965042
 21
467.628751218
 31
0.0
  0
LINE
  5
228
330
1F
100
AcDbEntity
  8
0
  6
Continuous
 62
     7
370
    25
100
AcDbLine
 10
487.4797426733
 20
456.2479297515
 30
0.0
 11
509.9845526454
 21
456.2479297515
 31
0.0
  0
LINE
  5
229
330
1F
100
AcDbEntity
  8
0
  6
Continuous
 62
     7
370
    25
100
AcDbLine
 10
486.0597175033
 20
421.1172203418
 30
0.0
 11
506.2924152818
 21
421.1172203418
 31
0.0
  0
LINE
  5
22A
330
1F
100
AcDbEntity
  8
0
  6
Continuous
 62
     7
370
    25
100
AcDbLine
 10
486.0597175033
 20
421.1172203418
 30
0.0
 11
487.4797426733
 21
456.2479297515
 31
0.0
  0
SPLINE
  5
22B
330
1F
100
AcDbEntity
  8
0
  6
Continuous
 62
     7
370
    25
100
AcDbSpline
210
0.0
220
0.0
230
1.0
 70
     8
 71
     3
 72
    12
 73
     8
 74
     0
 42
0.000000001
 43
0.00000001
 40
0.0
 40
0.0
 40
0.0
 40
0.0
 40
0.2220415582357498
 40
0.444085929197704
 40
0.6660908207157464
 40
0.8880365982427258
 40
1.0
 40
1.0
 40
1.0
 40
1.0
 10
484.4553594692521
 20
419.2360754009381
 30
0.0
 10
484.6362596886829
 20
419.2575643236188
 30
0.0
 10
484.9980624191102
 20
419.3005424411924
 30
0.0
 10
485.4797779731752
 20
419.6420844318521
 30
0.0
 10
485.8432997747121
 20
420.145698917075
 30
0.0
 10
486.0231904054529
 20
420.6719309815726
 30
0.0
 10
486.0505451560398
 20
421.0054033930568
 30
0.0
 10
486.0597175032526
 20
421.1172203417913
 30
0.0
  0
LINE
  5
22C
330
1F
100
AcDbEntity
  8
0
  6
Continuous
 62
     7
370
    25
100
AcDbLine
 10
487.4797426733
 20
456.2479297515
 30
0.0
 11
487.8201635479
 21
466.8300191756
 31
0.0
  0
LINE
  5
22D
330
1F
100
AcDbEntity
  8
0
  6
Continuous
 62
     7
370
    25
100
AcDbLine
 10
487.8201635479
 20
466.8300191756
 30
0.0
 11
509.7723843039
 21
466.8300191756
 31
0.0
  0
LINE
  5
22E
330
1F
100
AcDbEntity
  8
0
  6
Continuous
 62
     7
370
    25
100
AcDbLine
 10
487.8201635479
 20
466.8300191756
 30
0.0
 11
487.9398013441
 21
467.628751218
 31
0.0
  0
LINE
  5
22F
330
1F
100
AcDbEntity
  8
0
  6
Continuous
 62
     7
370
    25
100
AcDbLine
 10
491.6051121555
 20
558.2869148698
 30
0.0
 11
491.8708203729
 21
568.8690061566
 31
0.0
  0
LINE
  5
230
330
1F
100
AcDbEntity
  8
0
  6
Continuous
 62
     7
370
    25
100
AcDbLine
 10
491.8708203729
 20
568.8690061566
 30
0.0
 11
516.4819835562
 21
568.8690061566
 31
0.0
  0
LINE
  5
231
330
1F
100
AcDbEntity
  8
0
  6
Continuous
 62
     7
370
    25
100
AcDbLine
 10
491.8708203729
 20
568.8690061566
 30
0.0
 11
492.0765741847
 21
569.946144044
 31
0.0
  0
LINE
  5
232
330
1F
100
AcDbEntity
  8
0
  6
Continuous
 62
     7
370
    25
100
AcDbLine
 10
496.4157680512
 20
668.6742494699
 30
0.0
 11
472.0341648326
 21
419.2807639834
 31
0.0
  0
LINE
  5
233
330
1F
100
AcDbEntity
  8
0
  6
Continuous
 62
     7
370
    25
100
AcDbLine
 10
494.729869099
 20
668.6742494699
 30
0.0
 11
468.8137400023
 21
419.2807639834
 31
0.0
  0
LINE
  5
234
330
1F
100
AcDbEntity
  8
0
  6
Continuous
 62
     7
370
    25
100
AcDbLine
 10
469.2557586897
 20
558.2869148698
 30
0.0
 11
483.2587906282
 21
558.2869148698
 31
0.0
  0
LINE
  5
235
330
1F
100
AcDbEntity
  8
0
  6
Continuous
 62
     7
370
    25
100
AcDbLine
 10
464.2219813342
 20
466.8300191756
 30
0.0
 11
473.7548997048
 21
466.8300191756
 31
0.0
  0
LINE
  5
236
330
1F
100
AcDbEntity
  8
0
  6
Continuous
 62
     7
370
    25
100
AcDbLine
 10
469.6252917604
 20
568.8690061566
 30
0.0
 11
484.3584498984
 21
568.8690061566
 31
0.0
  0
LINE
  5
237
330
1F
100
AcDbEntity
  8
0
  6
Continuous
 62
     7
370
    25
100
AcDbLine
 10
674.9369694597
 20
668.6742494699
 30
0.0
 11
702.7947398192
 21
419.2807639834
 31
0.0
  0
LINE
  5
238
330
1F
100
AcDbEntity
  8
0
  6
Continuous
 62
     7
370
    25
100
AcDbLine
 10
676.1047195898
 20
668.6742494699
 30
0.0
 11
705.0253953247
 21
419.2807639834
 31
0.0
  0
LINE
  5
239
330
1F
100
AcDbEntity
  8
0
  6
Continuous
 62
     7
370
    25
100
AcDbLine
 10
688.9056847653
 20
558.2869148698
 30
0.0
 11
690.6781366456
 21
558.2869148698
 31
0.0
  0
SPLINE
  5
23A
330
1F
100
AcDbEntity
  8
0
  6
Continuous
 62
     7
370
    25
100
AcDbSpline
210
0.0
220
0.0
230
1.0
 70
     8
 71
     3
 72
    10
 73
     6
 74
     0
 42
0.000000001
 43
0.00000001
 40
0.0
 40
0.0
 40
0.0
 40
0.0
 40
0.1359218886359152
 40
0.9851543362429028
 40
1.0
 40
1.0
 40
1.0
 40
1.0
 10
688.2537120989814
 20
607.6393837925093
 30
0.0
 10
688.2120676826038
 20
608.4726970700294
 30
0.0
 10
687.9102312544436
 20
614.5125056471219
 30
0.0
 10
687.5942456834354
 20
620.6277386685373
 30
0.0
 10
687.3061097644974
 20
625.8764863164689
 30
0.0
 10
687.3011593220401
 20
625.96666467153
 30
0.0
  0
SPLINE
  5
23B
330
1F
100
AcDbEntity
  8
0
  6
Continuous
 62
     7
370
    25
100
AcDbSpline
210
0.0
220
0.0
230
1.0
 70
     8
 71
     3
 72
    12
 73
     8
 74
     0
 42
0.000000001
 43
0.00000001
 40
0.0
 40
0.0
 40
0.0
 40
0.0
 40
0.5432296968420752
 40
0.7686599698172716
 40
0.8975712587477624
 40
0.971917721075412
 40
1.0
 40
1.0
 40
1.0
 40
1.0
 10
690.1293744855344
 20
568.8690061565535
 30
0.0
 10
690.1292446567016
 20
568.9976855217529
 30
0.0
 10
690.1290609513054
 20
569.1797644425948
 30
0.0
 10
690.1235771434128
 20
569.484123466471
 30
0.0
 10
690.1197386306645
 20
569.6827048124738
 30
0.0
 10
690.1170943616218
 20
569.827778048915
 30
0.0
 10
690.1157491653993
 20
569.9206750308741
 30
0.0
 10
690.1153803609499
 20
569.9461440440314
 30
0.0
  0
LINE
  5
23C
330
1F
100
AcDbEntity
  8
0
  6
Continuous
 62
     7
370
    25
100
AcDbLine
 10
687.67853667
 20
568.8690061566
 30
0.0
 11
690.1293744855
 21
568.8690061566
 31
0.0
  0
LINE
  5
23D
330
1F
100
AcDbEntity
  8
0
  6
Continuous
 62
     7
370
    25
100
AcDbLine
 10
690.3518345898
 20
568.6280506548
 30
0.0
 11
690.1293744855
 21
568.8690061566
 31
0.0
  0
SPLINE
  5
23E
330
1F
100
AcDbEntity
  8
0
  6
Continuous
 62
     7
370
    25
100
AcDbSpline
210
0.0
220
0.0
230
1.0
 70
     8
 71
     3
 72
    10
 73
     6
 74
     0
 42
0.000000001
 43
0.00000001
 40
0.0
 40
0.0
 40
0.0
 40
0.0
 40
0.000058889605235
 40
0.5432986294956307
 40
1.0
 40
1.0
 40
1.0
 40
1.0
 10
690.6797995786019
 20
558.2863057848112
 30
0.0
 10
690.6797918397872
 20
558.2865088131332
 30
0.0
 10
690.608395752201
 20
560.1595899574157
 30
0.0
 10
690.5154665341893
 20
563.606794804153
 30
0.0
 10
690.4031381417941
 20
567.0537354341774
 30
0.0
 10
690.3518345897947
 20
568.6280506547587
 30
0.0
  0
LINE
  5
23F
330
1F
100
AcDbEntity
  8
0
  6
Continuous
 62
     7
370
    25
100
AcDbLine
 10
690.6781366456
 20
558.2869148698
 30
0.0
 11
690.6797995786
 21
558.2863057848
 31
0.0
  0
LINE
  5
240
330
1F
100
AcDbEntity
  8
0
  6
Continuous
 62
     7
370
    25
100
AcDbLine
 10
690.6797995786
 20
558.2863057848
 30
0.0
 11
690.6789355385
 21
558.2126046415
 31
0.0
  0
SPLINE
  5
241
330
1F
100
AcDbEntity
  8
0
  6
Continuous
 62
     7
370
    25
100
AcDbSpline
210
0.0
220
0.0
230
1.0
 70
    24
 71
     3
 72
    18
 73
    14
 74
     0
 42
0.000000001
 43
0.00000001
 40
0.0
 40
0.0
 40
0.0
 40
0.0
 40
0.0091248097096448
 40
0.1171430722086029
 40
0.2251611148036057
 40
0.3331808779131311
 40
0.4412001889469453
 40
0.5492259090442341
 40
0.6572517930806347
 40
0.7652843026827548
 40
0.8733168240931687
 40
0.981355174862337
 40
1.0
 40
1.0
 40
1.0
 40
1.0
 10
704.3183630162115
 20
425.3777528997556
 30
0.0
 10
704.3842454825802
 20
425.3777528997556
 30
0.0
 10
705.2300356700687
 20
425.3777528997556
 30
0.0
 10
706.8596693612043
 20
425.3777528997556
 30
0.0
 10
709.1252552612556
 20
425.3777528997555
 30
0.0
 10
711.2491532279976
 20
425.3777528997556
 30
0.0
 10
713.1760746149058
 20
425.3777528997556
 30
0.0
 10
714.8432856669626
 20
425.3777528997556
 30
0.0
 10
716.2115940794938
 20
425.3777528997556
 30
0.0
 10
717.2410484639654
 20
425.3777528997556
 30
0.0
 10
717.871574763365
 20
425.3777528997556
 30
0.0
 10
718.1380600991923
 20
425.3777528997556
 30
0.0
 10
718.0776643814112
 20
425.3777528997556
 30
0.0
 10
718.0687755326036
 20
425.3777528997556
 30
0.0
  0
LINE
  5
242
330
1F
100
AcDbEntity
  8
0
  6
Continuous
 62
     7
370
    25
100
AcDbLine
 10
690.2836215199
 20
568.3392028209
 30
0.0
 11
690.3518345898
 21
568.6280506548
 31
0.0
  0
LINE
  5
243
330
1F
100
AcDbEntity
  8
0
  6
Continuous
 62
     7
370
    25
100
AcDbLine
 10
467.485717902
 20
525.4230632331
 30
0.0
 11
455.1770302206
 21
419.2807639834
 31
0.0
  0
SPLINE
  5
244
330
1F
100
AcDbEntity
  8
0
  6
Continuous
 62
     8
370
    25
100
AcDbSpline
210
0.0
220
0.0
230
1.0
 70
     8
 71
     3
 72
    26
 73
    22
 74
     0
 42
0.000000001
 43
0.00000001
 40
0.0
 40
0.0
 40
0.0
 40
0.0
 40
0.0239576751698678
 40
0.0774771330019636
 40
0.1325485689927318
 40
0.1860680904562462
 40
0.2411397190640321
 40
0.2946590028666716
 40
0.3497304586013688
 40
0.4032496781842532
 40
0.4583207268958664
 40
0.5118396968577135
 40
0.5669106844213818
 40
0.6204293700237575
 40
0.675500116894952
 40
0.7290187406931845
 40
0.7840893035133585
 40
0.8376079978608534
 40
0.8926786944193011
 40
0.9461975323249913
 40
0.9999999999999999
 40
0.9999999999999999
 40
0.9999999999999999
 40
0.9999999999999999
 10
544.8465122531167
 20
424.8184080120221
 30
0.0
 10
544.8230785532667
 20
424.8185542882817
 30
0.0
 10
544.7472959129586
 20
424.8190273335641
 30
0.0
 10
544.3082477022788
 20
424.8198501406423
 30
0.0
 10
543.3530162354141
 20
424.8208442676998
 30
0.0
 10
541.9683582553708
 20
424.8217926380619
 30
0.0
 10
540.2253941373125
 20
424.8226830339692
 30
0.0
 10
538.1402066701888
 20
424.8234977738925
 30
0.0
 10
535.8098530540385
 20
424.8242086640734
 30
0.0
 10
533.2582195513652
 20
424.8248187848674
 30
0.0
 10
530.603492890325
 20
424.8253011842951
 30
0.0
 10
527.873021552405
 20
424.8256657006692
 30
0.0
 10
525.1932443163209
 20
424.82590557528
 30
0.0
 10
522.5917634283977
 20
424.8259899527332
 30
0.0
 10
520.1890944693521
 20
424.8259579805566
 30
0.0
 10
518.0097786507532
 20
424.8257816901585
 30
0.0
 10
516.1555584061375
 20
424.8254741568845
 30
0.0
 10
514.6423691340143
 20
424.8250324047331
 30
0.0
 10
513.552123735077
 20
424.8244724348917
 30
0.0
 10
512.8572183914093
 20
424.8238147234437
 30
0.0
 10
512.7778167513798
 20
424.8232952471554
 30
0.0
 10
512.7380110096594
 20
424.8230348225728
 30
0.0
  0
LINE
  5
245
330
1F
100
AcDbEntity
  8
0
  6
Continuous
 62
     8
370
    25
100
AcDbLine
 10
596.2855287618
 20
456.2479297515
 30
0.0
 11
685.3094383668
 21
456.2479297515
 31
0.0
  0
LINE
  5
246
330
1F
100
AcDbEntity
  8
0
  6
Continuous
 62
     8
370
    25
100
AcDbLine
 10
596.0783910812
 20
467.628751218
 30
0.0
 11
684.774827102
 21
467.628751218
 31
0.0
  0
LINE
  5
247
330
1F
100
AcDbEntity
  8
0
  6
Continuous
 62
     8
370
    25
100
AcDbLine
 10
476.4320833589
 20
672.527361929
 30
0.0
 11
683.7703421865
 21
672.527361929
 31
0.0
  0
SPLINE
  5
248
330
1F
100
AcDbEntity
  8
0
  6
Continuous
 62
     8
370
    25
100
AcDbSpline
210
0.0
220
0.0
230
1.0
 70
     8
 71
     3
 72
     9
 73
     5
 74
     0
 42
0.000000001
 43
0.00000001
 40
0.0
 40
0.0
 40
0.0
 40
0.0
 40
0.7561718731616216
 40
1.0
 40
1.0
 40
1.0
 40
1.0
 10
544.8465122531167
 20
424.8184080120221
 30
0.0
 10
544.7615109514
 20
424.9034992497723
 30
0.0
 10
544.6491009230275
 20
425.0160282141127
 30
0.0
 10
544.5382304805231
 20
425.057748038902
 30
0.0
 10
544.5111971482055
 20
425.0679205056325
 30
0.0
  0
LINE
  5
249
330
1F
100
AcDbEntity
  8
0
  6
Continuous
 62
     8
370
    25
100
AcDbLine
 10
594.2161725003
 20
569.946144044
 30
0.0
 11
679.9677435308
 21
569.946144044
 31
0.0
  0
ARC
  5
24A
330
1F
100
AcDbEntity
  8
0
  6
Continuous
 62
     8
370
    25
100
AcDbCircle
 10
553.9664889762
 20
420.8706938538
 30
0.0
 40
4.442582996958368
100
AcDbArc
 50
339.0296911737
 51
3.1810742958
  0
SPLINE
  5
24B
330
1F
100
AcDbEntity
  8
0
  6
Continuous
 62
     8
370
    25
100
AcDbSpline
210
0.0
220
0.0
230
1.0
 70
     8
 71
     3
 72
     9
 73
     5
 74
     0
 42
0.000000001
 43
0.00000001
 40
0.0
 40
0.0
 40
0.0
 40
0.0
 40
0.1214898520330764
 40
1.0
 40
1.0
 40
1.0
 40
1.0
 10
516.2047915179159
 20
425.3777528997556
 30
0.0
 10
516.2472695434507
 20
425.4078470040446
 30
0.0
 10
516.5969121253122
 20
425.6555557944123
 30
0.0
 10
516.9298368545387
 20
425.9368396778057
 30
0.0
 10
517.2223146076733
 20
426.1839504238263
 30
0.0
  0
ARC
  5
24C
330
1F
100
AcDbEntity
  8
0
  6
Continuous
 62
     8
370
    25
100
AcDbCircle
 10
505.4590571429
 20
417.5180539992
 30
0.0
 40
14.61068058045619
100
AcDbArc
 50
32.4627583898
 51
36.3787734439
  0
LINE
  5
24D
330
1F
100
AcDbEntity
  8
0
  6
Continuous
 62
     8
370
    25
100
AcDbLine
 10
506.2924152818
 20
421.1172203418
 30
0.0
 11
507.4320020403
 21
421.192948043
 31
0.0
  0
LWPOLYLINE
  5
24E
330
1F
100
AcDbEntity
  8
0
  6
Continuous
 62
     8
370
    25
100
AcDbPolyline
 90
        3
 70
   128
 43
0.0
 10
506.2924152818
 20
421.1172203418
 10
506.2575394464
 20
420.7444156405
 10
506.2410623547
 20
420.6485639211
  0
LINE
  5
24F
330
1F
100
AcDbEntity
  8
0
  6
Continuous
 62
     8
370
    25
100
AcDbLine
 10
461.8678216852
 20
421.1172203418
 30
0.0
 11
469.0045803541
 21
421.1172203418
 31
0.0
  0
LINE
  5
250
330
1F
100
AcDbEntity
  8
0
  6
Continuous
 62
     8
370
    25
100
AcDbLine
 10
463.7599557195
 20
456.2479297515
 30
0.0
 11
472.6552419135
 21
456.2479297515
 31
0.0
  0
LINE
  5
251
330
1F
100
AcDbEntity
  8
0
  6
Continuous
 62
     8
370
    25
100
AcDbLine
 10
464.3729257438
 20
467.628751218
 30
0.0
 11
473.8378994437
 21
467.628751218
 31
0.0
  0
LINE
  5
252
330
1F
100
AcDbEntity
  8
0
  6
Continuous
 62
     8
370
    25
100
AcDbLine
 10
469.8837228754
 20
569.946144044
 30
0.0
 11
484.4703779509
 21
569.946144044
 31
0.0
  0
SPLINE
  5
253
330
1F
100
AcDbEntity
  8
0
  6
Continuous
 62
     8
370
    25
100
AcDbSpline
210
0.0
220
0.0
230
1.0
 70
     8
 71
     3
 72
     9
 73
     5
 74
     0
 42
0.000000001
 43
0.00000001
 40
0.0
 40
0.0
 40
0.0
 40
0.0
 40
0.2389515706142348
 40
1.0
 40
1.0
 40
1.0
 40
1.0
 10
691.9262031634125
 20
532.2398648481862
 30
0.0
 10
691.8271056703037
 20
534.3160304061587
 30
0.0
 10
691.4123877722202
 20
543.0046761959132
 30
0.0
 10
690.9954480024866
 20
551.6825969270268
 30
0.0
 10
690.6781366455822
 20
558.286914869775
 30
0.0
  0
SPLINE
  5
254
330
1F
100
AcDbEntity
  8
0
  6
Continuous
 62
     8
370
    25
100
AcDbSpline
210
0.0
220
0.0
230
1.0
 70
     8
 71
     3
 72
     9
 73
     5
 74
     0
 42
0.000000001
 43
0.00000001
 40
0.0
 40
0.0
 40
0.0
 40
0.0
 40
0.5331068861990916
 40
1.0
 40
1.0
 40
1.0
 40
1.0
 10
690.1153803609499
 20
569.9461440440314
 30
0.0
 10
689.7901251946721
 20
576.6549931674401
 30
0.0
 10
689.180012711232
 20
589.2394284787924
 30
0.0
 10
688.5485416084396
 20
601.7829158948865
 30
0.0
 10
688.2537120989814
 20
607.6393837925093
 30
0.0
  0
LINE
  5
255
330
1F
100
AcDbEntity
  8
0
  6
Continuous
 62
     8
370
    25
100
AcDbLine
 10
687.5536281987
 20
569.946144044
 30
0.0
 11
690.1153803609
 21
569.946144044
 31
0.0
  0
SPLINE
  5
256
330
1F
100
AcDbEntity
  8
0
  6
Continuous
 62
     8
370
    25
100
AcDbSpline
210
0.0
220
0.0
230
1.0
 70
     8
 71
     3
 72
    15
 73
    11
 74
     0
 42
0.000000001
 43
0.00000001
 40
0.0
 40
0.0
 40
0.0
 40
0.0
 40
0.1586831867761039
 40
0.2830462023273271
 40
0.41101550338283
 40
0.5353791455815126
 40
0.6633492093961528
 40
0.7877141436956046
 40
0.915685391143879
 40
1.0
 40
1.0
 40
1.0
 40
1.0
 10
720.3567772727248
 20
424.3662695284978
 30
0.0
 10
720.0342168886245
 20
424.3660325282793
 30
0.0
 10
719.4588598290916
 20
424.3656097865057
 30
0.0
 10
717.9327323525716
 20
424.3646320319021
 30
0.0
 10
716.1805615508964
 20
424.3635357996741
 30
0.0
 10
714.0600604215201
 20
424.3622248824148
 30
0.0
 10
711.6819584826039
 20
424.3607521434259
 30
0.0
 10
709.0668093846084
 20
424.3591091121346
 30
0.0
 10
706.6289597453782
 20
424.357571354537
 30
0.0
 10
705.0599921927538
 20
424.3565445570511
 30
0.0
 10
704.4368376981002
 20
424.356136738886
 30
0.0
  0
LINE
  5
257
330
1F
100
AcDbEntity
  8
0
  6
Continuous
 62
     8
370
    25
100
AcDbLine
 10
690.1565669287
 20
569.8577540811
 30
0.0
 11
690.1153803609
 21
569.946144044
 31
0.0
  0
ENDSEC
  0
SECTION
  2
OBJECTS
  0
DICTIONARY
  5
C
330
0
100
AcDbDictionary
281
     1
  3
ACAD_GROUP
350
D
  3
ACAD_LAYOUT
350
1A
  3
ACAD_MLINESTYLE
350
17
  3
ACAD_PLOTSETTINGS
350
19
  3
ACAD_PLOTSTYLENAME
350
E
  3
ACAD_SCALELIST
350
47
  0
DICTIONARY
  5
D
102
{ACAD_REACTORS
330
C
102
}
330
C
100
AcDbDictionary
281
     1
  0
DICTIONARY
  5
1A
102
{ACAD_REACTORS
330
C
102
}
330
C
100
AcDbDictionary
281
     1
  3
Layout1
350
1E
  3
Layout2
350
26
  3
Model
350
22
  0
DICTIONARY
  5
17
102
{ACAD_REACTORS
330
C
102
}
330
C
100
AcDbDictionary
281
     1
  3
Standard
350
18
  0
DICTIONARY
  5
19
102
{ACAD_REACTORS
330
C
102
}
330
C
100
AcDbDictionary
281
     1
  0
ACDBDICTIONARYWDFLT
  5
E
102
{ACAD_REACTORS
330
C
102
}
330
C
100
AcDbDictionary
281
     1
  3
Normal
350
F
100
AcDbDictionaryWithDefault
340
F
  0
DICTIONARY
  5
47
102
{ACAD_REACTORS
330
C
102
}
330
C
100
AcDbDictionary
281
     1
  3
A0
350
48
  3
A1
350
49
  3
A2
350
4A
  3
A3
350
4B
  3
A4
350
4C
  3
A5
350
4D
  3
A6
350
4E
  3
A7
350
4F
  3
A8
350
50
  3
A9
350
51
  3
B0
350
52
  3
B1
350
53
  3
B2
350
54
  3
B3
350
55
  3
B4
350
56
  3
B5
350
57
  3
B6
350
58
  3
B7
350
59
  3
B8
350
5A
  3
B9
350
5B
  3
C0
350
5C
  3
C1
350
5D
  3
C2
350
5E
  3
C3
350
5F
  3
C4
350
60
  3
C5
350
61
  3
C6
350
62
  3
C7
350
63
  3
C8
350
64
  3
C9
350
65
  3
D0
350
66
  3
D1
350
67
  3
D2
350
68
  0
LAYOUT
  5
1E
102
{ACAD_REACTORS
330
1A
102
}
330
1A
100
AcDbPlotSettings
  1

  2
none_device
  4

  6

 40
0.0
 41
0.0
 42
0.0
 43
0.0
 44
0.0
 45
0.0
 46
0.0
 47
0.0
 48
0.0
 49
0.0
140
0.0
141
0.0
142
1.0
143
1.0
 70
   688
 72
     1
 73
     0
 74
     5
  7

 75
    16
147
1.0
148
0.0
149
0.0
100
AcDbLayout
  1
Layout1
 70
     1
 71
     1
 10
0.0
 20
0.0
 11
420.0
 21
297.0
 12
0.0
 22
0.0
 32
0.0
 14
1.0000000000E+20
 24
1.0000000000E+20
 34
1.0000000000E+20
 15
-1.0000000000E+20
 25
-1.0000000000E+20
 35
-1.0000000000E+20
146
0.0
 13
0.0
 23
0.0
 33
0.0
 16
1.0
 26
0.0
 36
0.0
 17
0.0
 27
1.0
 37
0.0
 76
     0
330
1B
  0
LAYOUT
  5
26
102
{ACAD_REACTORS
330
1A
102
}
330
1A
100
AcDbPlotSettings
  1

  2
none_device
  4

  6

 40
0.0
 41
0.0
 42
0.0
 43
0.0
 44
0.0
 45
0.0
 46
0.0
 47
0.0
 48
0.0
 49
0.0
140
0.0
141
0.0
142
1.0
143
1.0
 70
   688
 72
     1
 73
     0
 74
     5
  7

 75
    16
147
1.0
148
0.0
149
0.0
100
AcDbLayout
  1
Layout2
 70
     1
 71
     2
 10
0.0
 20
0.0
 11
0.0
 21
0.0
 12
0.0
 22
0.0
 32
0.0
 14
0.0
 24
0.0
 34
0.0
 15
0.0
 25
0.0
 35
0.0
146
0.0
 13
0.0
 23
0.0
 33
0.0
 16
1.0
 26
0.0
 36
0.0
 17
0.0
 27
1.0
 37
0.0
 76
     0
330
23
  0
LAYOUT
  5
22
102
{ACAD_REACTORS
330
1A
102
}
330
1A
100
AcDbPlotSettings
  1

  2
none_device
  4
Letter_(8.50_x_11.00_Inches)
  6

 40
6.35
 41
6.35
 42
6.35000508
 43
6.35000508
 44
215.9
 45
279.4
 46
0.0
 47
0.0
 48
0.0
 49
0.0
140
0.0
141
0.0
142
1.0
143
1.0
 70
  1712
 72
     1
 73
     0
 74
     0
  7

 75
     0
147
1.0
148
0.0
149
0.0
100
AcDbLayout
  1
Model
 70
     1
 71
     0
 10
0.0
 20
0.0
 11
1189.0
 21
841.0
 12
0.0
 22
0.0
 32
0.0
 14
0.0
 24
0.0
 34
0.0
 15
1189.0
 25
841.0
 35
0.0
146
0.0
 13
0.0
 23
0.0
 33
0.0
 16
1.0
 26
0.0
 36
0.0
 17
0.0
 27
1.0
 37
0.0
 76
     0
330
1F
331
29
  0
MLINESTYLE
  5
18
102
{ACAD_REACTORS
330
17
102
}
330
17
100
AcDbMlineStyle
  2
Standard
 70
     0
  3

 62
   256
 51
90.0
 52
90.0
 71
     2
 49
0.5
 62
   256
  6
BYLAYER
 49
-0.5
 62
   256
  6
BYLAYER
  0
ACDBPLACEHOLDER
  5
F
102
{ACAD_REACTORS
330
E
102
}
330
E
  0
SCALE
  5
48
102
{ACAD_REACTORS
330
47
102
}
330
47
100
AcDbScale
 70
     0
300
1:1
140
1.0
141
1.0
290
     1
  0
SCALE
  5
49
102
{ACAD_REACTORS
330
47
102
}
330
47
100
AcDbScale
 70
     0
300
1:2
140
1.0
141
2.0
290
     0
  0
SCALE
  5
4A
102
{ACAD_REACTORS
330
47
102
}
330
47
100
AcDbScale
 70
     0
300
1:4
140
1.0
141
4.0
290
     0
  0
SCALE
  5
4B
102
{ACAD_REACTORS
330
47
102
}
330
47
100
AcDbScale
 70
     0
300
1:5
140
1.0
141
5.0
290
     0
  0
SCALE
  5
4C
102
{ACAD_REACTORS
330
47
102
}
330
47
100
AcDbScale
 70
     0
300
1:8
140
1.0
141
8.0
290
     0
  0
SCALE
  5
4D
102
{ACAD_REACTORS
330
47
102
}
330
47
100
AcDbScale
 70
     0
300
1:10
140
1.0
141
10.0
290
     0
  0
SCALE
  5
4E
102
{ACAD_REACTORS
330
47
102
}
330
47
100
AcDbScale
 70
     0
300
1:16
140
1.0
141
16.0
290
     0
  0
SCALE
  5
4F
102
{ACAD_REACTORS
330
47
102
}
330
47
100
AcDbScale
 70
     0
300
1:20
140
1.0
141
20.0
290
     0
  0
SCALE
  5
50
102
{ACAD_REACTORS
330
47
102
}
330
47
100
AcDbScale
 70
     0
300
1:30
140
1.0
141
30.0
290
     0
  0
SCALE
  5
51
102
{ACAD_REACTORS
330
47
102
}
330
47
100
AcDbScale
 70
     0
300
1:40
140
1.0
141
40.0
290
     0
  0
SCALE
  5
52
102
{ACAD_REACTORS
330
47
102
}
330
47
100
AcDbScale
 70
     0
300
1:50
140
1.0
141
50.0
290
     0
  0
SCALE
  5
53
102
{ACAD_REACTORS
330
47
102
}
330
47
100
AcDbScale
 70
     0
300
1:100
140
1.0
141
100.0
290
     0
  0
SCALE
  5
54
102
{ACAD_REACTORS
330
47
102
}
330
47
100
AcDbScale
 70
     0
300
2:1
140
2.0
141
1.0
290
     0
  0
SCALE
  5
55
102
{ACAD_REACTORS
330
47
102
}
330
47
100
AcDbScale
 70
     0
300
4:1
140
4.0
141
1.0
290
     0
  0
SCALE
  5
56
102
{ACAD_REACTORS
330
47
102
}
330
47
100
AcDbScale
 70
     0
300
8:1
140
8.0
141
1.0
290
     0
  0
SCALE
  5
57
102
{ACAD_REACTORS
330
47
102
}
330
47
100
AcDbScale
 70
     0
300
10:1
140
10.0
141
1.0
290
     0
  0
SCALE
  5
58
102
{ACAD_REACTORS
330
47
102
}
330
47
100
AcDbScale
 70
     0
300
100:1
140
100.0
141
1.0
290
     0
  0
SCALE
  5
59
102
{ACAD_REACTORS
330
47
102
}
330
47
100
AcDbScale
 70
     0
300
1/128" = 1'-0"
140
0.0078125
141
12.0
290
     0
  0
SCALE
  5
5A
102
{ACAD_REACTORS
330
47
102
}
330
47
100
AcDbScale
 70
     0
300
1/64" = 1'-0"
140
0.015625
141
12.0
290
     0
  0
SCALE
  5
5B
102
{ACAD_REACTORS
330
47
102
}
330
47
100
AcDbScale
 70
     0
300
1/32" = 1'-0"
140
0.03125
141
12.0
290
     0
  0
SCALE
  5
5C
102
{ACAD_REACTORS
330
47
102
}
330
47
100
AcDbScale
 70
     0
300
1/16" = 1'-0"
140
0.0625
141
12.0
290
     0
  0
SCALE
  5
5D
102
{ACAD_REACTORS
330
47
102
}
330
47
100
AcDbScale
 70
     0
300
3/32" = 1'-0"
140
0.09375
141
12.0
290
     0
  0
SCALE
  5
5E
102
{ACAD_REACTORS
330
47
102
}
330
47
100
AcDbScale
 70
     0
300
1/8" = 1'-0"
140
0.125
141
12.0
290
     0
  0
SCALE
  5
5F
102
{ACAD_REACTORS
330
47
102
}
330
47
100
AcDbScale
 70
     0
300
3/16" = 1'-0"
140
0.1875
141
12.0
290
     0
  0
SCALE
  5
60
102
{ACAD_REACTORS
330
47
102
}
330
47
100
AcDbScale
 70
     0
300
1/4" = 1'-0"
140
0.25
141
12.0
290
     0
  0
SCALE
  5
61
102
{ACAD_REACTORS
330
47
102
}
330
47
100
AcDbScale
 70
     0
300
3/8" = 1'-0"
140
0.375
141
12.0
290
     0
  0
SCALE
  5
62
102
{ACAD_REACTORS
330
47
102
}
330
47
100
AcDbScale
 70
     0
300
1/2" = 1'-0"
140
0.5
141
12.0
290
     0
  0
SCALE
  5
63
102
{ACAD_REACTORS
330
47
102
}
330
47
100
AcDbScale
 70
     0
300
3/4" = 1'-0"
140
0.75
141
12.0
290
     0
  0
SCALE
  5
64
102
{ACAD_REACTORS
330
47
102
}
330
47
100
AcDbScale
 70
     0
300
1" = 1'-0"
140
1.0
141
12.0
290
     0
  0
SCALE
  5
65
102
{ACAD_REACTORS
330
47
102
}
330
47
100
AcDbScale
 70
     0
300
1-1/2" = 1'-0"
140
1.5
141
12.0
290
     0
  0
SCALE
  5
66
102
{ACAD_REACTORS
330
47
102
}
330
47
100
AcDbScale
 70
     0
300
3" = 1'-0"
140
3.0
141
12.0
290
     0
  0
SCALE
  5
67
102
{ACAD_REACTORS
330
47
102
}
330
47
100
AcDbScale
 70
     0
300
6" = 1'-0"
140
6.0
141
12.0
290
     0
  0
SCALE
  5
68
102
{ACAD_REACTORS
330
47
102
}
330
47
100
AcDbScale
 70
     0
300
1'-0" = 1'-0"
140
12.0
141
12.0
290
     0
  0
ENDSEC
  0
EOF
