  0
SECTION
  2
HEADER
  9
$ACADVER
  1
AC1015
  9
$ACADMAINTVER
 70
     6
  9
$DWGCODEPAGE
  3
ANSI_1254
  9
$INSBASE
 10
0.0
 20
0.0
 30
0.0
  9
$EXTMIN
 10
0.0
 20
0.0
 30
0.0
  9
$EXTMAX
 10
1189.0
 20
841.0
 30
0.0
  9
$LIMMIN
 10
0.0
 20
0.0
  9
$LIMMAX
 10
1189.0
 20
841.0
  9
$ORTHOMODE
 70
     0
  9
$REGENMODE
 70
     1
  9
$FILLMODE
 70
     1
  9
$QTEXTMODE
 70
     0
  9
$MIRRTEXT
 70
     1
  9
$LTSCALE
 40
1.0
  9
$ATTMODE
 70
     1
  9
$TEXTSIZE
 40
4.9388888889
  9
$TRACEWID
 40
1.0
  9
$TEXTSTYLE
  7
Standard
  9
$CLAYER
  8
0
  9
$CELTYPE
  6
ByLayer
  9
$CECOLOR
 62
   256
  9
$CELTSCALE
 40
1.0
  9
$DISPSILH
 70
     0
  9
$DIMSCALE
 40
1.0
  9
$DIMASZ
 40
3.65
  9
$DIMEXO
 40
0.5
  9
$DIMDLI
 40
3.75
  9
$DIMRND
 40
0.0
  9
$DIMDLE
 40
0.0
  9
$DIMEXE
 40
1.0
  9
$DIMTP
 40
0.0
  9
$DIMTM
 40
0.0
  9
$DIMTXT
 40
4.2333333333
  9
$DIMCEN
 40
2.5
  9
$DIMTSZ
 40
0.0
  9
$DIMTOL
 70
     0
  9
$DIMLIM
 70
     0
  9
$DIMTIH
 70
     1
  9
$DIMTOH
 70
     1
  9
$DIMSE1
 70
     0
  9
$DIMSE2
 70
     0
  9
$DIMTAD
 70
     1
  9
$DIMZIN
 70
     0
  9
$DIMBLK
  1

  9
$DIMASO
 70
     1
  9
$DIMSHO
 70
     1
  9
$DIMPOST
  1

  9
$DIMAPOST
  1

  9
$DIMALT
 70
     0
  9
$DIMALTD
 70
     3
  9
$DIMALTF
 40
0.0393700787
  9
$DIMLFAC
 40
1.0
  9
$DIMTOFL
 70
     1
  9
$DIMTVP
 40
0.0
  9
$DIMTIX
 70
     0
  9
$DIMSOXD
 70
     0
  9
$DIMSAH
 70
     0
  9
$DIMBLK1
  1

  9
$DIMBLK2
  1

  9
$DIMSTYLE
  2
ISO-25
  9
$DIMCLRD
 70
     0
  9
$DIMCLRE
 70
     0
  9
$DIMCLRT
 70
     0
  9
$DIMTFAC
 40
1.0
  9
$DIMGAP
 40
1.524
  9
$DIMJUST
 70
     0
  9
$DIMSD1
 70
     0
  9
$DIMSD2
 70
     0
  9
$DIMTOLJ
 70
     0
  9
$DIMTZIN
 70
     0
  9
$DIMALTZ
 70
     0
  9
$DIMALTTZ
 70
     0
  9
$DIMUPT
 70
     0
  9
$DIMDEC
 70
     2
  9
$DIMTDEC
 70
     2
  9
$DIMALTU
 70
     2
  9
$DIMALTTD
 70
     3
  9
$DIMTXSTY
  7
Standard
  9
$DIMAUNIT
 70
     0
  9
$DIMADEC
 70
     2
  9
$DIMALTRND
 40
0.0
  9
$DIMAZIN
 70
     0
  9
$DIMDSEP
 70
    44
  9
$DIMATFIT
 70
     3
  9
$DIMFRAC
 70
     0
  9
$DIMLDRBLK
  1

  9
$DIMLUNIT
 70
     2
  9
$DIMLWD
 70
    -2
  9
$DIMLWE
 70
    -2
  9
$DIMTMOVE
 70
     0
  9
$LUNITS
 70
     2
  9
$LUPREC
 70
     2
  9
$SKETCHINC
 40
1.0
  9
$FILLETRAD
 40
10.0
  9
$AUNITS
 70
     0
  9
$AUPREC
 70
     2
  9
$MENU
  1
.
  9
$ELEVATION
 40
0.0
  9
$PELEVATION
 40
0.0
  9
$THICKNESS
 40
0.0
  9
$LIMCHECK
 70
     0
  9
$CHAMFERA
 40
0.0
  9
$CHAMFERB
 40
0.0
  9
$CHAMFERC
 40
0.0
  9
$CHAMFERD
 40
0.0
  9
$SKPOLY
 70
     0
  9
$TDCREATE
 40
2459079.707323229
  9
$TDUCREATE
 40
2459079.582323229
  9
$TDUPDATE
 40
2459079.707324062
  9
$TDUUPDATE
 40
2459079.582324062
  9
$TDINDWG
 40
0.0000000116
  9
$TDUSRTIMER
 40
0.0000000116
  9
$USRTIMER
 70
     1
  9
$ANGBASE
 50
0.0
  9
$ANGDIR
 70
     0
  9
$PDMODE
 70
     0
  9
$PDSIZE
 40
-1.0
  9
$PLINEWID
 40
0.0
  9
$SPLFRAME
 70
     0
  9
$SPLINETYPE
 70
     6
  9
$SPLINESEGS
 70
     8
  9
$HANDSEED
  5
332
  9
$SURFTAB1
 70
     6
  9
$SURFTAB2
 70
     6
  9
$SURFTYPE
 70
     6
  9
$SURFU
 70
     6
  9
$SURFV
 70
     6
  9
$UCSBASE
  2

  9
$UCSNAME
  2

  9
$UCSORG
 10
0.0
 20
0.0
 30
0.0
  9
$UCSXDIR
 10
1.0
 20
0.0
 30
0.0
  9
$UCSYDIR
 10
0.0
 20
1.0
 30
0.0
  9
$UCSORTHOREF
  2

  9
$UCSORTHOVIEW
 70
     0
  9
$UCSORGTOP
 10
0.0
 20
0.0
 30
0.0
  9
$UCSORGBOTTOM
 10
0.0
 20
0.0
 30
0.0
  9
$UCSORGLEFT
 10
0.0
 20
0.0
 30
0.0
  9
$UCSORGRIGHT
 10
0.0
 20
0.0
 30
0.0
  9
$UCSORGFRONT
 10
0.0
 20
0.0
 30
0.0
  9
$UCSORGBACK
 10
0.0
 20
0.0
 30
0.0
  9
$PUCSBASE
  2

  9
$PUCSNAME
  2

  9
$PUCSORG
 10
0.0
 20
0.0
 30
0.0
  9
$PUCSXDIR
 10
1.0
 20
0.0
 30
0.0
  9
$PUCSYDIR
 10
0.0
 20
1.0
 30
0.0
  9
$PUCSORTHOREF
  2

  9
$PUCSORTHOVIEW
 70
     0
  9
$PUCSORGTOP
 10
0.0
 20
0.0
 30
0.0
  9
$PUCSORGBOTTOM
 10
0.0
 20
0.0
 30
0.0
  9
$PUCSORGLEFT
 10
0.0
 20
0.0
 30
0.0
  9
$PUCSORGRIGHT
 10
0.0
 20
0.0
 30
0.0
  9
$PUCSORGFRONT
 10
0.0
 20
0.0
 30
0.0
  9
$PUCSORGBACK
 10
0.0
 20
0.0
 30
0.0
  9
$USERI1
 70
     0
  9
$USERI2
 70
     0
  9
$USERI3
 70
     0
  9
$USERI4
 70
     0
  9
$USERI5
 70
     0
  9
$USERR1
 40
0.0
  9
$USERR2
 40
0.0
  9
$USERR3
 40
0.0
  9
$USERR4
 40
0.0
  9
$USERR5
 40
0.0
  9
$WORLDVIEW
 70
     1
  9
$SHADEDGE
 70
     3
  9
$SHADEDIF
 70
    70
  9
$TILEMODE
 70
     1
  9
$MAXACTVP
 70
    64
  9
$PINSBASE
 10
0.0
 20
0.0
 30
0.0
  9
$PLIMCHECK
 70
     0
  9
$PEXTMIN
 10
1.0000000000E+20
 20
1.0000000000E+20
 30
1.0000000000E+20
  9
$PEXTMAX
 10
-1.0000000000E+20
 20
-1.0000000000E+20
 30
-1.0000000000E+20
  9
$PLIMMIN
 10
0.0
 20
0.0
  9
$PLIMMAX
 10
420.0
 20
297.0
  9
$UNITMODE
 70
     0
  9
$VISRETAIN
 70
     1
  9
$PLINEGEN
 70
     0
  9
$PSLTSCALE
 70
     1
  9
$TREEDEPTH
 70
  3020
  9
$CMLSTYLE
  2
Standard
  9
$CMLJUST
 70
     0
  9
$CMLSCALE
 40
20.0
  9
$PROXYGRAPHICS
 70
     1
  9
$MEASUREMENT
 70
     1
  9
$CELWEIGHT
370
    -1
  9
$ENDCAPS
280
     0
  9
$JOINSTYLE
280
     0
  9
$LWDISPLAY
290
     1
  9
$INSUNITS
 70
     4
  9
$HYPERLINKBASE
  1

  9
$STYLESHEET
  1

  9
$XEDIT
290
     1
  9
$CEPSNTYPE
380
     0
  9
$PSTYLEMODE
290
     1
  9
$FINGERPRINTGUID
  2
{d82bbcb6-5037-4ade-bf8c-6aaa4d8729cb}
  9
$VERSIONGUID
  2
{FAEB1C32-E019-11D5-929B-00C0DF256EC4}
  9
$EXTNAMES
290
     1
  9
$PSVPSCALE
 40
0.0
  9
$OLESTARTUP
290
     0
  0
ENDSEC
  0
SECTION
  2
CLASSES
  0
CLASS
  1
ACDBDICTIONARYWDFLT
  2
AcDbDictionaryWithDefault
  3
ObjectDBX Classes
 90
        0
280
     0
281
     0
  0
CLASS
  1
VISUALSTYLE
  2
AcDbVisualStyle
  3
ObjectDBX Classes
 90
     4095
280
     0
281
     0
  0
CLASS
  1
MATERIAL
  2
AcDbMaterial
  3
ObjectDBX Classes
 90
     1153
280
     0
281
     0
  0
CLASS
  1
SCALE
  2
AcDbScale
  3
ObjectDBX Classes
 90
     1153
280
     0
281
     0
  0
CLASS
  1
TABLESTYLE
  2
AcDbTableStyle
  3
ObjectDBX Classes
 90
     4095
280
     0
281
     0
  0
CLASS
  1
MLEADERSTYLE
  2
AcDbMLeaderStyle
  3
ACDB_MLEADERSTYLE_CLASS
 90
     4095
280
     0
281
     0
  0
CLASS
  1
SUN
  2
AcDbSun
  3
SCENEOE
 90
     1153
280
     0
281
     0
  0
CLASS
  1
ACDBPLACEHOLDER
  2
AcDbPlaceHolder
  3
ObjectDBX Classes
 90
        0
280
     0
281
     0
  0
CLASS
  1
LAYOUT
  2
AcDbLayout
  3
ObjectDBX Classes
 90
        0
280
     0
281
     0
  0
ENDSEC
  0
SECTION
  2
TABLES
  0
TABLE
  2
VPORT
  5
8
330
0
100
AcDbSymbolTable
 70
     1
  0
VPORT
  5
29
330
8
100
AcDbSymbolTableRecord
100
AcDbViewportTableRecord
  2
*Active
 70
     0
 10
0.0
 20
0.0
 11
1.0
 21
1.0
 12
594.5
 22
420.5
 13
0.0
 23
0.0
 14
10.0
 24
10.0
 15
10.0
 25
10.0
 16
0.0
 26
0.0
 36
1.0
 17
0.0
 27
0.0
 37
0.0
 40
841.0
 41
1.4137931034
 42
50.0
 43
0.0
 44
0.0
 50
0.0
 51
0.0
 71
     0
 72
  2000
 73
     1
 74
     3
 75
     0
 76
     0
 77
     0
 78
     0
281
     0
 65
     1
110
0.0
120
0.0
130
0.0
111
1.0
121
0.0
131
0.0
112
0.0
122
1.0
132
0.0
 79
     0
146
0.0
  0
ENDTAB
  0
TABLE
  2
LTYPE
  5
5
330
0
100
AcDbSymbolTable
 70
     6
  0
LTYPE
  5
14
330
5
100
AcDbSymbolTableRecord
100
AcDbLinetypeTableRecord
  2
ByBlock
 70
     0
  3

 72
    65
 73
     0
 40
0.0
  0
LTYPE
  5
15
330
5
100
AcDbSymbolTableRecord
100
AcDbLinetypeTableRecord
  2
ByLayer
 70
     0
  3

 72
    65
 73
     0
 40
0.0
  0
LTYPE
  5
16
330
5
100
AcDbSymbolTableRecord
100
AcDbLinetypeTableRecord
  2
Continuous
 70
     0
  3
Solid line
 72
    65
 73
     0
 40
0.0
  0
LTYPE
  5
6E
330
5
100
AcDbSymbolTableRecord
100
AcDbLinetypeTableRecord
  2
HIDDEN
 70
     0
  3
Hidden __ __ __ __ __ __ __ __ __ __ __ __ __ __
 72
    65
 73
     2
 40
1.905
 49
1.27
 74
     0
 49
-0.635
 74
     0
  0
LTYPE
  5
6F
330
5
100
AcDbSymbolTableRecord
100
AcDbLinetypeTableRecord
  2
PHANTOM
 70
     0
  3
Phantom ______  __  __  ______  __  __  ______
 72
    65
 73
     6
 40
12.7
 49
6.35
 74
     0
 49
-1.27
 74
     0
 49
1.27
 74
     0
 49
-1.27
 74
     0
 49
1.27
 74
     0
 49
-1.27
 74
     0
  0
LTYPE
  5
70
330
5
100
AcDbSymbolTableRecord
100
AcDbLinetypeTableRecord
  2
CENTER
 70
     0
  3
Center ____ _ ____ _ ____ _ ____ _ ____ _ ____
 72
    65
 73
     4
 40
10.16
 49
6.35
 74
     0
 49
-1.27
 74
     0
 49
1.27
 74
     0
 49
-1.27
 74
     0
  0
LTYPE
  5
71
330
5
100
AcDbSymbolTableRecord
100
AcDbLinetypeTableRecord
  2
CENTERX2
 70
     0
  3
Center (2x) ________  __  ________  __  _____
 72
    65
 73
     4
 40
20.32
 49
12.7
 74
     0
 49
-2.54
 74
     0
 49
2.54
 74
     0
 49
-2.54
 74
     0
  0
LTYPE
  5
72
330
5
100
AcDbSymbolTableRecord
100
AcDbLinetypeTableRecord
  2
DOT2
 70
     0
  3
Dot (.5x) ........................................
 72
    65
 73
     2
 40
0.635
 49
0.0
 74
     0
 49
-0.635
 74
     0
  0
ENDTAB
  0
TABLE
  2
LAYER
  5
2
330
0
100
AcDbSymbolTable
 70
     5
  0
LAYER
  5
10
330
2
100
AcDbSymbolTableRecord
100
AcDbLayerTableRecord
  2
0
 70
     0
 62
     7
  6
Continuous
370
    -3
390
F
  0
LAYER
  5
73
330
2
100
AcDbSymbolTableRecord
100
AcDbLayerTableRecord
  2
FORMAT
 70
     0
 62
     7
  6
Continuous
370
    -3
390
F
  0
LAYER
  5
74
330
2
100
AcDbSymbolTableRecord
100
AcDbLayerTableRecord
  2
SLD-0
 70
     0
 62
   179
  6
Continuous
370
    -3
390
F
  0
LAYER
  5
75
330
2
100
AcDbSymbolTableRecord
100
AcDbLayerTableRecord
  2
AAA_EKSEN
 70
     0
 62
     1
  6
CENTER
370
    -3
390
F
  0
LAYER
  5
76
330
2
100
AcDbSymbolTableRecord
100
AcDbLayerTableRecord
  2
03
 70
     0
 62
     3
  6
HIDDEN
370
    -3
390
F
  0
ENDTAB
  0
TABLE
  2
STYLE
  5
3
330
0
100
AcDbSymbolTable
 70
     1
  0
STYLE
  5
11
330
3
100
AcDbSymbolTableRecord
100
AcDbTextStyleTableRecord
  2
Standard
 70
     0
 40
0.0
 41
1.0
 50
0.0
 71
     0
 42
4.9388888889
  3
txt
  4

  0
ENDTAB
  0
TABLE
  2
VIEW
  5
6
330
0
100
AcDbSymbolTable
 70
     0
  0
ENDTAB
  0
TABLE
  2
UCS
  5
7
330
0
100
AcDbSymbolTable
 70
     0
  0
ENDTAB
  0
TABLE
  2
APPID
  5
9
330
0
100
AcDbSymbolTable
 70
     1
  0
APPID
  5
12
330
9
100
AcDbSymbolTableRecord
100
AcDbRegAppTableRecord
  2
ACAD
 70
     0
  0
ENDTAB
  0
TABLE
  2
DIMSTYLE
  5
A
330
0
100
AcDbSymbolTable
 70
     1
100
AcDbDimStyleTable
  0
DIMSTYLE
105
27
330
A
100
AcDbSymbolTableRecord
100
AcDbDimStyleTableRecord
  2
ISO-25
 70
     0
 41
2.5
 42
0.625
 43
3.75
 44
1.25
 73
     0
 74
     0
 77
     1
 78
     8
140
2.5
141
2.5
143
0.0393700787
147
0.625
171
     3
172
     1
178
     0
271
     2
272
     2
274
     3
278
    44
283
     0
284
     8
340
11
  0
ENDTAB
  0
TABLE
  2
BLOCK_RECORD
  5
1
330
0
100
AcDbSymbolTable
 70
     1
  0
BLOCK_RECORD
  5
1F
330
1
100
AcDbSymbolTableRecord
100
AcDbBlockTableRecord
  2
*Model_Space
340
22
  0
BLOCK_RECORD
  5
1B
330
1
100
AcDbSymbolTableRecord
100
AcDbBlockTableRecord
  2
*Paper_Space
340
1E
  0
BLOCK_RECORD
  5
23
330
1
100
AcDbSymbolTableRecord
100
AcDbBlockTableRecord
  2
*Paper_Space0
340
26
  0
ENDTAB
  0
ENDSEC
  0
SECTION
  2
BLOCKS
  0
BLOCK
  5
20
330
1F
100
AcDbEntity
  8
0
100
AcDbBlockBegin
  2
*Model_Space
 70
     0
 10
0.0
 20
0.0
 30
0.0
  3
*Model_Space
  1

  0
ENDBLK
  5
21
330
1F
100
AcDbEntity
  8
0
100
AcDbBlockEnd
  0
BLOCK
  5
1C
330
1B
100
AcDbEntity
 67
     1
  8
0
100
AcDbBlockBegin
  2
*Paper_Space
 70
     0
 10
0.0
 20
0.0
 30
0.0
  3
*Paper_Space
  1

  0
ENDBLK
  5
1D
330
1B
100
AcDbEntity
 67
     1
  8
0
100
AcDbBlockEnd
  0
BLOCK
  5
24
330
23
100
AcDbEntity
  8
0
100
AcDbBlockBegin
  2
*Paper_Space0
 70
     0
 10
0.0
 20
0.0
 30
0.0
  3
*Paper_Space0
  1

  0
ENDBLK
  5
25
330
23
100
AcDbEntity
  8
0
100
AcDbBlockEnd
  0
ENDSEC
  0
SECTION
  2
ENTITIES
  0
LINE
  5
77
330
1F
100
AcDbEntity
  8
0
  6
Continuous
 62
     7
370
    25
100
AcDbLine
 10
437.2792423083
 20
674.6671110244
 30
0.0
 11
437.5712454631
 21
674.6671110244
 31
0.0
  0
LINE
  5
78
330
1F
100
AcDbEntity
  8
0
  6
Continuous
 62
     7
370
    25
100
AcDbLine
 10
437.3792440011
 20
682.6671123357
 30
0.0
 11
437.2792423083
 21
682.6671123357
 31
0.0
  0
LINE
  5
79
330
1F
100
AcDbEntity
  8
0
  6
Continuous
 62
     7
370
    25
100
AcDbLine
 10
437.5712454631
 20
674.6671110244
 30
0.0
 11
438.0039453818
 21
675.0998072178
 31
0.0
  0
LINE
  5
7A
330
1F
100
AcDbEntity
  8
0
  6
Continuous
 62
     7
370
    25
100
AcDbLine
 10
755.954551728
 20
675.0998072178
 30
0.0
 11
756.3872516467
 21
674.6671110244
 31
0.0
  0
LINE
  5
7B
330
1F
100
AcDbEntity
  8
0
  6
Continuous
 62
     7
370
    25
100
AcDbLine
 10
756.6792548015
 20
682.6671123357
 30
0.0
 11
756.5792531087
 21
682.6671123357
 31
0.0
  0
LINE
  5
7C
330
1F
100
AcDbEntity
  8
0
  6
Continuous
 62
     7
370
    25
100
AcDbLine
 10
756.3872516467
 20
674.6671110244
 30
0.0
 11
756.6792548015
 21
674.6671110244
 31
0.0
  0
LINE
  5
7D
330
1F
100
AcDbEntity
  8
0
  6
Continuous
 62
     7
370
    25
100
AcDbLine
 10
473.2292473628
 20
558.9171148689
 30
0.0
 11
473.2292473628
 21
558.8171131761
 31
0.0
  0
LINE
  5
7E
330
1F
100
AcDbEntity
  8
0
  6
Continuous
 62
     7
370
    25
100
AcDbLine
 10
484.7292483165
 20
558.8171131761
 30
0.0
 11
484.7292483165
 21
558.9171148689
 31
0.0
  0
LINE
  5
7F
330
1F
100
AcDbEntity
  8
0
  6
Continuous
 62
     7
370
    25
100
AcDbLine
 10
437.5712454631
 20
675.6029337497
 30
0.0
 11
437.5712454631
 21
679.3124958725
 31
0.0
  0
LINE
  5
80
330
1F
100
AcDbEntity
  8
0
  6
Continuous
 62
     7
370
    25
100
AcDbLine
 10
437.5712454631
 20
674.6671110244
 30
0.0
 11
437.5712454631
 21
675.6029337497
 31
0.0
  0
LINE
  5
81
330
1F
100
AcDbEntity
  8
0
  6
Continuous
 62
     7
370
    25
100
AcDbLine
 10
437.2792423083
 20
675.6029337497
 30
0.0
 11
437.2792423083
 21
679.5799046607
 31
0.0
  0
LINE
  5
82
330
1F
100
AcDbEntity
  8
0
  6
Continuous
 62
     7
370
    25
100
AcDbLine
 10
437.2792423083
 20
682.417111829
 30
0.0
 11
437.2792423083
 21
682.6671123357
 31
0.0
  0
LINE
  5
83
330
1F
100
AcDbEntity
  8
0
  6
Continuous
 62
     7
370
    25
100
AcDbLine
 10
437.2792423083
 20
674.6671110244
 30
0.0
 11
437.2792423083
 21
675.6029337497
 31
0.0
  0
LINE
  5
84
330
1F
100
AcDbEntity
  8
0
  6
Continuous
 62
     7
370
    25
100
AcDbLine
 10
756.3872516467
 20
679.2804807277
 30
0.0
 11
756.3872516467
 21
674.6671110244
 31
0.0
  0
LINE
  5
85
330
1F
100
AcDbEntity
  8
0
  6
Continuous
 62
     7
370
    25
100
AcDbLine
 10
756.6792548015
 20
682.6671123357
 30
0.0
 11
756.6792548015
 21
682.417111829
 31
0.0
  0
LINE
  5
86
330
1F
100
AcDbEntity
  8
0
  6
Continuous
 62
     7
370
    25
100
AcDbLine
 10
756.6792548015
 20
679.5799046607
 30
0.0
 11
756.6792548015
 21
674.6671110244
 31
0.0
  0
LINE
  5
87
330
1F
100
AcDbEntity
  8
0
  6
Continuous
 62
     7
370
    25
100
AcDbLine
 10
437.5712454631
 20
560.4489616902
 30
0.0
 11
437.5712454631
 21
565.7867215426
 31
0.0
  0
LINE
  5
88
330
1F
100
AcDbEntity
  8
0
  6
Continuous
 62
     7
370
    25
100
AcDbLine
 10
437.2792423083
 20
560.1583443434
 30
0.0
 11
437.2792423083
 21
566.4045832903
 31
0.0
  0
LINE
  5
89
330
1F
100
AcDbEntity
  8
0
  6
Continuous
 62
     7
370
    25
100
AcDbLine
 10
437.2792423083
 20
559.9171094448
 30
0.0
 11
437.2792423083
 21
560.1583443434
 31
0.0
  0
LINE
  5
8A
330
1F
100
AcDbEntity
  8
0
  6
Continuous
 62
     7
370
    25
100
AcDbLine
 10
756.3872516467
 20
565.7921902687
 30
0.0
 11
756.3872516467
 21
560.44741942
 31
0.0
  0
LINE
  5
8B
330
1F
100
AcDbEntity
  8
0
  6
Continuous
 62
     7
370
    25
100
AcDbLine
 10
756.6792548015
 20
566.4232842476
 30
0.0
 11
756.6792548015
 21
559.9171094448
 31
0.0
  0
LINE
  5
8C
330
1F
100
AcDbEntity
  8
0
  6
Continuous
 62
     7
370
    25
100
AcDbLine
 10
437.2792423083
 20
679.9171142132
 30
0.0
 11
441.2792504146
 21
679.8215009124
 31
0.0
  0
LINE
  5
8D
330
1F
100
AcDbEntity
  8
0
  6
Continuous
 62
     7
370
    25
100
AcDbLine
 10
441.2792504146
 20
678.2637707741
 30
0.0
 11
441.2792504146
 21
679.8215009124
 31
0.0
  0
LINE
  5
8E
330
1F
100
AcDbEntity
  8
0
  6
Continuous
 62
     7
370
    25
100
AcDbLine
 10
438.0039453818
 20
678.2756320984
 30
0.0
 11
441.2792504146
 21
678.2637707741
 31
0.0
  0
SPLINE
  5
8F
330
1F
100
AcDbEntity
  8
0
  6
Continuous
 62
     7
370
    25
100
AcDbSpline
210
0.0
220
0.0
230
1.0
 70
     8
 71
     3
 72
    11
 73
     7
 74
     0
 42
0.000000001
 43
0.00000001
 40
0.0
 40
0.0
 40
0.0
 40
0.0
 40
0.2646224976178895
 40
0.6067941115896381
 40
0.8652433265161121
 40
1.0
 40
1.0
 40
1.0
 40
1.0
 10
437.2792423083472
 20
679.5799046606826
 30
0.0
 10
437.3742468449049
 20
679.497992004708
 30
0.0
 10
437.5920975336272
 20
679.3101617266419
 30
0.0
 10
437.8503446611604
 20
678.9491458988103
 30
0.0
 10
437.9886035177187
 20
678.5705043490902
 30
0.0
 10
438.0000295387106
 20
678.3508950175546
 30
0.0
 10
438.0039453818488
 20
678.2756320984172
 30
0.0
  0
LINE
  5
90
330
1F
100
AcDbEntity
  8
0
  6
Continuous
 62
     7
370
    25
100
AcDbLine
 10
437.2792423083
 20
679.5799046607
 30
0.0
 11
437.2792423083
 21
679.9171142132
 31
0.0
  0
LINE
  5
91
330
1F
100
AcDbEntity
  8
0
  6
Continuous
 62
     7
370
    25
100
AcDbLine
 10
437.2792423083
 20
679.9171142132
 30
0.0
 11
437.2792423083
 21
682.417111829
 31
0.0
  0
LINE
  5
92
330
1F
100
AcDbEntity
  8
0
  6
Continuous
 62
     7
370
    25
100
AcDbLine
 10
437.2792423083
 20
682.417111829
 30
0.0
 11
441.2792504146
 21
682.4309438319
 31
0.0
  0
LINE
  5
93
330
1F
100
AcDbEntity
  8
0
  6
Continuous
 62
     7
370
    25
100
AcDbLine
 10
441.2792504146
 20
679.8215009124
 30
0.0
 11
441.2792504146
 21
682.4309438319
 31
0.0
  0
LINE
  5
94
330
1F
100
AcDbEntity
  8
0
  6
Continuous
 62
     7
370
    25
100
AcDbLine
 10
437.2792423083
 20
682.417111829
 30
0.0
 11
440.3217464997
 21
690.0233574064
 31
0.0
  0
LINE
  5
95
330
1F
100
AcDbEntity
  8
0
  6
Continuous
 62
     7
370
    25
100
AcDbLine
 10
440.3217464997
 20
690.0233574064
 30
0.0
 11
441.2792504146
 21
690.0567956121
 31
0.0
  0
LINE
  5
96
330
1F
100
AcDbEntity
  8
0
  6
Continuous
 62
     7
370
    25
100
AcDbLine
 10
441.2792504146
 20
682.4309438319
 30
0.0
 11
441.2792504146
 21
690.0567956121
 31
0.0
  0
LINE
  5
97
330
1F
100
AcDbEntity
  8
0
  6
Continuous
 62
     7
370
    25
100
AcDbLine
 10
438.0039453818
 20
678.2756320984
 30
0.0
 11
438.0039453818
 21
674.9240591974
 31
0.0
  0
SPLINE
  5
98
330
1F
100
AcDbEntity
  8
0
  6
Continuous
 62
     7
370
    25
100
AcDbSpline
210
0.0
220
0.0
230
1.0
 70
     8
 71
     3
 72
    10
 73
     6
 74
     0
 42
0.000000001
 43
0.00000001
 40
0.0
 40
0.0
 40
0.0
 40
0.0
 40
0.2414688817980301
 40
0.5468033726169281
 40
0.9999999999999999
 40
0.9999999999999999
 40
0.9999999999999999
 40
0.9999999999999999
 10
438.0039453818488
 20
674.9240591974068
 30
0.0
 10
437.9911308560116
 20
674.898126418239
 30
0.0
 10
437.9621125166955
 20
674.8394019523589
 30
0.0
 10
437.7078007512989
 20
674.609620523261
 30
0.0
 10
437.4395268621093
 20
674.3767924914506
 30
0.0
 10
437.2792423083472
 20
674.237685635786
 30
0.0
  0
LINE
  5
99
330
1F
100
AcDbEntity
  8
0
  6
Continuous
 62
     7
370
    25
100
AcDbLine
 10
437.2792423083
 20
674.6671110244
 30
0.0
 11
437.2792423083
 21
674.2376856358
 31
0.0
  0
LINE
  5
9A
330
1F
100
AcDbEntity
  8
0
  6
Continuous
 62
     7
370
    25
100
AcDbLine
 10
437.2792423083
 20
620.2428782211
 30
0.0
 11
441.2792504146
 21
620.1060175748
 31
0.0
  0
LINE
  5
9B
330
1F
100
AcDbEntity
  8
0
  6
Continuous
 62
     7
370
    25
100
AcDbLine
 10
437.2792423083
 20
620.2428782211
 30
0.0
 11
437.2792423083
 21
627.5913474468
 31
0.0
  0
LINE
  5
9C
330
1F
100
AcDbEntity
  8
0
  6
Continuous
 62
     7
370
    25
100
AcDbLine
 10
437.2792423083
 20
627.5913474468
 30
0.0
 11
441.2792504146
 21
627.7282083259
 31
0.0
  0
LINE
  5
9D
330
1F
100
AcDbEntity
  8
0
  6
Continuous
 62
     7
370
    25
100
AcDbLine
 10
441.2792504146
 20
620.1060175748
 30
0.0
 11
441.2792504146
 21
627.7282083259
 31
0.0
  0
LINE
  5
9E
330
1F
100
AcDbEntity
  8
0
  6
Continuous
 62
     7
370
    25
100
AcDbLine
 10
438.0039453818
 20
674.9240591974
 30
0.0
 11
441.2792504146
 21
674.8106613607
 31
0.0
  0
LINE
  5
9F
330
1F
100
AcDbEntity
  8
0
  6
Continuous
 62
     7
370
    25
100
AcDbLine
 10
441.2792504146
 20
674.8106613607
 30
0.0
 11
441.2792504146
 21
678.2637707741
 31
0.0
  0
LINE
  5
A0
330
1F
100
AcDbEntity
  8
0
  6
Continuous
 62
     7
370
    25
100
AcDbLine
 10
437.2792423083
 20
630.0408371111
 30
0.0
 11
441.2792504146
 21
630.0408371111
 31
0.0
  0
LINE
  5
A1
330
1F
100
AcDbEntity
  8
0
  6
Continuous
 62
     7
370
    25
100
AcDbLine
 10
437.2792423083
 20
627.5913474468
 30
0.0
 11
437.2792423083
 21
630.0408371111
 31
0.0
  0
LINE
  5
A2
330
1F
100
AcDbEntity
  8
0
  6
Continuous
 62
     7
370
    25
100
AcDbLine
 10
441.2792504146
 20
627.7282083259
 30
0.0
 11
441.2792504146
 21
630.0408371111
 31
0.0
  0
LINE
  5
A3
330
1F
100
AcDbEntity
  8
0
  6
Continuous
 62
     7
370
    25
100
AcDbLine
 10
437.2792423083
 20
617.7933880911
 30
0.0
 11
441.2792504146
 21
617.7933880911
 31
0.0
  0
LINE
  5
A4
330
1F
100
AcDbEntity
  8
0
  6
Continuous
 62
     7
370
    25
100
AcDbLine
 10
437.2792423083
 20
617.7933880911
 30
0.0
 11
437.2792423083
 21
620.2428782211
 31
0.0
  0
LINE
  5
A5
330
1F
100
AcDbEntity
  8
0
  6
Continuous
 62
     7
370
    25
100
AcDbLine
 10
441.2792504146
 20
617.7933880911
 30
0.0
 11
441.2792504146
 21
620.1060175748
 31
0.0
  0
LINE
  5
A6
330
1F
100
AcDbEntity
  8
0
  6
Continuous
 62
     7
370
    25
100
AcDbLine
 10
437.2792423083
 20
672.9662366063
 30
0.0
 11
441.2792504146
 21
672.9662366063
 31
0.0
  0
LINE
  5
A7
330
1F
100
AcDbEntity
  8
0
  6
Continuous
 62
     7
370
    25
100
AcDbLine
 10
437.2792423083
 20
672.9662366063
 30
0.0
 11
437.2792423083
 21
674.2376856358
 31
0.0
  0
LINE
  5
A8
330
1F
100
AcDbEntity
  8
0
  6
Continuous
 62
     7
370
    25
100
AcDbLine
 10
441.2792504146
 20
672.9662366063
 30
0.0
 11
441.2792504146
 21
674.8106613607
 31
0.0
  0
LINE
  5
A9
330
1F
100
AcDbEntity
  8
0
  6
Continuous
 62
     7
370
    25
100
AcDbLine
 10
437.5201791837
 20
561.9136266262
 30
0.0
 11
441.2792504146
 21
561.859252289
 31
0.0
  0
SPLINE
  5
AA
330
1F
100
AcDbEntity
  8
0
  6
Continuous
 62
     7
370
    25
100
AcDbSpline
210
0.0
220
0.0
230
1.0
 70
     8
 71
     3
 72
    10
 73
     6
 74
     0
 42
0.000000001
 43
0.00000001
 40
0.0
 40
0.0
 40
0.0
 40
0.0
 40
0.2397186585016714
 40
0.6014150550608225
 40
1.0
 40
1.0
 40
1.0
 40
1.0
 10
437.2792423083472
 20
566.4045832903194
 30
0.0
 10
437.4447913605475
 20
566.0705369020691
 30
0.0
 10
437.8601269583964
 20
565.2324689425782
 30
0.0
 10
438.1542279360265
 20
563.6351339650856
 30
0.0
 10
437.7382563596307
 20
562.5057285070972
 30
0.0
 10
437.5201791836906
 20
561.913626626234
 30
0.0
  0
LINE
  5
AB
330
1F
100
AcDbEntity
  8
0
  6
Continuous
 62
     7
370
    25
100
AcDbLine
 10
437.2792423083
 20
566.4045832903
 30
0.0
 11
437.2792423083
 21
617.7933880911
 31
0.0
  0
LINE
  5
AC
330
1F
100
AcDbEntity
  8
0
  6
Continuous
 62
     7
370
    25
100
AcDbLine
 10
441.2792504146
 20
561.859252289
 30
0.0
 11
441.2792504146
 21
617.7933880911
 31
0.0
  0
SPLINE
  5
AD
330
1F
100
AcDbEntity
  8
0
  6
Continuous
 62
     7
370
    25
100
AcDbSpline
210
0.0
220
0.0
230
1.0
 70
     8
 71
     3
 72
    10
 73
     6
 74
     0
 42
0.000000001
 43
0.00000001
 40
0.0
 40
0.0
 40
0.0
 40
0.0
 40
0.3892204042189907
 40
0.8646932564243729
 40
1.0
 40
1.0
 40
1.0
 40
1.0
 10
437.5201791836906
 20
561.913626626234
 30
0.0
 10
437.6054749184679
 20
561.6189775462825
 30
0.0
 10
437.7949681872283
 20
560.9643842369801
 30
0.0
 10
437.57274639273
 20
560.1997648397013
 30
0.0
 10
437.3324708420827
 20
559.7730562284132
 30
0.0
 10
437.2792423083472
 20
559.6785269529629
 30
0.0
  0
LINE
  5
AE
330
1F
100
AcDbEntity
  8
0
  6
Continuous
 62
     7
370
    25
100
AcDbLine
 10
437.2792423083
 20
630.0408371111
 30
0.0
 11
437.2792423083
 21
672.9662366063
 31
0.0
  0
LINE
  5
AF
330
1F
100
AcDbEntity
  8
0
  6
Continuous
 62
     7
370
    25
100
AcDbLine
 10
441.2792504146
 20
630.0408371111
 30
0.0
 11
441.2792504146
 21
672.9662366063
 31
0.0
  0
LINE
  5
B0
330
1F
100
AcDbEntity
  8
0
  6
Continuous
 62
     7
370
    25
100
AcDbLine
 10
437.2792423083
 20
558.9171148689
 30
0.0
 11
441.2792504146
 21
558.7774313838
 31
0.0
  0
LINE
  5
B1
330
1F
100
AcDbEntity
  8
0
  6
Continuous
 62
     7
370
    25
100
AcDbLine
 10
437.2792423083
 20
558.9171148689
 30
0.0
 11
437.2792423083
 21
559.678526953
 31
0.0
  0
LINE
  5
B2
330
1F
100
AcDbEntity
  8
0
  6
Continuous
 62
     7
370
    25
100
AcDbLine
 10
441.2792504146
 20
558.7774313838
 30
0.0
 11
441.2792504146
 21
561.859252289
 31
0.0
  0
LINE
  5
B3
330
1F
100
AcDbEntity
  8
0
  6
Continuous
 62
     7
370
    25
100
AcDbLine
 10
441.2792504146
 20
690.0567956121
 30
0.0
 11
441.4722651555
 21
690.0567956121
 31
0.0
  0
LINE
  5
B4
330
1F
100
AcDbEntity
  8
0
  6
Continuous
 62
     7
370
    25
100
AcDbLine
 10
441.485989125
 20
690.0567956121
 30
0.0
 11
441.4722651555
 21
690.0567956121
 31
0.0
  0
LINE
  5
B5
330
1F
100
AcDbEntity
  8
0
  6
Continuous
 62
     7
370
    25
100
AcDbLine
 10
441.6792422845
 20
690.0567956121
 30
0.0
 11
441.6861564233
 21
689.917112127
 31
0.0
  0
LINE
  5
B6
330
1F
100
AcDbEntity
  8
0
  6
Continuous
 62
     7
370
    25
100
AcDbLine
 10
441.485989125
 20
690.0567956121
 30
0.0
 11
441.6792422845
 21
690.0567956121
 31
0.0
  0
LINE
  5
B7
330
1F
100
AcDbEntity
  8
0
  6
Continuous
 62
     7
370
    25
100
AcDbLine
 10
752.6792466952
 20
679.8215009124
 30
0.0
 11
752.6792466952
 21
678.2637707741
 31
0.0
  0
LINE
  5
B8
330
1F
100
AcDbEntity
  8
0
  6
Continuous
 62
     7
370
    25
100
AcDbLine
 10
756.6792548015
 20
679.9171142132
 30
0.0
 11
752.6792466952
 21
679.8215009124
 31
0.0
  0
LINE
  5
B9
330
1F
100
AcDbEntity
  8
0
  6
Continuous
 62
     7
370
    25
100
AcDbLine
 10
756.6792548015
 20
679.9171142132
 30
0.0
 11
756.6792548015
 21
679.5799046607
 31
0.0
  0
SPLINE
  5
BA
330
1F
100
AcDbEntity
  8
0
  6
Continuous
 62
     7
370
    25
100
AcDbSpline
210
0.0
220
0.0
230
1.0
 70
     8
 71
     3
 72
    10
 73
     6
 74
     0
 42
0.000000001
 43
0.00000001
 40
0.0
 40
0.0
 40
0.0
 40
0.0
 40
0.2414699034715333
 40
0.5468016579650403
 40
0.9999999999999999
 40
0.9999999999999999
 40
0.9999999999999999
 40
0.9999999999999999
 10
755.9545517279792
 20
678.2756320984172
 30
0.0
 10
755.9673659934839
 20
678.4099958165331
 30
0.0
 10
755.9963835295116
 20
678.7142585953711
 30
0.0
 10
756.2506989823588
 20
679.1893017718527
 30
0.0
 10
756.5189707142923
 20
679.4338153423354
 30
0.0
 10
756.6792548014807
 20
679.5799046606826
 30
0.0
  0
LINE
  5
BB
330
1F
100
AcDbEntity
  8
0
  6
Continuous
 62
     7
370
    25
100
AcDbLine
 10
755.954551728
 20
678.2756320984
 30
0.0
 11
752.6792466952
 21
678.2637707741
 31
0.0
  0
LINE
  5
BC
330
1F
100
AcDbEntity
  8
0
  6
Continuous
 62
     7
370
    25
100
AcDbLine
 10
752.6792466952
 20
682.4309438319
 30
0.0
 11
752.6792466952
 21
679.8215009124
 31
0.0
  0
LINE
  5
BD
330
1F
100
AcDbEntity
  8
0
  6
Continuous
 62
     7
370
    25
100
AcDbLine
 10
756.6792548015
 20
682.417111829
 30
0.0
 11
752.6792466952
 21
682.4309438319
 31
0.0
  0
LINE
  5
BE
330
1F
100
AcDbEntity
  8
0
  6
Continuous
 62
     7
370
    25
100
AcDbLine
 10
756.6792548015
 20
682.417111829
 30
0.0
 11
756.6792548015
 21
679.9171142132
 31
0.0
  0
LINE
  5
BF
330
1F
100
AcDbEntity
  8
0
  6
Continuous
 62
     7
370
    25
100
AcDbLine
 10
753.6367506101
 20
690.0233574064
 30
0.0
 11
756.6792548015
 21
682.417111829
 31
0.0
  0
LINE
  5
C0
330
1F
100
AcDbEntity
  8
0
  6
Continuous
 62
     7
370
    25
100
AcDbLine
 10
753.6367506101
 20
690.0233574064
 30
0.0
 11
752.6792466952
 21
690.0567956121
 31
0.0
  0
LINE
  5
C1
330
1F
100
AcDbEntity
  8
0
  6
Continuous
 62
     7
370
    25
100
AcDbLine
 10
752.6792466952
 20
690.0567956121
 30
0.0
 11
752.6792466952
 21
682.4309438319
 31
0.0
  0
SPLINE
  5
C2
330
1F
100
AcDbEntity
  8
0
  6
Continuous
 62
     7
370
    25
100
AcDbSpline
210
0.0
220
0.0
230
1.0
 70
     8
 71
     3
 72
    11
 73
     7
 74
     0
 42
0.000000001
 43
0.00000001
 40
0.0
 40
0.0
 40
0.0
 40
0.0
 40
0.2646230750649282
 40
0.606793462146542
 40
0.8652431953648057
 40
0.9999999999999999
 40
0.9999999999999999
 40
0.9999999999999999
 40
0.9999999999999999
 10
756.6792548014807
 20
674.237685635786
 30
0.0
 10
756.5842503918817
 20
674.3205357376829
 30
0.0
 10
756.3664007028261
 20
674.5105150135148
 30
0.0
 10
756.1081515670274
 20
674.7353057728528
 30
0.0
 10
755.9698936738998
 20
674.8754898700889
 30
0.0
 10
755.9584675900151
 20
674.9116624137176
 30
0.0
 10
755.9545517279792
 20
674.9240591974067
 30
0.0
  0
LINE
  5
C3
330
1F
100
AcDbEntity
  8
0
  6
Continuous
 62
     7
370
    25
100
AcDbLine
 10
755.954551728
 20
674.9240591974
 30
0.0
 11
755.954551728
 21
678.2756320984
 31
0.0
  0
LINE
  5
C4
330
1F
100
AcDbEntity
  8
0
  6
Continuous
 62
     7
370
    25
100
AcDbLine
 10
756.6792548015
 20
674.2376856358
 30
0.0
 11
756.6792548015
 21
674.6671110244
 31
0.0
  0
LINE
  5
C5
330
1F
100
AcDbEntity
  8
0
  6
Continuous
 62
     7
370
    25
100
AcDbLine
 10
756.6792548015
 20
627.5913474468
 30
0.0
 11
752.6792466952
 21
627.7282083259
 31
0.0
  0
LINE
  5
C6
330
1F
100
AcDbEntity
  8
0
  6
Continuous
 62
     7
370
    25
100
AcDbLine
 10
756.6792548015
 20
627.5913474468
 30
0.0
 11
756.6792548015
 21
620.2428782211
 31
0.0
  0
LINE
  5
C7
330
1F
100
AcDbEntity
  8
0
  6
Continuous
 62
     7
370
    25
100
AcDbLine
 10
756.6792548015
 20
620.2428782211
 30
0.0
 11
752.6792466952
 21
620.1060175748
 31
0.0
  0
LINE
  5
C8
330
1F
100
AcDbEntity
  8
0
  6
Continuous
 62
     7
370
    25
100
AcDbLine
 10
752.6792466952
 20
627.7282083259
 30
0.0
 11
752.6792466952
 21
620.1060175748
 31
0.0
  0
LINE
  5
C9
330
1F
100
AcDbEntity
  8
0
  6
Continuous
 62
     7
370
    25
100
AcDbLine
 10
755.954551728
 20
674.9240591974
 30
0.0
 11
752.6792466952
 21
674.8106613607
 31
0.0
  0
LINE
  5
CA
330
1F
100
AcDbEntity
  8
0
  6
Continuous
 62
     7
370
    25
100
AcDbLine
 10
752.6792466952
 20
678.2637707741
 30
0.0
 11
752.6792466952
 21
674.8106613607
 31
0.0
  0
LINE
  5
CB
330
1F
100
AcDbEntity
  8
0
  6
Continuous
 62
     7
370
    25
100
AcDbLine
 10
756.6792548015
 20
617.7933880911
 30
0.0
 11
752.6792466952
 21
617.7933880911
 31
0.0
  0
LINE
  5
CC
330
1F
100
AcDbEntity
  8
0
  6
Continuous
 62
     7
370
    25
100
AcDbLine
 10
756.6792548015
 20
620.2428782211
 30
0.0
 11
756.6792548015
 21
617.7933880911
 31
0.0
  0
LINE
  5
CD
330
1F
100
AcDbEntity
  8
0
  6
Continuous
 62
     7
370
    25
100
AcDbLine
 10
752.6792466952
 20
620.1060175748
 30
0.0
 11
752.6792466952
 21
617.7933880911
 31
0.0
  0
LINE
  5
CE
330
1F
100
AcDbEntity
  8
0
  6
Continuous
 62
     7
370
    25
100
AcDbLine
 10
756.6792548015
 20
630.0408371111
 30
0.0
 11
752.6792466952
 21
630.0408371111
 31
0.0
  0
LINE
  5
CF
330
1F
100
AcDbEntity
  8
0
  6
Continuous
 62
     7
370
    25
100
AcDbLine
 10
756.6792548015
 20
630.0408371111
 30
0.0
 11
756.6792548015
 21
627.5913474468
 31
0.0
  0
LINE
  5
D0
330
1F
100
AcDbEntity
  8
0
  6
Continuous
 62
     7
370
    25
100
AcDbLine
 10
752.6792466952
 20
630.0408371111
 30
0.0
 11
752.6792466952
 21
627.7282083259
 31
0.0
  0
LINE
  5
D1
330
1F
100
AcDbEntity
  8
0
  6
Continuous
 62
     7
370
    25
100
AcDbLine
 10
756.6792548015
 20
672.9662366063
 30
0.0
 11
752.6792466952
 21
672.9662366063
 31
0.0
  0
LINE
  5
D2
330
1F
100
AcDbEntity
  8
0
  6
Continuous
 62
     7
370
    25
100
AcDbLine
 10
756.6792548015
 20
674.2376856358
 30
0.0
 11
756.6792548015
 21
672.9662366063
 31
0.0
  0
LINE
  5
D3
330
1F
100
AcDbEntity
  8
0
  6
Continuous
 62
     7
370
    25
100
AcDbLine
 10
752.6792466952
 20
674.8106613607
 30
0.0
 11
752.6792466952
 21
672.9662366063
 31
0.0
  0
SPLINE
  5
D4
330
1F
100
AcDbEntity
  8
0
  6
Continuous
 62
     7
370
    25
100
AcDbSpline
210
0.0
220
0.0
230
1.0
 70
     8
 71
     3
 72
    10
 73
     6
 74
     0
 42
0.000000001
 43
0.00000001
 40
0.0
 40
0.0
 40
0.0
 40
0.0
 40
0.1353067435756272
 40
0.6107795957810095
 40
1.0
 40
1.0
 40
1.0
 40
1.0
 10
756.6792548014807
 20
559.6785269529629
 30
0.0
 10
756.6260262677454
 20
559.7730562284132
 30
0.0
 10
756.3857507170981
 20
560.1997648397013
 30
0.0
 10
756.1635289225998
 20
560.9643842369801
 30
0.0
 10
756.3530221913601
 20
561.6189775462825
 30
0.0
 10
756.4383179261374
 20
561.913626626234
 30
0.0
  0
SPLINE
  5
D5
330
1F
100
AcDbEntity
  8
0
  6
Continuous
 62
     7
370
    25
100
AcDbSpline
210
0.0
220
0.0
230
1.0
 70
     8
 71
     3
 72
    10
 73
     6
 74
     0
 42
0.000000001
 43
0.00000001
 40
0.0
 40
0.0
 40
0.0
 40
0.0
 40
0.3985849449391775
 40
0.7602813414983286
 40
1.0
 40
1.0
 40
1.0
 40
1.0
 10
756.4383179261374
 20
561.913626626234
 30
0.0
 10
756.2202407501974
 20
562.5057285070972
 30
0.0
 10
755.8042691738016
 20
563.6351339650856
 30
0.0
 10
756.0983701514317
 20
565.2324689425782
 30
0.0
 10
756.5137057492805
 20
566.0705369020692
 30
0.0
 10
756.6792548014807
 20
566.4045832903194
 30
0.0
  0
LINE
  5
D6
330
1F
100
AcDbEntity
  8
0
  6
Continuous
 62
     7
370
    25
100
AcDbLine
 10
756.4383179261
 20
561.9136266262
 30
0.0
 11
752.6792466952
 21
561.859252289
 31
0.0
  0
LINE
  5
D7
330
1F
100
AcDbEntity
  8
0
  6
Continuous
 62
     7
370
    25
100
AcDbLine
 10
756.6792548015
 20
617.7933880911
 30
0.0
 11
756.6792548015
 21
566.4045832903
 31
0.0
  0
LINE
  5
D8
330
1F
100
AcDbEntity
  8
0
  6
Continuous
 62
     7
370
    25
100
AcDbLine
 10
752.6792466952
 20
617.7933880911
 30
0.0
 11
752.6792466952
 21
561.859252289
 31
0.0
  0
LINE
  5
D9
330
1F
100
AcDbEntity
  8
0
  6
Continuous
 62
     7
370
    25
100
AcDbLine
 10
756.6792548015
 20
672.9662366063
 30
0.0
 11
756.6792548015
 21
630.0408371111
 31
0.0
  0
LINE
  5
DA
330
1F
100
AcDbEntity
  8
0
  6
Continuous
 62
     7
370
    25
100
AcDbLine
 10
752.6792466952
 20
672.9662366063
 30
0.0
 11
752.6792466952
 21
630.0408371111
 31
0.0
  0
LINE
  5
DB
330
1F
100
AcDbEntity
  8
0
  6
Continuous
 62
     7
370
    25
100
AcDbLine
 10
756.6792548015
 20
558.9171148689
 30
0.0
 11
752.6792466952
 21
558.7774313838
 31
0.0
  0
LINE
  5
DC
330
1F
100
AcDbEntity
  8
0
  6
Continuous
 62
     7
370
    25
100
AcDbLine
 10
756.6792548015
 20
559.678526953
 30
0.0
 11
756.6792548015
 21
558.9171148689
 31
0.0
  0
LINE
  5
DD
330
1F
100
AcDbEntity
  8
0
  6
Continuous
 62
     7
370
    25
100
AcDbLine
 10
752.6792466952
 20
561.859252289
 30
0.0
 11
752.6792466952
 21
558.7774313838
 31
0.0
  0
LINE
  5
DE
330
1F
100
AcDbEntity
  8
0
  6
Continuous
 62
     7
370
    25
100
AcDbLine
 10
752.4862319543
 20
690.0567956121
 30
0.0
 11
752.6792466952
 21
690.0567956121
 31
0.0
  0
LINE
  5
DF
330
1F
100
AcDbEntity
  8
0
  6
Continuous
 62
     7
370
    25
100
AcDbLine
 10
752.4725079848
 20
690.0567956121
 30
0.0
 11
752.4862319543
 21
690.0567956121
 31
0.0
  0
LINE
  5
E0
330
1F
100
AcDbEntity
  8
0
  6
Continuous
 62
     7
370
    25
100
AcDbLine
 10
752.2723406865
 20
689.917112127
 30
0.0
 11
752.2792548253
 21
690.0567956121
 31
0.0
  0
LINE
  5
E1
330
1F
100
AcDbEntity
  8
0
  6
Continuous
 62
     7
370
    25
100
AcDbLine
 10
752.2792548253
 20
690.0567956121
 30
0.0
 11
752.4725079848
 21
690.0567956121
 31
0.0
  0
LINE
  5
E2
330
1F
100
AcDbEntity
  8
0
  6
Continuous
 62
     7
370
    25
100
AcDbLine
 10
752.6792466952
 20
689.917112127
 30
0.0
 11
441.2792504146
 21
689.917112127
 31
0.0
  0
LINE
  5
E3
330
1F
100
AcDbEntity
  8
0
  6
Continuous
 62
     7
370
    25
100
AcDbLine
 10
752.6792466952
 20
682.417111829
 30
0.0
 11
441.2792504146
 21
682.417111829
 31
0.0
  0
LINE
  5
E4
330
1F
100
AcDbEntity
  8
0
  6
Continuous
 62
     7
370
    25
100
AcDbLine
 10
752.6792466952
 20
679.9171142132
 30
0.0
 11
441.2792504146
 21
679.9171142132
 31
0.0
  0
LINE
  5
E5
330
1F
100
AcDbEntity
  8
0
  6
Continuous
 62
     7
370
    25
100
AcDbLine
 10
752.6792466952
 20
678.2782547028
 30
0.0
 11
441.2792504146
 21
678.2782547028
 31
0.0
  0
LINE
  5
E6
330
1F
100
AcDbEntity
  8
0
  6
Continuous
 62
     7
370
    25
100
AcDbLine
 10
752.6792466952
 20
627.5913474468
 30
0.0
 11
441.2792504146
 21
627.5913474468
 31
0.0
  0
LINE
  5
E7
330
1F
100
AcDbEntity
  8
0
  6
Continuous
 62
     7
370
    25
100
AcDbLine
 10
441.2792504146
 20
620.2428782211
 30
0.0
 11
752.6792466952
 21
620.2428782211
 31
0.0
  0
LINE
  5
E8
330
1F
100
AcDbEntity
  8
0
  6
Continuous
 62
     7
370
    25
100
AcDbLine
 10
441.2792504146
 20
674.9491490276
 30
0.0
 11
752.6792466952
 21
674.9491490276
 31
0.0
  0
LINE
  5
E9
330
1F
100
AcDbEntity
  8
0
  6
Continuous
 62
     7
370
    25
100
AcDbLine
 10
752.6792466952
 20
617.7933880911
 30
0.0
 11
441.2792504146
 21
617.7933880911
 31
0.0
  0
LINE
  5
EA
330
1F
100
AcDbEntity
  8
0
  6
Continuous
 62
     7
370
    25
100
AcDbLine
 10
441.2792504146
 20
630.0408371111
 30
0.0
 11
752.6792466952
 21
630.0408371111
 31
0.0
  0
LINE
  5
EB
330
1F
100
AcDbEntity
  8
0
  6
Continuous
 62
     7
370
    25
100
AcDbLine
 10
752.6792466952
 20
672.9662366063
 30
0.0
 11
441.2792504146
 21
672.9662366063
 31
0.0
  0
LINE
  5
EC
330
1F
100
AcDbEntity
  8
0
  6
Continuous
 62
     7
370
    25
100
AcDbLine
 10
441.2792504146
 20
561.917113498
 30
0.0
 11
752.6792466952
 21
561.917113498
 31
0.0
  0
LINE
  5
ED
330
1F
100
AcDbEntity
  8
0
  6
Continuous
 62
     7
370
    25
100
AcDbLine
 10
752.6792466952
 20
558.9171148689
 30
0.0
 11
441.2792504146
 21
558.9171148689
 31
0.0
  0
LINE
  5
EE
330
1F
100
AcDbEntity
  8
0
  6
Continuous
 62
     7
370
    25
100
AcDbLine
 10
473.2292473628
 20
558.8171131761
 30
0.0
 11
484.7292483165
 21
558.8171131761
 31
0.0
  0
LINE
  5
EF
330
1F
100
AcDbEntity
  8
0
  6
Continuous
 62
     8
370
    25
100
AcDbLine
 10
441.4722651555
 20
690.0567956121
 30
0.0
 11
441.4722651555
 21
689.917112127
 31
0.0
  0
LINE
  5
F0
330
1F
100
AcDbEntity
  8
0
  6
Continuous
 62
     8
370
    25
100
AcDbLine
 10
441.4928883626
 20
689.917112127
 30
0.0
 11
441.485989125
 21
690.0567956121
 31
0.0
  0
LINE
  5
F1
330
1F
100
AcDbEntity
  8
0
  6
Continuous
 62
     8
370
    25
100
AcDbLine
 10
752.4862319543
 20
689.917112127
 30
0.0
 11
752.4862319543
 21
690.0567956121
 31
0.0
  0
LINE
  5
F2
330
1F
100
AcDbEntity
  8
0
  6
Continuous
 62
     8
370
    25
100
AcDbLine
 10
752.4725079848
 20
690.0567956121
 30
0.0
 11
752.4656087472
 21
689.917112127
 31
0.0
  0
LINE
  5
F3
330
1F
100
AcDbEntity
  8
0
  6
Continuous
 62
     7
370
    25
100
AcDbLine
 10
441.2792504146
 20
530.525537794
 30
0.0
 11
441.5792554929
 21
530.525537794
 31
0.0
  0
LINE
  5
F4
330
1F
100
AcDbEntity
  8
0
  6
Continuous
 62
     7
370
    25
100
AcDbLine
 10
752.3792416169
 20
530.525537794
 30
0.0
 11
752.6792466952
 21
530.525537794
 31
0.0
  0
LINE
  5
F5
330
1F
100
AcDbEntity
  8
0
  6
Continuous
 62
     7
370
    25
100
AcDbLine
 10
752.6792466952
 20
434.4368899516
 30
0.0
 11
752.3792416169
 21
434.4368899516
 31
0.0
  0
LINE
  5
F6
330
1F
100
AcDbEntity
  8
0
  6
Continuous
 62
     7
370
    25
100
AcDbLine
 10
441.5792554929
 20
434.4368899516
 30
0.0
 11
441.2792504146
 21
434.4368899516
 31
0.0
  0
LINE
  5
F7
330
1F
100
AcDbEntity
  8
0
  6
Continuous
 62
     7
370
    25
100
AcDbLine
 10
437.2792423083
 20
430.7437451832
 30
0.0
 11
437.2792423083
 21
435.7186841122
 31
0.0
  0
LINE
  5
F8
330
1F
100
AcDbEntity
  8
0
  6
Continuous
 62
     7
370
    25
100
AcDbLine
 10
437.2792423083
 20
529.2437436334
 30
0.0
 11
437.2792423083
 21
534.2186825625
 31
0.0
  0
LINE
  5
F9
330
1F
100
AcDbEntity
  8
0
  6
Continuous
 62
     7
370
    25
100
AcDbLine
 10
756.6792548015
 20
435.7186841122
 30
0.0
 11
756.6792548015
 21
430.7437451832
 31
0.0
  0
LINE
  5
FA
330
1F
100
AcDbEntity
  8
0
  6
Continuous
 62
     7
370
    25
100
AcDbLine
 10
440.3217464997
 20
535.2683166317
 30
0.0
 11
441.2792504146
 21
535.2957273177
 31
0.0
  0
LINE
  5
FB
330
1F
100
AcDbEntity
  8
0
  6
Continuous
 62
     7
370
    25
100
AcDbLine
 10
441.2792504146
 20
527.6743533365
 30
0.0
 11
441.2792504146
 21
535.2957273177
 31
0.0
  0
LINE
  5
FC
330
1F
100
AcDbEntity
  8
0
  6
Continuous
 62
     7
370
    25
100
AcDbLine
 10
441.2792504146
 20
527.6743533365
 30
0.0
 11
441.2792504146
 21
526.2880759589
 31
0.0
  0
LINE
  5
FD
330
1F
100
AcDbEntity
  8
0
  6
Continuous
 62
     7
370
    25
100
AcDbLine
 10
441.2792504146
 20
516.4743500106
 30
0.0
 11
441.2792504146
 21
526.2880759589
 31
0.0
  0
LINE
  5
FE
330
1F
100
AcDbEntity
  8
0
  6
Continuous
 62
     7
370
    25
100
AcDbLine
 10
441.2792504146
 20
516.4743500106
 30
0.0
 11
441.2792504146
 21
515.0880763582
 31
0.0
  0
LINE
  5
FF
330
1F
100
AcDbEntity
  8
0
  6
Continuous
 62
     7
370
    25
100
AcDbLine
 10
441.2792504146
 20
505.3743521027
 30
0.0
 11
441.2792504146
 21
515.0880763582
 31
0.0
  0
LINE
  5
100
330
1F
100
AcDbEntity
  8
0
  6
Continuous
 62
     7
370
    25
100
AcDbLine
 10
441.2792504146
 20
505.3743521027
 30
0.0
 11
441.2792504146
 21
503.9880765877
 31
0.0
  0
LINE
  5
101
330
1F
100
AcDbEntity
  8
0
  6
Continuous
 62
     7
370
    25
100
AcDbLine
 10
441.2792504146
 20
494.2743514008
 30
0.0
 11
441.2792504146
 21
503.9880765877
 31
0.0
  0
LINE
  5
102
330
1F
100
AcDbEntity
  8
0
  6
Continuous
 62
     7
370
    25
100
AcDbLine
 10
441.2792504146
 20
494.2743514008
 30
0.0
 11
441.2792504146
 21
492.8880758859
 31
0.0
  0
LINE
  5
103
330
1F
100
AcDbEntity
  8
0
  6
Continuous
 62
     7
370
    25
100
AcDbLine
 10
441.2792504146
 20
483.1743516303
 30
0.0
 11
441.2792504146
 21
492.8880758859
 31
0.0
  0
LINE
  5
104
330
1F
100
AcDbEntity
  8
0
  6
Continuous
 62
     7
370
    25
100
AcDbLine
 10
441.2792504146
 20
483.1743516303
 30
0.0
 11
441.2792504146
 21
481.7880761154
 31
0.0
  0
LINE
  5
105
330
1F
100
AcDbEntity
  8
0
  6
Continuous
 62
     7
370
    25
100
AcDbLine
 10
441.2792504146
 20
472.0743518598
 30
0.0
 11
441.2792504146
 21
481.7880761154
 31
0.0
  0
LINE
  5
106
330
1F
100
AcDbEntity
  8
0
  6
Continuous
 62
     7
370
    25
100
AcDbLine
 10
441.2792504146
 20
472.0743518598
 30
0.0
 11
441.2792504146
 21
470.6880763448
 31
0.0
  0
LINE
  5
107
330
1F
100
AcDbEntity
  8
0
  6
Continuous
 62
     7
370
    25
100
AcDbLine
 10
441.2792504146
 20
460.9743511579
 30
0.0
 11
441.2792504146
 21
470.6880763448
 31
0.0
  0
LINE
  5
108
330
1F
100
AcDbEntity
  8
0
  6
Continuous
 62
     7
370
    25
100
AcDbLine
 10
441.2792504146
 20
460.9743511579
 30
0.0
 11
441.2792504146
 21
459.588075643
 31
0.0
  0
LINE
  5
109
330
1F
100
AcDbEntity
  8
0
  6
Continuous
 62
     7
370
    25
100
AcDbLine
 10
441.2792504146
 20
449.8743513874
 30
0.0
 11
441.2792504146
 21
459.588075643
 31
0.0
  0
LINE
  5
10A
330
1F
100
AcDbEntity
  8
0
  6
Continuous
 62
     7
370
    25
100
AcDbLine
 10
441.2792504146
 20
449.8743513874
 30
0.0
 11
441.2792504146
 21
448.4880777351
 31
0.0
  0
LINE
  5
10B
330
1F
100
AcDbEntity
  8
0
  6
Continuous
 62
     7
370
    25
100
AcDbLine
 10
441.2792504146
 20
438.6743517868
 30
0.0
 11
441.2792504146
 21
448.4880777351
 31
0.0
  0
LINE
  5
10C
330
1F
100
AcDbEntity
  8
0
  6
Continuous
 62
     7
370
    25
100
AcDbLine
 10
441.2792504146
 20
438.6743517868
 30
0.0
 11
441.2792504146
 21
437.2880744092
 31
0.0
  0
LINE
  5
10D
330
1F
100
AcDbEntity
  8
0
  6
Continuous
 62
     7
370
    25
100
AcDbLine
 10
441.2792504146
 20
429.6667004279
 30
0.0
 11
441.2792504146
 21
437.2880744092
 31
0.0
  0
LINE
  5
10E
330
1F
100
AcDbEntity
  8
0
  6
Continuous
 62
     7
370
    25
100
AcDbLine
 10
440.3217464997
 20
429.6941111139
 30
0.0
 11
441.2792504146
 21
429.6667004279
 31
0.0
  0
LINE
  5
10F
330
1F
100
AcDbEntity
  8
0
  6
Continuous
 62
     7
370
    25
100
AcDbLine
 10
440.3217464997
 20
429.6941111139
 30
0.0
 11
440.3217464997
 21
535.2683166317
 31
0.0
  0
LINE
  5
110
330
1F
100
AcDbEntity
  8
0
  6
Continuous
 62
     7
370
    25
100
AcDbLine
 10
440.3217464997
 20
535.2683166317
 30
0.0
 11
437.2792423083
 21
536.6812149338
 31
0.0
  0
LINE
  5
111
330
1F
100
AcDbEntity
  8
0
  6
Continuous
 62
     7
370
    25
100
AcDbLine
 10
437.2792423083
 20
536.6812149338
 30
0.0
 11
441.2792504146
 21
536.8208984188
 31
0.0
  0
LINE
  5
112
330
1F
100
AcDbEntity
  8
0
  6
Continuous
 62
     7
370
    25
100
AcDbLine
 10
441.2792504146
 20
535.2957273177
 30
0.0
 11
441.2792504146
 21
536.8208984188
 31
0.0
  0
LINE
  5
113
330
1F
100
AcDbEntity
  8
0
  6
Continuous
 62
     7
370
    25
100
AcDbLine
 10
441.6792422845
 20
438.2740991465
 30
0.0
 11
441.6792422845
 21
437.6883270494
 31
0.0
  0
LINE
  5
114
330
1F
100
AcDbEntity
  8
0
  6
Continuous
 62
     7
370
    25
100
AcDbLine
 10
441.6792422845
 20
449.4740987472
 30
0.0
 11
441.6792422845
 21
448.8883266501
 31
0.0
  0
LINE
  5
115
330
1F
100
AcDbEntity
  8
0
  6
Continuous
 62
     7
370
    25
100
AcDbLine
 10
441.6792422845
 20
460.5740985177
 30
0.0
 11
441.6792422845
 21
459.9883282832
 31
0.0
  0
LINE
  5
116
330
1F
100
AcDbEntity
  8
0
  6
Continuous
 62
     7
370
    25
100
AcDbLine
 10
441.6792422845
 20
471.6740992195
 30
0.0
 11
441.6792422845
 21
471.0883280538
 31
0.0
  0
LINE
  5
117
330
1F
100
AcDbEntity
  8
0
  6
Continuous
 62
     7
370
    25
100
AcDbLine
 10
441.6792422845
 20
482.7740992811
 30
0.0
 11
441.6792422845
 21
482.1883284646
 31
0.0
  0
LINE
  5
118
330
1F
100
AcDbEntity
  8
0
  6
Continuous
 62
     7
370
    25
100
AcDbLine
 10
441.6792422845
 20
493.8740996919
 30
0.0
 11
441.6792422845
 21
493.2883285261
 31
0.0
  0
LINE
  5
119
330
1F
100
AcDbEntity
  8
0
  6
Continuous
 62
     7
370
    25
100
AcDbLine
 10
441.6792422845
 20
504.9740994624
 30
0.0
 11
441.6792422845
 21
504.388329228
 31
0.0
  0
LINE
  5
11A
330
1F
100
AcDbEntity
  8
0
  6
Continuous
 62
     7
370
    25
100
AcDbLine
 10
441.6792422845
 20
515.4883289985
 30
0.0
 11
441.6792422845
 21
516.0741010956
 31
0.0
  0
LINE
  5
11B
330
1F
100
AcDbEntity
  8
0
  6
Continuous
 62
     7
370
    25
100
AcDbLine
 10
441.6792422845
 20
527.2741006962
 30
0.0
 11
441.6792422845
 21
526.6883285991
 31
0.0
  0
LINE
  5
11C
330
1F
100
AcDbEntity
  8
0
  6
Continuous
 62
     7
370
    25
100
AcDbLine
 10
441.485989125
 20
527.4739960484
 30
0.0
 11
441.5792554929
 21
527.4707364194
 31
0.0
  0
ELLIPSE
  5
11D
330
1F
100
AcDbEntity
  8
0
  6
Continuous
 62
     7
370
    25
100
AcDbEllipse
 10
441.479004424
 20
527.2741163353
 30
0.0
 11
-0.2001224449699635
 21
0.006988429770899531
 31
0.0
210
0.0
220
0.0
230
1.0
 40
0.9987793495
 41
3.176456664428231
 42
4.712388980383563
  0
ARC
  5
11E
330
1F
100
AcDbEntity
  8
0
  6
Continuous
 62
     7
370
    25
100
AcDbCircle
 10
441.4792485549
 20
526.2880761179
 30
0.0
 40
0.1999999999999886
100
AcDbArc
 50
92.0
 51
180.0
  0
LINE
  5
11F
330
1F
100
AcDbEntity
  8
0
  6
Continuous
 62
     7
370
    25
100
AcDbLine
 10
441.485989125
 20
527.4739960484
 30
0.0
 11
441.4722651555
 21
527.4744728855
 31
0.0
  0
ELLIPSE
  5
120
330
1F
100
AcDbEntity
  8
0
  6
Continuous
 62
     7
370
    25
100
AcDbEllipse
 10
441.479004424
 20
526.6883114104
 30
0.0
 11
0.2001224449699066
 21
0.006988429770785843
 31
0.0
210
0.0
220
0.0
230
1.0
 40
0.9987793495
 41
4.712388980386401
 42
6.248321296341157
  0
LINE
  5
121
330
1F
100
AcDbEntity
  8
0
  6
Continuous
 62
     7
370
    25
100
AcDbLine
 10
441.485989125
 20
526.488433247
 30
0.0
 11
441.4722651555
 21
526.4879526846
 31
0.0
  0
ARC
  5
122
330
1F
100
AcDbEntity
  8
0
  6
Continuous
 62
     7
370
    25
100
AcDbCircle
 10
441.4792485549
 20
527.6743516278
 30
0.0
 40
0.1999999999999886
100
AcDbArc
 50
180.0
 51
268.0
  0
LINE
  5
123
330
1F
100
AcDbEntity
  8
0
  6
Continuous
 62
     7
370
    25
100
AcDbLine
 10
441.5792554929
 20
526.4916891507
 30
0.0
 11
441.485989125
 21
526.488433247
 31
0.0
  0
ELLIPSE
  5
124
330
1F
100
AcDbEntity
  8
0
  6
Continuous
 62
     7
370
    25
100
AcDbEllipse
 10
441.479004424
 20
516.0741163353
 30
0.0
 11
-0.2001224449699635
 21
0.006988429770785843
 31
0.0
210
0.0
220
0.0
230
1.0
 40
0.9987793495
 41
3.176456664427094
 42
4.71238898038413
  0
ELLIPSE
  5
125
330
1F
100
AcDbEntity
  8
0
  6
Continuous
 62
     7
370
    25
100
AcDbEllipse
 10
441.479004424
 20
515.4883114104
 30
0.0
 11
0.2001224449699066
 21
0.006988429770899528
 31
0.0
210
0.0
220
0.0
230
1.0
 40
0.9987793495
 41
4.712388980385835
 42
6.248321296341157
  0
ARC
  5
126
330
1F
100
AcDbEntity
  8
0
  6
Continuous
 62
     7
370
    25
100
AcDbCircle
 10
441.4792485549
 20
515.0880761179
 30
0.0
 40
0.2000000000000842
100
AcDbArc
 50
92.0
 51
180.0
  0
LINE
  5
127
330
1F
100
AcDbEntity
  8
0
  6
Continuous
 62
     7
370
    25
100
AcDbLine
 10
441.485989125
 20
515.2884336464
 30
0.0
 11
441.4722651555
 21
515.2879530839
 31
0.0
  0
ARC
  5
128
330
1F
100
AcDbEntity
  8
0
  6
Continuous
 62
     7
370
    25
100
AcDbCircle
 10
441.4792485549
 20
516.4743516278
 30
0.0
 40
0.1999999999999886
100
AcDbArc
 50
180.0
 51
268.0
  0
LINE
  5
129
330
1F
100
AcDbEntity
  8
0
  6
Continuous
 62
     7
370
    25
100
AcDbLine
 10
441.485989125
 20
516.2739927224
 30
0.0
 11
441.4722651555
 21
516.2744732849
 31
0.0
  0
LINE
  5
12A
330
1F
100
AcDbEntity
  8
0
  6
Continuous
 62
     7
370
    25
100
AcDbLine
 10
441.5792554929
 20
515.2916895501
 30
0.0
 11
441.485989125
 21
515.2884336464
 31
0.0
  0
LINE
  5
12B
330
1F
100
AcDbEntity
  8
0
  6
Continuous
 62
     7
370
    25
100
AcDbLine
 10
441.485989125
 20
516.2739927224
 30
0.0
 11
441.5792554929
 21
516.2707368187
 31
0.0
  0
ARC
  5
12C
330
1F
100
AcDbEntity
  8
0
  6
Continuous
 62
     7
370
    25
100
AcDbCircle
 10
441.4792485549
 20
503.9880761179
 30
0.0
 40
0.1999999999999886
100
AcDbArc
 50
92.0
 51
180.0
  0
LINE
  5
12D
330
1F
100
AcDbEntity
  8
0
  6
Continuous
 62
     7
370
    25
100
AcDbLine
 10
441.485989125
 20
505.1739948146
 30
0.0
 11
441.4722651555
 21
505.1744735144
 31
0.0
  0
ELLIPSE
  5
12E
330
1F
100
AcDbEntity
  8
0
  6
Continuous
 62
     7
370
    25
100
AcDbEllipse
 10
441.479004424
 20
504.9741163353
 30
0.0
 11
-0.2001224449699635
 21
0.006988429770956373
 31
0.0
210
0.0
220
0.0
230
1.0
 40
0.9987793495
 41
3.176456664428819
 42
4.712388980385001
  0
ELLIPSE
  5
12F
330
1F
100
AcDbEntity
  8
0
  6
Continuous
 62
     7
370
    25
100
AcDbEllipse
 10
441.479004424
 20
504.3883114104
 30
0.0
 11
0.2001224449699066
 21
0.006988429770842687
 31
0.0
210
0.0
220
0.0
230
1.0
 40
0.9987793495
 41
4.712388980386098
 42
6.248321296341157
  0
LINE
  5
130
330
1F
100
AcDbEntity
  8
0
  6
Continuous
 62
     7
370
    25
100
AcDbLine
 10
441.485989125
 20
504.1884338758
 30
0.0
 11
441.4722651555
 21
504.187955176
 31
0.0
  0
ARC
  5
131
330
1F
100
AcDbEntity
  8
0
  6
Continuous
 62
     7
370
    25
100
AcDbCircle
 10
441.4792485549
 20
505.3743516278
 30
0.0
 40
0.1999999999999886
100
AcDbArc
 50
180.0
 51
268.0
  0
LINE
  5
132
330
1F
100
AcDbEntity
  8
0
  6
Continuous
 62
     7
370
    25
100
AcDbLine
 10
441.5792554929
 20
504.1916897796
 30
0.0
 11
441.485989125
 21
504.1884338758
 31
0.0
  0
LINE
  5
133
330
1F
100
AcDbEntity
  8
0
  6
Continuous
 62
     7
370
    25
100
AcDbLine
 10
441.485989125
 20
505.1739948146
 30
0.0
 11
441.5792554929
 21
505.1707370482
 31
0.0
  0
ARC
  5
134
330
1F
100
AcDbEntity
  8
0
  6
Continuous
 62
     7
370
    25
100
AcDbCircle
 10
441.4792485549
 20
492.8880761179
 30
0.0
 40
0.2000000000000274
100
AcDbArc
 50
92.0
 51
180.0
  0
LINE
  5
135
330
1F
100
AcDbEntity
  8
0
  6
Continuous
 62
     7
370
    25
100
AcDbLine
 10
441.485989125
 20
494.0739941127
 30
0.0
 11
441.4722651555
 21
494.0744737438
 31
0.0
  0
ELLIPSE
  5
136
330
1F
100
AcDbEntity
  8
0
  6
Continuous
 62
     7
370
    25
100
AcDbEllipse
 10
441.479004424
 20
493.8741163353
 30
0.0
 11
-0.2001224449699635
 21
0.006988429770956373
 31
0.0
210
0.0
220
0.0
230
1.0
 40
0.9987793495
 41
3.176456664428525
 42
4.71238898038498
  0
ELLIPSE
  5
137
330
1F
100
AcDbEntity
  8
0
  6
Continuous
 62
     7
370
    25
100
AcDbEllipse
 10
441.479004424
 20
493.2883114104
 30
0.0
 11
0.2001224449699066
 21
0.006988429770956373
 31
0.0
210
0.0
220
0.0
230
1.0
 40
0.9987793495
 41
4.712388980385551
 42
6.248321296340598
  0
LINE
  5
138
330
1F
100
AcDbEntity
  8
0
  6
Continuous
 62
     7
370
    25
100
AcDbLine
 10
441.485989125
 20
493.088433174
 30
0.0
 11
441.4722651555
 21
493.0879544742
 31
0.0
  0
ARC
  5
139
330
1F
100
AcDbEntity
  8
0
  6
Continuous
 62
     7
370
    25
100
AcDbCircle
 10
441.4792485549
 20
494.2743516278
 30
0.0
 40
0.2000000000000274
100
AcDbArc
 50
180.0
 51
268.0
  0
LINE
  5
13A
330
1F
100
AcDbEntity
  8
0
  6
Continuous
 62
     7
370
    25
100
AcDbLine
 10
441.485989125
 20
494.0739941127
 30
0.0
 11
441.5792554929
 21
494.0707372777
 31
0.0
  0
LINE
  5
13B
330
1F
100
AcDbEntity
  8
0
  6
Continuous
 62
     7
370
    25
100
AcDbLine
 10
441.5792554929
 20
493.091690009
 30
0.0
 11
441.485989125
 21
493.088433174
 31
0.0
  0
ELLIPSE
  5
13C
330
1F
100
AcDbEntity
  8
0
  6
Continuous
 62
     7
370
    25
100
AcDbEllipse
 10
441.479004424
 20
482.1883114104
 30
0.0
 11
0.2001224449699635
 21
0.006988429770899531
 31
0.0
210
0.0
220
0.0
230
1.0
 40
0.9987793495
 41
4.712388980386129
 42
6.248321296340881
  0
LINE
  5
13D
330
1F
100
AcDbEntity
  8
0
  6
Continuous
 62
     7
370
    25
100
AcDbLine
 10
441.5792554929
 20
481.9916901221
 30
0.0
 11
441.485989125
 21
481.9884332289
 31
0.0
  0
LINE
  5
13E
330
1F
100
AcDbEntity
  8
0
  6
Continuous
 62
     7
370
    25
100
AcDbLine
 10
441.485989125
 20
482.9739945168
 30
0.0
 11
441.5792554929
 21
482.9707376236
 31
0.0
  0
ELLIPSE
  5
13F
330
1F
100
AcDbEntity
  8
0
  6
Continuous
 62
     7
370
    25
100
AcDbEllipse
 10
441.479004424
 20
482.7741163353
 30
0.0
 11
-0.2001224449699066
 21
0.006988429770842687
 31
0.0
210
0.0
220
0.0
230
1.0
 40
0.9987793495
 41
3.176456664427957
 42
4.712388980384141
  0
ARC
  5
140
330
1F
100
AcDbEntity
  8
0
  6
Continuous
 62
     7
370
    25
100
AcDbCircle
 10
441.4792485549
 20
483.1743516278
 30
0.0
 40
0.1999999999999886
100
AcDbArc
 50
180.0
 51
268.0
  0
LINE
  5
141
330
1F
100
AcDbEntity
  8
0
  6
Continuous
 62
     7
370
    25
100
AcDbLine
 10
441.485989125
 20
482.9739945168
 30
0.0
 11
441.4722651555
 21
482.9744734494
 31
0.0
  0
ARC
  5
142
330
1F
100
AcDbEntity
  8
0
  6
Continuous
 62
     7
370
    25
100
AcDbCircle
 10
441.4792485549
 20
481.7880761179
 30
0.0
 40
0.2000000000000274
100
AcDbArc
 50
92.0
 51
180.0
  0
LINE
  5
143
330
1F
100
AcDbEntity
  8
0
  6
Continuous
 62
     7
370
    25
100
AcDbLine
 10
441.485989125
 20
481.9884332289
 30
0.0
 11
441.4722651555
 21
481.9879542962
 31
0.0
  0
ARC
  5
144
330
1F
100
AcDbEntity
  8
0
  6
Continuous
 62
     7
370
    25
100
AcDbCircle
 10
441.4792485549
 20
470.6880761179
 30
0.0
 40
0.2000000000000274
100
AcDbArc
 50
92.0
 51
180.0
  0
ARC
  5
145
330
1F
100
AcDbEntity
  8
0
  6
Continuous
 62
     7
370
    25
100
AcDbCircle
 10
441.4792485549
 20
472.0743516278
 30
0.0
 40
0.1999999999999886
100
AcDbArc
 50
180.0
 51
268.0
  0
LINE
  5
146
330
1F
100
AcDbEntity
  8
0
  6
Continuous
 62
     7
370
    25
100
AcDbLine
 10
441.485989125
 20
471.8739945717
 30
0.0
 11
441.4722651555
 21
471.8744732715
 31
0.0
  0
ELLIPSE
  5
147
330
1F
100
AcDbEntity
  8
0
  6
Continuous
 62
     7
370
    25
100
AcDbEllipse
 10
441.479004424
 20
471.6741163353
 30
0.0
 11
-0.2001224449699066
 21
0.006988429770899528
 31
0.0
210
0.0
220
0.0
230
1.0
 40
0.9987793495
 41
3.176456664428535
 42
4.712388980384434
  0
ELLIPSE
  5
148
330
1F
100
AcDbEntity
  8
0
  6
Continuous
 62
     7
370
    25
100
AcDbEllipse
 10
441.479004424
 20
471.0883114104
 30
0.0
 11
0.2001224449699635
 21
0.006988429770899531
 31
0.0
210
0.0
220
0.0
230
1.0
 40
0.9987793495
 41
4.712388980386129
 42
6.248321296340881
  0
LINE
  5
149
330
1F
100
AcDbEntity
  8
0
  6
Continuous
 62
     7
370
    25
100
AcDbLine
 10
441.485989125
 20
470.888433633
 30
0.0
 11
441.4722651555
 21
470.8879540018
 31
0.0
  0
LINE
  5
14A
330
1F
100
AcDbEntity
  8
0
  6
Continuous
 62
     7
370
    25
100
AcDbLine
 10
441.485989125
 20
471.8739945717
 30
0.0
 11
441.5792554929
 21
471.8707377366
 31
0.0
  0
LINE
  5
14B
330
1F
100
AcDbEntity
  8
0
  6
Continuous
 62
     7
370
    25
100
AcDbLine
 10
441.5792554929
 20
470.891690468
 30
0.0
 11
441.485989125
 21
470.888433633
 31
0.0
  0
ELLIPSE
  5
14C
330
1F
100
AcDbEntity
  8
0
  6
Continuous
 62
     7
370
    25
100
AcDbEllipse
 10
441.479004424
 20
459.9883114104
 30
0.0
 11
0.2001224449699635
 21
0.006988429770956373
 31
0.0
210
0.0
220
0.0
230
1.0
 40
0.9987793495
 41
4.712388980385835
 42
6.248321296340597
  0
ARC
  5
14D
330
1F
100
AcDbEntity
  8
0
  6
Continuous
 62
     7
370
    25
100
AcDbCircle
 10
441.4792485549
 20
459.5880761179
 30
0.0
 40
0.2000000000000274
100
AcDbArc
 50
92.0
 51
180.0
  0
ARC
  5
14E
330
1F
100
AcDbEntity
  8
0
  6
Continuous
 62
     7
370
    25
100
AcDbCircle
 10
441.4792485549
 20
460.9743516278
 30
0.0
 40
0.1999999999999886
100
AcDbArc
 50
180.0
 51
268.0
  0
LINE
  5
14F
330
1F
100
AcDbEntity
  8
0
  6
Continuous
 62
     7
370
    25
100
AcDbLine
 10
441.485989125
 20
460.7739938698
 30
0.0
 11
441.4722651555
 21
460.7744725696
 31
0.0
  0
ELLIPSE
  5
150
330
1F
100
AcDbEntity
  8
0
  6
Continuous
 62
     7
370
    25
100
AcDbEllipse
 10
441.479004424
 20
460.5741163353
 30
0.0
 11
-0.2001224449699066
 21
0.006988429770956373
 31
0.0
210
0.0
220
0.0
230
1.0
 40
0.9987793495
 41
3.176456664428819
 42
4.712388980384717
  0
LINE
  5
151
330
1F
100
AcDbEntity
  8
0
  6
Continuous
 62
     7
370
    25
100
AcDbLine
 10
441.485989125
 20
459.7884329311
 30
0.0
 11
441.4722651555
 21
459.7879542313
 31
0.0
  0
LINE
  5
152
330
1F
100
AcDbEntity
  8
0
  6
Continuous
 62
     7
370
    25
100
AcDbLine
 10
441.5792554929
 20
459.7916906975
 30
0.0
 11
441.485989125
 21
459.7884329311
 31
0.0
  0
LINE
  5
153
330
1F
100
AcDbEntity
  8
0
  6
Continuous
 62
     7
370
    25
100
AcDbLine
 10
441.485989125
 20
460.7739938698
 30
0.0
 11
441.5792554929
 21
460.7707379661
 31
0.0
  0
ARC
  5
154
330
1F
100
AcDbEntity
  8
0
  6
Continuous
 62
     7
370
    25
100
AcDbCircle
 10
441.4792485549
 20
448.4880761179
 30
0.0
 40
0.1999999999999886
100
AcDbArc
 50
92.0
 51
180.0
  0
LINE
  5
155
330
1F
100
AcDbEntity
  8
0
  6
Continuous
 62
     7
370
    25
100
AcDbLine
 10
441.485989125
 20
449.6739940993
 30
0.0
 11
441.4722651555
 21
449.6744746618
 31
0.0
  0
ELLIPSE
  5
156
330
1F
100
AcDbEntity
  8
0
  6
Continuous
 62
     7
370
    25
100
AcDbEllipse
 10
441.479004424
 20
449.4741163353
 30
0.0
 11
-0.2001224449699066
 21
0.006988429770899528
 31
0.0
210
0.0
220
0.0
230
1.0
 40
0.9987793495
 41
3.176456664428535
 42
4.712388980384434
  0
ELLIPSE
  5
157
330
1F
100
AcDbEntity
  8
0
  6
Continuous
 62
     7
370
    25
100
AcDbEllipse
 10
441.479004424
 20
448.8883114104
 30
0.0
 11
0.2001224449699635
 21
0.006988429770899531
 31
0.0
210
0.0
220
0.0
230
1.0
 40
0.9987793495
 41
4.712388980386118
 42
6.248321296340872
  0
LINE
  5
158
330
1F
100
AcDbEntity
  8
0
  6
Continuous
 62
     7
370
    25
100
AcDbLine
 10
441.485989125
 20
448.6884350232
 30
0.0
 11
441.4722651555
 21
448.6879544608
 31
0.0
  0
ARC
  5
159
330
1F
100
AcDbEntity
  8
0
  6
Continuous
 62
     7
370
    25
100
AcDbCircle
 10
441.4792485549
 20
449.8743516278
 30
0.0
 40
0.1999999999999886
100
AcDbArc
 50
180.0
 51
268.0
  0
LINE
  5
15A
330
1F
100
AcDbEntity
  8
0
  6
Continuous
 62
     7
370
    25
100
AcDbLine
 10
441.485989125
 20
449.6739940993
 30
0.0
 11
441.5792554929
 21
449.6707381956
 31
0.0
  0
LINE
  5
15B
330
1F
100
AcDbEntity
  8
0
  6
Continuous
 62
     7
370
    25
100
AcDbLine
 10
441.5792554929
 20
448.691690927
 30
0.0
 11
441.485989125
 21
448.6884350232
 31
0.0
  0
LINE
  5
15C
330
1F
100
AcDbEntity
  8
0
  6
Continuous
 62
     7
370
    25
100
AcDbLine
 10
441.485989125
 20
438.4739944987
 30
0.0
 11
441.5792554929
 21
438.4707385949
 31
0.0
  0
ELLIPSE
  5
15D
330
1F
100
AcDbEntity
  8
0
  6
Continuous
 62
     7
370
    25
100
AcDbEllipse
 10
441.479004424
 20
438.2741163353
 30
0.0
 11
-0.2001224449699066
 21
0.006988429770899528
 31
0.0
210
0.0
220
0.0
230
1.0
 40
0.9987793495
 41
3.176456664428535
 42
4.712388980384423
  0
ELLIPSE
  5
15E
330
1F
100
AcDbEntity
  8
0
  6
Continuous
 62
     7
370
    25
100
AcDbEllipse
 10
441.479004424
 20
437.6883114104
 30
0.0
 11
0.2001224449699635
 21
0.006988429770899531
 31
0.0
210
0.0
220
0.0
230
1.0
 40
0.9987793495
 41
4.712388980386129
 42
6.248321296341167
  0
LINE
  5
15F
330
1F
100
AcDbEntity
  8
0
  6
Continuous
 62
     7
370
    25
100
AcDbLine
 10
441.485989125
 20
437.4884316973
 30
0.0
 11
441.4722651555
 21
437.4879548601
 31
0.0
  0
ARC
  5
160
330
1F
100
AcDbEntity
  8
0
  6
Continuous
 62
     7
370
    25
100
AcDbCircle
 10
441.4792485549
 20
437.2880761179
 30
0.0
 40
0.1999999999999886
100
AcDbArc
 50
92.0
 51
180.0
  0
LINE
  5
161
330
1F
100
AcDbEntity
  8
0
  6
Continuous
 62
     7
370
    25
100
AcDbLine
 10
441.485989125
 20
438.4739944987
 30
0.0
 11
441.4722651555
 21
438.4744750611
 31
0.0
  0
ARC
  5
162
330
1F
100
AcDbEntity
  8
0
  6
Continuous
 62
     7
370
    25
100
AcDbCircle
 10
441.4792485549
 20
438.6743516278
 30
0.0
 40
0.2000000000000274
100
AcDbArc
 50
180.0
 51
268.0
  0
LINE
  5
163
330
1F
100
AcDbEntity
  8
0
  6
Continuous
 62
     7
370
    25
100
AcDbLine
 10
441.5792554929
 20
437.4916913263
 30
0.0
 11
441.485989125
 21
437.4884316973
 31
0.0
  0
LINE
  5
164
330
1F
100
AcDbEntity
  8
0
  6
Continuous
 62
     7
370
    25
100
AcDbLine
 10
437.2792423083
 20
428.2812128119
 30
0.0
 11
440.3217464997
 21
429.6941111139
 31
0.0
  0
LINE
  5
165
330
1F
100
AcDbEntity
  8
0
  6
Continuous
 62
     7
370
    25
100
AcDbLine
 10
437.2792423083
 20
428.2812128119
 30
0.0
 11
441.2792504146
 21
428.1415293268
 31
0.0
  0
LINE
  5
166
330
1F
100
AcDbEntity
  8
0
  6
Continuous
 62
     7
370
    25
100
AcDbLine
 10
441.2792504146
 20
428.1415293268
 30
0.0
 11
441.2792504146
 21
429.6667004279
 31
0.0
  0
ELLIPSE
  5
167
330
1F
100
AcDbEntity
  8
0
  6
Continuous
 62
     7
370
    25
100
AcDbEllipse
 10
434.6363914121
 20
433.2312138728
 30
0.0
 11
0.0
 21
6.546536707080065
 31
0.0
210
0.0
220
0.0
230
1.0
 40
0.4364357805
 41
4.322628247587264
 42
5.10214971318215
  0
LINE
  5
168
330
1F
100
AcDbEntity
  8
0
  6
Continuous
 62
     7
370
    25
100
AcDbLine
 10
437.2792423083
 20
435.7186841122
 30
0.0
 11
437.2792423083
 21
529.2437436334
 31
0.0
  0
ELLIPSE
  5
169
330
1F
100
AcDbEntity
  8
0
  6
Continuous
 62
     7
370
    25
100
AcDbEllipse
 10
434.6363914121
 20
531.7312138728
 30
0.0
 11
0.0
 21
6.546536707079894
 31
0.0
210
0.0
220
0.0
230
1.0
 40
0.4364357805
 41
4.322628247587279
 42
5.102149713182168
  0
LINE
  5
16A
330
1F
100
AcDbEntity
  8
0
  6
Continuous
 62
     7
370
    25
100
AcDbLine
 10
437.2792423083
 20
534.2186825625
 30
0.0
 11
437.2792423083
 21
536.6812149338
 31
0.0
  0
LINE
  5
16B
330
1F
100
AcDbEntity
  8
0
  6
Continuous
 62
     7
370
    25
100
AcDbLine
 10
437.2792423083
 20
428.2812128119
 30
0.0
 11
437.2792423083
 21
430.7437451832
 31
0.0
  0
LINE
  5
16C
330
1F
100
AcDbEntity
  8
0
  6
Continuous
 62
     7
370
    25
100
AcDbLine
 10
441.4722651555
 20
526.2880759589
 30
0.0
 11
441.4722651555
 21
516.4743500106
 31
0.0
  0
LINE
  5
16D
330
1F
100
AcDbEntity
  8
0
  6
Continuous
 62
     7
370
    25
100
AcDbLine
 10
441.4722651555
 20
516.4743500106
 30
0.0
 11
441.2792504146
 21
516.4743500106
 31
0.0
  0
LINE
  5
16E
330
1F
100
AcDbEntity
  8
0
  6
Continuous
 62
     7
370
    25
100
AcDbLine
 10
441.2792504146
 20
526.2880759589
 30
0.0
 11
441.4722651555
 21
526.2880759589
 31
0.0
  0
ARC
  5
16F
330
1F
100
AcDbEntity
  8
0
  6
Continuous
 62
     7
370
    25
100
AcDbCircle
 10
442.9096574141
 20
526.3880143217
 30
0.0
 40
1.440862304834085
100
AcDbArc
 50
176.0227653136
 51
183.9772346864
  0
ARC
  5
170
330
1F
100
AcDbEntity
  8
0
  6
Continuous
 62
     7
370
    25
100
AcDbCircle
 10
442.9096574141
 20
515.1880147211
 30
0.0
 40
1.440862304834085
100
AcDbArc
 50
176.0227653136
 51
183.9772346864
  0
LINE
  5
171
330
1F
100
AcDbEntity
  8
0
  6
Continuous
 62
     7
370
    25
100
AcDbLine
 10
441.2792504146
 20
515.0880763582
 30
0.0
 11
441.4722651555
 21
515.0880763582
 31
0.0
  0
ARC
  5
172
330
1F
100
AcDbEntity
  8
0
  6
Continuous
 62
     7
370
    25
100
AcDbCircle
 10
442.9096437167
 20
516.3744116477
 30
0.0
 40
1.440848640433135
100
AcDbArc
 50
176.0227275345
 51
183.9772724655
  0
LINE
  5
173
330
1F
100
AcDbEntity
  8
0
  6
Continuous
 62
     7
370
    25
100
AcDbLine
 10
441.4722651555
 20
515.0880763582
 30
0.0
 11
441.4722651555
 21
505.3743521027
 31
0.0
  0
LINE
  5
174
330
1F
100
AcDbEntity
  8
0
  6
Continuous
 62
     7
370
    25
100
AcDbLine
 10
441.4722651555
 20
505.3743521027
 30
0.0
 11
441.2792504146
 21
505.3743521027
 31
0.0
  0
ARC
  5
175
330
1F
100
AcDbEntity
  8
0
  6
Continuous
 62
     7
370
    25
100
AcDbCircle
 10
442.909679175
 20
504.0880158819
 30
0.0
 40
1.440884077843765
100
AcDbArc
 50
176.022788387
 51
183.977211613
  0
LINE
  5
176
330
1F
100
AcDbEntity
  8
0
  6
Continuous
 62
     7
370
    25
100
AcDbLine
 10
441.4722651555
 20
503.9880765877
 30
0.0
 11
441.2792504146
 21
503.9880765877
 31
0.0
  0
ARC
  5
177
330
1F
100
AcDbEntity
  8
0
  6
Continuous
 62
     7
370
    25
100
AcDbCircle
 10
442.9096702566
 20
505.2744128085
 30
0.0
 40
1.440875180983241
100
AcDbArc
 50
176.0227637897
 51
183.9772362103
  0
LINE
  5
178
330
1F
100
AcDbEntity
  8
0
  6
Continuous
 62
     7
370
    25
100
AcDbLine
 10
441.4722651555
 20
503.9880765877
 30
0.0
 11
441.4722651555
 21
494.2743514008
 31
0.0
  0
LINE
  5
179
330
1F
100
AcDbEntity
  8
0
  6
Continuous
 62
     7
370
    25
100
AcDbLine
 10
441.4722651555
 20
494.2743514008
 30
0.0
 11
441.2792504146
 21
494.2743514008
 31
0.0
  0
LINE
  5
17A
330
1F
100
AcDbEntity
  8
0
  6
Continuous
 62
     7
370
    25
100
AcDbLine
 10
441.4722651555
 20
492.8880758859
 30
0.0
 11
441.2792504146
 21
492.8880758859
 31
0.0
  0
ARC
  5
17B
330
1F
100
AcDbEntity
  8
0
  6
Continuous
 62
     7
370
    25
100
AcDbCircle
 10
442.9096781403
 20
492.98801518
 30
0.0
 40
1.440883045631701
100
AcDbArc
 50
176.0227855332
 51
183.9772144668
  0
ARC
  5
17C
330
1F
100
AcDbEntity
  8
0
  6
Continuous
 62
     7
370
    25
100
AcDbCircle
 10
442.9096480781
 20
494.1744125723
 30
0.0
 40
1.440853023541806
100
AcDbArc
 50
176.0227210911
 51
183.9772789089
  0
LINE
  5
17D
330
1F
100
AcDbEntity
  8
0
  6
Continuous
 62
     7
370
    25
100
AcDbLine
 10
441.4722651555
 20
492.8880758859
 30
0.0
 11
441.4722651555
 21
483.1743516303
 31
0.0
  0
LINE
  5
17E
330
1F
100
AcDbEntity
  8
0
  6
Continuous
 62
     7
370
    25
100
AcDbLine
 10
441.4722651555
 20
483.1743516303
 30
0.0
 11
441.2792504146
 21
483.1743516303
 31
0.0
  0
ARC
  5
17F
330
1F
100
AcDbEntity
  8
0
  6
Continuous
 62
     7
370
    25
100
AcDbCircle
 10
442.9096653943
 20
481.8880152058
 30
0.0
 40
1.440870316224465
100
AcDbArc
 50
176.0227584606
 51
183.9772415394
  0
LINE
  5
180
330
1F
100
AcDbEntity
  8
0
  6
Continuous
 62
     7
370
    25
100
AcDbLine
 10
441.4722651555
 20
481.7880761154
 30
0.0
 11
441.2792504146
 21
481.7880761154
 31
0.0
  0
ARC
  5
181
330
1F
100
AcDbEntity
  8
0
  6
Continuous
 62
     7
370
    25
100
AcDbCircle
 10
442.9096653943
 20
483.0744125399
 30
0.0
 40
1.440870316224465
100
AcDbArc
 50
176.0227584606
 51
183.9772415394
  0
LINE
  5
182
330
1F
100
AcDbEntity
  8
0
  6
Continuous
 62
     7
370
    25
100
AcDbLine
 10
441.4722651555
 20
481.7880761154
 30
0.0
 11
441.4722651555
 21
472.0743518598
 31
0.0
  0
LINE
  5
183
330
1F
100
AcDbEntity
  8
0
  6
Continuous
 62
     7
370
    25
100
AcDbLine
 10
441.4722651555
 20
472.0743518598
 30
0.0
 11
441.2792504146
 21
472.0743518598
 31
0.0
  0
ARC
  5
184
330
1F
100
AcDbEntity
  8
0
  6
Continuous
 62
     7
370
    25
100
AcDbCircle
 10
442.9096781403
 20
471.9744125656
 30
0.0
 40
1.440883045631701
100
AcDbArc
 50
176.0227855332
 51
183.9772144668
  0
LINE
  5
185
330
1F
100
AcDbEntity
  8
0
  6
Continuous
 62
     7
370
    25
100
AcDbLine
 10
441.4722651555
 20
470.6880763448
 30
0.0
 11
441.4722651555
 21
460.9743511579
 31
0.0
  0
LINE
  5
186
330
1F
100
AcDbEntity
  8
0
  6
Continuous
 62
     7
370
    25
100
AcDbLine
 10
441.4722651555
 20
460.9743511579
 30
0.0
 11
441.2792504146
 21
460.9743511579
 31
0.0
  0
LINE
  5
187
330
1F
100
AcDbEntity
  8
0
  6
Continuous
 62
     7
370
    25
100
AcDbLine
 10
441.2792504146
 20
470.6880763448
 30
0.0
 11
441.4722651555
 21
470.6880763448
 31
0.0
  0
ARC
  5
188
330
1F
100
AcDbEntity
  8
0
  6
Continuous
 62
     7
370
    25
100
AcDbCircle
 10
442.9096480781
 20
470.7880151733
 30
0.0
 40
1.440853023541806
100
AcDbArc
 50
176.0227210911
 51
183.9772789089
  0
ARC
  5
189
330
1F
100
AcDbEntity
  8
0
  6
Continuous
 62
     7
370
    25
100
AcDbCircle
 10
442.909679175
 20
460.8744118638
 30
0.0
 40
1.440884077843765
100
AcDbArc
 50
176.022788387
 51
183.977211613
  0
ARC
  5
18A
330
1F
100
AcDbEntity
  8
0
  6
Continuous
 62
     7
370
    25
100
AcDbCircle
 10
442.9096702566
 20
459.6880149371
 30
0.0
 40
1.440875180983241
100
AcDbArc
 50
176.0227637897
 51
183.9772362103
  0
LINE
  5
18B
330
1F
100
AcDbEntity
  8
0
  6
Continuous
 62
     7
370
    25
100
AcDbLine
 10
441.2792504146
 20
459.588075643
 30
0.0
 11
441.4722651555
 21
459.588075643
 31
0.0
  0
LINE
  5
18C
330
1F
100
AcDbEntity
  8
0
  6
Continuous
 62
     7
370
    25
100
AcDbLine
 10
441.4722651555
 20
459.588075643
 30
0.0
 11
441.4722651555
 21
449.8743513874
 31
0.0
  0
LINE
  5
18D
330
1F
100
AcDbEntity
  8
0
  6
Continuous
 62
     7
370
    25
100
AcDbLine
 10
441.4722651555
 20
449.8743513874
 30
0.0
 11
441.2792504146
 21
449.8743513874
 31
0.0
  0
ARC
  5
18E
330
1F
100
AcDbEntity
  8
0
  6
Continuous
 62
     7
370
    25
100
AcDbCircle
 10
442.9096574141
 20
449.7744130246
 30
0.0
 40
1.440862304834142
100
AcDbArc
 50
176.0227653136
 51
183.9772346864
  0
ARC
  5
18F
330
1F
100
AcDbEntity
  8
0
  6
Continuous
 62
     7
370
    25
100
AcDbCircle
 10
442.9096437167
 20
448.5880160979
 30
0.0
 40
1.440848640433135
100
AcDbArc
 50
176.0227275345
 51
183.9772724655
  0
LINE
  5
190
330
1F
100
AcDbEntity
  8
0
  6
Continuous
 62
     7
370
    25
100
AcDbLine
 10
441.2792504146
 20
448.4880777351
 30
0.0
 11
441.4722651555
 21
448.4880777351
 31
0.0
  0
LINE
  5
191
330
1F
100
AcDbEntity
  8
0
  6
Continuous
 62
     7
370
    25
100
AcDbLine
 10
441.4722651555
 20
448.4880777351
 30
0.0
 11
441.4722651555
 21
438.6743517868
 31
0.0
  0
LINE
  5
192
330
1F
100
AcDbEntity
  8
0
  6
Continuous
 62
     7
370
    25
100
AcDbLine
 10
441.4722651555
 20
438.6743517868
 30
0.0
 11
441.2792504146
 21
438.6743517868
 31
0.0
  0
ARC
  5
193
330
1F
100
AcDbEntity
  8
0
  6
Continuous
 62
     7
370
    25
100
AcDbCircle
 10
442.9096574141
 20
438.5744134239
 30
0.0
 40
1.440862304834142
100
AcDbArc
 50
176.0227653136
 51
183.9772346864
  0
LINE
  5
194
330
1F
100
AcDbEntity
  8
0
  6
Continuous
 62
     7
370
    25
100
AcDbLine
 10
753.6367506101
 20
429.6941111139
 30
0.0
 11
752.6792466952
 21
429.6667004279
 31
0.0
  0
LINE
  5
195
330
1F
100
AcDbEntity
  8
0
  6
Continuous
 62
     7
370
    25
100
AcDbLine
 10
752.6792466952
 20
437.2880744092
 30
0.0
 11
752.6792466952
 21
438.6743517868
 31
0.0
  0
LINE
  5
196
330
1F
100
AcDbEntity
  8
0
  6
Continuous
 62
     7
370
    25
100
AcDbLine
 10
752.6792466952
 20
448.4880777351
 30
0.0
 11
752.6792466952
 21
438.6743517868
 31
0.0
  0
LINE
  5
197
330
1F
100
AcDbEntity
  8
0
  6
Continuous
 62
     7
370
    25
100
AcDbLine
 10
752.6792466952
 20
448.4880777351
 30
0.0
 11
752.6792466952
 21
449.8743513874
 31
0.0
  0
LINE
  5
198
330
1F
100
AcDbEntity
  8
0
  6
Continuous
 62
     7
370
    25
100
AcDbLine
 10
752.6792466952
 20
459.588075643
 30
0.0
 11
752.6792466952
 21
449.8743513874
 31
0.0
  0
LINE
  5
199
330
1F
100
AcDbEntity
  8
0
  6
Continuous
 62
     7
370
    25
100
AcDbLine
 10
752.6792466952
 20
459.588075643
 30
0.0
 11
752.6792466952
 21
460.9743511579
 31
0.0
  0
LINE
  5
19A
330
1F
100
AcDbEntity
  8
0
  6
Continuous
 62
     7
370
    25
100
AcDbLine
 10
752.6792466952
 20
470.6880763448
 30
0.0
 11
752.6792466952
 21
460.9743511579
 31
0.0
  0
LINE
  5
19B
330
1F
100
AcDbEntity
  8
0
  6
Continuous
 62
     7
370
    25
100
AcDbLine
 10
752.6792466952
 20
470.6880763448
 30
0.0
 11
752.6792466952
 21
472.0743518598
 31
0.0
  0
LINE
  5
19C
330
1F
100
AcDbEntity
  8
0
  6
Continuous
 62
     7
370
    25
100
AcDbLine
 10
752.6792466952
 20
481.7880761154
 30
0.0
 11
752.6792466952
 21
472.0743518598
 31
0.0
  0
LINE
  5
19D
330
1F
100
AcDbEntity
  8
0
  6
Continuous
 62
     7
370
    25
100
AcDbLine
 10
752.6792466952
 20
481.7880761154
 30
0.0
 11
752.6792466952
 21
483.1743516303
 31
0.0
  0
LINE
  5
19E
330
1F
100
AcDbEntity
  8
0
  6
Continuous
 62
     7
370
    25
100
AcDbLine
 10
752.6792466952
 20
492.8880758859
 30
0.0
 11
752.6792466952
 21
483.1743516303
 31
0.0
  0
LINE
  5
19F
330
1F
100
AcDbEntity
  8
0
  6
Continuous
 62
     7
370
    25
100
AcDbLine
 10
752.6792466952
 20
492.8880758859
 30
0.0
 11
752.6792466952
 21
494.2743514008
 31
0.0
  0
LINE
  5
1A0
330
1F
100
AcDbEntity
  8
0
  6
Continuous
 62
     7
370
    25
100
AcDbLine
 10
752.6792466952
 20
503.9880765877
 30
0.0
 11
752.6792466952
 21
494.2743514008
 31
0.0
  0
LINE
  5
1A1
330
1F
100
AcDbEntity
  8
0
  6
Continuous
 62
     7
370
    25
100
AcDbLine
 10
752.6792466952
 20
503.9880765877
 30
0.0
 11
752.6792466952
 21
505.3743521027
 31
0.0
  0
LINE
  5
1A2
330
1F
100
AcDbEntity
  8
0
  6
Continuous
 62
     7
370
    25
100
AcDbLine
 10
752.6792466952
 20
515.0880763582
 30
0.0
 11
752.6792466952
 21
505.3743521027
 31
0.0
  0
LINE
  5
1A3
330
1F
100
AcDbEntity
  8
0
  6
Continuous
 62
     7
370
    25
100
AcDbLine
 10
752.6792466952
 20
515.0880763582
 30
0.0
 11
752.6792466952
 21
516.4743500106
 31
0.0
  0
LINE
  5
1A4
330
1F
100
AcDbEntity
  8
0
  6
Continuous
 62
     7
370
    25
100
AcDbLine
 10
752.6792466952
 20
526.2880759589
 30
0.0
 11
752.6792466952
 21
516.4743500106
 31
0.0
  0
LINE
  5
1A5
330
1F
100
AcDbEntity
  8
0
  6
Continuous
 62
     7
370
    25
100
AcDbLine
 10
752.6792466952
 20
526.2880759589
 30
0.0
 11
752.6792466952
 21
527.6743533365
 31
0.0
  0
LINE
  5
1A6
330
1F
100
AcDbEntity
  8
0
  6
Continuous
 62
     7
370
    25
100
AcDbLine
 10
753.6367506101
 20
535.2683166317
 30
0.0
 11
752.6792466952
 21
535.2957273177
 31
0.0
  0
LINE
  5
1A7
330
1F
100
AcDbEntity
  8
0
  6
Continuous
 62
     7
370
    25
100
AcDbLine
 10
753.6367506101
 20
535.2683166317
 30
0.0
 11
753.6367506101
 21
429.6941111139
 31
0.0
  0
LINE
  5
1A8
330
1F
100
AcDbEntity
  8
0
  6
Continuous
 62
     7
370
    25
100
AcDbLine
 10
752.6792466952
 20
437.2880744092
 30
0.0
 11
752.6792466952
 21
429.6667004279
 31
0.0
  0
LINE
  5
1A9
330
1F
100
AcDbEntity
  8
0
  6
Continuous
 62
     7
370
    25
100
AcDbLine
 10
752.6792466952
 20
535.2957273177
 30
0.0
 11
752.6792466952
 21
527.6743533365
 31
0.0
  0
LINE
  5
1AA
330
1F
100
AcDbEntity
  8
0
  6
Continuous
 62
     7
370
    25
100
AcDbLine
 10
756.6792548015
 20
536.6812149338
 30
0.0
 11
753.6367506101
 21
535.2683166317
 31
0.0
  0
LINE
  5
1AB
330
1F
100
AcDbEntity
  8
0
  6
Continuous
 62
     7
370
    25
100
AcDbLine
 10
756.6792548015
 20
536.6812149338
 30
0.0
 11
752.6792466952
 21
536.8208984188
 31
0.0
  0
LINE
  5
1AC
330
1F
100
AcDbEntity
  8
0
  6
Continuous
 62
     7
370
    25
100
AcDbLine
 10
752.6792466952
 20
536.8208984188
 30
0.0
 11
752.6792466952
 21
535.2957273177
 31
0.0
  0
ELLIPSE
  5
1AD
330
1F
100
AcDbEntity
  8
0
  6
Continuous
 62
     7
370
    25
100
AcDbEllipse
 10
752.4794926859
 20
527.2741163353
 30
0.0
 11
-0.2001224449699066
 21
-0.006988429771013215
 31
0.0
210
0.0
220
0.0
230
1.0
 40
0.9987793495
 41
4.712388980385551
 42
6.248321296341175
  0
LINE
  5
1AE
330
1F
100
AcDbEntity
  8
0
  6
Continuous
 62
     7
370
    25
100
AcDbLine
 10
752.4725079848
 20
527.4739960484
 30
0.0
 11
752.4862319543
 21
527.4744728855
 31
0.0
  0
ARC
  5
1AF
330
1F
100
AcDbEntity
  8
0
  6
Continuous
 62
     7
370
    25
100
AcDbCircle
 10
752.4792485549
 20
527.6743516278
 30
0.0
 40
0.2000000000000455
100
AcDbArc
 50
272.0
 51
0.0
  0
ARC
  5
1B0
330
1F
100
AcDbEntity
  8
0
  6
Continuous
 62
     7
370
    25
100
AcDbCircle
 10
752.4792485549
 20
526.2880761179
 30
0.0
 40
0.2000000000000842
100
AcDbArc
 50
0.0
 51
88.0
  0
LINE
  5
1B1
330
1F
100
AcDbEntity
  8
0
  6
Continuous
 62
     7
370
    25
100
AcDbLine
 10
752.4725079848
 20
526.488433247
 30
0.0
 11
752.4862319543
 21
526.4879526846
 31
0.0
  0
ELLIPSE
  5
1B2
330
1F
100
AcDbEntity
  8
0
  6
Continuous
 62
     7
370
    25
100
AcDbEllipse
 10
752.4794926859
 20
526.6883114104
 30
0.0
 11
0.2001224449699066
 21
-0.006988429770899528
 31
0.0
210
0.0
220
0.0
230
1.0
 40
0.9987793495
 41
3.176456664428251
 42
4.712388980384423
  0
LINE
  5
1B3
330
1F
100
AcDbEntity
  8
0
  6
Continuous
 62
     7
370
    25
100
AcDbLine
 10
752.2792548253
 20
526.6883285991
 30
0.0
 11
752.2792548253
 21
527.2741006962
 31
0.0
  0
LINE
  5
1B4
330
1F
100
AcDbEntity
  8
0
  6
Continuous
 62
     7
370
    25
100
AcDbLine
 10
752.2792548253
 20
515.4883289985
 30
0.0
 11
752.2792548253
 21
516.0741010956
 31
0.0
  0
LINE
  5
1B5
330
1F
100
AcDbEntity
  8
0
  6
Continuous
 62
     7
370
    25
100
AcDbLine
 10
752.2792548253
 20
504.388329228
 30
0.0
 11
752.2792548253
 21
504.9740994624
 31
0.0
  0
LINE
  5
1B6
330
1F
100
AcDbEntity
  8
0
  6
Continuous
 62
     7
370
    25
100
AcDbLine
 10
752.2792548253
 20
493.2883285261
 30
0.0
 11
752.2792548253
 21
493.8740996919
 31
0.0
  0
LINE
  5
1B7
330
1F
100
AcDbEntity
  8
0
  6
Continuous
 62
     7
370
    25
100
AcDbLine
 10
752.2792548253
 20
482.1883284646
 30
0.0
 11
752.2792548253
 21
482.7740992811
 31
0.0
  0
LINE
  5
1B8
330
1F
100
AcDbEntity
  8
0
  6
Continuous
 62
     7
370
    25
100
AcDbLine
 10
752.2792548253
 20
471.0883280538
 30
0.0
 11
752.2792548253
 21
471.6740992195
 31
0.0
  0
LINE
  5
1B9
330
1F
100
AcDbEntity
  8
0
  6
Continuous
 62
     7
370
    25
100
AcDbLine
 10
752.2792548253
 20
459.9883282832
 30
0.0
 11
752.2792548253
 21
460.5740985177
 31
0.0
  0
LINE
  5
1BA
330
1F
100
AcDbEntity
  8
0
  6
Continuous
 62
     7
370
    25
100
AcDbLine
 10
752.2792548253
 20
449.4740987472
 30
0.0
 11
752.2792548253
 21
448.8883266501
 31
0.0
  0
LINE
  5
1BB
330
1F
100
AcDbEntity
  8
0
  6
Continuous
 62
     7
370
    25
100
AcDbLine
 10
752.2792548253
 20
437.6883270494
 30
0.0
 11
752.2792548253
 21
438.2740991465
 31
0.0
  0
LINE
  5
1BC
330
1F
100
AcDbEntity
  8
0
  6
Continuous
 62
     7
370
    25
100
AcDbLine
 10
752.3792416169
 20
527.4707364194
 30
0.0
 11
752.4725079848
 21
527.4739960484
 31
0.0
  0
LINE
  5
1BD
330
1F
100
AcDbEntity
  8
0
  6
Continuous
 62
     7
370
    25
100
AcDbLine
 10
752.4725079848
 20
526.488433247
 30
0.0
 11
752.3792416169
 21
526.4916891507
 31
0.0
  0
ARC
  5
1BE
330
1F
100
AcDbEntity
  8
0
  6
Continuous
 62
     7
370
    25
100
AcDbCircle
 10
752.4792485549
 20
515.0880761179
 30
0.0
 40
0.2000000000000455
100
AcDbArc
 50
0.0
 51
88.0
  0
LINE
  5
1BF
330
1F
100
AcDbEntity
  8
0
  6
Continuous
 62
     7
370
    25
100
AcDbLine
 10
752.4725079848
 20
515.2884336464
 30
0.0
 11
752.4862319543
 21
515.2879530839
 31
0.0
  0
ELLIPSE
  5
1C0
330
1F
100
AcDbEntity
  8
0
  6
Continuous
 62
     7
370
    25
100
AcDbEllipse
 10
752.4794926859
 20
515.4883114104
 30
0.0
 11
0.2001224449699066
 21
-0.006988429771013215
 31
0.0
210
0.0
220
0.0
230
1.0
 40
0.9987793495
 41
3.176456664429388
 42
4.71238898038501
  0
ELLIPSE
  5
1C1
330
1F
100
AcDbEntity
  8
0
  6
Continuous
 62
     7
370
    25
100
AcDbEllipse
 10
752.4794926859
 20
516.0741163353
 30
0.0
 11
-0.2001224449699066
 21
-0.006988429770785843
 31
0.0
210
0.0
220
0.0
230
1.0
 40
0.9987793495
 41
4.712388980386665
 42
6.248321296341156
  0
LINE
  5
1C2
330
1F
100
AcDbEntity
  8
0
  6
Continuous
 62
     7
370
    25
100
AcDbLine
 10
752.4725079848
 20
516.2739927224
 30
0.0
 11
752.4862319543
 21
516.2744732849
 31
0.0
  0
ARC
  5
1C3
330
1F
100
AcDbEntity
  8
0
  6
Continuous
 62
     7
370
    25
100
AcDbCircle
 10
752.4792485549
 20
516.4743516278
 30
0.0
 40
0.2000000000000842
100
AcDbArc
 50
272.0
 51
0.0
  0
LINE
  5
1C4
330
1F
100
AcDbEntity
  8
0
  6
Continuous
 62
     7
370
    25
100
AcDbLine
 10
752.4725079848
 20
515.2884336464
 30
0.0
 11
752.3792416169
 21
515.2916895501
 31
0.0
  0
LINE
  5
1C5
330
1F
100
AcDbEntity
  8
0
  6
Continuous
 62
     7
370
    25
100
AcDbLine
 10
752.3792416169
 20
516.2707368187
 30
0.0
 11
752.4725079848
 21
516.2739927224
 31
0.0
  0
ELLIPSE
  5
1C6
330
1F
100
AcDbEntity
  8
0
  6
Continuous
 62
     7
370
    25
100
AcDbEllipse
 10
752.4794926859
 20
504.9741163353
 30
0.0
 11
-0.2001224449699066
 21
-0.006988429770842687
 31
0.0
210
0.0
220
0.0
230
1.0
 40
0.9987793495
 41
4.712388980386383
 42
6.248321296341157
  0
LINE
  5
1C7
330
1F
100
AcDbEntity
  8
0
  6
Continuous
 62
     7
370
    25
100
AcDbLine
 10
752.4725079848
 20
505.1739948146
 30
0.0
 11
752.4862319543
 21
505.1744735144
 31
0.0
  0
ARC
  5
1C8
330
1F
100
AcDbEntity
  8
0
  6
Continuous
 62
     7
370
    25
100
AcDbCircle
 10
752.4792485549
 20
505.3743516278
 30
0.0
 40
0.2000000000000455
100
AcDbArc
 50
272.0
 51
0.0
  0
ARC
  5
1C9
330
1F
100
AcDbEntity
  8
0
  6
Continuous
 62
     7
370
    25
100
AcDbCircle
 10
752.4792485549
 20
503.9880761179
 30
0.0
 40
0.2000000000000455
100
AcDbArc
 50
0.0
 51
88.0
  0
LINE
  5
1CA
330
1F
100
AcDbEntity
  8
0
  6
Continuous
 62
     7
370
    25
100
AcDbLine
 10
752.4725079848
 20
504.1884338758
 30
0.0
 11
752.4862319543
 21
504.187955176
 31
0.0
  0
ELLIPSE
  5
1CB
330
1F
100
AcDbEntity
  8
0
  6
Continuous
 62
     7
370
    25
100
AcDbEllipse
 10
752.4794926859
 20
504.3883114104
 30
0.0
 11
0.2001224449699066
 21
-0.006988429770956373
 31
0.0
210
0.0
220
0.0
230
1.0
 40
0.9987793495
 41
3.17645666442882
 42
4.712388980384727
  0
LINE
  5
1CC
330
1F
100
AcDbEntity
  8
0
  6
Continuous
 62
     7
370
    25
100
AcDbLine
 10
752.4725079848
 20
504.1884338758
 30
0.0
 11
752.3792416169
 21
504.1916897796
 31
0.0
  0
LINE
  5
1CD
330
1F
100
AcDbEntity
  8
0
  6
Continuous
 62
     7
370
    25
100
AcDbLine
 10
752.3792416169
 20
505.1707370482
 30
0.0
 11
752.4725079848
 21
505.1739948146
 31
0.0
  0
ARC
  5
1CE
330
1F
100
AcDbEntity
  8
0
  6
Continuous
 62
     7
370
    25
100
AcDbCircle
 10
752.4792485549
 20
492.8880761179
 30
0.0
 40
0.2000000000000455
100
AcDbArc
 50
0.0
 51
88.0
  0
LINE
  5
1CF
330
1F
100
AcDbEntity
  8
0
  6
Continuous
 62
     7
370
    25
100
AcDbLine
 10
752.4725079848
 20
493.088433174
 30
0.0
 11
752.4862319543
 21
493.0879544742
 31
0.0
  0
ELLIPSE
  5
1D0
330
1F
100
AcDbEntity
  8
0
  6
Continuous
 62
     7
370
    25
100
AcDbEllipse
 10
752.4794926859
 20
493.2883114104
 30
0.0
 11
0.2001224449699066
 21
-0.006988429770956373
 31
0.0
210
0.0
220
0.0
230
1.0
 40
0.9987793495
 41
3.176456664428526
 42
4.712388980384707
  0
ELLIPSE
  5
1D1
330
1F
100
AcDbEntity
  8
0
  6
Continuous
 62
     7
370
    25
100
AcDbEllipse
 10
752.4794926859
 20
493.8741163353
 30
0.0
 11
-0.2001224449699066
 21
-0.006988429770956373
 31
0.0
210
0.0
220
0.0
230
1.0
 40
0.9987793495
 41
4.712388980385835
 42
6.248321296340881
  0
LINE
  5
1D2
330
1F
100
AcDbEntity
  8
0
  6
Continuous
 62
     7
370
    25
100
AcDbLine
 10
752.4725079848
 20
494.0739941127
 30
0.0
 11
752.4862319543
 21
494.0744737438
 31
0.0
  0
ARC
  5
1D3
330
1F
100
AcDbEntity
  8
0
  6
Continuous
 62
     7
370
    25
100
AcDbCircle
 10
752.4792485549
 20
494.2743516278
 30
0.0
 40
0.2000000000000455
100
AcDbArc
 50
272.0
 51
0.0
  0
LINE
  5
1D4
330
1F
100
AcDbEntity
  8
0
  6
Continuous
 62
     7
370
    25
100
AcDbLine
 10
752.3792416169
 20
494.0707372777
 30
0.0
 11
752.4725079848
 21
494.0739941127
 31
0.0
  0
LINE
  5
1D5
330
1F
100
AcDbEntity
  8
0
  6
Continuous
 62
     7
370
    25
100
AcDbLine
 10
752.4725079848
 20
493.088433174
 30
0.0
 11
752.3792416169
 21
493.091690009
 31
0.0
  0
ELLIPSE
  5
1D6
330
1F
100
AcDbEntity
  8
0
  6
Continuous
 62
     7
370
    25
100
AcDbEllipse
 10
752.4794926859
 20
482.7741163353
 30
0.0
 11
-0.2001224449699066
 21
-0.006988429770899528
 31
0.0
210
0.0
220
0.0
230
1.0
 40
0.9987793495
 41
4.712388980386118
 42
6.248321296341166
  0
LINE
  5
1D7
330
1F
100
AcDbEntity
  8
0
  6
Continuous
 62
     7
370
    25
100
AcDbLine
 10
752.3792416169
 20
482.9707376236
 30
0.0
 11
752.4725079848
 21
482.9739945168
 31
0.0
  0
ELLIPSE
  5
1D8
330
1F
100
AcDbEntity
  8
0
  6
Continuous
 62
     7
370
    25
100
AcDbEllipse
 10
752.4794926859
 20
482.1883114104
 30
0.0
 11
0.2001224449699066
 21
-0.006988429770899528
 31
0.0
210
0.0
220
0.0
230
1.0
 40
0.9987793495
 41
3.176456664428525
 42
4.712388980384423
  0
LINE
  5
1D9
330
1F
100
AcDbEntity
  8
0
  6
Continuous
 62
     7
370
    25
100
AcDbLine
 10
752.4725079848
 20
481.9884332289
 30
0.0
 11
752.3792416169
 21
481.9916901221
 31
0.0
  0
ARC
  5
1DA
330
1F
100
AcDbEntity
  8
0
  6
Continuous
 62
     7
370
    25
100
AcDbCircle
 10
752.4792485549
 20
481.7880761179
 30
0.0
 40
0.2000000000000455
100
AcDbArc
 50
0.0
 51
88.0
  0
LINE
  5
1DB
330
1F
100
AcDbEntity
  8
0
  6
Continuous
 62
     7
370
    25
100
AcDbLine
 10
752.4725079848
 20
482.9739945168
 30
0.0
 11
752.4862319543
 21
482.9744734494
 31
0.0
  0
ARC
  5
1DC
330
1F
100
AcDbEntity
  8
0
  6
Continuous
 62
     7
370
    25
100
AcDbCircle
 10
752.4792485549
 20
483.1743516278
 30
0.0
 40
0.2000000000000455
100
AcDbArc
 50
272.0
 51
0.0
  0
LINE
  5
1DD
330
1F
100
AcDbEntity
  8
0
  6
Continuous
 62
     7
370
    25
100
AcDbLine
 10
752.4725079848
 20
481.9884332289
 30
0.0
 11
752.4862319543
 21
481.9879542962
 31
0.0
  0
LINE
  5
1DE
330
1F
100
AcDbEntity
  8
0
  6
Continuous
 62
     7
370
    25
100
AcDbLine
 10
752.3792416169
 20
471.8707377366
 30
0.0
 11
752.4725079848
 21
471.8739945717
 31
0.0
  0
ELLIPSE
  5
1DF
330
1F
100
AcDbEntity
  8
0
  6
Continuous
 62
     7
370
    25
100
AcDbEllipse
 10
752.4794926859
 20
471.6741163353
 30
0.0
 11
-0.2001224449700203
 21
-0.006988429770956373
 31
0.0
210
0.0
220
0.0
230
1.0
 40
0.9987793495
 41
4.712388980385855
 42
6.248321296340881
  0
ARC
  5
1E0
330
1F
100
AcDbEntity
  8
0
  6
Continuous
 62
     7
370
    25
100
AcDbCircle
 10
752.4792485549
 20
470.6880761179
 30
0.0
 40
0.2000000000000455
100
AcDbArc
 50
0.0
 51
88.0
  0
LINE
  5
1E1
330
1F
100
AcDbEntity
  8
0
  6
Continuous
 62
     7
370
    25
100
AcDbLine
 10
752.4725079848
 20
470.888433633
 30
0.0
 11
752.4862319543
 21
470.8879540018
 31
0.0
  0
ELLIPSE
  5
1E2
330
1F
100
AcDbEntity
  8
0
  6
Continuous
 62
     7
370
    25
100
AcDbEllipse
 10
752.4794926859
 20
471.0883114104
 30
0.0
 11
0.2001224449699066
 21
-0.006988429770899528
 31
0.0
210
0.0
220
0.0
230
1.0
 40
0.9987793495
 41
3.176456664428535
 42
4.712388980384423
  0
LINE
  5
1E3
330
1F
100
AcDbEntity
  8
0
  6
Continuous
 62
     7
370
    25
100
AcDbLine
 10
752.4725079848
 20
471.8739945717
 30
0.0
 11
752.4862319543
 21
471.8744732715
 31
0.0
  0
ARC
  5
1E4
330
1F
100
AcDbEntity
  8
0
  6
Continuous
 62
     7
370
    25
100
AcDbCircle
 10
752.4792485549
 20
472.0743516278
 30
0.0
 40
0.2000000000000455
100
AcDbArc
 50
272.0
 51
0.0
  0
LINE
  5
1E5
330
1F
100
AcDbEntity
  8
0
  6
Continuous
 62
     7
370
    25
100
AcDbLine
 10
752.4725079848
 20
470.888433633
 30
0.0
 11
752.3792416169
 21
470.891690468
 31
0.0
  0
LINE
  5
1E6
330
1F
100
AcDbEntity
  8
0
  6
Continuous
 62
     7
370
    25
100
AcDbLine
 10
752.3792416169
 20
460.7707379661
 30
0.0
 11
752.4725079848
 21
460.7739938698
 31
0.0
  0
ELLIPSE
  5
1E7
330
1F
100
AcDbEntity
  8
0
  6
Continuous
 62
     7
370
    25
100
AcDbEllipse
 10
752.4794926859
 20
460.5741163353
 30
0.0
 11
-0.2001224449700203
 21
-0.006988429770956373
 31
0.0
210
0.0
220
0.0
230
1.0
 40
0.9987793495
 41
4.712388980385855
 42
6.248321296340881
  0
LINE
  5
1E8
330
1F
100
AcDbEntity
  8
0
  6
Continuous
 62
     7
370
    25
100
AcDbLine
 10
752.4725079848
 20
459.7884329311
 30
0.0
 11
752.3792416169
 21
459.7916906975
 31
0.0
  0
ELLIPSE
  5
1E9
330
1F
100
AcDbEntity
  8
0
  6
Continuous
 62
     7
370
    25
100
AcDbEllipse
 10
752.4794926859
 20
459.9883114104
 30
0.0
 11
0.2001224449699066
 21
-0.006988429770956373
 31
0.0
210
0.0
220
0.0
230
1.0
 40
0.9987793495
 41
3.17645666442882
 42
4.712388980384717
  0
ARC
  5
1EA
330
1F
100
AcDbEntity
  8
0
  6
Continuous
 62
     7
370
    25
100
AcDbCircle
 10
752.4792485549
 20
459.5880761179
 30
0.0
 40
0.2000000000000455
100
AcDbArc
 50
0.0
 51
88.0
  0
LINE
  5
1EB
330
1F
100
AcDbEntity
  8
0
  6
Continuous
 62
     7
370
    25
100
AcDbLine
 10
752.4725079848
 20
459.7884329311
 30
0.0
 11
752.4862319543
 21
459.7879542313
 31
0.0
  0
LINE
  5
1EC
330
1F
100
AcDbEntity
  8
0
  6
Continuous
 62
     7
370
    25
100
AcDbLine
 10
752.4725079848
 20
460.7739938698
 30
0.0
 11
752.4862319543
 21
460.7744725696
 31
0.0
  0
ARC
  5
1ED
330
1F
100
AcDbEntity
  8
0
  6
Continuous
 62
     7
370
    25
100
AcDbCircle
 10
752.4792485549
 20
460.9743516278
 30
0.0
 40
0.2000000000000455
100
AcDbArc
 50
272.0
 51
0.0
  0
ARC
  5
1EE
330
1F
100
AcDbEntity
  8
0
  6
Continuous
 62
     7
370
    25
100
AcDbCircle
 10
752.4792485549
 20
448.4880761179
 30
0.0
 40
0.2000000000000455
100
AcDbArc
 50
0.0
 51
88.0
  0
LINE
  5
1EF
330
1F
100
AcDbEntity
  8
0
  6
Continuous
 62
     7
370
    25
100
AcDbLine
 10
752.4725079848
 20
448.6884350232
 30
0.0
 11
752.4862319543
 21
448.6879544608
 31
0.0
  0
ELLIPSE
  5
1F0
330
1F
100
AcDbEntity
  8
0
  6
Continuous
 62
     7
370
    25
100
AcDbEllipse
 10
752.4794926859
 20
448.8883114104
 30
0.0
 11
0.2001224449699066
 21
-0.006988429770899528
 31
0.0
210
0.0
220
0.0
230
1.0
 40
0.9987793495
 41
3.176456664428535
 42
4.712388980384434
  0
ELLIPSE
  5
1F1
330
1F
100
AcDbEntity
  8
0
  6
Continuous
 62
     7
370
    25
100
AcDbEllipse
 10
752.4794926859
 20
449.4741163353
 30
0.0
 11
-0.2001224449700203
 21
-0.006988429770842686
 31
0.0
210
0.0
220
0.0
230
1.0
 40
0.9987793495
 41
4.712388980386411
 42
6.248321296341156
  0
LINE
  5
1F2
330
1F
100
AcDbEntity
  8
0
  6
Continuous
 62
     7
370
    25
100
AcDbLine
 10
752.4725079848
 20
449.6739940993
 30
0.0
 11
752.4862319543
 21
449.6744746618
 31
0.0
  0
ARC
  5
1F3
330
1F
100
AcDbEntity
  8
0
  6
Continuous
 62
     7
370
    25
100
AcDbCircle
 10
752.4792485549
 20
449.8743516278
 30
0.0
 40
0.2000000000000455
100
AcDbArc
 50
272.0
 51
0.0
  0
LINE
  5
1F4
330
1F
100
AcDbEntity
  8
0
  6
Continuous
 62
     7
370
    25
100
AcDbLine
 10
752.3792416169
 20
449.6707381956
 30
0.0
 11
752.4725079848
 21
449.6739940993
 31
0.0
  0
LINE
  5
1F5
330
1F
100
AcDbEntity
  8
0
  6
Continuous
 62
     7
370
    25
100
AcDbLine
 10
752.4725079848
 20
448.6884350232
 30
0.0
 11
752.3792416169
 21
448.691690927
 31
0.0
  0
ELLIPSE
  5
1F6
330
1F
100
AcDbEntity
  8
0
  6
Continuous
 62
     7
370
    25
100
AcDbEllipse
 10
752.4794926859
 20
438.2741163353
 30
0.0
 11
-0.2001224449700204
 21
-0.006988429770899531
 31
0.0
210
0.0
220
0.0
230
1.0
 40
0.9987793495
 41
4.712388980386129
 42
6.248321296340872
  0
LINE
  5
1F7
330
1F
100
AcDbEntity
  8
0
  6
Continuous
 62
     7
370
    25
100
AcDbLine
 10
752.3792416169
 20
438.4707385949
 30
0.0
 11
752.4725079848
 21
438.4739944987
 31
0.0
  0
ARC
  5
1F8
330
1F
100
AcDbEntity
  8
0
  6
Continuous
 62
     7
370
    25
100
AcDbCircle
 10
752.4792485549
 20
437.2880761179
 30
0.0
 40
0.2000000000000455
100
AcDbArc
 50
0.0
 51
88.0
  0
LINE
  5
1F9
330
1F
100
AcDbEntity
  8
0
  6
Continuous
 62
     7
370
    25
100
AcDbLine
 10
752.4725079848
 20
437.4884316973
 30
0.0
 11
752.4862319543
 21
437.4879548601
 31
0.0
  0
ELLIPSE
  5
1FA
330
1F
100
AcDbEntity
  8
0
  6
Continuous
 62
     7
370
    25
100
AcDbEllipse
 10
752.4794926859
 20
437.6883114104
 30
0.0
 11
0.2001224449699066
 21
-0.006988429770899528
 31
0.0
210
0.0
220
0.0
230
1.0
 40
0.9987793495
 41
3.176456664428535
 42
4.712388980383299
  0
ARC
  5
1FB
330
1F
100
AcDbEntity
  8
0
  6
Continuous
 62
     7
370
    25
100
AcDbCircle
 10
752.4792485549
 20
438.6743516278
 30
0.0
 40
0.2000000000000455
100
AcDbArc
 50
272.0
 51
0.0
  0
LINE
  5
1FC
330
1F
100
AcDbEntity
  8
0
  6
Continuous
 62
     7
370
    25
100
AcDbLine
 10
752.4725079848
 20
438.4739944987
 30
0.0
 11
752.4862319543
 21
438.4744750611
 31
0.0
  0
LINE
  5
1FD
330
1F
100
AcDbEntity
  8
0
  6
Continuous
 62
     7
370
    25
100
AcDbLine
 10
752.4725079848
 20
437.4884316973
 30
0.0
 11
752.3792416169
 21
437.4916913263
 31
0.0
  0
LINE
  5
1FE
330
1F
100
AcDbEntity
  8
0
  6
Continuous
 62
     7
370
    25
100
AcDbLine
 10
753.6367506101
 20
429.6941111139
 30
0.0
 11
756.6792548015
 21
428.2812128119
 31
0.0
  0
LINE
  5
1FF
330
1F
100
AcDbEntity
  8
0
  6
Continuous
 62
     7
370
    25
100
AcDbLine
 10
756.6792548015
 20
428.2812128119
 30
0.0
 11
752.6792466952
 21
428.1415293268
 31
0.0
  0
LINE
  5
200
330
1F
100
AcDbEntity
  8
0
  6
Continuous
 62
     7
370
    25
100
AcDbLine
 10
752.6792466952
 20
429.6667004279
 30
0.0
 11
752.6792466952
 21
428.1415293268
 31
0.0
  0
ELLIPSE
  5
201
330
1F
100
AcDbEntity
  8
0
  6
Continuous
 62
     7
370
    25
100
AcDbEllipse
 10
759.3221056978
 20
531.7312138728
 30
0.0
 11
0.0
 21
6.546536707080122
 31
0.0
210
0.0
220
0.0
230
1.0
 40
0.4364357805
 41
1.181035593997441
 42
1.960557059592336
  0
LINE
  5
202
330
1F
100
AcDbEntity
  8
0
  6
Continuous
 62
     7
370
    25
100
AcDbLine
 10
756.6792548015
 20
529.2437436334
 30
0.0
 11
756.6792548015
 21
435.7186841122
 31
0.0
  0
ELLIPSE
  5
203
330
1F
100
AcDbEntity
  8
0
  6
Continuous
 62
     7
370
    25
100
AcDbEllipse
 10
759.3221056978
 20
433.2312138728
 30
0.0
 11
0.0
 21
6.546536707079952
 31
0.0
210
0.0
220
0.0
230
1.0
 40
0.4364357805
 41
1.18103559399747
 42
1.960557059592356
  0
LINE
  5
204
330
1F
100
AcDbEntity
  8
0
  6
Continuous
 62
     7
370
    25
100
AcDbLine
 10
756.6792548015
 20
430.7437451832
 30
0.0
 11
756.6792548015
 21
428.2812128119
 31
0.0
  0
LINE
  5
205
330
1F
100
AcDbEntity
  8
0
  6
Continuous
 62
     7
370
    25
100
AcDbLine
 10
756.6792548015
 20
536.6812149338
 30
0.0
 11
756.6792548015
 21
534.2186825625
 31
0.0
  0
LINE
  5
206
330
1F
100
AcDbEntity
  8
0
  6
Continuous
 62
     7
370
    25
100
AcDbLine
 10
756.5050751283
 20
531.1173634879
 30
0.0
 11
756.6792548015
 21
530.9373835377
 31
0.0
  0
LINE
  5
207
330
1F
100
AcDbEntity
  8
0
  6
Continuous
 62
     7
370
    25
100
AcDbLine
 10
756.6792548015
 20
529.2437436334
 30
0.0
 11
756.6792548015
 21
530.9373835377
 31
0.0
  0
ARC
  5
208
330
1F
100
AcDbEntity
  8
0
  6
Continuous
 62
     7
370
    25
100
AcDbCircle
 10
751.0488396957
 20
526.3880143217
 30
0.0
 40
1.440862304833972
100
AcDbArc
 50
356.0227653136
 51
3.9772346864
  0
LINE
  5
209
330
1F
100
AcDbEntity
  8
0
  6
Continuous
 62
     7
370
    25
100
AcDbLine
 10
752.4862319543
 20
516.4743500106
 30
0.0
 11
752.4862319543
 21
526.2880759589
 31
0.0
  0
LINE
  5
20A
330
1F
100
AcDbEntity
  8
0
  6
Continuous
 62
     7
370
    25
100
AcDbLine
 10
752.4862319543
 20
526.2880759589
 30
0.0
 11
752.6792466952
 21
526.2880759589
 31
0.0
  0
LINE
  5
20B
330
1F
100
AcDbEntity
  8
0
  6
Continuous
 62
     7
370
    25
100
AcDbLine
 10
752.6792466952
 20
516.4743500106
 30
0.0
 11
752.4862319543
 21
516.4743500106
 31
0.0
  0
ARC
  5
20C
330
1F
100
AcDbEntity
  8
0
  6
Continuous
 62
     7
370
    25
100
AcDbCircle
 10
751.0488533931
 20
516.3744116477
 30
0.0
 40
1.440848640433079
100
AcDbArc
 50
356.0227275345
 51
3.9772724655
  0
ARC
  5
20D
330
1F
100
AcDbEntity
  8
0
  6
Continuous
 62
     7
370
    25
100
AcDbCircle
 10
751.0488396957
 20
515.1880147211
 30
0.0
 40
1.440862304833972
100
AcDbArc
 50
356.0227653136
 51
3.9772346864
  0
LINE
  5
20E
330
1F
100
AcDbEntity
  8
0
  6
Continuous
 62
     7
370
    25
100
AcDbLine
 10
752.4862319543
 20
515.0880763582
 30
0.0
 11
752.6792466952
 21
515.0880763582
 31
0.0
  0
LINE
  5
20F
330
1F
100
AcDbEntity
  8
0
  6
Continuous
 62
     7
370
    25
100
AcDbLine
 10
752.4862319543
 20
505.3743521027
 30
0.0
 11
752.4862319543
 21
515.0880763582
 31
0.0
  0
LINE
  5
210
330
1F
100
AcDbEntity
  8
0
  6
Continuous
 62
     7
370
    25
100
AcDbLine
 10
752.6792466952
 20
505.3743521027
 30
0.0
 11
752.4862319543
 21
505.3743521027
 31
0.0
  0
ARC
  5
211
330
1F
100
AcDbEntity
  8
0
  6
Continuous
 62
     7
370
    25
100
AcDbCircle
 10
751.0488268532
 20
505.2744128085
 30
0.0
 40
1.440875180983298
100
AcDbArc
 50
356.0227637897
 51
3.9772362103
  0
ARC
  5
212
330
1F
100
AcDbEntity
  8
0
  6
Continuous
 62
     7
370
    25
100
AcDbCircle
 10
751.0488179349
 20
504.0880158819
 30
0.0
 40
1.440884077843765
100
AcDbArc
 50
356.022788387
 51
3.977211613
  0
LINE
  5
213
330
1F
100
AcDbEntity
  8
0
  6
Continuous
 62
     7
370
    25
100
AcDbLine
 10
752.4862319543
 20
503.9880765877
 30
0.0
 11
752.6792466952
 21
503.9880765877
 31
0.0
  0
LINE
  5
214
330
1F
100
AcDbEntity
  8
0
  6
Continuous
 62
     7
370
    25
100
AcDbLine
 10
752.4862319543
 20
494.2743514008
 30
0.0
 11
752.4862319543
 21
503.9880765877
 31
0.0
  0
LINE
  5
215
330
1F
100
AcDbEntity
  8
0
  6
Continuous
 62
     7
370
    25
100
AcDbLine
 10
752.6792466952
 20
494.2743514008
 30
0.0
 11
752.4862319543
 21
494.2743514008
 31
0.0
  0
ARC
  5
216
330
1F
100
AcDbEntity
  8
0
  6
Continuous
 62
     7
370
    25
100
AcDbCircle
 10
751.0488490318
 20
494.1744125723
 30
0.0
 40
1.440853023541806
100
AcDbArc
 50
356.0227210911
 51
3.9772789089
  0
LINE
  5
217
330
1F
100
AcDbEntity
  8
0
  6
Continuous
 62
     7
370
    25
100
AcDbLine
 10
752.4862319543
 20
483.1743516303
 30
0.0
 11
752.4862319543
 21
492.8880758859
 31
0.0
  0
LINE
  5
218
330
1F
100
AcDbEntity
  8
0
  6
Continuous
 62
     7
370
    25
100
AcDbLine
 10
752.4862319543
 20
492.8880758859
 30
0.0
 11
752.6792466952
 21
492.8880758859
 31
0.0
  0
LINE
  5
219
330
1F
100
AcDbEntity
  8
0
  6
Continuous
 62
     7
370
    25
100
AcDbLine
 10
752.4862319543
 20
483.1743516303
 30
0.0
 11
752.6792466952
 21
483.1743516303
 31
0.0
  0
ARC
  5
21A
330
1F
100
AcDbEntity
  8
0
  6
Continuous
 62
     7
370
    25
100
AcDbCircle
 10
751.0488189696
 20
492.98801518
 30
0.0
 40
1.440883045631701
100
AcDbArc
 50
356.0227855332
 51
3.9772144668
  0
ARC
  5
21B
330
1F
100
AcDbEntity
  8
0
  6
Continuous
 62
     7
370
    25
100
AcDbCircle
 10
751.0488317155
 20
483.0744125399
 30
0.0
 40
1.440870316224295
100
AcDbArc
 50
356.0227584606
 51
3.9772415394
  0
ARC
  5
21C
330
1F
100
AcDbEntity
  8
0
  6
Continuous
 62
     7
370
    25
100
AcDbCircle
 10
751.0488317155
 20
481.8880152058
 30
0.0
 40
1.440870316224295
100
AcDbArc
 50
356.0227584606
 51
3.9772415394
  0
LINE
  5
21D
330
1F
100
AcDbEntity
  8
0
  6
Continuous
 62
     7
370
    25
100
AcDbLine
 10
752.4862319543
 20
481.7880761154
 30
0.0
 11
752.6792466952
 21
481.7880761154
 31
0.0
  0
LINE
  5
21E
330
1F
100
AcDbEntity
  8
0
  6
Continuous
 62
     7
370
    25
100
AcDbLine
 10
752.4862319543
 20
472.0743518598
 30
0.0
 11
752.4862319543
 21
481.7880761154
 31
0.0
  0
LINE
  5
21F
330
1F
100
AcDbEntity
  8
0
  6
Continuous
 62
     7
370
    25
100
AcDbLine
 10
752.4862319543
 20
472.0743518598
 30
0.0
 11
752.6792466952
 21
472.0743518598
 31
0.0
  0
ARC
  5
220
330
1F
100
AcDbEntity
  8
0
  6
Continuous
 62
     7
370
    25
100
AcDbCircle
 10
751.0488189696
 20
471.9744125656
 30
0.0
 40
1.440883045631701
100
AcDbArc
 50
356.0227855332
 51
3.9772144668
  0
LINE
  5
221
330
1F
100
AcDbEntity
  8
0
  6
Continuous
 62
     7
370
    25
100
AcDbLine
 10
752.4862319543
 20
460.9743511579
 30
0.0
 11
752.4862319543
 21
470.6880763448
 31
0.0
  0
LINE
  5
222
330
1F
100
AcDbEntity
  8
0
  6
Continuous
 62
     7
370
    25
100
AcDbLine
 10
752.4862319543
 20
470.6880763448
 30
0.0
 11
752.6792466952
 21
470.6880763448
 31
0.0
  0
LINE
  5
223
330
1F
100
AcDbEntity
  8
0
  6
Continuous
 62
     7
370
    25
100
AcDbLine
 10
752.4862319543
 20
460.9743511579
 30
0.0
 11
752.6792466952
 21
460.9743511579
 31
0.0
  0
ARC
  5
224
330
1F
100
AcDbEntity
  8
0
  6
Continuous
 62
     7
370
    25
100
AcDbCircle
 10
751.0488490318
 20
470.7880151733
 30
0.0
 40
1.440853023541806
100
AcDbArc
 50
356.0227210911
 51
3.9772789089
  0
ARC
  5
225
330
1F
100
AcDbEntity
  8
0
  6
Continuous
 62
     7
370
    25
100
AcDbCircle
 10
751.0488179349
 20
460.8744118638
 30
0.0
 40
1.440884077843765
100
AcDbArc
 50
356.022788387
 51
3.977211613
  0
ARC
  5
226
330
1F
100
AcDbEntity
  8
0
  6
Continuous
 62
     7
370
    25
100
AcDbCircle
 10
751.0488268532
 20
459.6880149371
 30
0.0
 40
1.440875180983298
100
AcDbArc
 50
356.0227637897
 51
3.9772362103
  0
LINE
  5
227
330
1F
100
AcDbEntity
  8
0
  6
Continuous
 62
     7
370
    25
100
AcDbLine
 10
752.4862319543
 20
459.588075643
 30
0.0
 11
752.6792466952
 21
459.588075643
 31
0.0
  0
LINE
  5
228
330
1F
100
AcDbEntity
  8
0
  6
Continuous
 62
     7
370
    25
100
AcDbLine
 10
752.4862319543
 20
449.8743513874
 30
0.0
 11
752.4862319543
 21
459.588075643
 31
0.0
  0
LINE
  5
229
330
1F
100
AcDbEntity
  8
0
  6
Continuous
 62
     7
370
    25
100
AcDbLine
 10
752.6792466952
 20
449.8743513874
 30
0.0
 11
752.4862319543
 21
449.8743513874
 31
0.0
  0
ARC
  5
22A
330
1F
100
AcDbEntity
  8
0
  6
Continuous
 62
     7
370
    25
100
AcDbCircle
 10
751.0488396957
 20
449.7744130246
 30
0.0
 40
1.440862304834199
100
AcDbArc
 50
356.0227653136
 51
3.9772346864
  0
LINE
  5
22B
330
1F
100
AcDbEntity
  8
0
  6
Continuous
 62
     7
370
    25
100
AcDbLine
 10
752.4862319543
 20
438.6743517868
 30
0.0
 11
752.4862319543
 21
448.4880777351
 31
0.0
  0
LINE
  5
22C
330
1F
100
AcDbEntity
  8
0
  6
Continuous
 62
     7
370
    25
100
AcDbLine
 10
752.4862319543
 20
448.4880777351
 30
0.0
 11
752.6792466952
 21
448.4880777351
 31
0.0
  0
LINE
  5
22D
330
1F
100
AcDbEntity
  8
0
  6
Continuous
 62
     7
370
    25
100
AcDbLine
 10
752.6792466952
 20
438.6743517868
 30
0.0
 11
752.4862319543
 21
438.6743517868
 31
0.0
  0
ARC
  5
22E
330
1F
100
AcDbEntity
  8
0
  6
Continuous
 62
     7
370
    25
100
AcDbCircle
 10
751.0488533931
 20
448.5880160979
 30
0.0
 40
1.440848640433079
100
AcDbArc
 50
356.0227275345
 51
3.9772724655
  0
ARC
  5
22F
330
1F
100
AcDbEntity
  8
0
  6
Continuous
 62
     7
370
    25
100
AcDbCircle
 10
751.0488396957
 20
438.5744134239
 30
0.0
 40
1.440862304834199
100
AcDbArc
 50
356.0227653136
 51
3.9772346864
  0
LINE
  5
230
330
1F
100
AcDbEntity
  8
0
  6
Continuous
 62
     7
370
    25
100
AcDbLine
 10
756.6792548015
 20
532.4812146179
 30
0.0
 11
756.6792548015
 21
530.9247883312
 31
0.0
  0
LINE
  5
231
330
1F
100
AcDbEntity
  8
0
  6
Continuous
 62
     7
370
    25
100
AcDbLine
 10
756.6792548015
 20
534.2186825625
 30
0.0
 11
756.6792548015
 21
532.4812146179
 31
0.0
  0
LINE
  5
232
330
1F
100
AcDbEntity
  8
0
  6
Continuous
 62
     7
370
    25
100
AcDbLine
 10
752.6792466952
 20
534.1812135927
 30
0.0
 11
441.2792504146
 21
534.1812135927
 31
0.0
  0
LINE
  5
233
330
1F
100
AcDbEntity
  8
0
  6
Continuous
 62
     7
370
    25
100
AcDbLine
 10
752.6792466952
 20
535.1812156192
 30
0.0
 11
441.2792504146
 21
535.1812156192
 31
0.0
  0
LINE
  5
234
330
1F
100
AcDbEntity
  8
0
  6
Continuous
 62
     7
370
    25
100
AcDbLine
 10
752.6792466952
 20
536.6812149338
 30
0.0
 11
441.2792504146
 21
536.6812149338
 31
0.0
  0
LINE
  5
235
330
1F
100
AcDbEntity
  8
0
  6
Continuous
 62
     7
370
    25
100
AcDbLine
 10
752.6792466952
 20
430.781214153
 30
0.0
 11
441.2792504146
 21
430.781214153
 31
0.0
  0
LINE
  5
236
330
1F
100
AcDbEntity
  8
0
  6
Continuous
 62
     7
370
    25
100
AcDbLine
 10
752.6792466952
 20
429.7812121264
 30
0.0
 11
441.2792504146
 21
429.7812121264
 31
0.0
  0
LINE
  5
237
330
1F
100
AcDbEntity
  8
0
  6
Continuous
 62
     7
370
    25
100
AcDbLine
 10
752.6792466952
 20
428.2812128119
 30
0.0
 11
441.2792504146
 21
428.2812128119
 31
0.0
  0
LINE
  5
238
330
1F
100
AcDbEntity
  8
0
  6
Continuous
 62
     7
370
    25
100
AcDbLine
 10
752.3792416169
 20
530.1989006154
 30
0.0
 11
752.6792466952
 21
530.1989006154
 31
0.0
  0
LINE
  5
239
330
1F
100
AcDbEntity
  8
0
  6
Continuous
 62
     7
370
    25
100
AcDbLine
 10
752.6792466952
 20
527.981212949
 30
0.0
 11
752.3792416169
 21
527.981212949
 31
0.0
  0
LINE
  5
23A
330
1F
100
AcDbEntity
  8
0
  6
Continuous
 62
     7
370
    25
100
AcDbLine
 10
441.5792554929
 20
527.981212949
 30
0.0
 11
441.2792504146
 21
527.981212949
 31
0.0
  0
LINE
  5
23B
330
1F
100
AcDbEntity
  8
0
  6
Continuous
 62
     7
370
    25
100
AcDbLine
 10
441.2792504146
 20
436.9812147967
 30
0.0
 11
441.5792554929
 21
436.9812147967
 31
0.0
  0
LINE
  5
23C
330
1F
100
AcDbEntity
  8
0
  6
Continuous
 62
     7
370
    25
100
AcDbLine
 10
752.3792416169
 20
436.9812147967
 30
0.0
 11
752.6792466952
 21
436.9812147967
 31
0.0
  0
LINE
  5
23D
330
1F
100
AcDbEntity
  8
0
  6
Continuous
 62
     7
370
    25
100
AcDbLine
 10
587.4591350867
 20
518.6176957838
 30
0.0
 11
587.4591350867
 21
517.5527135185
 31
0.0
  0
LINE
  5
23E
330
1F
100
AcDbEntity
  8
0
  6
Continuous
 62
     7
370
    25
100
AcDbLine
 10
587.4591350867
 20
517.5527135185
 30
0.0
 11
596.2394818044
 21
517.5527135185
 31
0.0
  0
LINE
  5
23F
330
1F
100
AcDbEntity
  8
0
  6
Continuous
 62
     7
370
    25
100
AcDbLine
 10
596.2394818044
 20
517.5527135185
 30
0.0
 11
596.2394818044
 21
518.6176957838
 31
0.0
  0
LINE
  5
240
330
1F
100
AcDbEntity
  8
0
  6
Continuous
 62
     7
370
    25
100
AcDbLine
 10
596.2394818044
 20
518.6176957838
 30
0.0
 11
587.4591350867
 21
518.6176957838
 31
0.0
  0
LINE
  5
241
330
1F
100
AcDbEntity
  8
0
  6
Continuous
 62
     7
370
    25
100
AcDbLine
 10
610.0909982189
 20
526.7152698986
 30
0.0
 11
609.6259692996
 21
526.7152698986
 31
0.0
  0
LINE
  5
242
330
1F
100
AcDbEntity
  8
0
  6
Continuous
 62
     7
370
    25
100
AcDbLine
 10
609.6259692996
 20
526.7152698986
 30
0.0
 11
609.6259692996
 21
525.2804147355
 31
0.0
  0
LINE
  5
243
330
1F
100
AcDbEntity
  8
0
  6
Continuous
 62
     7
370
    25
100
AcDbLine
 10
609.6259692996
 20
525.2804147355
 30
0.0
 11
611.0520970388
 21
525.2804147355
 31
0.0
  0
LINE
  5
244
330
1F
100
AcDbEntity
  8
0
  6
Continuous
 62
     7
370
    25
100
AcDbLine
 10
611.0520970388
 20
525.2804147355
 30
0.0
 11
611.0520970388
 21
525.7542679362
 31
0.0
  0
LINE
  5
245
330
1F
100
AcDbEntity
  8
0
  6
Continuous
 62
     7
370
    25
100
AcDbLine
 10
611.0520970388
 20
525.7542679362
 30
0.0
 11
610.0909982189
 21
525.7542679362
 31
0.0
  0
LINE
  5
246
330
1F
100
AcDbEntity
  8
0
  6
Continuous
 62
     7
370
    25
100
AcDbLine
 10
610.0909982189
 20
525.7542679362
 30
0.0
 11
610.0909982189
 21
526.7152698986
 31
0.0
  0
LINE
  5
247
330
1F
100
AcDbEntity
  8
0
  6
Continuous
 62
     7
370
    25
100
AcDbLine
 10
596.4477420049
 20
524.2524395041
 30
0.0
 11
596.4477420049
 21
522.289252495
 31
0.0
  0
SPLINE
  5
248
330
1F
100
AcDbEntity
  8
0
  6
Continuous
 62
     7
370
    25
100
AcDbSpline
210
0.0
220
0.0
230
1.0
 70
     8
 71
     3
 72
     9
 73
     5
 74
     0
 42
0.000000001
 43
0.00000001
 40
0.0
 40
0.0
 40
0.0
 40
0.0
 40
0.5476207283503186
 40
0.9999999999999999
 40
0.9999999999999999
 40
0.9999999999999999
 40
0.9999999999999999
 10
596.4477420048813
 20
522.289252494974
 30
0.0
 10
596.367503801393
 20
522.4681908182952
 30
0.0
 10
596.2209823142862
 20
522.794946753667
 30
0.0
 10
595.9826748425992
 20
523.061527169003
 30
0.0
 10
595.8748694821286
 20
523.1821226231287
 30
0.0
  0
SPLINE
  5
249
330
1F
100
AcDbEntity
  8
0
  6
Continuous
 62
     7
370
    25
100
AcDbSpline
210
0.0
220
0.0
230
1.0
 70
     8
 71
     3
 72
     9
 73
     5
 74
     0
 42
0.000000001
 43
0.00000001
 40
0.0
 40
0.0
 40
0.0
 40
0.0
 40
0.5612678186392637
 40
1.0
 40
1.0
 40
1.0
 40
1.0
 10
595.8748694821286
 20
523.1821226231287
 30
0.0
 10
595.5898295602058
 20
523.4254982505142
 30
0.0
 10
595.0819794529007
 20
523.8591158913321
 30
0.0
 10
594.4216737236417
 20
523.9153940493743
 30
0.0
 10
594.1319763506788
 20
523.940085088415
 30
0.0
  0
SPLINE
  5
24A
330
1F
100
AcDbEntity
  8
0
  6
Continuous
 62
     7
370
    25
100
AcDbSpline
210
0.0
220
0.0
230
1.0
 70
     8
 71
     3
 72
     9
 73
     5
 74
     0
 42
0.000000001
 43
0.00000001
 40
0.0
 40
0.0
 40
0.0
 40
0.0
 40
0.5595571420637881
 40
1.0
 40
1.0
 40
1.0
 40
1.0
 10
594.1319763506788
 20
523.940085088415
 30
0.0
 10
593.7461476679157
 20
523.8997875471102
 30
0.0
 10
593.0566225885999
 20
523.8277706997222
 30
0.0
 10
592.5391591487399
 20
523.3740073350522
 30
0.0
 10
592.3112460724103
 20
523.17415050189
 30
0.0
  0
SPLINE
  5
24B
330
1F
100
AcDbEntity
  8
0
  6
Continuous
 62
     7
370
    25
100
AcDbSpline
210
0.0
220
0.0
230
1.0
 70
     8
 71
     3
 72
     9
 73
     5
 74
     0
 42
0.000000001
 43
0.00000001
 40
0.0
 40
0.0
 40
0.0
 40
0.0
 40
0.5672201814863186
 40
1.0
 40
1.0
 40
1.0
 40
1.0
 10
592.3112460724103
 20
523.17415050189
 30
0.0
 10
592.1686173800407
 20
523.0102017749955
 30
0.0
 10
591.9171653037131
 20
522.7211628228462
 30
0.0
 10
591.7745701282155
 20
522.3665999294241
 30
0.0
 10
591.7128578140425
 20
522.213152264757
 30
0.0
  0
SPLINE
  5
24C
330
1F
100
AcDbEntity
  8
0
  6
Continuous
 62
     7
370
    25
100
AcDbSpline
210
0.0
220
0.0
230
1.0
 70
     8
 71
     3
 72
     9
 73
     5
 74
     0
 42
0.000000001
 43
0.00000001
 40
0.0
 40
0.0
 40
0.0
 40
0.0
 40
0.5940867834545874
 40
1.0
 40
1.0
 40
1.0
 40
1.0
 10
591.7128578140425
 20
522.213152264757
 30
0.0
 10
591.7078648320721
 20
522.2673487074279
 30
0.0
 10
591.6994603664125
 20
522.3585751817077
 30
0.0
 10
591.6832307043845
 20
522.4487172257559
 30
0.0
 10
591.6766428700673
 20
522.4853070728014
 30
0.0
  0
SPLINE
  5
24D
330
1F
100
AcDbEntity
  8
0
  6
Continuous
 62
     7
370
    25
100
AcDbSpline
210
0.0
220
0.0
230
1.0
 70
     8
 71
     3
 72
     9
 73
     5
 74
     0
 42
0.000000001
 43
0.00000001
 40
0.0
 40
0.0
 40
0.0
 40
0.0
 40
0.5681165763461573
 40
0.9999999999999999
 40
0.9999999999999999
 40
0.9999999999999999
 40
0.9999999999999999
 10
591.6766428700673
 20
522.4853070728014
 30
0.0
 10
591.628477221021
 20
522.6531192776866
 30
0.0
 10
591.5436959436355
 20
522.9485026758693
 30
0.0
 10
591.3568446607385
 20
523.1912513156109
 30
0.0
 10
591.2761466889667
 20
523.2960904292296
 30
0.0
  0
SPLINE
  5
24E
330
1F
100
AcDbEntity
  8
0
  6
Continuous
 62
     7
370
    25
100
AcDbSpline
210
0.0
220
0.0
230
1.0
 70
     8
 71
     3
 72
    10
 73
     6
 74
     0
 42
0.000000001
 43
0.00000001
 40
0.0
 40
0.0
 40
0.0
 40
0.0
 40
0.2867407856331777
 40
0.5597321085861933
 40
1.0
 40
1.0
 40
1.0
 40
1.0
 10
591.2761466889667
 20
523.2960904292296
 30
0.0
 10
591.1677258546142
 20
523.4051402420552
 30
0.0
 10
590.9560830564233
 20
523.6180108371433
 30
0.0
 10
590.4774669888706
 20
523.8816720264061
 30
0.0
 10
590.0930907977319
 20
523.9177905142236
 30
0.0
 10
589.8558299369204
 20
523.940085088415
 30
0.0
  0
SPLINE
  5
24F
330
1F
100
AcDbEntity
  8
0
  6
Continuous
 62
     7
370
    25
100
AcDbSpline
210
0.0
220
0.0
230
1.0
 70
     8
 71
     3
 72
     9
 73
     5
 74
     0
 42
0.000000001
 43
0.00000001
 40
0.0
 40
0.0
 40
0.0
 40
0.0
 40
0.5574052743771748
 40
1.0
 40
1.0
 40
1.0
 40
1.0
 10
589.8558299369204
 20
523.940085088415
 30
0.0
 10
589.7260173903851
 20
523.9332671033753
 30
0.0
 10
589.493130203086
 20
523.9210354555003
 30
0.0
 10
589.2734918733931
 20
523.8437290644082
 30
0.0
 10
589.1762811071264
 20
523.8095136634539
 30
0.0
  0
SPLINE
  5
250
330
1F
100
AcDbEntity
  8
0
  6
Continuous
 62
     7
370
    25
100
AcDbSpline
210
0.0
220
0.0
230
1.0
 70
     8
 71
     3
 72
     9
 73
     5
 74
     0
 42
0.000000001
 43
0.00000001
 40
0.0
 40
0.0
 40
0.0
 40
0.0
 40
0.5917281108281665
 40
1.0
 40
1.0
 40
1.0
 40
1.0
 10
589.1762811071264
 20
523.8095136634539
 30
0.0
 10
589.0492274285853
 20
523.7551204778301
 30
0.0
 10
588.8345111151023
 20
523.6631978792099
 30
0.0
 10
588.6808462606161
 20
523.4891306433922
 30
0.0
 10
588.6181092201757
 20
523.4180638841818
 30
0.0
  0
LINE
  5
251
330
1F
100
AcDbEntity
  8
0
  6
Continuous
 62
     7
370
    25
100
AcDbLine
 10
588.6181092202
 20
523.4180638842
 30
0.0
 11
588.6181092202
 21
525.3953958205
 31
0.0
  0
LINE
  5
252
330
1F
100
AcDbEntity
  8
0
  6
Continuous
 62
     7
370
    25
100
AcDbLine
 10
588.6181092202
 20
525.3953958205
 30
0.0
 11
587.4591350867
 21
525.3953958205
 31
0.0
  0
LINE
  5
253
330
1F
100
AcDbEntity
  8
0
  6
Continuous
 62
     7
370
    25
100
AcDbLine
 10
587.4591350867
 20
525.3953958205
 30
0.0
 11
587.4591350867
 21
518.802142357
 31
0.0
  0
LINE
  5
254
330
1F
100
AcDbEntity
  8
0
  6
Continuous
 62
     7
370
    25
100
AcDbLine
 10
587.4591350867
 20
518.802142357
 30
0.0
 11
588.6181092202
 21
518.802142357
 31
0.0
  0
LINE
  5
255
330
1F
100
AcDbEntity
  8
0
  6
Continuous
 62
     7
370
    25
100
AcDbLine
 10
588.6181092202
 20
518.802142357
 30
0.0
 11
588.6181092202
 21
521.3003369323
 31
0.0
  0
SPLINE
  5
256
330
1F
100
AcDbEntity
  8
0
  6
Continuous
 62
     7
370
    25
100
AcDbSpline
210
0.0
220
0.0
230
1.0
 70
     8
 71
     3
 72
    10
 73
     6
 74
     0
 42
0.000000001
 43
0.00000001
 40
0.0
 40
0.0
 40
0.0
 40
0.0
 40
0.6629784023180776
 40
0.8498302022485121
 40
0.9999999999999999
 40
0.9999999999999999
 40
0.9999999999999999
 40
0.9999999999999999
 10
588.6181092201757
 20
521.3003369323443
 30
0.0
 10
588.6239390835549
 20
521.5472374193408
 30
0.0
 10
588.6314120177519
 20
521.8637235824884
 30
0.0
 10
588.7175255766479
 20
522.2281214201029
 30
0.0
 10
588.775351711319
 20
522.339595041782
 30
0.0
 10
588.801117831378
 20
522.3892653636168
 30
0.0
  0
SPLINE
  5
257
330
1F
100
AcDbEntity
  8
0
  6
Continuous
 62
     7
370
    25
100
AcDbSpline
210
0.0
220
0.0
230
1.0
 70
     8
 71
     3
 72
    10
 73
     6
 74
     0
 42
0.000000001
 43
0.00000001
 40
0.0
 40
0.0
 40
0.0
 40
0.0
 40
0.2830794603416066
 40
0.5514302990154285
 40
1.0
 40
1.0
 40
1.0
 40
1.0
 10
588.801117831378
 20
522.3892653636168
 30
0.0
 10
588.8542404683205
 20
522.4601213765905
 30
0.0
 10
588.9577217719034
 20
522.598146764847
 30
0.0
 10
589.2270676955555
 20
522.7724227216578
 30
0.0
 10
589.4529647476708
 20
522.7938804120564
 30
0.0
 10
589.5943061760652
 20
522.8073062650393
 30
0.0
  0
SPLINE
  5
258
330
1F
100
AcDbEntity
  8
0
  6
Continuous
 62
     7
370
    25
100
AcDbSpline
210
0.0
220
0.0
230
1.0
 70
     8
 71
     3
 72
    11
 73
     7
 74
     0
 42
0.000000001
 43
0.00000001
 40
0.0
 40
0.0
 40
0.0
 40
0.0
 40
0.3089119763290583
 40
0.5793208281267269
 40
0.7843314101036982
 40
1.0
 40
1.0
 40
1.0
 40
1.0
 10
589.5943061760652
 20
522.8073062650393
 30
0.0
 10
589.6993640740477
 20
522.8016214164422
 30
0.0
 10
589.896385339405
 20
522.790960284957
 30
0.0
 10
590.1452677412602
 20
522.6829404696933
 30
0.0
 10
590.3243603254509
 20
522.5263459162608
 30
0.0
 10
590.3945529180866
 20
522.4014627041407
 30
0.0
 10
590.430538387506
 20
522.3374391249846
 30
0.0
  0
SPLINE
  5
259
330
1F
100
AcDbEntity
  8
0
  6
Continuous
 62
     7
370
    25
100
AcDbSpline
210
0.0
220
0.0
230
1.0
 70
     8
 71
     3
 72
     9
 73
     5
 74
     0
 42
0.000000001
 43
0.00000001
 40
0.0
 40
0.0
 40
0.0
 40
0.0
 40
0.4805288373804092
 40
1.0
 40
1.0
 40
1.0
 40
1.0
 10
590.430538387506
 20
522.3374391249846
 30
0.0
 10
590.4776044523121
 20
522.1775645496803
 30
0.0
 10
590.5755508420912
 20
521.8448590742379
 30
0.0
 10
590.5768757188065
 20
521.4978597797918
 30
0.0
 10
590.5775639540541
 20
521.3176036528777
 30
0.0
  0
LINE
  5
25A
330
1F
100
AcDbEntity
  8
0
  6
Continuous
 62
     7
370
    25
100
AcDbLine
 10
590.5775639541
 20
521.3176036529
 30
0.0
 11
590.5775639541
 21
518.802142357
 31
0.0
  0
LINE
  5
25B
330
1F
100
AcDbEntity
  8
0
  6
Continuous
 62
     7
370
    25
100
AcDbLine
 10
590.5775639541
 20
518.802142357
 30
0.0
 11
591.7376957214
 21
518.802142357
 31
0.0
  0
LINE
  5
25C
330
1F
100
AcDbEntity
  8
0
  6
Continuous
 62
     7
370
    25
100
AcDbLine
 10
591.7376957214
 20
518.802142357
 30
0.0
 11
591.7376957214
 21
520.410774862
 31
0.0
  0
SPLINE
  5
25D
330
1F
100
AcDbEntity
  8
0
  6
Continuous
 62
     7
370
    25
100
AcDbSpline
210
0.0
220
0.0
230
1.0
 70
     8
 71
     3
 72
     9
 73
     5
 74
     0
 42
0.000000001
 43
0.00000001
 40
0.0
 40
0.0
 40
0.0
 40
0.0
 40
0.5496453553866036
 40
1.0
 40
1.0
 40
1.0
 40
1.0
 10
591.7376957214462
 20
520.4107748619746
 30
0.0
 10
591.8184860765692
 20
520.2349479452745
 30
0.0
 10
591.9654724093587
 20
519.9150563734146
 30
0.0
 10
592.2038786945634
 20
519.6568012765555
 30
0.0
 10
592.3112460724103
 20
519.5404948941897
 30
0.0
  0
SPLINE
  5
25E
330
1F
100
AcDbEntity
  8
0
  6
Continuous
 62
     7
370
    25
100
AcDbSpline
210
0.0
220
0.0
230
1.0
 70
     8
 71
     3
 72
     9
 73
     5
 74
     0
 42
0.000000001
 43
0.00000001
 40
0.0
 40
0.0
 40
0.0
 40
0.0
 40
0.5572824259143775
 40
1.0
 40
1.0
 40
1.0
 40
1.0
 10
592.3112460724103
 20
519.5404948941897
 30
0.0
 10
592.6079627168847
 20
519.3026722602302
 30
0.0
 10
593.1403976738769
 20
518.8759180277253
 30
0.0
 10
593.816177518665
 20
518.822924873841
 30
0.0
 10
594.1153571321654
 20
518.79946387331
 30
0.0
  0
SPLINE
  5
25F
330
1F
100
AcDbEntity
  8
0
  6
Continuous
 62
     7
370
    25
100
AcDbSpline
210
0.0
220
0.0
230
1.0
 70
     8
 71
     3
 72
     9
 73
     5
 74
     0
 42
0.000000001
 43
0.00000001
 40
0.0
 40
0.0
 40
0.0
 40
0.0
 40
0.5522050707966117
 40
1.0
 40
1.0
 40
1.0
 40
1.0
 10
594.1153571321654
 20
518.79946387331
 30
0.0
 10
594.3952798722478
 20
518.8243628920137
 30
0.0
 10
594.9021979628019
 20
518.8694530587297
 30
0.0
 10
595.338543843915
 20
519.1279919441523
 30
0.0
 10
595.533937316856
 20
519.2437643460463
 30
0.0
  0
SPLINE
  5
260
330
1F
100
AcDbEntity
  8
0
  6
Continuous
 62
     7
370
    25
100
AcDbSpline
210
0.0
220
0.0
230
1.0
 70
     8
 71
     3
 72
     9
 73
     5
 74
     0
 42
0.000000001
 43
0.00000001
 40
0.0
 40
0.0
 40
0.0
 40
0.0
 40
0.5793675049360669
 40
0.9999999999999999
 40
0.9999999999999999
 40
0.9999999999999999
 40
0.9999999999999999
 10
595.533937316856
 20
519.2437643460463
 30
0.0
 10
595.7593986837338
 20
519.4175490283909
 30
0.0
 10
596.1485495507688
 20
519.7175048955459
 30
0.0
 10
596.3479916672234
 20
520.1631586839808
 30
0.0
 10
596.4318835022884
 20
520.3506151489447
 30
0.0
  0
LINE
  5
261
330
1F
100
AcDbEntity
  8
0
  6
Continuous
 62
     7
370
    25
100
AcDbLine
 10
596.4318835023
 20
520.3506151489
 30
0.0
 11
595.1504733958
 21
520.3506151489
 31
0.0
  0
SPLINE
  5
262
330
1F
100
AcDbEntity
  8
0
  6
Continuous
 62
     7
370
    25
100
AcDbSpline
210
0.0
220
0.0
230
1.0
 70
     8
 71
     3
 72
    10
 73
     6
 74
     0
 42
0.000000001
 43
0.00000001
 40
0.0
 40
0.0
 40
0.0
 40
0.0
 40
0.2598938369848243
 40
0.5269056097581101
 40
1.0
 40
1.0
 40
1.0
 40
1.0
 10
595.1504733958307
 20
520.3506151489447
 30
0.0
 10
595.0756023257092
 20
520.2788966370714
 30
0.0
 10
594.9238096271466
 20
520.1334953968266
 30
0.0
 10
594.5549347162782
 20
519.9651927387185
 30
0.0
 10
594.2594547648479
 20
519.94531446525
 30
0.0
 10
594.0705765816408
 20
519.9326077751349
 30
0.0
  0
SPLINE
  5
263
330
1F
100
AcDbEntity
  8
0
  6
Continuous
 62
     7
370
    25
100
AcDbSpline
210
0.0
220
0.0
230
1.0
 70
     8
 71
     3
 72
     9
 73
     5
 74
     0
 42
0.000000001
 43
0.00000001
 40
0.0
 40
0.0
 40
0.0
 40
0.0
 40
0.5576519925024863
 40
1.0
 40
1.0
 40
1.0
 40
1.0
 10
594.0705765816408
 20
519.9326077751349
 30
0.0
 10
593.9118487047015
 20
519.9459503486082
 30
0.0
 10
593.6272126250794
 20
519.9698766927308
 30
0.0
 10
593.3852021928278
 20
520.1193603901695
 30
0.0
 10
593.2781493603277
 20
520.1854842058848
 30
0.0
  0
SPLINE
  5
264
330
1F
100
AcDbEntity
  8
0
  6
Continuous
 62
     7
370
    25
100
AcDbSpline
210
0.0
220
0.0
230
1.0
 70
     8
 71
     3
 72
     9
 73
     5
 74
     0
 42
0.000000001
 43
0.00000001
 40
0.0
 40
0.0
 40
0.0
 40
0.0
 40
0.5561316016063198
 40
1.0
 40
1.0
 40
1.0
 40
1.0
 10
593.2781493603277
 20
520.1854842058848
 30
0.0
 10
593.1592312762004
 20
520.289146800446
 30
0.0
 10
592.9454004423047
 20
520.4755461963117
 30
0.0
 10
592.8437576555895
 20
520.7390676250787
 30
0.0
 10
592.7986416346419
 20
520.8560364596079
 30
0.0
  0
LINE
  5
265
330
1F
100
AcDbEntity
  8
0
  6
Continuous
 62
     7
370
    25
100
AcDbLine
 10
592.7986416346
 20
520.8560364596
 30
0.0
 11
596.4477420049
 21
520.8560364596
 31
0.0
  0
LINE
  5
266
330
1F
100
AcDbEntity
  8
0
  6
Continuous
 62
     7
370
    25
100
AcDbLine
 10
596.4477420049
 20
520.8560364596
 30
0.0
 11
596.4477420049
 21
517.5437169425
 31
0.0
  0
LINE
  5
267
330
1F
100
AcDbEntity
  8
0
  6
Continuous
 62
     7
370
    25
100
AcDbLine
 10
596.4477420049
 20
517.5437169425
 30
0.0
 11
597.6072123004
 21
517.5437169425
 31
0.0
  0
LINE
  5
268
330
1F
100
AcDbEntity
  8
0
  6
Continuous
 62
     7
370
    25
100
AcDbLine
 10
597.6072123004
 20
517.5437169425
 30
0.0
 11
597.6072123004
 21
519.4800036303
 31
0.0
  0
SPLINE
  5
269
330
1F
100
AcDbEntity
  8
0
  6
Continuous
 62
     7
370
    25
100
AcDbSpline
210
0.0
220
0.0
230
1.0
 70
     8
 71
     3
 72
    10
 73
     6
 74
     0
 42
0.000000001
 43
0.00000001
 40
0.0
 40
0.0
 40
0.0
 40
0.0
 40
0.2822307345773455
 40
0.553417730552744
 40
1.0
 40
1.0
 40
1.0
 40
1.0
 10
597.6072123004149
 20
519.4800036303233
 30
0.0
 10
597.7150894005382
 20
519.3645443383226
 30
0.0
 10
597.9266223507616
 20
519.1381436968546
 30
0.0
 10
598.4248026819208
 20
518.8589029874935
 30
0.0
 10
598.828619541165
 20
518.8222615024717
 30
0.0
 10
599.0798666453945
 20
518.79946387331
 30
0.0
  0
SPLINE
  5
26A
330
1F
100
AcDbEntity
  8
0
  6
Continuous
 62
     7
370
    25
100
AcDbSpline
210
0.0
220
0.0
230
1.0
 70
     8
 71
     3
 72
     9
 73
     5
 74
     0
 42
0.000000001
 43
0.00000001
 40
0.0
 40
0.0
 40
0.0
 40
0.0
 40
0.5554482022430655
 40
0.9999999999999999
 40
0.9999999999999999
 40
0.9999999999999999
 40
0.9999999999999999
 10
599.0798666453945
 20
518.79946387331
 30
0.0
 10
599.4506970301071
 20
518.8416870154603
 30
0.0
 10
600.1183207314982
 20
518.9177033604224
 30
0.0
 10
600.6056410306479
 20
519.3732177660402
 30
0.0
 10
600.8222801457184
 20
519.5757175139616
 30
0.0
  0
SPLINE
  5
26B
330
1F
100
AcDbEntity
  8
0
  6
Continuous
 62
     7
370
    25
100
AcDbSpline
210
0.0
220
0.0
230
1.0
 70
     8
 71
     3
 72
     9
 73
     5
 74
     0
 42
0.000000001
 43
0.00000001
 40
0.0
 40
0.0
 40
0.0
 40
0.0
 40
0.565748666703804
 40
1.0
 40
1.0
 40
1.0
 40
1.0
 10
600.8222801457184
 20
519.5757175139616
 30
0.0
 10
600.9275408352762
 20
519.7032896756297
 30
0.0
 10
601.1135964033273
 20
519.9287823178151
 30
0.0
 10
601.2377411164683
 20
520.1930131101791
 30
0.0
 10
601.2916511236715
 20
520.3077556840609
 30
0.0
  0
SPLINE
  5
26C
330
1F
100
AcDbEntity
  8
0
  6
Continuous
 62
     7
370
    25
100
AcDbSpline
210
0.0
220
0.0
230
1.0
 70
     8
 71
     3
 72
     9
 73
     5
 74
     0
 42
0.000000001
 43
0.00000001
 40
0.0
 40
0.0
 40
0.0
 40
0.0
 40
0.5501103326953626
 40
1.0
 40
1.0
 40
1.0
 40
1.0
 10
601.2916511236715
 20
520.3077556840609
 30
0.0
 10
601.3700825671536
 20
520.1538761277282
 30
0.0
 10
601.5126565906186
 20
519.8741512303991
 30
0.0
 10
601.7256538660195
 20
519.6440259017389
 30
0.0
 10
601.8214791393864
 20
519.5404948941897
 30
0.0
  0
SPLINE
  5
26D
330
1F
100
AcDbEntity
  8
0
  6
Continuous
 62
     7
370
    25
100
AcDbSpline
210
0.0
220
0.0
230
1.0
 70
     8
 71
     3
 72
     9
 73
     5
 74
     0
 42
0.000000001
 43
0.00000001
 40
0.0
 40
0.0
 40
0.0
 40
0.0
 40
0.5575956509067009
 40
1.0
 40
1.0
 40
1.0
 40
1.0
 10
601.8214791393864
 20
519.5404948941897
 30
0.0
 10
602.1185654815143
 20
519.302671860763
 30
0.0
 10
602.6513643683866
 20
518.8761566376974
 30
0.0
 10
603.3272523981211
 20
518.8229865509353
 30
0.0
 10
603.6262682019758
 20
518.79946387331
 30
0.0
  0
SPLINE
  5
26E
330
1F
100
AcDbEntity
  8
0
  6
Continuous
 62
     7
370
    25
100
AcDbSpline
210
0.0
220
0.0
230
1.0
 70
     8
 71
     3
 72
     9
 73
     5
 74
     0
 42
0.000000001
 43
0.00000001
 40
0.0
 40
0.0
 40
0.0
 40
0.0
 40
0.5518985417199924
 40
1.0
 40
1.0
 40
1.0
 40
1.0
 10
603.6262682019758
 20
518.79946387331
 30
0.0
 10
603.9060874232025
 20
518.8244177245482
 30
0.0
 10
604.413099491679
 20
518.8696322872837
 30
0.0
 10
604.849690891345
 20
519.1279926781414
 30
0.0
 10
605.0453281342077
 20
519.2437643460463
 30
0.0
  0
SPLINE
  5
26F
330
1F
100
AcDbEntity
  8
0
  6
Continuous
 62
     7
370
    25
100
AcDbSpline
210
0.0
220
0.0
230
1.0
 70
     8
 71
     3
 72
     9
 73
     5
 74
     0
 42
0.000000001
 43
0.00000001
 40
0.0
 40
0.0
 40
0.0
 40
0.0
 40
0.5793900251295262
 40
1.0
 40
1.0
 40
1.0
 40
1.0
 10
605.0453281342077
 20
519.2437643460463
 30
0.0
 10
605.2708292168678
 20
519.4175417991519
 30
0.0
 10
605.6600335056535
 20
519.7174735300558
 30
0.0
 10
605.8594713228317
 20
520.1631564620982
 30
0.0
 10
605.9433568581032
 20
520.3506151489447
 30
0.0
  0
LINE
  5
270
330
1F
100
AcDbEntity
  8
0
  6
Continuous
 62
     7
370
    25
100
AcDbLine
 10
605.9433568581
 20
520.3506151489
 30
0.0
 11
604.6625089212
 21
520.3506151489
 31
0.0
  0
SPLINE
  5
271
330
1F
100
AcDbEntity
  8
0
  6
Continuous
 62
     7
370
    25
100
AcDbSpline
210
0.0
220
0.0
230
1.0
 70
     8
 71
     3
 72
    10
 73
     6
 74
     0
 42
0.000000001
 43
0.00000001
 40
0.0
 40
0.0
 40
0.0
 40
0.0
 40
0.2606349559638181
 40
0.5276924759079469
 40
1.0
 40
1.0
 40
1.0
 40
1.0
 10
604.6625089212346
 20
520.3506151489447
 30
0.0
 10
604.5872108315243
 20
520.2789249644119
 30
0.0
 10
604.4347591573295
 20
520.1337780065353
 30
0.0
 10
604.0660452363488
 20
519.9652570693019
 30
0.0
 10
603.7708112014839
 20
519.945334404174
 30
0.0
 10
603.5822152472126
 20
519.9326077751349
 30
0.0
  0
SPLINE
  5
272
330
1F
100
AcDbEntity
  8
0
  6
Continuous
 62
     7
370
    25
100
AcDbSpline
210
0.0
220
0.0
230
1.0
 70
     8
 71
     3
 72
     9
 73
     5
 74
     0
 42
0.000000001
 43
0.00000001
 40
0.0
 40
0.0
 40
0.0
 40
0.0
 40
0.5576809654849848
 40
1.0
 40
1.0
 40
1.0
 40
1.0
 10
603.5822152472126
 20
519.9326077751349
 30
0.0
 10
603.4233471037925
 20
519.945947280266
 30
0.0
 10
603.1384742943324
 20
519.9698668793857
 30
0.0
 10
602.896192997488
 20
520.1193603834853
 30
0.0
 10
602.7890273681867
 20
520.1854842058848
 30
0.0
  0
SPLINE
  5
273
330
1F
100
AcDbEntity
  8
0
  6
Continuous
 62
     7
370
    25
100
AcDbSpline
210
0.0
220
0.0
230
1.0
 70
     8
 71
     3
 72
     9
 73
     5
 74
     0
 42
0.000000001
 43
0.00000001
 40
0.0
 40
0.0
 40
0.0
 40
0.0
 40
0.5561656658609375
 40
0.9999999999999999
 40
0.9999999999999999
 40
0.9999999999999999
 40
0.9999999999999999
 10
602.7890273681867
 20
520.1854842058848
 30
0.0
 10
602.670112314287
 20
520.2891409326818
 30
0.0
 10
602.4563000256129
 20
520.4755183614942
 30
0.0
 10
602.3548117993108
 20
520.7390652859
 30
0.0
 10
602.309767839967
 20
520.8560364596079
 30
0.0
  0
LINE
  5
274
330
1F
100
AcDbEntity
  8
0
  6
Continuous
 62
     7
370
    25
100
AcDbLine
 10
602.30976784
 20
520.8560364596
 30
0.0
 11
605.985722722
 21
520.8560364596
 31
0.0
  0
LINE
  5
275
330
1F
100
AcDbEntity
  8
0
  6
Continuous
 62
     7
370
    25
100
AcDbLine
 10
605.985722722
 20
520.8560364596
 30
0.0
 11
605.985722722
 21
518.802142357
 31
0.0
  0
LINE
  5
276
330
1F
100
AcDbEntity
  8
0
  6
Continuous
 62
     7
370
    25
100
AcDbLine
 10
605.985722722
 20
518.802142357
 30
0.0
 11
607.1445320114
 21
518.802142357
 31
0.0
  0
LINE
  5
277
330
1F
100
AcDbEntity
  8
0
  6
Continuous
 62
     7
370
    25
100
AcDbLine
 10
607.1445320114
 20
518.802142357
 30
0.0
 11
607.1445320114
 21
521.5618448607
 31
0.0
  0
SPLINE
  5
278
330
1F
100
AcDbEntity
  8
0
  6
Continuous
 62
     7
370
    25
100
AcDbSpline
210
0.0
220
0.0
230
1.0
 70
     8
 71
     3
 72
     9
 73
     5
 74
     0
 42
0.000000001
 43
0.00000001
 40
0.0
 40
0.0
 40
0.0
 40
0.0
 40
0.6525672093875345
 40
1.0
 40
1.0
 40
1.0
 40
1.0
 10
607.1445320113587
 20
521.5618448607157
 30
0.0
 10
607.1445377851477
 20
521.6859594889992
 30
0.0
 10
607.144546632955
 20
521.8761538881323
 30
0.0
 10
607.1764691250995
 20
522.0633713324854
 30
0.0
 10
607.1875600456285
 20
522.1284168116282
 30
0.0
  0
SPLINE
  5
279
330
1F
100
AcDbEntity
  8
0
  6
Continuous
 62
     7
370
    25
100
AcDbSpline
210
0.0
220
0.0
230
1.0
 70
     8
 71
     3
 72
     9
 73
     5
 74
     0
 42
0.000000001
 43
0.00000001
 40
0.0
 40
0.0
 40
0.0
 40
0.0
 40
0.561244830146827
 40
1.0
 40
1.0
 40
1.0
 40
1.0
 10
607.1875600456285
 20
522.1284168116282
 30
0.0
 10
607.2185869195134
 20
522.2297690623625
 30
0.0
 10
607.2738691639429
 20
522.4103538005911
 30
0.0
 10
607.414075698876
 20
522.5352049275033
 30
0.0
 10
607.475592040925
 20
522.5899840048979
 30
0.0
  0
SPLINE
  5
27A
330
1F
100
AcDbEntity
  8
0
  6
Continuous
 62
     7
370
    25
100
AcDbSpline
210
0.0
220
0.0
230
1.0
 70
     8
 71
     3
 72
     9
 73
     5
 74
     0
 42
0.000000001
 43
0.00000001
 40
0.0
 40
0.0
 40
0.0
 40
0.0
 40
0.5401633006415699
 40
0.9999999999999999
 40
0.9999999999999999
 40
0.9999999999999999
 40
0.9999999999999999
 10
607.475592040925
 20
522.5899840048979
 30
0.0
 10
607.5927887766325
 20
522.6627267212681
 30
0.0
 10
607.8097541564874
 20
522.7973947305234
 30
0.0
 10
608.0639272229566
 20
522.8105510882303
 30
0.0
 10
608.1808053269076
 20
522.816600864334
 30
0.0
  0
LINE
  5
27B
330
1F
100
AcDbEntity
  8
0
  6
Continuous
 62
     7
370
    25
100
AcDbLine
 10
608.1808053269
 20
522.8166008643
 30
0.0
 11
608.1808053269
 21
524.4096020512
 31
0.0
  0
LINE
  5
27C
330
1F
100
AcDbEntity
  8
0
  6
Continuous
 62
     7
370
    25
100
AcDbLine
 10
608.1808053269
 20
524.4096020512
 30
0.0
 11
608.0931622847
 21
524.4096020512
 31
0.0
  0
SPLINE
  5
27D
330
1F
100
AcDbEntity
  8
0
  6
Continuous
 62
     7
370
    25
100
AcDbSpline
210
0.0
220
0.0
230
1.0
 70
     8
 71
     3
 72
    10
 73
     6
 74
     0
 42
0.000000001
 43
0.00000001
 40
0.0
 40
0.0
 40
0.0
 40
0.0
 40
0.2799746556217687
 40
0.5478589942892478
 40
0.9999999999999999
 40
0.9999999999999999
 40
0.9999999999999999
 40
0.9999999999999999
 10
608.0931622847008
 20
524.4096020511817
 30
0.0
 10
607.9754511473368
 20
524.401251019765
 30
0.0
 10
607.7451120647162
 20
524.3849095846336
 30
0.0
 10
607.3516521970664
 20
524.2068825990369
 30
0.0
 10
607.1596174846798
 20
523.96767451296
 30
0.0
 10
607.0390289961385
 20
523.8174634329508
 30
0.0
  0
LINE
  5
27E
330
1F
100
AcDbEntity
  8
0
  6
Continuous
 62
     7
370
    25
100
AcDbLine
 10
607.0390289961
 20
523.817463433
 30
0.0
 11
607.0390289961
 21
524.2524395041
 31
0.0
  0
LINE
  5
27F
330
1F
100
AcDbEntity
  8
0
  6
Continuous
 62
     7
370
    25
100
AcDbLine
 10
607.0390289961
 20
524.2524395041
 30
0.0
 11
605.985722722
 21
524.2524395041
 31
0.0
  0
LINE
  5
280
330
1F
100
AcDbEntity
  8
0
  6
Continuous
 62
     7
370
    25
100
AcDbLine
 10
605.985722722
 20
524.2524395041
 30
0.0
 11
605.985722722
 21
522.2144747428
 31
0.0
  0
SPLINE
  5
281
330
1F
100
AcDbEntity
  8
0
  6
Continuous
 62
     7
370
    25
100
AcDbSpline
210
0.0
220
0.0
230
1.0
 70
     8
 71
     3
 72
     9
 73
     5
 74
     0
 42
0.000000001
 43
0.00000001
 40
0.0
 40
0.0
 40
0.0
 40
0.0
 40
0.5479000710912318
 40
0.9999999999999999
 40
0.9999999999999999
 40
0.9999999999999999
 40
0.9999999999999999
 10
605.9857227220225
 20
522.214474742813
 30
0.0
 10
605.9044252540143
 20
522.4092499351731
 30
0.0
 10
605.7560451527921
 20
522.7647439433634
 30
0.0
 10
605.5005810761754
 20
523.0521750432872
 30
0.0
 10
605.3850857852983
 20
523.1821226231287
 30
0.0
  0
SPLINE
  5
282
330
1F
100
AcDbEntity
  8
0
  6
Continuous
 62
     7
370
    25
100
AcDbSpline
210
0.0
220
0.0
230
1.0
 70
     8
 71
     3
 72
     9
 73
     5
 74
     0
 42
0.000000001
 43
0.00000001
 40
0.0
 40
0.0
 40
0.0
 40
0.0
 40
0.5610083971276438
 40
0.9999999999999999
 40
0.9999999999999999
 40
0.9999999999999999
 40
0.9999999999999999
 10
605.3850857852983
 20
523.1821226231287
 30
0.0
 10
605.1003618811566
 20
523.4254984126597
 30
0.0
 10
604.5928402369182
 20
523.8593168559789
 30
0.0
 10
603.9326310533405
 20
523.9154452116101
 30
0.0
 10
603.6428047656107
 20
523.940085088415
 30
0.0
  0
SPLINE
  5
283
330
1F
100
AcDbEntity
  8
0
  6
Continuous
 62
     7
370
    25
100
AcDbSpline
210
0.0
220
0.0
230
1.0
 70
     8
 71
     3
 72
     9
 73
     5
 74
     0
 42
0.000000001
 43
0.00000001
 40
0.0
 40
0.0
 40
0.0
 40
0.0
 40
0.559396071231645
 40
1.0
 40
1.0
 40
1.0
 40
1.0
 10
603.6428047656107
 20
523.940085088415
 30
0.0
 10
603.2570311214523
 20
523.8997354122698
 30
0.0
 10
602.5674058916774
 20
523.8276046301276
 30
0.0
 10
602.0496183600769
 20
523.3740072775255
 30
0.0
 10
601.8214791393864
 20
523.17415050189
 30
0.0
  0
SPLINE
  5
284
330
1F
100
AcDbEntity
  8
0
  6
Continuous
 62
     7
370
    25
100
AcDbSpline
210
0.0
220
0.0
230
1.0
 70
     8
 71
     3
 72
     9
 73
     5
 74
     0
 42
0.000000001
 43
0.00000001
 40
0.0
 40
0.0
 40
0.0
 40
0.0
 40
0.5679856072579937
 40
0.9999999999999999
 40
0.9999999999999999
 40
0.9999999999999999
 40
0.9999999999999999
 10
601.8214791393864
 20
523.17415050189
 30
0.0
 10
601.7050355644492
 20
523.0429904080436
 30
0.0
 10
601.500024075691
 20
522.8120688984657
 30
0.0
 10
601.3630818467902
 20
522.53584748734
 30
0.0
 10
601.3039208329308
 20
522.41651586215
 30
0.0
  0
SPLINE
  5
285
330
1F
100
AcDbEntity
  8
0
  6
Continuous
 62
     7
370
    25
100
AcDbSpline
210
0.0
220
0.0
230
1.0
 70
     8
 71
     3
 72
     9
 73
     5
 74
     0
 42
0.000000001
 43
0.00000001
 40
0.0
 40
0.0
 40
0.0
 40
0.0
 40
0.5543910461462443
 40
1.0
 40
1.0
 40
1.0
 40
1.0
 10
601.3039208329308
 20
522.41651586215
 30
0.0
 10
601.2342196962803
 20
522.5649060980813
 30
0.0
 10
601.1084941147889
 20
522.8325695767087
 30
0.0
 10
600.9161337020249
 20
523.0566639631094
 30
0.0
 10
600.8304161797303
 20
523.1565224281977
 30
0.0
  0
SPLINE
  5
286
330
1F
100
AcDbEntity
  8
0
  6
Continuous
 62
     7
370
    25
100
AcDbSpline
210
0.0
220
0.0
230
1.0
 70
     8
 71
     3
 72
     9
 73
     5
 74
     0
 42
0.000000001
 43
0.00000001
 40
0.0
 40
0.0
 40
0.0
 40
0.0
 40
0.5625883740441253
 40
1.0
 40
1.0
 40
1.0
 40
1.0
 10
600.8304161797303
 20
523.1565224281977
 30
0.0
 10
600.5455674146725
 20
523.4080984209061
 30
0.0
 10
600.0392491574887
 20
523.8552743746142
 30
0.0
 10
599.3718115948795
 20
523.9142767593656
 30
0.0
 10
599.0798666453945
 20
523.940085088415
 30
0.0
  0
SPLINE
  5
287
330
1F
100
AcDbEntity
  8
0
  6
Continuous
 62
     7
370
    25
100
AcDbSpline
210
0.0
220
0.0
230
1.0
 70
     8
 71
     3
 72
    10
 73
     6
 74
     0
 42
0.000000001
 43
0.00000001
 40
0.0
 40
0.0
 40
0.0
 40
0.0
 40
0.2953972853004468
 40
0.5677976493405621
 40
1.0
 40
1.0
 40
1.0
 40
1.0
 10
599.0798666453945
 20
523.940085088415
 30
0.0
 10
598.9004625307092
 20
523.9292477063444
 30
0.0
 10
598.5556210590051
 20
523.9084166412977
 30
0.0
 10
597.9737804098196
 20
523.6835847796582
 30
0.0
 10
597.6867928719122
 20
523.3569064642887
 30
0.0
 10
597.5107551049466
 20
523.1565224281977
 30
0.0
  0
LINE
  5
288
330
1F
100
AcDbEntity
  8
0
  6
Continuous
 62
     7
370
    25
100
AcDbLine
 10
597.5107551049
 20
523.1565224282
 30
0.0
 11
597.5107551049
 21
524.2524395041
 31
0.0
  0
LINE
  5
289
330
1F
100
AcDbEntity
  8
0
  6
Continuous
 62
     7
370
    25
100
AcDbLine
 10
597.5107551049
 20
524.2524395041
 30
0.0
 11
596.4477420049
 21
524.2524395041
 31
0.0
  0
LINE
  5
28A
330
1F
100
AcDbEntity
  8
0
  6
Continuous
 62
     7
370
    25
100
AcDbLine
 10
749.9792456939
 20
432.4812131278
 30
0.0
 11
443.9792514159
 21
432.4812131278
 31
0.0
  0
ARC
  5
28B
330
1F
100
AcDbEntity
  8
0
  6
Continuous
 62
     7
370
    25
100
AcDbCircle
 10
443.9792485549
 20
433.4812138728
 30
0.0
 40
1.0
100
AcDbArc
 50
180.0
 51
270.0
  0
LINE
  5
28C
330
1F
100
AcDbEntity
  8
0
  6
Continuous
 62
     7
370
    25
100
AcDbLine
 10
750.9792477204
 20
531.4812125913
 30
0.0
 11
750.9792477204
 21
433.4812151543
 31
0.0
  0
ARC
  5
28D
330
1F
100
AcDbEntity
  8
0
  6
Continuous
 62
     7
370
    25
100
AcDbCircle
 10
749.9792485549
 20
433.4812138728
 30
0.0
 40
1.0
100
AcDbArc
 50
270.0
 51
0.0
  0
CIRCLE
  5
28E
330
1F
100
AcDbEntity
  8
0
  6
Continuous
 62
     7
370
    25
100
AcDbCircle
 10
516.9792485549
 20
482.4812138728
 30
0.0
 40
29.5
  0
CIRCLE
  5
28F
330
1F
100
AcDbEntity
  8
0
  6
Continuous
 62
     7
370
    25
100
AcDbCircle
 10
676.9792485549
 20
482.4812138728
 30
0.0
 40
29.5
  0
LINE
  5
290
330
1F
100
AcDbEntity
  8
0
  6
Continuous
 62
     7
370
    25
100
AcDbLine
 10
609.1429630606
 20
524.806397622
 30
0.0
 11
609.1429630606
 21
523.8447362832
 31
0.0
  0
LINE
  5
291
330
1F
100
AcDbEntity
  8
0
  6
Continuous
 62
     7
370
    25
100
AcDbLine
 10
609.1429630606
 20
523.8447362832
 30
0.0
 11
609.6164679467
 21
523.8447362832
 31
0.0
  0
LINE
  5
292
330
1F
100
AcDbEntity
  8
0
  6
Continuous
 62
     7
370
    25
100
AcDbLine
 10
609.6164679467
 20
523.8447362832
 30
0.0
 11
609.6164679467
 21
525.2673873953
 31
0.0
  0
LINE
  5
293
330
1F
100
AcDbEntity
  8
0
  6
Continuous
 62
     7
370
    25
100
AcDbLine
 10
609.6164679467
 20
525.2673873953
 30
0.0
 11
608.1808714508
 21
525.2673873953
 31
0.0
  0
LINE
  5
294
330
1F
100
AcDbEntity
  8
0
  6
Continuous
 62
     7
370
    25
100
AcDbLine
 10
608.1808714508
 20
525.2673873953
 30
0.0
 11
608.1808714508
 21
524.806397622
 31
0.0
  0
LINE
  5
295
330
1F
100
AcDbEntity
  8
0
  6
Continuous
 62
     7
370
    25
100
AcDbLine
 10
608.1808714508
 20
524.806397622
 30
0.0
 11
609.1429630606
 21
524.806397622
 31
0.0
  0
LINE
  5
296
330
1F
100
AcDbEntity
  8
0
  6
Continuous
 62
     7
370
    25
100
AcDbLine
 10
597.8203837723
 20
518.6183551602
 30
0.0
 11
597.8203837723
 21
517.5527135185
 31
0.0
  0
LINE
  5
297
330
1F
100
AcDbEntity
  8
0
  6
Continuous
 62
     7
370
    25
100
AcDbLine
 10
597.8203837723
 20
517.5527135185
 30
0.0
 11
607.1555784284
 21
517.5527135185
 31
0.0
  0
LINE
  5
298
330
1F
100
AcDbEntity
  8
0
  6
Continuous
 62
     7
370
    25
100
AcDbLine
 10
607.1555784284
 20
517.5527135185
 30
0.0
 11
607.1555784284
 21
518.6183551602
 31
0.0
  0
LINE
  5
299
330
1F
100
AcDbEntity
  8
0
  6
Continuous
 62
     7
370
    25
100
AcDbLine
 10
607.1555784284
 20
518.6183551602
 30
0.0
 11
597.8203837723
 21
518.6183551602
 31
0.0
  0
LINE
  5
29A
330
1F
100
AcDbEntity
  8
0
  6
Continuous
 62
     7
370
    25
100
AcDbLine
 10
442.9792493894
 20
433.4812151543
 30
0.0
 11
442.9792493894
 21
531.4812125913
 31
0.0
  0
LINE
  5
29B
330
1F
100
AcDbEntity
  8
0
  6
Continuous
 62
     7
370
    25
100
AcDbLine
 10
443.9792514159
 20
532.4812146179
 30
0.0
 11
749.9792456939
 21
532.4812146179
 31
0.0
  0
ARC
  5
29C
330
1F
100
AcDbEntity
  8
0
  6
Continuous
 62
     7
370
    25
100
AcDbCircle
 10
749.9792485549
 20
531.4812138728
 30
0.0
 40
1.0
100
AcDbArc
 50
0.0
 51
90.0
  0
ARC
  5
29D
330
1F
100
AcDbEntity
  8
0
  6
Continuous
 62
     7
370
    25
100
AcDbCircle
 10
443.9792485549
 20
531.4812138728
 30
0.0
 40
1.0
100
AcDbArc
 50
90.0
 51
180.0
  0
SPLINE
  5
29E
330
1F
100
AcDbEntity
  8
0
  6
Continuous
 62
     7
370
    25
100
AcDbSpline
210
0.0
220
0.0
230
1.0
 70
     8
 71
     3
 72
     9
 73
     5
 74
     0
 42
0.000000001
 43
0.00000001
 40
0.0
 40
0.0
 40
0.0
 40
0.0
 40
0.5532417156839448
 40
1.0
 40
1.0
 40
1.0
 40
1.0
 10
594.1225010748046
 20
522.8073062650393
 30
0.0
 10
593.9587393365528
 20
522.7930578154736
 30
0.0
 10
593.6627353773259
 20
522.7673033411419
 30
0.0
 10
593.40907086262
 20
522.6146573150608
 30
0.0
 10
593.295744139238
 20
522.546461438341
 30
0.0
  0
SPLINE
  5
29F
330
1F
100
AcDbEntity
  8
0
  6
Continuous
 62
     7
370
    25
100
AcDbSpline
210
0.0
220
0.0
230
1.0
 70
     8
 71
     3
 72
     9
 73
     5
 74
     0
 42
0.000000001
 43
0.00000001
 40
0.0
 40
0.0
 40
0.0
 40
0.0
 40
0.5675801638131218
 40
1.0
 40
1.0
 40
1.0
 40
1.0
 10
593.295744139238
 20
522.546461438341
 30
0.0
 10
593.1661184800056
 20
522.4451342823808
 30
0.0
 10
592.9377354823307
 20
522.2666094458543
 30
0.0
 10
592.8287406634581
 20
521.9998564439937
 30
0.0
 10
592.781609141736
 20
521.8845071546267
 30
0.0
  0
LINE
  5
2A0
330
1F
100
AcDbEntity
  8
0
  6
Continuous
 62
     7
370
    25
100
AcDbLine
 10
592.7816091417
 20
521.8845071546
 30
0.0
 11
595.4384723292
 21
521.8845071546
 31
0.0
  0
SPLINE
  5
2A1
330
1F
100
AcDbEntity
  8
0
  6
Continuous
 62
     7
370
    25
100
AcDbSpline
210
0.0
220
0.0
230
1.0
 70
     8
 71
     3
 72
     9
 73
     5
 74
     0
 42
0.000000001
 43
0.00000001
 40
0.0
 40
0.0
 40
0.0
 40
0.0
 40
0.5610246318442801
 40
1.0
 40
1.0
 40
1.0
 40
1.0
 10
595.4384723291757
 20
521.8845071546267
 30
0.0
 10
595.3749648342358
 20
522.0342356837855
 30
0.0
 10
595.2617657136709
 20
522.3011197396006
 30
0.0
 10
595.0335136121564
 20
522.4773851928796
 30
0.0
 10
594.9333165618616
 20
522.554761385126
 30
0.0
  0
SPLINE
  5
2A2
330
1F
100
AcDbEntity
  8
0
  6
Continuous
 62
     7
370
    25
100
AcDbSpline
210
0.0
220
0.0
230
1.0
 70
     8
 71
     3
 72
     9
 73
     5
 74
     0
 42
0.000000001
 43
0.00000001
 40
0.0
 40
0.0
 40
0.0
 40
0.0
 40
0.5537890577493887
 40
0.9999999999999999
 40
0.9999999999999999
 40
0.9999999999999999
 40
0.9999999999999999
 10
594.9333165618616
 20
522.554761385126
 30
0.0
 10
594.7937410555061
 20
522.635860669039
 30
0.0
 10
594.5417037420157
 20
522.7823050286343
 30
0.0
 10
594.2518410014126
 20
522.7995924351078
 30
0.0
 10
594.1225010748046
 20
522.8073062650393
 30
0.0
  0
SPLINE
  5
2A3
330
1F
100
AcDbEntity
  8
0
  6
Continuous
 62
     7
370
    25
100
AcDbSpline
210
0.0
220
0.0
230
1.0
 70
     8
 71
     3
 72
     9
 73
     5
 74
     0
 42
0.000000001
 43
0.00000001
 40
0.0
 40
0.0
 40
0.0
 40
0.0
 40
0.5527750429553877
 40
1.0
 40
1.0
 40
1.0
 40
1.0
 10
603.6345695457446
 20
522.8073062650393
 30
0.0
 10
603.4707589154244
 20
522.7930083208881
 30
0.0
 10
603.1744166105251
 20
522.7671425653091
 30
0.0
 10
602.9202330308605
 20
522.6146568540215
 30
0.0
 10
602.8065557903635
 20
522.546461438341
 30
0.0
  0
SPLINE
  5
2A4
330
1F
100
AcDbEntity
  8
0
  6
Continuous
 62
     7
370
    25
100
AcDbSpline
210
0.0
220
0.0
230
1.0
 70
     8
 71
     3
 72
     9
 73
     5
 74
     0
 42
0.000000001
 43
0.00000001
 40
0.0
 40
0.0
 40
0.0
 40
0.0
 40
0.5676033216788514
 40
1.0
 40
1.0
 40
1.0
 40
1.0
 10
602.8065557903635
 20
522.546461438341
 30
0.0
 10
602.676995005283
 20
522.4451385301694
 30
0.0
 10
602.4487356203706
 20
522.2666284610739
 30
0.0
 10
602.3400809479607
 20
521.9998578714527
 30
0.0
 10
602.2930990285265
 20
521.8845071546267
 30
0.0
  0
LINE
  5
2A5
330
1F
100
AcDbEntity
  8
0
  6
Continuous
 62
     7
370
    25
100
AcDbLine
 10
602.2930990285
 20
521.8845071546
 30
0.0
 11
604.9500445216
 21
521.8845071546
 31
0.0
  0
SPLINE
  5
2A6
330
1F
100
AcDbEntity
  8
0
  6
Continuous
 62
     7
370
    25
100
AcDbSpline
210
0.0
220
0.0
230
1.0
 70
     8
 71
     3
 72
     9
 73
     5
 74
     0
 42
0.000000001
 43
0.00000001
 40
0.0
 40
0.0
 40
0.0
 40
0.0
 40
0.5614179917327099
 40
1.0
 40
1.0
 40
1.0
 40
1.0
 10
604.9500445215988
 20
521.8845071546267
 30
0.0
 10
604.8862819730236
 20
522.0341946339827
 30
0.0
 10
604.7727078633334
 20
522.300818578281
 30
0.0
 10
604.5447626062869
 20
522.4773415748052
 30
0.0
 10
604.4447899176764
 20
522.554761385126
 30
0.0
  0
SPLINE
  5
2A7
330
1F
100
AcDbEntity
  8
0
  6
Continuous
 62
     7
370
    25
100
AcDbSpline
210
0.0
220
0.0
230
1.0
 70
     8
 71
     3
 72
     9
 73
     5
 74
     0
 42
0.000000001
 43
0.00000001
 40
0.0
 40
0.0
 40
0.0
 40
0.0
 40
0.5541483703059933
 40
1.0
 40
1.0
 40
1.0
 40
1.0
 10
604.4447899176764
 20
522.554761385126
 30
0.0
 10
604.3052223933843
 20
522.6358610859697
 30
0.0
 10
604.0533629063392
 20
522.7822112426956
 30
0.0
 10
603.7637112214819
 20
522.7995678108443
 30
0.0
 10
603.6345695457446
 20
522.8073062650393
 30
0.0
  0
SPLINE
  5
2A8
330
1F
100
AcDbEntity
  8
0
  6
Continuous
 62
     7
370
    25
100
AcDbSpline
210
0.0
220
0.0
230
1.0
 70
     8
 71
     3
 72
    15
 73
    11
 74
     0
 42
0.000000001
 43
0.00000001
 40
0.0
 40
0.0
 40
0.0
 40
0.0
 40
0.1270968708607444
 40
0.2498925014929159
 40
0.372745659784116
 40
0.5000533943260893
 40
0.6272312163913781
 40
0.7500760813990992
 40
0.8728973486780636
 40
1.0
 40
1.0
 40
1.0
 40
1.0
 10
598.9361316743332
 20
522.8003287963103
 30
0.0
 10
598.7454775169267
 20
522.7782409650587
 30
0.0
 10
598.3706213619981
 20
522.7348128037934
 30
0.0
 10
597.8991386903464
 20
522.4035500887886
 30
0.0
 10
597.5801809940677
 20
521.9350662338763
 30
0.0
 10
597.4664020424204
 20
521.3683267049703
 30
0.0
 10
597.5802725397787
 20
520.8016329968265
 30
0.0
 10
597.8992120911289
 20
520.3333706246148
 30
0.0
 10
598.3705641614116
 20
520.0018807452572
 30
0.0
 10
598.7454683733129
 20
519.9583736075492
 30
0.0
 10
598.9361316743332
 20
519.9362473837565
 30
0.0
  0
SPLINE
  5
2A9
330
1F
100
AcDbEntity
  8
0
  6
Continuous
 62
     7
370
    25
100
AcDbSpline
210
0.0
220
0.0
230
1.0
 70
     8
 71
     3
 72
    15
 73
    11
 74
     0
 42
0.000000001
 43
0.00000001
 40
0.0
 40
0.0
 40
0.0
 40
0.0
 40
0.127301566539659
 40
0.2501039251628407
 40
0.3728526699542675
 40
0.4999466212681562
 40
0.6271704145039002
 40
0.7499274490952734
 40
0.8727041979505548
 40
1.0
 40
1.0
 40
1.0
 40
1.0
 10
598.9361316743332
 20
519.9362473837565
 30
0.0
 10
599.127219022992
 20
519.9583253649319
 30
0.0
 10
599.5026401371825
 20
520.0017010271622
 30
0.0
 10
599.9745853768359
 20
520.3332143668849
 30
0.0
 10
600.2933845047963
 20
520.8016854649157
 30
0.0
 10
600.4069759049765
 20
521.368326744793
 30
0.0
 10
600.2934759846495
 20
521.9350136840914
 30
0.0
 10
599.9746587441388
 20
522.4037063601841
 30
0.0
 10
599.502582846884
 20
522.7349923395233
 30
0.0
 10
599.1272098497213
 20
522.7782891721483
 30
0.0
 10
598.9361316743332
 20
522.8003287963103
 30
0.0
  0
LINE
  5
2AA
330
1F
100
AcDbEntity
  8
0
  6
Continuous
 62
     7
370
    25
100
AcDbLine
 10
751.2024671151
 20
532.8812139384
 30
0.0
 11
442.7560299947
 21
532.8812139384
 31
0.0
  0
LINE
  5
2AB
330
1F
100
AcDbEntity
  8
0
  6
Continuous
 62
     7
370
    25
100
AcDbLine
 10
751.2024671151
 20
533.8812122397
 30
0.0
 11
442.7560299947
 21
533.8812122397
 31
0.0
  0
LINE
  5
2AC
330
1F
100
AcDbEntity
  8
0
  6
Continuous
 62
     7
370
    25
100
AcDbLine
 10
751.2024671151
 20
532.8812139384
 30
0.0
 11
751.2024671151
 21
533.8812122397
 31
0.0
  0
LINE
  5
2AD
330
1F
100
AcDbEntity
  8
0
  6
Continuous
 62
     7
370
    25
100
AcDbLine
 10
442.7560299947
 20
532.8812139384
 30
0.0
 11
442.7560299947
 21
533.8812122397
 31
0.0
  0
LINE
  5
2AE
330
1F
100
AcDbEntity
  8
0
  6
Continuous
 62
     7
370
    25
100
AcDbLine
 10
442.5792426183
 20
532.7044377379
 30
0.0
 11
442.5792426183
 21
432.2579900078
 31
0.0
  0
LINE
  5
2AF
330
1F
100
AcDbEntity
  8
0
  6
Continuous
 62
     7
370
    25
100
AcDbLine
 10
442.5792426183
 20
432.2579900078
 30
0.0
 11
441.5792554929
 21
432.2579900078
 31
0.0
  0
LINE
  5
2B0
330
1F
100
AcDbEntity
  8
0
  6
Continuous
 62
     7
370
    25
100
AcDbLine
 10
441.5792554929
 20
532.7044377379
 30
0.0
 11
441.5792554929
 21
527.4573365502
 31
0.0
  0
LINE
  5
2B1
330
1F
100
AcDbEntity
  8
0
  6
Continuous
 62
     7
370
    25
100
AcDbLine
 10
441.5792554929
 20
526.5050927452
 30
0.0
 11
441.5792554929
 21
516.2573369495
 31
0.0
  0
LINE
  5
2B2
330
1F
100
AcDbEntity
  8
0
  6
Continuous
 62
     7
370
    25
100
AcDbLine
 10
441.5792554929
 20
515.3050894193
 30
0.0
 11
441.5792554929
 21
505.157337179
 31
0.0
  0
LINE
  5
2B3
330
1F
100
AcDbEntity
  8
0
  6
Continuous
 62
     7
370
    25
100
AcDbLine
 10
441.5792554929
 20
504.2050915114
 30
0.0
 11
441.5792554929
 21
494.0573364771
 31
0.0
  0
LINE
  5
2B4
330
1F
100
AcDbEntity
  8
0
  6
Continuous
 62
     7
370
    25
100
AcDbLine
 10
441.5792554929
 20
493.1050908096
 30
0.0
 11
441.5792554929
 21
482.9573367648
 31
0.0
  0
LINE
  5
2B5
330
1F
100
AcDbEntity
  8
0
  6
Continuous
 62
     7
370
    25
100
AcDbLine
 10
441.5792554929
 20
482.0050909808
 30
0.0
 11
441.5792554929
 21
471.8573369361
 31
0.0
  0
LINE
  5
2B6
330
1F
100
AcDbEntity
  8
0
  6
Continuous
 62
     7
370
    25
100
AcDbLine
 10
441.5792554929
 20
470.9050912685
 30
0.0
 11
441.5792554929
 21
460.7573362343
 31
0.0
  0
LINE
  5
2B7
330
1F
100
AcDbEntity
  8
0
  6
Continuous
 62
     7
370
    25
100
AcDbLine
 10
441.5792554929
 20
459.8050905667
 30
0.0
 11
441.5792554929
 21
449.6573383264
 31
0.0
  0
LINE
  5
2B8
330
1F
100
AcDbEntity
  8
0
  6
Continuous
 62
     7
370
    25
100
AcDbLine
 10
441.5792554929
 20
448.7050907962
 30
0.0
 11
441.5792554929
 21
438.4573350004
 31
0.0
  0
LINE
  5
2B9
330
1F
100
AcDbEntity
  8
0
  6
Continuous
 62
     7
370
    25
100
AcDbLine
 10
441.5792554929
 20
437.5050911955
 30
0.0
 11
441.5792554929
 21
432.2579900078
 31
0.0
  0
LINE
  5
2BA
330
1F
100
AcDbEntity
  8
0
  6
Continuous
 62
     7
370
    25
100
AcDbLine
 10
442.5792426183
 20
532.7044377379
 30
0.0
 11
441.5792554929
 21
532.7044377379
 31
0.0
  0
LINE
  5
2BB
330
1F
100
AcDbEntity
  8
0
  6
Continuous
 62
     7
370
    25
100
AcDbLine
 10
751.3792544915
 20
532.7044377379
 30
0.0
 11
752.3792416169
 21
532.7044377379
 31
0.0
  0
LINE
  5
2BC
330
1F
100
AcDbEntity
  8
0
  6
Continuous
 62
     7
370
    25
100
AcDbLine
 10
751.3792544915
 20
432.2579900078
 30
0.0
 11
752.3792416169
 21
432.2579900078
 31
0.0
  0
LINE
  5
2BD
330
1F
100
AcDbEntity
  8
0
  6
Continuous
 62
     7
370
    25
100
AcDbLine
 10
752.3792416169
 20
432.2579900078
 30
0.0
 11
752.3792416169
 21
437.5050911955
 31
0.0
  0
LINE
  5
2BE
330
1F
100
AcDbEntity
  8
0
  6
Continuous
 62
     7
370
    25
100
AcDbLine
 10
752.3792416169
 20
438.4573350004
 30
0.0
 11
752.3792416169
 21
448.7050907962
 31
0.0
  0
LINE
  5
2BF
330
1F
100
AcDbEntity
  8
0
  6
Continuous
 62
     7
370
    25
100
AcDbLine
 10
752.3792416169
 20
449.6573383264
 30
0.0
 11
752.3792416169
 21
459.8050905667
 31
0.0
  0
LINE
  5
2C0
330
1F
100
AcDbEntity
  8
0
  6
Continuous
 62
     7
370
    25
100
AcDbLine
 10
752.3792416169
 20
460.7573362343
 30
0.0
 11
752.3792416169
 21
470.9050912685
 31
0.0
  0
LINE
  5
2C1
330
1F
100
AcDbEntity
  8
0
  6
Continuous
 62
     7
370
    25
100
AcDbLine
 10
752.3792416169
 20
471.8573369361
 30
0.0
 11
752.3792416169
 21
482.0050909808
 31
0.0
  0
LINE
  5
2C2
330
1F
100
AcDbEntity
  8
0
  6
Continuous
 62
     7
370
    25
100
AcDbLine
 10
752.3792416169
 20
482.9573367648
 30
0.0
 11
752.3792416169
 21
493.1050908096
 31
0.0
  0
LINE
  5
2C3
330
1F
100
AcDbEntity
  8
0
  6
Continuous
 62
     7
370
    25
100
AcDbLine
 10
752.3792416169
 20
494.0573364771
 30
0.0
 11
752.3792416169
 21
504.2050915114
 31
0.0
  0
LINE
  5
2C4
330
1F
100
AcDbEntity
  8
0
  6
Continuous
 62
     7
370
    25
100
AcDbLine
 10
752.3792416169
 20
505.157337179
 30
0.0
 11
752.3792416169
 21
515.3050894193
 31
0.0
  0
LINE
  5
2C5
330
1F
100
AcDbEntity
  8
0
  6
Continuous
 62
     7
370
    25
100
AcDbLine
 10
752.3792416169
 20
516.2573369495
 30
0.0
 11
752.3792416169
 21
526.5050927452
 31
0.0
  0
LINE
  5
2C6
330
1F
100
AcDbEntity
  8
0
  6
Continuous
 62
     7
370
    25
100
AcDbLine
 10
752.3792416169
 20
527.4573365502
 30
0.0
 11
752.3792416169
 21
532.7044377379
 31
0.0
  0
LINE
  5
2C7
330
1F
100
AcDbEntity
  8
0
  6
Continuous
 62
     7
370
    25
100
AcDbLine
 10
751.3792544915
 20
432.2579900078
 30
0.0
 11
751.3792544915
 21
532.7044377379
 31
0.0
  0
LINE
  5
2C8
330
1F
100
AcDbEntity
  8
0
  6
Continuous
 62
     7
370
    25
100
AcDbLine
 10
442.7560299947
 20
432.0812138073
 30
0.0
 11
751.2024671151
 21
432.0812138073
 31
0.0
  0
LINE
  5
2C9
330
1F
100
AcDbEntity
  8
0
  6
Continuous
 62
     7
370
    25
100
AcDbLine
 10
442.7560299947
 20
431.081215506
 30
0.0
 11
751.2024671151
 21
431.081215506
 31
0.0
  0
LINE
  5
2CA
330
1F
100
AcDbEntity
  8
0
  6
Continuous
 62
     7
370
    25
100
AcDbLine
 10
442.7560299947
 20
432.0812138073
 30
0.0
 11
442.7560299947
 21
431.081215506
 31
0.0
  0
LINE
  5
2CB
330
1F
100
AcDbEntity
  8
0
  6
Continuous
 62
     7
370
    25
100
AcDbLine
 10
751.2024671151
 20
432.0812138073
 30
0.0
 11
751.2024671151
 21
431.081215506
 31
0.0
  0
LWPOLYLINE
  5
2CC
330
1F
100
AcDbEntity
  8
0
  6
Continuous
 62
     7
370
    25
100
AcDbPolyline
 90
        9
 70
   128
 43
0.0
 10
751.0024786308
 20
532.6812142781
 10
751.0414898708
 20
532.7202329687
 10
751.0790109946
 20
532.7577503673
 10
751.1135816886
 20
532.7923285119
 10
751.1438906505
 20
532.8226337485
 10
751.1687606885
 20
532.8475075118
 10
751.1872530296
 20
532.8659886769
 10
751.1986226155
 20
532.8773694388
 10
751.2024671151
 20
532.8812139384
  0
LWPOLYLINE
  5
2CD
330
1F
100
AcDbEntity
  8
0
  6
Continuous
 62
     7
370
    25
100
AcDbPolyline
 90
       10
 70
   128
 43
0.0
 10
442.7792460038
 20
532.5044380776
 10
442.7445262983
 20
532.5391652338
 10
442.710849674
 20
532.5728418581
 10
442.6792443111
 20
532.6044360451
 10
442.6506936862
 20
532.6329941205
 10
442.6260322644
 20
532.6576443664
 10
442.6060498073
 20
532.6776417247
 10
442.5913125589
 20
532.6923752479
 10
442.5822824552
 20
532.701397901
 10
442.5792426183
 20
532.7044377379
  0
LINE
  5
2CE
330
1F
100
AcDbEntity
  8
0
  6
Continuous
 62
     7
370
    25
100
AcDbLine
 10
442.7792460038
 20
532.5044380776
 30
0.0
 11
442.7792460038
 21
432.4579896681
 31
0.0
  0
LWPOLYLINE
  5
2CF
330
1F
100
AcDbEntity
  8
0
  6
Continuous
 62
     7
370
    25
100
AcDbPolyline
 90
        9
 70
   128
 43
0.0
 10
442.5792426183
 20
432.2579900078
 10
442.5830871179
 20
432.2618345074
 10
442.594471605
 20
432.2732152693
 10
442.6129490449
 20
432.2916964344
 10
442.6378339841
 20
432.3165701977
 10
442.6681280448
 20
432.3468754343
 10
442.7027136399
 20
432.3814535789
 10
442.7402347638
 20
432.4189709775
 10
442.7792460038
 20
432.4579896681
  0
LWPOLYLINE
  5
2D0
330
1F
100
AcDbEntity
  8
0
  6
Continuous
 62
     7
370
    25
100
AcDbPolyline
 90
        9
 70
   128
 43
0.0
 10
751.179251106
 20
432.4579896681
 10
751.218262346
 20
432.4189709775
 10
751.2557834699
 20
432.3814535789
 10
751.290369065
 20
432.3468754343
 10
751.3206631257
 20
432.3165701977
 10
751.3455480649
 20
432.2916964344
 10
751.3640255048
 20
432.2732152693
 10
751.3754099919
 20
432.2618345074
 10
751.3792544915
 20
432.2579900078
  0
LINE
  5
2D1
330
1F
100
AcDbEntity
  8
0
  6
Continuous
 62
     7
370
    25
100
AcDbLine
 10
751.179251106
 20
432.4579896681
 30
0.0
 11
751.179251106
 21
532.5044380776
 31
0.0
  0
LWPOLYLINE
  5
2D2
330
1F
100
AcDbEntity
  8
0
  6
Continuous
 62
     7
370
    25
100
AcDbPolyline
 90
        9
 70
   128
 43
0.0
 10
751.3792544915
 20
532.7044377379
 10
751.3754099919
 20
532.7005932383
 10
751.3640255048
 20
532.6892124764
 10
751.3455480649
 20
532.6707313112
 10
751.3206631257
 20
532.6458575479
 10
751.290369065
 20
532.6155523113
 10
751.2557834699
 20
532.5809741668
 10
751.218262346
 20
532.5434567682
 10
751.179251106
 20
532.5044380776
  0
LINE
  5
2D3
330
1F
100
AcDbEntity
  8
0
  6
Continuous
 62
     7
370
    25
100
AcDbLine
 10
751.0024786308
 20
532.6812142781
 30
0.0
 11
442.9560184791
 21
532.6812142781
 31
0.0
  0
LWPOLYLINE
  5
2D4
330
1F
100
AcDbEntity
  8
0
  6
Continuous
 62
     7
370
    25
100
AcDbPolyline
 90
        9
 70
   128
 43
0.0
 10
442.7560299947
 20
532.8812139384
 10
442.7598744943
 20
532.8773694388
 10
442.7712440803
 20
532.8659886769
 10
442.7897364213
 20
532.8475075118
 10
442.8146064593
 20
532.8226337485
 10
442.8449154212
 20
532.7923285119
 10
442.8794861152
 20
532.7577503673
 10
442.9170072391
 20
532.7202329687
 10
442.9560184791
 20
532.6812142781
  0
LWPOLYLINE
  5
2D5
330
1F
100
AcDbEntity
  8
0
  6
Continuous
 62
     7
370
    25
100
AcDbPolyline
 90
       10
 70
   128
 43
0.0
 10
442.9560184791
 20
432.2812134675
 10
442.9212987735
 20
432.2464825861
 10
442.8876221492
 20
432.2128096871
 10
442.8560316875
 20
432.1812155
 10
442.8274661615
 20
432.1526574246
 10
442.8028196408
 20
432.1280034534
 10
442.7828222825
 20
432.1080098204
 10
442.7680850341
 20
432.0932762973
 10
442.7590698316
 20
432.0842536442
 10
442.7560299947
 20
432.0812138073
  0
LINE
  5
2D6
330
1F
100
AcDbEntity
  8
0
  6
Continuous
 62
     7
370
    25
100
AcDbLine
 10
442.9560184791
 20
432.2812134675
 30
0.0
 11
751.0024786308
 21
432.2812134675
 31
0.0
  0
LWPOLYLINE
  5
2D7
330
1F
100
AcDbEntity
  8
0
  6
Continuous
 62
     7
370
    25
100
AcDbPolyline
 90
        9
 70
   128
 43
0.0
 10
751.2024671151
 20
432.0812138073
 10
751.1986226155
 20
432.0850583069
 10
751.1872530296
 20
432.0964390687
 10
751.1687606885
 20
432.1149202339
 10
751.1438906505
 20
432.1397939972
 10
751.1135816886
 20
432.1700992338
 10
751.0790109946
 20
432.2046773783
 10
751.0414898708
 20
432.2421947769
 10
751.0024786308
 20
432.2812134675
  0
LINE
  5
2D8
330
1F
100
AcDbEntity
  8
0
  6
Continuous
 62
     7
370
    25
100
AcDbLine
 10
750.7692009523
 20
432.8680398218
 30
0.0
 11
751.179251106
 21
432.4579896681
 31
0.0
  0
LINE
  5
2D9
330
1F
100
AcDbEntity
  8
0
  6
Continuous
 62
     7
370
    25
100
AcDbLine
 10
751.179251106
 20
532.5044380776
 30
0.0
 11
750.7692009523
 21
532.0943879239
 31
0.0
  0
LINE
  5
2DA
330
1F
100
AcDbEntity
  8
0
  6
Continuous
 62
     7
370
    25
100
AcDbLine
 10
443.1892961576
 20
532.0943879239
 30
0.0
 11
442.7792460038
 21
532.5044380776
 31
0.0
  0
LINE
  5
2DB
330
1F
100
AcDbEntity
  8
0
  6
Continuous
 62
     7
370
    25
100
AcDbLine
 10
442.7792460038
 20
432.4579896681
 30
0.0
 11
443.1892961576
 21
432.8680398218
 31
0.0
  0
LINE
  5
2DC
330
1F
100
AcDbEntity
  8
0
  6
Continuous
 62
     7
370
    25
100
AcDbLine
 10
750.5924135759
 20
532.2711641244
 30
0.0
 11
751.0024786308
 21
532.6812142781
 31
0.0
  0
LINE
  5
2DD
330
1F
100
AcDbEntity
  8
0
  6
Continuous
 62
     7
370
    25
100
AcDbLine
 10
442.9560184791
 20
532.6812142781
 30
0.0
 11
443.366083534
 21
532.2711641244
 31
0.0
  0
LINE
  5
2DE
330
1F
100
AcDbEntity
  8
0
  6
Continuous
 62
     7
370
    25
100
AcDbLine
 10
751.0024786308
 20
432.2812134675
 30
0.0
 11
750.5924135759
 21
432.6912636213
 31
0.0
  0
LINE
  5
2DF
330
1F
100
AcDbEntity
  8
0
  6
Continuous
 62
     7
370
    25
100
AcDbLine
 10
443.366083534
 20
432.6912636213
 30
0.0
 11
442.9560184791
 21
432.2812134675
 31
0.0
  0
LINE
  5
2E0
330
1F
100
AcDbEntity
  8
0
  6
Continuous
 62
     8
370
    25
100
AcDbLine
 10
441.6792422845
 20
437.6883270494
 30
0.0
 11
441.7009830787
 21
437.6890870086
 31
0.0
  0
LINE
  5
2E1
330
1F
100
AcDbEntity
  8
0
  6
Continuous
 62
     8
370
    25
100
AcDbLine
 10
441.7009830787
 20
438.2733391873
 30
0.0
 11
441.6792422845
 21
438.2740991465
 31
0.0
  0
LINE
  5
2E2
330
1F
100
AcDbEntity
  8
0
  6
Continuous
 62
     8
370
    25
100
AcDbLine
 10
441.6792422845
 20
448.8883266501
 30
0.0
 11
441.7009830787
 21
448.8890866093
 31
0.0
  0
LINE
  5
2E3
330
1F
100
AcDbEntity
  8
0
  6
Continuous
 62
     8
370
    25
100
AcDbLine
 10
441.7009830787
 20
449.473338788
 30
0.0
 11
441.6792422845
 21
449.4740987472
 31
0.0
  0
LINE
  5
2E4
330
1F
100
AcDbEntity
  8
0
  6
Continuous
 62
     8
370
    25
100
AcDbLine
 10
441.6792422845
 20
459.9883282832
 30
0.0
 11
441.7009830787
 21
459.9890882425
 31
0.0
  0
LINE
  5
2E5
330
1F
100
AcDbEntity
  8
0
  6
Continuous
 62
     8
370
    25
100
AcDbLine
 10
441.7009830787
 20
460.5733404211
 30
0.0
 11
441.6792422845
 21
460.5740985177
 31
0.0
  0
LINE
  5
2E6
330
1F
100
AcDbEntity
  8
0
  6
Continuous
 62
     8
370
    25
100
AcDbLine
 10
441.6792422845
 20
471.0883280538
 30
0.0
 11
441.7009830787
 21
471.0890870817
 31
0.0
  0
LINE
  5
2E7
330
1F
100
AcDbEntity
  8
0
  6
Continuous
 62
     8
370
    25
100
AcDbLine
 10
441.7009830787
 20
471.6733401916
 30
0.0
 11
441.6792422845
 21
471.6740992195
 31
0.0
  0
LINE
  5
2E8
330
1F
100
AcDbEntity
  8
0
  6
Continuous
 62
     8
370
    25
100
AcDbLine
 10
441.6792422845
 20
482.1883284646
 30
0.0
 11
441.7009830787
 21
482.1890873178
 31
0.0
  0
LINE
  5
2E9
330
1F
100
AcDbEntity
  8
0
  6
Continuous
 62
     8
370
    25
100
AcDbLine
 10
441.7009830787
 20
482.7733404278
 30
0.0
 11
441.6792422845
 21
482.7740992811
 31
0.0
  0
LINE
  5
2EA
330
1F
100
AcDbEntity
  8
0
  6
Continuous
 62
     8
370
    25
100
AcDbLine
 10
441.6792422845
 20
493.2883285261
 30
0.0
 11
441.7009830787
 21
493.289087554
 31
0.0
  0
LINE
  5
2EB
330
1F
100
AcDbEntity
  8
0
  6
Continuous
 62
     8
370
    25
100
AcDbLine
 10
441.7009830787
 20
493.873340664
 30
0.0
 11
441.6792422845
 21
493.8740996919
 31
0.0
  0
LINE
  5
2EC
330
1F
100
AcDbEntity
  8
0
  6
Continuous
 62
     8
370
    25
100
AcDbLine
 10
441.6792422845
 20
504.388329228
 30
0.0
 11
441.7009830787
 21
504.3890873245
 31
0.0
  0
LINE
  5
2ED
330
1F
100
AcDbEntity
  8
0
  6
Continuous
 62
     8
370
    25
100
AcDbLine
 10
441.7009830787
 20
504.9733395032
 30
0.0
 11
441.6792422845
 21
504.9740994624
 31
0.0
  0
LINE
  5
2EE
330
1F
100
AcDbEntity
  8
0
  6
Continuous
 62
     8
370
    25
100
AcDbLine
 10
441.6792422845
 20
515.4883289985
 30
0.0
 11
441.7009830787
 21
515.4890889577
 31
0.0
  0
LINE
  5
2EF
330
1F
100
AcDbEntity
  8
0
  6
Continuous
 62
     8
370
    25
100
AcDbLine
 10
441.7009830787
 20
516.0733411364
 30
0.0
 11
441.6792422845
 21
516.0741010956
 31
0.0
  0
LINE
  5
2F0
330
1F
100
AcDbEntity
  8
0
  6
Continuous
 62
     8
370
    25
100
AcDbLine
 10
441.6792422845
 20
526.6883285991
 30
0.0
 11
441.7009830787
 21
526.6890885584
 31
0.0
  0
LINE
  5
2F1
330
1F
100
AcDbEntity
  8
0
  6
Continuous
 62
     8
370
    25
100
AcDbLine
 10
441.7009830787
 20
527.273340737
 30
0.0
 11
441.6792422845
 21
527.2741006962
 31
0.0
  0
LINE
  5
2F2
330
1F
100
AcDbEntity
  8
0
  6
Continuous
 62
     8
370
    25
100
AcDbLine
 10
441.5792554929
 20
526.2918124251
 30
0.0
 11
441.4722651555
 21
526.2880759589
 31
0.0
  0
LINE
  5
2F3
330
1F
100
AcDbEntity
  8
0
  6
Continuous
 62
     8
370
    25
100
AcDbLine
 10
441.5792554929
 20
515.0918128244
 30
0.0
 11
441.4722651555
 21
515.0880763582
 31
0.0
  0
LINE
  5
2F4
330
1F
100
AcDbEntity
  8
0
  6
Continuous
 62
     8
370
    25
100
AcDbLine
 10
441.4722651555
 20
516.4743500106
 30
0.0
 11
441.5792554929
 21
516.4706172697
 31
0.0
  0
LINE
  5
2F5
330
1F
100
AcDbEntity
  8
0
  6
Continuous
 62
     8
370
    25
100
AcDbLine
 10
441.5792554929
 20
503.9918111912
 30
0.0
 11
441.4722651555
 21
503.9880765877
 31
0.0
  0
LINE
  5
2F6
330
1F
100
AcDbEntity
  8
0
  6
Continuous
 62
     8
370
    25
100
AcDbLine
 10
441.4722651555
 20
505.3743521027
 30
0.0
 11
441.5792554929
 21
505.3706156365
 31
0.0
  0
LINE
  5
2F7
330
1F
100
AcDbEntity
  8
0
  6
Continuous
 62
     8
370
    25
100
AcDbLine
 10
441.5792554929
 20
492.891812352
 30
0.0
 11
441.4722651555
 21
492.8880758859
 31
0.0
  0
LINE
  5
2F8
330
1F
100
AcDbEntity
  8
0
  6
Continuous
 62
     8
370
    25
100
AcDbLine
 10
441.4722651555
 20
494.2743514008
 30
0.0
 11
441.5792554929
 21
494.270615866
 31
0.0
  0
LINE
  5
2F9
330
1F
100
AcDbEntity
  8
0
  6
Continuous
 62
     8
370
    25
100
AcDbLine
 10
441.5792554929
 20
481.7918119412
 30
0.0
 11
441.4722651555
 21
481.7880761154
 31
0.0
  0
LINE
  5
2FA
330
1F
100
AcDbEntity
  8
0
  6
Continuous
 62
     8
370
    25
100
AcDbLine
 10
441.4722651555
 20
483.1743516303
 30
0.0
 11
441.5792554929
 21
483.1706158044
 31
0.0
  0
LINE
  5
2FB
330
1F
100
AcDbEntity
  8
0
  6
Continuous
 62
     8
370
    25
100
AcDbLine
 10
441.4722651555
 20
472.0743518598
 30
0.0
 11
441.5792554929
 21
472.0706153936
 31
0.0
  0
LINE
  5
2FC
330
1F
100
AcDbEntity
  8
0
  6
Continuous
 62
     8
370
    25
100
AcDbLine
 10
441.5792554929
 20
470.6918118797
 30
0.0
 11
441.4722651555
 21
470.6880763448
 31
0.0
  0
LINE
  5
2FD
330
1F
100
AcDbEntity
  8
0
  6
Continuous
 62
     8
370
    25
100
AcDbLine
 10
441.5792554929
 20
459.5918121092
 30
0.0
 11
441.4722651555
 21
459.588075643
 31
0.0
  0
LINE
  5
2FE
330
1F
100
AcDbEntity
  8
0
  6
Continuous
 62
     8
370
    25
100
AcDbLine
 10
441.4722651555
 20
460.9743511579
 30
0.0
 11
441.5792554929
 21
460.9706165544
 31
0.0
  0
LINE
  5
2FF
330
1F
100
AcDbEntity
  8
0
  6
Continuous
 62
     8
370
    25
100
AcDbLine
 10
441.4722651555
 20
449.8743513874
 30
0.0
 11
441.5792554929
 21
449.8706149213
 31
0.0
  0
LINE
  5
300
330
1F
100
AcDbEntity
  8
0
  6
Continuous
 62
     8
370
    25
100
AcDbLine
 10
441.5792554929
 20
448.491810476
 30
0.0
 11
441.4722651555
 21
448.4880777351
 31
0.0
  0
LINE
  5
301
330
1F
100
AcDbEntity
  8
0
  6
Continuous
 62
     8
370
    25
100
AcDbLine
 10
441.4722651555
 20
438.6743517868
 30
0.0
 11
441.5792554929
 21
438.6706153206
 31
0.0
  0
LINE
  5
302
330
1F
100
AcDbEntity
  8
0
  6
Continuous
 62
     8
370
    25
100
AcDbLine
 10
752.2792548253
 20
527.2741006962
 30
0.0
 11
752.2575140311
 21
527.273340737
 31
0.0
  0
LINE
  5
303
330
1F
100
AcDbEntity
  8
0
  6
Continuous
 62
     8
370
    25
100
AcDbLine
 10
752.2575140311
 20
526.6890885584
 30
0.0
 11
752.2792548253
 21
526.6883285991
 31
0.0
  0
LINE
  5
304
330
1F
100
AcDbEntity
  8
0
  6
Continuous
 62
     8
370
    25
100
AcDbLine
 10
752.2792548253
 20
516.0741010956
 30
0.0
 11
752.2575140311
 21
516.0733411364
 31
0.0
  0
LINE
  5
305
330
1F
100
AcDbEntity
  8
0
  6
Continuous
 62
     8
370
    25
100
AcDbLine
 10
752.2575140311
 20
515.4890889577
 30
0.0
 11
752.2792548253
 21
515.4883289985
 31
0.0
  0
LINE
  5
306
330
1F
100
AcDbEntity
  8
0
  6
Continuous
 62
     8
370
    25
100
AcDbLine
 10
752.2792548253
 20
504.9740994624
 30
0.0
 11
752.2575140311
 21
504.9733395032
 31
0.0
  0
LINE
  5
307
330
1F
100
AcDbEntity
  8
0
  6
Continuous
 62
     8
370
    25
100
AcDbLine
 10
752.2575140311
 20
504.3890873245
 30
0.0
 11
752.2792548253
 21
504.388329228
 31
0.0
  0
LINE
  5
308
330
1F
100
AcDbEntity
  8
0
  6
Continuous
 62
     8
370
    25
100
AcDbLine
 10
752.2792548253
 20
493.8740996919
 30
0.0
 11
752.2575140311
 21
493.873340664
 31
0.0
  0
LINE
  5
309
330
1F
100
AcDbEntity
  8
0
  6
Continuous
 62
     8
370
    25
100
AcDbLine
 10
752.2575140311
 20
493.289087554
 30
0.0
 11
752.2792548253
 21
493.2883285261
 31
0.0
  0
LINE
  5
30A
330
1F
100
AcDbEntity
  8
0
  6
Continuous
 62
     8
370
    25
100
AcDbLine
 10
752.2792548253
 20
482.7740992811
 30
0.0
 11
752.2575140311
 21
482.7733404278
 31
0.0
  0
LINE
  5
30B
330
1F
100
AcDbEntity
  8
0
  6
Continuous
 62
     8
370
    25
100
AcDbLine
 10
752.2575140311
 20
482.1890873178
 30
0.0
 11
752.2792548253
 21
482.1883284646
 31
0.0
  0
LINE
  5
30C
330
1F
100
AcDbEntity
  8
0
  6
Continuous
 62
     8
370
    25
100
AcDbLine
 10
752.2792548253
 20
471.6740992195
 30
0.0
 11
752.2575140311
 21
471.6733401916
 31
0.0
  0
LINE
  5
30D
330
1F
100
AcDbEntity
  8
0
  6
Continuous
 62
     8
370
    25
100
AcDbLine
 10
752.2575140311
 20
471.0890870817
 30
0.0
 11
752.2792548253
 21
471.0883280538
 31
0.0
  0
LINE
  5
30E
330
1F
100
AcDbEntity
  8
0
  6
Continuous
 62
     8
370
    25
100
AcDbLine
 10
752.2792548253
 20
460.5740985177
 30
0.0
 11
752.2575140311
 21
460.5733404211
 31
0.0
  0
LINE
  5
30F
330
1F
100
AcDbEntity
  8
0
  6
Continuous
 62
     8
370
    25
100
AcDbLine
 10
752.2575140311
 20
459.9890882425
 30
0.0
 11
752.2792548253
 21
459.9883282832
 31
0.0
  0
LINE
  5
310
330
1F
100
AcDbEntity
  8
0
  6
Continuous
 62
     8
370
    25
100
AcDbLine
 10
752.2792548253
 20
449.4740987472
 30
0.0
 11
752.2575140311
 21
449.473338788
 31
0.0
  0
LINE
  5
311
330
1F
100
AcDbEntity
  8
0
  6
Continuous
 62
     8
370
    25
100
AcDbLine
 10
752.2575140311
 20
448.8890866093
 30
0.0
 11
752.2792548253
 21
448.8883266501
 31
0.0
  0
LINE
  5
312
330
1F
100
AcDbEntity
  8
0
  6
Continuous
 62
     8
370
    25
100
AcDbLine
 10
752.2792548253
 20
438.2740991465
 30
0.0
 11
752.2575140311
 21
438.2733391873
 31
0.0
  0
LINE
  5
313
330
1F
100
AcDbEntity
  8
0
  6
Continuous
 62
     8
370
    25
100
AcDbLine
 10
752.2575140311
 20
437.6890870086
 30
0.0
 11
752.2792548253
 21
437.6883270494
 31
0.0
  0
LINE
  5
314
330
1F
100
AcDbEntity
  8
0
  6
Continuous
 62
     8
370
    25
100
AcDbLine
 10
752.4862319543
 20
526.2880759589
 30
0.0
 11
752.3792416169
 21
526.2918124251
 31
0.0
  0
LINE
  5
315
330
1F
100
AcDbEntity
  8
0
  6
Continuous
 62
     8
370
    25
100
AcDbLine
 10
752.3792416169
 20
516.4706172697
 30
0.0
 11
752.4862319543
 21
516.4743500106
 31
0.0
  0
LINE
  5
316
330
1F
100
AcDbEntity
  8
0
  6
Continuous
 62
     8
370
    25
100
AcDbLine
 10
752.4862319543
 20
515.0880763582
 30
0.0
 11
752.3792416169
 21
515.0918128244
 31
0.0
  0
LINE
  5
317
330
1F
100
AcDbEntity
  8
0
  6
Continuous
 62
     8
370
    25
100
AcDbLine
 10
752.3792416169
 20
505.3706156365
 30
0.0
 11
752.4862319543
 21
505.3743521027
 31
0.0
  0
LINE
  5
318
330
1F
100
AcDbEntity
  8
0
  6
Continuous
 62
     8
370
    25
100
AcDbLine
 10
752.4862319543
 20
503.9880765877
 30
0.0
 11
752.3792416169
 21
503.9918111912
 31
0.0
  0
LINE
  5
319
330
1F
100
AcDbEntity
  8
0
  6
Continuous
 62
     8
370
    25
100
AcDbLine
 10
752.3792416169
 20
494.270615866
 30
0.0
 11
752.4862319543
 21
494.2743514008
 31
0.0
  0
LINE
  5
31A
330
1F
100
AcDbEntity
  8
0
  6
Continuous
 62
     8
370
    25
100
AcDbLine
 10
752.4862319543
 20
492.8880758859
 30
0.0
 11
752.3792416169
 21
492.891812352
 31
0.0
  0
LINE
  5
31B
330
1F
100
AcDbEntity
  8
0
  6
Continuous
 62
     8
370
    25
100
AcDbLine
 10
752.3792416169
 20
483.1706158044
 30
0.0
 11
752.4862319543
 21
483.1743516303
 31
0.0
  0
LINE
  5
31C
330
1F
100
AcDbEntity
  8
0
  6
Continuous
 62
     8
370
    25
100
AcDbLine
 10
752.4862319543
 20
481.7880761154
 30
0.0
 11
752.3792416169
 21
481.7918119412
 31
0.0
  0
LINE
  5
31D
330
1F
100
AcDbEntity
  8
0
  6
Continuous
 62
     8
370
    25
100
AcDbLine
 10
752.3792416169
 20
472.0706153936
 30
0.0
 11
752.4862319543
 21
472.0743518598
 31
0.0
  0
LINE
  5
31E
330
1F
100
AcDbEntity
  8
0
  6
Continuous
 62
     8
370
    25
100
AcDbLine
 10
752.4862319543
 20
470.6880763448
 30
0.0
 11
752.3792416169
 21
470.6918118797
 31
0.0
  0
LINE
  5
31F
330
1F
100
AcDbEntity
  8
0
  6
Continuous
 62
     8
370
    25
100
AcDbLine
 10
752.3792416169
 20
460.9706165544
 30
0.0
 11
752.4862319543
 21
460.9743511579
 31
0.0
  0
LINE
  5
320
330
1F
100
AcDbEntity
  8
0
  6
Continuous
 62
     8
370
    25
100
AcDbLine
 10
752.4862319543
 20
459.588075643
 30
0.0
 11
752.3792416169
 21
459.5918121092
 31
0.0
  0
LINE
  5
321
330
1F
100
AcDbEntity
  8
0
  6
Continuous
 62
     8
370
    25
100
AcDbLine
 10
752.3792416169
 20
449.8706149213
 30
0.0
 11
752.4862319543
 21
449.8743513874
 31
0.0
  0
LINE
  5
322
330
1F
100
AcDbEntity
  8
0
  6
Continuous
 62
     8
370
    25
100
AcDbLine
 10
752.4862319543
 20
448.4880777351
 30
0.0
 11
752.3792416169
 21
448.491810476
 31
0.0
  0
LINE
  5
323
330
1F
100
AcDbEntity
  8
0
  6
Continuous
 62
     8
370
    25
100
AcDbLine
 10
752.3792416169
 20
438.6706153206
 30
0.0
 11
752.4862319543
 21
438.6743517868
 31
0.0
  0
LINE
  5
324
330
1F
100
AcDbEntity
  8
0
  6
Continuous
 62
     8
370
    25
100
AcDbLine
 10
756.6792548015
 20
532.4812146179
 30
0.0
 11
756.4838409736
 21
532.4825780741
 31
0.0
  0
LINE
  5
325
330
1F
100
AcDbEntity
  8
0
  6
Continuous
 62
     8
370
    25
100
AcDbLine
 10
752.6792466952
 20
533.1812152914
 30
0.0
 11
751.2024671151
 21
533.1812152914
 31
0.0
  0
LINE
  5
326
330
1F
100
AcDbEntity
  8
0
  6
Continuous
 62
     8
370
    25
100
AcDbLine
 10
442.7560299947
 20
533.1812152914
 30
0.0
 11
441.2792504146
 21
533.1812152914
 31
0.0
  0
LINE
  5
327
330
1F
100
AcDbEntity
  8
0
  6
Continuous
 62
     8
370
    25
100
AcDbLine
 10
441.2792504146
 20
431.7812124542
 30
0.0
 11
442.7560299947
 21
431.7812124542
 31
0.0
  0
LINE
  5
328
330
1F
100
AcDbEntity
  8
0
  6
Continuous
 62
     8
370
    25
100
AcDbLine
 10
751.2024671151
 20
431.7812124542
 30
0.0
 11
752.6792466952
 21
431.7812124542
 31
0.0
  0
LINE
  5
329
330
1F
100
AcDbEntity
  8
0
  6
Continuous
 62
     8
370
    25
100
AcDbLine
 10
441.2792504146
 20
531.2255384676
 30
0.0
 11
441.5792554929
 21
531.2255384676
 31
0.0
  0
LINE
  5
32A
330
1F
100
AcDbEntity
  8
0
  6
Continuous
 62
     8
370
    25
100
AcDbLine
 10
752.3792416169
 20
531.2255384676
 30
0.0
 11
752.6792466952
 21
531.2255384676
 31
0.0
  0
LINE
  5
32B
330
1F
100
AcDbEntity
  8
0
  6
Continuous
 62
     8
370
    25
100
AcDbLine
 10
752.6792466952
 20
433.7368892781
 30
0.0
 11
752.3792416169
 21
433.7368892781
 31
0.0
  0
LINE
  5
32C
330
1F
100
AcDbEntity
  8
0
  6
Continuous
 62
     8
370
    25
100
AcDbLine
 10
441.5792554929
 20
433.7368892781
 30
0.0
 11
441.2792504146
 21
433.7368892781
 31
0.0
  0
LINE
  5
32D
330
1F
100
AcDbEntity
  8
0
  6
Continuous
 62
     8
370
    25
100
AcDbLine
 10
441.2792504146
 20
528.9490917973
 30
0.0
 11
441.5792554929
 21
528.9490917973
 31
0.0
  0
LINE
  5
32E
330
1F
100
AcDbEntity
  8
0
  6
Continuous
 62
     8
370
    25
100
AcDbLine
 10
752.3792416169
 20
528.9490917973
 30
0.0
 11
752.6792466952
 21
528.9490917973
 31
0.0
  0
LINE
  5
32F
330
1F
100
AcDbEntity
  8
0
  6
Continuous
 62
     8
370
    25
100
AcDbLine
 10
752.6792466952
 20
436.0133359484
 30
0.0
 11
752.3792416169
 21
436.0133359484
 31
0.0
  0
LINE
  5
330
330
1F
100
AcDbEntity
  8
0
  6
Continuous
 62
     8
370
    25
100
AcDbLine
 10
441.5792554929
 20
436.0133359484
 30
0.0
 11
441.2792504146
 21
436.0133359484
 31
0.0
  0
LINE
  5
331
330
1F
100
AcDbEntity
  8
0
  6
Continuous
 62
     8
370
    25
100
AcDbLine
 10
752.6792466952
 20
530.049728816
 30
0.0
 11
752.3792416169
 21
530.049728816
 31
0.0
  0
ENDSEC
  0
SECTION
  2
OBJECTS
  0
DICTIONARY
  5
C
330
0
100
AcDbDictionary
281
     1
  3
ACAD_GROUP
350
D
  3
ACAD_LAYOUT
350
1A
  3
ACAD_MLINESTYLE
350
17
  3
ACAD_PLOTSETTINGS
350
19
  3
ACAD_PLOTSTYLENAME
350
E
  3
ACAD_SCALELIST
350
47
  0
DICTIONARY
  5
D
102
{ACAD_REACTORS
330
C
102
}
330
C
100
AcDbDictionary
281
     1
  0
DICTIONARY
  5
1A
102
{ACAD_REACTORS
330
C
102
}
330
C
100
AcDbDictionary
281
     1
  3
Layout1
350
1E
  3
Layout2
350
26
  3
Model
350
22
  0
DICTIONARY
  5
17
102
{ACAD_REACTORS
330
C
102
}
330
C
100
AcDbDictionary
281
     1
  3
Standard
350
18
  0
DICTIONARY
  5
19
102
{ACAD_REACTORS
330
C
102
}
330
C
100
AcDbDictionary
281
     1
  0
ACDBDICTIONARYWDFLT
  5
E
102
{ACAD_REACTORS
330
C
102
}
330
C
100
AcDbDictionary
281
     1
  3
Normal
350
F
100
AcDbDictionaryWithDefault
340
F
  0
DICTIONARY
  5
47
102
{ACAD_REACTORS
330
C
102
}
330
C
100
AcDbDictionary
281
     1
  3
A0
350
48
  3
A1
350
49
  3
A2
350
4A
  3
A3
350
4B
  3
A4
350
4C
  3
A5
350
4D
  3
A6
350
4E
  3
A7
350
4F
  3
A8
350
50
  3
A9
350
51
  3
B0
350
52
  3
B1
350
53
  3
B2
350
54
  3
B3
350
55
  3
B4
350
56
  3
B5
350
57
  3
B6
350
58
  3
B7
350
59
  3
B8
350
5A
  3
B9
350
5B
  3
C0
350
5C
  3
C1
350
5D
  3
C2
350
5E
  3
C3
350
5F
  3
C4
350
60
  3
C5
350
61
  3
C6
350
62
  3
C7
350
63
  3
C8
350
64
  3
C9
350
65
  3
D0
350
66
  3
D1
350
67
  3
D2
350
68
  0
LAYOUT
  5
1E
102
{ACAD_REACTORS
330
1A
102
}
330
1A
100
AcDbPlotSettings
  1

  2
none_device
  4

  6

 40
0.0
 41
0.0
 42
0.0
 43
0.0
 44
0.0
 45
0.0
 46
0.0
 47
0.0
 48
0.0
 49
0.0
140
0.0
141
0.0
142
1.0
143
1.0
 70
   688
 72
     1
 73
     0
 74
     5
  7

 75
    16
147
1.0
148
0.0
149
0.0
100
AcDbLayout
  1
Layout1
 70
     1
 71
     1
 10
0.0
 20
0.0
 11
420.0
 21
297.0
 12
0.0
 22
0.0
 32
0.0
 14
1.0000000000E+20
 24
1.0000000000E+20
 34
1.0000000000E+20
 15
-1.0000000000E+20
 25
-1.0000000000E+20
 35
-1.0000000000E+20
146
0.0
 13
0.0
 23
0.0
 33
0.0
 16
1.0
 26
0.0
 36
0.0
 17
0.0
 27
1.0
 37
0.0
 76
     0
330
1B
  0
LAYOUT
  5
26
102
{ACAD_REACTORS
330
1A
102
}
330
1A
100
AcDbPlotSettings
  1

  2
none_device
  4

  6

 40
0.0
 41
0.0
 42
0.0
 43
0.0
 44
0.0
 45
0.0
 46
0.0
 47
0.0
 48
0.0
 49
0.0
140
0.0
141
0.0
142
1.0
143
1.0
 70
   688
 72
     1
 73
     0
 74
     5
  7

 75
    16
147
1.0
148
0.0
149
0.0
100
AcDbLayout
  1
Layout2
 70
     1
 71
     2
 10
0.0
 20
0.0
 11
0.0
 21
0.0
 12
0.0
 22
0.0
 32
0.0
 14
0.0
 24
0.0
 34
0.0
 15
0.0
 25
0.0
 35
0.0
146
0.0
 13
0.0
 23
0.0
 33
0.0
 16
1.0
 26
0.0
 36
0.0
 17
0.0
 27
1.0
 37
0.0
 76
     0
330
23
  0
LAYOUT
  5
22
102
{ACAD_REACTORS
330
1A
102
}
330
1A
100
AcDbPlotSettings
  1

  2
none_device
  4
Letter_(8.50_x_11.00_Inches)
  6

 40
6.35
 41
6.35
 42
6.35000508
 43
6.35000508
 44
215.9
 45
279.4
 46
0.0
 47
0.0
 48
0.0
 49
0.0
140
0.0
141
0.0
142
1.0
143
1.0
 70
  1712
 72
     1
 73
     0
 74
     0
  7

 75
     0
147
1.0
148
0.0
149
0.0
100
AcDbLayout
  1
Model
 70
     1
 71
     0
 10
0.0
 20
0.0
 11
1189.0
 21
841.0
 12
0.0
 22
0.0
 32
0.0
 14
0.0
 24
0.0
 34
0.0
 15
1189.0
 25
841.0
 35
0.0
146
0.0
 13
0.0
 23
0.0
 33
0.0
 16
1.0
 26
0.0
 36
0.0
 17
0.0
 27
1.0
 37
0.0
 76
     0
330
1F
331
29
  0
MLINESTYLE
  5
18
102
{ACAD_REACTORS
330
17
102
}
330
17
100
AcDbMlineStyle
  2
Standard
 70
     0
  3

 62
   256
 51
90.0
 52
90.0
 71
     2
 49
0.5
 62
   256
  6
BYLAYER
 49
-0.5
 62
   256
  6
BYLAYER
  0
ACDBPLACEHOLDER
  5
F
102
{ACAD_REACTORS
330
E
102
}
330
E
  0
SCALE
  5
48
102
{ACAD_REACTORS
330
47
102
}
330
47
100
AcDbScale
 70
     0
300
1:1
140
1.0
141
1.0
290
     1
  0
SCALE
  5
49
102
{ACAD_REACTORS
330
47
102
}
330
47
100
AcDbScale
 70
     0
300
1:2
140
1.0
141
2.0
290
     0
  0
SCALE
  5
4A
102
{ACAD_REACTORS
330
47
102
}
330
47
100
AcDbScale
 70
     0
300
1:4
140
1.0
141
4.0
290
     0
  0
SCALE
  5
4B
102
{ACAD_REACTORS
330
47
102
}
330
47
100
AcDbScale
 70
     0
300
1:5
140
1.0
141
5.0
290
     0
  0
SCALE
  5
4C
102
{ACAD_REACTORS
330
47
102
}
330
47
100
AcDbScale
 70
     0
300
1:8
140
1.0
141
8.0
290
     0
  0
SCALE
  5
4D
102
{ACAD_REACTORS
330
47
102
}
330
47
100
AcDbScale
 70
     0
300
1:10
140
1.0
141
10.0
290
     0
  0
SCALE
  5
4E
102
{ACAD_REACTORS
330
47
102
}
330
47
100
AcDbScale
 70
     0
300
1:16
140
1.0
141
16.0
290
     0
  0
SCALE
  5
4F
102
{ACAD_REACTORS
330
47
102
}
330
47
100
AcDbScale
 70
     0
300
1:20
140
1.0
141
20.0
290
     0
  0
SCALE
  5
50
102
{ACAD_REACTORS
330
47
102
}
330
47
100
AcDbScale
 70
     0
300
1:30
140
1.0
141
30.0
290
     0
  0
SCALE
  5
51
102
{ACAD_REACTORS
330
47
102
}
330
47
100
AcDbScale
 70
     0
300
1:40
140
1.0
141
40.0
290
     0
  0
SCALE
  5
52
102
{ACAD_REACTORS
330
47
102
}
330
47
100
AcDbScale
 70
     0
300
1:50
140
1.0
141
50.0
290
     0
  0
SCALE
  5
53
102
{ACAD_REACTORS
330
47
102
}
330
47
100
AcDbScale
 70
     0
300
1:100
140
1.0
141
100.0
290
     0
  0
SCALE
  5
54
102
{ACAD_REACTORS
330
47
102
}
330
47
100
AcDbScale
 70
     0
300
2:1
140
2.0
141
1.0
290
     0
  0
SCALE
  5
55
102
{ACAD_REACTORS
330
47
102
}
330
47
100
AcDbScale
 70
     0
300
4:1
140
4.0
141
1.0
290
     0
  0
SCALE
  5
56
102
{ACAD_REACTORS
330
47
102
}
330
47
100
AcDbScale
 70
     0
300
8:1
140
8.0
141
1.0
290
     0
  0
SCALE
  5
57
102
{ACAD_REACTORS
330
47
102
}
330
47
100
AcDbScale
 70
     0
300
10:1
140
10.0
141
1.0
290
     0
  0
SCALE
  5
58
102
{ACAD_REACTORS
330
47
102
}
330
47
100
AcDbScale
 70
     0
300
100:1
140
100.0
141
1.0
290
     0
  0
SCALE
  5
59
102
{ACAD_REACTORS
330
47
102
}
330
47
100
AcDbScale
 70
     0
300
1/128" = 1'-0"
140
0.0078125
141
12.0
290
     0
  0
SCALE
  5
5A
102
{ACAD_REACTORS
330
47
102
}
330
47
100
AcDbScale
 70
     0
300
1/64" = 1'-0"
140
0.015625
141
12.0
290
     0
  0
SCALE
  5
5B
102
{ACAD_REACTORS
330
47
102
}
330
47
100
AcDbScale
 70
     0
300
1/32" = 1'-0"
140
0.03125
141
12.0
290
     0
  0
SCALE
  5
5C
102
{ACAD_REACTORS
330
47
102
}
330
47
100
AcDbScale
 70
     0
300
1/16" = 1'-0"
140
0.0625
141
12.0
290
     0
  0
SCALE
  5
5D
102
{ACAD_REACTORS
330
47
102
}
330
47
100
AcDbScale
 70
     0
300
3/32" = 1'-0"
140
0.09375
141
12.0
290
     0
  0
SCALE
  5
5E
102
{ACAD_REACTORS
330
47
102
}
330
47
100
AcDbScale
 70
     0
300
1/8" = 1'-0"
140
0.125
141
12.0
290
     0
  0
SCALE
  5
5F
102
{ACAD_REACTORS
330
47
102
}
330
47
100
AcDbScale
 70
     0
300
3/16" = 1'-0"
140
0.1875
141
12.0
290
     0
  0
SCALE
  5
60
102
{ACAD_REACTORS
330
47
102
}
330
47
100
AcDbScale
 70
     0
300
1/4" = 1'-0"
140
0.25
141
12.0
290
     0
  0
SCALE
  5
61
102
{ACAD_REACTORS
330
47
102
}
330
47
100
AcDbScale
 70
     0
300
3/8" = 1'-0"
140
0.375
141
12.0
290
     0
  0
SCALE
  5
62
102
{ACAD_REACTORS
330
47
102
}
330
47
100
AcDbScale
 70
     0
300
1/2" = 1'-0"
140
0.5
141
12.0
290
     0
  0
SCALE
  5
63
102
{ACAD_REACTORS
330
47
102
}
330
47
100
AcDbScale
 70
     0
300
3/4" = 1'-0"
140
0.75
141
12.0
290
     0
  0
SCALE
  5
64
102
{ACAD_REACTORS
330
47
102
}
330
47
100
AcDbScale
 70
     0
300
1" = 1'-0"
140
1.0
141
12.0
290
     0
  0
SCALE
  5
65
102
{ACAD_REACTORS
330
47
102
}
330
47
100
AcDbScale
 70
     0
300
1-1/2" = 1'-0"
140
1.5
141
12.0
290
     0
  0
SCALE
  5
66
102
{ACAD_REACTORS
330
47
102
}
330
47
100
AcDbScale
 70
     0
300
3" = 1'-0"
140
3.0
141
12.0
290
     0
  0
SCALE
  5
67
102
{ACAD_REACTORS
330
47
102
}
330
47
100
AcDbScale
 70
     0
300
6" = 1'-0"
140
6.0
141
12.0
290
     0
  0
SCALE
  5
68
102
{ACAD_REACTORS
330
47
102
}
330
47
100
AcDbScale
 70
     0
300
1'-0" = 1'-0"
140
12.0
141
12.0
290
     0
  0
ENDSEC
  0
EOF
