  0
SECTION
  2
HEADER
  9
$ACADVER
  1
AC1015
  9
$ACADMAINTVER
 70
     6
  9
$DWGCODEPAGE
  3
ANSI_1254
  9
$INSBASE
 10
0.0
 20
0.0
 30
0.0
  9
$EXTMIN
 10
0.0
 20
0.0
 30
0.0
  9
$EXTMAX
 10
1189.0
 20
841.0
 30
0.0
  9
$LIMMIN
 10
0.0
 20
0.0
  9
$LIMMAX
 10
1189.0
 20
841.0
  9
$ORTHOMODE
 70
     0
  9
$REGENMODE
 70
     1
  9
$FILLMODE
 70
     1
  9
$QTEXTMODE
 70
     0
  9
$MIRRTEXT
 70
     1
  9
$LTSCALE
 40
1.0
  9
$ATTMODE
 70
     1
  9
$TEXTSIZE
 40
4.9388888889
  9
$TRACEWID
 40
1.0
  9
$TEXTSTYLE
  7
Standard
  9
$CLAYER
  8
0
  9
$CELTYPE
  6
ByLayer
  9
$CECOLOR
 62
   256
  9
$CELTSCALE
 40
1.0
  9
$DISPSILH
 70
     0
  9
$DIMSCALE
 40
1.0
  9
$DIMASZ
 40
3.65
  9
$DIMEXO
 40
0.5
  9
$DIMDLI
 40
3.75
  9
$DIMRND
 40
0.0
  9
$DIMDLE
 40
0.0
  9
$DIMEXE
 40
1.0
  9
$DIMTP
 40
0.0
  9
$DIMTM
 40
0.0
  9
$DIMTXT
 40
4.2333333333
  9
$DIMCEN
 40
2.5
  9
$DIMTSZ
 40
0.0
  9
$DIMTOL
 70
     0
  9
$DIMLIM
 70
     0
  9
$DIMTIH
 70
     1
  9
$DIMTOH
 70
     1
  9
$DIMSE1
 70
     0
  9
$DIMSE2
 70
     0
  9
$DIMTAD
 70
     1
  9
$DIMZIN
 70
     0
  9
$DIMBLK
  1

  9
$DIMASO
 70
     1
  9
$DIMSHO
 70
     1
  9
$DIMPOST
  1

  9
$DIMAPOST
  1

  9
$DIMALT
 70
     0
  9
$DIMALTD
 70
     3
  9
$DIMALTF
 40
0.0393700787
  9
$DIMLFAC
 40
1.0
  9
$DIMTOFL
 70
     1
  9
$DIMTVP
 40
0.0
  9
$DIMTIX
 70
     0
  9
$DIMSOXD
 70
     0
  9
$DIMSAH
 70
     0
  9
$DIMBLK1
  1

  9
$DIMBLK2
  1

  9
$DIMSTYLE
  2
ISO-25
  9
$DIMCLRD
 70
     0
  9
$DIMCLRE
 70
     0
  9
$DIMCLRT
 70
     0
  9
$DIMTFAC
 40
1.0
  9
$DIMGAP
 40
1.524
  9
$DIMJUST
 70
     0
  9
$DIMSD1
 70
     0
  9
$DIMSD2
 70
     0
  9
$DIMTOLJ
 70
     0
  9
$DIMTZIN
 70
     0
  9
$DIMALTZ
 70
     0
  9
$DIMALTTZ
 70
     0
  9
$DIMUPT
 70
     0
  9
$DIMDEC
 70
     2
  9
$DIMTDEC
 70
     2
  9
$DIMALTU
 70
     2
  9
$DIMALTTD
 70
     3
  9
$DIMTXSTY
  7
Standard
  9
$DIMAUNIT
 70
     0
  9
$DIMADEC
 70
     2
  9
$DIMALTRND
 40
0.0
  9
$DIMAZIN
 70
     0
  9
$DIMDSEP
 70
    44
  9
$DIMATFIT
 70
     3
  9
$DIMFRAC
 70
     0
  9
$DIMLDRBLK
  1

  9
$DIMLUNIT
 70
     2
  9
$DIMLWD
 70
    -2
  9
$DIMLWE
 70
    -2
  9
$DIMTMOVE
 70
     0
  9
$LUNITS
 70
     2
  9
$LUPREC
 70
     2
  9
$SKETCHINC
 40
1.0
  9
$FILLETRAD
 40
10.0
  9
$AUNITS
 70
     0
  9
$AUPREC
 70
     2
  9
$MENU
  1
.
  9
$ELEVATION
 40
0.0
  9
$PELEVATION
 40
0.0
  9
$THICKNESS
 40
0.0
  9
$LIMCHECK
 70
     0
  9
$CHAMFERA
 40
0.0
  9
$CHAMFERB
 40
0.0
  9
$CHAMFERC
 40
0.0
  9
$CHAMFERD
 40
0.0
  9
$SKPOLY
 70
     0
  9
$TDCREATE
 40
2459079.721751979
  9
$TDUCREATE
 40
2459079.596751979
  9
$TDUPDATE
 40
2459079.721752754
  9
$TDUUPDATE
 40
2459079.596752754
  9
$TDINDWG
 40
0.0000000116
  9
$TDUSRTIMER
 40
0.0000000116
  9
$USRTIMER
 70
     1
  9
$ANGBASE
 50
0.0
  9
$ANGDIR
 70
     0
  9
$PDMODE
 70
     0
  9
$PDSIZE
 40
-1.0
  9
$PLINEWID
 40
0.0
  9
$SPLFRAME
 70
     0
  9
$SPLINETYPE
 70
     6
  9
$SPLINESEGS
 70
     8
  9
$HANDSEED
  5
32B
  9
$SURFTAB1
 70
     6
  9
$SURFTAB2
 70
     6
  9
$SURFTYPE
 70
     6
  9
$SURFU
 70
     6
  9
$SURFV
 70
     6
  9
$UCSBASE
  2

  9
$UCSNAME
  2

  9
$UCSORG
 10
0.0
 20
0.0
 30
0.0
  9
$UCSXDIR
 10
1.0
 20
0.0
 30
0.0
  9
$UCSYDIR
 10
0.0
 20
1.0
 30
0.0
  9
$UCSORTHOREF
  2

  9
$UCSORTHOVIEW
 70
     0
  9
$UCSORGTOP
 10
0.0
 20
0.0
 30
0.0
  9
$UCSORGBOTTOM
 10
0.0
 20
0.0
 30
0.0
  9
$UCSORGLEFT
 10
0.0
 20
0.0
 30
0.0
  9
$UCSORGRIGHT
 10
0.0
 20
0.0
 30
0.0
  9
$UCSORGFRONT
 10
0.0
 20
0.0
 30
0.0
  9
$UCSORGBACK
 10
0.0
 20
0.0
 30
0.0
  9
$PUCSBASE
  2

  9
$PUCSNAME
  2

  9
$PUCSORG
 10
0.0
 20
0.0
 30
0.0
  9
$PUCSXDIR
 10
1.0
 20
0.0
 30
0.0
  9
$PUCSYDIR
 10
0.0
 20
1.0
 30
0.0
  9
$PUCSORTHOREF
  2

  9
$PUCSORTHOVIEW
 70
     0
  9
$PUCSORGTOP
 10
0.0
 20
0.0
 30
0.0
  9
$PUCSORGBOTTOM
 10
0.0
 20
0.0
 30
0.0
  9
$PUCSORGLEFT
 10
0.0
 20
0.0
 30
0.0
  9
$PUCSORGRIGHT
 10
0.0
 20
0.0
 30
0.0
  9
$PUCSORGFRONT
 10
0.0
 20
0.0
 30
0.0
  9
$PUCSORGBACK
 10
0.0
 20
0.0
 30
0.0
  9
$USERI1
 70
     0
  9
$USERI2
 70
     0
  9
$USERI3
 70
     0
  9
$USERI4
 70
     0
  9
$USERI5
 70
     0
  9
$USERR1
 40
0.0
  9
$USERR2
 40
0.0
  9
$USERR3
 40
0.0
  9
$USERR4
 40
0.0
  9
$USERR5
 40
0.0
  9
$WORLDVIEW
 70
     1
  9
$SHADEDGE
 70
     3
  9
$SHADEDIF
 70
    70
  9
$TILEMODE
 70
     1
  9
$MAXACTVP
 70
    64
  9
$PINSBASE
 10
0.0
 20
0.0
 30
0.0
  9
$PLIMCHECK
 70
     0
  9
$PEXTMIN
 10
1.0000000000E+20
 20
1.0000000000E+20
 30
1.0000000000E+20
  9
$PEXTMAX
 10
-1.0000000000E+20
 20
-1.0000000000E+20
 30
-1.0000000000E+20
  9
$PLIMMIN
 10
0.0
 20
0.0
  9
$PLIMMAX
 10
420.0
 20
297.0
  9
$UNITMODE
 70
     0
  9
$VISRETAIN
 70
     1
  9
$PLINEGEN
 70
     0
  9
$PSLTSCALE
 70
     1
  9
$TREEDEPTH
 70
  3020
  9
$CMLSTYLE
  2
Standard
  9
$CMLJUST
 70
     0
  9
$CMLSCALE
 40
20.0
  9
$PROXYGRAPHICS
 70
     1
  9
$MEASUREMENT
 70
     1
  9
$CELWEIGHT
370
    -1
  9
$ENDCAPS
280
     0
  9
$JOINSTYLE
280
     0
  9
$LWDISPLAY
290
     1
  9
$INSUNITS
 70
     4
  9
$HYPERLINKBASE
  1

  9
$STYLESHEET
  1

  9
$XEDIT
290
     1
  9
$CEPSNTYPE
380
     0
  9
$PSTYLEMODE
290
     1
  9
$FINGERPRINTGUID
  2
{db0b36ee-b5e5-46d3-9871-d8d70ee7a750}
  9
$VERSIONGUID
  2
{FAEB1C32-E019-11D5-929B-00C0DF256EC4}
  9
$EXTNAMES
290
     1
  9
$PSVPSCALE
 40
0.0
  9
$OLESTARTUP
290
     0
  0
ENDSEC
  0
SECTION
  2
CLASSES
  0
CLASS
  1
ACDBDICTIONARYWDFLT
  2
AcDbDictionaryWithDefault
  3
ObjectDBX Classes
 90
        0
280
     0
281
     0
  0
CLASS
  1
VISUALSTYLE
  2
AcDbVisualStyle
  3
ObjectDBX Classes
 90
     4095
280
     0
281
     0
  0
CLASS
  1
MATERIAL
  2
AcDbMaterial
  3
ObjectDBX Classes
 90
     1153
280
     0
281
     0
  0
CLASS
  1
SCALE
  2
AcDbScale
  3
ObjectDBX Classes
 90
     1153
280
     0
281
     0
  0
CLASS
  1
TABLESTYLE
  2
AcDbTableStyle
  3
ObjectDBX Classes
 90
     4095
280
     0
281
     0
  0
CLASS
  1
MLEADERSTYLE
  2
AcDbMLeaderStyle
  3
ACDB_MLEADERSTYLE_CLASS
 90
     4095
280
     0
281
     0
  0
CLASS
  1
SUN
  2
AcDbSun
  3
SCENEOE
 90
     1153
280
     0
281
     0
  0
CLASS
  1
ACDBPLACEHOLDER
  2
AcDbPlaceHolder
  3
ObjectDBX Classes
 90
        0
280
     0
281
     0
  0
CLASS
  1
LAYOUT
  2
AcDbLayout
  3
ObjectDBX Classes
 90
        0
280
     0
281
     0
  0
ENDSEC
  0
SECTION
  2
TABLES
  0
TABLE
  2
VPORT
  5
8
330
0
100
AcDbSymbolTable
 70
     1
  0
VPORT
  5
29
330
8
100
AcDbSymbolTableRecord
100
AcDbViewportTableRecord
  2
*Active
 70
     0
 10
0.0
 20
0.0
 11
1.0
 21
1.0
 12
594.5
 22
420.5
 13
0.0
 23
0.0
 14
10.0
 24
10.0
 15
10.0
 25
10.0
 16
0.0
 26
0.0
 36
1.0
 17
0.0
 27
0.0
 37
0.0
 40
841.0
 41
1.4137931034
 42
50.0
 43
0.0
 44
0.0
 50
0.0
 51
0.0
 71
     0
 72
  2000
 73
     1
 74
     3
 75
     0
 76
     0
 77
     0
 78
     0
281
     0
 65
     1
110
0.0
120
0.0
130
0.0
111
1.0
121
0.0
131
0.0
112
0.0
122
1.0
132
0.0
 79
     0
146
0.0
  0
ENDTAB
  0
TABLE
  2
LTYPE
  5
5
330
0
100
AcDbSymbolTable
 70
     6
  0
LTYPE
  5
14
330
5
100
AcDbSymbolTableRecord
100
AcDbLinetypeTableRecord
  2
ByBlock
 70
     0
  3

 72
    65
 73
     0
 40
0.0
  0
LTYPE
  5
15
330
5
100
AcDbSymbolTableRecord
100
AcDbLinetypeTableRecord
  2
ByLayer
 70
     0
  3

 72
    65
 73
     0
 40
0.0
  0
LTYPE
  5
16
330
5
100
AcDbSymbolTableRecord
100
AcDbLinetypeTableRecord
  2
Continuous
 70
     0
  3
Solid line
 72
    65
 73
     0
 40
0.0
  0
LTYPE
  5
6E
330
5
100
AcDbSymbolTableRecord
100
AcDbLinetypeTableRecord
  2
HIDDEN
 70
     0
  3
Hidden __ __ __ __ __ __ __ __ __ __ __ __ __ __
 72
    65
 73
     2
 40
1.905
 49
1.27
 74
     0
 49
-0.635
 74
     0
  0
LTYPE
  5
6F
330
5
100
AcDbSymbolTableRecord
100
AcDbLinetypeTableRecord
  2
PHANTOM
 70
     0
  3
Phantom ______  __  __  ______  __  __  ______
 72
    65
 73
     6
 40
12.7
 49
6.35
 74
     0
 49
-1.27
 74
     0
 49
1.27
 74
     0
 49
-1.27
 74
     0
 49
1.27
 74
     0
 49
-1.27
 74
     0
  0
LTYPE
  5
70
330
5
100
AcDbSymbolTableRecord
100
AcDbLinetypeTableRecord
  2
CENTER
 70
     0
  3
Center ____ _ ____ _ ____ _ ____ _ ____ _ ____
 72
    65
 73
     4
 40
10.16
 49
6.35
 74
     0
 49
-1.27
 74
     0
 49
1.27
 74
     0
 49
-1.27
 74
     0
  0
LTYPE
  5
71
330
5
100
AcDbSymbolTableRecord
100
AcDbLinetypeTableRecord
  2
CENTERX2
 70
     0
  3
Center (2x) ________  __  ________  __  _____
 72
    65
 73
     4
 40
20.32
 49
12.7
 74
     0
 49
-2.54
 74
     0
 49
2.54
 74
     0
 49
-2.54
 74
     0
  0
LTYPE
  5
72
330
5
100
AcDbSymbolTableRecord
100
AcDbLinetypeTableRecord
  2
DOT2
 70
     0
  3
Dot (.5x) ........................................
 72
    65
 73
     2
 40
0.635
 49
0.0
 74
     0
 49
-0.635
 74
     0
  0
ENDTAB
  0
TABLE
  2
LAYER
  5
2
330
0
100
AcDbSymbolTable
 70
     5
  0
LAYER
  5
10
330
2
100
AcDbSymbolTableRecord
100
AcDbLayerTableRecord
  2
0
 70
     0
 62
     7
  6
Continuous
370
    -3
390
F
  0
LAYER
  5
73
330
2
100
AcDbSymbolTableRecord
100
AcDbLayerTableRecord
  2
FORMAT
 70
     0
 62
     7
  6
Continuous
370
    -3
390
F
  0
LAYER
  5
74
330
2
100
AcDbSymbolTableRecord
100
AcDbLayerTableRecord
  2
SLD-0
 70
     0
 62
   179
  6
Continuous
370
    -3
390
F
  0
LAYER
  5
75
330
2
100
AcDbSymbolTableRecord
100
AcDbLayerTableRecord
  2
AAA_EKSEN
 70
     0
 62
     1
  6
CENTER
370
    -3
390
F
  0
LAYER
  5
76
330
2
100
AcDbSymbolTableRecord
100
AcDbLayerTableRecord
  2
03
 70
     0
 62
     3
  6
HIDDEN
370
    -3
390
F
  0
ENDTAB
  0
TABLE
  2
STYLE
  5
3
330
0
100
AcDbSymbolTable
 70
     1
  0
STYLE
  5
11
330
3
100
AcDbSymbolTableRecord
100
AcDbTextStyleTableRecord
  2
Standard
 70
     0
 40
0.0
 41
1.0
 50
0.0
 71
     0
 42
4.9388888889
  3
txt
  4

  0
ENDTAB
  0
TABLE
  2
VIEW
  5
6
330
0
100
AcDbSymbolTable
 70
     0
  0
ENDTAB
  0
TABLE
  2
UCS
  5
7
330
0
100
AcDbSymbolTable
 70
     0
  0
ENDTAB
  0
TABLE
  2
APPID
  5
9
330
0
100
AcDbSymbolTable
 70
     1
  0
APPID
  5
12
330
9
100
AcDbSymbolTableRecord
100
AcDbRegAppTableRecord
  2
ACAD
 70
     0
  0
ENDTAB
  0
TABLE
  2
DIMSTYLE
  5
A
330
0
100
AcDbSymbolTable
 70
     1
100
AcDbDimStyleTable
  0
DIMSTYLE
105
27
330
A
100
AcDbSymbolTableRecord
100
AcDbDimStyleTableRecord
  2
ISO-25
 70
     0
 41
2.5
 42
0.625
 43
3.75
 44
1.25
 73
     0
 74
     0
 77
     1
 78
     8
140
2.5
141
2.5
143
0.0393700787
147
0.625
171
     3
172
     1
178
     0
271
     2
272
     2
274
     3
278
    44
283
     0
284
     8
340
11
  0
ENDTAB
  0
TABLE
  2
BLOCK_RECORD
  5
1
330
0
100
AcDbSymbolTable
 70
     1
  0
BLOCK_RECORD
  5
1F
330
1
100
AcDbSymbolTableRecord
100
AcDbBlockTableRecord
  2
*Model_Space
340
22
  0
BLOCK_RECORD
  5
1B
330
1
100
AcDbSymbolTableRecord
100
AcDbBlockTableRecord
  2
*Paper_Space
340
1E
  0
BLOCK_RECORD
  5
23
330
1
100
AcDbSymbolTableRecord
100
AcDbBlockTableRecord
  2
*Paper_Space0
340
26
  0
ENDTAB
  0
ENDSEC
  0
SECTION
  2
BLOCKS
  0
BLOCK
  5
20
330
1F
100
AcDbEntity
  8
0
100
AcDbBlockBegin
  2
*Model_Space
 70
     0
 10
0.0
 20
0.0
 30
0.0
  3
*Model_Space
  1

  0
ENDBLK
  5
21
330
1F
100
AcDbEntity
  8
0
100
AcDbBlockEnd
  0
BLOCK
  5
1C
330
1B
100
AcDbEntity
 67
     1
  8
0
100
AcDbBlockBegin
  2
*Paper_Space
 70
     0
 10
0.0
 20
0.0
 30
0.0
  3
*Paper_Space
  1

  0
ENDBLK
  5
1D
330
1B
100
AcDbEntity
 67
     1
  8
0
100
AcDbBlockEnd
  0
BLOCK
  5
24
330
23
100
AcDbEntity
  8
0
100
AcDbBlockBegin
  2
*Paper_Space0
 70
     0
 10
0.0
 20
0.0
 30
0.0
  3
*Paper_Space0
  1

  0
ENDBLK
  5
25
330
23
100
AcDbEntity
  8
0
100
AcDbBlockEnd
  0
ENDSEC
  0
SECTION
  2
ENTITIES
  0
LINE
  5
77
330
1F
100
AcDbEntity
  8
0
  6
Continuous
 62
     7
370
    25
100
AcDbLine
 10
865.3778776315
 20
695.9640032921
 30
0.0
 11
865.8105775502
 21
695.5313070986
 31
0.0
  0
LINE
  5
78
330
1F
100
AcDbEntity
  8
0
  6
Continuous
 62
     7
370
    25
100
AcDbLine
 10
866.102580705
 20
703.5313084099
 30
0.0
 11
866.002564111
 21
703.5313084099
 31
0.0
  0
LINE
  5
79
330
1F
100
AcDbEntity
  8
0
  6
Continuous
 62
     7
370
    25
100
AcDbLine
 10
865.8105775502
 20
695.5313070986
 30
0.0
 11
866.102580705
 21
695.5313070986
 31
0.0
  0
LINE
  5
7A
330
1F
100
AcDbEntity
  8
0
  6
Continuous
 62
     7
370
    25
100
AcDbLine
 10
226.7025753644
 20
695.5313070986
 30
0.0
 11
226.9945785191
 21
695.5313070986
 31
0.0
  0
LINE
  5
7B
330
1F
100
AcDbEntity
  8
0
  6
Continuous
 62
     7
370
    25
100
AcDbLine
 10
226.8025919583
 20
703.5313084099
 30
0.0
 11
226.7025753644
 21
703.5313084099
 31
0.0
  0
LINE
  5
7C
330
1F
100
AcDbEntity
  8
0
  6
Continuous
 62
     7
370
    25
100
AcDbLine
 10
226.9945785191
 20
695.5313070986
 30
0.0
 11
227.4272784379
 21
695.9640032921
 31
0.0
  0
LINE
  5
7D
330
1F
100
AcDbEntity
  8
0
  6
Continuous
 62
     7
370
    25
100
AcDbLine
 10
865.8105775502
 20
586.6323209677
 30
0.0
 11
865.8105775502
 21
581.3265315566
 31
0.0
  0
LINE
  5
7E
330
1F
100
AcDbEntity
  8
0
  6
Continuous
 62
     7
370
    25
100
AcDbLine
 10
866.102580705
 20
587.3160234961
 30
0.0
 11
866.102580705
 21
580.8217025671
 31
0.0
  0
LINE
  5
7F
330
1F
100
AcDbEntity
  8
0
  6
Continuous
 62
     7
370
    25
100
AcDbLine
 10
865.8105775502
 20
695.6417917583
 30
0.0
 11
865.8105775502
 21
695.5313070986
 31
0.0
  0
LINE
  5
80
330
1F
100
AcDbEntity
  8
0
  6
Continuous
 62
     7
370
    25
100
AcDbLine
 10
865.8105775502
 20
700.1382171485
 30
0.0
 11
865.8105775502
 21
695.6417917583
 31
0.0
  0
LINE
  5
81
330
1F
100
AcDbEntity
  8
0
  6
Continuous
 62
     7
370
    25
100
AcDbLine
 10
866.102580705
 20
695.6417917583
 30
0.0
 11
866.102580705
 21
695.5313070986
 31
0.0
  0
LINE
  5
82
330
1F
100
AcDbEntity
  8
0
  6
Continuous
 62
     7
370
    25
100
AcDbLine
 10
866.102580705
 20
703.5313084099
 30
0.0
 11
866.102580705
 21
703.2813079033
 31
0.0
  0
LINE
  5
83
330
1F
100
AcDbEntity
  8
0
  6
Continuous
 62
     7
370
    25
100
AcDbLine
 10
866.102580705
 20
700.4441007349
 30
0.0
 11
866.102580705
 21
695.6417917583
 31
0.0
  0
LINE
  5
84
330
1F
100
AcDbEntity
  8
0
  6
Continuous
 62
     7
370
    25
100
AcDbLine
 10
226.9945785191
 20
581.3229627285
 30
0.0
 11
226.9945785191
 21
586.6373799119
 31
0.0
  0
LINE
  5
85
330
1F
100
AcDbEntity
  8
0
  6
Continuous
 62
     7
370
    25
100
AcDbLine
 10
226.7025753644
 20
580.7813129697
 30
0.0
 11
226.7025753644
 21
587.2687793646
 31
0.0
  0
LINE
  5
86
330
1F
100
AcDbEntity
  8
0
  6
Continuous
 62
     7
370
    25
100
AcDbLine
 10
226.7025753644
 20
695.5928563449
 30
0.0
 11
226.7025753644
 21
700.4441007349
 31
0.0
  0
LINE
  5
87
330
1F
100
AcDbEntity
  8
0
  6
Continuous
 62
     7
370
    25
100
AcDbLine
 10
226.7025753644
 20
703.2813079033
 30
0.0
 11
226.7025753644
 21
703.5313084099
 31
0.0
  0
LINE
  5
88
330
1F
100
AcDbEntity
  8
0
  6
Continuous
 62
     7
370
    25
100
AcDbLine
 10
226.7025753644
 20
695.5313070986
 30
0.0
 11
226.7025753644
 21
695.5928563449
 31
0.0
  0
LINE
  5
89
330
1F
100
AcDbEntity
  8
0
  6
Continuous
 62
     7
370
    25
100
AcDbLine
 10
226.9945785191
 20
695.5313070986
 30
0.0
 11
226.9945785191
 21
700.1677810523
 31
0.0
  0
LINE
  5
8A
330
1F
100
AcDbEntity
  8
0
  6
Continuous
 62
     7
370
    25
100
AcDbLine
 10
866.102580705
 20
700.7813102875
 30
0.0
 11
862.1025725987
 21
700.6856969867
 31
0.0
  0
LINE
  5
8B
330
1F
100
AcDbEntity
  8
0
  6
Continuous
 62
     7
370
    25
100
AcDbLine
 10
862.1025725987
 20
703.2951399062
 30
0.0
 11
862.1025725987
 21
700.6856969867
 31
0.0
  0
LINE
  5
8C
330
1F
100
AcDbEntity
  8
0
  6
Continuous
 62
     7
370
    25
100
AcDbLine
 10
866.102580705
 20
703.2813079033
 30
0.0
 11
862.1025725987
 21
703.2951399062
 31
0.0
  0
LINE
  5
8D
330
1F
100
AcDbEntity
  8
0
  6
Continuous
 62
     7
370
    25
100
AcDbLine
 10
866.102580705
 20
703.2813079033
 30
0.0
 11
866.102580705
 21
700.7813102875
 31
0.0
  0
LINE
  5
8E
330
1F
100
AcDbEntity
  8
0
  6
Continuous
 62
     7
370
    25
100
AcDbLine
 10
863.0600914147
 20
710.8875534806
 30
0.0
 11
866.102580705
 21
703.2813079033
 31
0.0
  0
LINE
  5
8F
330
1F
100
AcDbEntity
  8
0
  6
Continuous
 62
     7
370
    25
100
AcDbLine
 10
863.0600914147
 20
710.8875534806
 30
0.0
 11
862.1025725987
 21
710.9209916863
 31
0.0
  0
LINE
  5
90
330
1F
100
AcDbEntity
  8
0
  6
Continuous
 62
     7
370
    25
100
AcDbLine
 10
862.1025725987
 20
710.9209916863
 30
0.0
 11
862.1025725987
 21
703.2951399062
 31
0.0
  0
LINE
  5
91
330
1F
100
AcDbEntity
  8
0
  6
Continuous
 62
     7
370
    25
100
AcDbLine
 10
866.102580705
 20
700.7813102875
 30
0.0
 11
866.102580705
 21
700.4441007349
 31
0.0
  0
SPLINE
  5
92
330
1F
100
AcDbEntity
  8
0
  6
Continuous
 62
     7
370
    25
100
AcDbSpline
210
0.0
220
0.0
230
1.0
 70
     8
 71
     3
 72
    10
 73
     6
 74
     0
 42
0.000000001
 43
0.00000001
 40
0.0
 40
0.0
 40
0.0
 40
0.0
 40
0.2414699034715333
 40
0.5468016579650403
 40
0.9999999999999999
 40
0.9999999999999999
 40
0.9999999999999999
 40
0.9999999999999999
 10
865.3778776314693
 20
699.1398281726695
 30
0.0
 10
865.3906918969741
 20
699.2741918907852
 30
0.0
 10
865.4197094330017
 20
699.5784546696233
 30
0.0
 10
865.674024885849
 20
700.0534978461048
 30
0.0
 10
865.9422966177824
 20
700.2980114165875
 30
0.0
 10
866.1025807049709
 20
700.4441007349349
 30
0.0
  0
LINE
  5
93
330
1F
100
AcDbEntity
  8
0
  6
Continuous
 62
     7
370
    25
100
AcDbLine
 10
865.3778776315
 20
699.1398281727
 30
0.0
 11
862.1025725987
 21
699.1279668484
 31
0.0
  0
LINE
  5
94
330
1F
100
AcDbEntity
  8
0
  6
Continuous
 62
     7
370
    25
100
AcDbLine
 10
862.1025725987
 20
700.6856969867
 30
0.0
 11
862.1025725987
 21
699.1279668484
 31
0.0
  0
SPLINE
  5
95
330
1F
100
AcDbEntity
  8
0
  6
Continuous
 62
     7
370
    25
100
AcDbSpline
210
0.0
220
0.0
230
1.0
 70
     8
 71
     3
 72
    11
 73
     7
 74
     0
 42
0.000000001
 43
0.00000001
 40
0.0
 40
0.0
 40
0.0
 40
0.0
 40
0.2646235809292836
 40
0.6067946221178842
 40
0.8652421963088276
 40
1.0
 40
1.0
 40
1.0
 40
1.0
 10
866.1025807049709
 20
695.1018817100382
 30
0.0
 10
866.0075769868607
 20
695.184731857243
 30
0.0
 10
865.7897288834224
 20
695.3747112369681
 30
0.0
 10
865.531467246935
 20
695.5995004360739
 30
0.0
 10
865.3932444642509
 20
695.739686694068
 30
0.0
 10
865.3817998758749
 20
695.7758585836456
 30
0.0
 10
865.3778776314693
 20
695.788255271659
 30
0.0
  0
LINE
  5
96
330
1F
100
AcDbEntity
  8
0
  6
Continuous
 62
     7
370
    25
100
AcDbLine
 10
865.3778776315
 20
695.7882552717
 30
0.0
 11
865.3778776315
 21
699.1398281727
 31
0.0
  0
LINE
  5
97
330
1F
100
AcDbEntity
  8
0
  6
Continuous
 62
     7
370
    25
100
AcDbLine
 10
866.102580705
 20
695.10188171
 30
0.0
 11
866.102580705
 21
695.5313070986
 31
0.0
  0
LINE
  5
98
330
1F
100
AcDbEntity
  8
0
  6
Continuous
 62
     7
370
    25
100
AcDbLine
 10
866.102580705
 20
648.455543521
 30
0.0
 11
862.1025725987
 21
648.5924044002
 31
0.0
  0
LINE
  5
99
330
1F
100
AcDbEntity
  8
0
  6
Continuous
 62
     7
370
    25
100
AcDbLine
 10
866.102580705
 20
648.455543521
 30
0.0
 11
866.102580705
 21
641.1070742953
 31
0.0
  0
LINE
  5
9A
330
1F
100
AcDbEntity
  8
0
  6
Continuous
 62
     7
370
    25
100
AcDbLine
 10
866.102580705
 20
641.1070742953
 30
0.0
 11
862.1025725987
 21
640.970213649
 31
0.0
  0
LINE
  5
9B
330
1F
100
AcDbEntity
  8
0
  6
Continuous
 62
     7
370
    25
100
AcDbLine
 10
862.1025725987
 20
648.5924044002
 30
0.0
 11
862.1025725987
 21
640.970213649
 31
0.0
  0
LINE
  5
9C
330
1F
100
AcDbEntity
  8
0
  6
Continuous
 62
     7
370
    25
100
AcDbLine
 10
865.3778776315
 20
695.7882552717
 30
0.0
 11
862.1025725987
 21
695.674857435
 31
0.0
  0
LINE
  5
9D
330
1F
100
AcDbEntity
  8
0
  6
Continuous
 62
     7
370
    25
100
AcDbLine
 10
862.1025725987
 20
699.1279668484
 30
0.0
 11
862.1025725987
 21
695.674857435
 31
0.0
  0
LINE
  5
9E
330
1F
100
AcDbEntity
  8
0
  6
Continuous
 62
     7
370
    25
100
AcDbLine
 10
866.102580705
 20
638.6575841654
 30
0.0
 11
862.1025725987
 21
638.6575841654
 31
0.0
  0
LINE
  5
9F
330
1F
100
AcDbEntity
  8
0
  6
Continuous
 62
     7
370
    25
100
AcDbLine
 10
866.102580705
 20
641.1070742953
 30
0.0
 11
866.102580705
 21
638.6575841654
 31
0.0
  0
LINE
  5
A0
330
1F
100
AcDbEntity
  8
0
  6
Continuous
 62
     7
370
    25
100
AcDbLine
 10
862.1025725987
 20
640.970213649
 30
0.0
 11
862.1025725987
 21
638.6575841654
 31
0.0
  0
LINE
  5
A1
330
1F
100
AcDbEntity
  8
0
  6
Continuous
 62
     7
370
    25
100
AcDbLine
 10
866.102580705
 20
650.9050331853
 30
0.0
 11
862.1025725987
 21
650.9050331853
 31
0.0
  0
LINE
  5
A2
330
1F
100
AcDbEntity
  8
0
  6
Continuous
 62
     7
370
    25
100
AcDbLine
 10
866.102580705
 20
650.9050331853
 30
0.0
 11
866.102580705
 21
648.455543521
 31
0.0
  0
LINE
  5
A3
330
1F
100
AcDbEntity
  8
0
  6
Continuous
 62
     7
370
    25
100
AcDbLine
 10
862.1025725987
 20
650.9050331853
 30
0.0
 11
862.1025725987
 21
648.5924044002
 31
0.0
  0
LINE
  5
A4
330
1F
100
AcDbEntity
  8
0
  6
Continuous
 62
     7
370
    25
100
AcDbLine
 10
866.102580705
 20
693.8304326806
 30
0.0
 11
862.1025725987
 21
693.8304326806
 31
0.0
  0
LINE
  5
A5
330
1F
100
AcDbEntity
  8
0
  6
Continuous
 62
     7
370
    25
100
AcDbLine
 10
866.102580705
 20
695.10188171
 30
0.0
 11
866.102580705
 21
693.8304326806
 31
0.0
  0
LINE
  5
A6
330
1F
100
AcDbEntity
  8
0
  6
Continuous
 62
     7
370
    25
100
AcDbLine
 10
862.1025725987
 20
695.674857435
 30
0.0
 11
862.1025725987
 21
693.8304326806
 31
0.0
  0
SPLINE
  5
A7
330
1F
100
AcDbEntity
  8
0
  6
Continuous
 62
     7
370
    25
100
AcDbSpline
210
0.0
220
0.0
230
1.0
 70
     8
 71
     3
 72
    10
 73
     6
 74
     0
 42
0.000000001
 43
0.00000001
 40
0.0
 40
0.0
 40
0.0
 40
0.0
 40
0.3985850735096085
 40
0.7602825705277723
 40
1.0
 40
1.0
 40
1.0
 40
1.0
 10
865.8616289284664
 20
582.7778227004862
 30
0.0
 10
865.6435473430976
 20
583.3699254501466
 30
0.0
 10
865.2275668176628
 20
584.4993340267514
 30
0.0
 10
865.5217210310404
 20
586.0966583403483
 30
0.0
 10
865.9370393523745
 20
586.9347322470575
 30
0.0
 10
866.1025807049709
 20
587.2687793645716
 30
0.0
  0
LINE
  5
A8
330
1F
100
AcDbEntity
  8
0
  6
Continuous
 62
     7
370
    25
100
AcDbLine
 10
865.8616289285
 20
582.7778227005
 30
0.0
 11
862.1025725987
 21
582.7234483633
 31
0.0
  0
LINE
  5
A9
330
1F
100
AcDbEntity
  8
0
  6
Continuous
 62
     7
370
    25
100
AcDbLine
 10
866.102580705
 20
638.6575841654
 30
0.0
 11
866.102580705
 21
587.2687793646
 31
0.0
  0
LINE
  5
AA
330
1F
100
AcDbEntity
  8
0
  6
Continuous
 62
     7
370
    25
100
AcDbLine
 10
862.1025725987
 20
638.6575841654
 30
0.0
 11
862.1025725987
 21
582.7234483633
 31
0.0
  0
SPLINE
  5
AB
330
1F
100
AcDbEntity
  8
0
  6
Continuous
 62
     7
370
    25
100
AcDbSpline
210
0.0
220
0.0
230
1.0
 70
     8
 71
     3
 72
    10
 73
     6
 74
     0
 42
0.000000001
 43
0.00000001
 40
0.0
 40
0.0
 40
0.0
 40
0.0
 40
0.1353068320479705
 40
0.6107799951484073
 40
1.0
 40
1.0
 40
1.0
 40
1.0
 10
866.1025807049709
 20
580.5427230272151
 30
0.0
 10
866.0493521145609
 20
580.6372523085249
 30
0.0
 10
865.8090763080818
 20
581.063960946263
 30
0.0
 10
865.5868599122817
 20
581.8285793004425
 30
0.0
 10
865.7763394521836
 20
582.4831734944777
 30
0.0
 10
865.8616289284664
 20
582.7778227004862
 30
0.0
  0
LINE
  5
AC
330
1F
100
AcDbEntity
  8
0
  6
Continuous
 62
     7
370
    25
100
AcDbLine
 10
866.102580705
 20
693.8304326806
 30
0.0
 11
866.102580705
 21
650.9050331853
 31
0.0
  0
LINE
  5
AD
330
1F
100
AcDbEntity
  8
0
  6
Continuous
 62
     7
370
    25
100
AcDbLine
 10
862.1025725987
 20
693.8304326806
 30
0.0
 11
862.1025725987
 21
650.9050331853
 31
0.0
  0
LINE
  5
AE
330
1F
100
AcDbEntity
  8
0
  6
Continuous
 62
     7
370
    25
100
AcDbLine
 10
866.102580705
 20
579.7813109431
 30
0.0
 11
862.1025725987
 21
579.6416274581
 31
0.0
  0
LINE
  5
AF
330
1F
100
AcDbEntity
  8
0
  6
Continuous
 62
     7
370
    25
100
AcDbLine
 10
866.102580705
 20
580.5427230272
 30
0.0
 11
866.102580705
 21
579.7813109431
 31
0.0
  0
LINE
  5
B0
330
1F
100
AcDbEntity
  8
0
  6
Continuous
 62
     7
370
    25
100
AcDbLine
 10
862.1025725987
 20
582.7234483633
 30
0.0
 11
862.1025725987
 21
579.6416274581
 31
0.0
  0
LINE
  5
B1
330
1F
100
AcDbEntity
  8
0
  6
Continuous
 62
     7
370
    25
100
AcDbLine
 10
861.909572759
 20
710.9209916863
 30
0.0
 11
862.1025725987
 21
710.9209916863
 31
0.0
  0
LINE
  5
B2
330
1F
100
AcDbEntity
  8
0
  6
Continuous
 62
     7
370
    25
100
AcDbLine
 10
861.8958338883
 20
710.9209916863
 30
0.0
 11
861.909572759
 21
710.9209916863
 31
0.0
  0
LINE
  5
B3
330
1F
100
AcDbEntity
  8
0
  6
Continuous
 62
     7
370
    25
100
AcDbLine
 10
861.6956814912
 20
710.7813082013
 30
0.0
 11
861.7025658277
 21
710.9209916863
 31
0.0
  0
LINE
  5
B4
330
1F
100
AcDbEntity
  8
0
  6
Continuous
 62
     7
370
    25
100
AcDbLine
 10
861.7025658277
 20
710.9209916863
 30
0.0
 11
861.8958338883
 21
710.9209916863
 31
0.0
  0
LINE
  5
B5
330
1F
100
AcDbEntity
  8
0
  6
Continuous
 62
     7
370
    25
100
AcDbLine
 10
226.7025753644
 20
700.7813102875
 30
0.0
 11
230.7025834706
 21
700.6856969867
 31
0.0
  0
LINE
  5
B6
330
1F
100
AcDbEntity
  8
0
  6
Continuous
 62
     7
370
    25
100
AcDbLine
 10
230.7025834706
 20
699.1279668484
 30
0.0
 11
230.7025834706
 21
700.6856969867
 31
0.0
  0
LINE
  5
B7
330
1F
100
AcDbEntity
  8
0
  6
Continuous
 62
     7
370
    25
100
AcDbLine
 10
227.4272784379
 20
699.1398281727
 30
0.0
 11
230.7025834706
 21
699.1279668484
 31
0.0
  0
SPLINE
  5
B8
330
1F
100
AcDbEntity
  8
0
  6
Continuous
 62
     7
370
    25
100
AcDbSpline
210
0.0
220
0.0
230
1.0
 70
     8
 71
     3
 72
    11
 73
     7
 74
     0
 42
0.000000001
 43
0.00000001
 40
0.0
 40
0.0
 40
0.0
 40
0.0
 40
0.2646230034824229
 40
0.6067952715651613
 40
0.8652423274589152
 40
0.9999999999999999
 40
0.9999999999999999
 40
0.9999999999999999
 40
0.9999999999999999
 10
226.7025753643948
 20
700.4441007349349
 30
0.0
 10
226.7975792094649
 20
700.3621879191471
 30
0.0
 10
227.0154283125676
 20
700.1743572746205
 30
0.0
 10
227.2736879408512
 20
699.8133456258917
 30
0.0
 10
227.4119116869164
 20
699.4346972632515
 30
0.0
 10
227.423356212388
 20
699.2150908661448
 30
0.0
 10
227.4272784378963
 20
699.1398281726695
 30
0.0
  0
LINE
  5
B9
330
1F
100
AcDbEntity
  8
0
  6
Continuous
 62
     7
370
    25
100
AcDbLine
 10
226.7025753644
 20
700.4441007349
 30
0.0
 11
226.7025753644
 21
700.7813102875
 31
0.0
  0
LINE
  5
BA
330
1F
100
AcDbEntity
  8
0
  6
Continuous
 62
     7
370
    25
100
AcDbLine
 10
226.7025753644
 20
700.7813102875
 30
0.0
 11
226.7025753644
 21
703.2813079033
 31
0.0
  0
LINE
  5
BB
330
1F
100
AcDbEntity
  8
0
  6
Continuous
 62
     7
370
    25
100
AcDbLine
 10
226.7025753644
 20
703.2813079033
 30
0.0
 11
230.7025834706
 21
703.2951399062
 31
0.0
  0
LINE
  5
BC
330
1F
100
AcDbEntity
  8
0
  6
Continuous
 62
     7
370
    25
100
AcDbLine
 10
230.7025834706
 20
700.6856969867
 30
0.0
 11
230.7025834706
 21
703.2951399062
 31
0.0
  0
LINE
  5
BD
330
1F
100
AcDbEntity
  8
0
  6
Continuous
 62
     7
370
    25
100
AcDbLine
 10
226.7025753644
 20
703.2813079033
 30
0.0
 11
229.7450646546
 21
710.8875534806
 31
0.0
  0
LINE
  5
BE
330
1F
100
AcDbEntity
  8
0
  6
Continuous
 62
     7
370
    25
100
AcDbLine
 10
229.7450646546
 20
710.8875534806
 30
0.0
 11
230.7025834706
 21
710.9209916863
 31
0.0
  0
LINE
  5
BF
330
1F
100
AcDbEntity
  8
0
  6
Continuous
 62
     7
370
    25
100
AcDbLine
 10
230.7025834706
 20
703.2951399062
 30
0.0
 11
230.7025834706
 21
710.9209916863
 31
0.0
  0
LINE
  5
C0
330
1F
100
AcDbEntity
  8
0
  6
Continuous
 62
     7
370
    25
100
AcDbLine
 10
227.4272784379
 20
699.1398281727
 30
0.0
 11
227.4272784379
 21
695.7882552717
 31
0.0
  0
SPLINE
  5
C1
330
1F
100
AcDbEntity
  8
0
  6
Continuous
 62
     7
370
    25
100
AcDbSpline
210
0.0
220
0.0
230
1.0
 70
     8
 71
     3
 72
    10
 73
     6
 74
     0
 42
0.000000001
 43
0.00000001
 40
0.0
 40
0.0
 40
0.0
 40
0.0
 40
0.2414688817980301
 40
0.5468033726169281
 40
0.9999999999999999
 40
0.9999999999999999
 40
0.9999999999999999
 40
0.9999999999999999
 10
227.4272784378963
 20
695.788255271659
 30
0.0
 10
227.4144639120591
 20
695.7623224924912
 30
0.0
 10
227.385445572743
 20
695.7035980266111
 30
0.0
 10
227.1311338073465
 20
695.4738165975132
 30
0.0
 10
226.8628599181569
 20
695.2409885657028
 30
0.0
 10
226.7025753643948
 20
695.1018817100382
 30
0.0
  0
LINE
  5
C2
330
1F
100
AcDbEntity
  8
0
  6
Continuous
 62
     7
370
    25
100
AcDbLine
 10
226.7025753644
 20
695.5313070986
 30
0.0
 11
226.7025753644
 21
695.10188171
 31
0.0
  0
LINE
  5
C3
330
1F
100
AcDbEntity
  8
0
  6
Continuous
 62
     7
370
    25
100
AcDbLine
 10
226.7025753644
 20
641.1070742953
 30
0.0
 11
230.7025834706
 21
640.970213649
 31
0.0
  0
LINE
  5
C4
330
1F
100
AcDbEntity
  8
0
  6
Continuous
 62
     7
370
    25
100
AcDbLine
 10
226.7025753644
 20
641.1070742953
 30
0.0
 11
226.7025753644
 21
648.455543521
 31
0.0
  0
LINE
  5
C5
330
1F
100
AcDbEntity
  8
0
  6
Continuous
 62
     7
370
    25
100
AcDbLine
 10
226.7025753644
 20
648.455543521
 30
0.0
 11
230.7025834706
 21
648.5924044002
 31
0.0
  0
LINE
  5
C6
330
1F
100
AcDbEntity
  8
0
  6
Continuous
 62
     7
370
    25
100
AcDbLine
 10
230.7025834706
 20
640.970213649
 30
0.0
 11
230.7025834706
 21
648.5924044002
 31
0.0
  0
LINE
  5
C7
330
1F
100
AcDbEntity
  8
0
  6
Continuous
 62
     7
370
    25
100
AcDbLine
 10
227.4272784379
 20
695.7882552717
 30
0.0
 11
230.7025834706
 21
695.674857435
 31
0.0
  0
LINE
  5
C8
330
1F
100
AcDbEntity
  8
0
  6
Continuous
 62
     7
370
    25
100
AcDbLine
 10
230.7025834706
 20
695.674857435
 30
0.0
 11
230.7025834706
 21
699.1279668484
 31
0.0
  0
LINE
  5
C9
330
1F
100
AcDbEntity
  8
0
  6
Continuous
 62
     7
370
    25
100
AcDbLine
 10
226.7025753644
 20
650.9050331853
 30
0.0
 11
230.7025834706
 21
650.9050331853
 31
0.0
  0
LINE
  5
CA
330
1F
100
AcDbEntity
  8
0
  6
Continuous
 62
     7
370
    25
100
AcDbLine
 10
226.7025753644
 20
648.455543521
 30
0.0
 11
226.7025753644
 21
650.9050331853
 31
0.0
  0
LINE
  5
CB
330
1F
100
AcDbEntity
  8
0
  6
Continuous
 62
     7
370
    25
100
AcDbLine
 10
230.7025834706
 20
648.5924044002
 30
0.0
 11
230.7025834706
 21
650.9050331853
 31
0.0
  0
LINE
  5
CC
330
1F
100
AcDbEntity
  8
0
  6
Continuous
 62
     7
370
    25
100
AcDbLine
 10
226.7025753644
 20
638.6575841654
 30
0.0
 11
230.7025834706
 21
638.6575841654
 31
0.0
  0
LINE
  5
CD
330
1F
100
AcDbEntity
  8
0
  6
Continuous
 62
     7
370
    25
100
AcDbLine
 10
226.7025753644
 20
638.6575841654
 30
0.0
 11
226.7025753644
 21
641.1070742953
 31
0.0
  0
LINE
  5
CE
330
1F
100
AcDbEntity
  8
0
  6
Continuous
 62
     7
370
    25
100
AcDbLine
 10
230.7025834706
 20
638.6575841654
 30
0.0
 11
230.7025834706
 21
640.970213649
 31
0.0
  0
LINE
  5
CF
330
1F
100
AcDbEntity
  8
0
  6
Continuous
 62
     7
370
    25
100
AcDbLine
 10
226.7025753644
 20
693.8304326806
 30
0.0
 11
230.7025834706
 21
693.8304326806
 31
0.0
  0
LINE
  5
D0
330
1F
100
AcDbEntity
  8
0
  6
Continuous
 62
     7
370
    25
100
AcDbLine
 10
226.7025753644
 20
693.8304326806
 30
0.0
 11
226.7025753644
 21
695.10188171
 31
0.0
  0
LINE
  5
D1
330
1F
100
AcDbEntity
  8
0
  6
Continuous
 62
     7
370
    25
100
AcDbLine
 10
230.7025834706
 20
693.8304326806
 30
0.0
 11
230.7025834706
 21
695.674857435
 31
0.0
  0
LINE
  5
D2
330
1F
100
AcDbEntity
  8
0
  6
Continuous
 62
     7
370
    25
100
AcDbLine
 10
226.9435271409
 20
582.7778227005
 30
0.0
 11
230.7025834706
 21
582.7234483633
 31
0.0
  0
SPLINE
  5
D3
330
1F
100
AcDbEntity
  8
0
  6
Continuous
 62
     7
370
    25
100
AcDbSpline
210
0.0
220
0.0
230
1.0
 70
     8
 71
     3
 72
    10
 73
     6
 74
     0
 42
0.000000001
 43
0.00000001
 40
0.0
 40
0.0
 40
0.0
 40
0.0
 40
0.2397174294722278
 40
0.6014149264903915
 40
1.0
 40
1.0
 40
1.0
 40
1.0
 10
226.7025753643948
 20
587.2687793645716
 30
0.0
 10
226.8681167169912
 20
586.9347322470575
 30
0.0
 10
227.2834350383251
 20
586.0966583403483
 30
0.0
 10
227.577589251703
 20
584.4993340267514
 30
0.0
 10
227.1616087262682
 20
583.3699254501466
 30
0.0
 10
226.9435271408993
 20
582.7778227004862
 30
0.0
  0
LINE
  5
D4
330
1F
100
AcDbEntity
  8
0
  6
Continuous
 62
     7
370
    25
100
AcDbLine
 10
226.7025753644
 20
587.2687793646
 30
0.0
 11
226.7025753644
 21
638.6575841654
 31
0.0
  0
LINE
  5
D5
330
1F
100
AcDbEntity
  8
0
  6
Continuous
 62
     7
370
    25
100
AcDbLine
 10
230.7025834706
 20
582.7234483633
 30
0.0
 11
230.7025834706
 21
638.6575841654
 31
0.0
  0
SPLINE
  5
D6
330
1F
100
AcDbEntity
  8
0
  6
Continuous
 62
     7
370
    25
100
AcDbSpline
210
0.0
220
0.0
230
1.0
 70
     8
 71
     3
 72
    10
 73
     6
 74
     0
 42
0.000000001
 43
0.00000001
 40
0.0
 40
0.0
 40
0.0
 40
0.0
 40
0.3892200048515925
 40
0.8646931679520293
 40
0.9999999999999999
 40
0.9999999999999999
 40
0.9999999999999999
 40
0.9999999999999999
 10
226.9435271408993
 20
582.7778227004862
 30
0.0
 10
227.028816617182
 20
582.4831734944776
 30
0.0
 10
227.218296157084
 20
581.8285793004425
 30
0.0
 10
226.9960797612837
 20
581.063960946263
 30
0.0
 10
226.7558039548049
 20
580.6372523085249
 30
0.0
 10
226.7025753643948
 20
580.5427230272151
 30
0.0
  0
LINE
  5
D7
330
1F
100
AcDbEntity
  8
0
  6
Continuous
 62
     7
370
    25
100
AcDbLine
 10
226.7025753644
 20
650.9050331853
 30
0.0
 11
226.7025753644
 21
693.8304326806
 31
0.0
  0
LINE
  5
D8
330
1F
100
AcDbEntity
  8
0
  6
Continuous
 62
     7
370
    25
100
AcDbLine
 10
230.7025834706
 20
650.9050331853
 30
0.0
 11
230.7025834706
 21
693.8304326806
 31
0.0
  0
LINE
  5
D9
330
1F
100
AcDbEntity
  8
0
  6
Continuous
 62
     7
370
    25
100
AcDbLine
 10
226.7025753644
 20
579.7813109431
 30
0.0
 11
230.7025834706
 21
579.6416274581
 31
0.0
  0
LINE
  5
DA
330
1F
100
AcDbEntity
  8
0
  6
Continuous
 62
     7
370
    25
100
AcDbLine
 10
226.7025753644
 20
579.7813109431
 30
0.0
 11
226.7025753644
 21
580.5427230272
 31
0.0
  0
LINE
  5
DB
330
1F
100
AcDbEntity
  8
0
  6
Continuous
 62
     7
370
    25
100
AcDbLine
 10
230.7025834706
 20
579.6416274581
 30
0.0
 11
230.7025834706
 21
582.7234483633
 31
0.0
  0
LINE
  5
DC
330
1F
100
AcDbEntity
  8
0
  6
Continuous
 62
     7
370
    25
100
AcDbLine
 10
230.7025834706
 20
710.9209916863
 30
0.0
 11
230.8955833104
 21
710.9209916863
 31
0.0
  0
LINE
  5
DD
330
1F
100
AcDbEntity
  8
0
  6
Continuous
 62
     7
370
    25
100
AcDbLine
 10
230.909322181
 20
710.9209916863
 30
0.0
 11
230.8955833104
 21
710.9209916863
 31
0.0
  0
LINE
  5
DE
330
1F
100
AcDbEntity
  8
0
  6
Continuous
 62
     7
370
    25
100
AcDbLine
 10
231.1025902417
 20
710.9209916863
 30
0.0
 11
231.1094745782
 21
710.7813082013
 31
0.0
  0
LINE
  5
DF
330
1F
100
AcDbEntity
  8
0
  6
Continuous
 62
     7
370
    25
100
AcDbLine
 10
230.909322181
 20
710.9209916863
 30
0.0
 11
231.1025902417
 21
710.9209916863
 31
0.0
  0
LINE
  5
E0
330
1F
100
AcDbEntity
  8
0
  6
Continuous
 62
     7
370
    25
100
AcDbLine
 10
862.1025725987
 20
700.7813102875
 30
0.0
 11
230.7025834706
 21
700.7813102875
 31
0.0
  0
LINE
  5
E1
330
1F
100
AcDbEntity
  8
0
  6
Continuous
 62
     7
370
    25
100
AcDbLine
 10
862.1025725987
 20
703.2813079033
 30
0.0
 11
230.7025834706
 21
703.2813079033
 31
0.0
  0
LINE
  5
E2
330
1F
100
AcDbEntity
  8
0
  6
Continuous
 62
     7
370
    25
100
AcDbLine
 10
862.1025725987
 20
710.7813082013
 30
0.0
 11
230.7025834706
 21
710.7813082013
 31
0.0
  0
LINE
  5
E3
330
1F
100
AcDbEntity
  8
0
  6
Continuous
 62
     7
370
    25
100
AcDbLine
 10
862.1025725987
 20
699.142450777
 30
0.0
 11
230.7025834706
 21
699.142450777
 31
0.0
  0
LINE
  5
E4
330
1F
100
AcDbEntity
  8
0
  6
Continuous
 62
     7
370
    25
100
AcDbLine
 10
862.1025725987
 20
648.455543521
 30
0.0
 11
230.7025834706
 21
648.455543521
 31
0.0
  0
LINE
  5
E5
330
1F
100
AcDbEntity
  8
0
  6
Continuous
 62
     7
370
    25
100
AcDbLine
 10
230.7025834706
 20
641.1070742953
 30
0.0
 11
862.1025725987
 21
641.1070742953
 31
0.0
  0
LINE
  5
E6
330
1F
100
AcDbEntity
  8
0
  6
Continuous
 62
     7
370
    25
100
AcDbLine
 10
230.7025834706
 20
695.8133451018
 30
0.0
 11
862.1025725987
 21
695.8133451018
 31
0.0
  0
LINE
  5
E7
330
1F
100
AcDbEntity
  8
0
  6
Continuous
 62
     7
370
    25
100
AcDbLine
 10
862.1025725987
 20
638.6575841654
 30
0.0
 11
230.7025834706
 21
638.6575841654
 31
0.0
  0
LINE
  5
E8
330
1F
100
AcDbEntity
  8
0
  6
Continuous
 62
     7
370
    25
100
AcDbLine
 10
230.7025834706
 20
650.9050331853
 30
0.0
 11
862.1025725987
 21
650.9050331853
 31
0.0
  0
LINE
  5
E9
330
1F
100
AcDbEntity
  8
0
  6
Continuous
 62
     7
370
    25
100
AcDbLine
 10
862.1025725987
 20
693.8304326806
 30
0.0
 11
230.7025834706
 21
693.8304326806
 31
0.0
  0
LINE
  5
EA
330
1F
100
AcDbEntity
  8
0
  6
Continuous
 62
     7
370
    25
100
AcDbLine
 10
230.7025834706
 20
582.7813095722
 30
0.0
 11
862.1025725987
 21
582.7813095722
 31
0.0
  0
LINE
  5
EB
330
1F
100
AcDbEntity
  8
0
  6
Continuous
 62
     7
370
    25
100
AcDbLine
 10
862.1025725987
 20
579.7813109431
 30
0.0
 11
230.7025834706
 21
579.7813109431
 31
0.0
  0
LINE
  5
EC
330
1F
100
AcDbEntity
  8
0
  6
Continuous
 62
     8
370
    25
100
AcDbLine
 10
861.909572759
 20
710.7813082013
 30
0.0
 11
861.909572759
 21
710.9209916863
 31
0.0
  0
LINE
  5
ED
330
1F
100
AcDbEntity
  8
0
  6
Continuous
 62
     8
370
    25
100
AcDbLine
 10
861.8958338883
 20
710.9209916863
 30
0.0
 11
861.8889495519
 21
710.7813082013
 31
0.0
  0
LINE
  5
EE
330
1F
100
AcDbEntity
  8
0
  6
Continuous
 62
     8
370
    25
100
AcDbLine
 10
230.8955833104
 20
710.9209916863
 30
0.0
 11
230.8955833104
 21
710.7813082013
 31
0.0
  0
LINE
  5
EF
330
1F
100
AcDbEntity
  8
0
  6
Continuous
 62
     8
370
    25
100
AcDbLine
 10
230.9162065175
 20
710.7813082013
 30
0.0
 11
230.909322181
 21
710.9209916863
 31
0.0
  0
LINE
  5
F0
330
1F
100
AcDbEntity
  8
0
  6
Continuous
 62
     7
370
    25
100
AcDbLine
 10
230.7025834706
 20
552.3076364882
 30
0.0
 11
231.0025736478
 21
552.3076364882
 31
0.0
  0
LINE
  5
F1
330
1F
100
AcDbEntity
  8
0
  6
Continuous
 62
     7
370
    25
100
AcDbLine
 10
861.8025824216
 20
552.3076364882
 30
0.0
 11
862.1025725987
 21
552.3076364882
 31
0.0
  0
LINE
  5
F2
330
1F
100
AcDbEntity
  8
0
  6
Continuous
 62
     7
370
    25
100
AcDbLine
 10
862.1025725987
 20
456.2189886458
 30
0.0
 11
861.8025824216
 21
456.2189886458
 31
0.0
  0
LINE
  5
F3
330
1F
100
AcDbEntity
  8
0
  6
Continuous
 62
     7
370
    25
100
AcDbLine
 10
231.0025736478
 20
456.2189886458
 30
0.0
 11
230.7025834706
 21
456.2189886458
 31
0.0
  0
LINE
  5
F4
330
1F
100
AcDbEntity
  8
0
  6
Continuous
 62
     7
370
    25
100
AcDbLine
 10
866.102580705
 20
457.5007828064
 30
0.0
 11
866.102580705
 21
452.5258438773
 31
0.0
  0
LINE
  5
F5
330
1F
100
AcDbEntity
  8
0
  6
Continuous
 62
     7
370
    25
100
AcDbLine
 10
226.7025753644
 20
452.5258438773
 30
0.0
 11
226.7025753644
 21
457.5007828064
 31
0.0
  0
LINE
  5
F6
330
1F
100
AcDbEntity
  8
0
  6
Continuous
 62
     7
370
    25
100
AcDbLine
 10
226.7025753644
 20
551.0258423276
 30
0.0
 11
226.7025753644
 21
556.0007812567
 31
0.0
  0
LINE
  5
F7
330
1F
100
AcDbEntity
  8
0
  6
Continuous
 62
     7
370
    25
100
AcDbLine
 10
866.102580705
 20
556.0007812567
 30
0.0
 11
866.102580705
 21
551.0258423276
 31
0.0
  0
LINE
  5
F8
330
1F
100
AcDbEntity
  8
0
  6
Continuous
 62
     7
370
    25
100
AcDbLine
 10
866.102580705
 20
558.463313628
 30
0.0
 11
863.0600914147
 21
557.0504153259
 31
0.0
  0
LINE
  5
F9
330
1F
100
AcDbEntity
  8
0
  6
Continuous
 62
     7
370
    25
100
AcDbLine
 10
863.0600914147
 20
557.0504153259
 30
0.0
 11
862.1025725987
 21
557.0778260119
 31
0.0
  0
LINE
  5
FA
330
1F
100
AcDbEntity
  8
0
  6
Continuous
 62
     7
370
    25
100
AcDbLine
 10
862.1025725987
 20
558.602997113
 30
0.0
 11
862.1025725987
 21
557.0778260119
 31
0.0
  0
LINE
  5
FB
330
1F
100
AcDbEntity
  8
0
  6
Continuous
 62
     7
370
    25
100
AcDbLine
 10
866.102580705
 20
558.463313628
 30
0.0
 11
862.1025725987
 21
558.602997113
 31
0.0
  0
LINE
  5
FC
330
1F
100
AcDbEntity
  8
0
  6
Continuous
 62
     7
370
    25
100
AcDbLine
 10
863.0600914147
 20
451.4762098081
 30
0.0
 11
862.1025725987
 21
451.4487991221
 31
0.0
  0
LINE
  5
FD
330
1F
100
AcDbEntity
  8
0
  6
Continuous
 62
     7
370
    25
100
AcDbLine
 10
862.1025725987
 20
459.0701731033
 30
0.0
 11
862.1025725987
 21
451.4487991221
 31
0.0
  0
LINE
  5
FE
330
1F
100
AcDbEntity
  8
0
  6
Continuous
 62
     7
370
    25
100
AcDbLine
 10
862.1025725987
 20
459.0701731033
 30
0.0
 11
862.1025725987
 21
460.4564504809
 31
0.0
  0
LINE
  5
FF
330
1F
100
AcDbEntity
  8
0
  6
Continuous
 62
     7
370
    25
100
AcDbLine
 10
862.1025725987
 20
470.2701764293
 30
0.0
 11
862.1025725987
 21
460.4564504809
 31
0.0
  0
LINE
  5
100
330
1F
100
AcDbEntity
  8
0
  6
Continuous
 62
     7
370
    25
100
AcDbLine
 10
862.1025725987
 20
470.2701764293
 30
0.0
 11
862.1025725987
 21
471.6564500816
 31
0.0
  0
LINE
  5
101
330
1F
100
AcDbEntity
  8
0
  6
Continuous
 62
     7
370
    25
100
AcDbLine
 10
862.1025725987
 20
481.3701743372
 30
0.0
 11
862.1025725987
 21
471.6564500816
 31
0.0
  0
LINE
  5
102
330
1F
100
AcDbEntity
  8
0
  6
Continuous
 62
     7
370
    25
100
AcDbLine
 10
862.1025725987
 20
481.3701743372
 30
0.0
 11
862.1025725987
 21
482.7564498521
 31
0.0
  0
LINE
  5
103
330
1F
100
AcDbEntity
  8
0
  6
Continuous
 62
     7
370
    25
100
AcDbLine
 10
862.1025725987
 20
492.470175039
 30
0.0
 11
862.1025725987
 21
482.7564498521
 31
0.0
  0
LINE
  5
104
330
1F
100
AcDbEntity
  8
0
  6
Continuous
 62
     7
370
    25
100
AcDbLine
 10
862.1025725987
 20
492.470175039
 30
0.0
 11
862.1025725987
 21
493.856450554
 31
0.0
  0
LINE
  5
105
330
1F
100
AcDbEntity
  8
0
  6
Continuous
 62
     7
370
    25
100
AcDbLine
 10
862.1025725987
 20
503.5701748095
 30
0.0
 11
862.1025725987
 21
493.856450554
 31
0.0
  0
LINE
  5
106
330
1F
100
AcDbEntity
  8
0
  6
Continuous
 62
     7
370
    25
100
AcDbLine
 10
862.1025725987
 20
503.5701748095
 30
0.0
 11
862.1025725987
 21
504.9564503245
 31
0.0
  0
LINE
  5
107
330
1F
100
AcDbEntity
  8
0
  6
Continuous
 62
     7
370
    25
100
AcDbLine
 10
862.1025725987
 20
514.67017458
 30
0.0
 11
862.1025725987
 21
504.9564503245
 31
0.0
  0
LINE
  5
108
330
1F
100
AcDbEntity
  8
0
  6
Continuous
 62
     7
370
    25
100
AcDbLine
 10
862.1025725987
 20
514.67017458
 30
0.0
 11
862.1025725987
 21
516.056450095
 31
0.0
  0
LINE
  5
109
330
1F
100
AcDbEntity
  8
0
  6
Continuous
 62
     7
370
    25
100
AcDbLine
 10
862.1025725987
 20
525.7701752819
 30
0.0
 11
862.1025725987
 21
516.056450095
 31
0.0
  0
LINE
  5
10A
330
1F
100
AcDbEntity
  8
0
  6
Continuous
 62
     7
370
    25
100
AcDbLine
 10
862.1025725987
 20
525.7701752819
 30
0.0
 11
862.1025725987
 21
527.1564507968
 31
0.0
  0
LINE
  5
10B
330
1F
100
AcDbEntity
  8
0
  6
Continuous
 62
     7
370
    25
100
AcDbLine
 10
862.1025725987
 20
536.8701750524
 30
0.0
 11
862.1025725987
 21
527.1564507968
 31
0.0
  0
LINE
  5
10C
330
1F
100
AcDbEntity
  8
0
  6
Continuous
 62
     7
370
    25
100
AcDbLine
 10
862.1025725987
 20
536.8701750524
 30
0.0
 11
862.1025725987
 21
538.2564487047
 31
0.0
  0
LINE
  5
10D
330
1F
100
AcDbEntity
  8
0
  6
Continuous
 62
     7
370
    25
100
AcDbLine
 10
862.1025725987
 20
548.0701746531
 30
0.0
 11
862.1025725987
 21
538.2564487047
 31
0.0
  0
LINE
  5
10E
330
1F
100
AcDbEntity
  8
0
  6
Continuous
 62
     7
370
    25
100
AcDbLine
 10
862.1025725987
 20
548.0701746531
 30
0.0
 11
862.1025725987
 21
549.4564520307
 31
0.0
  0
LINE
  5
10F
330
1F
100
AcDbEntity
  8
0
  6
Continuous
 62
     7
370
    25
100
AcDbLine
 10
862.1025725987
 20
557.0778260119
 30
0.0
 11
862.1025725987
 21
549.4564520307
 31
0.0
  0
LINE
  5
110
330
1F
100
AcDbEntity
  8
0
  6
Continuous
 62
     7
370
    25
100
AcDbLine
 10
863.0600914147
 20
557.0504153259
 30
0.0
 11
863.0600914147
 21
451.4762098081
 31
0.0
  0
LINE
  5
111
330
1F
100
AcDbEntity
  8
0
  6
Continuous
 62
     7
370
    25
100
AcDbLine
 10
861.8025824216
 20
549.2528351135
 30
0.0
 11
861.8958338883
 21
549.2560947425
 31
0.0
  0
ELLIPSE
  5
112
330
1F
100
AcDbEntity
  8
0
  6
Continuous
 62
     7
370
    25
100
AcDbEllipse
 10
861.9028221656
 20
549.0562150295
 30
0.0
 11
-0.2001224449699066
 21
-0.006988429770899528
 31
0.0
210
0.0
220
0.0
230
1.0
 40
0.9987793495
 41
4.712388980385551
 42
6.248321296341176
  0
LINE
  5
113
330
1F
100
AcDbEntity
  8
0
  6
Continuous
 62
     7
370
    25
100
AcDbLine
 10
861.8958338883
 20
549.2560947425
 30
0.0
 11
861.909572759
 21
549.2565715797
 31
0.0
  0
ARC
  5
114
330
1F
100
AcDbEntity
  8
0
  6
Continuous
 62
     7
370
    25
100
AcDbCircle
 10
861.9025780347
 20
549.456450322
 30
0.0
 40
0.2000000000000455
100
AcDbArc
 50
272.0
 51
0.0
  0
ARC
  5
115
330
1F
100
AcDbEntity
  8
0
  6
Continuous
 62
     7
370
    25
100
AcDbCircle
 10
861.9025780347
 20
548.070174812
 30
0.0
 40
0.2000000000000455
100
AcDbArc
 50
0.0
 51
88.0
  0
LINE
  5
116
330
1F
100
AcDbEntity
  8
0
  6
Continuous
 62
     7
370
    25
100
AcDbLine
 10
861.8958338883
 20
548.2705319412
 30
0.0
 11
861.909572759
 21
548.2700513787
 31
0.0
  0
ELLIPSE
  5
117
330
1F
100
AcDbEntity
  8
0
  6
Continuous
 62
     7
370
    25
100
AcDbEllipse
 10
861.9028221656
 20
548.4704101045
 30
0.0
 11
0.2001224449700204
 21
-0.006988429770899531
 31
0.0
210
0.0
220
0.0
230
1.0
 40
0.9987793495
 41
3.176456664428819
 42
4.712388980384971
  0
LINE
  5
118
330
1F
100
AcDbEntity
  8
0
  6
Continuous
 62
     7
370
    25
100
AcDbLine
 10
861.7025658277
 20
548.4704272933
 30
0.0
 11
861.7025658277
 21
549.0561993904
 31
0.0
  0
LINE
  5
119
330
1F
100
AcDbEntity
  8
0
  6
Continuous
 62
     7
370
    25
100
AcDbLine
 10
861.7025658277
 20
537.2704276927
 30
0.0
 11
861.7025658277
 21
537.8561997898
 31
0.0
  0
LINE
  5
11A
330
1F
100
AcDbEntity
  8
0
  6
Continuous
 62
     7
370
    25
100
AcDbLine
 10
861.7025658277
 20
526.1704279221
 30
0.0
 11
861.7025658277
 21
526.7561981566
 31
0.0
  0
LINE
  5
11B
330
1F
100
AcDbEntity
  8
0
  6
Continuous
 62
     7
370
    25
100
AcDbLine
 10
861.7025658277
 20
515.0704272203
 30
0.0
 11
861.7025658277
 21
515.6561983861
 31
0.0
  0
LINE
  5
11C
330
1F
100
AcDbEntity
  8
0
  6
Continuous
 62
     7
370
    25
100
AcDbLine
 10
861.7025658277
 20
503.9704271587
 30
0.0
 11
861.7025658277
 21
504.5561979753
 31
0.0
  0
LINE
  5
11D
330
1F
100
AcDbEntity
  8
0
  6
Continuous
 62
     7
370
    25
100
AcDbLine
 10
861.7025658277
 20
492.8704267479
 30
0.0
 11
861.7025658277
 21
493.4561979137
 31
0.0
  0
LINE
  5
11E
330
1F
100
AcDbEntity
  8
0
  6
Continuous
 62
     7
370
    25
100
AcDbLine
 10
861.7025658277
 20
481.7704269774
 30
0.0
 11
861.7025658277
 21
482.3561972119
 31
0.0
  0
LINE
  5
11F
330
1F
100
AcDbEntity
  8
0
  6
Continuous
 62
     7
370
    25
100
AcDbLine
 10
861.7025658277
 20
471.2561974413
 30
0.0
 11
861.7025658277
 21
470.6704253442
 31
0.0
  0
LINE
  5
120
330
1F
100
AcDbEntity
  8
0
  6
Continuous
 62
     7
370
    25
100
AcDbLine
 10
861.7025658277
 20
459.4704257436
 30
0.0
 11
861.7025658277
 21
460.0561978407
 31
0.0
  0
LINE
  5
121
330
1F
100
AcDbEntity
  8
0
  6
Continuous
 62
     7
370
    25
100
AcDbLine
 10
861.8958338883
 20
548.2705319412
 30
0.0
 11
861.8025824216
 21
548.2737878449
 31
0.0
  0
ARC
  5
122
330
1F
100
AcDbEntity
  8
0
  6
Continuous
 62
     7
370
    25
100
AcDbCircle
 10
861.9025780347
 20
538.256450322
 30
0.0
 40
0.2000000000000455
100
AcDbArc
 50
272.0
 51
0.0
  0
ARC
  5
123
330
1F
100
AcDbEntity
  8
0
  6
Continuous
 62
     7
370
    25
100
AcDbCircle
 10
861.9025780347
 20
536.870174812
 30
0.0
 40
0.2000000000000842
100
AcDbArc
 50
0.0
 51
88.0
  0
LINE
  5
124
330
1F
100
AcDbEntity
  8
0
  6
Continuous
 62
     7
370
    25
100
AcDbLine
 10
861.8958338883
 20
537.0705323405
 30
0.0
 11
861.909572759
 21
537.0700517781
 31
0.0
  0
ELLIPSE
  5
125
330
1F
100
AcDbEntity
  8
0
  6
Continuous
 62
     7
370
    25
100
AcDbEllipse
 10
861.9028221656
 20
537.2704101045
 30
0.0
 11
0.2001224449700204
 21
-0.006988429770899531
 31
0.0
210
0.0
220
0.0
230
1.0
 40
0.9987793495
 41
3.176456664428251
 42
4.712388980384991
  0
ELLIPSE
  5
126
330
1F
100
AcDbEntity
  8
0
  6
Continuous
 62
     7
370
    25
100
AcDbEllipse
 10
861.9028221656
 20
537.8562150295
 30
0.0
 11
-0.2001224449699066
 21
-0.006988429771013215
 31
0.0
210
0.0
220
0.0
230
1.0
 40
0.9987793495
 41
4.712388980384984
 42
6.248321296341175
  0
LINE
  5
127
330
1F
100
AcDbEntity
  8
0
  6
Continuous
 62
     7
370
    25
100
AcDbLine
 10
861.8958338883
 20
538.0560914166
 30
0.0
 11
861.909572759
 21
538.0565719791
 31
0.0
  0
LINE
  5
128
330
1F
100
AcDbEntity
  8
0
  6
Continuous
 62
     7
370
    25
100
AcDbLine
 10
861.8025824216
 20
538.0528355129
 30
0.0
 11
861.8958338883
 21
538.0560914166
 31
0.0
  0
LINE
  5
129
330
1F
100
AcDbEntity
  8
0
  6
Continuous
 62
     7
370
    25
100
AcDbLine
 10
861.8958338883
 20
537.0705323405
 30
0.0
 11
861.8025824216
 21
537.0737882443
 31
0.0
  0
ELLIPSE
  5
12A
330
1F
100
AcDbEntity
  8
0
  6
Continuous
 62
     7
370
    25
100
AcDbEllipse
 10
861.9028221656
 20
526.7562150295
 30
0.0
 11
-0.2001224449699066
 21
-0.006988429771013215
 31
0.0
210
0.0
220
0.0
230
1.0
 40
0.9987793495
 41
4.712388980384984
 42
6.248321296340608
  0
LINE
  5
12B
330
1F
100
AcDbEntity
  8
0
  6
Continuous
 62
     7
370
    25
100
AcDbLine
 10
861.8958338883
 20
526.9560935087
 30
0.0
 11
861.909572759
 21
526.9565722085
 31
0.0
  0
ARC
  5
12C
330
1F
100
AcDbEntity
  8
0
  6
Continuous
 62
     7
370
    25
100
AcDbCircle
 10
861.9025780347
 20
527.156450322
 30
0.0
 40
0.2000000000000455
100
AcDbArc
 50
272.0
 51
0.0
  0
ARC
  5
12D
330
1F
100
AcDbEntity
  8
0
  6
Continuous
 62
     7
370
    25
100
AcDbCircle
 10
861.9025780347
 20
525.770174812
 30
0.0
 40
0.2000000000000842
100
AcDbArc
 50
0.0
 51
88.0
  0
LINE
  5
12E
330
1F
100
AcDbEntity
  8
0
  6
Continuous
 62
     7
370
    25
100
AcDbLine
 10
861.8958338883
 20
525.97053257
 30
0.0
 11
861.909572759
 21
525.9700538702
 31
0.0
  0
ELLIPSE
  5
12F
330
1F
100
AcDbEntity
  8
0
  6
Continuous
 62
     7
370
    25
100
AcDbEllipse
 10
861.9028221656
 20
526.1704101045
 30
0.0
 11
0.2001224449700203
 21
-0.006988429771013216
 31
0.0
210
0.0
220
0.0
230
1.0
 40
0.9987793495
 41
3.176456664429388
 42
4.712388980385537
  0
LINE
  5
130
330
1F
100
AcDbEntity
  8
0
  6
Continuous
 62
     7
370
    25
100
AcDbLine
 10
861.8025824216
 20
526.9528357424
 30
0.0
 11
861.8958338883
 21
526.9560935087
 31
0.0
  0
LINE
  5
131
330
1F
100
AcDbEntity
  8
0
  6
Continuous
 62
     7
370
    25
100
AcDbLine
 10
861.8958338883
 20
525.97053257
 30
0.0
 11
861.8025824216
 21
525.9737884737
 31
0.0
  0
ARC
  5
132
330
1F
100
AcDbEntity
  8
0
  6
Continuous
 62
     7
370
    25
100
AcDbCircle
 10
861.9025780347
 20
514.670174812
 30
0.0
 40
0.2000000000000842
100
AcDbArc
 50
0.0
 51
88.0
  0
LINE
  5
133
330
1F
100
AcDbEntity
  8
0
  6
Continuous
 62
     7
370
    25
100
AcDbLine
 10
861.8958338883
 20
514.8705318682
 30
0.0
 11
861.909572759
 21
514.8700531684
 31
0.0
  0
ELLIPSE
  5
134
330
1F
100
AcDbEntity
  8
0
  6
Continuous
 62
     7
370
    25
100
AcDbEllipse
 10
861.9028221656
 20
515.0704101045
 30
0.0
 11
0.2001224449700203
 21
-0.006988429771013216
 31
0.0
210
0.0
220
0.0
230
1.0
 40
0.9987793495
 41
3.176456664429388
 42
4.712388980385537
  0
ELLIPSE
  5
135
330
1F
100
AcDbEntity
  8
0
  6
Continuous
 62
     7
370
    25
100
AcDbEllipse
 10
861.9028221656
 20
515.6562150295
 30
0.0
 11
-0.2001224449699066
 21
-0.006988429770899528
 31
0.0
210
0.0
220
0.0
230
1.0
 40
0.9987793495
 41
4.712388980385551
 42
6.248321296341176
  0
LINE
  5
136
330
1F
100
AcDbEntity
  8
0
  6
Continuous
 62
     7
370
    25
100
AcDbLine
 10
861.8958338883
 20
515.8560928069
 30
0.0
 11
861.909572759
 21
515.856572438
 31
0.0
  0
ARC
  5
137
330
1F
100
AcDbEntity
  8
0
  6
Continuous
 62
     7
370
    25
100
AcDbCircle
 10
861.9025780347
 20
516.056450322
 30
0.0
 40
0.2000000000000455
100
AcDbArc
 50
272.0
 51
0.0
  0
LINE
  5
138
330
1F
100
AcDbEntity
  8
0
  6
Continuous
 62
     7
370
    25
100
AcDbLine
 10
861.8025824216
 20
515.8528359718
 30
0.0
 11
861.8958338883
 21
515.8560928069
 31
0.0
  0
LINE
  5
139
330
1F
100
AcDbEntity
  8
0
  6
Continuous
 62
     7
370
    25
100
AcDbLine
 10
861.8958338883
 20
514.8705318682
 30
0.0
 11
861.8025824216
 21
514.8737887032
 31
0.0
  0
ELLIPSE
  5
13A
330
1F
100
AcDbEntity
  8
0
  6
Continuous
 62
     7
370
    25
100
AcDbEllipse
 10
861.9028221656
 20
503.9704101045
 30
0.0
 11
0.2001224449700203
 21
-0.006988429771013216
 31
0.0
210
0.0
220
0.0
230
1.0
 40
0.9987793495
 41
3.176456664429103
 42
4.712388980385558
  0
LINE
  5
13B
330
1F
100
AcDbEntity
  8
0
  6
Continuous
 62
     7
370
    25
100
AcDbLine
 10
861.8958338883
 20
503.770531923
 30
0.0
 11
861.8025824216
 21
503.7737888163
 31
0.0
  0
LINE
  5
13C
330
1F
100
AcDbEntity
  8
0
  6
Continuous
 62
     7
370
    25
100
AcDbLine
 10
861.8025824216
 20
504.7528363177
 30
0.0
 11
861.8958338883
 21
504.756093211
 31
0.0
  0
ELLIPSE
  5
13D
330
1F
100
AcDbEntity
  8
0
  6
Continuous
 62
     7
370
    25
100
AcDbEllipse
 10
861.9028221656
 20
504.5562150295
 30
0.0
 11
-0.2001224449699066
 21
-0.006988429770899528
 31
0.0
210
0.0
220
0.0
230
1.0
 40
0.9987793495
 41
4.712388980385532
 42
6.248321296340873
  0
ARC
  5
13E
330
1F
100
AcDbEntity
  8
0
  6
Continuous
 62
     7
370
    25
100
AcDbCircle
 10
861.9025780347
 20
503.570174812
 30
0.0
 40
0.2000000000000842
100
AcDbArc
 50
0.0
 51
88.0
  0
LINE
  5
13F
330
1F
100
AcDbEntity
  8
0
  6
Continuous
 62
     7
370
    25
100
AcDbLine
 10
861.8958338883
 20
504.756093211
 30
0.0
 11
861.909572759
 21
504.7565721436
 31
0.0
  0
ARC
  5
140
330
1F
100
AcDbEntity
  8
0
  6
Continuous
 62
     7
370
    25
100
AcDbCircle
 10
861.9025780347
 20
504.956450322
 30
0.0
 40
0.2000000000000455
100
AcDbArc
 50
272.0
 51
0.0
  0
LINE
  5
141
330
1F
100
AcDbEntity
  8
0
  6
Continuous
 62
     7
370
    25
100
AcDbLine
 10
861.8958338883
 20
503.770531923
 30
0.0
 11
861.909572759
 21
503.7700529904
 31
0.0
  0
ARC
  5
142
330
1F
100
AcDbEntity
  8
0
  6
Continuous
 62
     7
370
    25
100
AcDbCircle
 10
861.9025780347
 20
492.470174812
 30
0.0
 40
0.2000000000000455
100
AcDbArc
 50
0.0
 51
88.0
  0
LINE
  5
143
330
1F
100
AcDbEntity
  8
0
  6
Continuous
 62
     7
370
    25
100
AcDbLine
 10
861.8958338883
 20
492.6705323271
 30
0.0
 11
861.909572759
 21
492.670052696
 31
0.0
  0
ELLIPSE
  5
144
330
1F
100
AcDbEntity
  8
0
  6
Continuous
 62
     7
370
    25
100
AcDbEllipse
 10
861.9028221656
 20
492.8704101045
 30
0.0
 11
0.2001224449699066
 21
-0.006988429770899528
 31
0.0
210
0.0
220
0.0
230
1.0
 40
0.9987793495
 41
3.176456664428241
 42
4.712388980384991
  0
ELLIPSE
  5
145
330
1F
100
AcDbEntity
  8
0
  6
Continuous
 62
     7
370
    25
100
AcDbEllipse
 10
861.9028221656
 20
493.4562150295
 30
0.0
 11
-0.2001224449699066
 21
-0.006988429770899528
 31
0.0
210
0.0
220
0.0
230
1.0
 40
0.9987793495
 41
4.712388980385551
 42
6.248321296340882
  0
LINE
  5
146
330
1F
100
AcDbEntity
  8
0
  6
Continuous
 62
     7
370
    25
100
AcDbLine
 10
861.8958338883
 20
493.6560932658
 30
0.0
 11
861.909572759
 21
493.6565719656
 31
0.0
  0
ARC
  5
147
330
1F
100
AcDbEntity
  8
0
  6
Continuous
 62
     7
370
    25
100
AcDbCircle
 10
861.9025780347
 20
493.856450322
 30
0.0
 40
0.2000000000000455
100
AcDbArc
 50
272.0
 51
0.0
  0
LINE
  5
148
330
1F
100
AcDbEntity
  8
0
  6
Continuous
 62
     7
370
    25
100
AcDbLine
 10
861.8025824216
 20
493.6528364308
 30
0.0
 11
861.8958338883
 21
493.6560932658
 31
0.0
  0
LINE
  5
149
330
1F
100
AcDbEntity
  8
0
  6
Continuous
 62
     7
370
    25
100
AcDbLine
 10
861.8958338883
 20
492.6705323271
 30
0.0
 11
861.8025824216
 21
492.6737891622
 31
0.0
  0
LINE
  5
14A
330
1F
100
AcDbEntity
  8
0
  6
Continuous
 62
     7
370
    25
100
AcDbLine
 10
861.8958338883
 20
481.5705316253
 30
0.0
 11
861.8025824216
 21
481.5737893916
 31
0.0
  0
ELLIPSE
  5
14B
330
1F
100
AcDbEntity
  8
0
  6
Continuous
 62
     7
370
    25
100
AcDbEllipse
 10
861.9028221656
 20
481.7704101045
 30
0.0
 11
0.2001224449699066
 21
-0.006988429770956373
 31
0.0
210
0.0
220
0.0
230
1.0
 40
0.9987793495
 41
3.176456664428525
 42
4.712388980385275
  0
ELLIPSE
  5
14C
330
1F
100
AcDbEntity
  8
0
  6
Continuous
 62
     7
370
    25
100
AcDbEllipse
 10
861.9028221656
 20
482.3562150295
 30
0.0
 11
-0.2001224449699066
 21
-0.006988429770956373
 31
0.0
210
0.0
220
0.0
230
1.0
 40
0.9987793495
 41
4.712388980385268
 42
6.248321296340598
  0
LINE
  5
14D
330
1F
100
AcDbEntity
  8
0
  6
Continuous
 62
     7
370
    25
100
AcDbLine
 10
861.8958338883
 20
481.5705316253
 30
0.0
 11
861.909572759
 21
481.5700529255
 31
0.0
  0
ARC
  5
14E
330
1F
100
AcDbEntity
  8
0
  6
Continuous
 62
     7
370
    25
100
AcDbCircle
 10
861.9025780347
 20
482.756450322
 30
0.0
 40
0.2000000000000455
100
AcDbArc
 50
272.0
 51
0.0
  0
LINE
  5
14F
330
1F
100
AcDbEntity
  8
0
  6
Continuous
 62
     7
370
    25
100
AcDbLine
 10
861.8958338883
 20
482.556092564
 30
0.0
 11
861.909572759
 21
482.5565712638
 31
0.0
  0
ARC
  5
150
330
1F
100
AcDbEntity
  8
0
  6
Continuous
 62
     7
370
    25
100
AcDbCircle
 10
861.9025780347
 20
481.370174812
 30
0.0
 40
0.2000000000000455
100
AcDbArc
 50
0.0
 51
88.0
  0
LINE
  5
151
330
1F
100
AcDbEntity
  8
0
  6
Continuous
 62
     7
370
    25
100
AcDbLine
 10
861.8025824216
 20
482.5528366603
 30
0.0
 11
861.8958338883
 21
482.556092564
 31
0.0
  0
ARC
  5
152
330
1F
100
AcDbEntity
  8
0
  6
Continuous
 62
     7
370
    25
100
AcDbCircle
 10
861.9025780347
 20
471.656450322
 30
0.0
 40
0.2000000000000455
100
AcDbArc
 50
272.0
 51
0.0
  0
ARC
  5
153
330
1F
100
AcDbEntity
  8
0
  6
Continuous
 62
     7
370
    25
100
AcDbCircle
 10
861.9025780347
 20
470.270174812
 30
0.0
 40
0.2000000000000455
100
AcDbArc
 50
0.0
 51
88.0
  0
LINE
  5
154
330
1F
100
AcDbEntity
  8
0
  6
Continuous
 62
     7
370
    25
100
AcDbLine
 10
861.8958338883
 20
470.4705337174
 30
0.0
 11
861.909572759
 21
470.470053155
 31
0.0
  0
ELLIPSE
  5
155
330
1F
100
AcDbEntity
  8
0
  6
Continuous
 62
     7
370
    25
100
AcDbEllipse
 10
861.9028221656
 20
470.6704101045
 30
0.0
 11
0.2001224449699066
 21
-0.006988429770899528
 31
0.0
210
0.0
220
0.0
230
1.0
 40
0.9987793495
 41
3.176456664428241
 42
4.712388980385001
  0
ELLIPSE
  5
156
330
1F
100
AcDbEntity
  8
0
  6
Continuous
 62
     7
370
    25
100
AcDbEllipse
 10
861.9028221656
 20
471.2562150295
 30
0.0
 11
-0.2001224449699066
 21
-0.006988429770899528
 31
0.0
210
0.0
220
0.0
230
1.0
 40
0.9987793495
 41
4.712388980385551
 42
6.248321296341167
  0
LINE
  5
157
330
1F
100
AcDbEntity
  8
0
  6
Continuous
 62
     7
370
    25
100
AcDbLine
 10
861.8958338883
 20
471.4560927935
 30
0.0
 11
861.909572759
 21
471.4565733559
 31
0.0
  0
LINE
  5
158
330
1F
100
AcDbEntity
  8
0
  6
Continuous
 62
     7
370
    25
100
AcDbLine
 10
861.8025824216
 20
471.4528368897
 30
0.0
 11
861.8958338883
 21
471.4560927935
 31
0.0
  0
LINE
  5
159
330
1F
100
AcDbEntity
  8
0
  6
Continuous
 62
     7
370
    25
100
AcDbLine
 10
861.8958338883
 20
470.4705337174
 30
0.0
 11
861.8025824216
 21
470.4737896211
 31
0.0
  0
ELLIPSE
  5
15A
330
1F
100
AcDbEntity
  8
0
  6
Continuous
 62
     7
370
    25
100
AcDbEllipse
 10
861.9028221656
 20
460.0562150295
 30
0.0
 11
-0.2001224449699066
 21
-0.006988429770899528
 31
0.0
210
0.0
220
0.0
230
1.0
 40
0.9987793495
 41
4.712388980385551
 42
6.248321296341167
  0
LINE
  5
15B
330
1F
100
AcDbEntity
  8
0
  6
Continuous
 62
     7
370
    25
100
AcDbLine
 10
861.8025824216
 20
460.2528372891
 30
0.0
 11
861.8958338883
 21
460.2560931928
 31
0.0
  0
ARC
  5
15C
330
1F
100
AcDbEntity
  8
0
  6
Continuous
 62
     7
370
    25
100
AcDbCircle
 10
861.9025780347
 20
459.070174812
 30
0.0
 40
0.2000000000000455
100
AcDbArc
 50
0.0
 51
88.0
  0
LINE
  5
15D
330
1F
100
AcDbEntity
  8
0
  6
Continuous
 62
     7
370
    25
100
AcDbLine
 10
861.8958338883
 20
459.2705303915
 30
0.0
 11
861.909572759
 21
459.2700535543
 31
0.0
  0
ELLIPSE
  5
15E
330
1F
100
AcDbEntity
  8
0
  6
Continuous
 62
     7
370
    25
100
AcDbEllipse
 10
861.9028221656
 20
459.4704101045
 30
0.0
 11
0.2001224449699066
 21
-0.006988429770899528
 31
0.0
210
0.0
220
0.0
230
1.0
 40
0.9987793495
 41
3.176456664428525
 42
4.712388980383857
  0
ARC
  5
15F
330
1F
100
AcDbEntity
  8
0
  6
Continuous
 62
     7
370
    25
100
AcDbCircle
 10
861.9025780347
 20
460.456450322
 30
0.0
 40
0.2000000000000455
100
AcDbArc
 50
272.0
 51
0.0
  0
LINE
  5
160
330
1F
100
AcDbEntity
  8
0
  6
Continuous
 62
     7
370
    25
100
AcDbLine
 10
861.8958338883
 20
460.2560931928
 30
0.0
 11
861.909572759
 21
460.2565737553
 31
0.0
  0
LINE
  5
161
330
1F
100
AcDbEntity
  8
0
  6
Continuous
 62
     7
370
    25
100
AcDbLine
 10
861.8958338883
 20
459.2705303915
 30
0.0
 11
861.8025824216
 21
459.2737900205
 31
0.0
  0
LINE
  5
162
330
1F
100
AcDbEntity
  8
0
  6
Continuous
 62
     7
370
    25
100
AcDbLine
 10
863.0600914147
 20
451.4762098081
 30
0.0
 11
866.102580705
 21
450.063311506
 31
0.0
  0
LINE
  5
163
330
1F
100
AcDbEntity
  8
0
  6
Continuous
 62
     7
370
    25
100
AcDbLine
 10
866.102580705
 20
450.063311506
 30
0.0
 11
862.1025725987
 21
449.923628021
 31
0.0
  0
LINE
  5
164
330
1F
100
AcDbEntity
  8
0
  6
Continuous
 62
     7
370
    25
100
AcDbLine
 10
862.1025725987
 20
451.4487991221
 30
0.0
 11
862.1025725987
 21
449.923628021
 31
0.0
  0
ELLIPSE
  5
165
330
1F
100
AcDbEntity
  8
0
  6
Continuous
 62
     7
370
    25
100
AcDbEllipse
 10
868.7454351775
 20
553.513312567
 30
0.0
 11
0.0
 21
6.546536707079894
 31
0.0
210
0.0
220
0.0
230
1.0
 40
0.4364357805
 41
1.181035593997445
 42
1.960557059592364
  0
LINE
  5
166
330
1F
100
AcDbEntity
  8
0
  6
Continuous
 62
     7
370
    25
100
AcDbLine
 10
866.102580705
 20
551.0258423276
 30
0.0
 11
866.102580705
 21
457.5007828064
 31
0.0
  0
ELLIPSE
  5
167
330
1F
100
AcDbEntity
  8
0
  6
Continuous
 62
     7
370
    25
100
AcDbEllipse
 10
868.7454351775
 20
455.013312567
 30
0.0
 11
0.0
 21
6.546536707079952
 31
0.0
210
0.0
220
0.0
230
1.0
 40
0.4364357805
 41
1.181035593997456
 42
1.960557059592377
  0
LINE
  5
168
330
1F
100
AcDbEntity
  8
0
  6
Continuous
 62
     7
370
    25
100
AcDbLine
 10
866.102580705
 20
452.5258438773
 30
0.0
 11
866.102580705
 21
450.063311506
 31
0.0
  0
LINE
  5
169
330
1F
100
AcDbEntity
  8
0
  6
Continuous
 62
     7
370
    25
100
AcDbLine
 10
866.102580705
 20
558.463313628
 30
0.0
 11
866.102580705
 21
556.0007812567
 31
0.0
  0
ARC
  5
16A
330
1F
100
AcDbEntity
  8
0
  6
Continuous
 62
     7
370
    25
100
AcDbCircle
 10
860.4629223159
 20
548.1701130159
 30
0.0
 40
1.450098334831026
100
AcDbArc
 50
356.0481376681
 51
3.9518623319
  0
LINE
  5
16B
330
1F
100
AcDbEntity
  8
0
  6
Continuous
 62
     7
370
    25
100
AcDbLine
 10
861.909572759
 20
548.0701746531
 30
0.0
 11
862.1025725987
 21
548.0701746531
 31
0.0
  0
LINE
  5
16C
330
1F
100
AcDbEntity
  8
0
  6
Continuous
 62
     7
370
    25
100
AcDbLine
 10
861.909572759
 20
538.2564487047
 30
0.0
 11
861.909572759
 21
548.0701746531
 31
0.0
  0
LINE
  5
16D
330
1F
100
AcDbEntity
  8
0
  6
Continuous
 62
     7
370
    25
100
AcDbLine
 10
862.1025725987
 20
538.2564487047
 30
0.0
 11
861.909572759
 21
538.2564487047
 31
0.0
  0
ARC
  5
16E
330
1F
100
AcDbEntity
  8
0
  6
Continuous
 62
     7
370
    25
100
AcDbCircle
 10
860.4629361098
 20
538.1565103419
 30
0.0
 40
1.450084573779672
100
AcDbArc
 50
356.0481001061
 51
3.9518998939
  0
ARC
  5
16F
330
1F
100
AcDbEntity
  8
0
  6
Continuous
 62
     7
370
    25
100
AcDbCircle
 10
860.4629223159
 20
536.9701134152
 30
0.0
 40
1.450098334831026
100
AcDbArc
 50
356.0481376681
 51
3.9518623319
  0
LINE
  5
170
330
1F
100
AcDbEntity
  8
0
  6
Continuous
 62
     7
370
    25
100
AcDbLine
 10
861.909572759
 20
536.8701750524
 30
0.0
 11
862.1025725987
 21
536.8701750524
 31
0.0
  0
LINE
  5
171
330
1F
100
AcDbEntity
  8
0
  6
Continuous
 62
     7
370
    25
100
AcDbLine
 10
861.909572759
 20
527.1564507968
 30
0.0
 11
861.909572759
 21
536.8701750524
 31
0.0
  0
LINE
  5
172
330
1F
100
AcDbEntity
  8
0
  6
Continuous
 62
     7
370
    25
100
AcDbLine
 10
862.1025725987
 20
527.1564507968
 30
0.0
 11
861.909572759
 21
527.1564507968
 31
0.0
  0
ARC
  5
173
330
1F
100
AcDbEntity
  8
0
  6
Continuous
 62
     7
370
    25
100
AcDbCircle
 10
860.4629093946
 20
527.0565115027
 30
0.0
 40
1.450111289608199
100
AcDbArc
 50
356.0481361433
 51
3.9518638567
  0
ARC
  5
174
330
1F
100
AcDbEntity
  8
0
  6
Continuous
 62
     7
370
    25
100
AcDbCircle
 10
860.4629004298
 20
525.870114576
 30
0.0
 40
1.450120233080988
100
AcDbArc
 50
356.0481605547
 51
3.9518394453
  0
LINE
  5
175
330
1F
100
AcDbEntity
  8
0
  6
Continuous
 62
     7
370
    25
100
AcDbLine
 10
861.909572759
 20
525.7701752819
 30
0.0
 11
862.1025725987
 21
525.7701752819
 31
0.0
  0
LINE
  5
176
330
1F
100
AcDbEntity
  8
0
  6
Continuous
 62
     7
370
    25
100
AcDbLine
 10
861.909572759
 20
516.056450095
 30
0.0
 11
861.909572759
 21
525.7701752819
 31
0.0
  0
LINE
  5
177
330
1F
100
AcDbEntity
  8
0
  6
Continuous
 62
     7
370
    25
100
AcDbLine
 10
862.1025725987
 20
516.056450095
 30
0.0
 11
861.909572759
 21
516.056450095
 31
0.0
  0
ARC
  5
178
330
1F
100
AcDbEntity
  8
0
  6
Continuous
 62
     7
370
    25
100
AcDbCircle
 10
860.4629317236
 20
515.9565112665
 30
0.0
 40
1.450088981667135
100
AcDbArc
 50
356.0480936949
 51
3.9519063051
  0
ARC
  5
179
330
1F
100
AcDbEntity
  8
0
  6
Continuous
 62
     7
370
    25
100
AcDbCircle
 10
860.4629014636
 20
514.7701138742
 30
0.0
 40
1.450119201726316
100
AcDbArc
 50
356.0481577396
 51
3.9518422604
  0
LINE
  5
17A
330
1F
100
AcDbEntity
  8
0
  6
Continuous
 62
     7
370
    25
100
AcDbLine
 10
861.909572759
 20
514.67017458
 30
0.0
 11
862.1025725987
 21
514.67017458
 31
0.0
  0
LINE
  5
17B
330
1F
100
AcDbEntity
  8
0
  6
Continuous
 62
     7
370
    25
100
AcDbLine
 10
861.909572759
 20
504.9564503245
 30
0.0
 11
861.909572759
 21
514.67017458
 31
0.0
  0
LINE
  5
17C
330
1F
100
AcDbEntity
  8
0
  6
Continuous
 62
     7
370
    25
100
AcDbLine
 10
861.909572759
 20
504.9564503245
 30
0.0
 11
862.1025725987
 21
504.9564503245
 31
0.0
  0
ARC
  5
17D
330
1F
100
AcDbEntity
  8
0
  6
Continuous
 62
     7
370
    25
100
AcDbCircle
 10
860.4629142917
 20
504.856511234
 30
0.0
 40
1.450106390103705
100
AcDbArc
 50
356.0481308385
 51
3.9518691614
  0
ARC
  5
17E
330
1F
100
AcDbEntity
  8
0
  6
Continuous
 62
     7
370
    25
100
AcDbCircle
 10
860.4629142917
 20
503.6701139
 30
0.0
 40
1.450106390103705
100
AcDbArc
 50
356.0481308385
 51
3.9518691614
  0
LINE
  5
17F
330
1F
100
AcDbEntity
  8
0
  6
Continuous
 62
     7
370
    25
100
AcDbLine
 10
861.909572759
 20
503.5701748095
 30
0.0
 11
862.1025725987
 21
503.5701748095
 31
0.0
  0
LINE
  5
180
330
1F
100
AcDbEntity
  8
0
  6
Continuous
 62
     7
370
    25
100
AcDbLine
 10
861.909572759
 20
493.856450554
 30
0.0
 11
861.909572759
 21
503.5701748095
 31
0.0
  0
LINE
  5
181
330
1F
100
AcDbEntity
  8
0
  6
Continuous
 62
     7
370
    25
100
AcDbLine
 10
861.909572759
 20
493.856450554
 30
0.0
 11
862.1025725987
 21
493.856450554
 31
0.0
  0
ARC
  5
182
330
1F
100
AcDbEntity
  8
0
  6
Continuous
 62
     7
370
    25
100
AcDbCircle
 10
860.4629014636
 20
493.7565112598
 30
0.0
 40
1.450119201726316
100
AcDbArc
 50
356.0481577396
 51
3.9518422604
  0
ARC
  5
183
330
1F
100
AcDbEntity
  8
0
  6
Continuous
 62
     7
370
    25
100
AcDbCircle
 10
860.4629317236
 20
492.5701138675
 30
0.0
 40
1.450088981667135
100
AcDbArc
 50
356.0480936949
 51
3.9519063051
  0
LINE
  5
184
330
1F
100
AcDbEntity
  8
0
  6
Continuous
 62
     7
370
    25
100
AcDbLine
 10
861.909572759
 20
492.470175039
 30
0.0
 11
862.1025725987
 21
492.470175039
 31
0.0
  0
LINE
  5
185
330
1F
100
AcDbEntity
  8
0
  6
Continuous
 62
     7
370
    25
100
AcDbLine
 10
861.909572759
 20
482.7564498521
 30
0.0
 11
861.909572759
 21
492.470175039
 31
0.0
  0
LINE
  5
186
330
1F
100
AcDbEntity
  8
0
  6
Continuous
 62
     7
370
    25
100
AcDbLine
 10
861.909572759
 20
482.7564498521
 30
0.0
 11
862.1025725987
 21
482.7564498521
 31
0.0
  0
ARC
  5
187
330
1F
100
AcDbEntity
  8
0
  6
Continuous
 62
     7
370
    25
100
AcDbCircle
 10
860.4629004298
 20
482.656510558
 30
0.0
 40
1.450120233080988
100
AcDbArc
 50
356.0481605547
 51
3.9518394453
  0
ARC
  5
188
330
1F
100
AcDbEntity
  8
0
  6
Continuous
 62
     7
370
    25
100
AcDbCircle
 10
860.4629093946
 20
481.4701136313
 30
0.0
 40
1.450111289608199
100
AcDbArc
 50
356.0481361433
 51
3.9518638567
  0
LINE
  5
189
330
1F
100
AcDbEntity
  8
0
  6
Continuous
 62
     7
370
    25
100
AcDbLine
 10
861.909572759
 20
481.3701743372
 30
0.0
 11
862.1025725987
 21
481.3701743372
 31
0.0
  0
LINE
  5
18A
330
1F
100
AcDbEntity
  8
0
  6
Continuous
 62
     7
370
    25
100
AcDbLine
 10
861.909572759
 20
471.6564500816
 30
0.0
 11
861.909572759
 21
481.3701743372
 31
0.0
  0
LINE
  5
18B
330
1F
100
AcDbEntity
  8
0
  6
Continuous
 62
     7
370
    25
100
AcDbLine
 10
862.1025725987
 20
471.6564500816
 30
0.0
 11
861.909572759
 21
471.6564500816
 31
0.0
  0
ARC
  5
18C
330
1F
100
AcDbEntity
  8
0
  6
Continuous
 62
     7
370
    25
100
AcDbCircle
 10
860.4629223159
 20
471.5565117188
 30
0.0
 40
1.450098334831026
100
AcDbArc
 50
356.0481376681
 51
3.9518623319
  0
LINE
  5
18D
330
1F
100
AcDbEntity
  8
0
  6
Continuous
 62
     7
370
    25
100
AcDbLine
 10
861.909572759
 20
460.4564504809
 30
0.0
 11
861.909572759
 21
470.2701764293
 31
0.0
  0
LINE
  5
18E
330
1F
100
AcDbEntity
  8
0
  6
Continuous
 62
     7
370
    25
100
AcDbLine
 10
861.909572759
 20
470.2701764293
 30
0.0
 11
862.1025725987
 21
470.2701764293
 31
0.0
  0
LINE
  5
18F
330
1F
100
AcDbEntity
  8
0
  6
Continuous
 62
     7
370
    25
100
AcDbLine
 10
862.1025725987
 20
460.4564504809
 30
0.0
 11
861.909572759
 21
460.4564504809
 31
0.0
  0
ARC
  5
190
330
1F
100
AcDbEntity
  8
0
  6
Continuous
 62
     7
370
    25
100
AcDbCircle
 10
860.4629361098
 20
470.3701147921
 30
0.0
 40
1.450084573779672
100
AcDbArc
 50
356.0481001061
 51
3.9518998939
  0
ARC
  5
191
330
1F
100
AcDbEntity
  8
0
  6
Continuous
 62
     7
370
    25
100
AcDbCircle
 10
860.4629223159
 20
460.3565121181
 30
0.0
 40
1.450098334831026
100
AcDbArc
 50
356.0481376681
 51
3.9518623319
  0
LINE
  5
192
330
1F
100
AcDbEntity
  8
0
  6
Continuous
 62
     7
370
    25
100
AcDbLine
 10
229.7450646546
 20
557.0504153259
 30
0.0
 11
226.7025753644
 21
558.463313628
 31
0.0
  0
LINE
  5
193
330
1F
100
AcDbEntity
  8
0
  6
Continuous
 62
     7
370
    25
100
AcDbLine
 10
226.7025753644
 20
558.463313628
 30
0.0
 11
230.7025834706
 21
558.602997113
 31
0.0
  0
LINE
  5
194
330
1F
100
AcDbEntity
  8
0
  6
Continuous
 62
     7
370
    25
100
AcDbLine
 10
230.7025834706
 20
557.0778260119
 30
0.0
 11
230.7025834706
 21
558.602997113
 31
0.0
  0
LINE
  5
195
330
1F
100
AcDbEntity
  8
0
  6
Continuous
 62
     7
370
    25
100
AcDbLine
 10
229.7450646546
 20
557.0504153259
 30
0.0
 11
230.7025834706
 21
557.0778260119
 31
0.0
  0
LINE
  5
196
330
1F
100
AcDbEntity
  8
0
  6
Continuous
 62
     7
370
    25
100
AcDbLine
 10
230.7025834706
 20
549.4564520307
 30
0.0
 11
230.7025834706
 21
557.0778260119
 31
0.0
  0
LINE
  5
197
330
1F
100
AcDbEntity
  8
0
  6
Continuous
 62
     7
370
    25
100
AcDbLine
 10
230.7025834706
 20
549.4564520307
 30
0.0
 11
230.7025834706
 21
548.0701746531
 31
0.0
  0
LINE
  5
198
330
1F
100
AcDbEntity
  8
0
  6
Continuous
 62
     7
370
    25
100
AcDbLine
 10
230.7025834706
 20
538.2564487047
 30
0.0
 11
230.7025834706
 21
548.0701746531
 31
0.0
  0
LINE
  5
199
330
1F
100
AcDbEntity
  8
0
  6
Continuous
 62
     7
370
    25
100
AcDbLine
 10
230.7025834706
 20
538.2564487047
 30
0.0
 11
230.7025834706
 21
536.8701750524
 31
0.0
  0
LINE
  5
19A
330
1F
100
AcDbEntity
  8
0
  6
Continuous
 62
     7
370
    25
100
AcDbLine
 10
230.7025834706
 20
527.1564507968
 30
0.0
 11
230.7025834706
 21
536.8701750524
 31
0.0
  0
LINE
  5
19B
330
1F
100
AcDbEntity
  8
0
  6
Continuous
 62
     7
370
    25
100
AcDbLine
 10
230.7025834706
 20
527.1564507968
 30
0.0
 11
230.7025834706
 21
525.7701752819
 31
0.0
  0
LINE
  5
19C
330
1F
100
AcDbEntity
  8
0
  6
Continuous
 62
     7
370
    25
100
AcDbLine
 10
230.7025834706
 20
516.056450095
 30
0.0
 11
230.7025834706
 21
525.7701752819
 31
0.0
  0
LINE
  5
19D
330
1F
100
AcDbEntity
  8
0
  6
Continuous
 62
     7
370
    25
100
AcDbLine
 10
230.7025834706
 20
516.056450095
 30
0.0
 11
230.7025834706
 21
514.67017458
 31
0.0
  0
LINE
  5
19E
330
1F
100
AcDbEntity
  8
0
  6
Continuous
 62
     7
370
    25
100
AcDbLine
 10
230.7025834706
 20
504.9564503245
 30
0.0
 11
230.7025834706
 21
514.67017458
 31
0.0
  0
LINE
  5
19F
330
1F
100
AcDbEntity
  8
0
  6
Continuous
 62
     7
370
    25
100
AcDbLine
 10
230.7025834706
 20
504.9564503245
 30
0.0
 11
230.7025834706
 21
503.5701748095
 31
0.0
  0
LINE
  5
1A0
330
1F
100
AcDbEntity
  8
0
  6
Continuous
 62
     7
370
    25
100
AcDbLine
 10
230.7025834706
 20
493.856450554
 30
0.0
 11
230.7025834706
 21
503.5701748095
 31
0.0
  0
LINE
  5
1A1
330
1F
100
AcDbEntity
  8
0
  6
Continuous
 62
     7
370
    25
100
AcDbLine
 10
230.7025834706
 20
493.856450554
 30
0.0
 11
230.7025834706
 21
492.470175039
 31
0.0
  0
LINE
  5
1A2
330
1F
100
AcDbEntity
  8
0
  6
Continuous
 62
     7
370
    25
100
AcDbLine
 10
230.7025834706
 20
482.7564498521
 30
0.0
 11
230.7025834706
 21
492.470175039
 31
0.0
  0
LINE
  5
1A3
330
1F
100
AcDbEntity
  8
0
  6
Continuous
 62
     7
370
    25
100
AcDbLine
 10
230.7025834706
 20
482.7564498521
 30
0.0
 11
230.7025834706
 21
481.3701743372
 31
0.0
  0
LINE
  5
1A4
330
1F
100
AcDbEntity
  8
0
  6
Continuous
 62
     7
370
    25
100
AcDbLine
 10
230.7025834706
 20
471.6564500816
 30
0.0
 11
230.7025834706
 21
481.3701743372
 31
0.0
  0
LINE
  5
1A5
330
1F
100
AcDbEntity
  8
0
  6
Continuous
 62
     7
370
    25
100
AcDbLine
 10
230.7025834706
 20
471.6564500816
 30
0.0
 11
230.7025834706
 21
470.2701764293
 31
0.0
  0
LINE
  5
1A6
330
1F
100
AcDbEntity
  8
0
  6
Continuous
 62
     7
370
    25
100
AcDbLine
 10
230.7025834706
 20
460.4564504809
 30
0.0
 11
230.7025834706
 21
470.2701764293
 31
0.0
  0
LINE
  5
1A7
330
1F
100
AcDbEntity
  8
0
  6
Continuous
 62
     7
370
    25
100
AcDbLine
 10
230.7025834706
 20
460.4564504809
 30
0.0
 11
230.7025834706
 21
459.0701731033
 31
0.0
  0
LINE
  5
1A8
330
1F
100
AcDbEntity
  8
0
  6
Continuous
 62
     7
370
    25
100
AcDbLine
 10
230.7025834706
 20
451.4487991221
 30
0.0
 11
230.7025834706
 21
459.0701731033
 31
0.0
  0
LINE
  5
1A9
330
1F
100
AcDbEntity
  8
0
  6
Continuous
 62
     7
370
    25
100
AcDbLine
 10
229.7450646546
 20
451.4762098081
 30
0.0
 11
230.7025834706
 21
451.4487991221
 31
0.0
  0
LINE
  5
1AA
330
1F
100
AcDbEntity
  8
0
  6
Continuous
 62
     7
370
    25
100
AcDbLine
 10
229.7450646546
 20
451.4762098081
 30
0.0
 11
229.7450646546
 21
557.0504153259
 31
0.0
  0
LINE
  5
1AB
330
1F
100
AcDbEntity
  8
0
  6
Continuous
 62
     7
370
    25
100
AcDbLine
 10
231.1025902417
 20
460.0561978407
 30
0.0
 11
231.1025902417
 21
459.4704257436
 31
0.0
  0
LINE
  5
1AC
330
1F
100
AcDbEntity
  8
0
  6
Continuous
 62
     7
370
    25
100
AcDbLine
 10
231.1025902417
 20
471.2561974413
 30
0.0
 11
231.1025902417
 21
470.6704253442
 31
0.0
  0
LINE
  5
1AD
330
1F
100
AcDbEntity
  8
0
  6
Continuous
 62
     7
370
    25
100
AcDbLine
 10
231.1025902417
 20
482.3561972119
 30
0.0
 11
231.1025902417
 21
481.7704269774
 31
0.0
  0
LINE
  5
1AE
330
1F
100
AcDbEntity
  8
0
  6
Continuous
 62
     7
370
    25
100
AcDbLine
 10
231.1025902417
 20
493.4561979137
 30
0.0
 11
231.1025902417
 21
492.8704267479
 31
0.0
  0
LINE
  5
1AF
330
1F
100
AcDbEntity
  8
0
  6
Continuous
 62
     7
370
    25
100
AcDbLine
 10
231.1025902417
 20
504.5561979753
 30
0.0
 11
231.1025902417
 21
503.9704271587
 31
0.0
  0
LINE
  5
1B0
330
1F
100
AcDbEntity
  8
0
  6
Continuous
 62
     7
370
    25
100
AcDbLine
 10
231.1025902417
 20
515.6561983861
 30
0.0
 11
231.1025902417
 21
515.0704272203
 31
0.0
  0
LINE
  5
1B1
330
1F
100
AcDbEntity
  8
0
  6
Continuous
 62
     7
370
    25
100
AcDbLine
 10
231.1025902417
 20
526.7561981566
 30
0.0
 11
231.1025902417
 21
526.1704279221
 31
0.0
  0
LINE
  5
1B2
330
1F
100
AcDbEntity
  8
0
  6
Continuous
 62
     7
370
    25
100
AcDbLine
 10
231.1025902417
 20
537.2704276927
 30
0.0
 11
231.1025902417
 21
537.8561997898
 31
0.0
  0
LINE
  5
1B3
330
1F
100
AcDbEntity
  8
0
  6
Continuous
 62
     7
370
    25
100
AcDbLine
 10
231.1025902417
 20
549.0561993904
 30
0.0
 11
231.1025902417
 21
548.4704272933
 31
0.0
  0
LINE
  5
1B4
330
1F
100
AcDbEntity
  8
0
  6
Continuous
 62
     7
370
    25
100
AcDbLine
 10
230.909322181
 20
549.2560947425
 30
0.0
 11
231.0025736478
 21
549.2528351135
 31
0.0
  0
ELLIPSE
  5
1B5
330
1F
100
AcDbEntity
  8
0
  6
Continuous
 62
     7
370
    25
100
AcDbEllipse
 10
230.9023339037
 20
549.0562150295
 30
0.0
 11
-0.200122444969935
 21
0.006988429770899529
 31
0.0
210
0.0
220
0.0
230
1.0
 40
0.9987793495
 41
3.176456664428251
 42
4.712388980383568
  0
ARC
  5
1B6
330
1F
100
AcDbEntity
  8
0
  6
Continuous
 62
     7
370
    25
100
AcDbCircle
 10
230.9025780347
 20
548.070174812
 30
0.0
 40
0.1999999999999696
100
AcDbArc
 50
92.0
 51
180.0
  0
ELLIPSE
  5
1B7
330
1F
100
AcDbEntity
  8
0
  6
Continuous
 62
     7
370
    25
100
AcDbEllipse
 10
230.9023339037
 20
548.4704101045
 30
0.0
 11
0.2001224449699066
 21
0.006988429770899528
 31
0.0
210
0.0
220
0.0
230
1.0
 40
0.9987793495
 41
4.712388980385835
 42
6.248321296341157
  0
LINE
  5
1B8
330
1F
100
AcDbEntity
  8
0
  6
Continuous
 62
     7
370
    25
100
AcDbLine
 10
230.909322181
 20
548.2705319412
 30
0.0
 11
230.8955833104
 21
548.2700513787
 31
0.0
  0
LINE
  5
1B9
330
1F
100
AcDbEntity
  8
0
  6
Continuous
 62
     7
370
    25
100
AcDbLine
 10
230.909322181
 20
549.2560947425
 30
0.0
 11
230.8955833104
 21
549.2565715797
 31
0.0
  0
ARC
  5
1BA
330
1F
100
AcDbEntity
  8
0
  6
Continuous
 62
     7
370
    25
100
AcDbCircle
 10
230.9025780347
 20
549.456450322
 30
0.0
 40
0.1999999999999696
100
AcDbArc
 50
180.0
 51
268.0
  0
LINE
  5
1BB
330
1F
100
AcDbEntity
  8
0
  6
Continuous
 62
     7
370
    25
100
AcDbLine
 10
231.0025736478
 20
548.2737878449
 30
0.0
 11
230.909322181
 21
548.2705319412
 31
0.0
  0
LINE
  5
1BC
330
1F
100
AcDbEntity
  8
0
  6
Continuous
 62
     7
370
    25
100
AcDbLine
 10
231.0025736478
 20
537.0737882443
 30
0.0
 11
230.909322181
 21
537.0705323405
 31
0.0
  0
ELLIPSE
  5
1BD
330
1F
100
AcDbEntity
  8
0
  6
Continuous
 62
     7
370
    25
100
AcDbEllipse
 10
230.9023339037
 20
537.2704101045
 30
0.0
 11
0.2001224449699066
 21
0.006988429770899528
 31
0.0
210
0.0
220
0.0
230
1.0
 40
0.9987793495
 41
4.712388980385835
 42
6.248321296340588
  0
ELLIPSE
  5
1BE
330
1F
100
AcDbEntity
  8
0
  6
Continuous
 62
     7
370
    25
100
AcDbEllipse
 10
230.9023339037
 20
537.8562150295
 30
0.0
 11
-0.200122444969935
 21
0.006988429770899529
 31
0.0
210
0.0
220
0.0
230
1.0
 40
0.9987793495
 41
3.1764566644288
 42
4.712388980384561
  0
LINE
  5
1BF
330
1F
100
AcDbEntity
  8
0
  6
Continuous
 62
     7
370
    25
100
AcDbLine
 10
230.909322181
 20
538.0560914166
 30
0.0
 11
231.0025736478
 21
538.0528355129
 31
0.0
  0
LINE
  5
1C0
330
1F
100
AcDbEntity
  8
0
  6
Continuous
 62
     7
370
    25
100
AcDbLine
 10
230.909322181
 20
537.0705323405
 30
0.0
 11
230.8955833104
 21
537.0700517781
 31
0.0
  0
ARC
  5
1C1
330
1F
100
AcDbEntity
  8
0
  6
Continuous
 62
     7
370
    25
100
AcDbCircle
 10
230.9025780347
 20
538.256450322
 30
0.0
 40
0.1999999999999696
100
AcDbArc
 50
180.0
 51
268.0
  0
ARC
  5
1C2
330
1F
100
AcDbEntity
  8
0
  6
Continuous
 62
     7
370
    25
100
AcDbCircle
 10
230.9025780347
 20
536.870174812
 30
0.0
 40
0.2000000000000832
100
AcDbArc
 50
92.0
 51
180.0
  0
LINE
  5
1C3
330
1F
100
AcDbEntity
  8
0
  6
Continuous
 62
     7
370
    25
100
AcDbLine
 10
230.909322181
 20
538.0560914166
 30
0.0
 11
230.8955833104
 21
538.0565719791
 31
0.0
  0
ARC
  5
1C4
330
1F
100
AcDbEntity
  8
0
  6
Continuous
 62
     7
370
    25
100
AcDbCircle
 10
230.9025780347
 20
525.770174812
 30
0.0
 40
0.2000000000000832
100
AcDbArc
 50
92.0
 51
180.0
  0
ARC
  5
1C5
330
1F
100
AcDbEntity
  8
0
  6
Continuous
 62
     7
370
    25
100
AcDbCircle
 10
230.9025780347
 20
527.156450322
 30
0.0
 40
0.1999999999999696
100
AcDbArc
 50
180.0
 51
268.0
  0
LINE
  5
1C6
330
1F
100
AcDbEntity
  8
0
  6
Continuous
 62
     7
370
    25
100
AcDbLine
 10
230.909322181
 20
526.9560935087
 30
0.0
 11
230.8955833104
 21
526.9565722085
 31
0.0
  0
ELLIPSE
  5
1C7
330
1F
100
AcDbEntity
  8
0
  6
Continuous
 62
     7
370
    25
100
AcDbEllipse
 10
230.9023339037
 20
526.7562150295
 30
0.0
 11
-0.200122444969935
 21
0.006988429770899529
 31
0.0
210
0.0
220
0.0
230
1.0
 40
0.9987793495
 41
3.176456664428251
 42
4.712388980384561
  0
ELLIPSE
  5
1C8
330
1F
100
AcDbEntity
  8
0
  6
Continuous
 62
     7
370
    25
100
AcDbEllipse
 10
230.9023339037
 20
526.1704101045
 30
0.0
 11
0.2001224449699066
 21
0.006988429770899528
 31
0.0
210
0.0
220
0.0
230
1.0
 40
0.9987793495
 41
4.712388980385835
 42
6.248321296340588
  0
LINE
  5
1C9
330
1F
100
AcDbEntity
  8
0
  6
Continuous
 62
     7
370
    25
100
AcDbLine
 10
230.909322181
 20
525.97053257
 30
0.0
 11
230.8955833104
 21
525.9700538702
 31
0.0
  0
LINE
  5
1CA
330
1F
100
AcDbEntity
  8
0
  6
Continuous
 62
     7
370
    25
100
AcDbLine
 10
230.909322181
 20
526.9560935087
 30
0.0
 11
231.0025736478
 21
526.9528357424
 31
0.0
  0
LINE
  5
1CB
330
1F
100
AcDbEntity
  8
0
  6
Continuous
 62
     7
370
    25
100
AcDbLine
 10
231.0025736478
 20
525.9737884737
 30
0.0
 11
230.909322181
 21
525.97053257
 31
0.0
  0
ARC
  5
1CC
330
1F
100
AcDbEntity
  8
0
  6
Continuous
 62
     7
370
    25
100
AcDbCircle
 10
230.9025780347
 20
514.670174812
 30
0.0
 40
0.2000000000000832
100
AcDbArc
 50
92.0
 51
180.0
  0
ARC
  5
1CD
330
1F
100
AcDbEntity
  8
0
  6
Continuous
 62
     7
370
    25
100
AcDbCircle
 10
230.9025780347
 20
516.056450322
 30
0.0
 40
0.1999999999999696
100
AcDbArc
 50
180.0
 51
268.0
  0
LINE
  5
1CE
330
1F
100
AcDbEntity
  8
0
  6
Continuous
 62
     7
370
    25
100
AcDbLine
 10
230.909322181
 20
515.8560928069
 30
0.0
 11
230.8955833104
 21
515.856572438
 31
0.0
  0
ELLIPSE
  5
1CF
330
1F
100
AcDbEntity
  8
0
  6
Continuous
 62
     7
370
    25
100
AcDbEllipse
 10
230.9023339037
 20
515.6562150295
 30
0.0
 11
-0.200122444969935
 21
0.006988429770785843
 31
0.0
210
0.0
220
0.0
230
1.0
 40
0.9987793495
 41
3.176456664427094
 42
4.712388980383994
  0
ELLIPSE
  5
1D0
330
1F
100
AcDbEntity
  8
0
  6
Continuous
 62
     7
370
    25
100
AcDbEllipse
 10
230.9023339037
 20
515.0704101045
 30
0.0
 11
0.2001224449699066
 21
0.006988429770899528
 31
0.0
210
0.0
220
0.0
230
1.0
 40
0.9987793495
 41
4.712388980385835
 42
6.248321296341157
  0
LINE
  5
1D1
330
1F
100
AcDbEntity
  8
0
  6
Continuous
 62
     7
370
    25
100
AcDbLine
 10
230.909322181
 20
514.8705318682
 30
0.0
 11
230.8955833104
 21
514.8700531684
 31
0.0
  0
LINE
  5
1D2
330
1F
100
AcDbEntity
  8
0
  6
Continuous
 62
     7
370
    25
100
AcDbLine
 10
230.909322181
 20
515.8560928069
 30
0.0
 11
231.0025736478
 21
515.8528359718
 31
0.0
  0
LINE
  5
1D3
330
1F
100
AcDbEntity
  8
0
  6
Continuous
 62
     7
370
    25
100
AcDbLine
 10
231.0025736478
 20
514.8737887032
 30
0.0
 11
230.909322181
 21
514.8705318682
 31
0.0
  0
LINE
  5
1D4
330
1F
100
AcDbEntity
  8
0
  6
Continuous
 62
     7
370
    25
100
AcDbLine
 10
230.909322181
 20
504.756093211
 30
0.0
 11
231.0025736478
 21
504.7528363177
 31
0.0
  0
ELLIPSE
  5
1D5
330
1F
100
AcDbEntity
  8
0
  6
Continuous
 62
     7
370
    25
100
AcDbEllipse
 10
230.9023339037
 20
504.5562150295
 30
0.0
 11
-0.2001224449699066
 21
0.006988429770956373
 31
0.0
210
0.0
220
0.0
230
1.0
 40
0.9987793495
 41
3.176456664428819
 42
4.712388980384869
  0
ELLIPSE
  5
1D6
330
1F
100
AcDbEntity
  8
0
  6
Continuous
 62
     7
370
    25
100
AcDbEllipse
 10
230.9023339037
 20
503.9704101045
 30
0.0
 11
0.2001224449699351
 21
0.006988429770842687
 31
0.0
210
0.0
220
0.0
230
1.0
 40
0.9987793495
 41
4.712388980386265
 42
6.248321296341157
  0
LINE
  5
1D7
330
1F
100
AcDbEntity
  8
0
  6
Continuous
 62
     7
370
    25
100
AcDbLine
 10
231.0025736478
 20
503.7737888163
 30
0.0
 11
230.909322181
 21
503.770531923
 31
0.0
  0
ARC
  5
1D8
330
1F
100
AcDbEntity
  8
0
  6
Continuous
 62
     7
370
    25
100
AcDbCircle
 10
230.9025780347
 20
503.570174812
 30
0.0
 40
0.2000000000000832
100
AcDbArc
 50
92.0
 51
180.0
  0
ARC
  5
1D9
330
1F
100
AcDbEntity
  8
0
  6
Continuous
 62
     7
370
    25
100
AcDbCircle
 10
230.9025780347
 20
504.956450322
 30
0.0
 40
0.1999999999999696
100
AcDbArc
 50
180.0
 51
268.0
  0
LINE
  5
1DA
330
1F
100
AcDbEntity
  8
0
  6
Continuous
 62
     7
370
    25
100
AcDbLine
 10
230.909322181
 20
504.756093211
 30
0.0
 11
230.8955833104
 21
504.7565721436
 31
0.0
  0
LINE
  5
1DB
330
1F
100
AcDbEntity
  8
0
  6
Continuous
 62
     7
370
    25
100
AcDbLine
 10
230.909322181
 20
503.770531923
 30
0.0
 11
230.8955833104
 21
503.7700529904
 31
0.0
  0
ARC
  5
1DC
330
1F
100
AcDbEntity
  8
0
  6
Continuous
 62
     7
370
    25
100
AcDbCircle
 10
230.9025780347
 20
492.470174812
 30
0.0
 40
0.1999999999999696
100
AcDbArc
 50
92.0
 51
180.0
  0
ELLIPSE
  5
1DD
330
1F
100
AcDbEntity
  8
0
  6
Continuous
 62
     7
370
    25
100
AcDbEllipse
 10
230.9023339037
 20
493.4562150295
 30
0.0
 11
-0.2001224449699066
 21
0.006988429770956373
 31
0.0
210
0.0
220
0.0
230
1.0
 40
0.9987793495
 41
3.176456664428525
 42
4.71238898038485
  0
ELLIPSE
  5
1DE
330
1F
100
AcDbEntity
  8
0
  6
Continuous
 62
     7
370
    25
100
AcDbEllipse
 10
230.9023339037
 20
492.8704101045
 30
0.0
 11
0.200122444969935
 21
0.006988429770956372
 31
0.0
210
0.0
220
0.0
230
1.0
 40
0.9987793495
 41
4.712388980385698
 42
6.248321296340882
  0
LINE
  5
1DF
330
1F
100
AcDbEntity
  8
0
  6
Continuous
 62
     7
370
    25
100
AcDbLine
 10
230.909322181
 20
492.6705323271
 30
0.0
 11
230.8955833104
 21
492.670052696
 31
0.0
  0
LINE
  5
1E0
330
1F
100
AcDbEntity
  8
0
  6
Continuous
 62
     7
370
    25
100
AcDbLine
 10
230.909322181
 20
493.6560932658
 30
0.0
 11
230.8955833104
 21
493.6565719656
 31
0.0
  0
ARC
  5
1E1
330
1F
100
AcDbEntity
  8
0
  6
Continuous
 62
     7
370
    25
100
AcDbCircle
 10
230.9025780347
 20
493.856450322
 30
0.0
 40
0.2000000000000264
100
AcDbArc
 50
180.0
 51
268.0
  0
LINE
  5
1E2
330
1F
100
AcDbEntity
  8
0
  6
Continuous
 62
     7
370
    25
100
AcDbLine
 10
230.909322181
 20
493.6560932658
 30
0.0
 11
231.0025736478
 21
493.6528364308
 31
0.0
  0
LINE
  5
1E3
330
1F
100
AcDbEntity
  8
0
  6
Continuous
 62
     7
370
    25
100
AcDbLine
 10
231.0025736478
 20
492.6737891622
 30
0.0
 11
230.909322181
 21
492.6705323271
 31
0.0
  0
LINE
  5
1E4
330
1F
100
AcDbEntity
  8
0
  6
Continuous
 62
     7
370
    25
100
AcDbLine
 10
231.0025736478
 20
481.5737893916
 30
0.0
 11
230.909322181
 21
481.5705316253
 31
0.0
  0
ELLIPSE
  5
1E5
330
1F
100
AcDbEntity
  8
0
  6
Continuous
 62
     7
370
    25
100
AcDbEllipse
 10
230.9023339037
 20
481.7704101045
 30
0.0
 11
0.200122444969935
 21
0.006988429770899529
 31
0.0
210
0.0
220
0.0
230
1.0
 40
0.9987793495
 41
4.712388980385981
 42
6.248321296341166
  0
ELLIPSE
  5
1E6
330
1F
100
AcDbEntity
  8
0
  6
Continuous
 62
     7
370
    25
100
AcDbEllipse
 10
230.9023339037
 20
482.3562150295
 30
0.0
 11
-0.2001224449699066
 21
0.006988429770899528
 31
0.0
210
0.0
220
0.0
230
1.0
 40
0.9987793495
 41
3.176456664428241
 42
4.712388980384565
  0
LINE
  5
1E7
330
1F
100
AcDbEntity
  8
0
  6
Continuous
 62
     7
370
    25
100
AcDbLine
 10
230.909322181
 20
482.556092564
 30
0.0
 11
231.0025736478
 21
482.5528366603
 31
0.0
  0
ARC
  5
1E8
330
1F
100
AcDbEntity
  8
0
  6
Continuous
 62
     7
370
    25
100
AcDbCircle
 10
230.9025780347
 20
481.370174812
 30
0.0
 40
0.2000000000000264
100
AcDbArc
 50
92.0
 51
180.0
  0
LINE
  5
1E9
330
1F
100
AcDbEntity
  8
0
  6
Continuous
 62
     7
370
    25
100
AcDbLine
 10
230.909322181
 20
481.5705316253
 30
0.0
 11
230.8955833104
 21
481.5700529255
 31
0.0
  0
ARC
  5
1EA
330
1F
100
AcDbEntity
  8
0
  6
Continuous
 62
     7
370
    25
100
AcDbCircle
 10
230.9025780347
 20
482.756450322
 30
0.0
 40
0.2000000000000264
100
AcDbArc
 50
180.0
 51
268.0
  0
LINE
  5
1EB
330
1F
100
AcDbEntity
  8
0
  6
Continuous
 62
     7
370
    25
100
AcDbLine
 10
230.909322181
 20
482.556092564
 30
0.0
 11
230.8955833104
 21
482.5565712638
 31
0.0
  0
ARC
  5
1EC
330
1F
100
AcDbEntity
  8
0
  6
Continuous
 62
     7
370
    25
100
AcDbCircle
 10
230.9025780347
 20
470.270174812
 30
0.0
 40
0.2000000000000264
100
AcDbArc
 50
92.0
 51
180.0
  0
LINE
  5
1ED
330
1F
100
AcDbEntity
  8
0
  6
Continuous
 62
     7
370
    25
100
AcDbLine
 10
230.909322181
 20
471.4560927935
 30
0.0
 11
230.8955833104
 21
471.4565733559
 31
0.0
  0
ELLIPSE
  5
1EE
330
1F
100
AcDbEntity
  8
0
  6
Continuous
 62
     7
370
    25
100
AcDbEllipse
 10
230.9023339037
 20
471.2562150295
 30
0.0
 11
-0.2001224449699066
 21
0.006988429770956373
 31
0.0
210
0.0
220
0.0
230
1.0
 40
0.9987793495
 41
3.176456664428525
 42
4.71238898038485
  0
ELLIPSE
  5
1EF
330
1F
100
AcDbEntity
  8
0
  6
Continuous
 62
     7
370
    25
100
AcDbEllipse
 10
230.9023339037
 20
470.6704101045
 30
0.0
 11
0.200122444969935
 21
0.006988429770956372
 31
0.0
210
0.0
220
0.0
230
1.0
 40
0.9987793495
 41
4.712388980385698
 42
6.248321296340882
  0
LINE
  5
1F0
330
1F
100
AcDbEntity
  8
0
  6
Continuous
 62
     7
370
    25
100
AcDbLine
 10
230.909322181
 20
470.4705337174
 30
0.0
 11
230.8955833104
 21
470.470053155
 31
0.0
  0
ARC
  5
1F1
330
1F
100
AcDbEntity
  8
0
  6
Continuous
 62
     7
370
    25
100
AcDbCircle
 10
230.9025780347
 20
471.656450322
 30
0.0
 40
0.2000000000000264
100
AcDbArc
 50
180.0
 51
268.0
  0
LINE
  5
1F2
330
1F
100
AcDbEntity
  8
0
  6
Continuous
 62
     7
370
    25
100
AcDbLine
 10
230.909322181
 20
471.4560927935
 30
0.0
 11
231.0025736478
 21
471.4528368897
 31
0.0
  0
LINE
  5
1F3
330
1F
100
AcDbEntity
  8
0
  6
Continuous
 62
     7
370
    25
100
AcDbLine
 10
231.0025736478
 20
470.4737896211
 30
0.0
 11
230.909322181
 21
470.4705337174
 31
0.0
  0
LINE
  5
1F4
330
1F
100
AcDbEntity
  8
0
  6
Continuous
 62
     7
370
    25
100
AcDbLine
 10
230.909322181
 20
460.2560931928
 30
0.0
 11
231.0025736478
 21
460.2528372891
 31
0.0
  0
ELLIPSE
  5
1F5
330
1F
100
AcDbEntity
  8
0
  6
Continuous
 62
     7
370
    25
100
AcDbEllipse
 10
230.9023339037
 20
460.0562150295
 30
0.0
 11
-0.2001224449699066
 21
0.006988429770956373
 31
0.0
210
0.0
220
0.0
230
1.0
 40
0.9987793495
 41
3.176456664428819
 42
4.712388980384858
  0
ELLIPSE
  5
1F6
330
1F
100
AcDbEntity
  8
0
  6
Continuous
 62
     7
370
    25
100
AcDbEllipse
 10
230.9023339037
 20
459.4704101045
 30
0.0
 11
0.200122444969935
 21
0.006988429770956372
 31
0.0
210
0.0
220
0.0
230
1.0
 40
0.9987793495
 41
4.712388980385688
 42
6.248321296340872
  0
LINE
  5
1F7
330
1F
100
AcDbEntity
  8
0
  6
Continuous
 62
     7
370
    25
100
AcDbLine
 10
230.909322181
 20
459.2705303915
 30
0.0
 11
230.8955833104
 21
459.2700535543
 31
0.0
  0
ARC
  5
1F8
330
1F
100
AcDbEntity
  8
0
  6
Continuous
 62
     7
370
    25
100
AcDbCircle
 10
230.9025780347
 20
459.070174812
 30
0.0
 40
0.2000000000000264
100
AcDbArc
 50
92.0
 51
180.0
  0
ARC
  5
1F9
330
1F
100
AcDbEntity
  8
0
  6
Continuous
 62
     7
370
    25
100
AcDbCircle
 10
230.9025780347
 20
460.456450322
 30
0.0
 40
0.1999999999999696
100
AcDbArc
 50
180.0
 51
268.0
  0
LINE
  5
1FA
330
1F
100
AcDbEntity
  8
0
  6
Continuous
 62
     7
370
    25
100
AcDbLine
 10
230.909322181
 20
460.2560931928
 30
0.0
 11
230.8955833104
 21
460.2565737553
 31
0.0
  0
LINE
  5
1FB
330
1F
100
AcDbEntity
  8
0
  6
Continuous
 62
     7
370
    25
100
AcDbLine
 10
231.0025736478
 20
459.2737900205
 30
0.0
 11
230.909322181
 21
459.2705303915
 31
0.0
  0
LINE
  5
1FC
330
1F
100
AcDbEntity
  8
0
  6
Continuous
 62
     7
370
    25
100
AcDbLine
 10
226.7025753644
 20
450.063311506
 30
0.0
 11
229.7450646546
 21
451.4762098081
 31
0.0
  0
LINE
  5
1FD
330
1F
100
AcDbEntity
  8
0
  6
Continuous
 62
     7
370
    25
100
AcDbLine
 10
226.7025753644
 20
450.063311506
 30
0.0
 11
230.7025834706
 21
449.923628021
 31
0.0
  0
LINE
  5
1FE
330
1F
100
AcDbEntity
  8
0
  6
Continuous
 62
     7
370
    25
100
AcDbLine
 10
230.7025834706
 20
449.923628021
 30
0.0
 11
230.7025834706
 21
451.4487991221
 31
0.0
  0
ELLIPSE
  5
1FF
330
1F
100
AcDbEntity
  8
0
  6
Continuous
 62
     7
370
    25
100
AcDbEllipse
 10
224.0597208918
 20
455.013312567
 30
0.0
 11
0.0
 21
6.546536707080008
 31
0.0
210
0.0
220
0.0
230
1.0
 40
0.4364357805
 41
4.322628247587254
 42
5.102149713182145
  0
LINE
  5
200
330
1F
100
AcDbEntity
  8
0
  6
Continuous
 62
     7
370
    25
100
AcDbLine
 10
226.7025753644
 20
457.5007828064
 30
0.0
 11
226.7025753644
 21
551.0258423276
 31
0.0
  0
ELLIPSE
  5
201
330
1F
100
AcDbEntity
  8
0
  6
Continuous
 62
     7
370
    25
100
AcDbEllipse
 10
224.0597208918
 20
553.513312567
 30
0.0
 11
0.0
 21
6.546536707080008
 31
0.0
210
0.0
220
0.0
230
1.0
 40
0.4364357805
 41
4.322628247587284
 42
5.102149713182163
  0
LINE
  5
202
330
1F
100
AcDbEntity
  8
0
  6
Continuous
 62
     7
370
    25
100
AcDbLine
 10
226.7025753644
 20
556.0007812567
 30
0.0
 11
226.7025753644
 21
558.463313628
 31
0.0
  0
LINE
  5
203
330
1F
100
AcDbEntity
  8
0
  6
Continuous
 62
     7
370
    25
100
AcDbLine
 10
226.7025753644
 20
450.063311506
 30
0.0
 11
226.7025753644
 21
452.5258438773
 31
0.0
  0
ARC
  5
204
330
1F
100
AcDbEntity
  8
0
  6
Continuous
 62
     7
370
    25
100
AcDbCircle
 10
232.3422337534
 20
548.1701130159
 30
0.0
 40
1.450098334831026
100
AcDbArc
 50
176.0481376681
 51
183.9518623319
  0
LINE
  5
205
330
1F
100
AcDbEntity
  8
0
  6
Continuous
 62
     7
370
    25
100
AcDbLine
 10
230.7025834706
 20
548.0701746531
 30
0.0
 11
230.8955833104
 21
548.0701746531
 31
0.0
  0
LINE
  5
206
330
1F
100
AcDbEntity
  8
0
  6
Continuous
 62
     7
370
    25
100
AcDbLine
 10
230.8955833104
 20
548.0701746531
 30
0.0
 11
230.8955833104
 21
538.2564487047
 31
0.0
  0
LINE
  5
207
330
1F
100
AcDbEntity
  8
0
  6
Continuous
 62
     7
370
    25
100
AcDbLine
 10
230.8955833104
 20
538.2564487047
 30
0.0
 11
230.7025834706
 21
538.2564487047
 31
0.0
  0
ARC
  5
208
330
1F
100
AcDbEntity
  8
0
  6
Continuous
 62
     7
370
    25
100
AcDbCircle
 10
232.3422337534
 20
536.9701134152
 30
0.0
 40
1.450098334831026
100
AcDbArc
 50
176.0481376681
 51
183.9518623319
  0
LINE
  5
209
330
1F
100
AcDbEntity
  8
0
  6
Continuous
 62
     7
370
    25
100
AcDbLine
 10
230.7025834706
 20
536.8701750524
 30
0.0
 11
230.8955833104
 21
536.8701750524
 31
0.0
  0
ARC
  5
20A
330
1F
100
AcDbEntity
  8
0
  6
Continuous
 62
     7
370
    25
100
AcDbCircle
 10
232.3422199596
 20
538.1565103419
 30
0.0
 40
1.4500845737797
100
AcDbArc
 50
176.0481001061
 51
183.9518998939
  0
LINE
  5
20B
330
1F
100
AcDbEntity
  8
0
  6
Continuous
 62
     7
370
    25
100
AcDbLine
 10
230.8955833104
 20
536.8701750524
 30
0.0
 11
230.8955833104
 21
527.1564507968
 31
0.0
  0
LINE
  5
20C
330
1F
100
AcDbEntity
  8
0
  6
Continuous
 62
     7
370
    25
100
AcDbLine
 10
230.8955833104
 20
527.1564507968
 30
0.0
 11
230.7025834706
 21
527.1564507968
 31
0.0
  0
LINE
  5
20D
330
1F
100
AcDbEntity
  8
0
  6
Continuous
 62
     7
370
    25
100
AcDbLine
 10
230.8955833104
 20
525.7701752819
 30
0.0
 11
230.7025834706
 21
525.7701752819
 31
0.0
  0
ARC
  5
20E
330
1F
100
AcDbEntity
  8
0
  6
Continuous
 62
     7
370
    25
100
AcDbCircle
 10
232.3422556395
 20
525.870114576
 30
0.0
 40
1.450120233081102
100
AcDbArc
 50
176.0481605547
 51
183.9518394453
  0
ARC
  5
20F
330
1F
100
AcDbEntity
  8
0
  6
Continuous
 62
     7
370
    25
100
AcDbCircle
 10
232.3422466748
 20
527.0565115027
 30
0.0
 40
1.450111289608312
100
AcDbArc
 50
176.0481361433
 51
183.9518638567
  0
LINE
  5
210
330
1F
100
AcDbEntity
  8
0
  6
Continuous
 62
     7
370
    25
100
AcDbLine
 10
230.8955833104
 20
525.7701752819
 30
0.0
 11
230.8955833104
 21
516.056450095
 31
0.0
  0
LINE
  5
211
330
1F
100
AcDbEntity
  8
0
  6
Continuous
 62
     7
370
    25
100
AcDbLine
 10
230.8955833104
 20
516.056450095
 30
0.0
 11
230.7025834706
 21
516.056450095
 31
0.0
  0
ARC
  5
212
330
1F
100
AcDbEntity
  8
0
  6
Continuous
 62
     7
370
    25
100
AcDbCircle
 10
232.3422546057
 20
514.7701138742
 30
0.0
 40
1.45011920172626
100
AcDbArc
 50
176.0481577396
 51
183.9518422604
  0
LINE
  5
213
330
1F
100
AcDbEntity
  8
0
  6
Continuous
 62
     7
370
    25
100
AcDbLine
 10
230.8955833104
 20
514.67017458
 30
0.0
 11
230.7025834706
 21
514.67017458
 31
0.0
  0
ARC
  5
214
330
1F
100
AcDbEntity
  8
0
  6
Continuous
 62
     7
370
    25
100
AcDbCircle
 10
232.3422243458
 20
515.9565112665
 30
0.0
 40
1.450088981667163
100
AcDbArc
 50
176.0480936949
 51
183.9519063051
  0
LINE
  5
215
330
1F
100
AcDbEntity
  8
0
  6
Continuous
 62
     7
370
    25
100
AcDbLine
 10
230.8955833104
 20
514.67017458
 30
0.0
 11
230.8955833104
 21
504.9564503245
 31
0.0
  0
LINE
  5
216
330
1F
100
AcDbEntity
  8
0
  6
Continuous
 62
     7
370
    25
100
AcDbLine
 10
230.8955833104
 20
504.9564503245
 30
0.0
 11
230.7025834706
 21
504.9564503245
 31
0.0
  0
ARC
  5
217
330
1F
100
AcDbEntity
  8
0
  6
Continuous
 62
     7
370
    25
100
AcDbCircle
 10
232.3422417776
 20
503.6701139
 30
0.0
 40
1.450106390103705
100
AcDbArc
 50
176.0481308386
 51
183.9518691615
  0
LINE
  5
218
330
1F
100
AcDbEntity
  8
0
  6
Continuous
 62
     7
370
    25
100
AcDbLine
 10
230.8955833104
 20
503.5701748095
 30
0.0
 11
230.7025834706
 21
503.5701748095
 31
0.0
  0
ARC
  5
219
330
1F
100
AcDbEntity
  8
0
  6
Continuous
 62
     7
370
    25
100
AcDbCircle
 10
232.3422417776
 20
504.856511234
 30
0.0
 40
1.450106390103705
100
AcDbArc
 50
176.0481308386
 51
183.9518691615
  0
LINE
  5
21A
330
1F
100
AcDbEntity
  8
0
  6
Continuous
 62
     7
370
    25
100
AcDbLine
 10
230.8955833104
 20
503.5701748095
 30
0.0
 11
230.8955833104
 21
493.856450554
 31
0.0
  0
LINE
  5
21B
330
1F
100
AcDbEntity
  8
0
  6
Continuous
 62
     7
370
    25
100
AcDbLine
 10
230.8955833104
 20
493.856450554
 30
0.0
 11
230.7025834706
 21
493.856450554
 31
0.0
  0
ARC
  5
21C
330
1F
100
AcDbEntity
  8
0
  6
Continuous
 62
     7
370
    25
100
AcDbCircle
 10
232.3422546057
 20
493.7565112598
 30
0.0
 40
1.45011920172626
100
AcDbArc
 50
176.0481577396
 51
183.9518422604
  0
ARC
  5
21D
330
1F
100
AcDbEntity
  8
0
  6
Continuous
 62
     7
370
    25
100
AcDbCircle
 10
232.3422243458
 20
492.5701138675
 30
0.0
 40
1.450088981667163
100
AcDbArc
 50
176.0480936949
 51
183.9519063051
  0
LINE
  5
21E
330
1F
100
AcDbEntity
  8
0
  6
Continuous
 62
     7
370
    25
100
AcDbLine
 10
230.8955833104
 20
492.470175039
 30
0.0
 11
230.8955833104
 21
482.7564498521
 31
0.0
  0
LINE
  5
21F
330
1F
100
AcDbEntity
  8
0
  6
Continuous
 62
     7
370
    25
100
AcDbLine
 10
230.8955833104
 20
482.7564498521
 30
0.0
 11
230.7025834706
 21
482.7564498521
 31
0.0
  0
LINE
  5
220
330
1F
100
AcDbEntity
  8
0
  6
Continuous
 62
     7
370
    25
100
AcDbLine
 10
230.7025834706
 20
492.470175039
 30
0.0
 11
230.8955833104
 21
492.470175039
 31
0.0
  0
ARC
  5
221
330
1F
100
AcDbEntity
  8
0
  6
Continuous
 62
     7
370
    25
100
AcDbCircle
 10
232.3422556395
 20
482.656510558
 30
0.0
 40
1.450120233081102
100
AcDbArc
 50
176.0481605547
 51
183.9518394453
  0
ARC
  5
222
330
1F
100
AcDbEntity
  8
0
  6
Continuous
 62
     7
370
    25
100
AcDbCircle
 10
232.3422466748
 20
481.4701136313
 30
0.0
 40
1.450111289608312
100
AcDbArc
 50
176.0481361433
 51
183.9518638567
  0
LINE
  5
223
330
1F
100
AcDbEntity
  8
0
  6
Continuous
 62
     7
370
    25
100
AcDbLine
 10
230.7025834706
 20
481.3701743372
 30
0.0
 11
230.8955833104
 21
481.3701743372
 31
0.0
  0
LINE
  5
224
330
1F
100
AcDbEntity
  8
0
  6
Continuous
 62
     7
370
    25
100
AcDbLine
 10
230.8955833104
 20
481.3701743372
 30
0.0
 11
230.8955833104
 21
471.6564500816
 31
0.0
  0
LINE
  5
225
330
1F
100
AcDbEntity
  8
0
  6
Continuous
 62
     7
370
    25
100
AcDbLine
 10
230.8955833104
 20
471.6564500816
 30
0.0
 11
230.7025834706
 21
471.6564500816
 31
0.0
  0
ARC
  5
226
330
1F
100
AcDbEntity
  8
0
  6
Continuous
 62
     7
370
    25
100
AcDbCircle
 10
232.3422337534
 20
471.5565117188
 30
0.0
 40
1.450098334831026
100
AcDbArc
 50
176.0481376681
 51
183.9518623319
  0
ARC
  5
227
330
1F
100
AcDbEntity
  8
0
  6
Continuous
 62
     7
370
    25
100
AcDbCircle
 10
232.3422199596
 20
470.3701147921
 30
0.0
 40
1.450084573779672
100
AcDbArc
 50
176.0481001061
 51
183.9518998939
  0
LINE
  5
228
330
1F
100
AcDbEntity
  8
0
  6
Continuous
 62
     7
370
    25
100
AcDbLine
 10
230.8955833104
 20
470.2701764293
 30
0.0
 11
230.8955833104
 21
460.4564504809
 31
0.0
  0
LINE
  5
229
330
1F
100
AcDbEntity
  8
0
  6
Continuous
 62
     7
370
    25
100
AcDbLine
 10
230.8955833104
 20
460.4564504809
 30
0.0
 11
230.7025834706
 21
460.4564504809
 31
0.0
  0
LINE
  5
22A
330
1F
100
AcDbEntity
  8
0
  6
Continuous
 62
     7
370
    25
100
AcDbLine
 10
230.7025834706
 20
470.2701764293
 30
0.0
 11
230.8955833104
 21
470.2701764293
 31
0.0
  0
ARC
  5
22B
330
1F
100
AcDbEntity
  8
0
  6
Continuous
 62
     7
370
    25
100
AcDbCircle
 10
232.3422337534
 20
460.3565121181
 30
0.0
 40
1.450098334831026
100
AcDbArc
 50
176.0481376681
 51
183.9518623319
  0
LINE
  5
22C
330
1F
100
AcDbEntity
  8
0
  6
Continuous
 62
     7
370
    25
100
AcDbLine
 10
862.1025725987
 20
558.463313628
 30
0.0
 11
230.7025834706
 21
558.463313628
 31
0.0
  0
LINE
  5
22D
330
1F
100
AcDbEntity
  8
0
  6
Continuous
 62
     7
370
    25
100
AcDbLine
 10
862.1025725987
 20
556.9633143134
 30
0.0
 11
230.7025834706
 21
556.9633143134
 31
0.0
  0
LINE
  5
22E
330
1F
100
AcDbEntity
  8
0
  6
Continuous
 62
     7
370
    25
100
AcDbLine
 10
862.1025725987
 20
555.9633122869
 30
0.0
 11
230.7025834706
 21
555.9633122869
 31
0.0
  0
LINE
  5
22F
330
1F
100
AcDbEntity
  8
0
  6
Continuous
 62
     7
370
    25
100
AcDbLine
 10
862.1025725987
 20
452.5633128471
 30
0.0
 11
230.7025834706
 21
452.5633128471
 31
0.0
  0
LINE
  5
230
330
1F
100
AcDbEntity
  8
0
  6
Continuous
 62
     7
370
    25
100
AcDbLine
 10
862.1025725987
 20
451.5633108206
 30
0.0
 11
230.7025834706
 21
451.5633108206
 31
0.0
  0
LINE
  5
231
330
1F
100
AcDbEntity
  8
0
  6
Continuous
 62
     7
370
    25
100
AcDbLine
 10
862.1025725987
 20
450.063311506
 30
0.0
 11
230.7025834706
 21
450.063311506
 31
0.0
  0
LINE
  5
232
330
1F
100
AcDbEntity
  8
0
  6
Continuous
 62
     7
370
    25
100
AcDbLine
 10
862.1025725987
 20
549.7633116431
 30
0.0
 11
861.8025824216
 21
549.7633116431
 31
0.0
  0
LINE
  5
233
330
1F
100
AcDbEntity
  8
0
  6
Continuous
 62
     7
370
    25
100
AcDbLine
 10
231.0025736478
 20
549.7633116431
 30
0.0
 11
230.7025834706
 21
549.7633116431
 31
0.0
  0
LINE
  5
234
330
1F
100
AcDbEntity
  8
0
  6
Continuous
 62
     7
370
    25
100
AcDbLine
 10
230.7025834706
 20
458.7633134909
 30
0.0
 11
231.0025736478
 21
458.7633134909
 31
0.0
  0
LINE
  5
235
330
1F
100
AcDbEntity
  8
0
  6
Continuous
 62
     7
370
    25
100
AcDbLine
 10
861.8025824216
 20
458.7633134909
 30
0.0
 11
862.1025725987
 21
458.7633134909
 31
0.0
  0
LINE
  5
236
330
1F
100
AcDbEntity
  8
0
  6
Continuous
 62
     7
370
    25
100
AcDbLine
 10
860.6258079198
 20
554.6633126326
 30
0.0
 11
232.1793481496
 21
554.6633126326
 31
0.0
  0
LINE
  5
237
330
1F
100
AcDbEntity
  8
0
  6
Continuous
 62
     7
370
    25
100
AcDbLine
 10
860.6258079198
 20
555.6633109338
 30
0.0
 11
232.1793481496
 21
555.6633109338
 31
0.0
  0
LINE
  5
238
330
1F
100
AcDbEntity
  8
0
  6
Continuous
 62
     7
370
    25
100
AcDbLine
 10
860.6258079198
 20
554.6633126326
 30
0.0
 11
860.6258079198
 21
555.6633109338
 31
0.0
  0
LINE
  5
239
330
1F
100
AcDbEntity
  8
0
  6
Continuous
 62
     7
370
    25
100
AcDbLine
 10
232.1793481496
 20
554.6633126326
 30
0.0
 11
232.1793481496
 21
555.6633109338
 31
0.0
  0
LINE
  5
23A
330
1F
100
AcDbEntity
  8
0
  6
Continuous
 62
     7
370
    25
100
AcDbLine
 10
232.0025905755
 20
554.486536432
 30
0.0
 11
232.0025905755
 21
454.040088702
 31
0.0
  0
LINE
  5
23B
330
1F
100
AcDbEntity
  8
0
  6
Continuous
 62
     7
370
    25
100
AcDbLine
 10
232.0025905755
 20
454.040088702
 30
0.0
 11
231.0025736478
 21
454.040088702
 31
0.0
  0
LINE
  5
23C
330
1F
100
AcDbEntity
  8
0
  6
Continuous
 62
     7
370
    25
100
AcDbLine
 10
231.0025736478
 20
554.486536432
 30
0.0
 11
231.0025736478
 21
549.2394352443
 31
0.0
  0
LINE
  5
23D
330
1F
100
AcDbEntity
  8
0
  6
Continuous
 62
     7
370
    25
100
AcDbLine
 10
231.0025736478
 20
548.2871914394
 30
0.0
 11
231.0025736478
 21
538.0394356437
 31
0.0
  0
LINE
  5
23E
330
1F
100
AcDbEntity
  8
0
  6
Continuous
 62
     7
370
    25
100
AcDbLine
 10
231.0025736478
 20
537.0871881135
 30
0.0
 11
231.0025736478
 21
526.9394358732
 31
0.0
  0
LINE
  5
23F
330
1F
100
AcDbEntity
  8
0
  6
Continuous
 62
     7
370
    25
100
AcDbLine
 10
231.0025736478
 20
525.9871902056
 30
0.0
 11
231.0025736478
 21
515.8394351713
 31
0.0
  0
LINE
  5
240
330
1F
100
AcDbEntity
  8
0
  6
Continuous
 62
     7
370
    25
100
AcDbLine
 10
231.0025736478
 20
514.8871895037
 30
0.0
 11
231.0025736478
 21
504.739435459
 31
0.0
  0
LINE
  5
241
330
1F
100
AcDbEntity
  8
0
  6
Continuous
 62
     7
370
    25
100
AcDbLine
 10
231.0025736478
 20
503.787189675
 30
0.0
 11
231.0025736478
 21
493.6394356303
 31
0.0
  0
LINE
  5
242
330
1F
100
AcDbEntity
  8
0
  6
Continuous
 62
     7
370
    25
100
AcDbLine
 10
231.0025736478
 20
492.6871899627
 30
0.0
 11
231.0025736478
 21
482.5394349284
 31
0.0
  0
LINE
  5
243
330
1F
100
AcDbEntity
  8
0
  6
Continuous
 62
     7
370
    25
100
AcDbLine
 10
231.0025736478
 20
481.5871892608
 30
0.0
 11
231.0025736478
 21
471.4394370205
 31
0.0
  0
LINE
  5
244
330
1F
100
AcDbEntity
  8
0
  6
Continuous
 62
     7
370
    25
100
AcDbLine
 10
231.0025736478
 20
470.4871894903
 30
0.0
 11
231.0025736478
 21
460.2394336946
 31
0.0
  0
LINE
  5
245
330
1F
100
AcDbEntity
  8
0
  6
Continuous
 62
     7
370
    25
100
AcDbLine
 10
231.0025736478
 20
459.2871898897
 30
0.0
 11
231.0025736478
 21
454.040088702
 31
0.0
  0
LINE
  5
246
330
1F
100
AcDbEntity
  8
0
  6
Continuous
 62
     7
370
    25
100
AcDbLine
 10
232.0025905755
 20
554.486536432
 30
0.0
 11
231.0025736478
 21
554.486536432
 31
0.0
  0
LINE
  5
247
330
1F
100
AcDbEntity
  8
0
  6
Continuous
 62
     7
370
    25
100
AcDbLine
 10
860.8025654939
 20
554.486536432
 30
0.0
 11
861.8025824216
 21
554.486536432
 31
0.0
  0
LINE
  5
248
330
1F
100
AcDbEntity
  8
0
  6
Continuous
 62
     7
370
    25
100
AcDbLine
 10
861.8025824216
 20
454.040088702
 30
0.0
 11
861.8025824216
 21
459.2871898897
 31
0.0
  0
LINE
  5
249
330
1F
100
AcDbEntity
  8
0
  6
Continuous
 62
     7
370
    25
100
AcDbLine
 10
861.8025824216
 20
460.2394336946
 30
0.0
 11
861.8025824216
 21
470.4871894903
 31
0.0
  0
LINE
  5
24A
330
1F
100
AcDbEntity
  8
0
  6
Continuous
 62
     7
370
    25
100
AcDbLine
 10
861.8025824216
 20
471.4394370205
 30
0.0
 11
861.8025824216
 21
481.5871892608
 31
0.0
  0
LINE
  5
24B
330
1F
100
AcDbEntity
  8
0
  6
Continuous
 62
     7
370
    25
100
AcDbLine
 10
861.8025824216
 20
482.5394349284
 30
0.0
 11
861.8025824216
 21
492.6871899627
 31
0.0
  0
LINE
  5
24C
330
1F
100
AcDbEntity
  8
0
  6
Continuous
 62
     7
370
    25
100
AcDbLine
 10
861.8025824216
 20
493.6394356303
 30
0.0
 11
861.8025824216
 21
503.787189675
 31
0.0
  0
LINE
  5
24D
330
1F
100
AcDbEntity
  8
0
  6
Continuous
 62
     7
370
    25
100
AcDbLine
 10
861.8025824216
 20
504.739435459
 30
0.0
 11
861.8025824216
 21
514.8871895037
 31
0.0
  0
LINE
  5
24E
330
1F
100
AcDbEntity
  8
0
  6
Continuous
 62
     7
370
    25
100
AcDbLine
 10
861.8025824216
 20
515.8394351713
 30
0.0
 11
861.8025824216
 21
525.9871902056
 31
0.0
  0
LINE
  5
24F
330
1F
100
AcDbEntity
  8
0
  6
Continuous
 62
     7
370
    25
100
AcDbLine
 10
861.8025824216
 20
526.9394358732
 30
0.0
 11
861.8025824216
 21
537.0871881135
 31
0.0
  0
LINE
  5
250
330
1F
100
AcDbEntity
  8
0
  6
Continuous
 62
     7
370
    25
100
AcDbLine
 10
861.8025824216
 20
538.0394356437
 30
0.0
 11
861.8025824216
 21
548.2871914394
 31
0.0
  0
LINE
  5
251
330
1F
100
AcDbEntity
  8
0
  6
Continuous
 62
     7
370
    25
100
AcDbLine
 10
861.8025824216
 20
549.2394352443
 30
0.0
 11
861.8025824216
 21
554.486536432
 31
0.0
  0
LINE
  5
252
330
1F
100
AcDbEntity
  8
0
  6
Continuous
 62
     7
370
    25
100
AcDbLine
 10
860.8025654939
 20
454.040088702
 30
0.0
 11
861.8025824216
 21
454.040088702
 31
0.0
  0
LINE
  5
253
330
1F
100
AcDbEntity
  8
0
  6
Continuous
 62
     7
370
    25
100
AcDbLine
 10
860.8025654939
 20
454.040088702
 30
0.0
 11
860.8025654939
 21
554.486536432
 31
0.0
  0
LINE
  5
254
330
1F
100
AcDbEntity
  8
0
  6
Continuous
 62
     7
370
    25
100
AcDbLine
 10
232.1793481496
 20
452.8633142002
 30
0.0
 11
860.6258079198
 21
452.8633142002
 31
0.0
  0
LINE
  5
255
330
1F
100
AcDbEntity
  8
0
  6
Continuous
 62
     7
370
    25
100
AcDbLine
 10
232.1793481496
 20
453.8633125014
 30
0.0
 11
232.1793481496
 21
452.8633142002
 31
0.0
  0
LINE
  5
256
330
1F
100
AcDbEntity
  8
0
  6
Continuous
 62
     7
370
    25
100
AcDbLine
 10
860.6258079198
 20
453.8633125014
 30
0.0
 11
860.6258079198
 21
452.8633142002
 31
0.0
  0
LINE
  5
257
330
1F
100
AcDbEntity
  8
0
  6
Continuous
 62
     7
370
    25
100
AcDbLine
 10
232.1793481496
 20
453.8633125014
 30
0.0
 11
860.6258079198
 21
453.8633125014
 31
0.0
  0
LWPOLYLINE
  5
258
330
1F
100
AcDbEntity
  8
0
  6
Continuous
 62
     7
370
    25
100
AcDbPolyline
 90
        9
 70
   128
 43
0.0
 10
860.4258045342
 20
554.4633129723
 10
860.4648157742
 20
554.5023316629
 10
860.5023368981
 20
554.5398490615
 10
860.5369075921
 20
554.574427206
 10
860.567216554
 20
554.6047324426
 10
860.5921014932
 20
554.6296062059
 10
860.610578933
 20
554.6480873711
 10
860.6219634202
 20
554.659468133
 10
860.6258079198
 20
554.6633126326
  0
LINE
  5
259
330
1F
100
AcDbEntity
  8
0
  6
Continuous
 62
     7
370
    25
100
AcDbLine
 10
860.4258045342
 20
554.4633129723
 30
0.0
 11
232.3793515351
 21
554.4633129723
 31
0.0
  0
LWPOLYLINE
  5
25A
330
1F
100
AcDbEntity
  8
0
  6
Continuous
 62
     7
370
    25
100
AcDbPolyline
 90
        9
 70
   128
 43
0.0
 10
232.1793481496
 20
554.6633126326
 10
232.1831926492
 20
554.659468133
 10
232.1945771363
 20
554.6480873711
 10
232.2130545762
 20
554.6296062059
 10
232.2379395154
 20
554.6047324426
 10
232.2682484773
 20
554.574427206
 10
232.3028191712
 20
554.5398490615
 10
232.3403402951
 20
554.5023316629
 10
232.3793515351
 20
554.4633129723
  0
LWPOLYLINE
  5
25B
330
1F
100
AcDbEntity
  8
0
  6
Continuous
 62
     7
370
    25
100
AcDbPolyline
 90
       10
 70
   128
 43
0.0
 10
232.2025641587
 20
554.2865367718
 10
232.1678444531
 20
554.3212639279
 10
232.1341678288
 20
554.3549405522
 10
232.1025773671
 20
554.3865347393
 10
232.0740267423
 20
554.4150928147
 10
232.0493802216
 20
554.4397430606
 10
232.0293828633
 20
554.4597404189
 10
232.0146307137
 20
554.474473942
 10
232.0056304124
 20
554.4834965951
 10
232.0025905755
 20
554.486536432
  0
LINE
  5
25C
330
1F
100
AcDbEntity
  8
0
  6
Continuous
 62
     7
370
    25
100
AcDbLine
 10
232.2025641587
 20
554.2865367718
 30
0.0
 11
232.2025641587
 21
454.2400883622
 31
0.0
  0
LWPOLYLINE
  5
25D
330
1F
100
AcDbEntity
  8
0
  6
Continuous
 62
     7
370
    25
100
AcDbPolyline
 90
       10
 70
   128
 43
0.0
 10
232.0025905755
 20
454.040088702
 10
232.0056304124
 20
454.0431285389
 10
232.0146307137
 20
454.052151192
 10
232.0293828633
 20
454.0668847151
 10
232.0493802216
 20
454.0868820734
 10
232.0740267423
 20
454.1115323193
 10
232.1025773671
 20
454.1400903947
 10
232.1341678288
 20
454.1716845818
 10
232.1678444531
 20
454.2053612061
 10
232.2025641587
 20
454.2400883622
  0
LWPOLYLINE
  5
25E
330
1F
100
AcDbEntity
  8
0
  6
Continuous
 62
     7
370
    25
100
AcDbPolyline
 90
        9
 70
   128
 43
0.0
 10
860.6025919106
 20
454.2400883622
 10
860.6416031506
 20
454.2010696716
 10
860.6791242745
 20
454.163552273
 10
860.7136949685
 20
454.1289741285
 10
860.7440039304
 20
454.0986688919
 10
860.7688590672
 20
454.0737951286
 10
860.7873663094
 20
454.0553139634
 10
860.7987209943
 20
454.0439332016
 10
860.8025654939
 20
454.040088702
  0
LINE
  5
25F
330
1F
100
AcDbEntity
  8
0
  6
Continuous
 62
     7
370
    25
100
AcDbLine
 10
860.6025919106
 20
454.2400883622
 30
0.0
 11
860.6025919106
 21
554.2865367718
 31
0.0
  0
LWPOLYLINE
  5
260
330
1F
100
AcDbEntity
  8
0
  6
Continuous
 62
     7
370
    25
100
AcDbPolyline
 90
        9
 70
   128
 43
0.0
 10
860.8025654939
 20
554.486536432
 10
860.7987209943
 20
554.4826919324
 10
860.7873663094
 20
554.4713111706
 10
860.7688590672
 20
554.4528300054
 10
860.7440039304
 20
554.4279562421
 10
860.7136949685
 20
554.3976510055
 10
860.6791242745
 20
554.363072861
 10
860.6416031506
 20
554.3255554624
 10
860.6025919106
 20
554.2865367718
  0
LWPOLYLINE
  5
261
330
1F
100
AcDbEntity
  8
0
  6
Continuous
 62
     7
370
    25
100
AcDbPolyline
 90
       10
 70
   128
 43
0.0
 10
232.3793515351
 20
454.0633121617
 10
232.3446318295
 20
454.0285812802
 10
232.3109552052
 20
453.9949083812
 10
232.2793647435
 20
453.9633141942
 10
232.2507843163
 20
453.9347561188
 10
232.2261377957
 20
453.9101021476
 10
232.2061404374
 20
453.8901085146
 10
232.1914180901
 20
453.8753749914
 10
232.1823879865
 20
453.8663523383
 10
232.1793481496
 20
453.8633125014
  0
LINE
  5
262
330
1F
100
AcDbEntity
  8
0
  6
Continuous
 62
     7
370
    25
100
AcDbLine
 10
232.3793515351
 20
454.0633121617
 30
0.0
 11
860.4258045342
 21
454.0633121617
 31
0.0
  0
LWPOLYLINE
  5
263
330
1F
100
AcDbEntity
  8
0
  6
Continuous
 62
     7
370
    25
100
AcDbPolyline
 90
        9
 70
   128
 43
0.0
 10
860.6258079198
 20
453.8633125014
 10
860.6219634202
 20
453.867157001
 10
860.610578933
 20
453.8785377629
 10
860.5921014932
 20
453.8970189281
 10
860.567216554
 20
453.9218926914
 10
860.5369075921
 20
453.952197928
 10
860.5023368981
 20
453.9867760725
 10
860.4648157742
 20
454.0242934711
 10
860.4258045342
 20
454.0633121617
  0
LINE
  5
264
330
1F
100
AcDbEntity
  8
0
  6
Continuous
 62
     7
370
    25
100
AcDbLine
 10
860.0157543805
 20
554.0532628186
 30
0.0
 11
860.4258045342
 21
554.4633129723
 31
0.0
  0
LINE
  5
265
330
1F
100
AcDbEntity
  8
0
  6
Continuous
 62
     7
370
    25
100
AcDbLine
 10
232.3793515351
 20
554.4633129723
 30
0.0
 11
232.7894016889
 21
554.0532628186
 31
0.0
  0
LINE
  5
266
330
1F
100
AcDbEntity
  8
0
  6
Continuous
 62
     7
370
    25
100
AcDbLine
 10
860.1925417569
 20
454.650138516
 30
0.0
 11
860.6025919106
 21
454.2400883622
 31
0.0
  0
LINE
  5
267
330
1F
100
AcDbEntity
  8
0
  6
Continuous
 62
     7
370
    25
100
AcDbLine
 10
860.6025919106
 20
554.2865367718
 30
0.0
 11
860.1925417569
 21
553.876486618
 31
0.0
  0
LINE
  5
268
330
1F
100
AcDbEntity
  8
0
  6
Continuous
 62
     7
370
    25
100
AcDbLine
 10
232.2025641587
 20
454.2400883622
 30
0.0
 11
232.6126143125
 21
454.650138516
 31
0.0
  0
LINE
  5
269
330
1F
100
AcDbEntity
  8
0
  6
Continuous
 62
     7
370
    25
100
AcDbLine
 10
232.6126143125
 20
553.876486618
 30
0.0
 11
232.2025641587
 21
554.2865367718
 31
0.0
  0
LINE
  5
26A
330
1F
100
AcDbEntity
  8
0
  6
Continuous
 62
     7
370
    25
100
AcDbLine
 10
860.4258045342
 20
454.0633121617
 30
0.0
 11
860.0157543805
 21
454.4733623154
 31
0.0
  0
LINE
  5
26B
330
1F
100
AcDbEntity
  8
0
  6
Continuous
 62
     7
370
    25
100
AcDbLine
 10
232.7894016889
 20
454.4733623154
 30
0.0
 11
232.3793515351
 21
454.0633121617
 31
0.0
  0
LINE
  5
26C
330
1F
100
AcDbEntity
  8
0
  6
Continuous
 62
     7
370
    25
100
AcDbLine
 10
536.8824645665
 20
540.3997944779
 30
0.0
 11
536.8824645665
 21
539.3348122127
 31
0.0
  0
LINE
  5
26D
330
1F
100
AcDbEntity
  8
0
  6
Continuous
 62
     7
370
    25
100
AcDbLine
 10
536.8824645665
 20
539.3348122127
 30
0.0
 11
545.6628112842
 21
539.3348122127
 31
0.0
  0
LINE
  5
26E
330
1F
100
AcDbEntity
  8
0
  6
Continuous
 62
     7
370
    25
100
AcDbLine
 10
545.6628112842
 20
539.3348122127
 30
0.0
 11
545.6628112842
 21
540.3997944779
 31
0.0
  0
LINE
  5
26F
330
1F
100
AcDbEntity
  8
0
  6
Continuous
 62
     7
370
    25
100
AcDbLine
 10
545.6628112842
 20
540.3997944779
 30
0.0
 11
536.8824645665
 21
540.3997944779
 31
0.0
  0
LINE
  5
270
330
1F
100
AcDbEntity
  8
0
  6
Continuous
 62
     7
370
    25
100
AcDbLine
 10
559.5143276986
 20
548.4973685927
 30
0.0
 11
559.0492987794
 21
548.4973685927
 31
0.0
  0
LINE
  5
271
330
1F
100
AcDbEntity
  8
0
  6
Continuous
 62
     7
370
    25
100
AcDbLine
 10
559.0492987794
 20
548.4973685927
 30
0.0
 11
559.0492987794
 21
547.0625134296
 31
0.0
  0
LINE
  5
272
330
1F
100
AcDbEntity
  8
0
  6
Continuous
 62
     7
370
    25
100
AcDbLine
 10
559.0492987794
 20
547.0625134296
 30
0.0
 11
560.4754265186
 21
547.0625134296
 31
0.0
  0
LINE
  5
273
330
1F
100
AcDbEntity
  8
0
  6
Continuous
 62
     7
370
    25
100
AcDbLine
 10
560.4754265186
 20
547.0625134296
 30
0.0
 11
560.4754265186
 21
547.5363666303
 31
0.0
  0
LINE
  5
274
330
1F
100
AcDbEntity
  8
0
  6
Continuous
 62
     7
370
    25
100
AcDbLine
 10
560.4754265186
 20
547.5363666303
 30
0.0
 11
559.5143276986
 21
547.5363666303
 31
0.0
  0
LINE
  5
275
330
1F
100
AcDbEntity
  8
0
  6
Continuous
 62
     7
370
    25
100
AcDbLine
 10
559.5143276986
 20
547.5363666303
 30
0.0
 11
559.5143276986
 21
548.4973685927
 31
0.0
  0
LINE
  5
276
330
1F
100
AcDbEntity
  8
0
  6
Continuous
 62
     7
370
    25
100
AcDbLine
 10
545.8710714847
 20
546.0345381982
 30
0.0
 11
545.8710714847
 21
544.0713511891
 31
0.0
  0
SPLINE
  5
277
330
1F
100
AcDbEntity
  8
0
  6
Continuous
 62
     7
370
    25
100
AcDbSpline
210
0.0
220
0.0
230
1.0
 70
     8
 71
     3
 72
     9
 73
     5
 74
     0
 42
0.000000001
 43
0.00000001
 40
0.0
 40
0.0
 40
0.0
 40
0.0
 40
0.5476207283503186
 40
0.9999999999999999
 40
0.9999999999999999
 40
0.9999999999999999
 40
0.9999999999999999
 10
545.8710714846502
 20
544.0713511891414
 30
0.0
 10
545.7908332811619
 20
544.2502895124626
 30
0.0
 10
545.644311794055
 20
544.5770454478345
 30
0.0
 10
545.406004322368
 20
544.8436258631704
 30
0.0
 10
545.2981989618975
 20
544.9642213172962
 30
0.0
  0
SPLINE
  5
278
330
1F
100
AcDbEntity
  8
0
  6
Continuous
 62
     7
370
    25
100
AcDbSpline
210
0.0
220
0.0
230
1.0
 70
     8
 71
     3
 72
     9
 73
     5
 74
     0
 42
0.000000001
 43
0.00000001
 40
0.0
 40
0.0
 40
0.0
 40
0.0
 40
0.5612678186392637
 40
1.0
 40
1.0
 40
1.0
 40
1.0
 10
545.2981989618975
 20
544.9642213172962
 30
0.0
 10
545.0131590399747
 20
545.2075969446815
 30
0.0
 10
544.5053089326694
 20
545.6412145854994
 30
0.0
 10
543.8450032034104
 20
545.6974927435416
 30
0.0
 10
543.5553058304477
 20
545.7221837825824
 30
0.0
  0
SPLINE
  5
279
330
1F
100
AcDbEntity
  8
0
  6
Continuous
 62
     7
370
    25
100
AcDbSpline
210
0.0
220
0.0
230
1.0
 70
     8
 71
     3
 72
     9
 73
     5
 74
     0
 42
0.000000001
 43
0.00000001
 40
0.0
 40
0.0
 40
0.0
 40
0.0
 40
0.5595571420637881
 40
1.0
 40
1.0
 40
1.0
 40
1.0
 10
543.5553058304477
 20
545.7221837825824
 30
0.0
 10
543.1694771476845
 20
545.6818862412775
 30
0.0
 10
542.4799520683688
 20
545.6098693938895
 30
0.0
 10
541.9624886285087
 20
545.1561060292195
 30
0.0
 10
541.7345755521792
 20
544.9562491960575
 30
0.0
  0
SPLINE
  5
27A
330
1F
100
AcDbEntity
  8
0
  6
Continuous
 62
     7
370
    25
100
AcDbSpline
210
0.0
220
0.0
230
1.0
 70
     8
 71
     3
 72
     9
 73
     5
 74
     0
 42
0.000000001
 43
0.00000001
 40
0.0
 40
0.0
 40
0.0
 40
0.0
 40
0.5672201814863186
 40
1.0
 40
1.0
 40
1.0
 40
1.0
 10
541.7345755521792
 20
544.9562491960575
 30
0.0
 10
541.5919468598095
 20
544.7923004691628
 30
0.0
 10
541.3404947834819
 20
544.5032615170136
 30
0.0
 10
541.1978996079843
 20
544.1486986235914
 30
0.0
 10
541.1361872938114
 20
543.9952509589244
 30
0.0
  0
SPLINE
  5
27B
330
1F
100
AcDbEntity
  8
0
  6
Continuous
 62
     7
370
    25
100
AcDbSpline
210
0.0
220
0.0
230
1.0
 70
     8
 71
     3
 72
     9
 73
     5
 74
     0
 42
0.000000001
 43
0.00000001
 40
0.0
 40
0.0
 40
0.0
 40
0.0
 40
0.5940867834545874
 40
1.0
 40
1.0
 40
1.0
 40
1.0
 10
541.1361872938114
 20
543.9952509589244
 30
0.0
 10
541.131194311841
 20
544.0494474015952
 30
0.0
 10
541.1227898461814
 20
544.1406738758751
 30
0.0
 10
541.1065601841534
 20
544.2308159199233
 30
0.0
 10
541.0999723498362
 20
544.267405766969
 30
0.0
  0
SPLINE
  5
27C
330
1F
100
AcDbEntity
  8
0
  6
Continuous
 62
     7
370
    25
100
AcDbSpline
210
0.0
220
0.0
230
1.0
 70
     8
 71
     3
 72
     9
 73
     5
 74
     0
 42
0.000000001
 43
0.00000001
 40
0.0
 40
0.0
 40
0.0
 40
0.0
 40
0.5681165763461573
 40
0.9999999999999999
 40
0.9999999999999999
 40
0.9999999999999999
 40
0.9999999999999999
 10
541.0999723498362
 20
544.2674057669689
 30
0.0
 10
541.0518067007898
 20
544.4352179718541
 30
0.0
 10
540.9670254234044
 20
544.7306013700368
 30
0.0
 10
540.7801741405073
 20
544.9733500097782
 30
0.0
 10
540.6994761687356
 20
545.078189123397
 30
0.0
  0
SPLINE
  5
27D
330
1F
100
AcDbEntity
  8
0
  6
Continuous
 62
     7
370
    25
100
AcDbSpline
210
0.0
220
0.0
230
1.0
 70
     8
 71
     3
 72
    10
 73
     6
 74
     0
 42
0.000000001
 43
0.00000001
 40
0.0
 40
0.0
 40
0.0
 40
0.0
 40
0.2867407856331777
 40
0.5597321085861933
 40
1.0
 40
1.0
 40
1.0
 40
1.0
 10
540.6994761687356
 20
545.078189123397
 30
0.0
 10
540.591055334383
 20
545.1872389362226
 30
0.0
 10
540.379412536192
 20
545.4001095313107
 30
0.0
 10
539.9007964686394
 20
545.6637707205734
 30
0.0
 10
539.5164202775006
 20
545.6998892083909
 30
0.0
 10
539.2791594166893
 20
545.7221837825824
 30
0.0
  0
SPLINE
  5
27E
330
1F
100
AcDbEntity
  8
0
  6
Continuous
 62
     7
370
    25
100
AcDbSpline
210
0.0
220
0.0
230
1.0
 70
     8
 71
     3
 72
     9
 73
     5
 74
     0
 42
0.000000001
 43
0.00000001
 40
0.0
 40
0.0
 40
0.0
 40
0.0
 40
0.5574052743771748
 40
1.0
 40
1.0
 40
1.0
 40
1.0
 10
539.2791594166893
 20
545.7221837825824
 30
0.0
 10
539.149346870154
 20
545.7153657975426
 30
0.0
 10
538.9164596828548
 20
545.7031341496677
 30
0.0
 10
538.696821353162
 20
545.6258277585756
 30
0.0
 10
538.5996105868953
 20
545.5916123576213
 30
0.0
  0
SPLINE
  5
27F
330
1F
100
AcDbEntity
  8
0
  6
Continuous
 62
     7
370
    25
100
AcDbSpline
210
0.0
220
0.0
230
1.0
 70
     8
 71
     3
 72
     9
 73
     5
 74
     0
 42
0.000000001
 43
0.00000001
 40
0.0
 40
0.0
 40
0.0
 40
0.0
 40
0.5917281108281665
 40
1.0
 40
1.0
 40
1.0
 40
1.0
 10
538.5996105868953
 20
545.5916123576213
 30
0.0
 10
538.472556908354
 20
545.5372191719974
 30
0.0
 10
538.257840594871
 20
545.4452965733774
 30
0.0
 10
538.1041757403849
 20
545.2712293375596
 30
0.0
 10
538.0414386999446
 20
545.2001625783494
 30
0.0
  0
LINE
  5
280
330
1F
100
AcDbEntity
  8
0
  6
Continuous
 62
     7
370
    25
100
AcDbLine
 10
538.0414386999
 20
545.2001625783
 30
0.0
 11
538.0414386999
 21
547.1774945147
 31
0.0
  0
LINE
  5
281
330
1F
100
AcDbEntity
  8
0
  6
Continuous
 62
     7
370
    25
100
AcDbLine
 10
538.0414386999
 20
547.1774945147
 30
0.0
 11
536.8824645665
 21
547.1774945147
 31
0.0
  0
LINE
  5
282
330
1F
100
AcDbEntity
  8
0
  6
Continuous
 62
     7
370
    25
100
AcDbLine
 10
536.8824645665
 20
547.1774945147
 30
0.0
 11
536.8824645665
 21
540.5842410512
 31
0.0
  0
LINE
  5
283
330
1F
100
AcDbEntity
  8
0
  6
Continuous
 62
     7
370
    25
100
AcDbLine
 10
536.8824645665
 20
540.5842410512
 30
0.0
 11
538.0414386999
 21
540.5842410512
 31
0.0
  0
LINE
  5
284
330
1F
100
AcDbEntity
  8
0
  6
Continuous
 62
     7
370
    25
100
AcDbLine
 10
538.0414386999
 20
540.5842410512
 30
0.0
 11
538.0414386999
 21
543.0824356265
 31
0.0
  0
SPLINE
  5
285
330
1F
100
AcDbEntity
  8
0
  6
Continuous
 62
     7
370
    25
100
AcDbSpline
210
0.0
220
0.0
230
1.0
 70
     8
 71
     3
 72
    10
 73
     6
 74
     0
 42
0.000000001
 43
0.00000001
 40
0.0
 40
0.0
 40
0.0
 40
0.0
 40
0.6629784023180776
 40
0.8498302022485121
 40
0.9999999999999999
 40
0.9999999999999999
 40
0.9999999999999999
 40
0.9999999999999999
 10
538.0414386999446
 20
543.0824356265117
 30
0.0
 10
538.0472685633238
 20
543.3293361135082
 30
0.0
 10
538.0547414975207
 20
543.6458222766558
 30
0.0
 10
538.1408550564166
 20
544.0102201142703
 30
0.0
 10
538.1986811910879
 20
544.1216937359493
 30
0.0
 10
538.2244473111468
 20
544.1713640577842
 30
0.0
  0
SPLINE
  5
286
330
1F
100
AcDbEntity
  8
0
  6
Continuous
 62
     7
370
    25
100
AcDbSpline
210
0.0
220
0.0
230
1.0
 70
     8
 71
     3
 72
    10
 73
     6
 74
     0
 42
0.000000001
 43
0.00000001
 40
0.0
 40
0.0
 40
0.0
 40
0.0
 40
0.2830794603416066
 40
0.5514302990154285
 40
1.0
 40
1.0
 40
1.0
 40
1.0
 10
538.2244473111468
 20
544.1713640577842
 30
0.0
 10
538.2775699480894
 20
544.2422200707579
 30
0.0
 10
538.3810512516723
 20
544.3802454590143
 30
0.0
 10
538.6503971753243
 20
544.5545214158252
 30
0.0
 10
538.8762942274395
 20
544.5759791062238
 30
0.0
 10
539.017635655834
 20
544.5894049592067
 30
0.0
  0
SPLINE
  5
287
330
1F
100
AcDbEntity
  8
0
  6
Continuous
 62
     7
370
    25
100
AcDbSpline
210
0.0
220
0.0
230
1.0
 70
     8
 71
     3
 72
    11
 73
     7
 74
     0
 42
0.000000001
 43
0.00000001
 40
0.0
 40
0.0
 40
0.0
 40
0.0
 40
0.3089119763290583
 40
0.5793208281267269
 40
0.7843314101036982
 40
1.0
 40
1.0
 40
1.0
 40
1.0
 10
539.017635655834
 20
544.5894049592067
 30
0.0
 10
539.1226935538165
 20
544.5837201106098
 30
0.0
 10
539.3197148191739
 20
544.5730589791243
 30
0.0
 10
539.568597221029
 20
544.4650391638606
 30
0.0
 10
539.7476898052197
 20
544.3084446104282
 30
0.0
 10
539.8178823978553
 20
544.183561398308
 30
0.0
 10
539.8538678672749
 20
544.119537819152
 30
0.0
  0
SPLINE
  5
288
330
1F
100
AcDbEntity
  8
0
  6
Continuous
 62
     7
370
    25
100
AcDbSpline
210
0.0
220
0.0
230
1.0
 70
     8
 71
     3
 72
     9
 73
     5
 74
     0
 42
0.000000001
 43
0.00000001
 40
0.0
 40
0.0
 40
0.0
 40
0.0
 40
0.4805288373804092
 40
1.0
 40
1.0
 40
1.0
 40
1.0
 10
539.8538678672749
 20
544.119537819152
 30
0.0
 10
539.900933932081
 20
543.9596632438476
 30
0.0
 10
539.9988803218599
 20
543.6269577684053
 30
0.0
 10
540.0002051985753
 20
543.2799584739591
 30
0.0
 10
540.000893433823
 20
543.0997023470451
 30
0.0
  0
LINE
  5
289
330
1F
100
AcDbEntity
  8
0
  6
Continuous
 62
     7
370
    25
100
AcDbLine
 10
540.0008934338
 20
543.099702347
 30
0.0
 11
540.0008934338
 21
540.5842410512
 31
0.0
  0
LINE
  5
28A
330
1F
100
AcDbEntity
  8
0
  6
Continuous
 62
     7
370
    25
100
AcDbLine
 10
540.0008934338
 20
540.5842410512
 30
0.0
 11
541.1610252012
 21
540.5842410512
 31
0.0
  0
LINE
  5
28B
330
1F
100
AcDbEntity
  8
0
  6
Continuous
 62
     7
370
    25
100
AcDbLine
 10
541.1610252012
 20
540.5842410512
 30
0.0
 11
541.1610252012
 21
542.1928735561
 31
0.0
  0
SPLINE
  5
28C
330
1F
100
AcDbEntity
  8
0
  6
Continuous
 62
     7
370
    25
100
AcDbSpline
210
0.0
220
0.0
230
1.0
 70
     8
 71
     3
 72
     9
 73
     5
 74
     0
 42
0.000000001
 43
0.00000001
 40
0.0
 40
0.0
 40
0.0
 40
0.0
 40
0.5496453553866036
 40
1.0
 40
1.0
 40
1.0
 40
1.0
 10
541.1610252012151
 20
542.192873556142
 30
0.0
 10
541.2418155563381
 20
542.0170466394419
 30
0.0
 10
541.3888018891275
 20
541.697155067582
 30
0.0
 10
541.6272081743322
 20
541.4388999707228
 30
0.0
 10
541.7345755521792
 20
541.3225935883572
 30
0.0
  0
SPLINE
  5
28D
330
1F
100
AcDbEntity
  8
0
  6
Continuous
 62
     7
370
    25
100
AcDbSpline
210
0.0
220
0.0
230
1.0
 70
     8
 71
     3
 72
     9
 73
     5
 74
     0
 42
0.000000001
 43
0.00000001
 40
0.0
 40
0.0
 40
0.0
 40
0.0
 40
0.5572824259143775
 40
1.0
 40
1.0
 40
1.0
 40
1.0
 10
541.7345755521792
 20
541.3225935883571
 30
0.0
 10
542.0312921966535
 20
541.0847709543976
 30
0.0
 10
542.5637271536458
 20
540.6580167218927
 30
0.0
 10
543.2395069984339
 20
540.6050235680083
 30
0.0
 10
543.5386866119343
 20
540.5815625674774
 30
0.0
  0
SPLINE
  5
28E
330
1F
100
AcDbEntity
  8
0
  6
Continuous
 62
     7
370
    25
100
AcDbSpline
210
0.0
220
0.0
230
1.0
 70
     8
 71
     3
 72
     9
 73
     5
 74
     0
 42
0.000000001
 43
0.00000001
 40
0.0
 40
0.0
 40
0.0
 40
0.0
 40
0.5522050707966117
 40
1.0
 40
1.0
 40
1.0
 40
1.0
 10
543.5386866119343
 20
540.5815625674774
 30
0.0
 10
543.8186093520167
 20
540.6064615861811
 30
0.0
 10
544.3255274425707
 20
540.6515517528971
 30
0.0
 10
544.7618733236837
 20
540.9100906383196
 30
0.0
 10
544.9572667966249
 20
541.0258630402138
 30
0.0
  0
SPLINE
  5
28F
330
1F
100
AcDbEntity
  8
0
  6
Continuous
 62
     7
370
    25
100
AcDbSpline
210
0.0
220
0.0
230
1.0
 70
     8
 71
     3
 72
     9
 73
     5
 74
     0
 42
0.000000001
 43
0.00000001
 40
0.0
 40
0.0
 40
0.0
 40
0.0
 40
0.5793675049360669
 40
0.9999999999999999
 40
0.9999999999999999
 40
0.9999999999999999
 40
0.9999999999999999
 10
544.9572667966249
 20
541.0258630402137
 30
0.0
 10
545.1827281635027
 20
541.1996477225582
 30
0.0
 10
545.5718790305376
 20
541.4996035897133
 30
0.0
 10
545.7713211469922
 20
541.9452573781481
 30
0.0
 10
545.8552129820573
 20
542.1327138431122
 30
0.0
  0
LINE
  5
290
330
1F
100
AcDbEntity
  8
0
  6
Continuous
 62
     7
370
    25
100
AcDbLine
 10
545.8552129821
 20
542.1327138431
 30
0.0
 11
544.5738028756
 21
542.1327138431
 31
0.0
  0
SPLINE
  5
291
330
1F
100
AcDbEntity
  8
0
  6
Continuous
 62
     7
370
    25
100
AcDbSpline
210
0.0
220
0.0
230
1.0
 70
     8
 71
     3
 72
    10
 73
     6
 74
     0
 42
0.000000001
 43
0.00000001
 40
0.0
 40
0.0
 40
0.0
 40
0.0
 40
0.2598938369848243
 40
0.5269056097581101
 40
1.0
 40
1.0
 40
1.0
 40
1.0
 10
544.5738028755995
 20
542.1327138431121
 30
0.0
 10
544.4989318054779
 20
542.0609953312387
 30
0.0
 10
544.3471391069155
 20
541.9155940909939
 30
0.0
 10
543.9782641960471
 20
541.7472914328861
 30
0.0
 10
543.6827842446166
 20
541.7274131594174
 30
0.0
 10
543.4939060614097
 20
541.7147064693024
 30
0.0
  0
SPLINE
  5
292
330
1F
100
AcDbEntity
  8
0
  6
Continuous
 62
     7
370
    25
100
AcDbSpline
210
0.0
220
0.0
230
1.0
 70
     8
 71
     3
 72
     9
 73
     5
 74
     0
 42
0.000000001
 43
0.00000001
 40
0.0
 40
0.0
 40
0.0
 40
0.0
 40
0.5576519925024863
 40
1.0
 40
1.0
 40
1.0
 40
1.0
 10
543.4939060614097
 20
541.7147064693023
 30
0.0
 10
543.3351781844704
 20
541.7280490427756
 30
0.0
 10
543.0505421048483
 20
541.7519753868984
 30
0.0
 10
542.8085316725967
 20
541.9014590843369
 30
0.0
 10
542.7014788400966
 20
541.9675829000522
 30
0.0
  0
SPLINE
  5
293
330
1F
100
AcDbEntity
  8
0
  6
Continuous
 62
     7
370
    25
100
AcDbSpline
210
0.0
220
0.0
230
1.0
 70
     8
 71
     3
 72
     9
 73
     5
 74
     0
 42
0.000000001
 43
0.00000001
 40
0.0
 40
0.0
 40
0.0
 40
0.0
 40
0.5561316016063198
 40
1.0
 40
1.0
 40
1.0
 40
1.0
 10
542.7014788400966
 20
541.9675829000522
 30
0.0
 10
542.5825607559692
 20
542.0712454946135
 30
0.0
 10
542.3687299220734
 20
542.2576448904791
 30
0.0
 10
542.2670871353583
 20
542.5211663192462
 30
0.0
 10
542.2219711144107
 20
542.6381351537754
 30
0.0
  0
LINE
  5
294
330
1F
100
AcDbEntity
  8
0
  6
Continuous
 62
     7
370
    25
100
AcDbLine
 10
542.2219711144
 20
542.6381351538
 30
0.0
 11
545.8710714847
 21
542.6381351538
 31
0.0
  0
LINE
  5
295
330
1F
100
AcDbEntity
  8
0
  6
Continuous
 62
     7
370
    25
100
AcDbLine
 10
545.8710714847
 20
542.6381351538
 30
0.0
 11
545.8710714847
 21
539.3258156366
 31
0.0
  0
LINE
  5
296
330
1F
100
AcDbEntity
  8
0
  6
Continuous
 62
     7
370
    25
100
AcDbLine
 10
545.8710714847
 20
539.3258156366
 30
0.0
 11
547.0305417802
 21
539.3258156366
 31
0.0
  0
LINE
  5
297
330
1F
100
AcDbEntity
  8
0
  6
Continuous
 62
     7
370
    25
100
AcDbLine
 10
547.0305417802
 20
539.3258156366
 30
0.0
 11
547.0305417802
 21
541.2621023245
 31
0.0
  0
SPLINE
  5
298
330
1F
100
AcDbEntity
  8
0
  6
Continuous
 62
     7
370
    25
100
AcDbSpline
210
0.0
220
0.0
230
1.0
 70
     8
 71
     3
 72
    10
 73
     6
 74
     0
 42
0.000000001
 43
0.00000001
 40
0.0
 40
0.0
 40
0.0
 40
0.0
 40
0.2822307345773455
 40
0.553417730552744
 40
1.0
 40
1.0
 40
1.0
 40
1.0
 10
547.0305417801837
 20
541.2621023244907
 30
0.0
 10
547.138418880307
 20
541.1466430324899
 30
0.0
 10
547.3499518305304
 20
540.920242391022
 30
0.0
 10
547.8481321616896
 20
540.6410016816609
 30
0.0
 10
548.2519490209339
 20
540.6043601966393
 30
0.0
 10
548.5031961251634
 20
540.5815625674774
 30
0.0
  0
SPLINE
  5
299
330
1F
100
AcDbEntity
  8
0
  6
Continuous
 62
     7
370
    25
100
AcDbSpline
210
0.0
220
0.0
230
1.0
 70
     8
 71
     3
 72
     9
 73
     5
 74
     0
 42
0.000000001
 43
0.00000001
 40
0.0
 40
0.0
 40
0.0
 40
0.0
 40
0.5554482022430655
 40
0.9999999999999999
 40
0.9999999999999999
 40
0.9999999999999999
 40
0.9999999999999999
 10
548.5031961251634
 20
540.5815625674774
 30
0.0
 10
548.874026509876
 20
540.6237857096277
 30
0.0
 10
549.541650211267
 20
540.6998020545898
 30
0.0
 10
550.0289705104168
 20
541.1553164602076
 30
0.0
 10
550.2456096254873
 20
541.3578162081292
 30
0.0
  0
SPLINE
  5
29A
330
1F
100
AcDbEntity
  8
0
  6
Continuous
 62
     7
370
    25
100
AcDbSpline
210
0.0
220
0.0
230
1.0
 70
     8
 71
     3
 72
     9
 73
     5
 74
     0
 42
0.000000001
 43
0.00000001
 40
0.0
 40
0.0
 40
0.0
 40
0.0
 40
0.565748666703804
 40
1.0
 40
1.0
 40
1.0
 40
1.0
 10
550.2456096254873
 20
541.3578162081291
 30
0.0
 10
550.3508703150451
 20
541.4853883697971
 30
0.0
 10
550.5369258830962
 20
541.7108810119825
 30
0.0
 10
550.6610705962371
 20
541.9751118043464
 30
0.0
 10
550.7149806034404
 20
542.0898543782284
 30
0.0
  0
SPLINE
  5
29B
330
1F
100
AcDbEntity
  8
0
  6
Continuous
 62
     7
370
    25
100
AcDbSpline
210
0.0
220
0.0
230
1.0
 70
     8
 71
     3
 72
     9
 73
     5
 74
     0
 42
0.000000001
 43
0.00000001
 40
0.0
 40
0.0
 40
0.0
 40
0.0
 40
0.5501103326953626
 40
1.0
 40
1.0
 40
1.0
 40
1.0
 10
550.7149806034404
 20
542.0898543782283
 30
0.0
 10
550.7934120469224
 20
541.9359748218955
 30
0.0
 10
550.9359860703875
 20
541.6562499245665
 30
0.0
 10
551.1489833457883
 20
541.4261245959065
 30
0.0
 10
551.2448086191553
 20
541.3225935883572
 30
0.0
  0
SPLINE
  5
29C
330
1F
100
AcDbEntity
  8
0
  6
Continuous
 62
     7
370
    25
100
AcDbSpline
210
0.0
220
0.0
230
1.0
 70
     8
 71
     3
 72
     9
 73
     5
 74
     0
 42
0.000000001
 43
0.00000001
 40
0.0
 40
0.0
 40
0.0
 40
0.0
 40
0.5575956509067009
 40
1.0
 40
1.0
 40
1.0
 40
1.0
 10
551.2448086191553
 20
541.3225935883571
 30
0.0
 10
551.5418949612831
 20
541.0847705549303
 30
0.0
 10
552.0746938481553
 20
540.6582553318649
 30
0.0
 10
552.75058187789
 20
540.6050852451026
 30
0.0
 10
553.0495976817447
 20
540.5815625674774
 30
0.0
  0
SPLINE
  5
29D
330
1F
100
AcDbEntity
  8
0
  6
Continuous
 62
     7
370
    25
100
AcDbSpline
210
0.0
220
0.0
230
1.0
 70
     8
 71
     3
 72
     9
 73
     5
 74
     0
 42
0.000000001
 43
0.00000001
 40
0.0
 40
0.0
 40
0.0
 40
0.0
 40
0.5518985417199924
 40
1.0
 40
1.0
 40
1.0
 40
1.0
 10
553.0495976817447
 20
540.5815625674774
 30
0.0
 10
553.3294169029713
 20
540.6065164187156
 30
0.0
 10
553.8364289714478
 20
540.6517309814511
 30
0.0
 10
554.2730203711138
 20
540.9100913723087
 30
0.0
 10
554.4686576139766
 20
541.0258630402137
 30
0.0
  0
SPLINE
  5
29E
330
1F
100
AcDbEntity
  8
0
  6
Continuous
 62
     7
370
    25
100
AcDbSpline
210
0.0
220
0.0
230
1.0
 70
     8
 71
     3
 72
     9
 73
     5
 74
     0
 42
0.000000001
 43
0.00000001
 40
0.0
 40
0.0
 40
0.0
 40
0.0
 40
0.5793900251295262
 40
1.0
 40
1.0
 40
1.0
 40
1.0
 10
554.4686576139766
 20
541.0258630402137
 30
0.0
 10
554.6941586966366
 20
541.1996404933193
 30
0.0
 10
555.0833629854222
 20
541.4995722242231
 30
0.0
 10
555.2828008026005
 20
541.9452551562656
 30
0.0
 10
555.3666863378721
 20
542.1327138431122
 30
0.0
  0
LINE
  5
29F
330
1F
100
AcDbEntity
  8
0
  6
Continuous
 62
     7
370
    25
100
AcDbLine
 10
555.3666863379
 20
542.1327138431
 30
0.0
 11
554.085838401
 21
542.1327138431
 31
0.0
  0
SPLINE
  5
2A0
330
1F
100
AcDbEntity
  8
0
  6
Continuous
 62
     7
370
    25
100
AcDbSpline
210
0.0
220
0.0
230
1.0
 70
     8
 71
     3
 72
    10
 73
     6
 74
     0
 42
0.000000001
 43
0.00000001
 40
0.0
 40
0.0
 40
0.0
 40
0.0
 40
0.2606349559638181
 40
0.5276924759079469
 40
1.0
 40
1.0
 40
1.0
 40
1.0
 10
554.0858384010035
 20
542.1327138431121
 30
0.0
 10
554.0105403112932
 20
542.0610236585793
 30
0.0
 10
553.8580886370983
 20
541.9158767007026
 30
0.0
 10
553.4893747161178
 20
541.7473557634693
 30
0.0
 10
553.1941406812527
 20
541.7274330983414
 30
0.0
 10
553.0055447269815
 20
541.7147064693023
 30
0.0
  0
SPLINE
  5
2A1
330
1F
100
AcDbEntity
  8
0
  6
Continuous
 62
     7
370
    25
100
AcDbSpline
210
0.0
220
0.0
230
1.0
 70
     8
 71
     3
 72
     9
 73
     5
 74
     0
 42
0.000000001
 43
0.00000001
 40
0.0
 40
0.0
 40
0.0
 40
0.0
 40
0.5576809654849848
 40
1.0
 40
1.0
 40
1.0
 40
1.0
 10
553.0055447269815
 20
541.7147064693023
 30
0.0
 10
552.8466765835614
 20
541.7280459744334
 30
0.0
 10
552.5618037741011
 20
541.751965573553
 30
0.0
 10
552.3195224772568
 20
541.9014590776526
 30
0.0
 10
552.2123568479556
 20
541.9675829000522
 30
0.0
  0
SPLINE
  5
2A2
330
1F
100
AcDbEntity
  8
0
  6
Continuous
 62
     7
370
    25
100
AcDbSpline
210
0.0
220
0.0
230
1.0
 70
     8
 71
     3
 72
     9
 73
     5
 74
     0
 42
0.000000001
 43
0.00000001
 40
0.0
 40
0.0
 40
0.0
 40
0.0
 40
0.5561656658609375
 40
0.9999999999999999
 40
0.9999999999999999
 40
0.9999999999999999
 40
0.9999999999999999
 10
552.2123568479556
 20
541.9675829000522
 30
0.0
 10
552.0934417940558
 20
542.0712396268492
 30
0.0
 10
551.8796295053817
 20
542.2576170556615
 30
0.0
 10
551.7781412790796
 20
542.5211639800673
 30
0.0
 10
551.7330973197359
 20
542.6381351537754
 30
0.0
  0
LINE
  5
2A3
330
1F
100
AcDbEntity
  8
0
  6
Continuous
 62
     7
370
    25
100
AcDbLine
 10
551.7330973197
 20
542.6381351538
 30
0.0
 11
555.4090522018
 21
542.6381351538
 31
0.0
  0
LINE
  5
2A4
330
1F
100
AcDbEntity
  8
0
  6
Continuous
 62
     7
370
    25
100
AcDbLine
 10
555.4090522018
 20
542.6381351538
 30
0.0
 11
555.4090522018
 21
540.5842410512
 31
0.0
  0
LINE
  5
2A5
330
1F
100
AcDbEntity
  8
0
  6
Continuous
 62
     7
370
    25
100
AcDbLine
 10
555.4090522018
 20
540.5842410512
 30
0.0
 11
556.5678614911
 21
540.5842410512
 31
0.0
  0
LINE
  5
2A6
330
1F
100
AcDbEntity
  8
0
  6
Continuous
 62
     7
370
    25
100
AcDbLine
 10
556.5678614911
 20
540.5842410512
 30
0.0
 11
556.5678614911
 21
543.3439435549
 31
0.0
  0
SPLINE
  5
2A7
330
1F
100
AcDbEntity
  8
0
  6
Continuous
 62
     7
370
    25
100
AcDbSpline
210
0.0
220
0.0
230
1.0
 70
     8
 71
     3
 72
     9
 73
     5
 74
     0
 42
0.000000001
 43
0.00000001
 40
0.0
 40
0.0
 40
0.0
 40
0.0
 40
0.6525672093875345
 40
1.0
 40
1.0
 40
1.0
 40
1.0
 10
556.5678614911276
 20
543.3439435548831
 30
0.0
 10
556.5678672649165
 20
543.4680581831666
 30
0.0
 10
556.5678761127239
 20
543.6582525822997
 30
0.0
 10
556.5997986048683
 20
543.8454700266527
 30
0.0
 10
556.6108895253974
 20
543.9105155057957
 30
0.0
  0
SPLINE
  5
2A8
330
1F
100
AcDbEntity
  8
0
  6
Continuous
 62
     7
370
    25
100
AcDbSpline
210
0.0
220
0.0
230
1.0
 70
     8
 71
     3
 72
     9
 73
     5
 74
     0
 42
0.000000001
 43
0.00000001
 40
0.0
 40
0.0
 40
0.0
 40
0.0
 40
0.561244830146827
 40
1.0
 40
1.0
 40
1.0
 40
1.0
 10
556.6108895253974
 20
543.9105155057956
 30
0.0
 10
556.6419163992823
 20
544.0118677565299
 30
0.0
 10
556.6971986437117
 20
544.1924524947584
 30
0.0
 10
556.8374051786448
 20
544.3173036216706
 30
0.0
 10
556.8989215206939
 20
544.3720826990655
 30
0.0
  0
SPLINE
  5
2A9
330
1F
100
AcDbEntity
  8
0
  6
Continuous
 62
     7
370
    25
100
AcDbSpline
210
0.0
220
0.0
230
1.0
 70
     8
 71
     3
 72
     9
 73
     5
 74
     0
 42
0.000000001
 43
0.00000001
 40
0.0
 40
0.0
 40
0.0
 40
0.0
 40
0.5401633006415699
 40
0.9999999999999999
 40
0.9999999999999999
 40
0.9999999999999999
 40
0.9999999999999999
 10
556.8989215206939
 20
544.3720826990653
 30
0.0
 10
557.0161182564013
 20
544.4448254154355
 30
0.0
 10
557.2330836362562
 20
544.5794934246907
 30
0.0
 10
557.4872567027255
 20
544.5926497823979
 30
0.0
 10
557.6041348066765
 20
544.5986995585014
 30
0.0
  0
LINE
  5
2AA
330
1F
100
AcDbEntity
  8
0
  6
Continuous
 62
     7
370
    25
100
AcDbLine
 10
557.6041348067
 20
544.5986995585
 30
0.0
 11
557.6041348067
 21
546.1917007453
 31
0.0
  0
LINE
  5
2AB
330
1F
100
AcDbEntity
  8
0
  6
Continuous
 62
     7
370
    25
100
AcDbLine
 10
557.6041348067
 20
546.1917007453
 30
0.0
 11
557.5164917645
 21
546.1917007453
 31
0.0
  0
SPLINE
  5
2AC
330
1F
100
AcDbEntity
  8
0
  6
Continuous
 62
     7
370
    25
100
AcDbSpline
210
0.0
220
0.0
230
1.0
 70
     8
 71
     3
 72
    10
 73
     6
 74
     0
 42
0.000000001
 43
0.00000001
 40
0.0
 40
0.0
 40
0.0
 40
0.0
 40
0.2799746556217687
 40
0.5478589942892478
 40
0.9999999999999999
 40
0.9999999999999999
 40
0.9999999999999999
 40
0.9999999999999999
 10
557.5164917644697
 20
546.1917007453491
 30
0.0
 10
557.3987806271056
 20
546.1833497139323
 30
0.0
 10
557.168441544485
 20
546.1670082788011
 30
0.0
 10
556.7749816768353
 20
545.9889812932042
 30
0.0
 10
556.5829469644485
 20
545.7497732071274
 30
0.0
 10
556.4623584759074
 20
545.5995621271182
 30
0.0
  0
LINE
  5
2AD
330
1F
100
AcDbEntity
  8
0
  6
Continuous
 62
     7
370
    25
100
AcDbLine
 10
556.4623584759
 20
545.5995621271
 30
0.0
 11
556.4623584759
 21
546.0345381982
 31
0.0
  0
LINE
  5
2AE
330
1F
100
AcDbEntity
  8
0
  6
Continuous
 62
     7
370
    25
100
AcDbLine
 10
556.4623584759
 20
546.0345381982
 30
0.0
 11
555.4090522018
 21
546.0345381982
 31
0.0
  0
LINE
  5
2AF
330
1F
100
AcDbEntity
  8
0
  6
Continuous
 62
     7
370
    25
100
AcDbLine
 10
555.4090522018
 20
546.0345381982
 30
0.0
 11
555.4090522018
 21
543.996573437
 31
0.0
  0
SPLINE
  5
2B0
330
1F
100
AcDbEntity
  8
0
  6
Continuous
 62
     7
370
    25
100
AcDbSpline
210
0.0
220
0.0
230
1.0
 70
     8
 71
     3
 72
     9
 73
     5
 74
     0
 42
0.000000001
 43
0.00000001
 40
0.0
 40
0.0
 40
0.0
 40
0.0
 40
0.5479000710912318
 40
0.9999999999999999
 40
0.9999999999999999
 40
0.9999999999999999
 40
0.9999999999999999
 10
555.4090522017914
 20
543.9965734369804
 30
0.0
 10
555.3277547337832
 20
544.1913486293405
 30
0.0
 10
555.179374632561
 20
544.5468426375309
 30
0.0
 10
554.9239105559443
 20
544.8342737374545
 30
0.0
 10
554.8084152650672
 20
544.9642213172962
 30
0.0
  0
SPLINE
  5
2B1
330
1F
100
AcDbEntity
  8
0
  6
Continuous
 62
     7
370
    25
100
AcDbSpline
210
0.0
220
0.0
230
1.0
 70
     8
 71
     3
 72
     9
 73
     5
 74
     0
 42
0.000000001
 43
0.00000001
 40
0.0
 40
0.0
 40
0.0
 40
0.0
 40
0.5610083971276438
 40
0.9999999999999999
 40
0.9999999999999999
 40
0.9999999999999999
 40
0.9999999999999999
 10
554.8084152650672
 20
544.9642213172962
 30
0.0
 10
554.5236913609253
 20
545.207597106827
 30
0.0
 10
554.016169716687
 20
545.6414155501463
 30
0.0
 10
553.3559605331093
 20
545.6975439057774
 30
0.0
 10
553.0661342453795
 20
545.7221837825824
 30
0.0
  0
SPLINE
  5
2B2
330
1F
100
AcDbEntity
  8
0
  6
Continuous
 62
     7
370
    25
100
AcDbSpline
210
0.0
220
0.0
230
1.0
 70
     8
 71
     3
 72
     9
 73
     5
 74
     0
 42
0.000000001
 43
0.00000001
 40
0.0
 40
0.0
 40
0.0
 40
0.0
 40
0.559396071231645
 40
1.0
 40
1.0
 40
1.0
 40
1.0
 10
553.0661342453795
 20
545.7221837825824
 30
0.0
 10
552.6803606012212
 20
545.6818341064372
 30
0.0
 10
551.9907353714461
 20
545.609703324295
 30
0.0
 10
551.4729478398457
 20
545.1561059716928
 30
0.0
 10
551.2448086191553
 20
544.9562491960575
 30
0.0
  0
SPLINE
  5
2B3
330
1F
100
AcDbEntity
  8
0
  6
Continuous
 62
     7
370
    25
100
AcDbSpline
210
0.0
220
0.0
230
1.0
 70
     8
 71
     3
 72
     9
 73
     5
 74
     0
 42
0.000000001
 43
0.00000001
 40
0.0
 40
0.0
 40
0.0
 40
0.0
 40
0.5679856072579937
 40
0.9999999999999999
 40
0.9999999999999999
 40
0.9999999999999999
 40
0.9999999999999999
 10
551.2448086191553
 20
544.9562491960575
 30
0.0
 10
551.1283650442181
 20
544.825089102211
 30
0.0
 10
550.9233535554598
 20
544.594167592633
 30
0.0
 10
550.786411326559
 20
544.3179461815073
 30
0.0
 10
550.7272503126997
 20
544.1986145563175
 30
0.0
  0
SPLINE
  5
2B4
330
1F
100
AcDbEntity
  8
0
  6
Continuous
 62
     7
370
    25
100
AcDbSpline
210
0.0
220
0.0
230
1.0
 70
     8
 71
     3
 72
     9
 73
     5
 74
     0
 42
0.000000001
 43
0.00000001
 40
0.0
 40
0.0
 40
0.0
 40
0.0
 40
0.5543910461462443
 40
1.0
 40
1.0
 40
1.0
 40
1.0
 10
550.7272503126997
 20
544.1986145563175
 30
0.0
 10
550.6575491760491
 20
544.3470047922489
 30
0.0
 10
550.5318235945576
 20
544.614668270876
 30
0.0
 10
550.3394631817937
 20
544.8387626572767
 30
0.0
 10
550.2537456594991
 20
544.9386211223651
 30
0.0
  0
SPLINE
  5
2B5
330
1F
100
AcDbEntity
  8
0
  6
Continuous
 62
     7
370
    25
100
AcDbSpline
210
0.0
220
0.0
230
1.0
 70
     8
 71
     3
 72
     9
 73
     5
 74
     0
 42
0.000000001
 43
0.00000001
 40
0.0
 40
0.0
 40
0.0
 40
0.0
 40
0.5625883740441253
 40
1.0
 40
1.0
 40
1.0
 40
1.0
 10
550.2537456594991
 20
544.9386211223651
 30
0.0
 10
549.9688968944413
 20
545.1901971150735
 30
0.0
 10
549.4625786372576
 20
545.6373730687816
 30
0.0
 10
548.7951410746483
 20
545.6963754535332
 30
0.0
 10
548.5031961251634
 20
545.7221837825824
 30
0.0
  0
SPLINE
  5
2B6
330
1F
100
AcDbEntity
  8
0
  6
Continuous
 62
     7
370
    25
100
AcDbSpline
210
0.0
220
0.0
230
1.0
 70
     8
 71
     3
 72
    10
 73
     6
 74
     0
 42
0.000000001
 43
0.00000001
 40
0.0
 40
0.0
 40
0.0
 40
0.0
 40
0.2953972853004468
 40
0.5677976493405621
 40
1.0
 40
1.0
 40
1.0
 40
1.0
 10
548.5031961251634
 20
545.7221837825824
 30
0.0
 10
548.323792010478
 20
545.7113464005117
 30
0.0
 10
547.978950538774
 20
545.690515335465
 30
0.0
 10
547.3971098895885
 20
545.4656834738255
 30
0.0
 10
547.110122351681
 20
545.1390051584561
 30
0.0
 10
546.9340845847155
 20
544.9386211223652
 30
0.0
  0
LINE
  5
2B7
330
1F
100
AcDbEntity
  8
0
  6
Continuous
 62
     7
370
    25
100
AcDbLine
 10
546.9340845847
 20
544.9386211224
 30
0.0
 11
546.9340845847
 21
546.0345381982
 31
0.0
  0
LINE
  5
2B8
330
1F
100
AcDbEntity
  8
0
  6
Continuous
 62
     7
370
    25
100
AcDbLine
 10
546.9340845847
 20
546.0345381982
 30
0.0
 11
545.8710714847
 21
546.0345381982
 31
0.0
  0
LINE
  5
2B9
330
1F
100
AcDbEntity
  8
0
  6
Continuous
 62
     7
370
    25
100
AcDbLine
 10
859.4025715974
 20
454.2633118219
 30
0.0
 11
233.402584472
 21
454.2633118219
 31
0.0
  0
ARC
  5
2BA
330
1F
100
AcDbEntity
  8
0
  6
Continuous
 62
     7
370
    25
100
AcDbCircle
 10
233.4025780347
 20
455.263312567
 30
0.0
 40
1.0
100
AcDbArc
 50
180.0
 51
270.0
  0
LINE
  5
2BB
330
1F
100
AcDbEntity
  8
0
  6
Continuous
 62
     7
370
    25
100
AcDbLine
 10
232.4025675443
 20
455.2633138485
 30
0.0
 11
232.4025675443
 21
553.2633112855
 31
0.0
  0
ARC
  5
2BC
330
1F
100
AcDbEntity
  8
0
  6
Continuous
 62
     7
370
    25
100
AcDbCircle
 10
233.4025780347
 20
553.263312567
 30
0.0
 40
1.0
100
AcDbArc
 50
90.0
 51
180.0
  0
LINE
  5
2BD
330
1F
100
AcDbEntity
  8
0
  6
Continuous
 62
     7
370
    25
100
AcDbLine
 10
233.402584472
 20
554.2633133121
 30
0.0
 11
859.4025715974
 21
554.2633133121
 31
0.0
  0
LINE
  5
2BE
330
1F
100
AcDbEntity
  8
0
  6
Continuous
 62
     7
370
    25
100
AcDbLine
 10
860.4025885251
 20
553.2633112855
 30
0.0
 11
860.4025885251
 21
455.2633138485
 31
0.0
  0
ARC
  5
2BF
330
1F
100
AcDbEntity
  8
0
  6
Continuous
 62
     7
370
    25
100
AcDbCircle
 10
859.4025780347
 20
455.263312567
 30
0.0
 40
1.000000000000114
100
AcDbArc
 50
270.0
 51
0.0
  0
CIRCLE
  5
2C0
330
1F
100
AcDbEntity
  8
0
  6
Continuous
 62
     7
370
    25
100
AcDbCircle
 10
306.4025780347
 20
504.263312567
 30
0.0
 40
29.49999999999994
  0
CIRCLE
  5
2C1
330
1F
100
AcDbEntity
  8
0
  6
Continuous
 62
     7
370
    25
100
AcDbCircle
 10
466.4025780347
 20
504.263312567
 30
0.0
 40
29.5
  0
CIRCLE
  5
2C2
330
1F
100
AcDbEntity
  8
0
  6
Continuous
 62
     7
370
    25
100
AcDbCircle
 10
626.4025780347
 20
504.263312567
 30
0.0
 40
29.49999999999989
  0
CIRCLE
  5
2C3
330
1F
100
AcDbEntity
  8
0
  6
Continuous
 62
     7
370
    25
100
AcDbCircle
 10
786.4025780347
 20
504.263312567
 30
0.0
 40
29.5
  0
LINE
  5
2C4
330
1F
100
AcDbEntity
  8
0
  6
Continuous
 62
     7
370
    25
100
AcDbLine
 10
558.5662925404
 20
546.5884963162
 30
0.0
 11
558.5662925404
 21
545.6268349774
 31
0.0
  0
LINE
  5
2C5
330
1F
100
AcDbEntity
  8
0
  6
Continuous
 62
     7
370
    25
100
AcDbLine
 10
558.5662925404
 20
545.6268349774
 30
0.0
 11
559.0397974264
 21
545.6268349774
 31
0.0
  0
LINE
  5
2C6
330
1F
100
AcDbEntity
  8
0
  6
Continuous
 62
     7
370
    25
100
AcDbLine
 10
559.0397974264
 20
545.6268349774
 30
0.0
 11
559.0397974264
 21
547.0494860895
 31
0.0
  0
LINE
  5
2C7
330
1F
100
AcDbEntity
  8
0
  6
Continuous
 62
     7
370
    25
100
AcDbLine
 10
559.0397974264
 20
547.0494860895
 30
0.0
 11
557.6042009306
 21
547.0494860895
 31
0.0
  0
LINE
  5
2C8
330
1F
100
AcDbEntity
  8
0
  6
Continuous
 62
     7
370
    25
100
AcDbLine
 10
557.6042009306
 20
547.0494860895
 30
0.0
 11
557.6042009306
 21
546.5884963162
 31
0.0
  0
LINE
  5
2C9
330
1F
100
AcDbEntity
  8
0
  6
Continuous
 62
     7
370
    25
100
AcDbLine
 10
557.6042009306
 20
546.5884963162
 30
0.0
 11
558.5662925404
 21
546.5884963162
 31
0.0
  0
LINE
  5
2CA
330
1F
100
AcDbEntity
  8
0
  6
Continuous
 62
     7
370
    25
100
AcDbLine
 10
547.243713252
 20
540.4004538543
 30
0.0
 11
547.243713252
 21
539.3348122127
 31
0.0
  0
LINE
  5
2CB
330
1F
100
AcDbEntity
  8
0
  6
Continuous
 62
     7
370
    25
100
AcDbLine
 10
547.243713252
 20
539.3348122127
 30
0.0
 11
556.5789079082
 21
539.3348122127
 31
0.0
  0
LINE
  5
2CC
330
1F
100
AcDbEntity
  8
0
  6
Continuous
 62
     7
370
    25
100
AcDbLine
 10
556.5789079082
 20
539.3348122127
 30
0.0
 11
556.5789079082
 21
540.4004538543
 31
0.0
  0
LINE
  5
2CD
330
1F
100
AcDbEntity
  8
0
  6
Continuous
 62
     7
370
    25
100
AcDbLine
 10
556.5789079082
 20
540.4004538543
 30
0.0
 11
547.243713252
 21
540.4004538543
 31
0.0
  0
ARC
  5
2CE
330
1F
100
AcDbEntity
  8
0
  6
Continuous
 62
     7
370
    25
100
AcDbCircle
 10
859.4025780347
 20
553.263312567
 30
0.0
 40
1.000000000000114
100
AcDbArc
 50
0.0
 51
90.0
  0
SPLINE
  5
2CF
330
1F
100
AcDbEntity
  8
0
  6
Continuous
 62
     7
370
    25
100
AcDbSpline
210
0.0
220
0.0
230
1.0
 70
     8
 71
     3
 72
     9
 73
     5
 74
     0
 42
0.000000001
 43
0.00000001
 40
0.0
 40
0.0
 40
0.0
 40
0.0
 40
0.5532417156839448
 40
1.0
 40
1.0
 40
1.0
 40
1.0
 10
543.5458305545735
 20
544.5894049592067
 30
0.0
 10
543.3820688163215
 20
544.5751565096409
 30
0.0
 10
543.0860648570948
 20
544.5494020353092
 30
0.0
 10
542.8324003423887
 20
544.396756009228
 30
0.0
 10
542.7190736190068
 20
544.3285601325084
 30
0.0
  0
SPLINE
  5
2D0
330
1F
100
AcDbEntity
  8
0
  6
Continuous
 62
     7
370
    25
100
AcDbSpline
210
0.0
220
0.0
230
1.0
 70
     8
 71
     3
 72
     9
 73
     5
 74
     0
 42
0.000000001
 43
0.00000001
 40
0.0
 40
0.0
 40
0.0
 40
0.0
 40
0.5675801638131218
 40
1.0
 40
1.0
 40
1.0
 40
1.0
 10
542.7190736190068
 20
544.3285601325084
 30
0.0
 10
542.5894479597744
 20
544.2272329765481
 30
0.0
 10
542.3610649620996
 20
544.0487081400217
 30
0.0
 10
542.252070143227
 20
543.781955138161
 30
0.0
 10
542.2049386215049
 20
543.6666058487941
 30
0.0
  0
LINE
  5
2D1
330
1F
100
AcDbEntity
  8
0
  6
Continuous
 62
     7
370
    25
100
AcDbLine
 10
542.2049386215
 20
543.6666058488
 30
0.0
 11
544.8618018089
 21
543.6666058488
 31
0.0
  0
SPLINE
  5
2D2
330
1F
100
AcDbEntity
  8
0
  6
Continuous
 62
     7
370
    25
100
AcDbSpline
210
0.0
220
0.0
230
1.0
 70
     8
 71
     3
 72
     9
 73
     5
 74
     0
 42
0.000000001
 43
0.00000001
 40
0.0
 40
0.0
 40
0.0
 40
0.0
 40
0.5610246318442801
 40
1.0
 40
1.0
 40
1.0
 40
1.0
 10
544.8618018089446
 20
543.6666058487941
 30
0.0
 10
544.7982943140046
 20
543.8163343779529
 30
0.0
 10
544.6850951934398
 20
544.0832184337679
 30
0.0
 10
544.4568430919252
 20
544.2594838870472
 30
0.0
 10
544.3566460416305
 20
544.3368600792935
 30
0.0
  0
SPLINE
  5
2D3
330
1F
100
AcDbEntity
  8
0
  6
Continuous
 62
     7
370
    25
100
AcDbSpline
210
0.0
220
0.0
230
1.0
 70
     8
 71
     3
 72
     9
 73
     5
 74
     0
 42
0.000000001
 43
0.00000001
 40
0.0
 40
0.0
 40
0.0
 40
0.0
 40
0.5537890577493887
 40
0.9999999999999999
 40
0.9999999999999999
 40
0.9999999999999999
 40
0.9999999999999999
 10
544.3566460416305
 20
544.3368600792934
 30
0.0
 10
544.217070535275
 20
544.4179593632064
 30
0.0
 10
543.9650332217844
 20
544.5644037228016
 30
0.0
 10
543.6751704811815
 20
544.5816911292751
 30
0.0
 10
543.5458305545735
 20
544.5894049592067
 30
0.0
  0
SPLINE
  5
2D4
330
1F
100
AcDbEntity
  8
0
  6
Continuous
 62
     7
370
    25
100
AcDbSpline
210
0.0
220
0.0
230
1.0
 70
     8
 71
     3
 72
     9
 73
     5
 74
     0
 42
0.000000001
 43
0.00000001
 40
0.0
 40
0.0
 40
0.0
 40
0.0
 40
0.5527750429553877
 40
1.0
 40
1.0
 40
1.0
 40
1.0
 10
553.0578990255135
 20
544.5894049592067
 30
0.0
 10
552.8940883951933
 20
544.5751070150556
 30
0.0
 10
552.5977460902939
 20
544.5492412594765
 30
0.0
 10
552.3435625106293
 20
544.3967555481889
 30
0.0
 10
552.2298852701324
 20
544.3285601325084
 30
0.0
  0
SPLINE
  5
2D5
330
1F
100
AcDbEntity
  8
0
  6
Continuous
 62
     7
370
    25
100
AcDbSpline
210
0.0
220
0.0
230
1.0
 70
     8
 71
     3
 72
     9
 73
     5
 74
     0
 42
0.000000001
 43
0.00000001
 40
0.0
 40
0.0
 40
0.0
 40
0.0
 40
0.5676033216788514
 40
1.0
 40
1.0
 40
1.0
 40
1.0
 10
552.2298852701324
 20
544.3285601325084
 30
0.0
 10
552.1003244850517
 20
544.2272372243367
 30
0.0
 10
551.8720651001394
 20
544.0487271552412
 30
0.0
 10
551.7634104277295
 20
543.7819565656201
 30
0.0
 10
551.7164285082954
 20
543.6666058487941
 30
0.0
  0
LINE
  5
2D6
330
1F
100
AcDbEntity
  8
0
  6
Continuous
 62
     7
370
    25
100
AcDbLine
 10
551.7164285083
 20
543.6666058488
 30
0.0
 11
554.3733740014
 21
543.6666058488
 31
0.0
  0
SPLINE
  5
2D7
330
1F
100
AcDbEntity
  8
0
  6
Continuous
 62
     7
370
    25
100
AcDbSpline
210
0.0
220
0.0
230
1.0
 70
     8
 71
     3
 72
     9
 73
     5
 74
     0
 42
0.000000001
 43
0.00000001
 40
0.0
 40
0.0
 40
0.0
 40
0.0
 40
0.5614179917327099
 40
1.0
 40
1.0
 40
1.0
 40
1.0
 10
554.3733740013677
 20
543.6666058487942
 30
0.0
 10
554.3096114527924
 20
543.8162933281501
 30
0.0
 10
554.1960373431021
 20
544.0829172724485
 30
0.0
 10
553.9680920860557
 20
544.2594402689725
 30
0.0
 10
553.8681193974453
 20
544.3368600792934
 30
0.0
  0
SPLINE
  5
2D8
330
1F
100
AcDbEntity
  8
0
  6
Continuous
 62
     7
370
    25
100
AcDbSpline
210
0.0
220
0.0
230
1.0
 70
     8
 71
     3
 72
     9
 73
     5
 74
     0
 42
0.000000001
 43
0.00000001
 40
0.0
 40
0.0
 40
0.0
 40
0.0
 40
0.5541483703059933
 40
1.0
 40
1.0
 40
1.0
 40
1.0
 10
553.8681193974453
 20
544.3368600792934
 30
0.0
 10
553.728551873153
 20
544.417959780137
 30
0.0
 10
553.476692386108
 20
544.5643099368629
 30
0.0
 10
553.1870407012507
 20
544.5816665050118
 30
0.0
 10
553.0578990255135
 20
544.5894049592068
 30
0.0
  0
SPLINE
  5
2D9
330
1F
100
AcDbEntity
  8
0
  6
Continuous
 62
     7
370
    25
100
AcDbSpline
210
0.0
220
0.0
230
1.0
 70
     8
 71
     3
 72
    15
 73
    11
 74
     0
 42
0.000000001
 43
0.00000001
 40
0.0
 40
0.0
 40
0.0
 40
0.0
 40
0.1270968708607444
 40
0.2498925014929159
 40
0.372745659784116
 40
0.5000533943260893
 40
0.6272312163913781
 40
0.7500760813990992
 40
0.8728973486780636
 40
1.0
 40
1.0
 40
1.0
 40
1.0
 10
548.3594611541021
 20
544.5824274904777
 30
0.0
 10
548.1688069966956
 20
544.560339659226
 30
0.0
 10
547.793950841767
 20
544.5169114979608
 30
0.0
 10
547.3224681701153
 20
544.1856487829559
 30
0.0
 10
547.0035104738365
 20
543.7171649280436
 30
0.0
 10
546.8897315221892
 20
543.1504253991376
 30
0.0
 10
547.0036020195474
 20
542.5837316909939
 30
0.0
 10
547.3225415708978
 20
542.1154693187822
 30
0.0
 10
547.7938936411805
 20
541.7839794394246
 30
0.0
 10
548.1687978530817
 20
541.7404723017166
 30
0.0
 10
548.3594611541021
 20
541.7183460779239
 30
0.0
  0
SPLINE
  5
2DA
330
1F
100
AcDbEntity
  8
0
  6
Continuous
 62
     7
370
    25
100
AcDbSpline
210
0.0
220
0.0
230
1.0
 70
     8
 71
     3
 72
    15
 73
    11
 74
     0
 42
0.000000001
 43
0.00000001
 40
0.0
 40
0.0
 40
0.0
 40
0.0
 40
0.127301566539659
 40
0.2501039251628407
 40
0.3728526699542675
 40
0.4999466212681562
 40
0.6271704145039002
 40
0.7499274490952734
 40
0.8727041979505548
 40
1.0
 40
1.0
 40
1.0
 40
1.0
 10
548.3594611541021
 20
541.7183460779239
 30
0.0
 10
548.5505485027609
 20
541.7404240590993
 30
0.0
 10
548.9259696169514
 20
541.7837997213295
 30
0.0
 10
549.3979148566048
 20
542.1153130610523
 30
0.0
 10
549.7167139845651
 20
542.5837841590832
 30
0.0
 10
549.8303053847453
 20
543.1504254389603
 30
0.0
 10
549.7168054644183
 20
543.7171123782588
 30
0.0
 10
549.3979882239076
 20
544.1858050543515
 30
0.0
 10
548.9259123266529
 20
544.5170910336906
 30
0.0
 10
548.5505393294901
 20
544.5603878663156
 30
0.0
 10
548.3594611541021
 20
544.5824274904777
 30
0.0
  0
LINE
  5
2DB
330
1F
100
AcDbEntity
  8
0
  6
Continuous
 62
     8
370
    25
100
AcDbLine
 10
861.7025658277
 20
549.0561993904
 30
0.0
 11
861.6808399346
 21
549.0554394312
 31
0.0
  0
LINE
  5
2DC
330
1F
100
AcDbEntity
  8
0
  6
Continuous
 62
     8
370
    25
100
AcDbLine
 10
861.6808399346
 20
548.4711872525
 30
0.0
 11
861.7025658277
 21
548.4704272933
 31
0.0
  0
LINE
  5
2DD
330
1F
100
AcDbEntity
  8
0
  6
Continuous
 62
     8
370
    25
100
AcDbLine
 10
861.7025658277
 20
537.8561997898
 30
0.0
 11
861.6808399346
 21
537.8554398305
 31
0.0
  0
LINE
  5
2DE
330
1F
100
AcDbEntity
  8
0
  6
Continuous
 62
     8
370
    25
100
AcDbLine
 10
861.6808399346
 20
537.2711876519
 30
0.0
 11
861.7025658277
 21
537.2704276927
 31
0.0
  0
LINE
  5
2DF
330
1F
100
AcDbEntity
  8
0
  6
Continuous
 62
     8
370
    25
100
AcDbLine
 10
861.7025658277
 20
526.7561981566
 30
0.0
 11
861.6808399346
 21
526.7554381974
 31
0.0
  0
LINE
  5
2E0
330
1F
100
AcDbEntity
  8
0
  6
Continuous
 62
     8
370
    25
100
AcDbLine
 10
861.6808399346
 20
526.1711860187
 30
0.0
 11
861.7025658277
 21
526.1704279221
 31
0.0
  0
LINE
  5
2E1
330
1F
100
AcDbEntity
  8
0
  6
Continuous
 62
     8
370
    25
100
AcDbLine
 10
861.7025658277
 20
515.6561983861
 30
0.0
 11
861.6808399346
 21
515.6554393582
 31
0.0
  0
LINE
  5
2E2
330
1F
100
AcDbEntity
  8
0
  6
Continuous
 62
     8
370
    25
100
AcDbLine
 10
861.6808399346
 20
515.0711862482
 30
0.0
 11
861.7025658277
 21
515.0704272203
 31
0.0
  0
LINE
  5
2E3
330
1F
100
AcDbEntity
  8
0
  6
Continuous
 62
     8
370
    25
100
AcDbLine
 10
861.7025658277
 20
504.5561979753
 30
0.0
 11
861.6808399346
 21
504.555439122
 31
0.0
  0
LINE
  5
2E4
330
1F
100
AcDbEntity
  8
0
  6
Continuous
 62
     8
370
    25
100
AcDbLine
 10
861.6808399346
 20
503.971186012
 30
0.0
 11
861.7025658277
 21
503.9704271587
 31
0.0
  0
LINE
  5
2E5
330
1F
100
AcDbEntity
  8
0
  6
Continuous
 62
     8
370
    25
100
AcDbLine
 10
861.7025658277
 20
493.4561979137
 30
0.0
 11
861.6808399346
 21
493.4554388858
 31
0.0
  0
LINE
  5
2E6
330
1F
100
AcDbEntity
  8
0
  6
Continuous
 62
     8
370
    25
100
AcDbLine
 10
861.6808399346
 20
492.8711857758
 30
0.0
 11
861.7025658277
 21
492.8704267479
 31
0.0
  0
LINE
  5
2E7
330
1F
100
AcDbEntity
  8
0
  6
Continuous
 62
     8
370
    25
100
AcDbLine
 10
861.7025658277
 20
482.3561972119
 30
0.0
 11
861.6808399346
 21
482.3554391153
 31
0.0
  0
LINE
  5
2E8
330
1F
100
AcDbEntity
  8
0
  6
Continuous
 62
     8
370
    25
100
AcDbLine
 10
861.6808399346
 20
481.7711869366
 30
0.0
 11
861.7025658277
 21
481.7704269774
 31
0.0
  0
LINE
  5
2E9
330
1F
100
AcDbEntity
  8
0
  6
Continuous
 62
     8
370
    25
100
AcDbLine
 10
861.7025658277
 20
471.2561974413
 30
0.0
 11
861.6808399346
 21
471.2554374821
 31
0.0
  0
LINE
  5
2EA
330
1F
100
AcDbEntity
  8
0
  6
Continuous
 62
     8
370
    25
100
AcDbLine
 10
861.6808399346
 20
470.6711853035
 30
0.0
 11
861.7025658277
 21
470.6704253442
 31
0.0
  0
LINE
  5
2EB
330
1F
100
AcDbEntity
  8
0
  6
Continuous
 62
     8
370
    25
100
AcDbLine
 10
861.7025658277
 20
460.0561978407
 30
0.0
 11
861.6808399346
 21
460.0554378815
 31
0.0
  0
LINE
  5
2EC
330
1F
100
AcDbEntity
  8
0
  6
Continuous
 62
     8
370
    25
100
AcDbLine
 10
861.6808399346
 20
459.4711857028
 30
0.0
 11
861.7025658277
 21
459.4704257436
 31
0.0
  0
LINE
  5
2ED
330
1F
100
AcDbEntity
  8
0
  6
Continuous
 62
     8
370
    25
100
AcDbLine
 10
861.909572759
 20
548.0701746531
 30
0.0
 11
861.8025824216
 21
548.0739111192
 31
0.0
  0
LINE
  5
2EE
330
1F
100
AcDbEntity
  8
0
  6
Continuous
 62
     8
370
    25
100
AcDbLine
 10
861.8025824216
 20
538.2527159638
 30
0.0
 11
861.909572759
 21
538.2564487047
 31
0.0
  0
LINE
  5
2EF
330
1F
100
AcDbEntity
  8
0
  6
Continuous
 62
     8
370
    25
100
AcDbLine
 10
861.909572759
 20
536.8701750524
 30
0.0
 11
861.8025824216
 21
536.8739115186
 31
0.0
  0
LINE
  5
2F0
330
1F
100
AcDbEntity
  8
0
  6
Continuous
 62
     8
370
    25
100
AcDbLine
 10
861.8025824216
 20
527.1527143307
 30
0.0
 11
861.909572759
 21
527.1564507968
 31
0.0
  0
LINE
  5
2F1
330
1F
100
AcDbEntity
  8
0
  6
Continuous
 62
     8
370
    25
100
AcDbLine
 10
861.909572759
 20
525.7701752819
 30
0.0
 11
861.8025824216
 21
525.7739098854
 31
0.0
  0
LINE
  5
2F2
330
1F
100
AcDbEntity
  8
0
  6
Continuous
 62
     8
370
    25
100
AcDbLine
 10
861.8025824216
 20
516.0527145602
 30
0.0
 11
861.909572759
 21
516.056450095
 31
0.0
  0
LINE
  5
2F3
330
1F
100
AcDbEntity
  8
0
  6
Continuous
 62
     8
370
    25
100
AcDbLine
 10
861.909572759
 20
514.67017458
 30
0.0
 11
861.8025824216
 21
514.6739110462
 31
0.0
  0
LINE
  5
2F4
330
1F
100
AcDbEntity
  8
0
  6
Continuous
 62
     8
370
    25
100
AcDbLine
 10
861.8025824216
 20
504.9527144986
 30
0.0
 11
861.909572759
 21
504.9564503245
 31
0.0
  0
LINE
  5
2F5
330
1F
100
AcDbEntity
  8
0
  6
Continuous
 62
     8
370
    25
100
AcDbLine
 10
861.909572759
 20
503.5701748095
 30
0.0
 11
861.8025824216
 21
503.5739106354
 31
0.0
  0
LINE
  5
2F6
330
1F
100
AcDbEntity
  8
0
  6
Continuous
 62
     8
370
    25
100
AcDbLine
 10
861.8025824216
 20
493.8527140878
 30
0.0
 11
861.909572759
 21
493.856450554
 31
0.0
  0
LINE
  5
2F7
330
1F
100
AcDbEntity
  8
0
  6
Continuous
 62
     8
370
    25
100
AcDbLine
 10
861.909572759
 20
492.470175039
 30
0.0
 11
861.8025824216
 21
492.4739105738
 31
0.0
  0
LINE
  5
2F8
330
1F
100
AcDbEntity
  8
0
  6
Continuous
 62
     8
370
    25
100
AcDbLine
 10
861.8025824216
 20
482.7527152486
 30
0.0
 11
861.909572759
 21
482.7564498521
 31
0.0
  0
LINE
  5
2F9
330
1F
100
AcDbEntity
  8
0
  6
Continuous
 62
     8
370
    25
100
AcDbLine
 10
861.909572759
 20
481.3701743372
 30
0.0
 11
861.8025824216
 21
481.3739108033
 31
0.0
  0
LINE
  5
2FA
330
1F
100
AcDbEntity
  8
0
  6
Continuous
 62
     8
370
    25
100
AcDbLine
 10
861.8025824216
 20
471.6527136154
 30
0.0
 11
861.909572759
 21
471.6564500816
 31
0.0
  0
LINE
  5
2FB
330
1F
100
AcDbEntity
  8
0
  6
Continuous
 62
     8
370
    25
100
AcDbLine
 10
861.909572759
 20
470.2701764293
 30
0.0
 11
861.8025824216
 21
470.2739091702
 31
0.0
  0
LINE
  5
2FC
330
1F
100
AcDbEntity
  8
0
  6
Continuous
 62
     8
370
    25
100
AcDbLine
 10
861.8025824216
 20
460.4527140148
 30
0.0
 11
861.909572759
 21
460.4564504809
 31
0.0
  0
LINE
  5
2FD
330
1F
100
AcDbEntity
  8
0
  6
Continuous
 62
     8
370
    25
100
AcDbLine
 10
231.1025902417
 20
459.4704257436
 30
0.0
 11
231.1243161347
 21
459.4711857028
 31
0.0
  0
LINE
  5
2FE
330
1F
100
AcDbEntity
  8
0
  6
Continuous
 62
     8
370
    25
100
AcDbLine
 10
231.1243161347
 20
460.0554378815
 30
0.0
 11
231.1025902417
 21
460.0561978407
 31
0.0
  0
LINE
  5
2FF
330
1F
100
AcDbEntity
  8
0
  6
Continuous
 62
     8
370
    25
100
AcDbLine
 10
231.1025902417
 20
470.6704253442
 30
0.0
 11
231.1243161347
 21
470.6711853035
 31
0.0
  0
LINE
  5
300
330
1F
100
AcDbEntity
  8
0
  6
Continuous
 62
     8
370
    25
100
AcDbLine
 10
231.1243161347
 20
471.2554374821
 30
0.0
 11
231.1025902417
 21
471.2561974413
 31
0.0
  0
LINE
  5
301
330
1F
100
AcDbEntity
  8
0
  6
Continuous
 62
     8
370
    25
100
AcDbLine
 10
231.1025902417
 20
481.7704269774
 30
0.0
 11
231.1243161347
 21
481.7711869366
 31
0.0
  0
LINE
  5
302
330
1F
100
AcDbEntity
  8
0
  6
Continuous
 62
     8
370
    25
100
AcDbLine
 10
231.1243161347
 20
482.3554391153
 30
0.0
 11
231.1025902417
 21
482.3561972119
 31
0.0
  0
LINE
  5
303
330
1F
100
AcDbEntity
  8
0
  6
Continuous
 62
     8
370
    25
100
AcDbLine
 10
231.1025902417
 20
492.8704267479
 30
0.0
 11
231.1243161347
 21
492.8711857758
 31
0.0
  0
LINE
  5
304
330
1F
100
AcDbEntity
  8
0
  6
Continuous
 62
     8
370
    25
100
AcDbLine
 10
231.1243161347
 20
493.4554388858
 30
0.0
 11
231.1025902417
 21
493.4561979137
 31
0.0
  0
LINE
  5
305
330
1F
100
AcDbEntity
  8
0
  6
Continuous
 62
     8
370
    25
100
AcDbLine
 10
231.1025902417
 20
503.9704271587
 30
0.0
 11
231.1243161347
 21
503.971186012
 31
0.0
  0
LINE
  5
306
330
1F
100
AcDbEntity
  8
0
  6
Continuous
 62
     8
370
    25
100
AcDbLine
 10
231.1243161347
 20
504.555439122
 30
0.0
 11
231.1025902417
 21
504.5561979753
 31
0.0
  0
LINE
  5
307
330
1F
100
AcDbEntity
  8
0
  6
Continuous
 62
     8
370
    25
100
AcDbLine
 10
231.1025902417
 20
515.0704272203
 30
0.0
 11
231.1243161347
 21
515.0711862482
 31
0.0
  0
LINE
  5
308
330
1F
100
AcDbEntity
  8
0
  6
Continuous
 62
     8
370
    25
100
AcDbLine
 10
231.1243161347
 20
515.6554393582
 30
0.0
 11
231.1025902417
 21
515.6561983861
 31
0.0
  0
LINE
  5
309
330
1F
100
AcDbEntity
  8
0
  6
Continuous
 62
     8
370
    25
100
AcDbLine
 10
231.1025902417
 20
526.1704279221
 30
0.0
 11
231.1243161347
 21
526.1711860187
 31
0.0
  0
LINE
  5
30A
330
1F
100
AcDbEntity
  8
0
  6
Continuous
 62
     8
370
    25
100
AcDbLine
 10
231.1243161347
 20
526.7554381974
 30
0.0
 11
231.1025902417
 21
526.7561981566
 31
0.0
  0
LINE
  5
30B
330
1F
100
AcDbEntity
  8
0
  6
Continuous
 62
     8
370
    25
100
AcDbLine
 10
231.1025902417
 20
537.2704276927
 30
0.0
 11
231.1243161347
 21
537.2711876519
 31
0.0
  0
LINE
  5
30C
330
1F
100
AcDbEntity
  8
0
  6
Continuous
 62
     8
370
    25
100
AcDbLine
 10
231.1243161347
 20
537.8554398305
 30
0.0
 11
231.1025902417
 21
537.8561997898
 31
0.0
  0
LINE
  5
30D
330
1F
100
AcDbEntity
  8
0
  6
Continuous
 62
     8
370
    25
100
AcDbLine
 10
231.1025902417
 20
548.4704272933
 30
0.0
 11
231.1243161347
 21
548.4711872525
 31
0.0
  0
LINE
  5
30E
330
1F
100
AcDbEntity
  8
0
  6
Continuous
 62
     8
370
    25
100
AcDbLine
 10
231.1243161347
 20
549.0554394312
 30
0.0
 11
231.1025902417
 21
549.0561993904
 31
0.0
  0
LINE
  5
30F
330
1F
100
AcDbEntity
  8
0
  6
Continuous
 62
     8
370
    25
100
AcDbLine
 10
231.0025736478
 20
548.0739111192
 30
0.0
 11
230.8955833104
 21
548.0701746531
 31
0.0
  0
LINE
  5
310
330
1F
100
AcDbEntity
  8
0
  6
Continuous
 62
     8
370
    25
100
AcDbLine
 10
231.0025736478
 20
536.8739115186
 30
0.0
 11
230.8955833104
 21
536.8701750524
 31
0.0
  0
LINE
  5
311
330
1F
100
AcDbEntity
  8
0
  6
Continuous
 62
     8
370
    25
100
AcDbLine
 10
230.8955833104
 20
538.2564487047
 30
0.0
 11
231.0025736478
 21
538.2527159638
 31
0.0
  0
LINE
  5
312
330
1F
100
AcDbEntity
  8
0
  6
Continuous
 62
     8
370
    25
100
AcDbLine
 10
231.0025736478
 20
525.7739098854
 30
0.0
 11
230.8955833104
 21
525.7701752819
 31
0.0
  0
LINE
  5
313
330
1F
100
AcDbEntity
  8
0
  6
Continuous
 62
     8
370
    25
100
AcDbLine
 10
230.8955833104
 20
527.1564507968
 30
0.0
 11
231.0025736478
 21
527.1527143307
 31
0.0
  0
LINE
  5
314
330
1F
100
AcDbEntity
  8
0
  6
Continuous
 62
     8
370
    25
100
AcDbLine
 10
231.0025736478
 20
514.6739110462
 30
0.0
 11
230.8955833104
 21
514.67017458
 31
0.0
  0
LINE
  5
315
330
1F
100
AcDbEntity
  8
0
  6
Continuous
 62
     8
370
    25
100
AcDbLine
 10
230.8955833104
 20
516.056450095
 30
0.0
 11
231.0025736478
 21
516.0527145602
 31
0.0
  0
LINE
  5
316
330
1F
100
AcDbEntity
  8
0
  6
Continuous
 62
     8
370
    25
100
AcDbLine
 10
231.0025736478
 20
503.5739106354
 30
0.0
 11
230.8955833104
 21
503.5701748095
 31
0.0
  0
LINE
  5
317
330
1F
100
AcDbEntity
  8
0
  6
Continuous
 62
     8
370
    25
100
AcDbLine
 10
230.8955833104
 20
504.9564503245
 30
0.0
 11
231.0025736478
 21
504.9527144986
 31
0.0
  0
LINE
  5
318
330
1F
100
AcDbEntity
  8
0
  6
Continuous
 62
     8
370
    25
100
AcDbLine
 10
230.8955833104
 20
493.856450554
 30
0.0
 11
231.0025736478
 21
493.8527140878
 31
0.0
  0
LINE
  5
319
330
1F
100
AcDbEntity
  8
0
  6
Continuous
 62
     8
370
    25
100
AcDbLine
 10
231.0025736478
 20
492.4739105738
 30
0.0
 11
230.8955833104
 21
492.470175039
 31
0.0
  0
LINE
  5
31A
330
1F
100
AcDbEntity
  8
0
  6
Continuous
 62
     8
370
    25
100
AcDbLine
 10
230.8955833104
 20
482.7564498521
 30
0.0
 11
231.0025736478
 21
482.7527152486
 31
0.0
  0
LINE
  5
31B
330
1F
100
AcDbEntity
  8
0
  6
Continuous
 62
     8
370
    25
100
AcDbLine
 10
231.0025736478
 20
481.3739108033
 30
0.0
 11
230.8955833104
 21
481.3701743372
 31
0.0
  0
LINE
  5
31C
330
1F
100
AcDbEntity
  8
0
  6
Continuous
 62
     8
370
    25
100
AcDbLine
 10
230.8955833104
 20
471.6564500816
 30
0.0
 11
231.0025736478
 21
471.6527136154
 31
0.0
  0
LINE
  5
31D
330
1F
100
AcDbEntity
  8
0
  6
Continuous
 62
     8
370
    25
100
AcDbLine
 10
231.0025736478
 20
470.2739091702
 30
0.0
 11
230.8955833104
 21
470.2701764293
 31
0.0
  0
LINE
  5
31E
330
1F
100
AcDbEntity
  8
0
  6
Continuous
 62
     8
370
    25
100
AcDbLine
 10
230.8955833104
 20
460.4564504809
 30
0.0
 11
231.0025736478
 21
460.4527140148
 31
0.0
  0
LINE
  5
31F
330
1F
100
AcDbEntity
  8
0
  6
Continuous
 62
     8
370
    25
100
AcDbLine
 10
862.1025725987
 20
554.9633139856
 30
0.0
 11
860.6258079198
 21
554.9633139856
 31
0.0
  0
LINE
  5
320
330
1F
100
AcDbEntity
  8
0
  6
Continuous
 62
     8
370
    25
100
AcDbLine
 10
232.1793481496
 20
554.9633139856
 30
0.0
 11
230.7025834706
 21
554.9633139856
 31
0.0
  0
LINE
  5
321
330
1F
100
AcDbEntity
  8
0
  6
Continuous
 62
     8
370
    25
100
AcDbLine
 10
230.7025834706
 20
453.5633111484
 30
0.0
 11
232.1793481496
 21
453.5633111484
 31
0.0
  0
LINE
  5
322
330
1F
100
AcDbEntity
  8
0
  6
Continuous
 62
     8
370
    25
100
AcDbLine
 10
860.6258079198
 20
453.5633111484
 30
0.0
 11
862.1025725987
 21
453.5633111484
 31
0.0
  0
LINE
  5
323
330
1F
100
AcDbEntity
  8
0
  6
Continuous
 62
     8
370
    25
100
AcDbLine
 10
230.7025834706
 20
553.0076371617
 30
0.0
 11
231.0025736478
 21
553.0076371617
 31
0.0
  0
LINE
  5
324
330
1F
100
AcDbEntity
  8
0
  6
Continuous
 62
     8
370
    25
100
AcDbLine
 10
861.8025824216
 20
553.0076371617
 30
0.0
 11
862.1025725987
 21
553.0076371617
 31
0.0
  0
LINE
  5
325
330
1F
100
AcDbEntity
  8
0
  6
Continuous
 62
     8
370
    25
100
AcDbLine
 10
862.1025725987
 20
455.5189879723
 30
0.0
 11
861.8025824216
 21
455.5189879723
 31
0.0
  0
LINE
  5
326
330
1F
100
AcDbEntity
  8
0
  6
Continuous
 62
     8
370
    25
100
AcDbLine
 10
231.0025736478
 20
455.5189879723
 30
0.0
 11
230.7025834706
 21
455.5189879723
 31
0.0
  0
LINE
  5
327
330
1F
100
AcDbEntity
  8
0
  6
Continuous
 62
     8
370
    25
100
AcDbLine
 10
230.7025834706
 20
550.7311904914
 30
0.0
 11
231.0025736478
 21
550.7311904914
 31
0.0
  0
LINE
  5
328
330
1F
100
AcDbEntity
  8
0
  6
Continuous
 62
     8
370
    25
100
AcDbLine
 10
861.8025824216
 20
550.7311904914
 30
0.0
 11
862.1025725987
 21
550.7311904914
 31
0.0
  0
LINE
  5
329
330
1F
100
AcDbEntity
  8
0
  6
Continuous
 62
     8
370
    25
100
AcDbLine
 10
862.1025725987
 20
457.7954346426
 30
0.0
 11
861.8025824216
 21
457.7954346426
 31
0.0
  0
LINE
  5
32A
330
1F
100
AcDbEntity
  8
0
  6
Continuous
 62
     8
370
    25
100
AcDbLine
 10
231.0025736478
 20
457.7954346426
 30
0.0
 11
230.7025834706
 21
457.7954346426
 31
0.0
  0
ENDSEC
  0
SECTION
  2
OBJECTS
  0
DICTIONARY
  5
C
330
0
100
AcDbDictionary
281
     1
  3
ACAD_GROUP
350
D
  3
ACAD_LAYOUT
350
1A
  3
ACAD_MLINESTYLE
350
17
  3
ACAD_PLOTSETTINGS
350
19
  3
ACAD_PLOTSTYLENAME
350
E
  3
ACAD_SCALELIST
350
47
  0
DICTIONARY
  5
D
102
{ACAD_REACTORS
330
C
102
}
330
C
100
AcDbDictionary
281
     1
  0
DICTIONARY
  5
1A
102
{ACAD_REACTORS
330
C
102
}
330
C
100
AcDbDictionary
281
     1
  3
Layout1
350
1E
  3
Layout2
350
26
  3
Model
350
22
  0
DICTIONARY
  5
17
102
{ACAD_REACTORS
330
C
102
}
330
C
100
AcDbDictionary
281
     1
  3
Standard
350
18
  0
DICTIONARY
  5
19
102
{ACAD_REACTORS
330
C
102
}
330
C
100
AcDbDictionary
281
     1
  0
ACDBDICTIONARYWDFLT
  5
E
102
{ACAD_REACTORS
330
C
102
}
330
C
100
AcDbDictionary
281
     1
  3
Normal
350
F
100
AcDbDictionaryWithDefault
340
F
  0
DICTIONARY
  5
47
102
{ACAD_REACTORS
330
C
102
}
330
C
100
AcDbDictionary
281
     1
  3
A0
350
48
  3
A1
350
49
  3
A2
350
4A
  3
A3
350
4B
  3
A4
350
4C
  3
A5
350
4D
  3
A6
350
4E
  3
A7
350
4F
  3
A8
350
50
  3
A9
350
51
  3
B0
350
52
  3
B1
350
53
  3
B2
350
54
  3
B3
350
55
  3
B4
350
56
  3
B5
350
57
  3
B6
350
58
  3
B7
350
59
  3
B8
350
5A
  3
B9
350
5B
  3
C0
350
5C
  3
C1
350
5D
  3
C2
350
5E
  3
C3
350
5F
  3
C4
350
60
  3
C5
350
61
  3
C6
350
62
  3
C7
350
63
  3
C8
350
64
  3
C9
350
65
  3
D0
350
66
  3
D1
350
67
  3
D2
350
68
  0
LAYOUT
  5
1E
102
{ACAD_REACTORS
330
1A
102
}
330
1A
100
AcDbPlotSettings
  1

  2
none_device
  4

  6

 40
0.0
 41
0.0
 42
0.0
 43
0.0
 44
0.0
 45
0.0
 46
0.0
 47
0.0
 48
0.0
 49
0.0
140
0.0
141
0.0
142
1.0
143
1.0
 70
   688
 72
     1
 73
     0
 74
     5
  7

 75
    16
147
1.0
148
0.0
149
0.0
100
AcDbLayout
  1
Layout1
 70
     1
 71
     1
 10
0.0
 20
0.0
 11
420.0
 21
297.0
 12
0.0
 22
0.0
 32
0.0
 14
1.0000000000E+20
 24
1.0000000000E+20
 34
1.0000000000E+20
 15
-1.0000000000E+20
 25
-1.0000000000E+20
 35
-1.0000000000E+20
146
0.0
 13
0.0
 23
0.0
 33
0.0
 16
1.0
 26
0.0
 36
0.0
 17
0.0
 27
1.0
 37
0.0
 76
     0
330
1B
  0
LAYOUT
  5
26
102
{ACAD_REACTORS
330
1A
102
}
330
1A
100
AcDbPlotSettings
  1

  2
none_device
  4

  6

 40
0.0
 41
0.0
 42
0.0
 43
0.0
 44
0.0
 45
0.0
 46
0.0
 47
0.0
 48
0.0
 49
0.0
140
0.0
141
0.0
142
1.0
143
1.0
 70
   688
 72
     1
 73
     0
 74
     5
  7

 75
    16
147
1.0
148
0.0
149
0.0
100
AcDbLayout
  1
Layout2
 70
     1
 71
     2
 10
0.0
 20
0.0
 11
0.0
 21
0.0
 12
0.0
 22
0.0
 32
0.0
 14
0.0
 24
0.0
 34
0.0
 15
0.0
 25
0.0
 35
0.0
146
0.0
 13
0.0
 23
0.0
 33
0.0
 16
1.0
 26
0.0
 36
0.0
 17
0.0
 27
1.0
 37
0.0
 76
     0
330
23
  0
LAYOUT
  5
22
102
{ACAD_REACTORS
330
1A
102
}
330
1A
100
AcDbPlotSettings
  1

  2
none_device
  4
Letter_(8.50_x_11.00_Inches)
  6

 40
6.35
 41
6.35
 42
6.35000508
 43
6.35000508
 44
215.9
 45
279.4
 46
0.0
 47
0.0
 48
0.0
 49
0.0
140
0.0
141
0.0
142
1.0
143
1.0
 70
  1712
 72
     1
 73
     0
 74
     0
  7

 75
     0
147
1.0
148
0.0
149
0.0
100
AcDbLayout
  1
Model
 70
     1
 71
     0
 10
0.0
 20
0.0
 11
1189.0
 21
841.0
 12
0.0
 22
0.0
 32
0.0
 14
0.0
 24
0.0
 34
0.0
 15
1189.0
 25
841.0
 35
0.0
146
0.0
 13
0.0
 23
0.0
 33
0.0
 16
1.0
 26
0.0
 36
0.0
 17
0.0
 27
1.0
 37
0.0
 76
     0
330
1F
331
29
  0
MLINESTYLE
  5
18
102
{ACAD_REACTORS
330
17
102
}
330
17
100
AcDbMlineStyle
  2
Standard
 70
     0
  3

 62
   256
 51
90.0
 52
90.0
 71
     2
 49
0.5
 62
   256
  6
BYLAYER
 49
-0.5
 62
   256
  6
BYLAYER
  0
ACDBPLACEHOLDER
  5
F
102
{ACAD_REACTORS
330
E
102
}
330
E
  0
SCALE
  5
48
102
{ACAD_REACTORS
330
47
102
}
330
47
100
AcDbScale
 70
     0
300
1:1
140
1.0
141
1.0
290
     1
  0
SCALE
  5
49
102
{ACAD_REACTORS
330
47
102
}
330
47
100
AcDbScale
 70
     0
300
1:2
140
1.0
141
2.0
290
     0
  0
SCALE
  5
4A
102
{ACAD_REACTORS
330
47
102
}
330
47
100
AcDbScale
 70
     0
300
1:4
140
1.0
141
4.0
290
     0
  0
SCALE
  5
4B
102
{ACAD_REACTORS
330
47
102
}
330
47
100
AcDbScale
 70
     0
300
1:5
140
1.0
141
5.0
290
     0
  0
SCALE
  5
4C
102
{ACAD_REACTORS
330
47
102
}
330
47
100
AcDbScale
 70
     0
300
1:8
140
1.0
141
8.0
290
     0
  0
SCALE
  5
4D
102
{ACAD_REACTORS
330
47
102
}
330
47
100
AcDbScale
 70
     0
300
1:10
140
1.0
141
10.0
290
     0
  0
SCALE
  5
4E
102
{ACAD_REACTORS
330
47
102
}
330
47
100
AcDbScale
 70
     0
300
1:16
140
1.0
141
16.0
290
     0
  0
SCALE
  5
4F
102
{ACAD_REACTORS
330
47
102
}
330
47
100
AcDbScale
 70
     0
300
1:20
140
1.0
141
20.0
290
     0
  0
SCALE
  5
50
102
{ACAD_REACTORS
330
47
102
}
330
47
100
AcDbScale
 70
     0
300
1:30
140
1.0
141
30.0
290
     0
  0
SCALE
  5
51
102
{ACAD_REACTORS
330
47
102
}
330
47
100
AcDbScale
 70
     0
300
1:40
140
1.0
141
40.0
290
     0
  0
SCALE
  5
52
102
{ACAD_REACTORS
330
47
102
}
330
47
100
AcDbScale
 70
     0
300
1:50
140
1.0
141
50.0
290
     0
  0
SCALE
  5
53
102
{ACAD_REACTORS
330
47
102
}
330
47
100
AcDbScale
 70
     0
300
1:100
140
1.0
141
100.0
290
     0
  0
SCALE
  5
54
102
{ACAD_REACTORS
330
47
102
}
330
47
100
AcDbScale
 70
     0
300
2:1
140
2.0
141
1.0
290
     0
  0
SCALE
  5
55
102
{ACAD_REACTORS
330
47
102
}
330
47
100
AcDbScale
 70
     0
300
4:1
140
4.0
141
1.0
290
     0
  0
SCALE
  5
56
102
{ACAD_REACTORS
330
47
102
}
330
47
100
AcDbScale
 70
     0
300
8:1
140
8.0
141
1.0
290
     0
  0
SCALE
  5
57
102
{ACAD_REACTORS
330
47
102
}
330
47
100
AcDbScale
 70
     0
300
10:1
140
10.0
141
1.0
290
     0
  0
SCALE
  5
58
102
{ACAD_REACTORS
330
47
102
}
330
47
100
AcDbScale
 70
     0
300
100:1
140
100.0
141
1.0
290
     0
  0
SCALE
  5
59
102
{ACAD_REACTORS
330
47
102
}
330
47
100
AcDbScale
 70
     0
300
1/128" = 1'-0"
140
0.0078125
141
12.0
290
     0
  0
SCALE
  5
5A
102
{ACAD_REACTORS
330
47
102
}
330
47
100
AcDbScale
 70
     0
300
1/64" = 1'-0"
140
0.015625
141
12.0
290
     0
  0
SCALE
  5
5B
102
{ACAD_REACTORS
330
47
102
}
330
47
100
AcDbScale
 70
     0
300
1/32" = 1'-0"
140
0.03125
141
12.0
290
     0
  0
SCALE
  5
5C
102
{ACAD_REACTORS
330
47
102
}
330
47
100
AcDbScale
 70
     0
300
1/16" = 1'-0"
140
0.0625
141
12.0
290
     0
  0
SCALE
  5
5D
102
{ACAD_REACTORS
330
47
102
}
330
47
100
AcDbScale
 70
     0
300
3/32" = 1'-0"
140
0.09375
141
12.0
290
     0
  0
SCALE
  5
5E
102
{ACAD_REACTORS
330
47
102
}
330
47
100
AcDbScale
 70
     0
300
1/8" = 1'-0"
140
0.125
141
12.0
290
     0
  0
SCALE
  5
5F
102
{ACAD_REACTORS
330
47
102
}
330
47
100
AcDbScale
 70
     0
300
3/16" = 1'-0"
140
0.1875
141
12.0
290
     0
  0
SCALE
  5
60
102
{ACAD_REACTORS
330
47
102
}
330
47
100
AcDbScale
 70
     0
300
1/4" = 1'-0"
140
0.25
141
12.0
290
     0
  0
SCALE
  5
61
102
{ACAD_REACTORS
330
47
102
}
330
47
100
AcDbScale
 70
     0
300
3/8" = 1'-0"
140
0.375
141
12.0
290
     0
  0
SCALE
  5
62
102
{ACAD_REACTORS
330
47
102
}
330
47
100
AcDbScale
 70
     0
300
1/2" = 1'-0"
140
0.5
141
12.0
290
     0
  0
SCALE
  5
63
102
{ACAD_REACTORS
330
47
102
}
330
47
100
AcDbScale
 70
     0
300
3/4" = 1'-0"
140
0.75
141
12.0
290
     0
  0
SCALE
  5
64
102
{ACAD_REACTORS
330
47
102
}
330
47
100
AcDbScale
 70
     0
300
1" = 1'-0"
140
1.0
141
12.0
290
     0
  0
SCALE
  5
65
102
{ACAD_REACTORS
330
47
102
}
330
47
100
AcDbScale
 70
     0
300
1-1/2" = 1'-0"
140
1.5
141
12.0
290
     0
  0
SCALE
  5
66
102
{ACAD_REACTORS
330
47
102
}
330
47
100
AcDbScale
 70
     0
300
3" = 1'-0"
140
3.0
141
12.0
290
     0
  0
SCALE
  5
67
102
{ACAD_REACTORS
330
47
102
}
330
47
100
AcDbScale
 70
     0
300
6" = 1'-0"
140
6.0
141
12.0
290
     0
  0
SCALE
  5
68
102
{ACAD_REACTORS
330
47
102
}
330
47
100
AcDbScale
 70
     0
300
1'-0" = 1'-0"
140
12.0
141
12.0
290
     0
  0
ENDSEC
  0
EOF
