  0
SECTION
  2
HEADER
  9
$ACADVER
  1
AC1015
  9
$ACADMAINTVER
 70
     6
  9
$DWGCODEPAGE
  3
ANSI_1254
  9
$INSBASE
 10
0.0
 20
0.0
 30
0.0
  9
$EXTMIN
 10
0.0
 20
0.0
 30
0.0
  9
$EXTMAX
 10
420.0
 20
297.0
 30
0.0
  9
$LIMMIN
 10
0.0
 20
0.0
  9
$LIMMAX
 10
420.0
 20
297.0
  9
$ORTHOMODE
 70
     0
  9
$REGENMODE
 70
     1
  9
$FILLMODE
 70
     1
  9
$QTEXTMODE
 70
     0
  9
$MIRRTEXT
 70
     1
  9
$LTSCALE
 40
1.0
  9
$ATTMODE
 70
     1
  9
$TEXTSIZE
 40
4.9388888889
  9
$TRACEWID
 40
1.0
  9
$TEXTSTYLE
  7
Standard
  9
$CLAYER
  8
0
  9
$CELTYPE
  6
ByLayer
  9
$CECOLOR
 62
   256
  9
$CELTSCALE
 40
1.0
  9
$DISPSILH
 70
     0
  9
$DIMSCALE
 40
1.0
  9
$DIMASZ
 40
3.65
  9
$DIMEXO
 40
0.5
  9
$DIMDLI
 40
3.75
  9
$DIMRND
 40
0.0
  9
$DIMDLE
 40
0.0
  9
$DIMEXE
 40
1.0
  9
$DIMTP
 40
0.0
  9
$DIMTM
 40
0.0
  9
$DIMTXT
 40
2.6458333333
  9
$DIMCEN
 40
2.5
  9
$DIMTSZ
 40
0.0
  9
$DIMTOL
 70
     0
  9
$DIMLIM
 70
     0
  9
$DIMTIH
 70
     1
  9
$DIMTOH
 70
     1
  9
$DIMSE1
 70
     0
  9
$DIMSE2
 70
     0
  9
$DIMTAD
 70
     1
  9
$DIMZIN
 70
     0
  9
$DIMBLK
  1

  9
$DIMASO
 70
     1
  9
$DIMSHO
 70
     1
  9
$DIMPOST
  1

  9
$DIMAPOST
  1

  9
$DIMALT
 70
     0
  9
$DIMALTD
 70
     3
  9
$DIMALTF
 40
0.0393700787
  9
$DIMLFAC
 40
1.0
  9
$DIMTOFL
 70
     1
  9
$DIMTVP
 40
0.0
  9
$DIMTIX
 70
     0
  9
$DIMSOXD
 70
     0
  9
$DIMSAH
 70
     0
  9
$DIMBLK1
  1

  9
$DIMBLK2
  1

  9
$DIMSTYLE
  2
ISO-25
  9
$DIMCLRD
 70
     0
  9
$DIMCLRE
 70
     0
  9
$DIMCLRT
 70
     0
  9
$DIMTFAC
 40
1.0
  9
$DIMGAP
 40
1.524
  9
$DIMJUST
 70
     0
  9
$DIMSD1
 70
     0
  9
$DIMSD2
 70
     0
  9
$DIMTOLJ
 70
     0
  9
$DIMTZIN
 70
     0
  9
$DIMALTZ
 70
     0
  9
$DIMALTTZ
 70
     0
  9
$DIMUPT
 70
     0
  9
$DIMDEC
 70
     2
  9
$DIMTDEC
 70
     2
  9
$DIMALTU
 70
     2
  9
$DIMALTTD
 70
     3
  9
$DIMTXSTY
  7
Standard
  9
$DIMAUNIT
 70
     0
  9
$DIMADEC
 70
     2
  9
$DIMALTRND
 40
0.0
  9
$DIMAZIN
 70
     0
  9
$DIMDSEP
 70
    44
  9
$DIMATFIT
 70
     3
  9
$DIMFRAC
 70
     0
  9
$DIMLDRBLK
  1

  9
$DIMLUNIT
 70
     2
  9
$DIMLWD
 70
    -2
  9
$DIMLWE
 70
    -2
  9
$DIMTMOVE
 70
     0
  9
$LUNITS
 70
     2
  9
$LUPREC
 70
     2
  9
$SKETCHINC
 40
1.0
  9
$FILLETRAD
 40
10.0
  9
$AUNITS
 70
     0
  9
$AUPREC
 70
     2
  9
$MENU
  1
.
  9
$ELEVATION
 40
0.0
  9
$PELEVATION
 40
0.0
  9
$THICKNESS
 40
0.0
  9
$LIMCHECK
 70
     0
  9
$CHAMFERA
 40
0.0
  9
$CHAMFERB
 40
0.0
  9
$CHAMFERC
 40
0.0
  9
$CHAMFERD
 40
0.0
  9
$SKPOLY
 70
     0
  9
$TDCREATE
 40
2459101.734919294
  9
$TDUCREATE
 40
2459101.609919294
  9
$TDUPDATE
 40
2459101.734921192
  9
$TDUUPDATE
 40
2459101.609921192
  9
$TDINDWG
 40
0.0000000116
  9
$TDUSRTIMER
 40
0.0000000116
  9
$USRTIMER
 70
     1
  9
$ANGBASE
 50
0.0
  9
$ANGDIR
 70
     0
  9
$PDMODE
 70
     0
  9
$PDSIZE
 40
-1.0
  9
$PLINEWID
 40
0.0
  9
$SPLFRAME
 70
     0
  9
$SPLINETYPE
 70
     6
  9
$SPLINESEGS
 70
     8
  9
$HANDSEED
  5
336
  9
$SURFTAB1
 70
     6
  9
$SURFTAB2
 70
     6
  9
$SURFTYPE
 70
     6
  9
$SURFU
 70
     6
  9
$SURFV
 70
     6
  9
$UCSBASE
  2

  9
$UCSNAME
  2

  9
$UCSORG
 10
0.0
 20
0.0
 30
0.0
  9
$UCSXDIR
 10
1.0
 20
0.0
 30
0.0
  9
$UCSYDIR
 10
0.0
 20
1.0
 30
0.0
  9
$UCSORTHOREF
  2

  9
$UCSORTHOVIEW
 70
     0
  9
$UCSORGTOP
 10
0.0
 20
0.0
 30
0.0
  9
$UCSORGBOTTOM
 10
0.0
 20
0.0
 30
0.0
  9
$UCSORGLEFT
 10
0.0
 20
0.0
 30
0.0
  9
$UCSORGRIGHT
 10
0.0
 20
0.0
 30
0.0
  9
$UCSORGFRONT
 10
0.0
 20
0.0
 30
0.0
  9
$UCSORGBACK
 10
0.0
 20
0.0
 30
0.0
  9
$PUCSBASE
  2

  9
$PUCSNAME
  2

  9
$PUCSORG
 10
0.0
 20
0.0
 30
0.0
  9
$PUCSXDIR
 10
1.0
 20
0.0
 30
0.0
  9
$PUCSYDIR
 10
0.0
 20
1.0
 30
0.0
  9
$PUCSORTHOREF
  2

  9
$PUCSORTHOVIEW
 70
     0
  9
$PUCSORGTOP
 10
0.0
 20
0.0
 30
0.0
  9
$PUCSORGBOTTOM
 10
0.0
 20
0.0
 30
0.0
  9
$PUCSORGLEFT
 10
0.0
 20
0.0
 30
0.0
  9
$PUCSORGRIGHT
 10
0.0
 20
0.0
 30
0.0
  9
$PUCSORGFRONT
 10
0.0
 20
0.0
 30
0.0
  9
$PUCSORGBACK
 10
0.0
 20
0.0
 30
0.0
  9
$USERI1
 70
     0
  9
$USERI2
 70
     0
  9
$USERI3
 70
     0
  9
$USERI4
 70
     0
  9
$USERI5
 70
     0
  9
$USERR1
 40
0.0
  9
$USERR2
 40
0.0
  9
$USERR3
 40
0.0
  9
$USERR4
 40
0.0
  9
$USERR5
 40
0.0
  9
$WORLDVIEW
 70
     1
  9
$SHADEDGE
 70
     3
  9
$SHADEDIF
 70
    70
  9
$TILEMODE
 70
     1
  9
$MAXACTVP
 70
    64
  9
$PINSBASE
 10
0.0
 20
0.0
 30
0.0
  9
$PLIMCHECK
 70
     0
  9
$PEXTMIN
 10
1.0000000000E+20
 20
1.0000000000E+20
 30
1.0000000000E+20
  9
$PEXTMAX
 10
-1.0000000000E+20
 20
-1.0000000000E+20
 30
-1.0000000000E+20
  9
$PLIMMIN
 10
0.0
 20
0.0
  9
$PLIMMAX
 10
420.0
 20
297.0
  9
$UNITMODE
 70
     0
  9
$VISRETAIN
 70
     1
  9
$PLINEGEN
 70
     0
  9
$PSLTSCALE
 70
     1
  9
$TREEDEPTH
 70
  3020
  9
$CMLSTYLE
  2
Standard
  9
$CMLJUST
 70
     0
  9
$CMLSCALE
 40
20.0
  9
$PROXYGRAPHICS
 70
     1
  9
$MEASUREMENT
 70
     1
  9
$CELWEIGHT
370
    -1
  9
$ENDCAPS
280
     0
  9
$JOINSTYLE
280
     0
  9
$LWDISPLAY
290
     1
  9
$INSUNITS
 70
     4
  9
$HYPERLINKBASE
  1

  9
$STYLESHEET
  1

  9
$XEDIT
290
     1
  9
$CEPSNTYPE
380
     0
  9
$PSTYLEMODE
290
     1
  9
$FINGERPRINTGUID
  2
{0f9bd71c-cf61-43c7-a3cf-5ab7e8446992}
  9
$VERSIONGUID
  2
{FAEB1C32-E019-11D5-929B-00C0DF256EC4}
  9
$EXTNAMES
290
     1
  9
$PSVPSCALE
 40
0.0
  9
$OLESTARTUP
290
     0
  0
ENDSEC
  0
SECTION
  2
CLASSES
  0
CLASS
  1
ACDBDICTIONARYWDFLT
  2
AcDbDictionaryWithDefault
  3
ObjectDBX Classes
 90
        0
280
     0
281
     0
  0
CLASS
  1
VISUALSTYLE
  2
AcDbVisualStyle
  3
ObjectDBX Classes
 90
     4095
280
     0
281
     0
  0
CLASS
  1
MATERIAL
  2
AcDbMaterial
  3
ObjectDBX Classes
 90
     1153
280
     0
281
     0
  0
CLASS
  1
SCALE
  2
AcDbScale
  3
ObjectDBX Classes
 90
     1153
280
     0
281
     0
  0
CLASS
  1
TABLESTYLE
  2
AcDbTableStyle
  3
ObjectDBX Classes
 90
     4095
280
     0
281
     0
  0
CLASS
  1
MLEADERSTYLE
  2
AcDbMLeaderStyle
  3
ACDB_MLEADERSTYLE_CLASS
 90
     4095
280
     0
281
     0
  0
CLASS
  1
SUN
  2
AcDbSun
  3
SCENEOE
 90
     1153
280
     0
281
     0
  0
CLASS
  1
ACDBPLACEHOLDER
  2
AcDbPlaceHolder
  3
ObjectDBX Classes
 90
        0
280
     0
281
     0
  0
CLASS
  1
LAYOUT
  2
AcDbLayout
  3
ObjectDBX Classes
 90
        0
280
     0
281
     0
  0
ENDSEC
  0
SECTION
  2
TABLES
  0
TABLE
  2
VPORT
  5
8
330
0
100
AcDbSymbolTable
 70
     1
  0
VPORT
  5
29
330
8
100
AcDbSymbolTableRecord
100
AcDbViewportTableRecord
  2
*Active
 70
     0
 10
0.0
 20
0.0
 11
1.0
 21
1.0
 12
210.0
 22
148.5
 13
0.0
 23
0.0
 14
10.0
 24
10.0
 15
10.0
 25
10.0
 16
0.0
 26
0.0
 36
1.0
 17
0.0
 27
0.0
 37
0.0
 40
297.0
 41
1.4141414141
 42
50.0
 43
0.0
 44
0.0
 50
0.0
 51
0.0
 71
     0
 72
  2000
 73
     1
 74
     3
 75
     0
 76
     0
 77
     0
 78
     0
281
     0
 65
     1
110
0.0
120
0.0
130
0.0
111
1.0
121
0.0
131
0.0
112
0.0
122
1.0
132
0.0
 79
     0
146
0.0
  0
ENDTAB
  0
TABLE
  2
LTYPE
  5
5
330
0
100
AcDbSymbolTable
 70
     6
  0
LTYPE
  5
14
330
5
100
AcDbSymbolTableRecord
100
AcDbLinetypeTableRecord
  2
ByBlock
 70
     0
  3

 72
    65
 73
     0
 40
0.0
  0
LTYPE
  5
15
330
5
100
AcDbSymbolTableRecord
100
AcDbLinetypeTableRecord
  2
ByLayer
 70
     0
  3

 72
    65
 73
     0
 40
0.0
  0
LTYPE
  5
16
330
5
100
AcDbSymbolTableRecord
100
AcDbLinetypeTableRecord
  2
Continuous
 70
     0
  3
Solid line
 72
    65
 73
     0
 40
0.0
  0
LTYPE
  5
6E
330
5
100
AcDbSymbolTableRecord
100
AcDbLinetypeTableRecord
  2
HIDDEN
 70
     0
  3
Hidden __ __ __ __ __ __ __ __ __ __ __ __ __ __
 72
    65
 73
     2
 40
1.905
 49
1.27
 74
     0
 49
-0.635
 74
     0
  0
LTYPE
  5
6F
330
5
100
AcDbSymbolTableRecord
100
AcDbLinetypeTableRecord
  2
PHANTOM
 70
     0
  3
Phantom ______  __  __  ______  __  __  ______
 72
    65
 73
     6
 40
12.7
 49
6.35
 74
     0
 49
-1.27
 74
     0
 49
1.27
 74
     0
 49
-1.27
 74
     0
 49
1.27
 74
     0
 49
-1.27
 74
     0
  0
LTYPE
  5
70
330
5
100
AcDbSymbolTableRecord
100
AcDbLinetypeTableRecord
  2
CENTER
 70
     0
  3
Center ____ _ ____ _ ____ _ ____ _ ____ _ ____
 72
    65
 73
     4
 40
10.16
 49
6.35
 74
     0
 49
-1.27
 74
     0
 49
1.27
 74
     0
 49
-1.27
 74
     0
  0
LTYPE
  5
71
330
5
100
AcDbSymbolTableRecord
100
AcDbLinetypeTableRecord
  2
CENTERX2
 70
     0
  3
Center (2x) ________  __  ________  __  _____
 72
    65
 73
     4
 40
20.32
 49
12.7
 74
     0
 49
-2.54
 74
     0
 49
2.54
 74
     0
 49
-2.54
 74
     0
  0
LTYPE
  5
72
330
5
100
AcDbSymbolTableRecord
100
AcDbLinetypeTableRecord
  2
DOT2
 70
     0
  3
Dot (.5x) ........................................
 72
    65
 73
     2
 40
0.635
 49
0.0
 74
     0
 49
-0.635
 74
     0
  0
ENDTAB
  0
TABLE
  2
LAYER
  5
2
330
0
100
AcDbSymbolTable
 70
     5
  0
LAYER
  5
10
330
2
100
AcDbSymbolTableRecord
100
AcDbLayerTableRecord
  2
0
 70
     0
 62
     7
  6
Continuous
370
    -3
390
F
  0
LAYER
  5
73
330
2
100
AcDbSymbolTableRecord
100
AcDbLayerTableRecord
  2
FORMAT
 70
     0
 62
     7
  6
Continuous
370
    -3
390
F
  0
LAYER
  5
74
330
2
100
AcDbSymbolTableRecord
100
AcDbLayerTableRecord
  2
SLD-0
 70
     0
 62
   179
  6
Continuous
370
    -3
390
F
  0
LAYER
  5
75
330
2
100
AcDbSymbolTableRecord
100
AcDbLayerTableRecord
  2
AAA_EKSEN
 70
     0
 62
     1
  6
CENTER
370
    -3
390
F
  0
LAYER
  5
76
330
2
100
AcDbSymbolTableRecord
100
AcDbLayerTableRecord
  2
03
 70
     0
 62
     3
  6
HIDDEN
370
    -3
390
F
  0
ENDTAB
  0
TABLE
  2
STYLE
  5
3
330
0
100
AcDbSymbolTable
 70
     1
  0
STYLE
  5
11
330
3
100
AcDbSymbolTableRecord
100
AcDbTextStyleTableRecord
  2
Standard
 70
     0
 40
0.0
 41
1.0
 50
0.0
 71
     0
 42
4.9388888889
  3
txt
  4

  0
ENDTAB
  0
TABLE
  2
VIEW
  5
6
330
0
100
AcDbSymbolTable
 70
     0
  0
ENDTAB
  0
TABLE
  2
UCS
  5
7
330
0
100
AcDbSymbolTable
 70
     0
  0
ENDTAB
  0
TABLE
  2
APPID
  5
9
330
0
100
AcDbSymbolTable
 70
     1
  0
APPID
  5
12
330
9
100
AcDbSymbolTableRecord
100
AcDbRegAppTableRecord
  2
ACAD
 70
     0
  0
ENDTAB
  0
TABLE
  2
DIMSTYLE
  5
A
330
0
100
AcDbSymbolTable
 70
     1
100
AcDbDimStyleTable
  0
DIMSTYLE
105
27
330
A
100
AcDbSymbolTableRecord
100
AcDbDimStyleTableRecord
  2
ISO-25
 70
     0
 41
2.5
 42
0.625
 43
3.75
 44
1.25
 73
     0
 74
     0
 77
     1
 78
     8
140
2.5
141
2.5
143
0.0393700787
147
0.625
171
     3
172
     1
178
     0
271
     2
272
     2
274
     3
278
    44
283
     0
284
     8
340
11
  0
ENDTAB
  0
TABLE
  2
BLOCK_RECORD
  5
1
330
0
100
AcDbSymbolTable
 70
     1
  0
BLOCK_RECORD
  5
1F
330
1
100
AcDbSymbolTableRecord
100
AcDbBlockTableRecord
  2
*Model_Space
340
22
  0
BLOCK_RECORD
  5
1B
330
1
100
AcDbSymbolTableRecord
100
AcDbBlockTableRecord
  2
*Paper_Space
340
1E
  0
BLOCK_RECORD
  5
23
330
1
100
AcDbSymbolTableRecord
100
AcDbBlockTableRecord
  2
*Paper_Space0
340
26
  0
ENDTAB
  0
ENDSEC
  0
SECTION
  2
BLOCKS
  0
BLOCK
  5
20
330
1F
100
AcDbEntity
  8
0
100
AcDbBlockBegin
  2
*Model_Space
 70
     0
 10
0.0
 20
0.0
 30
0.0
  3
*Model_Space
  1

  0
ENDBLK
  5
21
330
1F
100
AcDbEntity
  8
0
100
AcDbBlockEnd
  0
BLOCK
  5
1C
330
1B
100
AcDbEntity
 67
     1
  8
0
100
AcDbBlockBegin
  2
*Paper_Space
 70
     0
 10
0.0
 20
0.0
 30
0.0
  3
*Paper_Space
  1

  0
ENDBLK
  5
1D
330
1B
100
AcDbEntity
 67
     1
  8
0
100
AcDbBlockEnd
  0
BLOCK
  5
24
330
23
100
AcDbEntity
  8
0
100
AcDbBlockBegin
  2
*Paper_Space0
 70
     0
 10
0.0
 20
0.0
 30
0.0
  3
*Paper_Space0
  1

  0
ENDBLK
  5
25
330
23
100
AcDbEntity
  8
0
100
AcDbBlockEnd
  0
ENDSEC
  0
SECTION
  2
ENTITIES
  0
LINE
  5
77
330
1F
100
AcDbEntity
  8
0
  6
Continuous
 62
     7
370
    25
100
AcDbLine
 10
93.3264726519
 20
144.3179865736
 30
0.0
 11
93.3264726519
 21
155.9879865736
 31
0.0
  0
LINE
  5
78
330
1F
100
AcDbEntity
  8
0
  6
Continuous
 62
     7
370
    25
100
AcDbLine
 10
25.6264726519
 20
155.9879865736
 30
0.0
 11
25.6264726519
 21
144.3179865736
 31
0.0
  0
LINE
  5
79
330
1F
100
AcDbEntity
  8
0
  6
Continuous
 62
     7
370
    25
100
AcDbLine
 10
25.7014726519
 20
171.2379865736
 30
0.0
 11
25.7014726519
 21
170.7379865736
 31
0.0
  0
LINE
  5
7A
330
1F
100
AcDbEntity
  8
0
  6
Continuous
 62
     7
370
    25
100
AcDbLine
 10
93.2514726519
 20
170.7379865736
 30
0.0
 11
93.2514726519
 21
171.2379865736
 31
0.0
  0
LINE
  5
7B
330
1F
100
AcDbEntity
  8
0
  6
Continuous
 62
     7
370
    25
100
AcDbLine
 10
93.2514726519
 20
129.0679865736
 30
0.0
 11
93.2514726519
 21
129.5679865736
 31
0.0
  0
LINE
  5
7C
330
1F
100
AcDbEntity
  8
0
  6
Continuous
 62
     7
370
    25
100
AcDbLine
 10
25.7014726519
 20
129.5679865736
 30
0.0
 11
25.7014726519
 21
129.0679865736
 31
0.0
  0
LINE
  5
7D
330
1F
100
AcDbEntity
  8
0
  6
Continuous
 62
     7
370
    25
100
AcDbLine
 10
93.2514726519
 20
189.7379865736
 30
0.0
 11
90.2264726519
 21
192.7629865736
 31
0.0
  0
LINE
  5
7E
330
1F
100
AcDbEntity
  8
0
  6
Continuous
 62
     7
370
    25
100
AcDbLine
 10
28.7264726519
 20
192.7629865736
 30
0.0
 11
25.7014726519
 21
189.7379865736
 31
0.0
  0
LINE
  5
7F
330
1F
100
AcDbEntity
  8
0
  6
Continuous
 62
     7
370
    25
100
AcDbLine
 10
93.2514726519
 20
208.2379865736
 30
0.0
 11
88.7264726519
 21
212.7629865736
 31
0.0
  0
LINE
  5
80
330
1F
100
AcDbEntity
  8
0
  6
Continuous
 62
     7
370
    25
100
AcDbLine
 10
30.2264726519
 20
212.7629865736
 30
0.0
 11
25.7014726519
 21
208.2379865736
 31
0.0
  0
ARC
  5
81
330
1F
100
AcDbEntity
  8
0
  6
Continuous
 62
     7
370
    25
100
AcDbCircle
 10
26.2014726519
 20
208.2379865736
 30
0.0
 40
0.5
100
AcDbArc
 50
180.0
 51
270.0
  0
ARC
  5
82
330
1F
100
AcDbEntity
  8
0
  6
Continuous
 62
     7
370
    25
100
AcDbCircle
 10
92.7514726519
 20
208.2379865736
 30
0.0
 40
0.5
100
AcDbArc
 50
270.0
 51
0.0
  0
LINE
  5
83
330
1F
100
AcDbEntity
  8
0
  6
Continuous
 62
     7
370
    25
100
AcDbLine
 10
93.2514726519
 20
171.2379865736
 30
0.0
 11
90.2264726519
 21
174.2629865736
 31
0.0
  0
LINE
  5
84
330
1F
100
AcDbEntity
  8
0
  6
Continuous
 62
     7
370
    25
100
AcDbLine
 10
28.7264726519
 20
174.2629865736
 30
0.0
 11
25.7014726519
 21
171.2379865736
 31
0.0
  0
LINE
  5
85
330
1F
100
AcDbEntity
  8
0
  6
Continuous
 62
     7
370
    25
100
AcDbLine
 10
25.7014726519
 20
129.0679865736
 30
0.0
 11
28.7264726519
 21
126.0429865736
 31
0.0
  0
LINE
  5
86
330
1F
100
AcDbEntity
  8
0
  6
Continuous
 62
     7
370
    25
100
AcDbLine
 10
90.2264726519
 20
126.0429865736
 30
0.0
 11
93.2514726519
 21
129.0679865736
 31
0.0
  0
LINE
  5
87
330
1F
100
AcDbEntity
  8
0
  6
Continuous
 62
     7
370
    25
100
AcDbLine
 10
25.7014726519
 20
189.7379865736
 30
0.0
 11
25.7014726519
 21
189.2379865736
 31
0.0
  0
LINE
  5
88
330
1F
100
AcDbEntity
  8
0
  6
Continuous
 62
     7
370
    25
100
AcDbLine
 10
93.2514726519
 20
189.2379865736
 30
0.0
 11
93.2514726519
 21
189.7379865736
 31
0.0
  0
LINE
  5
89
330
1F
100
AcDbEntity
  8
0
  6
Continuous
 62
     7
370
    25
100
AcDbLine
 10
90.2264726519
 20
174.2629865736
 30
0.0
 11
90.2264726519
 21
189.2379865736
 31
0.0
  0
LINE
  5
8A
330
1F
100
AcDbEntity
  8
0
  6
Continuous
 62
     7
370
    25
100
AcDbLine
 10
28.7264726519
 20
189.2379865736
 30
0.0
 11
28.7264726519
 21
174.2629865736
 31
0.0
  0
LINE
  5
8B
330
1F
100
AcDbEntity
  8
0
  6
Continuous
 62
     7
370
    25
100
AcDbLine
 10
90.2264726519
 20
129.5679865736
 30
0.0
 11
90.2264726519
 21
144.3179865736
 31
0.0
  0
LINE
  5
8C
330
1F
100
AcDbEntity
  8
0
  6
Continuous
 62
     7
370
    25
100
AcDbLine
 10
28.7264726519
 20
144.3179865736
 30
0.0
 11
28.7264726519
 21
129.5679865736
 31
0.0
  0
LINE
  5
8D
330
1F
100
AcDbEntity
  8
0
  6
Continuous
 62
     7
370
    25
100
AcDbLine
 10
90.2264726519
 20
192.7629865736
 30
0.0
 11
90.2264726519
 21
207.7379865736
 31
0.0
  0
LINE
  5
8E
330
1F
100
AcDbEntity
  8
0
  6
Continuous
 62
     7
370
    25
100
AcDbLine
 10
28.7264726519
 20
207.7379865736
 30
0.0
 11
28.7264726519
 21
192.7629865736
 31
0.0
  0
LINE
  5
8F
330
1F
100
AcDbEntity
  8
0
  6
Continuous
 62
     7
370
    25
100
AcDbLine
 10
28.7264726519
 20
126.0429865736
 30
0.0
 11
28.7264726519
 21
122.5071213705
 31
0.0
  0
LINE
  5
90
330
1F
100
AcDbEntity
  8
0
  6
Continuous
 62
     7
370
    25
100
AcDbLine
 10
90.2264726519
 20
122.5071213705
 30
0.0
 11
90.2264726519
 21
126.0429865736
 31
0.0
  0
LINE
  5
91
330
1F
100
AcDbEntity
  8
0
  6
Continuous
 62
     7
370
    25
100
AcDbLine
 10
90.2264726519
 20
155.9879865736
 30
0.0
 11
90.2264726519
 21
170.7379865736
 31
0.0
  0
LINE
  5
92
330
1F
100
AcDbEntity
  8
0
  6
Continuous
 62
     7
370
    25
100
AcDbLine
 10
28.7264726519
 20
170.7379865736
 30
0.0
 11
28.7264726519
 21
155.9879865736
 31
0.0
  0
LINE
  5
93
330
1F
100
AcDbEntity
  8
0
  6
Continuous
 62
     7
370
    25
100
AcDbLine
 10
59.4764726519
 20
144.3179865736
 30
0.0
 11
25.6264726519
 21
144.3179865736
 31
0.0
  0
LINE
  5
94
330
1F
100
AcDbEntity
  8
0
  6
Continuous
 62
     7
370
    25
100
AcDbLine
 10
93.3264726519
 20
144.3179865736
 30
0.0
 11
59.4764726519
 21
144.3179865736
 31
0.0
  0
LINE
  5
95
330
1F
100
AcDbEntity
  8
0
  6
Continuous
 62
     7
370
    25
100
AcDbLine
 10
59.4764726519
 20
155.9879865736
 30
0.0
 11
25.6264726519
 21
155.9879865736
 31
0.0
  0
LINE
  5
96
330
1F
100
AcDbEntity
  8
0
  6
Continuous
 62
     7
370
    25
100
AcDbLine
 10
93.3264726519
 20
155.9879865736
 30
0.0
 11
59.4764726519
 21
155.9879865736
 31
0.0
  0
SPLINE
  5
97
330
1F
100
AcDbEntity
  8
0
  6
Continuous
 62
     7
370
    25
100
AcDbSpline
210
0.0
220
0.0
230
1.0
 70
     8
 71
     3
 72
    13
 73
     9
 74
     0
 42
0.000000001
 43
0.00000001
 40
0.0
 40
0.0
 40
0.0
 40
0.0
 40
0.0649485662908027
 40
0.2950926461906078
 40
0.5229963684717409
 40
0.7426057426901347
 40
0.9520866059487993
 40
1.0
 40
1.0
 40
1.0
 40
1.0
 10
27.73965452217688
 20
92.56798657362721
 30
0.0
 10
27.72232370907523
 20
92.56747683788929
 30
0.0
 10
27.6435814705491
 20
92.56516086270554
 30
0.0
 10
27.505872079577
 20
92.52697579912832
 30
0.0
 10
27.35425905158955
 20
92.4220756861434
 30
0.0
 10
27.2518503976022
 20
92.27543848709747
 30
0.0
 10
27.21785476270558
 20
92.14945243640742
 30
0.0
 10
27.21612736308529
 20
92.08077140220165
 30
0.0
 10
27.21580581131659
 20
92.06798657362727
 30
0.0
  0
LINE
  5
98
330
1F
100
AcDbEntity
  8
0
  6
Continuous
 62
     7
370
    25
100
AcDbLine
 10
91.2132907817
 20
92.5679865736
 30
0.0
 11
27.7396545222
 21
92.5679865736
 31
0.0
  0
SPLINE
  5
99
330
1F
100
AcDbEntity
  8
0
  6
Continuous
 62
     7
370
    25
100
AcDbSpline
210
0.0
220
0.0
230
1.0
 70
     8
 71
     3
 72
    13
 73
     9
 74
     0
 42
0.000000001
 43
0.00000001
 40
0.0
 40
0.0
 40
0.0
 40
0.0
 40
0.1455450231683472
 40
0.2571094743555844
 40
0.4683834804503134
 40
0.6793808530892056
 40
0.8974434014005885
 40
1.0
 40
1.0
 40
1.0
 40
1.0
 10
91.7371394925119
 20
92.06798657362712
 30
0.0
 10
91.73439877153344
 20
92.10698062176516
 30
0.0
 10
91.72955720900663
 20
92.1758647306239
 30
0.0
 10
91.68660212258817
 20
92.29449089681175
 30
0.0
 10
91.60461044170201
 20
92.414621899082
 30
0.0
 10
91.46421564002708
 20
92.51708834592036
 30
0.0
 10
91.32638424188391
 20
92.56286665416468
 30
0.0
 10
91.24069897015971
 20
92.56674576166967
 30
0.0
 10
91.21329078165077
 20
92.56798657362721
 30
0.0
  0
LINE
  5
9A
330
1F
100
AcDbEntity
  8
0
  6
Continuous
 62
     7
370
    25
100
AcDbLine
 10
91.7371394925
 20
92.0679865736
 30
0.0
 11
27.2158058113
 21
92.0679865736
 31
0.0
  0
LINE
  5
9B
330
1F
100
AcDbEntity
  8
0
  6
Continuous
 62
     7
370
    25
100
AcDbLine
 10
25.7014726519
 20
170.7379865736
 30
0.0
 11
93.2514726519
 21
170.7379865736
 31
0.0
  0
LINE
  5
9C
330
1F
100
AcDbEntity
  8
0
  6
Continuous
 62
     7
370
    25
100
AcDbLine
 10
93.2514726519
 20
171.2379865736
 30
0.0
 11
25.7014726519
 21
171.2379865736
 31
0.0
  0
SPLINE
  5
9D
330
1F
100
AcDbEntity
  8
0
  6
Continuous
 62
     7
370
    25
100
AcDbSpline
210
0.0
220
0.0
230
1.0
 70
     8
 71
     3
 72
     9
 73
     5
 74
     0
 42
0.000000001
 43
0.00000001
 40
0.0
 40
0.0
 40
0.0
 40
0.0
 40
0.5256090164845454
 40
1.0
 40
1.0
 40
1.0
 40
1.0
 10
86.9639698097127
 20
87.54298657362729
 30
0.0
 10
87.80259570849641
 20
88.33329945525571
 30
0.0
 10
89.39812750586314
 20
89.83691308600027
 30
0.0
 10
90.98455336765981
 20
91.35013007699625
 30
0.0
 10
91.73713949251191
 20
92.0679865736271
 30
0.0
  0
LINE
  5
9E
330
1F
100
AcDbEntity
  8
0
  6
Continuous
 62
     7
370
    25
100
AcDbLine
 10
31.9889754941
 20
87.5429865736
 30
0.0
 11
86.9639698097
 21
87.5429865736
 31
0.0
  0
LINE
  5
9F
330
1F
100
AcDbEntity
  8
0
  6
Continuous
 62
     7
370
    25
100
AcDbLine
 10
27.2158058113
 20
92.0679865736
 30
0.0
 11
31.9889754941
 21
87.5429865736
 31
0.0
  0
LINE
  5
A0
330
1F
100
AcDbEntity
  8
0
  6
Continuous
 62
     7
370
    25
100
AcDbLine
 10
25.7014726519
 20
129.5679865736
 30
0.0
 11
93.2514726519
 21
129.5679865736
 31
0.0
  0
LINE
  5
A1
330
1F
100
AcDbEntity
  8
0
  6
Continuous
 62
     7
370
    25
100
AcDbLine
 10
93.2514726519
 20
129.0679865736
 30
0.0
 11
25.7014726519
 21
129.0679865736
 31
0.0
  0
LINE
  5
A2
330
1F
100
AcDbEntity
  8
0
  6
Continuous
 62
     7
370
    25
100
AcDbLine
 10
59.4764726519
 20
192.7629865736
 30
0.0
 11
90.2264726519
 21
192.7629865736
 31
0.0
  0
LINE
  5
A3
330
1F
100
AcDbEntity
  8
0
  6
Continuous
 62
     7
370
    25
100
AcDbLine
 10
28.7264726519
 20
192.7629865736
 30
0.0
 11
59.4764726519
 21
192.7629865736
 31
0.0
  0
LINE
  5
A4
330
1F
100
AcDbEntity
  8
0
  6
Continuous
 62
     7
370
    25
100
AcDbLine
 10
93.2514726519
 20
189.7379865736
 30
0.0
 11
25.7014726519
 21
189.7379865736
 31
0.0
  0
LINE
  5
A5
330
1F
100
AcDbEntity
  8
0
  6
Continuous
 62
     7
370
    25
100
AcDbLine
 10
93.2514726519
 20
208.2379865736
 30
0.0
 11
25.7014726519
 21
208.2379865736
 31
0.0
  0
LINE
  5
A6
330
1F
100
AcDbEntity
  8
0
  6
Continuous
 62
     7
370
    25
100
AcDbLine
 10
92.7514726519
 20
207.7379865736
 30
0.0
 11
26.2014726519
 21
207.7379865736
 31
0.0
  0
LINE
  5
A7
330
1F
100
AcDbEntity
  8
0
  6
Continuous
 62
     7
370
    25
100
AcDbLine
 10
59.4764726519
 20
174.2629865736
 30
0.0
 11
90.2264726519
 21
174.2629865736
 31
0.0
  0
LINE
  5
A8
330
1F
100
AcDbEntity
  8
0
  6
Continuous
 62
     7
370
    25
100
AcDbLine
 10
28.7264726519
 20
174.2629865736
 30
0.0
 11
59.4764726519
 21
174.2629865736
 31
0.0
  0
SPLINE
  5
A9
330
1F
100
AcDbEntity
  8
0
  6
Continuous
 62
     7
370
    25
100
AcDbSpline
210
0.0
220
0.0
230
1.0
 70
     8
 71
     3
 72
     9
 73
     5
 74
     0
 42
0.000000001
 43
0.00000001
 40
0.0
 40
0.0
 40
0.0
 40
0.0
 40
0.2904007755417236
 40
1.0
 40
1.0
 40
1.0
 40
1.0
 10
88.55503004391663
 20
107.5429865736273
 30
0.0
 10
88.86369634808241
 20
107.8351362527048
 30
0.0
 10
89.92659400594854
 20
108.8411586317169
 30
0.0
 10
90.98564074664652
 20
109.8512362669928
 30
0.0
 10
91.73713949251092
 20
110.5679865736273
 30
0.0
  0
LINE
  5
AA
330
1F
100
AcDbEntity
  8
0
  6
Continuous
 62
     7
370
    25
100
AcDbLine
 10
30.3979152599
 20
107.5429865736
 30
0.0
 11
88.5550300439
 21
107.5429865736
 31
0.0
  0
LINE
  5
AB
330
1F
100
AcDbEntity
  8
0
  6
Continuous
 62
     7
370
    25
100
AcDbLine
 10
27.2158058113
 20
110.5679865736
 30
0.0
 11
30.3979152599
 21
107.5429865736
 31
0.0
  0
LINE
  5
AC
330
1F
100
AcDbEntity
  8
0
  6
Continuous
 62
     7
370
    25
100
AcDbLine
 10
91.7371394925
 20
110.5679865736
 30
0.0
 11
27.2158058113
 21
110.5679865736
 31
0.0
  0
LINE
  5
AD
330
1F
100
AcDbEntity
  8
0
  6
Continuous
 62
     7
370
    25
100
AcDbLine
 10
27.2158058113
 20
111.0679865736
 30
0.0
 11
27.2158058113
 21
110.5679865736
 31
0.0
  0
LINE
  5
AE
330
1F
100
AcDbEntity
  8
0
  6
Continuous
 62
     7
370
    25
100
AcDbLine
 10
91.7371394925
 20
110.5679865736
 30
0.0
 11
91.7371394925
 21
111.0679865736
 31
0.0
  0
LINE
  5
AF
330
1F
100
AcDbEntity
  8
0
  6
Continuous
 62
     7
370
    25
100
AcDbLine
 10
27.2158058113
 20
111.0679865736
 30
0.0
 11
91.7371394925
 21
111.0679865736
 31
0.0
  0
LINE
  5
B0
330
1F
100
AcDbEntity
  8
0
  6
Continuous
 62
     7
370
    25
100
AcDbLine
 10
59.4764726519
 20
126.0429865736
 30
0.0
 11
90.2264726519
 21
126.0429865736
 31
0.0
  0
LINE
  5
B1
330
1F
100
AcDbEntity
  8
0
  6
Continuous
 62
     7
370
    25
100
AcDbLine
 10
28.7264726519
 20
126.0429865736
 30
0.0
 11
59.4764726519
 21
126.0429865736
 31
0.0
  0
LINE
  5
B2
330
1F
100
AcDbEntity
  8
0
  6
Continuous
 62
     7
370
    25
100
AcDbLine
 10
25.7014726519
 20
189.2379865736
 30
0.0
 11
93.2514726519
 21
189.2379865736
 31
0.0
  0
LINE
  5
B3
330
1F
100
AcDbEntity
  8
0
  6
Continuous
 62
     7
370
    25
100
AcDbLine
 10
88.5550300439
 20
107.5429865736
 30
0.0
 11
88.5550300439
 21
92.5679865736
 31
0.0
  0
LINE
  5
B4
330
1F
100
AcDbEntity
  8
0
  6
Continuous
 62
     7
370
    25
100
AcDbLine
 10
30.3979152599
 20
92.5679865736
 30
0.0
 11
30.3979152599
 21
107.5429865736
 31
0.0
  0
SPLINE
  5
B5
330
1F
100
AcDbEntity
  8
0
  6
Continuous
 62
     7
370
    25
100
AcDbSpline
210
0.0
220
0.0
230
1.0
 70
     8
 71
     3
 72
    17
 73
    13
 74
     0
 42
0.000000001
 43
0.00000001
 40
0.0
 40
0.0
 40
0.0
 40
0.0
 40
0.057603977416347
 40
0.1579967806037914
 40
0.261237221099424
 40
0.3630203391115046
 40
0.4675124631749601
 40
0.5738091509439512
 40
0.6831021959704654
 40
0.79058753402281
 40
0.9014643176824505
 40
1.0
 40
1.0
 40
1.0
 40
1.0
 10
90.21482828037416
 20
122.5071213705489
 30
0.0
 10
90.21677534180236
 20
122.5131376808379
 30
0.0
 10
90.22211576187559
 20
122.5296392784606
 30
0.0
 10
90.13560410729144
 20
122.2624351606373
 30
0.0
 10
89.97584770254058
 20
121.7500928162269
 30
0.0
 10
89.75069211188794
 20
120.9810012881531
 30
0.0
 10
89.48704515168328
 20
119.9896420600782
 30
0.0
 10
89.20533006210263
 20
118.7714481679678
 30
0.0
 10
88.9392636454308
 20
117.3634881209094
 30
0.0
 10
88.72190993733122
 20
115.7897945113058
 30
0.0
 10
88.58058070056454
 20
114.1663691492138
 30
0.0
 10
88.56320561308436
 20
113.0624282739058
 30
0.0
 10
88.55503004391663
 20
112.5429865736273
 30
0.0
  0
LINE
  5
B6
330
1F
100
AcDbEntity
  8
0
  6
Continuous
 62
     7
370
    25
100
AcDbLine
 10
88.5550300439
 20
112.5429865736
 30
0.0
 11
88.5550300439
 21
111.0679865736
 31
0.0
  0
LINE
  5
B7
330
1F
100
AcDbEntity
  8
0
  6
Continuous
 62
     7
370
    25
100
AcDbLine
 10
30.3979152599
 20
111.0679865736
 30
0.0
 11
30.3979152599
 21
112.5429865736
 31
0.0
  0
SPLINE
  5
B8
330
1F
100
AcDbEntity
  8
0
  6
Continuous
 62
     7
370
    25
100
AcDbSpline
210
0.0
220
0.0
230
1.0
 70
     8
 71
     3
 72
    17
 73
    13
 74
     0
 42
0.000000001
 43
0.00000001
 40
0.0
 40
0.0
 40
0.0
 40
0.0
 40
0.1019418750023585
 40
0.2069481399237098
 40
0.3088613235821538
 40
0.4135500048648371
 40
0.5189068439191443
 40
0.6271681061993896
 40
0.7349435210093029
 40
0.8460505281028528
 40
0.9501973906506074
 40
1.0
 40
1.0
 40
1.0
 40
1.0
 10
30.39791525991103
 20
112.5429865736273
 30
0.0
 10
30.38920584897971
 20
113.0804532325088
 30
0.0
 10
30.3715252207587
 20
114.1715428884914
 30
0.0
 10
30.23372159413702
 20
115.7524516819535
 30
0.0
 10
30.03039167586251
 20
117.254200317467
 30
0.0
 10
29.77716828155377
 20
118.6280519840549
 30
0.0
 10
29.49770484719024
 20
119.8625202551501
 30
0.0
 10
29.22366980798437
 20
120.9059983567784
 30
0.0
 10
28.98176895277308
 20
121.735730454217
 30
0.0
 10
28.81311412148785
 20
122.2758806694615
 30
0.0
 10
28.72777824532054
 20
122.5390036758095
 30
0.0
 10
28.73558994188773
 20
122.5149142823284
 30
0.0
 10
28.73811702345349
 20
122.5071213705488
 30
0.0
  0
SPLINE
  5
B9
330
1F
100
AcDbEntity
  8
0
  6
Continuous
 62
     7
370
    25
100
AcDbSpline
210
0.0
220
0.0
230
1.0
 70
     8
 71
     3
 72
    12
 73
     8
 74
     0
 42
0.000000001
 43
0.00000001
 40
0.0
 40
0.0
 40
0.0
 40
0.0
 40
0.2135157309851202
 40
0.4271486431237058
 40
0.6386603330138436
 40
0.8510736832725744
 40
1.0
 40
1.0
 40
1.0
 40
1.0
 10
66.79146433642761
 20
214.7629865736271
 30
0.0
 10
67.08379665586682
 20
214.7947919769581
 30
0.0
 10
67.66862173181575
 20
214.8584202389796
 30
0.0
 10
68.4096056834398
 20
215.3647869260887
 30
0.0
 10
68.9509854986133
 20
216.1149821827092
 30
0.0
 10
69.2382215577835
 20
216.9605380795884
 30
0.0
 10
69.2683962970032
 20
217.5287838197791
 30
0.0
 10
69.28083283021775
 20
217.7629865736271
 30
0.0
  0
LINE
  5
BA
330
1F
100
AcDbEntity
  8
0
  6
Continuous
 62
     7
370
    25
100
AcDbLine
 10
69.2808328302
 20
217.7629865736
 30
0.0
 11
85.351261843
 21
217.7629865736
 31
0.0
  0
SPLINE
  5
BB
330
1F
100
AcDbEntity
  8
0
  6
Continuous
 62
     7
370
    25
100
AcDbSpline
210
0.0
220
0.0
230
1.0
 70
     8
 71
     3
 72
    14
 73
    10
 74
     0
 42
0.000000001
 43
0.00000001
 40
0.0
 40
0.0
 40
0.0
 40
0.0
 40
0.0889836373280204
 40
0.2119151587064954
 40
0.3516937570419697
 40
0.4944514644471584
 40
0.5154798288746795
 40
0.6784429949037546
 40
1.0
 40
1.0
 40
1.0
 40
1.0
 10
84.38856626536273
 20
214.824404444394
 30
0.0
 10
84.52621667366833
 20
214.8534820805068
 30
0.0
 10
84.85403209005294
 20
214.9227306756045
 30
0.0
 10
85.3491953759364
 20
215.1442248375769
 30
0.0
 10
85.77599779751708
 20
215.5327972479593
 30
0.0
 10
85.91901889268775
 20
215.8930972341256
 30
0.0
 10
85.97773885566018
 20
216.2829918163606
 30
0.0
 10
85.92243321410923
 20
216.8987369677845
 30
0.0
 10
85.57911118659867
 20
217.418223661206
 30
0.0
 10
85.35126184300279
 20
217.7629865736271
 30
0.0
  0
ELLIPSE
  5
BC
330
1F
100
AcDbEntity
  8
0
  6
Continuous
 62
     7
370
    25
100
AcDbEllipse
 10
83.5893297561
 20
217.7629865736
 30
0.0
 11
3.970158152618168
 21
0.0
 31
0.0
210
0.0
220
0.0
230
1.0
 40
0.755637404
 41
4.712388980384696
 42
4.91508511847743
  0
SPLINE
  5
BD
330
1F
100
AcDbEntity
  8
0
  6
Continuous
 62
     7
370
    25
100
AcDbSpline
210
0.0
220
0.0
230
1.0
 70
     8
 71
     3
 72
    14
 73
    10
 74
     0
 42
0.000000001
 43
0.00000001
 40
0.0
 40
0.0
 40
0.0
 40
0.0
 40
0.2486254259809644
 40
0.3740474720927371
 40
0.4994366450603313
 40
0.6238148723775438
 40
0.7487099109085196
 40
0.8741509555886954
 40
1.0
 40
1.0
 40
1.0
 40
1.0
 10
85.42786628731469
 20
217.8294865667711
 30
0.0
 10
85.6089763260267
 20
217.553589140588
 30
0.0
 10
85.8814494726631
 20
217.138511984205
 30
0.0
 10
86.03492957656721
 20
216.5269808540015
 30
0.0
 10
86.03283619279559
 20
216.0576899747178
 30
0.0
 10
85.86556168005572
 20
215.6003680062728
 30
0.0
 10
85.50717062991056
 20
215.2088074142254
 30
0.0
 10
84.99620105217905
 20
214.9252282578962
 30
0.0
 10
84.59832294887471
 20
214.8351621574626
 30
0.0
 10
84.39906089570714
 20
214.7900559906639
 30
0.0
  0
SPLINE
  5
BE
330
1F
100
AcDbEntity
  8
0
  6
Continuous
 62
     7
370
    25
100
AcDbSpline
210
0.0
220
0.0
230
1.0
 70
     8
 71
     3
 72
    10
 73
     6
 74
     0
 42
0.000000001
 43
0.00000001
 40
0.0
 40
0.0
 40
0.0
 40
0.0
 40
0.4987819941615787
 40
0.9305836998663953
 40
1.0
 40
1.0
 40
1.0
 40
1.0
 10
84.39906089570876
 20
214.7900559906642
 30
0.0
 10
84.39696528408851
 20
214.7986217378586
 30
0.0
 10
84.39305547571954
 20
214.8146029577294
 30
0.0
 10
84.38992742918957
 20
214.8225093591867
 30
0.0
 10
84.38873184769125
 20
214.8241739118058
 30
0.0
 10
84.38856626536348
 20
214.8244044443941
 30
0.0
  0
ARC
  5
BF
330
1F
100
AcDbEntity
  8
0
  6
Continuous
 62
     7
370
    25
100
AcDbCircle
 10
85.4893448504
 20
217.6812944289
 30
0.0
 40
0.1604385347494494
100
AcDbArc
 50
112.5314658851
 51
149.3907532266
  0
ELLIPSE
  5
C0
330
1F
100
AcDbEntity
  8
0
  6
Continuous
 62
     7
370
    25
100
AcDbEllipse
 10
35.3636155477
 20
217.7629865736
 30
0.0
 11
3.970158152618168
 21
0.0
 31
0.0
210
0.0
220
0.0
230
1.0
 40
0.755637404
 41
4.509692842291971
 42
4.712388980389142
  0
SPLINE
  5
C1
330
1F
100
AcDbEntity
  8
0
  6
Continuous
 62
     7
370
    25
100
AcDbSpline
210
0.0
220
0.0
230
1.0
 70
     8
 71
     3
 72
    14
 73
    10
 74
     0
 42
0.000000001
 43
0.00000001
 40
0.0
 40
0.0
 40
0.0
 40
0.0
 40
0.0889836373280213
 40
0.2119151587064952
 40
0.3516937570419699
 40
0.4944514644471589
 40
0.515479828874678
 40
0.6784429949037549
 40
1.0
 40
1.0
 40
1.0
 40
1.0
 10
34.56437903846491
 20
214.824404444394
 30
0.0
 10
34.42672863015929
 20
214.8534820805068
 30
0.0
 10
34.09891321377471
 20
214.9227306756045
 30
0.0
 10
33.6037499278912
 20
215.1442248375769
 30
0.0
 10
33.17694750631058
 20
215.5327972479593
 30
0.0
 10
33.03392641113986
 20
215.8930972341256
 30
0.0
 10
32.97520644816748
 20
216.2829918163606
 30
0.0
 10
33.03051208971839
 20
216.8987369677845
 30
0.0
 10
33.37383411722897
 20
217.418223661206
 30
0.0
 10
33.60168346082486
 20
217.7629865736271
 30
0.0
  0
LINE
  5
C2
330
1F
100
AcDbEntity
  8
0
  6
Continuous
 62
     7
370
    25
100
AcDbLine
 10
49.6721124736
 20
217.7629865736
 30
0.0
 11
33.6016834608
 21
217.7629865736
 31
0.0
  0
SPLINE
  5
C3
330
1F
100
AcDbEntity
  8
0
  6
Continuous
 62
     7
370
    25
100
AcDbSpline
210
0.0
220
0.0
230
1.0
 70
     8
 71
     3
 72
    12
 73
     8
 74
     0
 42
0.000000001
 43
0.00000001
 40
0.0
 40
0.0
 40
0.0
 40
0.0
 40
0.2135157309851205
 40
0.4271486431237044
 40
0.6386603330138435
 40
0.8510736832725745
 40
0.9999999999999999
 40
0.9999999999999999
 40
0.9999999999999999
 40
0.9999999999999999
 10
52.16148096740005
 20
214.7629865736271
 30
0.0
 10
51.86914864796084
 20
214.7947919769581
 30
0.0
 10
51.2843235720119
 20
214.8584202389796
 30
0.0
 10
50.54333962038785
 20
215.3647869260887
 30
0.0
 10
50.00195980521433
 20
216.1149821827091
 30
0.0
 10
49.71472374604415
 20
216.9605380795884
 30
0.0
 10
49.68454900682445
 20
217.5287838197791
 30
0.0
 10
49.67211247360992
 20
217.7629865736271
 30
0.0
  0
SPLINE
  5
C4
330
1F
100
AcDbEntity
  8
0
  6
Continuous
 62
     7
370
    25
100
AcDbSpline
210
0.0
220
0.0
230
1.0
 70
     8
 71
     3
 72
    10
 73
     6
 74
     0
 42
0.000000001
 43
0.00000001
 40
0.0
 40
0.0
 40
0.0
 40
0.0
 40
0.49878199416176
 40
0.9305836998665551
 40
1.0
 40
1.0
 40
1.0
 40
1.0
 10
34.55388440811892
 20
214.7900559906642
 30
0.0
 10
34.55598001973915
 20
214.7986217378586
 30
0.0
 10
34.55988982810807
 20
214.8146029577294
 30
0.0
 10
34.56301787463804
 20
214.8225093591866
 30
0.0
 10
34.5642134561364
 20
214.8241739118058
 30
0.0
 10
34.56437903846416
 20
214.8244044443941
 30
0.0
  0
SPLINE
  5
C5
330
1F
100
AcDbEntity
  8
0
  6
Continuous
 62
     7
370
    25
100
AcDbSpline
210
0.0
220
0.0
230
1.0
 70
     8
 71
     3
 72
    14
 73
    10
 74
     0
 42
0.000000001
 43
0.00000001
 40
0.0
 40
0.0
 40
0.0
 40
0.0
 40
0.2487459257269655
 40
0.3742402121830647
 40
0.4997041695469011
 40
0.6241482252561957
 40
0.7490886226856104
 40
0.8745525806731569
 40
0.9999999999999999
 40
0.9999999999999999
 40
0.9999999999999999
 40
0.9999999999999999
 10
33.52507901651295
 20
217.829486566771
 30
0.0
 10
33.34388871291358
 20
217.5534499301061
 30
0.0
 10
33.07128646840899
 20
217.1381506275191
 30
0.0
 10
32.91789282139458
 20
216.5262583695366
 30
0.0
 10
32.92024251485918
 20
216.0566899956584
 30
0.0
 10
33.08804465183429
 20
215.5992135972552
 30
0.0
 10
33.44709686563756
 20
215.2077785254769
 30
0.0
 10
33.95797641243911
 20
214.9248574609105
 30
0.0
 10
34.3552571383939
 20
214.8349878395136
 30
0.0
 10
34.55388440812059
 20
214.7900559906641
 30
0.0
  0
ARC
  5
C6
330
1F
100
AcDbEntity
  8
0
  6
Continuous
 62
     7
370
    25
100
AcDbCircle
 10
33.4636004534
 20
217.6812944289
 30
0.0
 40
0.1604385347495117
100
AcDbArc
 50
30.6092467734
 51
67.4685341149
  0
LINE
  5
C7
330
1F
100
AcDbEntity
  8
0
  6
Continuous
 62
     7
370
    25
100
AcDbLine
 10
35.3636155477
 20
214.6629865736
 30
0.0
 11
35.3636155477
 21
214.7629865736
 31
0.0
  0
ELLIPSE
  5
C8
330
1F
100
AcDbEntity
  8
0
  6
Continuous
 62
     7
370
    25
100
AcDbEllipse
 10
35.3636155477
 20
217.7629865736
 30
0.0
 11
4.046762596930058
 21
0.0
 31
-1.421085471520200E-14
210
3.511660092436011E-15
220
0.0
230
1.0
 40
0.7660444431
 41
4.457700926115949
 42
4.7123889803847
  0
SPLINE
  5
C9
330
1F
100
AcDbEntity
  8
0
  6
Continuous
 62
     7
370
    25
100
AcDbSpline
210
0.0
220
0.0
230
1.0
 70
     8
 71
     3
 72
    15
 73
    11
 74
     0
 42
0.000000001
 43
0.00000001
 40
0.0
 40
0.0
 40
0.0
 40
0.0
 40
0.012181697014219
 40
0.0255157847174979
 40
0.058043359111151
 40
0.1553116867175087
 40
0.4999846097373014
 40
0.7498811145504135
 40
0.9122958527962285
 40
1.0
 40
1.0
 40
1.0
 40
1.0
 10
34.55388440812055
 20
214.7900559906641
 30
0.0
 10
34.55365607397606
 20
214.7893985029246
 30
0.0
 10
34.55317780523671
 20
214.7880213289894
 30
0.0
 10
34.55080019089741
 20
214.7853021554214
 30
0.0
 10
34.54265337245272
 20
214.7801928832623
 30
0.0
 10
34.50986534887544
 20
214.7709143047713
 30
0.0
 10
34.45975473161768
 20
214.7661791799608
 30
0.0
 10
34.40490081616704
 20
214.7638408109312
 30
0.0
 10
34.36859509968215
 20
214.7627852115724
 30
0.0
 10
34.35042959365479
 20
214.7629342968855
 30
0.0
 10
34.34405986186988
 20
214.7629865736267
 30
0.0
  0
ELLIPSE
  5
CA
330
1F
100
AcDbEntity
  8
0
  6
Continuous
 62
     7
370
    25
100
AcDbEllipse
 10
-21.7070170709
 20
118.0794968508
 30
0.0
 11
0.0
 21
149.9999999999999
 31
0.0
210
0.0
220
0.0
230
1.0
 40
0.9966666667
 41
5.412950445874775
 42
5.581521324781949
  0
LINE
  5
CB
330
1F
100
AcDbEntity
  8
0
  6
Continuous
 62
     7
370
    25
100
AcDbLine
 10
92.4764726519
 20
214.7629865736
 30
0.0
 11
92.5827968609
 21
214.7765495757
 31
0.0
  0
LINE
  5
CC
330
1F
100
AcDbEntity
  8
0
  6
Continuous
 62
     7
370
    25
100
AcDbLine
 10
92.4764726519
 20
214.7629865736
 30
0.0
 11
84.608885442
 21
214.7629865736
 31
0.0
  0
SPLINE
  5
CD
330
1F
100
AcDbEntity
  8
0
  6
Continuous
 62
     7
370
    25
100
AcDbSpline
210
0.0
220
0.0
230
1.0
 70
     8
 71
     3
 72
    13
 73
     9
 74
     0
 42
0.000000001
 43
0.00000001
 40
0.0
 40
0.0
 40
0.0
 40
0.0
 40
0.0130730346513524
 40
0.027088470528405
 40
0.0603975559114335
 40
0.1577869209896271
 40
0.5007413915947027
 40
1.0
 40
1.0
 40
1.0
 40
1.0
 10
84.39906089570708
 20
214.7900559906641
 30
0.0
 10
84.39929946764228
 20
214.7893486113631
 30
0.0
 10
84.3997938095459
 20
214.7878828596183
 30
0.0
 10
84.40218426107226
 20
214.7850107993755
 30
0.0
 10
84.41032184987988
 20
214.7797151911846
 30
0.0
 10
84.44328298554845
 20
214.7706728291669
 30
0.0
 10
84.511346249297
 20
214.7644897601134
 30
0.0
 10
84.57258405591332
 20
214.7635460180035
 30
0.0
 10
84.60888544195804
 20
214.7629865736251
 30
0.0
  0
ELLIPSE
  5
CE
330
1F
100
AcDbEntity
  8
0
  6
Continuous
 62
     7
370
    25
100
AcDbEllipse
 10
-8.5108716124
 20
118.0794968508
 30
0.0
 11
0.0
 21
149.9999999999999
 31
0.0
210
0.0
220
0.0
230
1.0
 40
0.8385402314
 41
5.439882706586378
 42
5.457892913636592
  0
SPLINE
  5
CF
330
1F
100
AcDbEntity
  8
0
  6
Continuous
 62
     7
370
    25
100
AcDbSpline
210
0.0
220
0.0
230
1.0
 70
     8
 71
     3
 72
    14
 73
    10
 74
     0
 42
0.000000001
 43
0.00000001
 40
0.0
 40
0.0
 40
0.0
 40
0.0
 40
0.1258433864504315
 40
0.25063990672301
 40
0.3760321068196918
 40
0.5007240227076736
 40
0.7504237444597991
 40
0.8749467168690727
 40
1.0
 40
1.0
 40
1.0
 40
1.0
 10
77.3883288529117
 20
222.9328888349499
 30
0.0
 10
77.72786353393593
 20
222.9143312578909
 30
0.0
 10
78.40410837430078
 20
222.8773704805767
 30
0.0
 10
79.37373904407748
 20
222.6468070631729
 30
0.0
 10
80.29118181968211
 20
222.3405592483695
 30
0.0
 10
81.44215079060719
 20
221.8319479352247
 30
0.0
 10
82.47558188931855
 20
221.1980097072047
 30
0.0
 10
83.36785951500633
 20
220.4591946575107
 30
0.0
 10
83.72653926301206
 20
220.0405752459392
 30
0.0
 10
83.90626020635104
 20
219.8308207895866
 30
0.0
  0
LINE
  5
D0
330
1F
100
AcDbEntity
  8
0
  6
Continuous
 62
     7
370
    25
100
AcDbLine
 10
41.5646164509
 20
222.9328888349
 30
0.0
 11
77.3883288529
 21
222.9328888349
 31
0.0
  0
SPLINE
  5
D1
330
1F
100
AcDbEntity
  8
0
  6
Continuous
 62
     7
370
    25
100
AcDbSpline
210
0.0
220
0.0
230
1.0
 70
     8
 71
     3
 72
    14
 73
    10
 74
     0
 42
0.000000001
 43
0.00000001
 40
0.0
 40
0.0
 40
0.0
 40
0.0
 40
0.1258162724631489
 40
0.2505930291928109
 40
0.3759721983307682
 40
0.5006597243768512
 40
0.7503736580254832
 40
0.8749167321256005
 40
1.0
 40
1.0
 40
1.0
 40
1.0
 10
41.56461645091596
 20
222.9328888349498
 30
0.0
 10
41.22515488898718
 20
222.9143390335387
 30
0.0
 10
40.54903645507657
 20
222.8773926923735
 30
0.0
 10
39.57954624757626
 20
222.6468999043466
 30
0.0
 10
38.66217245280028
 20
222.3407163761152
 30
0.0
 10
37.5111738263672
 20
221.8321525258009
 30
0.0
 10
36.4776416729563
 20
221.1982100860289
 30
0.0
 10
35.58520984356169
 20
220.459325165937
 30
0.0
 10
35.22645213120391
 20
220.0406242726061
 30
0.0
 10
35.04668509747701
 20
219.8308207895862
 30
0.0
  0
ELLIPSE
  5
D2
330
1F
100
AcDbEntity
  8
0
  6
Continuous
 62
     7
370
    25
100
AcDbEllipse
 10
127.4638169162
 20
118.0794968508
 30
0.0
 11
0.0
 21
149.9999999999999
 31
0.0
210
0.0
220
0.0
230
1.0
 40
0.8385402314
 41
0.8252923935430074
 42
0.8433026005932224
  0
LINE
  5
D3
330
1F
100
AcDbEntity
  8
0
  6
Continuous
 62
     7
370
    25
100
AcDbLine
 10
34.3440598619
 20
214.7629865736
 30
0.0
 11
26.4764726519
 21
214.7629865736
 31
0.0
  0
LINE
  5
D4
330
1F
100
AcDbEntity
  8
0
  6
Continuous
 62
     7
370
    25
100
AcDbLine
 10
26.3701484429
 20
214.7765495757
 30
0.0
 11
26.4764726519
 21
214.7629865736
 31
0.0
  0
ELLIPSE
  5
D5
330
1F
100
AcDbEntity
  8
0
  6
Continuous
 62
     7
370
    25
100
AcDbEllipse
 10
140.6599623748
 20
118.0794968508
 30
0.0
 11
0.0
 21
150.0
 31
0.0
210
0.0
220
0.0
230
1.0
 40
0.9966666667
 41
0.7016639823976508
 42
0.8702348613048255
  0
LINE
  5
D6
330
1F
100
AcDbEntity
  8
0
  6
Continuous
 62
     7
370
    25
100
AcDbLine
 10
74.7936599977
 20
232.6448711546
 30
0.0
 11
44.1592853061
 21
232.6448711546
 31
0.0
  0
ELLIPSE
  5
D7
330
1F
100
AcDbEntity
  8
0
  6
Continuous
 62
     7
370
    25
100
AcDbEllipse
 10
83.5893297561
 20
217.7629865736
 30
0.0
 11
-4.04676259693008
 21
0.0
 31
-1.421085471520200E-14
210
-3.511660092435993E-15
220
0.0
230
1.0
 40
0.7660444431
 41
1.570796326794897
 42
1.825484381064197
  0
LINE
  5
D8
330
1F
100
AcDbEntity
  8
0
  6
Continuous
 62
     7
370
    25
100
AcDbLine
 10
92.4764726519
 20
212.7629865736
 30
0.0
 11
92.4764726519
 21
214.7629865736
 31
0.0
  0
LINE
  5
D9
330
1F
100
AcDbEntity
  8
0
  6
Continuous
 62
     7
370
    25
100
AcDbLine
 10
92.4764726519
 20
212.7629865736
 30
0.0
 11
26.4764726519
 21
212.7629865736
 31
0.0
  0
LINE
  5
DA
330
1F
100
AcDbEntity
  8
0
  6
Continuous
 62
     7
370
    25
100
AcDbLine
 10
26.4764726519
 20
214.7629865736
 30
0.0
 11
26.4764726519
 21
212.7629865736
 31
0.0
  0
LINE
  5
DB
330
1F
100
AcDbEntity
  8
0
  6
Continuous
 62
     7
370
    25
100
AcDbLine
 10
83.5893297561
 20
214.6629865736
 30
0.0
 11
35.3636155477
 21
214.6629865736
 31
0.0
  0
LINE
  5
DC
330
1F
100
AcDbEntity
  8
0
  6
Continuous
 62
     7
370
    25
100
AcDbLine
 10
83.5893297561
 20
214.6629865736
 30
0.0
 11
83.5893297561
 21
214.7629865736
 31
0.0
  0
ARC
  5
DD
330
1F
100
AcDbEntity
  8
0
  6
Continuous
 62
     7
370
    25
100
AcDbCircle
 10
74.9550323674
 20
232.3955674019
 30
0.0
 40
0.2969737409983781
100
AcDbArc
 50
57.0853336096
 51
122.9146663904
  0
ARC
  5
DE
330
1F
100
AcDbEntity
  8
0
  6
Continuous
 62
     7
370
    25
100
AcDbCircle
 10
-21.7070170709
 20
118.0794968508
 30
0.0
 40
149.9999999999998
100
AcDbArc
 50
40.1392152621
 51
49.7976151723
  0
SPLINE
  5
DF
330
1F
100
AcDbEntity
  8
0
  6
Continuous
 62
     7
370
    25
100
AcDbSpline
210
0.0
220
0.0
230
1.0
 70
     8
 71
     3
 72
    11
 73
     7
 74
     0
 42
0.000000001
 43
0.00000001
 40
0.0
 40
0.0
 40
0.0
 40
0.0
 40
0.2648266735883619
 40
0.544859227115349
 40
0.8112599874604306
 40
0.9999999999999999
 40
0.9999999999999999
 40
0.9999999999999999
 40
0.9999999999999999
 10
92.58279686092719
 20
214.776549575664
 30
0.0
 10
92.63061973553343
 20
214.7874490890418
 30
0.0
 10
92.72901138975514
 20
214.8098739466081
 30
0.0
 10
92.85203372622361
 20
214.8168664691599
 30
0.0
 10
92.93210216373875
 20
214.8040489187088
 30
0.0
 10
92.95538287962285
 20
214.7846104255428
 30
0.0
 10
92.96503704130133
 20
214.776549575664
 30
0.0
  0
LINE
  5
E0
330
1F
100
AcDbEntity
  8
0
  6
Continuous
 62
     7
370
    25
100
AcDbLine
 10
92.9650370413
 20
214.7765495757
 30
0.0
 11
92.9764726519
 21
214.7629865736
 31
0.0
  0
LINE
  5
E1
330
1F
100
AcDbEntity
  8
0
  6
Continuous
 62
     7
370
    25
100
AcDbLine
 10
92.9764726519
 20
214.7629865736
 30
0.0
 11
92.9764726519
 21
212.7629865736
 31
0.0
  0
LINE
  5
E2
330
1F
100
AcDbEntity
  8
0
  6
Continuous
 62
     7
370
    25
100
AcDbLine
 10
92.9764726519
 20
212.7629865736
 30
0.0
 11
92.4764726519
 21
212.7629865736
 31
0.0
  0
LINE
  5
E3
330
1F
100
AcDbEntity
  8
0
  6
Continuous
 62
     7
370
    25
100
AcDbLine
 10
35.3636155477
 20
214.7629865736
 30
0.0
 11
83.5893297561
 21
214.7629865736
 31
0.0
  0
ARC
  5
E4
330
1F
100
AcDbEntity
  8
0
  6
Continuous
 62
     7
370
    25
100
AcDbCircle
 10
43.9979129364
 20
232.3955674019
 30
0.0
 40
0.2969737409983188
100
AcDbArc
 50
57.0853336096
 51
122.9146663904
  0
SPLINE
  5
E5
330
1F
100
AcDbEntity
  8
0
  6
Continuous
 62
     7
370
    25
100
AcDbSpline
210
0.0
220
0.0
230
1.0
 70
     8
 71
     3
 72
    11
 73
     7
 74
     0
 42
0.000000001
 43
0.00000001
 40
0.0
 40
0.0
 40
0.0
 40
0.0
 40
0.2648266735883575
 40
0.5448592271153564
 40
0.8112599874604355
 40
1.0
 40
1.0
 40
1.0
 40
1.0
 10
25.98790826252623
 20
214.776549575664
 30
0.0
 10
26.00268616309948
 20
214.7874490890418
 30
0.0
 10
26.03309048520051
 20
214.8098739466081
 30
0.0
 10
26.13490448534067
 20
214.8168664691599
 30
0.0
 10
26.25384364684354
 20
214.8040489187089
 30
0.0
 10
26.3360561556896
 20
214.7846104255428
 30
0.0
 10
26.37014844290038
 20
214.776549575664
 30
0.0
  0
ARC
  5
E6
330
1F
100
AcDbEntity
  8
0
  6
Continuous
 62
     7
370
    25
100
AcDbCircle
 10
140.6599623748
 20
118.0794968508
 30
0.0
 40
150.0
100
AcDbArc
 50
130.2023848277
 51
139.8607847379
  0
LINE
  5
E7
330
1F
100
AcDbEntity
  8
0
  6
Continuous
 62
     7
370
    25
100
AcDbLine
 10
25.9764726519
 20
212.7629865736
 30
0.0
 11
25.9764726519
 21
214.7629865736
 31
0.0
  0
LINE
  5
E8
330
1F
100
AcDbEntity
  8
0
  6
Continuous
 62
     7
370
    25
100
AcDbLine
 10
25.9764726519
 20
214.7629865736
 30
0.0
 11
25.9879082625
 21
214.7765495757
 31
0.0
  0
LINE
  5
E9
330
1F
100
AcDbEntity
  8
0
  6
Continuous
 62
     7
370
    25
100
AcDbLine
 10
26.4764726519
 20
212.7629865736
 30
0.0
 11
25.9764726519
 21
212.7629865736
 31
0.0
  0
ELLIPSE
  5
EA
330
1F
100
AcDbEntity
  8
0
  6
Continuous
 62
     7
370
    25
100
AcDbEllipse
 10
-8.5874760567
 20
118.0794968508
 30
0.0
 11
0.0
 21
149.9
 31
0.0
210
0.0
220
0.0
230
1.0
 40
0.8390996312
 41
5.439882706586378
 42
5.457892913636591
  0
ARC
  5
EB
330
1F
100
AcDbEntity
  8
0
  6
Continuous
 62
     7
370
    25
100
AcDbCircle
 10
83.9674869748
 20
219.6845066721
 30
0.0
 40
0.1586081276107744
100
AcDbArc
 50
112.7074140928
 51
150.3431876152
  0
ELLIPSE
  5
EC
330
1F
100
AcDbEntity
  8
0
  6
Continuous
 62
     7
370
    25
100
AcDbEllipse
 10
127.5404213605
 20
118.0794968508
 30
0.0
 11
0.0
 21
149.9
 31
0.0
210
0.0
220
0.0
230
1.0
 40
0.8390996312
 41
0.825292393543008
 42
0.8433026005932229
  0
ARC
  5
ED
330
1F
100
AcDbEntity
  8
0
  6
Continuous
 62
     7
370
    25
100
AcDbCircle
 10
34.9854583291
 20
219.6845066721
 30
0.0
 40
0.1586081276108
100
AcDbArc
 50
29.6568123848
 51
67.2925859072
  0
LINE
  5
EE
330
1F
100
AcDbEntity
  8
0
  6
Continuous
 62
     7
370
    25
100
AcDbLine
 10
69.2808328302
 20
217.7629865736
 30
0.0
 11
69.2808328302
 21
219.7629865736
 31
0.0
  0
LINE
  5
EF
330
1F
100
AcDbEntity
  8
0
  6
Continuous
 62
     7
370
    25
100
AcDbLine
 10
83.829655762
 20
219.7629865736
 30
0.0
 11
69.2808328302
 21
219.7629865736
 31
0.0
  0
LINE
  5
F0
330
1F
100
AcDbEntity
  8
0
  6
Continuous
 62
     7
370
    25
100
AcDbLine
 10
35.1232895418
 20
219.7629865736
 30
0.0
 11
49.6721124736
 21
219.7629865736
 31
0.0
  0
LINE
  5
F1
330
1F
100
AcDbEntity
  8
0
  6
Continuous
 62
     7
370
    25
100
AcDbLine
 10
49.6721124736
 20
217.7629865736
 30
0.0
 11
49.6721124736
 21
219.7629865736
 31
0.0
  0
SPLINE
  5
F2
330
1F
100
AcDbEntity
  8
0
  6
Continuous
 62
     7
370
    25
100
AcDbSpline
210
0.0
220
0.0
230
1.0
 70
     8
 71
     3
 72
    14
 73
    10
 74
     0
 42
0.000000001
 43
0.00000001
 40
0.0
 40
0.0
 40
0.0
 40
0.0
 40
0.1604009494177602
 40
0.3248326845963613
 40
0.4974983460059585
 40
0.6735935471915473
 40
0.7952351507420113
 40
0.9192389425744572
 40
1.0
 40
1.0
 40
1.0
 40
1.0
 10
83.82965576203874
 20
219.7629865736271
 30
0.0
 10
83.594846743372
 20
220.0214530107632
 30
0.0
 10
83.11932808729286
 20
220.5448810014188
 30
0.0
 10
82.18499963289652
 20
221.222433682086
 30
0.0
 10
81.11521707536399
 20
221.8270066196722
 30
0.0
 10
80.0317112741296
 20
222.2761467107876
 30
0.0
 10
78.99375763227002
 20
222.5759466035349
 30
0.0
 10
78.14900132228424
 20
222.7353415961681
 30
0.0
 10
77.60348520665374
 20
222.7551671864548
 30
0.0
 10
77.38832885291121
 20
222.7629865736271
 30
0.0
  0
LINE
  5
F3
330
1F
100
AcDbEntity
  8
0
  6
Continuous
 62
     7
370
    25
100
AcDbLine
 10
77.3883288529
 20
222.7629865736
 30
0.0
 11
77.3883288529
 21
222.9328888349
 31
0.0
  0
SPLINE
  5
F4
330
1F
100
AcDbEntity
  8
0
  6
Continuous
 62
     7
370
    25
100
AcDbSpline
210
0.0
220
0.0
230
1.0
 70
     8
 71
     3
 72
    12
 73
     8
 74
     0
 42
0.000000001
 43
0.00000001
 40
0.0
 40
0.0
 40
0.0
 40
0.0
 40
0.2137829727914791
 40
0.4275749674774564
 40
0.6409980937208325
 40
0.8529956708127653
 40
1.0
 40
1.0
 40
1.0
 40
1.0
 10
69.28083283021775
 20
219.7629865736271
 30
0.0
 10
69.25556301710634
 20
220.1001408522844
 30
0.0
 10
69.20502232446749
 20
220.7744636379087
 30
0.0
 10
68.80401475623393
 20
221.6727747633306
 30
0.0
 10
68.19372069959125
 20
222.3486753160533
 30
0.0
 10
67.48449118764594
 20
222.7105632670115
 30
0.0
 10
66.99280167227721
 20
222.7477566169929
 30
0.0
 10
66.79146433642761
 20
222.7629865736271
 30
0.0
  0
LINE
  5
F5
330
1F
100
AcDbEntity
  8
0
  6
Continuous
 62
     7
370
    25
100
AcDbLine
 10
41.5646164509
 20
222.7629865736
 30
0.0
 11
41.5646164509
 21
222.9328888349
 31
0.0
  0
SPLINE
  5
F6
330
1F
100
AcDbEntity
  8
0
  6
Continuous
 62
     7
370
    25
100
AcDbSpline
210
0.0
220
0.0
230
1.0
 70
     8
 71
     3
 72
    14
 73
    10
 74
     0
 42
0.000000001
 43
0.00000001
 40
0.0
 40
0.0
 40
0.0
 40
0.0
 40
0.1622848391898705
 40
0.3248351730071058
 40
0.4992605900200583
 40
0.6735944970758213
 40
0.7965385842679366
 40
0.9192427882164443
 40
1.0
 40
1.0
 40
1.0
 40
1.0
 10
35.1232895417889
 20
219.7629865736271
 30
0.0
 10
35.36062165498294
 20
220.0246736932448
 30
0.0
 10
35.83567415178045
 20
220.5484760471743
 30
0.0
 10
36.77572832829337
 20
221.2265707141584
 30
0.0
 10
37.84069625686142
 20
221.8299400489717
 30
0.0
 10
38.92887638231897
 20
222.2781327807742
 30
0.0
 10
39.96208198280958
 20
222.5776520362925
 30
0.0
 10
40.80744542870808
 20
222.7353474642695
 30
0.0
 10
41.34947565901467
 20
222.7551332621555
 30
0.0
 10
41.56461645091599
 20
222.7629865736271
 30
0.0
  0
SPLINE
  5
F7
330
1F
100
AcDbEntity
  8
0
  6
Continuous
 62
     7
370
    25
100
AcDbSpline
210
0.0
220
0.0
230
1.0
 70
     8
 71
     3
 72
    12
 73
     8
 74
     0
 42
0.000000001
 43
0.00000001
 40
0.0
 40
0.0
 40
0.0
 40
0.0
 40
0.2137829727914787
 40
0.4275749674774572
 40
0.6409980937208342
 40
0.8529956708127662
 40
1.0
 40
1.0
 40
1.0
 40
1.0
 10
49.67211247360992
 20
219.7629865736271
 30
0.0
 10
49.69738228672133
 20
220.1001408522844
 30
0.0
 10
49.74792297936016
 20
220.7744636379087
 30
0.0
 10
50.14893054759373
 20
221.6727747633306
 30
0.0
 10
50.7592246042364
 20
222.3486753160533
 30
0.0
 10
51.4684541161817
 20
222.7105632670115
 30
0.0
 10
51.96014363155044
 20
222.7477566169929
 30
0.0
 10
52.16148096740005
 20
222.7629865736271
 30
0.0
  0
LINE
  5
F8
330
1F
100
AcDbEntity
  8
0
  6
Continuous
 62
     7
370
    25
100
AcDbLine
 10
77.3883288529
 20
222.7629865736
 30
0.0
 11
41.5646164509
 21
222.7629865736
 31
0.0
  0
LINE
  5
F9
330
1F
100
AcDbEntity
  8
0
  6
Continuous
 62
     7
370
    25
100
AcDbLine
 10
74.7936599977
 20
232.7629865736
 30
0.0
 11
74.7936599977
 21
232.6448711546
 31
0.0
  0
LINE
  5
FA
330
1F
100
AcDbEntity
  8
0
  6
Continuous
 62
     7
370
    25
100
AcDbLine
 10
44.1592853061
 20
232.7629865736
 30
0.0
 11
44.1592853061
 21
232.6448711546
 31
0.0
  0
LINE
  5
FB
330
1F
100
AcDbEntity
  8
0
  6
Continuous
 62
     7
370
    25
100
AcDbLine
 10
44.1592853061
 20
232.7629865736
 30
0.0
 11
74.7936599977
 21
232.7629865736
 31
0.0
  0
ARC
  5
FC
330
1F
100
AcDbEntity
  8
0
  6
Continuous
 62
     7
370
    25
100
AcDbCircle
 10
74.7936599977
 20
232.2629865736
 30
0.0
 40
0.5000000000000161
100
AcDbArc
 50
49.7976151723
 51
90.0
  0
ARC
  5
FD
330
1F
100
AcDbEntity
  8
0
  6
Continuous
 62
     7
370
    25
100
AcDbCircle
 10
44.1592853061
 20
232.2629865736
 30
0.0
 40
0.5000000000000024
100
AcDbArc
 50
90.0
 51
130.2023848277
  0
SPLINE
  5
FE
330
1F
100
AcDbEntity
  8
0
  6
Continuous
 62
     7
370
    25
100
AcDbSpline
210
0.0
220
0.0
230
1.0
 70
     8
 71
     3
 72
    18
 73
    14
 74
     0
 42
0.000000001
 43
0.00000001
 40
0.0
 40
0.0
 40
0.0
 40
0.0
 40
0.0540375908142338
 40
0.1272742440518078
 40
0.2088548431100888
 40
0.3014925950060012
 40
0.4010380883444605
 40
0.504277303741742
 40
0.612815264648813
 40
0.7267548821468641
 40
0.8390628554297577
 40
0.9485588068465649
 40
1.0
 40
1.0
 40
1.0
 40
1.0
 10
168.3035817117931
 20
156.2114599670775
 30
0.0
 10
168.3116451055155
 20
156.3350785215578
 30
0.0
 10
168.3306367430967
 20
156.6262361737622
 30
0.0
 10
168.4064128342942
 20
157.0945150284155
 30
0.0
 10
168.5238830124539
 20
157.6370778233955
 30
0.0
 10
168.6863142910009
 20
158.2212122068473
 30
0.0
 10
168.8967953501414
 20
158.8283128789954
 30
0.0
 10
169.1528966662794
 20
159.4402258387609
 30
0.0
 10
169.4522978267336
 20
160.0495456876111
 30
0.0
 10
169.7889869302136
 20
160.6426022169532
 30
0.0
 10
170.1582693103856
 20
161.1927788072896
 30
0.0
 10
170.478712273601
 20
161.6094377834624
 30
0.0
 10
170.6818823409835
 20
161.8245081569515
 30
0.0
 10
170.7468226672651
 20
161.8932522411949
 30
0.0
  0
SPLINE
  5
FF
330
1F
100
AcDbEntity
  8
0
  6
Continuous
 62
     7
370
    25
100
AcDbSpline
210
0.0
220
0.0
230
1.0
 70
     8
 71
     3
 72
     9
 73
     5
 74
     0
 42
0.000000001
 43
0.00000001
 40
0.0
 40
0.0
 40
0.0
 40
0.0
 40
0.7226945805220409
 40
1.0
 40
1.0
 40
1.0
 40
1.0
 10
168.297228229189
 20
155.8978817935593
 30
0.0
 10
168.2948834979236
 20
155.9737305662242
 30
0.0
 10
168.2916390689094
 20
156.0786833010436
 30
0.0
 10
168.3009889414626
 20
156.1826339020581
 30
0.0
 10
168.3035817117931
 20
156.2114599670775
 30
0.0
  0
SPLINE
  5
100
330
1F
100
AcDbEntity
  8
0
  6
Continuous
 62
     7
370
    25
100
AcDbSpline
210
0.0
220
0.0
230
1.0
 70
     8
 71
     3
 72
     9
 73
     5
 74
     0
 42
0.000000001
 43
0.00000001
 40
0.0
 40
0.0
 40
0.0
 40
0.0
 40
0.3515107691093771
 40
1.0
 40
1.0
 40
1.0
 40
1.0
 10
168.3208763720037
 20
119.546262505234
 30
0.0
 10
168.3139151566737
 20
119.6076176190775
 30
0.0
 10
168.294111452373
 20
119.7821645156035
 30
0.0
 10
168.2951535764444
 20
119.9592842694692
 30
0.0
 10
168.295829382682
 20
120.0741445224292
 30
0.0
  0
SPLINE
  5
101
330
1F
100
AcDbEntity
  8
0
  6
Continuous
 62
     7
370
    25
100
AcDbSpline
210
0.0
220
0.0
230
1.0
 70
     8
 71
     3
 72
    15
 73
    11
 74
     0
 42
0.000000001
 43
0.00000001
 40
0.0
 40
0.0
 40
0.0
 40
0.0
 40
0.0571548733163516
 40
0.2204661271255869
 40
0.3883541550102228
 40
0.5339786994414373
 40
0.6883850938861523
 40
0.8225364231985166
 40
0.9373663690816195
 40
1.0
 40
1.0
 40
1.0
 40
1.0
 10
169.7580095501186
 20
115.4061182911999
 30
0.0
 10
169.7165348122086
 20
115.4720451319594
 30
0.0
 10
169.5565523940872
 20
115.7263477734057
 30
0.0
 10
169.3049965925319
 20
116.2143076693968
 30
0.0
 10
169.0189968949372
 20
116.8359605773439
 30
0.0
 10
168.7748528516241
 20
117.4792475520587
 30
0.0
 10
168.5828232161194
 20
118.1015425966054
 30
0.0
 10
168.4416247158114
 20
118.7000110603222
 30
0.0
 10
168.3537383197832
 20
119.1729263648645
 30
0.0
 10
168.3294489961005
 20
119.4488711267733
 30
0.0
 10
168.3208763720037
 20
119.546262505234
 30
0.0
  0
LINE
  5
102
330
1F
100
AcDbEntity
  8
0
  6
Continuous
 62
     7
370
    25
100
AcDbLine
 10
168.2971667619
 20
120.0741668742
 30
0.0
 11
168.2971667619
 21
155.8978799309
 31
0.0
  0
LINE
  5
103
330
1F
100
AcDbEntity
  8
0
  6
Continuous
 62
     7
370
    25
100
AcDbLine
 10
157.8271648036
 20
122.6688362237
 30
0.0
 11
157.504419622
 21
122.6688362237
 31
0.0
  0
LINE
  5
104
330
1F
100
AcDbEntity
  8
0
  6
Continuous
 62
     7
370
    25
100
AcDbLine
 10
157.504419622
 20
153.3032115127
 30
0.0
 11
157.504419622
 21
122.6688362237
 31
0.0
  0
LINE
  5
105
330
1F
100
AcDbEntity
  8
0
  6
Continuous
 62
     7
370
    25
100
AcDbLine
 10
157.8271648036
 20
153.3032115127
 30
0.0
 11
157.504419622
 21
153.3032115127
 31
0.0
  0
LINE
  5
106
330
1F
100
AcDbEntity
  8
0
  6
Continuous
 62
     7
370
    25
100
AcDbLine
 10
157.8271648036
 20
122.6688362237
 30
0.0
 11
157.8271648036
 21
153.3032115127
 31
0.0
  0
LINE
  5
107
330
1F
100
AcDbEntity
  8
0
  6
Continuous
 62
     7
370
    25
100
AcDbLine
 10
157.504419622
 20
153.625955763
 30
0.0
 11
157.504419622
 21
153.3032115127
 31
0.0
  0
ARC
  5
108
330
1F
100
AcDbEntity
  8
0
  6
Continuous
 62
     7
370
    25
100
AcDbCircle
 10
157.0292926226
 20
152.828082211
 30
0.0
 40
0.9286268736889526
100
AcDbArc
 50
30.7736085899
 51
59.2265567446
  0
LINE
  5
109
330
1F
100
AcDbEntity
  8
0
  6
Continuous
 62
     7
370
    25
100
AcDbLine
 10
157.504419622
 20
122.6688362237
 30
0.0
 11
126.8700443329
 21
122.6688362237
 31
0.0
  0
LINE
  5
10A
330
1F
100
AcDbEntity
  8
0
  6
Continuous
 62
     7
370
    25
100
AcDbLine
 10
126.8700443329
 20
153.3032115127
 30
0.0
 11
126.8700443329
 21
122.6688362237
 31
0.0
  0
LINE
  5
10B
330
1F
100
AcDbEntity
  8
0
  6
Continuous
 62
     7
370
    25
100
AcDbLine
 10
126.8700443329
 20
153.3032115127
 30
0.0
 11
157.504419622
 21
153.3032115127
 31
0.0
  0
LINE
  5
10C
330
1F
100
AcDbEntity
  8
0
  6
Continuous
 62
     7
370
    25
100
AcDbLine
 10
126.8700443329
 20
153.625955763
 30
0.0
 11
126.8700443329
 21
153.3032115127
 31
0.0
  0
LINE
  5
10D
330
1F
100
AcDbEntity
  8
0
  6
Continuous
 62
     7
370
    25
100
AcDbLine
 10
157.504419622
 20
153.625955763
 30
0.0
 11
126.8700443329
 21
153.625955763
 31
0.0
  0
LINE
  5
10E
330
1F
100
AcDbEntity
  8
0
  6
Continuous
 62
     7
370
    25
100
AcDbLine
 10
126.5473000826
 20
153.3032115127
 30
0.0
 11
126.8700443329
 21
153.3032115127
 31
0.0
  0
ARC
  5
10F
330
1F
100
AcDbEntity
  8
0
  6
Continuous
 62
     7
370
    25
100
AcDbCircle
 10
127.3451738415
 20
152.8280820042
 30
0.0
 40
0.928628335270473
100
AcDbArc
 50
120.7735697444
 51
149.2264302556
  0
LINE
  5
110
330
1F
100
AcDbEntity
  8
0
  6
Continuous
 62
     7
370
    25
100
AcDbLine
 10
157.504419622
 20
122.346091042
 30
0.0
 11
157.504419622
 21
122.6688362237
 31
0.0
  0
ARC
  5
111
330
1F
100
AcDbEntity
  8
0
  6
Continuous
 62
     7
370
    25
100
AcDbCircle
 10
157.0292928295
 20
123.1439630161
 30
0.0
 40
0.9286254120883698
100
AcDbArc
 50
300.7734821005
 51
329.2265178995
  0
LINE
  5
112
330
1F
100
AcDbEntity
  8
0
  6
Continuous
 62
     7
370
    25
100
AcDbLine
 10
126.8700443329
 20
122.346091042
 30
0.0
 11
157.504419622
 21
122.346091042
 31
0.0
  0
LINE
  5
113
330
1F
100
AcDbEntity
  8
0
  6
Continuous
 62
     7
370
    25
100
AcDbLine
 10
126.8700443329
 20
122.346091042
 30
0.0
 11
126.8700443329
 21
122.6688362237
 31
0.0
  0
LINE
  5
114
330
1F
100
AcDbEntity
  8
0
  6
Continuous
 62
     7
370
    25
100
AcDbLine
 10
126.5473000826
 20
122.6688362237
 30
0.0
 11
126.8700443329
 21
122.6688362237
 31
0.0
  0
ARC
  5
115
330
1F
100
AcDbEntity
  8
0
  6
Continuous
 62
     7
370
    25
100
AcDbCircle
 10
127.3451736346
 20
123.143963223
 30
0.0
 40
0.9286268736889419
100
AcDbArc
 50
210.7734432554
 51
239.2263914101
  0
LINE
  5
116
330
1F
100
AcDbEntity
  8
0
  6
Continuous
 62
     7
370
    25
100
AcDbLine
 10
126.5473000826
 20
122.6688362237
 30
0.0
 11
126.5473000826
 21
153.3032115127
 31
0.0
  0
SPLINE
  5
117
330
1F
100
AcDbEntity
  8
0
  6
Continuous
 62
     7
370
    25
100
AcDbSpline
210
0.0
220
0.0
230
1.0
 70
     8
 71
     3
 72
    10
 73
     6
 74
     0
 42
0.000000001
 43
0.00000001
 40
0.0
 40
0.0
 40
0.0
 40
0.0
 40
0.5
 40
0.5
 40
1.0
 40
1.0
 40
1.0
 40
1.0
 10
175.2935567601361
 20
171.474587683896
 30
0.0
 10
175.3854643075995
 20
171.4545862316848
 30
0.0
 10
175.4723627496993
 20
171.4078702874222
 30
0.0
 10
175.6085369187602
 20
171.2719546593152
 30
0.0
 10
175.6557897431382
 20
171.1842814502508
 30
0.0
 10
175.6757969405103
 20
171.0923475035218
 30
0.0
  0
LWPOLYLINE
  5
118
330
1F
100
AcDbEntity
  8
0
  6
Continuous
 62
     7
370
    25
100
AcDbPolyline
 90
        7
 70
   128
 43
0.0
 10
157.8271648036
 20
153.3032115127
 10
161.0072616608
 20
156.4727071251
 10
164.1084279986
 20
159.5635357823
 10
167.1282135071
 20
162.5732555564
 10
170.0642377259
 20
165.4994934376
 10
172.9141816617
 20
168.3399378832
 10
175.675797102
 20
171.0923462685
  0
LWPOLYLINE
  5
119
330
1F
100
AcDbEntity
  8
0
  6
Continuous
 62
     7
370
    25
100
AcDbPolyline
 90
        7
 70
   128
 43
0.0
 10
175.2935562403
 20
171.4745871301
 10
172.5411478551
 20
168.7129735525
 10
169.7007034095
 20
165.8630296167
 10
166.7744655283
 20
162.9270035352
 10
163.7647457541
 20
159.9072180267
 10
160.6739161657
 20
156.806051689
 10
157.504419622
 20
153.625955763
  0
LWPOLYLINE
  5
11A
330
1F
100
AcDbEntity
  8
0
  6
Continuous
 62
     7
370
    25
100
AcDbPolyline
 90
        7
 70
   128
 43
0.0
 10
126.5473000826
 20
153.3032115127
 10
123.3672041567
 20
156.4727071251
 10
120.2660378189
 20
159.5635357823
 10
117.2462523104
 20
162.5732555564
 10
114.310226229
 20
165.4994934376
 10
111.4602822931
 20
168.3399378832
 10
108.6986687155
 20
171.0923462685
  0
SPLINE
  5
11B
330
1F
100
AcDbEntity
  8
0
  6
Continuous
 62
     7
370
    25
100
AcDbSpline
210
0.0
220
0.0
230
1.0
 70
     8
 71
     3
 72
    10
 73
     6
 74
     0
 42
0.000000001
 43
0.00000001
 40
0.0
 40
0.0
 40
0.0
 40
0.0
 40
0.5
 40
0.5
 40
1.0
 40
1.0
 40
1.0
 40
1.0
 10
109.0809083421083
 20
171.4745876838967
 30
0.0
 10
108.9890007946449
 20
171.4545862316855
 30
0.0
 10
108.9021023525451
 20
171.4078702874229
 30
0.0
 10
108.7659281834842
 20
171.2719546593159
 30
0.0
 10
108.7186753591062
 20
171.1842814502514
 30
0.0
 10
108.6986681617341
 20
171.0923475035225
 30
0.0
  0
LWPOLYLINE
  5
11C
330
1F
100
AcDbEntity
  8
0
  6
Continuous
 62
     7
370
    25
100
AcDbPolyline
 90
        7
 70
   128
 43
0.0
 10
109.0809095772
 20
171.4745871301
 10
111.8333179624
 20
168.7129735525
 10
114.673762408
 20
165.8630296167
 10
117.6000002892
 20
162.9270035352
 10
120.6097200634
 20
159.9072180267
 10
123.7005487205
 20
156.806051689
 10
126.8700443329
 20
153.625955763
  0
SPLINE
  5
11D
330
1F
100
AcDbEntity
  8
0
  6
Continuous
 62
     7
370
    25
100
AcDbSpline
210
0.0
220
0.0
230
1.0
 70
     8
 71
     3
 72
    10
 73
     6
 74
     0
 42
0.000000001
 43
0.00000001
 40
0.0
 40
0.0
 40
0.0
 40
0.0
 40
0.5
 40
0.5
 40
1.0
 40
1.0
 40
1.0
 40
1.0
 10
109.0809083421083
 20
104.4974589051216
 30
0.0
 10
108.9890007946449
 20
104.5174603573328
 30
0.0
 10
108.9021023525451
 20
104.5641763015954
 30
0.0
 10
108.7659281834842
 20
104.7000919297024
 30
0.0
 10
108.7186753591062
 20
104.7877651387668
 30
0.0
 10
108.6986681617341
 20
104.8796990854958
 30
0.0
  0
LWPOLYLINE
  5
11E
330
1F
100
AcDbEntity
  8
0
  6
Continuous
 62
     7
370
    25
100
AcDbPolyline
 90
        7
 70
   128
 43
0.0
 10
126.5473000826
 20
122.6688362237
 10
123.3672041567
 20
119.49933968
 10
120.2660378189
 20
116.4085100915
 10
117.2462523104
 20
113.3987903174
 10
114.310226229
 20
110.4725524362
 10
111.4602822931
 20
107.6321079906
 10
108.6986687155
 20
104.8796996053
  0
LWPOLYLINE
  5
11F
330
1F
100
AcDbEntity
  8
0
  6
Continuous
 62
     7
370
    25
100
AcDbPolyline
 90
        7
 70
   128
 43
0.0
 10
109.0809095772
 20
104.4974587436
 10
111.8333179624
 20
107.2590741839
 10
114.673762408
 20
110.1090181198
 10
117.6000002892
 20
113.0450423386
 10
120.6097200634
 20
116.0648278471
 10
123.7005487205
 20
119.1659941848
 10
126.8700443329
 20
122.346091042
  0
LWPOLYLINE
  5
120
330
1F
100
AcDbEntity
  8
0
  6
Continuous
 62
     7
370
    25
100
AcDbPolyline
 90
        7
 70
   128
 43
0.0
 10
157.8271648036
 20
122.6688362237
 10
161.0072616608
 20
119.49933968
 10
164.1084279986
 20
116.4085100915
 10
167.1282135071
 20
113.3987903174
 10
170.0642377259
 20
110.4725524362
 10
172.9141816617
 20
107.6321079906
 10
175.675797102
 20
104.8796996053
  0
SPLINE
  5
121
330
1F
100
AcDbEntity
  8
0
  6
Continuous
 62
     7
370
    25
100
AcDbSpline
210
0.0
220
0.0
230
1.0
 70
     8
 71
     3
 72
    10
 73
     6
 74
     0
 42
0.000000001
 43
0.00000001
 40
0.0
 40
0.0
 40
0.0
 40
0.0
 40
0.5
 40
0.5
 40
1.0
 40
1.0
 40
1.0
 40
1.0
 10
175.2935567601354
 20
104.4974589051216
 30
0.0
 10
175.3854643075987
 20
104.5174603573328
 30
0.0
 10
175.4723627496986
 20
104.5641763015954
 30
0.0
 10
175.6085369187594
 20
104.7000919297024
 30
0.0
 10
175.6557897431375
 20
104.7877651387668
 30
0.0
 10
175.6757969405095
 20
104.8796990854958
 30
0.0
  0
LWPOLYLINE
  5
122
330
1F
100
AcDbEntity
  8
0
  6
Continuous
 62
     7
370
    25
100
AcDbPolyline
 90
        7
 70
   128
 43
0.0
 10
175.2935562403
 20
104.4974587436
 10
172.5411478551
 20
107.2590741839
 10
169.7007034095
 20
110.1090181198
 10
166.7744655283
 20
113.0450423386
 10
163.7647457541
 20
116.0648278471
 10
160.6739161657
 20
119.1659941848
 10
157.504419622
 20
122.346091042
  0
SPLINE
  5
123
330
1F
100
AcDbEntity
  8
0
  6
Continuous
 62
     7
370
    25
100
AcDbSpline
210
0.0
220
0.0
230
1.0
 70
     8
 71
     3
 72
    24
 73
    20
 74
     0
 42
0.000000001
 43
0.00000001
 40
0.0
 40
0.0
 40
0.0
 40
0.0
 40
0.0305523449173406
 40
0.0616690670146199
 40
0.0933880963253171
 40
0.1257452448237434
 40
0.1874496984188317
 40
0.2505961498210955
 40
0.3124830817491504
 40
0.3749932822721594
 40
0.5001324705160894
 40
0.6247622082985634
 40
0.687925190573398
 40
0.7492556774145661
 40
0.8134657117103978
 40
0.8747235035253988
 40
0.918420248982606
 40
0.9601055698395057
 40
1.0
 40
1.0
 40
1.0
 40
1.0
 10
171.2156663061739
 20
113.5562357400724
 30
0.0
 10
171.1673197877041
 20
113.5977778258371
 30
0.0
 10
171.0697336713029
 20
113.6816293821703
 30
0.0
 10
170.9257182719056
 20
113.8184164289188
 30
0.0
 10
170.7818099613869
 20
113.9645685884776
 30
0.0
 10
170.5958988690084
 20
114.1669680308349
 30
0.0
 10
170.3710191294502
 20
114.4352583911898
 30
0.0
 10
170.1160299076787
 20
114.7755816395512
 30
0.0
 10
169.8720570143223
 20
115.1366277435614
 30
0.0
 10
169.5640748837295
 20
115.6405613258353
 30
0.0
 10
169.2105393130575
 20
116.3122890781247
 30
0.0
 10
168.9039729413082
 20
117.0340965212321
 30
0.0
 10
168.6938539756726
 20
117.6351702886805
 30
0.0
 10
168.5539681174388
 20
118.1035727734999
 30
0.0
 10
168.4371661870713
 20
118.5795513147175
 30
0.0
 10
168.3545707805537
 20
119.0211116973166
 30
0.0
 10
168.3033287360359
 20
119.4102079596019
 30
0.0
 10
168.2742826550746
 20
119.7462503378098
 30
0.0
 10
168.270518274618
 20
119.96647299768
 30
0.0
 10
168.2686774034294
 20
120.0741670935112
 30
0.0
  0
LINE
  5
124
330
1F
100
AcDbEntity
  8
0
  6
Continuous
 62
     7
370
    25
100
AcDbLine
 10
173.0302561195
 20
112.0346299883
 30
0.0
 11
171.2156672151
 21
113.5562359865
 31
0.0
  0
SPLINE
  5
125
330
1F
100
AcDbEntity
  8
0
  6
Continuous
 62
     7
370
    25
100
AcDbSpline
210
0.0
220
0.0
230
1.0
 70
     8
 71
     3
 72
    22
 73
    18
 74
     0
 42
0.000000001
 43
0.00000001
 40
0.0
 40
0.0
 40
0.0
 40
0.0
 40
0.0326343567224383
 40
0.0644200039519329
 40
0.0954752216370537
 40
0.1259268023121201
 40
0.1896824122394123
 40
0.2515356725596815
 40
0.3139507483525238
 40
0.3766669667285906
 40
0.5008192220774491
 40
0.6259805863775908
 40
0.6871675782746265
 40
0.7512934486395052
 40
0.8302842570374492
 40
0.9130089782502316
 40
1.0
 40
1.0
 40
1.0
 40
1.0
 10
175.6644063134003
 20
113.0634350507159
 30
0.0
 10
175.6561012068589
 20
113.0112846925854
 30
0.0
 10
175.6397069815715
 20
112.9083402311567
 30
0.0
 10
175.6081390784084
 20
112.7588992928005
 30
0.0
 10
175.5718156095617
 20
112.6159696605657
 30
0.0
 10
175.5149329271117
 20
112.4294935015617
 30
0.0
 10
175.4282628345946
 20
112.2092230710217
 30
0.0
 10
175.2975556728648
 20
111.9730743243646
 30
0.0
 10
175.1435766248874
 20
111.7750563622981
 30
0.0
 10
174.9114417672478
 20
111.5699553601711
 30
0.0
 10
174.5837907170949
 20
111.4295967213037
 30
0.0
 10
174.2462735855533
 20
111.427374709358
 30
0.0
 10
173.9779650123643
 20
111.4859575435417
 30
0.0
 10
173.7620698608861
 20
111.5625312835089
 30
0.0
 10
173.5285550950506
 20
111.6781191668926
 30
0.0
 10
173.2781030236259
 20
111.8359413967617
 30
0.0
 10
173.1142443934037
 20
111.9672995481524
 30
0.0
 10
173.0302555458358
 20
112.0346296591084
 30
0.0
  0
SPLINE
  5
126
330
1F
100
AcDbEntity
  8
0
  6
Continuous
 62
     7
370
    25
100
AcDbSpline
210
0.0
220
0.0
230
1.0
 70
     8
 71
     3
 72
    13
 73
     9
 74
     0
 42
0.000000001
 43
0.00000001
 40
0.0
 40
0.0
 40
0.0
 40
0.0
 40
0.265298387123601
 40
0.5005688849651027
 40
0.6976349709712597
 40
0.8434158331250684
 40
0.9407640625873791
 40
1.0
 40
1.0
 40
1.0
 40
1.0
 10
175.6872325511216
 20
112.8536105044623
 30
0.0
 10
175.6871212489891
 20
112.8728999581458
 30
0.0
 10
175.6869112424942
 20
112.9092955820567
 30
0.0
 10
175.6848169418338
 20
112.9597956247993
 30
0.0
 10
175.6819173091727
 20
113.0019029207797
 30
0.0
 10
175.6774373133528
 20
113.0324885574919
 30
0.0
 10
175.6732131302893
 20
113.0549531161042
 30
0.0
 10
175.6668235120007
 20
113.061107022243
 30
0.0
 10
175.6644063134003
 20
113.0634350507159
 30
0.0
  0
LINE
  5
127
330
1F
100
AcDbEntity
  8
0
  6
Continuous
 62
     7
370
    25
100
AcDbLine
 10
175.6872318806
 20
112.853610846
 30
0.0
 11
175.6872318806
 21
104.9860231157
 31
0.0
  0
SPLINE
  5
128
330
1F
100
AcDbEntity
  8
0
  6
Continuous
 62
     7
370
    25
100
AcDbSpline
210
0.0
220
0.0
230
1.0
 70
     8
 71
     3
 72
     8
 73
     4
 74
     0
 42
0.000000001
 43
0.00000001
 40
0.0
 40
0.0
 40
0.0
 40
0.0
 40
1.0
 40
1.0
 40
1.0
 40
1.0
 10
175.6757969405095
 20
104.8796990854958
 30
0.0
 10
175.6833018948294
 20
104.9141846787461
 30
0.0
 10
175.6872325511218
 20
104.9495951980155
 30
0.0
 10
175.6872325511218
 20
104.9860232945091
 30
0.0
  0
SPLINE
  5
129
330
1F
100
AcDbEntity
  8
0
  6
Continuous
 62
     7
370
    25
100
AcDbSpline
210
0.0
220
0.0
230
1.0
 70
     8
 71
     3
 72
     8
 73
     4
 74
     0
 42
0.000000001
 43
0.00000001
 40
0.0
 40
0.0
 40
0.0
 40
0.0
 40
1.0
 40
1.0
 40
1.0
 40
1.0
 10
175.6757969405102
 20
171.0923475035218
 30
0.0
 10
175.6833018948301
 20
171.0578619102714
 30
0.0
 10
175.6872325511226
 20
171.0224513910021
 30
0.0
 10
175.6872325511226
 20
170.9860232945084
 30
0.0
  0
LINE
  5
12A
330
1F
100
AcDbEntity
  8
0
  6
Continuous
 62
     7
370
    25
100
AcDbLine
 10
175.6872318806
 20
163.1184368904
 30
0.0
 11
175.6872318806
 21
170.9860227581
 31
0.0
  0
SPLINE
  5
12B
330
1F
100
AcDbEntity
  8
0
  6
Continuous
 62
     7
370
    25
100
AcDbSpline
210
0.0
220
0.0
230
1.0
 70
     8
 71
     3
 72
    13
 73
     9
 74
     0
 42
0.000000001
 43
0.00000001
 40
0.0
 40
0.0
 40
0.0
 40
0.0
 40
0.2506352054002721
 40
0.5012764220560523
 40
0.6995327300390592
 40
0.8460732997131818
 40
0.9433161842909098
 40
1.0
 40
1.0
 40
1.0
 40
1.0
 10
175.6872325511224
 20
163.1184360845553
 30
0.0
 10
175.6871283326397
 20
163.1002399453725
 30
0.0
 10
175.6869198931748
 20
163.0638472305892
 30
0.0
 10
175.6849194556252
 20
163.0132697090786
 30
0.0
 10
175.6818330039381
 20
162.9699884115017
 30
0.0
 10
175.6771084795061
 20
162.9393735235618
 30
0.0
 10
175.6728592964181
 20
162.9171939850535
 30
0.0
 10
175.6666813533214
 20
162.9109214221539
 30
0.0
 10
175.6644063134011
 20
162.9086115383017
 30
0.0
  0
SPLINE
  5
12C
330
1F
100
AcDbEntity
  8
0
  6
Continuous
 62
     7
370
    25
100
AcDbSpline
210
0.0
220
0.0
230
1.0
 70
     8
 71
     3
 72
    22
 73
    18
 74
     0
 42
0.000000001
 43
0.00000001
 40
0.0
 40
0.0
 40
0.0
 40
0.0
 40
0.1250000000000004
 40
0.1250000000000004
 40
0.1875000000000007
 40
0.1875000000000007
 40
0.2500000000000009
 40
0.2500000000000009
 40
0.3125000000000011
 40
0.3125000000000011
 40
0.3750000000000013
 40
0.3750000000000013
 40
0.5000000000000006
 40
0.5000000000000006
 40
0.7500000000000002
 40
0.7500000000000002
 40
1.0
 40
1.0
 40
1.0
 40
1.0
 10
175.664406313401
 20
162.9086115383016
 30
0.0
 10
175.6347293842572
 20
163.1086595992997
 30
0.0
 10
175.5906509654242
 20
163.306566921787
 30
0.0
 10
175.4991488023834
 20
163.5823740577863
 30
0.0
 10
175.46457361856
 20
163.6705691212948
 30
0.0
 10
175.3862341844609
 20
163.8385500310363
 30
0.0
 10
175.3422106065992
 20
163.9184840076478
 30
0.0
 10
175.2475165619589
 20
164.0632711484493
 30
0.0
 10
175.1965251140607
 20
164.1289415299795
 30
0.0
 10
175.0871063111233
 20
164.2466369598377
 30
0.0
 10
175.0279527810158
 20
164.2991055942865
 30
0.0
 10
174.845472766924
 20
164.4307605722644
 30
0.0
 10
174.7171890654156
 20
164.4858097982544
 30
0.0
 10
174.3158976945023
 20
164.5717139424795
 30
0.0
 10
174.0395053094294
 20
164.5198332679944
 30
0.0
 10
173.5181196518126
 20
164.3027838417287
 30
0.0
 10
173.2700707924354
 20
164.138511662291
 30
0.0
 10
173.0302555458367
 20
163.9374169299093
 30
0.0
  0
LINE
  5
12D
330
1F
100
AcDbEntity
  8
0
  6
Continuous
 62
     7
370
    25
100
AcDbLine
 10
173.0302561195
 20
163.9374177482
 30
0.0
 11
171.2156672151
 21
162.4158117499
 31
0.0
  0
SPLINE
  5
12E
330
1F
100
AcDbEntity
  8
0
  6
Continuous
 62
     7
370
    25
100
AcDbSpline
210
0.0
220
0.0
230
1.0
 70
     8
 71
     3
 72
    20
 73
    16
 74
     0
 42
0.000000001
 43
0.00000001
 40
0.0
 40
0.0
 40
0.0
 40
0.0
 40
0.1249999999999997
 40
0.1249999999999997
 40
0.2499999999999992
 40
0.2499999999999992
 40
0.3749999999999988
 40
0.3749999999999988
 40
0.4999999999999983
 40
0.4999999999999983
 40
0.749999999999999
 40
0.749999999999999
 40
0.8749999999999996
 40
0.8749999999999996
 40
1.0
 40
1.0
 40
1.0
 40
1.0
 10
171.2156663061748
 20
162.4158108489452
 30
0.0
 10
171.0152127057141
 20
162.2477224404253
 30
0.0
 10
170.823354541966
 20
162.0574719284596
 30
0.0
 10
170.4559905006172
 20
161.6446647342295
 30
0.0
 10
170.2819627650865
 20
161.4237687328233
 30
0.0
 10
169.9503772198246
 20
160.9574582483908
 30
0.0
 10
169.7928530648838
 20
160.7119928384239
 30
0.0
 10
169.4937024037717
 20
160.197693944782
 30
0.0
 10
169.35146669603
 20
159.9275246443968
 30
0.0
 10
168.9550172453539
 20
159.0903850350474
 30
0.0
 10
168.7305789937973
 20
158.5017674510718
 30
0.0
 10
168.4739332331883
 20
157.559053701586
 30
0.0
 10
168.4019330309512
 20
157.232718875103
 30
0.0
 10
168.2999214292293
 20
156.5739684363699
 30
0.0
 10
168.2686774034302
 20
156.2397456228857
 30
0.0
 10
168.2686774034302
 20
155.8978794955064
 30
0.0
  0
LINE
  5
12F
330
1F
100
AcDbEntity
  8
0
  6
Continuous
 62
     7
370
    25
100
AcDbLine
 10
168.2686776043
 20
155.8978799309
 30
0.0
 11
168.2686776043
 21
120.0741668742
 31
0.0
  0
SPLINE
  5
130
330
1F
100
AcDbEntity
  8
0
  6
Continuous
 62
     7
370
    25
100
AcDbSpline
210
0.0
220
0.0
230
1.0
 70
     8
 71
     3
 72
     8
 73
     4
 74
     0
 42
0.000000001
 43
0.00000001
 40
0.0
 40
0.0
 40
0.0
 40
0.0
 40
1.0
 40
1.0
 40
1.0
 40
1.0
 10
108.6986681617342
 20
171.0923475035225
 30
0.0
 10
108.6911632074143
 20
171.0578619102722
 30
0.0
 10
108.6872325511218
 20
171.0224513910028
 30
0.0
 10
108.6872325511218
 20
170.9860232945091
 30
0.0
  0
SPLINE
  5
131
330
1F
100
AcDbEntity
  8
0
  6
Continuous
 62
     7
370
    25
100
AcDbSpline
210
0.0
220
0.0
230
1.0
 70
     8
 71
     3
 72
     8
 73
     4
 74
     0
 42
0.000000001
 43
0.00000001
 40
0.0
 40
0.0
 40
0.0
 40
0.0
 40
1.0
 40
1.0
 40
1.0
 40
1.0
 10
108.6986681617342
 20
104.8796990854958
 30
0.0
 10
108.6911632074143
 20
104.9141846787461
 30
0.0
 10
108.6872325511218
 20
104.9495951980155
 30
0.0
 10
108.6872325511218
 20
104.9860232945092
 30
0.0
  0
LINE
  5
132
330
1F
100
AcDbEntity
  8
0
  6
Continuous
 62
     7
370
    25
100
AcDbLine
 10
108.6872320743
 20
104.9860231157
 30
0.0
 11
108.6872320743
 21
170.9860227581
 31
0.0
  0
SPLINE
  5
133
330
1F
100
AcDbEntity
  8
0
  6
Continuous
 62
     7
370
    25
100
AcDbSpline
210
0.0
220
0.0
230
1.0
 70
     8
 71
     3
 72
     8
 73
     4
 74
     0
 42
0.000000001
 43
0.00000001
 40
0.0
 40
0.0
 40
0.0
 40
0.0
 40
1.0
 40
1.0
 40
1.0
 40
1.0
 10
175.1872325511226
 20
171.4860232945084
 30
0.0
 10
175.2236606476163
 20
171.4860232945084
 30
0.0
 10
175.2590711668857
 20
171.4820926382159
 30
0.0
 10
175.2935567601361
 20
171.474587683896
 30
0.0
  0
SPLINE
  5
134
330
1F
100
AcDbEntity
  8
0
  6
Continuous
 62
     7
370
    25
100
AcDbSpline
210
0.0
220
0.0
230
1.0
 70
     8
 71
     3
 72
     8
 73
     4
 74
     0
 42
0.000000001
 43
0.00000001
 40
0.0
 40
0.0
 40
0.0
 40
0.0
 40
1.0
 40
1.0
 40
1.0
 40
1.0
 10
109.1872325511218
 20
171.4860232945091
 30
0.0
 10
109.1508044546281
 20
171.4860232945091
 30
0.0
 10
109.1153939353586
 20
171.4820926382166
 30
0.0
 10
109.0809083421083
 20
171.4745876838967
 30
0.0
  0
LINE
  5
135
330
1F
100
AcDbEntity
  8
0
  6
Continuous
 62
     7
370
    25
100
AcDbLine
 10
109.1872330876
 20
171.4860237713
 30
0.0
 11
175.1872327299
 21
171.4860237713
 31
0.0
  0
SPLINE
  5
136
330
1F
100
AcDbEntity
  8
0
  6
Continuous
 62
     7
370
    25
100
AcDbSpline
210
0.0
220
0.0
230
1.0
 70
     8
 71
     3
 72
     8
 73
     4
 74
     0
 42
0.000000001
 43
0.00000001
 40
0.0
 40
0.0
 40
0.0
 40
0.0
 40
1.0
 40
1.0
 40
1.0
 40
1.0
 10
109.1872325511218
 20
104.4860232945092
 30
0.0
 10
109.1508044546281
 20
104.4860232945092
 30
0.0
 10
109.1153939353587
 20
104.4899539508017
 30
0.0
 10
109.0809083421083
 20
104.4974589051216
 30
0.0
  0
SPLINE
  5
137
330
1F
100
AcDbEntity
  8
0
  6
Continuous
 62
     7
370
    25
100
AcDbSpline
210
0.0
220
0.0
230
1.0
 70
     8
 71
     3
 72
     8
 73
     4
 74
     0
 42
0.000000001
 43
0.00000001
 40
0.0
 40
0.0
 40
0.0
 40
0.0
 40
1.0
 40
1.0
 40
1.0
 40
1.0
 10
175.1872325511218
 20
104.4860232945091
 30
0.0
 10
175.2236606476156
 20
104.4860232945091
 30
0.0
 10
175.259071166885
 20
104.4899539508016
 30
0.0
 10
175.2935567601354
 20
104.4974589051216
 30
0.0
  0
LINE
  5
138
330
1F
100
AcDbEntity
  8
0
  6
Continuous
 62
     7
370
    25
100
AcDbLine
 10
175.1872327299
 20
104.4860239651
 30
0.0
 11
109.1872330876
 21
104.4860239651
 31
0.0
  0
LINE
  5
139
330
1F
100
AcDbEntity
  8
0
  6
Continuous
 62
     7
370
    25
100
AcDbLine
 10
170.7365650804
 20
161.8869825776
 30
0.0
 11
171.206471336
 21
162.3392067428
 31
0.0
  0
ARC
  5
13A
330
1F
100
AcDbEntity
  8
0
  6
Continuous
 62
     7
370
    25
100
AcDbCircle
 10
171.1564831375
 20
162.3840619189
 30
0.0
 40
0.0671625402842978
100
AcDbArc
 50
318.0978851322
 51
28.2117338179
  0
SPLINE
  5
13B
330
1F
100
AcDbEntity
  8
0
  6
Continuous
 62
     7
370
    25
100
AcDbSpline
210
0.0
220
0.0
230
1.0
 70
     8
 71
     3
 72
    10
 73
     6
 74
     0
 42
0.000000001
 43
0.00000001
 40
0.0
 40
0.0
 40
0.0
 40
0.0
 40
0.1574899362329556
 40
0.6763963410564838
 40
1.0
 40
1.0
 40
1.0
 40
1.0
 10
169.7365574659349
 20
115.4291163708574
 30
0.0
 10
169.8016430435528
 20
115.3157310243576
 30
0.0
 10
170.0811761210896
 20
114.8287574733084
 30
0.0
 10
170.5766487662283
 20
114.2156216378349
 30
0.0
 10
171.0316917376917
 20
113.7945661711272
 30
0.0
 10
171.2064713360311
 20
113.6328409935839
 30
0.0
  0
ARC
  5
13C
330
1F
100
AcDbEntity
  8
0
  6
Continuous
 62
     7
370
    25
100
AcDbCircle
 10
171.1564831375
 20
113.5879858175
 30
0.0
 40
0.0671625402843045
100
AcDbArc
 50
331.7882661821
 51
41.9021148678
  0
ARC
  5
13D
330
1F
100
AcDbEntity
  8
0
  6
Continuous
 62
     7
370
    25
100
AcDbCircle
 10
172.9699454194
 20
163.9066014471
 30
0.0
 40
0.0677275790528823
100
AcDbArc
 50
317.4625632918
 51
27.0651741881
  0
LINE
  5
13E
330
1F
100
AcDbEntity
  8
0
  6
Continuous
 62
     7
370
    25
100
AcDbLine
 10
171.206471336
 20
162.3392067428
 30
0.0
 11
173.0198495211
 21
163.8608127411
 31
0.0
  0
LINE
  5
13F
330
1F
100
AcDbEntity
  8
0
  6
Continuous
 62
     7
370
    25
100
AcDbLine
 10
171.206471336
 20
113.6328409936
 30
0.0
 11
173.0198495211
 21
112.1112349953
 31
0.0
  0
ARC
  5
140
330
1F
100
AcDbEntity
  8
0
  6
Continuous
 62
     7
370
    25
100
AcDbCircle
 10
172.9699432939
 20
112.0654460006
 30
0.0
 40
0.0677293404238886
100
AcDbArc
 50
332.9358614574
 51
42.5364010627
  0
SPLINE
  5
141
330
1F
100
AcDbEntity
  8
0
  6
Continuous
 62
     7
370
    25
100
AcDbSpline
210
0.0
220
0.0
230
1.0
 70
     8
 71
     3
 72
    20
 73
    16
 74
     0
 42
0.000000001
 43
0.00000001
 40
0.0
 40
0.0
 40
0.0
 40
0.0
 40
0.2499999999999997
 40
0.2499999999999997
 40
0.4999999999999994
 40
0.4999999999999994
 40
0.6249999999999994
 40
0.6249999999999994
 40
0.7499999999999993
 40
0.7499999999999993
 40
0.8124999999999993
 40
0.8124999999999993
 40
0.8749999999999992
 40
0.8749999999999992
 40
1.0
 40
1.0
 40
1.0
 40
1.0
 10
173.0198499649937
 20
163.8608124855974
 30
0.0
 10
173.2565930678752
 20
164.059463535909
 30
0.0
 10
173.5011376273741
 20
164.2233988931437
 30
0.0
 10
174.0143929417287
 20
164.4452136237531
 30
0.0
 10
174.2857698295591
 20
164.5028389809783
 30
0.0
 10
174.6819955246822
 20
164.4289732334455
 30
0.0
 10
174.8095482540071
 20
164.3779940626251
 30
0.0
 10
175.0508482421986
 20
164.2091942371443
 30
0.0
 10
175.158938419201
 20
164.0942816165689
 30
0.0
 10
175.2966596014518
 20
163.8833175757702
 30
0.0
 10
175.3391548144971
 20
163.8054444351657
 30
0.0
 10
175.4143078066652
 20
163.6415788690944
 30
0.0
 10
175.447198544366
 20
163.5555095158468
 30
0.0
 10
175.5335009803411
 20
163.2863469721524
 30
0.0
 10
175.5739579428516
 20
163.0931203815742
 30
0.0
 10
175.6001725727917
 20
162.8981169079761
 30
0.0
  0
SPLINE
  5
142
330
1F
100
AcDbEntity
  8
0
  6
Continuous
 62
     7
370
    25
100
AcDbSpline
210
0.0
220
0.0
230
1.0
 70
     8
 71
     3
 72
    14
 73
    10
 74
     0
 42
0.000000001
 43
0.00000001
 40
0.0000000000000003
 40
0.0000000000000003
 40
0.0000000000000003
 40
0.0000000000000003
 40
0.0000336933717916
 40
0.0000336933717916
 40
0.0000336933717916
 40
0.0000698607890144
 40
0.0000698607890144
 40
0.0000698607890144
 40
0.000075066027809
 40
0.000075066027809
 40
0.000075066027809
 40
0.000075066027809
 10
175.664406313401
 20
162.9086115383016
 30
0.0
 10
175.6572738910589
 20
162.9066728273853
 30
0.0
 10
175.6485492451022
 20
162.9048032065444
 30
0.0
 10
175.6389588630145
 20
162.9031566344473
 30
0.0
 10
175.6286858215647
 20
162.9013928566073
 30
0.0
 10
175.6171013968691
 20
162.8998319975289
 30
0.0
 10
175.6053008650003
 20
162.8986207950863
 30
0.0
 10
175.6035989626601
 20
162.8984461124284
 30
0.0
 10
175.6018883893301
 20
162.8982779989191
 30
0.0
 10
175.6001725726661
 20
162.8981169079554
 30
0.0
  0
LWPOLYLINE
  5
143
330
1F
100
AcDbEntity
  8
0
  6
Continuous
 62
     7
370
    25
100
AcDbPolyline
 90
        4
 70
   128
 43
0.0
 10
175.6001718463
 20
162.8981176342
 10
175.5958914877
 20
162.6337393697
 10
175.5915720136
 20
162.36692104
 10
175.5872320504
 20
162.0988808151
  0
SPLINE
  5
144
330
1F
100
AcDbEntity
  8
0
  6
Continuous
 62
     7
370
    25
100
AcDbSpline
210
0.0
220
0.0
230
1.0
 70
     8
 71
     3
 72
    20
 73
    16
 74
     0
 42
0.000000001
 43
0.00000001
 40
0.0
 40
0.0
 40
0.0
 40
0.0
 40
0.2499999999999994
 40
0.2499999999999994
 40
0.4999999999999989
 40
0.4999999999999989
 40
0.6249999999999994
 40
0.6249999999999994
 40
0.7500000000000001
 40
0.7500000000000001
 40
0.8125000000000004
 40
0.8125000000000004
 40
0.8750000000000007
 40
0.8750000000000007
 40
1.0
 40
1.0
 40
1.0
 40
1.0
 10
173.0198499649931
 20
112.1112341034202
 30
0.0
 10
173.2565930678746
 20
111.9125830531086
 30
0.0
 10
173.5011376273735
 20
111.7486476958739
 30
0.0
 10
174.0143929417281
 20
111.5268329652645
 30
0.0
 10
174.2857698295585
 20
111.4692076080393
 30
0.0
 10
174.6819955246816
 20
111.543073355572
 30
0.0
 10
174.8095482540065
 20
111.5940525263925
 30
0.0
 10
175.050848242198
 20
111.7628523518733
 30
0.0
 10
175.1589384192004
 20
111.8777649724486
 30
0.0
 10
175.2966596014512
 20
112.0887290132474
 30
0.0
 10
175.3391548144965
 20
112.1666021538518
 30
0.0
 10
175.4143078066646
 20
112.3304677199232
 30
0.0
 10
175.4471985443654
 20
112.4165370731707
 30
0.0
 10
175.5335009803405
 20
112.6856996168652
 30
0.0
 10
175.5739579428511
 20
112.8789262074433
 30
0.0
 10
175.6001725727911
 20
113.0739296810414
 30
0.0
  0
SPLINE
  5
145
330
1F
100
AcDbEntity
  8
0
  6
Continuous
 62
     7
370
    25
100
AcDbSpline
210
0.0
220
0.0
230
1.0
 70
     8
 71
     3
 72
    14
 73
    10
 74
     0
 42
0.000000001
 43
0.00000001
 40
0.0000000000000003
 40
0.0000000000000003
 40
0.0000000000000003
 40
0.0000000000000003
 40
0.0000336933717916
 40
0.0000336933717916
 40
0.0000336933717916
 40
0.0000698607890144
 40
0.0000698607890144
 40
0.0000698607890144
 40
0.000075066027809
 40
0.000075066027809
 40
0.000075066027809
 40
0.000075066027809
 10
175.6644063134005
 20
113.0634350507159
 30
0.0
 10
175.6572738910583
 20
113.0653737616324
 30
0.0
 10
175.6485492451017
 20
113.0672433824731
 30
0.0
 10
175.638958863014
 20
113.0688899545702
 30
0.0
 10
175.6286858215641
 20
113.0706537324103
 30
0.0
 10
175.6171013968686
 20
113.0722145914886
 30
0.0
 10
175.6053008649998
 20
113.0734257939313
 30
0.0
 10
175.6035989626595
 20
113.0736004765892
 30
0.0
 10
175.6018883893296
 20
113.0737685900984
 30
0.0
 10
175.6001725726655
 20
113.0739296810621
 30
0.0
  0
LWPOLYLINE
  5
146
330
1F
100
AcDbEntity
  8
0
  6
Continuous
 62
     7
370
    25
100
AcDbPolyline
 90
        4
 70
   128
 43
0.0
 10
175.6001718463
 20
113.0739301022
 10
175.5958914877
 20
113.3383065041
 10
175.5915720136
 20
113.6051248338
 10
175.5872320504
 20
113.8731669213
  0
LINE
  5
147
330
1F
100
AcDbEntity
  8
0
  6
Continuous
 62
     7
370
    25
100
AcDbLine
 10
175.6872318806
 20
162.0988808151
 30
0.0
 11
175.6872318806
 21
163.1184368904
 31
0.0
  0
LINE
  5
148
330
1F
100
AcDbEntity
  8
0
  6
Continuous
 62
     7
370
    25
100
AcDbLine
 10
175.6872318806
 20
162.0988808151
 30
0.0
 11
175.5872320504
 21
162.0988808151
 31
0.0
  0
LINE
  5
149
330
1F
100
AcDbEntity
  8
0
  6
Continuous
 62
     7
370
    25
100
AcDbLine
 10
175.6872318806
 20
113.8731669213
 30
0.0
 11
175.6872318806
 21
112.853610846
 31
0.0
  0
LINE
  5
14A
330
1F
100
AcDbEntity
  8
0
  6
Continuous
 62
     7
370
    25
100
AcDbLine
 10
175.6872318806
 20
113.8731669213
 30
0.0
 11
175.5872320504
 21
113.8731669213
 31
0.0
  0
LINE
  5
14B
330
1F
100
AcDbEntity
  8
0
  6
Continuous
 62
     7
370
    25
100
AcDbLine
 10
175.5872320504
 20
162.0988808151
 30
0.0
 11
175.5872320504
 21
113.8731669213
 31
0.0
  0
LINE
  5
14C
330
1F
100
AcDbEntity
  8
0
  6
Continuous
 62
     7
370
    25
100
AcDbLine
 10
175.6872318806
 20
113.8731669213
 30
0.0
 11
175.6872318806
 21
162.0988808151
 31
0.0
  0
LINE
  5
14D
330
1F
100
AcDbEntity
  8
0
  6
Continuous
 62
     8
370
    25
100
AcDbLine
 10
168.2971667619
 20
155.8978799309
 30
0.0
 11
168.2686776043
 21
155.8978799309
 31
0.0
  0
LINE
  5
14E
330
1F
100
AcDbEntity
  8
0
  6
Continuous
 62
     8
370
    25
100
AcDbLine
 10
168.2971593113
 20
120.0741668742
 30
0.0
 11
168.2686776043
 21
120.0741668742
 31
0.0
  0
LINE
  5
14F
330
1F
100
AcDbEntity
  8
0
  6
Continuous
 62
     8
370
    25
100
AcDbLine
 10
168.2970587285
 20
155.9816989626
 30
0.0
 11
175.5872320504
 21
162.0988808151
 31
0.0
  0
LINE
  5
150
330
1F
100
AcDbEntity
  8
0
  6
Continuous
 62
     8
370
    25
100
AcDbLine
 10
168.2974796863
 20
119.9899948712
 30
0.0
 11
175.5872320504
 21
113.8731669213
 31
0.0
  0
SPLINE
  5
151
330
1F
100
AcDbEntity
  8
0
  6
Continuous
 62
     7
370
    25
100
AcDbSpline
210
0.0
220
0.0
230
1.0
 70
     8
 71
     3
 72
     9
 73
     5
 74
     0
 42
0.000000001
 43
0.00000001
 40
0.0
 40
0.0
 40
0.0
 40
0.0
 40
0.3587988231996496
 40
1.0
 40
1.0
 40
1.0
 40
1.0
 10
246.836886222844
 20
119.5470321353085
 30
0.0
 10
246.8298149758565
 20
119.609576293968
 30
0.0
 10
246.8101068649868
 20
119.7838916891573
 30
0.0
 10
246.8112486686811
 20
119.9607475121792
 30
0.0
 10
246.8119807945536
 20
120.0741476740248
 30
0.0
  0
SPLINE
  5
152
330
1F
100
AcDbEntity
  8
0
  6
Continuous
 62
     7
370
    25
100
AcDbSpline
210
0.0
220
0.0
230
1.0
 70
     8
 71
     3
 72
    15
 73
    11
 74
     0
 42
0.000000001
 43
0.00000001
 40
0.0
 40
0.0
 40
0.0
 40
0.0
 40
0.0572675967478937
 40
0.2207836078147334
 40
0.3888811022572652
 40
0.5346234312676298
 40
0.6891608458842571
 40
0.8233112479953593
 40
0.9381361719175735
 40
1.0
 40
1.0
 40
1.0
 40
1.0
 10
248.2726987855481
 20
115.4083761747486
 30
0.0
 10
248.2311758347927
 20
115.4744212766977
 30
0.0
 10
248.0710925172537
 20
115.7290447761089
 30
0.0
 10
247.819428325432
 20
116.2175612788164
 30
0.0
 10
247.5334227667387
 20
116.8397933498648
 30
0.0
 10
247.289400955461
 20
117.4836001552901
 30
0.0
 10
247.0976120184621
 20
118.1061289862834
 30
0.0
 10
246.9567219339303
 20
118.7046305514509
 30
0.0
 10
246.8692908153779
 20
119.1762332242774
 30
0.0
 10
246.8452897041263
 20
119.4508728731583
 30
0.0
 10
246.836886222844
 20
119.5470321353085
 30
0.0
  0
SPLINE
  5
153
330
1F
100
AcDbEntity
  8
0
  6
Continuous
 62
     7
370
    25
100
AcDbSpline
210
0.0
220
0.0
230
1.0
 70
     8
 71
     3
 72
    13
 73
     9
 74
     0
 42
0.000000001
 43
0.00000001
 40
0.0
 40
0.0
 40
0.0
 40
0.0
 40
0.1579840493734371
 40
0.3322621302365023
 40
0.5209683865567872
 40
0.7236150827526735
 40
0.9371969238137106
 40
1.0
 40
1.0
 40
1.0
 40
1.0
 10
194.4834463702487
 20
118.9120601292259
 30
0.0
 10
194.4480482109255
 20
118.7322139618151
 30
0.0
 10
194.3736010254671
 20
118.3539727980027
 30
0.0
 10
194.2121075476695
 20
117.7824530175537
 30
0.0
 10
194.0071515475358
 20
117.1819127449147
 30
0.0
 10
193.7518558775491
 20
116.5690492684671
 30
0.0
 10
193.5318062116789
 20
116.0993998849746
 30
0.0
 10
193.3875958276387
 20
115.8490197712814
 30
0.0
 10
193.3548268334912
 20
115.7921257789738
 30
0.0
  0
SPLINE
  5
154
330
1F
100
AcDbEntity
  8
0
  6
Continuous
 62
     7
370
    25
100
AcDbSpline
210
0.0
220
0.0
230
1.0
 70
     8
 71
     3
 72
    11
 73
     7
 74
     0
 42
0.000000001
 43
0.00000001
 40
0.0
 40
0.0
 40
0.0
 40
0.0
 40
0.1603915529566972
 40
0.5533840665443154
 40
0.9913393798848619
 40
1.0
 40
1.0
 40
1.0
 40
1.0
 10
194.5891738342093
 20
120.0741402234442
 30
0.0
 10
194.5901411037938
 20
120.0112559265876
 30
0.0
 10
194.5934783841321
 20
119.7942920823279
 30
0.0
 10
194.5571187402984
 20
119.4082914324419
 30
0.0
 10
194.5194168553956
 20
119.0827564290529
 30
0.0
 10
194.4841306284315
 20
118.9153072452838
 30
0.0
 10
194.4834463702487
 20
118.9120601292259
 30
0.0
  0
SPLINE
  5
155
330
1F
100
AcDbEntity
  8
0
  6
Continuous
 62
     7
370
    25
100
AcDbSpline
210
0.0
220
0.0
230
1.0
 70
     8
 71
     3
 72
    14
 73
    10
 74
     0
 42
0.000000001
 43
0.00000001
 40
0.0
 40
0.0
 40
0.0
 40
0.0
 40
0.0092485117022766
 40
0.1522979202795549
 40
0.314813102723096
 40
0.4892084589764792
 40
0.6713446263742422
 40
0.8617881450947142
 40
1.0
 40
1.0
 40
1.0
 40
1.0
 10
246.9182558761881
 20
157.0391658123142
 30
0.0
 10
246.9200196274392
 20
157.0509932968362
 30
0.0
 10
246.9490638300158
 20
157.2457599093274
 30
0.0
 10
247.0428033528768
 20
157.6363555212253
 30
0.0
 10
247.2016418113416
 20
158.2207258937197
 30
0.0
 10
247.4135235308579
 20
158.8281235704923
 30
0.0
 10
247.6700163492965
 20
159.4399673637032
 30
0.0
 10
247.9344935204563
 20
159.9883558051151
 30
0.0
 10
248.1262387435369
 20
160.3151075990563
 30
0.0
 10
248.2068747686194
 20
160.4525189276344
 30
0.0
  0
SPLINE
  5
156
330
1F
100
AcDbEntity
  8
0
  6
Continuous
 62
     7
370
    25
100
AcDbSpline
210
0.0
220
0.0
230
1.0
 70
     8
 71
     3
 72
    10
 73
     6
 74
     0
 42
0.000000001
 43
0.00000001
 40
0.0
 40
0.0
 40
0.0
 40
0.0
 40
0.1951159157614601
 40
0.5937393793855252
 40
1.0
 40
1.0
 40
1.0
 40
1.0
 10
246.8136553125428
 20
155.8978821511871
 30
0.0
 10
246.8126648155385
 20
155.9730272609321
 30
0.0
 10
246.8096507247896
 20
156.2016944644747
 30
0.0
 10
246.8440325873364
 20
156.5854111959014
 30
0.0
 10
246.893358769119
 20
156.8869605214585
 30
0.0
 10
246.9182558761881
 20
157.0391658123142
 30
0.0
  0
SPLINE
  5
157
330
1F
100
AcDbEntity
  8
0
  6
Continuous
 62
     7
370
    25
100
AcDbSpline
210
0.0
220
0.0
230
1.0
 70
     8
 71
     3
 72
     9
 73
     5
 74
     0
 42
0.000000001
 43
0.00000001
 40
0.0
 40
0.0
 40
0.0
 40
0.0
 40
0.1225353424195161
 40
1.0
 40
1.0
 40
1.0
 40
1.0
 10
194.5911724524544
 20
156.0380983527309
 30
0.0
 10
194.5915586370873
 20
156.0323931519712
 30
0.0
 10
194.5947102554301
 20
155.9858335174438
 30
0.0
 10
194.5922802454753
 20
155.9390095265322
 30
0.0
 10
194.5901479976224
 20
155.8979231293804
 30
0.0
  0
SPLINE
  5
158
330
1F
100
AcDbEntity
  8
0
  6
Continuous
 62
     7
370
    25
100
AcDbSpline
210
0.0
220
0.0
230
1.0
 70
     8
 71
     3
 72
    15
 73
    11
 74
     0
 42
0.000000001
 43
0.00000001
 40
0.0
 40
0.0
 40
0.0
 40
0.0
 40
0.0852692076821554
 40
0.2424401172008242
 40
0.4020637207068398
 40
0.5540352353398783
 40
0.6835194546140665
 40
0.8000401888717631
 40
0.906900848994613
 40
0.9999999999999999
 40
0.9999999999999999
 40
0.9999999999999999
 40
0.9999999999999999
 10
193.2001285659121
 20
160.4509487177736
 30
0.0
 10
193.2632915642142
 20
160.3451133295139
 30
0.0
 10
193.4428786053907
 20
160.044198795051
 30
0.0
 10
193.7075910431938
 20
159.5041781930802
 30
0.0
 10
193.9875437015773
 20
158.8474811399463
 30
0.0
 10
194.2119510495423
 20
158.1970406416384
 30
0.0
 10
194.379420017523
 20
157.5875763387549
 30
0.0
 10
194.4948189270577
 20
157.0308633983452
 30
0.0
 10
194.5679259681587
 20
156.5194853518101
 30
0.0
 10
194.5837874950519
 20
156.1910256701316
 30
0.0
 10
194.5911724524544
 20
156.0380983527309
 30
0.0
  0
LINE
  5
159
330
1F
100
AcDbEntity
  8
0
  6
Continuous
 62
     7
370
    25
100
AcDbLine
 10
194.5933442967
 20
155.8978802885
 30
0.0
 11
194.5933442967
 21
120.0741663005
 31
0.0
  0
LINE
  5
15A
330
1F
100
AcDbEntity
  8
0
  6
Continuous
 62
     7
370
    25
100
AcDbLine
 10
246.8132157283
 20
120.0741663005
 30
0.0
 11
246.8132157283
 21
155.8978802885
 31
0.0
  0
LINE
  5
15B
330
1F
100
AcDbEntity
  8
0
  6
Continuous
 62
     7
370
    25
100
AcDbLine
 10
236.020467657
 20
122.3460904683
 30
0.0
 11
236.020467657
 21
122.66883565
 31
0.0
  0
LINE
  5
15C
330
1F
100
AcDbEntity
  8
0
  6
Continuous
 62
     7
370
    25
100
AcDbLine
 10
236.3432128387
 20
122.66883565
 30
0.0
 11
236.020467657
 21
122.66883565
 31
0.0
  0
ARC
  5
15D
330
1F
100
AcDbEntity
  8
0
  6
Continuous
 62
     7
370
    25
100
AcDbCircle
 10
235.5453153695
 20
123.1439879375
 30
0.0
 40
0.9286603618020854
100
AcDbArc
 50
300.7740287899
 51
329.2259712101
  0
LINE
  5
15E
330
1F
100
AcDbEntity
  8
0
  6
Continuous
 62
     7
370
    25
100
AcDbLine
 10
236.020467657
 20
153.3032109391
 30
0.0
 11
236.020467657
 21
153.6259561207
 31
0.0
  0
LINE
  5
15F
330
1F
100
AcDbEntity
  8
0
  6
Continuous
 62
     7
370
    25
100
AcDbLine
 10
236.020467657
 20
153.3032109391
 30
0.0
 11
205.386092368
 21
153.3032109391
 31
0.0
  0
LINE
  5
160
330
1F
100
AcDbEntity
  8
0
  6
Continuous
 62
     7
370
    25
100
AcDbLine
 10
205.386092368
 20
153.6259561207
 30
0.0
 11
205.386092368
 21
153.3032109391
 31
0.0
  0
LINE
  5
161
330
1F
100
AcDbEntity
  8
0
  6
Continuous
 62
     7
370
    25
100
AcDbLine
 10
205.386092368
 20
153.6259561207
 30
0.0
 11
236.020467657
 21
153.6259561207
 31
0.0
  0
LINE
  5
162
330
1F
100
AcDbEntity
  8
0
  6
Continuous
 62
     7
370
    25
100
AcDbLine
 10
236.020467657
 20
122.3460904683
 30
0.0
 11
205.386092368
 21
122.3460904683
 31
0.0
  0
LINE
  5
163
330
1F
100
AcDbEntity
  8
0
  6
Continuous
 62
     7
370
    25
100
AcDbLine
 10
205.386092368
 20
122.66883565
 30
0.0
 11
205.386092368
 21
122.3460904683
 31
0.0
  0
LINE
  5
164
330
1F
100
AcDbEntity
  8
0
  6
Continuous
 62
     7
370
    25
100
AcDbLine
 10
205.386092368
 20
122.66883565
 30
0.0
 11
236.020467657
 21
122.66883565
 31
0.0
  0
LINE
  5
165
330
1F
100
AcDbEntity
  8
0
  6
Continuous
 62
     7
370
    25
100
AcDbLine
 10
205.386092368
 20
122.66883565
 30
0.0
 11
205.0633471863
 21
122.66883565
 31
0.0
  0
ARC
  5
166
330
1F
100
AcDbEntity
  8
0
  6
Continuous
 62
     7
370
    25
100
AcDbCircle
 10
205.8612446555
 20
123.1439879375
 30
0.0
 40
0.9286603618020854
100
AcDbArc
 50
210.7740287899
 51
239.2259712101
  0
LINE
  5
167
330
1F
100
AcDbEntity
  8
0
  6
Continuous
 62
     7
370
    25
100
AcDbLine
 10
205.0633471863
 20
122.66883565
 30
0.0
 11
205.0633471863
 21
153.3032109391
 31
0.0
  0
LINE
  5
168
330
1F
100
AcDbEntity
  8
0
  6
Continuous
 62
     7
370
    25
100
AcDbLine
 10
205.0633471863
 20
153.3032109391
 30
0.0
 11
205.386092368
 21
153.3032109391
 31
0.0
  0
LINE
  5
169
330
1F
100
AcDbEntity
  8
0
  6
Continuous
 62
     7
370
    25
100
AcDbLine
 10
205.386092368
 20
153.3032109391
 30
0.0
 11
205.386092368
 21
122.66883565
 31
0.0
  0
ARC
  5
16A
330
1F
100
AcDbEntity
  8
0
  6
Continuous
 62
     7
370
    25
100
AcDbCircle
 10
235.5453153695
 20
152.8280586515
 30
0.0
 40
0.9286603618020977
100
AcDbArc
 50
30.7740287899
 51
59.2259712101
  0
LINE
  5
16B
330
1F
100
AcDbEntity
  8
0
  6
Continuous
 62
     7
370
    25
100
AcDbLine
 10
236.020467657
 20
153.3032109391
 30
0.0
 11
236.3432128387
 21
153.3032109391
 31
0.0
  0
LINE
  5
16C
330
1F
100
AcDbEntity
  8
0
  6
Continuous
 62
     7
370
    25
100
AcDbLine
 10
236.020467657
 20
122.66883565
 30
0.0
 11
236.020467657
 21
153.3032109391
 31
0.0
  0
LINE
  5
16D
330
1F
100
AcDbEntity
  8
0
  6
Continuous
 62
     7
370
    25
100
AcDbLine
 10
236.3432128387
 20
153.3032109391
 30
0.0
 11
236.3432128387
 21
122.66883565
 31
0.0
  0
ARC
  5
16E
330
1F
100
AcDbEntity
  8
0
  6
Continuous
 62
     7
370
    25
100
AcDbCircle
 10
205.8612446555
 20
152.8280586515
 30
0.0
 40
0.9286603618020977
100
AcDbArc
 50
120.7740287899
 51
149.2259712101
  0
LWPOLYLINE
  5
16F
330
1F
100
AcDbEntity
  8
0
  6
Continuous
 62
     7
370
    25
100
AcDbPolyline
 90
        7
 70
   128
 43
0.0
 10
236.3432128387
 20
122.66883565
 10
239.5233087646
 20
119.4993391063
 10
242.6244751023
 20
116.4085104491
 10
245.6442606108
 20
113.398790675
 10
248.5802848296
 20
110.4725527938
 10
251.4302287655
 20
107.6321083482
 10
254.1918442057
 20
104.8796999629
  0
SPLINE
  5
170
330
1F
100
AcDbEntity
  8
0
  6
Continuous
 62
     7
370
    25
100
AcDbSpline
210
0.0
220
0.0
230
1.0
 70
     8
 71
     3
 72
    10
 73
     6
 74
     0
 42
0.000000001
 43
0.00000001
 40
0.0
 40
0.0
 40
0.0
 40
0.0
 40
0.5
 40
0.5
 40
1.0
 40
1.0
 40
1.0
 40
1.0
 10
253.8096042215066
 20
104.4974589051216
 30
0.0
 10
253.9015117689699
 20
104.5174603573328
 30
0.0
 10
253.9884102110698
 20
104.5641763015954
 30
0.0
 10
254.1245843801306
 20
104.7000919297024
 30
0.0
 10
254.1718372045086
 20
104.7877651387668
 30
0.0
 10
254.1918444018807
 20
104.8796990854958
 30
0.0
  0
LWPOLYLINE
  5
171
330
1F
100
AcDbEntity
  8
0
  6
Continuous
 62
     7
370
    25
100
AcDbPolyline
 90
        7
 70
   128
 43
0.0
 10
253.8096033441
 20
104.4974591013
 10
251.0571949588
 20
107.2590745415
 10
248.2167505132
 20
110.1090184774
 10
245.290512632
 20
113.0450426962
 10
242.2807928579
 20
116.0648282047
 10
239.1899642007
 20
119.1659945424
 10
236.020467657
 20
122.3460904683
  0
LWPOLYLINE
  5
172
330
1F
100
AcDbEntity
  8
0
  6
Continuous
 62
     7
370
    25
100
AcDbPolyline
 90
        7
 70
   128
 43
0.0
 10
205.386092368
 20
122.3460904683
 10
202.2165958242
 20
119.1659945424
 10
199.1257671671
 20
116.0648282047
 10
196.116047393
 20
113.0450426962
 10
193.1898095118
 20
110.1090184774
 10
190.3493650662
 20
107.2590745415
 10
187.5969566809
 20
104.4974591013
  0
SPLINE
  5
173
330
1F
100
AcDbEntity
  8
0
  6
Continuous
 62
     7
370
    25
100
AcDbSpline
210
0.0
220
0.0
230
1.0
 70
     8
 71
     3
 72
    10
 73
     6
 74
     0
 42
0.000000001
 43
0.00000001
 40
0.0
 40
0.0
 40
0.0
 40
0.0
 40
0.5
 40
0.5
 40
1.0
 40
1.0
 40
1.0
 40
1.0
 10
187.2147156231054
 20
104.8796990854958
 30
0.0
 10
187.2347169537514
 20
104.7877920966295
 30
0.0
 10
187.2814220654186
 20
104.7008965683556
 30
0.0
 10
187.4173985144734
 20
104.564676469949
 30
0.0
 10
187.5050262242874
 20
104.5174651520049
 30
0.0
 10
187.5969558034794
 20
104.4974589051214
 30
0.0
  0
LWPOLYLINE
  5
174
330
1F
100
AcDbEntity
  8
0
  6
Continuous
 62
     7
370
    25
100
AcDbPolyline
 90
        7
 70
   128
 43
0.0
 10
187.2147158192
 20
104.8796999629
 10
189.9763312595
 20
107.6321083482
 10
192.8262751954
 20
110.4725527938
 10
195.7622994142
 20
113.398790675
 10
198.7820849227
 20
116.4085104491
 10
201.8832512604
 20
119.4993391063
 10
205.0633471863
 20
122.66883565
  0
LWPOLYLINE
  5
175
330
1F
100
AcDbEntity
  8
0
  6
Continuous
 62
     7
370
    25
100
AcDbPolyline
 90
        7
 70
   128
 43
0.0
 10
236.020467657
 20
153.6259561207
 10
239.1899642007
 20
156.8060520466
 10
242.2807928579
 20
159.9072183843
 10
245.290512632
 20
162.9270038928
 10
248.2167505132
 20
165.8630281116
 10
251.0571949588
 20
168.7129720475
 10
253.8096033441
 20
171.4745874878
  0
SPLINE
  5
176
330
1F
100
AcDbEntity
  8
0
  6
Continuous
 62
     7
370
    25
100
AcDbSpline
210
0.0
220
0.0
230
1.0
 70
     8
 71
     3
 72
    10
 73
     6
 74
     0
 42
0.000000001
 43
0.00000001
 40
0.0
 40
0.0
 40
0.0
 40
0.0
 40
0.5
 40
0.5
 40
1.0
 40
1.0
 40
1.0
 40
1.0
 10
254.1918444018806
 20
171.0923475035226
 30
0.0
 10
254.1718430712346
 20
171.1842544923889
 30
0.0
 10
254.1251379595674
 20
171.2711500206628
 30
0.0
 10
253.9891615105125
 20
171.4073701190693
 30
0.0
 10
253.9015338006985
 20
171.4545814370134
 30
0.0
 10
253.8096042215065
 20
171.4745876838968
 30
0.0
  0
LWPOLYLINE
  5
177
330
1F
100
AcDbEntity
  8
0
  6
Continuous
 62
     7
370
    25
100
AcDbPolyline
 90
        7
 70
   128
 43
0.0
 10
254.1918442057
 20
171.0923466261
 10
251.4302287655
 20
168.3399382408
 10
248.5802848296
 20
165.4994937952
 10
245.6442606108
 20
162.573255914
 10
242.6244751023
 20
159.5635361399
 10
239.5233087646
 20
156.4727074828
 10
236.3432128387
 20
153.3032109391
  0
LWPOLYLINE
  5
178
330
1F
100
AcDbEntity
  8
0
  6
Continuous
 62
     7
370
    25
100
AcDbPolyline
 90
        7
 70
   128
 43
0.0
 10
205.0633471863
 20
153.3032109391
 10
201.8832512604
 20
156.4727074828
 10
198.7820849227
 20
159.5635361399
 10
195.7622994142
 20
162.573255914
 10
192.8262751954
 20
165.4994937952
 10
189.9763312595
 20
168.3399382408
 10
187.2147158192
 20
171.0923466261
  0
SPLINE
  5
179
330
1F
100
AcDbEntity
  8
0
  6
Continuous
 62
     7
370
    25
100
AcDbSpline
210
0.0
220
0.0
230
1.0
 70
     8
 71
     3
 72
    10
 73
     6
 74
     0
 42
0.000000001
 43
0.00000001
 40
0.0
 40
0.0
 40
0.0
 40
0.0
 40
0.5
 40
0.5
 40
1.0
 40
1.0
 40
1.0
 40
1.0
 10
187.5969558034796
 20
171.4745876838967
 30
0.0
 10
187.5050482560162
 20
171.4545862316856
 30
0.0
 10
187.4181498139164
 20
171.407870287423
 30
0.0
 10
187.2819756448555
 20
171.271954659316
 30
0.0
 10
187.2347228204774
 20
171.1842814502516
 30
0.0
 10
187.2147156231054
 20
171.0923475035226
 30
0.0
  0
LWPOLYLINE
  5
17A
330
1F
100
AcDbEntity
  8
0
  6
Continuous
 62
     7
370
    25
100
AcDbPolyline
 90
        7
 70
   128
 43
0.0
 10
187.5969566809
 20
171.4745874878
 10
190.3493650662
 20
168.7129720475
 10
193.1898095118
 20
165.8630281116
 10
196.116047393
 20
162.9270038928
 10
199.1257671671
 20
159.9072183843
 10
202.2165958242
 20
156.8060520466
 10
205.386092368
 20
153.6259561207
  0
SPLINE
  5
17B
330
1F
100
AcDbEntity
  8
0
  6
Continuous
 62
     7
370
    25
100
AcDbSpline
210
0.0
220
0.0
230
1.0
 70
     8
 71
     3
 72
     8
 73
     4
 74
     0
 42
0.000000001
 43
0.00000001
 40
0.0
 40
0.0
 40
0.0
 40
0.0
 40
1.0
 40
1.0
 40
1.0
 40
1.0
 10
187.2032800124929
 20
104.9860232945091
 30
0.0
 10
187.2032800124929
 20
104.9495951980155
 30
0.0
 10
187.2072106687855
 20
104.9141846787461
 30
0.0
 10
187.2147156231054
 20
104.8796990854958
 30
0.0
  0
LINE
  5
17C
330
1F
100
AcDbEntity
  8
0
  6
Continuous
 62
     7
370
    25
100
AcDbLine
 10
187.203279178
 20
104.9860234733
 30
0.0
 11
187.203279178
 21
112.8536112036
 31
0.0
  0
SPLINE
  5
17D
330
1F
100
AcDbEntity
  8
0
  6
Continuous
 62
     7
370
    25
100
AcDbSpline
210
0.0
220
0.0
230
1.0
 70
     8
 71
     3
 72
    15
 73
    11
 74
     0
 42
0.000000001
 43
0.00000001
 40
0.0
 40
0.0
 40
0.0
 40
0.0
 40
0.036762352458555
 40
0.0872533196189297
 40
0.1571990543021767
 40
0.248745079148784
 40
0.3628246319141088
 40
0.4999115199895375
 40
0.7330397163010023
 40
1.0
 40
1.0
 40
1.0
 40
1.0
 10
187.2261062502142
 20
113.0634350507159
 30
0.0
 10
187.2244948505407
 20
113.0623314892381
 30
0.0
 10
187.2206702865141
 20
113.0597122498287
 30
0.0
 10
187.2169009396131
 20
113.0492193433707
 30
0.0
 10
187.2134239295452
 20
113.0349559820745
 30
0.0
 10
187.2104737763044
 20
113.0153141187722
 30
0.0
 10
187.2079278881723
 20
112.9907253141023
 30
0.0
 10
187.2054725878881
 20
112.9556825575749
 30
0.0
 10
187.2036055857599
 20
112.9094083859133
 30
0.0
 10
187.2033933235833
 20
112.8730301541204
 30
0.0
 10
187.203280012493
 20
112.8536105044623
 30
0.0
  0
SPLINE
  5
17E
330
1F
100
AcDbEntity
  8
0
  6
Continuous
 62
     7
370
    25
100
AcDbSpline
210
0.0
220
0.0
230
1.0
 70
     8
 71
     3
 72
    22
 73
    18
 74
     0
 42
0.000000001
 43
0.00000001
 40
0.0
 40
0.0
 40
0.0
 40
0.0
 40
0.0527343484868073
 40
0.1038668435663874
 40
0.1535026056867944
 40
0.2017565381166936
 40
0.2487536805202252
 40
0.3128605023131364
 40
0.374068862024904
 40
0.4992325520268861
 40
0.6233871143267026
 40
0.6860793656444593
 40
0.748520582127451
 40
0.8103400482608945
 40
0.8741316908232074
 40
0.9355849085182659
 40
1.0
 40
1.0
 40
1.0
 40
1.0
 10
189.8602570177787
 20
112.0346296591084
 30
0.0
 10
189.8095486569195
 20
111.9932505001708
 30
0.0
 10
189.7096722474064
 20
111.9117491115768
 30
0.0
 10
189.5581779972499
 20
111.8036137668433
 30
0.0
 10
189.4084627575801
 20
111.7084698356901
 30
0.0
 10
189.2602386793077
 20
111.6271199640946
 30
0.0
 10
189.0946522067469
 20
111.5505896493104
 30
0.0
 10
188.9125696024851
 20
111.4859533956188
 30
0.0
 10
188.6442607186492
 20
111.4273805817431
 30
0.0
 10
188.3067215703236
 20
111.4295957006006
 30
0.0
 10
187.979098256023
 20
111.5699411449161
 30
0.0
 10
187.7469565970492
 20
111.7750379285042
 30
0.0
 10
187.5930198428132
 20
111.9730052720908
 30
0.0
 10
187.4622058044808
 20
112.2091729358402
 30
0.0
 10
187.3586399381448
 20
112.4732177537629
 30
0.0
 10
187.277612764774
 20
112.7602738706564
 30
0.0
 10
187.2435423315319
 20
112.9608083629456
 30
0.0
 10
187.2261062502143
 20
113.0634350507159
 30
0.0
  0
LINE
  5
17F
330
1F
100
AcDbEntity
  8
0
  6
Continuous
 62
     7
370
    25
100
AcDbLine
 10
191.6748457061
 20
113.5562363442
 30
0.0
 11
189.8602568017
 21
112.0346303459
 31
0.0
  0
SPLINE
  5
180
330
1F
100
AcDbEntity
  8
0
  6
Continuous
 62
     7
370
    25
100
AcDbSpline
210
0.0
220
0.0
230
1.0
 70
     8
 71
     3
 72
    24
 73
    20
 74
     0
 42
0.000000001
 43
0.00000001
 40
0.0
 40
0.0
 40
0.0
 40
0.0
 40
0.0237288424149298
 40
0.0480730863754363
 40
0.0730843026006462
 40
0.0988100510153499
 40
0.1252940423549311
 40
0.1865202429867616
 40
0.2507620352432931
 40
0.3120678470444597
 40
0.3752556260112864
 40
0.4998854819419678
 40
0.6250247888170386
 40
0.687516557210909
 40
0.749422038649174
 40
0.8125532216034885
 40
0.8742730703008937
 40
0.9383348596778128
 40
1.0
 40
1.0
 40
1.0
 40
1.0
 10
194.6218351601853
 20
120.0741670935112
 30
0.0
 10
194.6211844187001
 20
120.0101196030893
 30
0.0
 10
194.6198660589132
 20
119.8803635667287
 30
0.0
 10
194.6094983320428
 20
119.6835631260871
 30
0.0
 10
194.5930485779411
 20
119.4822518190609
 30
0.0
 10
194.5698720491024
 20
119.2764270873237
 30
0.0
 10
194.5274797042271
 20
118.9762852303953
 30
0.0
 10
194.453395880882
 20
118.5796236924723
 30
0.0
 10
194.3365751472379
 20
118.1037169991136
 30
0.0
 10
194.196680988041
 20
117.6352299777077
 30
0.0
 10
193.9865622860369
 20
117.0341542437164
 30
0.0
 10
193.6799742485842
 20
116.3122874147278
 30
0.0
 10
193.3264571840829
 20
115.6406054486717
 30
0.0
 10
193.0184813569097
 20
115.1366568331087
 30
0.0
 10
192.7745188116645
 20
114.7756736618972
 30
0.0
 10
192.5195490620552
 20
114.4351763394379
 30
0.0
 10
192.2491614550462
 20
114.1132836725077
 30
0.0
 10
191.9696906113331
 20
113.8158887478681
 30
0.0
 10
191.7718707390738
 20
113.6416797994661
 30
0.0
 10
191.6748462574407
 20
113.5562357400724
 30
0.0
  0
LINE
  5
181
330
1F
100
AcDbEntity
  8
0
  6
Continuous
 62
     7
370
    25
100
AcDbLine
 10
194.6218353169
 20
155.8978802885
 30
0.0
 11
194.6218353169
 21
120.0741663005
 31
0.0
  0
SPLINE
  5
182
330
1F
100
AcDbEntity
  8
0
  6
Continuous
 62
     7
370
    25
100
AcDbSpline
210
0.0
220
0.0
230
1.0
 70
     8
 71
     3
 72
    24
 73
    20
 74
     0
 42
0.000000001
 43
0.00000001
 40
0.0
 40
0.0
 40
0.0
 40
0.0
 40
0.0303835255135286
 40
0.0613259245837797
 40
0.0928645264566265
 40
0.1250345849931637
 40
0.1865468279213954
 40
0.2494983325349737
 40
0.3118073832868026
 40
0.3747523593719382
 40
0.4993410167102753
 40
0.6239237186542359
 40
0.6875215039017974
 40
0.7492645188064982
 40
0.8131118966876973
 40
0.8740431362832003
 40
0.9179864335998353
 40
0.9598974882690133
 40
1.0
 40
1.0
 40
1.0
 40
1.0
 10
191.674846257441
 20
162.4158108489464
 30
0.0
 10
191.7229271206955
 20
162.3745024621211
 30
0.0
 10
191.8199732450026
 20
162.2911258633786
 30
0.0
 10
191.9632065645632
 20
162.1551689745104
 30
0.0
 10
192.1063379926216
 20
162.0099451148894
 30
0.0
 10
192.291501752871
 20
161.8086156683131
 30
0.0
 10
192.5156896667393
 20
161.5415537193696
 30
0.0
 10
192.7709197940728
 20
161.2014943568518
 30
0.0
 10
193.0159307446551
 20
160.8394339904784
 30
0.0
 10
193.3244155535841
 20
160.3350421529814
 30
0.0
 10
193.6779437041188
 20
159.6638863881224
 30
0.0
 10
193.9846833445255
 20
158.9427571753994
 30
0.0
 10
194.1957217069691
 20
158.3399262639103
 30
0.0
 10
194.3360360577367
 20
157.8703575022757
 30
0.0
 10
194.4527225524519
 20
157.3951189274023
 30
0.0
 10
194.535303601755
 20
156.9547993729748
 30
0.0
 10
194.5868273576567
 20
156.5653770658157
 30
0.0
 10
194.6161715534841
 20
156.2275298504228
 30
0.0
 10
194.6199752506823
 20
156.0061355697886
 30
0.0
 10
194.6218351601852
 20
155.8978794955071
 30
0.0
  0
LINE
  5
183
330
1F
100
AcDbEntity
  8
0
  6
Continuous
 62
     7
370
    25
100
AcDbLine
 10
189.8602568017
 20
163.9374162431
 30
0.0
 11
191.6748457061
 21
162.4158102449
 31
0.0
  0
SPLINE
  5
184
330
1F
100
AcDbEntity
  8
0
  6
Continuous
 62
     7
370
    25
100
AcDbSpline
210
0.0
220
0.0
230
1.0
 70
     8
 71
     3
 72
    22
 73
    18
 74
     0
 42
0.000000001
 43
0.00000001
 40
0.0
 40
0.0
 40
0.0
 40
0.0
 40
0.0326342423501301
 40
0.0644198515840844
 40
0.0954751069709099
 40
0.1259267994028872
 40
0.1896821720779608
 40
0.2515356702746905
 40
0.3139505759530535
 40
0.3766669654493145
 40
0.5008192207776507
 40
0.6259805850571016
 40
0.687167439121644
 40
0.7512934473608021
 40
0.8302841856656454
 40
0.9130089068647274
 40
1.0
 40
1.0
 40
1.0
 40
1.0
 10
187.2261062502143
 20
162.9086115383026
 30
0.0
 10
187.2344113311166
 20
162.9607617123133
 30
0.0
 10
187.2508055244728
 20
163.0637059275892
 30
0.0
 10
187.2823734061049
 20
163.2131466790464
 30
0.0
 10
187.3186969187096
 20
163.356076477794
 30
0.0
 10
187.3755794213731
 20
163.5425526098278
 30
0.0
 10
187.4622495731847
 20
163.7628232051231
 30
0.0
 10
187.5929565835409
 20
163.9989717868487
 30
0.0
 10
187.7469357660564
 20
164.196990103392
 30
0.0
 10
187.9790706276167
 20
164.4020911289882
 30
0.0
 10
188.3067218428095
 20
164.5424498773845
 30
0.0
 10
188.644238828346
 20
164.5446718726993
 30
0.0
 10
188.9125474049694
 20
164.4860890979406
 30
0.0
 10
189.1284424825567
 20
164.4095153842499
 30
0.0
 10
189.3619573415408
 20
164.2939275783794
 30
0.0
 10
189.6124094060688
 20
164.136105311111
 30
0.0
 10
189.7762681026142
 20
164.0047470989512
 30
0.0
 10
189.8602570177788
 20
163.9374169299101
 30
0.0
  0
SPLINE
  5
185
330
1F
100
AcDbEntity
  8
0
  6
Continuous
 62
     7
370
    25
100
AcDbSpline
210
0.0
220
0.0
230
1.0
 70
     8
 71
     3
 72
    13
 73
     9
 74
     0
 42
0.000000001
 43
0.00000001
 40
0.0
 40
0.0
 40
0.0
 40
0.0
 40
0.2648038026101354
 40
0.4997204466332431
 40
0.6971462180616296
 40
0.8431852199800698
 40
0.9406919395081288
 40
1.0
 40
1.0
 40
1.0
 40
1.0
 10
187.2032800124913
 20
163.1184360845535
 30
0.0
 10
187.2033909143646
 20
163.0991826291902
 30
0.0
 10
187.2036002011389
 20
163.0628487653313
 30
0.0
 10
187.20568872214
 20
163.0123837836821
 30
0.0
 10
187.2085826191586
 20
162.9702558325053
 30
0.0
 10
187.2130648513488
 20
162.9396147896898
 30
0.0
 10
187.2172890391144
 20
162.9171102825711
 30
0.0
 10
187.2236866462149
 20
162.9109437491784
 30
0.0
 10
187.2261062502144
 20
162.9086115383025
 30
0.0
  0
LINE
  5
186
330
1F
100
AcDbEntity
  8
0
  6
Continuous
 62
     7
370
    25
100
AcDbLine
 10
187.203279178
 20
163.1184353854
 30
0.0
 11
187.203279178
 21
170.9860231157
 31
0.0
  0
SPLINE
  5
187
330
1F
100
AcDbEntity
  8
0
  6
Continuous
 62
     7
370
    25
100
AcDbSpline
210
0.0
220
0.0
230
1.0
 70
     8
 71
     3
 72
     8
 73
     4
 74
     0
 42
0.000000001
 43
0.00000001
 40
0.0
 40
0.0
 40
0.0
 40
0.0
 40
1.0
 40
1.0
 40
1.0
 40
1.0
 10
187.2147156231055
 20
171.0923475035226
 30
0.0
 10
187.2072106687855
 20
171.0578619102723
 30
0.0
 10
187.203280012493
 20
171.0224513910028
 30
0.0
 10
187.203280012493
 20
170.9860232945091
 30
0.0
  0
SPLINE
  5
188
330
1F
100
AcDbEntity
  8
0
  6
Continuous
 62
     7
370
    25
100
AcDbSpline
210
0.0
220
0.0
230
1.0
 70
     8
 71
     3
 72
     8
 73
     4
 74
     0
 42
0.000000001
 43
0.00000001
 40
0.0
 40
0.0
 40
0.0
 40
0.0
 40
1.0
 40
1.0
 40
1.0
 40
1.0
 10
187.703280012493
 20
171.4860232945091
 30
0.0
 10
187.6668519159994
 20
171.4860232945091
 30
0.0
 10
187.6314413967299
 20
171.4820926382166
 30
0.0
 10
187.5969558034796
 20
171.4745876838967
 30
0.0
  0
LINE
  5
189
330
1F
100
AcDbEntity
  8
0
  6
Continuous
 62
     7
370
    25
100
AcDbLine
 10
187.7032801913
 20
171.486024129
 30
0.0
 11
253.7032798337
 21
171.486024129
 31
0.0
  0
SPLINE
  5
18A
330
1F
100
AcDbEntity
  8
0
  6
Continuous
 62
     7
370
    25
100
AcDbSpline
210
0.0
220
0.0
230
1.0
 70
     8
 71
     3
 72
     8
 73
     4
 74
     0
 42
0.000000001
 43
0.00000001
 40
0.0
 40
0.0
 40
0.0
 40
0.0
 40
1.0
 40
1.0
 40
1.0
 40
1.0
 10
253.8096042215064
 20
171.4745876838967
 30
0.0
 10
253.7751186282561
 20
171.4820926382167
 30
0.0
 10
253.7397081089867
 20
171.4860232945091
 30
0.0
 10
253.703280012493
 20
171.4860232945091
 30
0.0
  0
SPLINE
  5
18B
330
1F
100
AcDbEntity
  8
0
  6
Continuous
 62
     7
370
    25
100
AcDbSpline
210
0.0
220
0.0
230
1.0
 70
     8
 71
     3
 72
    15
 73
    11
 74
     0
 42
0.000000001
 43
0.00000001
 40
0.0
 40
0.0
 40
0.0
 40
0.0
 40
0.0368045401018995
 40
0.0873698824131347
 40
0.1574319117674978
 40
0.249138381085147
 40
0.3634231986047174
 40
0.5007604366704724
 40
0.7335394339299665
 40
1.0
 40
1.0
 40
1.0
 40
1.0
 10
254.1804537747717
 20
162.9086115383025
 30
0.0
 10
254.1820668799019
 20
162.9097169840994
 30
0.0
 10
254.1858962119667
 20
162.912341189402
 30
0.0
 10
254.1896678010808
 20
162.9228530797605
 30
0.0
 10
254.1931470645207
 20
162.9371417975197
 30
0.0
 10
254.1960981344345
 20
162.9568196739654
 30
0.0
 10
254.1986440754235
 20
162.9814537726996
 30
0.0
 10
254.2010942477663
 20
163.0165052521918
 30
0.0
 10
254.2029555412232
 20
163.0627362389132
 30
0.0
 10
254.203167097797
 20
163.0990527622456
 30
0.0
 10
254.2032800124948
 20
163.1184360845534
 30
0.0
  0
SPLINE
  5
18C
330
1F
100
AcDbEntity
  8
0
  6
Continuous
 62
     7
370
    25
100
AcDbSpline
210
0.0
220
0.0
230
1.0
 70
     8
 71
     3
 72
    22
 73
    18
 74
     0
 42
0.000000001
 43
0.00000001
 40
0.0
 40
0.0
 40
0.0
 40
0.0
 40
0.0527342971287938
 40
0.1038667666004303
 40
0.1535025287658296
 40
0.2017564866148177
 40
0.2487536793110795
 40
0.3128603633663015
 40
0.3740688608656998
 40
0.4992325509811115
 40
0.623387113393431
 40
0.6860791936354452
 40
0.7485205802713495
 40
0.810339808491194
 40
0.8741316884242976
 40
0.9355847563518959
 40
1.0
 40
1.0
 40
1.0
 40
1.0
 10
251.5463030072073
 20
163.9374169299101
 30
0.0
 10
251.5970113191435
 20
163.9787960472291
 30
0.0
 10
251.6968876555572
 20
164.0602973728315
 30
0.0
 10
251.848381833544
 20
164.168432651761
 30
0.0
 10
251.9980970735002
 20
164.2635765823881
 30
0.0
 10
252.1463212268945
 20
164.3449265030854
 30
0.0
 10
252.3119076175997
 20
164.4214568777108
 30
0.0
 10
252.4939902767458
 20
164.4860931383202
 30
0.0
 10
252.7622991564931
 20
164.5446660157985
 30
0.0
 10
253.099838450873
 20
164.5424508780262
 30
0.0
 10
253.4274616006774
 20
164.4021055445597
 30
0.0
 10
253.6596032544333
 20
164.1970087829187
 30
0.0
 10
253.8135398774501
 20
163.9990417969244
 30
0.0
 10
253.9443540548783
 20
163.7628739584108
 30
0.0
 10
254.0479198855599
 20
163.4988293959439
 30
0.0
 10
254.1289472915828
 20
163.2117730042399
 30
0.0
 10
254.1630176770482
 20
163.0112384819189
 30
0.0
 10
254.1804537747718
 20
162.9086115383025
 30
0.0
  0
LINE
  5
18D
330
1F
100
AcDbEntity
  8
0
  6
Continuous
 62
     7
370
    25
100
AcDbLine
 10
249.7317143189
 20
162.4158102449
 30
0.0
 11
251.5463032233
 21
163.9374162431
 31
0.0
  0
SPLINE
  5
18E
330
1F
100
AcDbEntity
  8
0
  6
Continuous
 62
     7
370
    25
100
AcDbSpline
210
0.0
220
0.0
230
1.0
 70
     8
 71
     3
 72
    24
 73
    20
 74
     0
 42
0.000000001
 43
0.00000001
 40
0.0
 40
0.0
 40
0.0
 40
0.0
 40
0.0238518352119299
 40
0.0483249092426047
 40
0.0734715522721432
 40
0.0993400070460057
 40
0.1259745943841734
 40
0.1868742802057964
 40
0.2507533098940851
 40
0.3124716218782315
 40
0.3760941643905266
 40
0.5006769170035321
 40
0.6252656250133437
 40
0.6881921244411625
 40
0.7505197022402536
 40
0.8134559812672376
 40
0.8749835089166723
 40
0.938677948224204
 40
1.0
 40
1.0
 40
1.0
 40
1.0
 10
246.7847248648009
 20
155.8978794955071
 30
0.0
 10
246.7853822860139
 20
155.9622590853191
 30
0.0
 10
246.786714251465
 20
156.0926950793255
 30
0.0
 10
246.7971878314929
 20
156.290534088423
 30
0.0
 10
246.8138050694334
 20
156.4929240566822
 30
0.0
 10
246.8372174889564
 20
156.6998675076209
 30
0.0
 10
246.8797858065604
 20
156.9998677774853
 30
0.0
 10
246.9537881943112
 20
157.3950466871131
 30
0.0
 10
247.0704933487313
 20
157.8702134667366
 30
0.0
 10
247.2108159165668
 20
158.3398665789735
 30
0.0
 10
247.4218539772181
 20
158.9426995038333
 30
0.0
 10
247.7286153338371
 20
159.663888040332
 30
0.0
 10
248.0821249396541
 20
160.3349980383369
 30
0.0
 10
248.3906034233025
 20
160.8394049591712
 30
0.0
 10
248.6356041674769
 20
161.201402412627
 30
0.0
 10
248.8908150499379
 20
161.5416351232777
 30
0.0
 10
249.1602778764572
 20
161.8619460821064
 30
0.0
 10
249.4385086674349
 20
162.1576696320124
 30
0.0
 10
249.6352230573893
 20
162.3308592934206
 30
0.0
 10
249.7317137675451
 20
162.4158108489464
 30
0.0
  0
LINE
  5
18F
330
1F
100
AcDbEntity
  8
0
  6
Continuous
 62
     7
370
    25
100
AcDbLine
 10
246.7847247081
 20
120.0741663005
 30
0.0
 11
246.7847247081
 21
155.8978802885
 31
0.0
  0
SPLINE
  5
190
330
1F
100
AcDbEntity
  8
0
  6
Continuous
 62
     7
370
    25
100
AcDbSpline
210
0.0
220
0.0
230
1.0
 70
     8
 71
     3
 72
    24
 73
    20
 74
     0
 42
0.000000001
 43
0.00000001
 40
0.0
 40
0.0
 40
0.0
 40
0.0
 40
0.0305523449033035
 40
0.0616690669959035
 40
0.0933880963112665
 40
0.1257452448236466
 40
0.1874496984101924
 40
0.2505961498211193
 40
0.3124830816875322
 40
0.3749932822719702
 40
0.5001324705159078
 40
0.6247622082984067
 40
0.6879251905134605
 40
0.7492556774144583
 40
0.8134657116977209
 40
0.8747235035254946
 40
0.918420248989412
 40
0.9601055698463182
 40
1.0
 40
1.0
 40
1.0
 40
1.0
 10
249.7317137675454
 20
113.5562357400724
 30
0.0
 10
249.6833672490981
 20
113.5977778258186
 30
0.0
 10
249.5857811327269
 20
113.6816293821275
 30
0.0
 10
249.4417657333528
 20
113.8184164288585
 30
0.0
 10
249.297857422813
 20
113.9645685884377
 30
0.0
 10
249.1119463304101
 20
114.1669680307927
 30
0.0
 10
248.8870665908251
 20
114.4352583911595
 30
0.0
 10
248.6320773691401
 20
114.7755816394151
 30
0.0
 10
248.3881044758024
 20
115.1366277434809
 30
0.0
 10
248.0801223451527
 20
115.6405613256798
 30
0.0
 10
247.7265867744339
 20
116.312289078132
 30
0.0
 10
247.4200204027411
 20
117.0340965210957
 30
0.0
 10
247.2099014370854
 20
117.6351702885299
 30
0.0
 10
247.0700155788641
 20
118.1035727733201
 30
0.0
 10
246.9532136484268
 20
118.5795513146743
 30
0.0
 10
246.8706182419274
 20
119.0211116973012
 30
0.0
 10
246.8193761974105
 20
119.4102079596394
 30
0.0
 10
246.7903301164473
 20
119.7462503378466
 30
0.0
 10
246.7865657359897
 20
119.9664729976984
 30
0.0
 10
246.7847248648008
 20
120.0741670935112
 30
0.0
  0
LINE
  5
191
330
1F
100
AcDbEntity
  8
0
  6
Continuous
 62
     7
370
    25
100
AcDbLine
 10
251.5463032233
 20
112.0346303459
 30
0.0
 11
249.7317143189
 21
113.5562363442
 31
0.0
  0
SPLINE
  5
192
330
1F
100
AcDbEntity
  8
0
  6
Continuous
 62
     7
370
    25
100
AcDbSpline
210
0.0
220
0.0
230
1.0
 70
     8
 71
     3
 72
    22
 73
    18
 74
     0
 42
0.000000001
 43
0.00000001
 40
0.0
 40
0.0
 40
0.0
 40
0.0
 40
0.0326343567292402
 40
0.0644200039609961
 40
0.095475221643897
 40
0.1259268023123687
 40
0.1896824122482829
 40
0.2515356725598193
 40
0.3139507483306284
 40
0.3766669667280816
 40
0.500819222077002
 40
0.6259805863772205
 40
0.6871675782606832
 40
0.7512934486391951
 40
0.8302842570277108
 40
0.9130089782405474
 40
1.0
 40
1.0
 40
1.0
 40
1.0
 10
254.1804537747718
 20
113.0634350507159
 30
0.0
 10
254.1721486682289
 20
113.0112846925744
 30
0.0
 10
254.1557544429396
 20
112.9083402311312
 30
0.0
 10
254.1241865397753
 20
112.7588992927638
 30
0.0
 10
254.0878630709311
 20
112.615969660539
 30
0.0
 10
254.0309803884734
 20
112.4294935015409
 30
0.0
 10
253.9443102959556
 20
112.2092230710167
 30
0.0
 10
253.8136031342491
 20
111.9730743243745
 30
0.0
 10
253.6596240862656
 20
111.7750563623475
 30
0.0
 10
253.4274892286485
 20
111.5699553601636
 30
0.0
 10
253.0998381784642
 20
111.4295967213101
 30
0.0
 10
252.7623210469399
 20
111.427374709356
 30
0.0
 10
252.4940124737506
 20
111.4859575435397
 30
0.0
 10
252.278117322282
 20
111.5625312834996
 30
0.0
 10
252.0446025564393
 20
111.6781191668719
 30
0.0
 10
251.7941504850155
 20
111.8359413967456
 30
0.0
 10
251.6302918547843
 20
111.9672995481446
 30
0.0
 10
251.5463030072073
 20
112.0346296591084
 30
0.0
  0
SPLINE
  5
193
330
1F
100
AcDbEntity
  8
0
  6
Continuous
 62
     7
370
    25
100
AcDbSpline
210
0.0
220
0.0
230
1.0
 70
     8
 71
     3
 72
    13
 73
     9
 74
     0
 42
0.000000001
 43
0.00000001
 40
0.0
 40
0.0
 40
0.0
 40
0.0
 40
0.2652983871234323
 40
0.500568884965231
 40
0.6976349709713575
 40
0.8434158331252363
 40
0.9407640625876534
 40
1.0
 40
1.0
 40
1.0
 40
1.0
 10
254.2032800124931
 20
112.8536105044623
 30
0.0
 10
254.2031687103606
 20
112.8728999581457
 30
0.0
 10
254.2029587038657
 20
112.9092955820566
 30
0.0
 10
254.2008644032053
 20
112.9597956247993
 30
0.0
 10
254.1979647705442
 20
113.0019029207797
 30
0.0
 10
254.1934847747244
 20
113.0324885574919
 30
0.0
 10
254.1892605916607
 20
113.0549531161042
 30
0.0
 10
254.1828709733723
 20
113.061107022243
 30
0.0
 10
254.1804537747718
 20
113.0634350507159
 30
0.0
  0
LINE
  5
194
330
1F
100
AcDbEntity
  8
0
  6
Continuous
 62
     7
370
    25
100
AcDbLine
 10
254.203280847
 20
112.8536112036
 30
0.0
 11
254.203280847
 21
104.9860234733
 31
0.0
  0
SPLINE
  5
195
330
1F
100
AcDbEntity
  8
0
  6
Continuous
 62
     7
370
    25
100
AcDbSpline
210
0.0
220
0.0
230
1.0
 70
     8
 71
     3
 72
     8
 73
     4
 74
     0
 42
0.000000001
 43
0.00000001
 40
0.0
 40
0.0
 40
0.0
 40
0.0
 40
1.0
 40
1.0
 40
1.0
 40
1.0
 10
254.1918444018806
 20
104.8796990854958
 30
0.0
 10
254.1993493562005
 20
104.9141846787461
 30
0.0
 10
254.203280012493
 20
104.9495951980155
 30
0.0
 10
254.203280012493
 20
104.9860232945092
 30
0.0
  0
SPLINE
  5
196
330
1F
100
AcDbEntity
  8
0
  6
Continuous
 62
     7
370
    25
100
AcDbSpline
210
0.0
220
0.0
230
1.0
 70
     8
 71
     3
 72
     8
 73
     4
 74
     0
 42
0.000000001
 43
0.00000001
 40
0.0
 40
0.0
 40
0.0
 40
0.0
 40
1.0
 40
1.0
 40
1.0
 40
1.0
 10
254.203280012493
 20
170.9860232945091
 30
0.0
 10
254.203280012493
 20
171.0224513910028
 30
0.0
 10
254.1993493562005
 20
171.0578619102723
 30
0.0
 10
254.1918444018806
 20
171.0923475035226
 30
0.0
  0
LINE
  5
197
330
1F
100
AcDbEntity
  8
0
  6
Continuous
 62
     7
370
    25
100
AcDbLine
 10
254.203280847
 20
170.9860231157
 30
0.0
 11
254.203280847
 21
163.1184353854
 31
0.0
  0
SPLINE
  5
198
330
1F
100
AcDbEntity
  8
0
  6
Continuous
 62
     7
370
    25
100
AcDbSpline
210
0.0
220
0.0
230
1.0
 70
     8
 71
     3
 72
     8
 73
     4
 74
     0
 42
0.000000001
 43
0.00000001
 40
0.0
 40
0.0
 40
0.0
 40
0.0
 40
1.0
 40
1.0
 40
1.0
 40
1.0
 10
253.703280012493
 20
104.4860232945091
 30
0.0
 10
253.7397081089867
 20
104.4860232945091
 30
0.0
 10
253.7751186282562
 20
104.4899539508016
 30
0.0
 10
253.8096042215066
 20
104.4974589051216
 30
0.0
  0
LINE
  5
199
330
1F
100
AcDbEntity
  8
0
  6
Continuous
 62
     7
370
    25
100
AcDbLine
 10
187.7032801913
 20
104.48602246
 30
0.0
 11
253.7032798337
 21
104.48602246
 31
0.0
  0
SPLINE
  5
19A
330
1F
100
AcDbEntity
  8
0
  6
Continuous
 62
     7
370
    25
100
AcDbSpline
210
0.0
220
0.0
230
1.0
 70
     8
 71
     3
 72
     8
 73
     4
 74
     0
 42
0.000000001
 43
0.00000001
 40
0.0
 40
0.0
 40
0.0
 40
0.0
 40
1.0
 40
1.0
 40
1.0
 40
1.0
 10
187.5969558034794
 20
104.4974589051216
 30
0.0
 10
187.6314413967298
 20
104.4899539508016
 30
0.0
 10
187.6668519159993
 20
104.4860232945091
 30
0.0
 10
187.703280012493
 20
104.4860232945091
 30
0.0
  0
SPLINE
  5
19B
330
1F
100
AcDbEntity
  8
0
  6
Continuous
 62
     7
370
    25
100
AcDbSpline
210
0.0
220
0.0
230
1.0
 70
     8
 71
     3
 72
    10
 73
     6
 74
     0
 42
0.000000001
 43
0.00000001
 40
0.0
 40
0.0
 40
0.0
 40
0.0
 40
0.1583981826068465
 40
0.6767449650911103
 40
1.0
 40
1.0
 40
1.0
 40
1.0
 10
248.2512467013644
 20
115.4314208205349
 30
0.0
 10
248.3167728807754
 20
115.3172518737996
 30
0.0
 10
248.596728820094
 20
114.8294731720411
 30
0.0
 10
249.0926880083932
 20
114.2156113085944
 30
0.0
 10
249.5477365704997
 20
113.7945622999616
 30
0.0
 10
249.7225184397744
 20
113.6328394885666
 30
0.0
  0
ARC
  5
19C
330
1F
100
AcDbEntity
  8
0
  6
Continuous
 62
     7
370
    25
100
AcDbCircle
 10
249.6725329246
 20
113.5879854066
 30
0.0
 40
0.0671598123760094
100
AcDbArc
 50
331.7877617441
 51
41.9029490358
  0
ARC
  5
19D
330
1F
100
AcDbEntity
  8
0
  6
Continuous
 62
     7
370
    25
100
AcDbCircle
 10
191.7340271004
 20
113.5879854066
 30
0.0
 40
0.0671598123760094
100
AcDbArc
 50
138.0970509642
 51
208.212238256
  0
SPLINE
  5
19E
330
1F
100
AcDbEntity
  8
0
  6
Continuous
 62
     7
370
    25
100
AcDbSpline
210
0.0
220
0.0
230
1.0
 70
     8
 71
     3
 72
    13
 73
     9
 74
     0
 42
0.000000001
 43
0.00000001
 40
0.0
 40
0.0
 40
0.0
 40
0.0
 40
0.1367119470695815
 40
0.2739501782974109
 40
0.4883775508306837
 40
0.7045828867062353
 40
0.9232415526550511
 40
1.0
 40
1.0
 40
1.0
 40
1.0
 10
191.6840415852116
 20
113.6328394885666
 30
0.0
 10
191.7726019967056
 20
113.7104632066833
 30
0.0
 10
191.9500637404587
 20
113.8660094619593
 30
0.0
 10
192.2520351669692
 20
114.1784559775363
 30
0.0
 10
192.5875195802586
 20
114.5739434948258
 30
0.0
 10
192.9465353108641
 20
115.0685144820364
 30
0.0
 10
193.2122933198607
 20
115.4839770018393
 30
0.0
 10
193.3552189385876
 20
115.7368800069414
 30
0.0
 10
193.3923554079579
 20
115.8025919820673
 30
0.0
  0
SPLINE
  5
19F
330
1F
100
AcDbEntity
  8
0
  6
Continuous
 62
     7
370
    25
100
AcDbSpline
210
0.0
220
0.0
230
1.0
 70
     8
 71
     3
 72
    10
 73
     6
 74
     0
 42
0.000000001
 43
0.00000001
 40
0.0
 40
0.0
 40
0.0
 40
0.0
 40
0.4376697026471881
 40
0.8863380555356574
 40
0.9999999999999999
 40
0.9999999999999999
 40
0.9999999999999999
 40
0.9999999999999999
 10
249.7225184397744
 20
162.3392071004517
 30
0.0
 10
249.4757136762055
 20
162.1028233088122
 30
0.0
 10
248.9759019393741
 20
161.6241153951168
 30
0.0
 10
248.4688773372415
 20
160.9540915463392
 30
0.0
 10
248.2300104292503
 20
160.5204853219035
 30
0.0
 10
248.1817290591048
 20
160.432841944278
 30
0.0
  0
ARC
  5
1A0
330
1F
100
AcDbEntity
  8
0
  6
Continuous
 62
     7
370
    25
100
AcDbCircle
 10
249.6725329246
 20
162.3840611824
 30
0.0
 40
0.0671598123760058
100
AcDbArc
 50
318.0970509642
 51
28.2122382559
  0
SPLINE
  5
1A1
330
1F
100
AcDbEntity
  8
0
  6
Continuous
 62
     7
370
    25
100
AcDbSpline
210
0.0
220
0.0
230
1.0
 70
     8
 71
     3
 72
    10
 73
     6
 74
     0
 42
0.000000001
 43
0.00000001
 40
0.0
 40
0.0
 40
0.0
 40
0.0
 40
0.1141376164088067
 40
0.5523141676438441
 40
0.9999999999999999
 40
0.9999999999999999
 40
0.9999999999999999
 40
0.9999999999999999
 10
193.2252798633622
 20
160.4313238884813
 30
0.0
 10
193.1768682980324
 20
160.5194975927202
 30
0.0
 10
192.9426037825226
 20
160.9461718794019
 30
0.0
 10
192.4358733817494
 20
161.6171626482984
 30
0.0
 10
191.9364392410292
 20
162.0968093620761
 30
0.0
 10
191.6840415852116
 20
162.3392071004517
 30
0.0
  0
ARC
  5
1A2
330
1F
100
AcDbEntity
  8
0
  6
Continuous
 62
     7
370
    25
100
AcDbCircle
 10
191.7340271004
 20
162.3840611824
 30
0.0
 40
0.0671598123760058
100
AcDbArc
 50
151.7877617441
 51
221.9029490358
  0
ARC
  5
1A3
330
1F
100
AcDbEntity
  8
0
  6
Continuous
 62
     7
370
    25
100
AcDbCircle
 10
189.9205609427
 20
112.0654464246
 30
0.0
 40
0.0677216371225484
100
AcDbArc
 50
137.459834129
 51
207.0675316908
  0
LINE
  5
1A4
330
1F
100
AcDbEntity
  8
0
  6
Continuous
 62
     7
370
    25
100
AcDbLine
 10
189.8706634002
 20
112.1112334903
 30
0.0
 11
191.6840415852
 21
113.6328394886
 31
0.0
  0
LINE
  5
1A5
330
1F
100
AcDbEntity
  8
0
  6
Continuous
 62
     7
370
    25
100
AcDbLine
 10
249.7225184398
 20
113.6328394886
 30
0.0
 11
251.5358966248
 21
112.1112334903
 31
0.0
  0
ARC
  5
1A6
330
1F
100
AcDbEntity
  8
0
  6
Continuous
 62
     7
370
    25
100
AcDbCircle
 10
251.4859990822
 20
112.0654464246
 30
0.0
 40
0.067721637122542
100
AcDbArc
 50
332.9324683092
 51
42.540165871
  0
LINE
  5
1A7
330
1F
100
AcDbEntity
  8
0
  6
Continuous
 62
     7
370
    25
100
AcDbLine
 10
191.6840415852
 20
162.3392071005
 30
0.0
 11
189.8706634002
 21
163.8608130987
 31
0.0
  0
ARC
  5
1A8
330
1F
100
AcDbEntity
  8
0
  6
Continuous
 62
     7
370
    25
100
AcDbCircle
 10
189.9205609427
 20
163.9066001644
 30
0.0
 40
0.0677216371225471
100
AcDbArc
 50
152.9324683092
 51
222.5401658711
  0
ARC
  5
1A9
330
1F
100
AcDbEntity
  8
0
  6
Continuous
 62
     7
370
    25
100
AcDbCircle
 10
251.4859990822
 20
163.9066001644
 30
0.0
 40
0.0677216371225471
100
AcDbArc
 50
317.4598341289
 51
27.0675316908
  0
LINE
  5
1AA
330
1F
100
AcDbEntity
  8
0
  6
Continuous
 62
     7
370
    25
100
AcDbLine
 10
251.5358966248
 20
163.8608130987
 30
0.0
 11
249.7225184398
 21
162.3392071005
 31
0.0
  0
SPLINE
  5
1AB
330
1F
100
AcDbEntity
  8
0
  6
Continuous
 62
     7
370
    25
100
AcDbSpline
210
0.0
220
0.0
230
1.0
 70
     8
 71
     3
 72
    24
 73
    20
 74
     0
 42
0.000000001
 43
0.00000001
 40
0.0
 40
0.0
 40
0.0
 40
0.0
 40
0.1250000000000011
 40
0.1250000000000011
 40
0.1875000000000001
 40
0.1875000000000001
 40
0.2499999999999991
 40
0.2499999999999991
 40
0.312499999999998
 40
0.312499999999998
 40
0.374999999999997
 40
0.374999999999997
 40
0.4999999999999975
 40
0.4999999999999975
 40
0.624999999999998
 40
0.624999999999998
 40
0.7499999999999984
 40
0.7499999999999984
 40
1.0
 40
1.0
 40
1.0
 40
1.0
 10
254.1162200341649
 20
162.8981169079581
 30
0.0
 10
254.0899891523557
 20
163.0932412747792
 30
0.0
 10
254.0494976450945
 20
163.2865876524298
 30
0.0
 10
253.9631108647188
 20
163.5558897556536
 30
0.0
 10
253.9301863759664
 20
163.6420006496898
 30
0.0
 10
253.8549517475297
 20
163.8059368706126
 30
0.0
 10
253.8124125465393
 20
163.8838303808423
 30
0.0
 10
253.7205042726123
 20
164.024493520763
 30
0.0
 10
253.6708040319873
 20
164.0881091436121
 30
0.0
 10
253.5637485205163
 20
164.2016866996603
 30
0.0
 10
253.5056981979646
 20
164.2520398457405
 30
0.0
 10
253.3263384192194
 20
164.3774036231441
 30
0.0
 10
253.1991200770968
 20
164.4287014616584
 30
0.0
 10
252.9338302111002
 20
164.4782993873047
 30
0.0
 10
252.8003561411993
 20
164.4758293003036
 30
0.0
 10
252.5350946223596
 20
164.4318916146889
 30
0.0
 10
252.402363281473
 20
164.3898464616862
 30
0.0
 10
252.0173119241727
 20
164.223485226256
 30
0.0
 10
251.7727020550817
 20
164.0595151622161
 30
0.0
 10
251.5358974263643
 20
163.8608124855982
 30
0.0
  0
LWPOLYLINE
  5
1AC
330
1F
100
AcDbEntity
  8
0
  6
Continuous
 62
     7
370
    25
100
AcDbPolyline
 90
        4
 70
   128
 43
0.0
 10
254.1032791542
 20
162.0988811727
 10
254.1076191174
 20
162.3669213976
 10
254.1119404541
 20
162.6337397273
 10
254.1162208127
 20
162.8981161292
  0
SPLINE
  5
1AD
330
1F
100
AcDbEntity
  8
0
  6
Continuous
 62
     7
370
    25
100
AcDbSpline
210
0.0
220
0.0
230
1.0
 70
     8
 71
     3
 72
    14
 73
    10
 74
     0
 42
0.000000001
 43
0.00000001
 40
0.0000000000000003
 40
0.0000000000000003
 40
0.0000000000000003
 40
0.0000000000000003
 40
0.0000374015792806
 40
0.0000374015792806
 40
0.0000374015792806
 40
0.0000696344187553
 40
0.0000696344187553
 40
0.0000696344187553
 40
0.0000748396572827
 40
0.0000748396572827
 40
0.0000748396572827
 40
0.0000748396572827
 10
254.1804537747717
 20
162.9086115383025
 30
0.0
 10
254.1725363760221
 20
162.9064594577541
 30
0.0
 10
254.162632598875
 20
162.9043898489699
 30
0.0
 10
254.1517532487617
 20
162.9026116706972
 30
0.0
 10
254.1423348615887
 20
162.9010722799009
 30
0.0
 10
254.1319349506238
 20
162.8997074024724
 30
0.0
 10
254.1213483262351
 20
162.8986207950758
 30
0.0
 10
254.1196464239817
 20
162.8984461124282
 30
0.0
 10
254.1179358507402
 20
162.8982779989186
 30
0.0
 10
254.1162200341649
 20
162.8981169079589
 30
0.0
  0
SPLINE
  5
1AE
330
1F
100
AcDbEntity
  8
0
  6
Continuous
 62
     7
370
    25
100
AcDbSpline
210
0.0
220
0.0
230
1.0
 70
     8
 71
     3
 72
    20
 73
    16
 74
     0
 42
0.000000001
 43
0.00000001
 40
0.0
 40
0.0
 40
0.0
 40
0.0
 40
0.2500000000000014
 40
0.2500000000000014
 40
0.5000000000000029
 40
0.5000000000000029
 40
0.6250000000000038
 40
0.6250000000000038
 40
0.7500000000000046
 40
0.7500000000000046
 40
0.8125000000000039
 40
0.8125000000000039
 40
0.8750000000000032
 40
0.8750000000000032
 40
1.0
 40
1.0
 40
1.0
 40
1.0
 10
189.8706625986218
 20
112.1112341034203
 30
0.0
 10
189.6339194957402
 20
111.9125830531086
 30
0.0
 10
189.3893749362413
 20
111.7486476958739
 30
0.0
 10
188.8761196218868
 20
111.5268329652645
 30
0.0
 10
188.6047427340564
 20
111.4692076080393
 30
0.0
 10
188.2085170389333
 20
111.5430733555721
 30
0.0
 10
188.0809643096083
 20
111.5940525263925
 30
0.0
 10
187.8396643214168
 20
111.7628523518733
 30
0.0
 10
187.7315741444144
 20
111.8777649724487
 30
0.0
 10
187.5938529621637
 20
112.0887290132474
 30
0.0
 10
187.5513577491183
 20
112.1666021538518
 30
0.0
 10
187.4762047569502
 20
112.3304677199232
 30
0.0
 10
187.4433140192495
 20
112.4165370731708
 30
0.0
 10
187.3570115832743
 20
112.6856996168652
 30
0.0
 10
187.3165546207638
 20
112.8789262074434
 30
0.0
 10
187.2903399908237
 20
113.0739296810414
 30
0.0
  0
SPLINE
  5
1AF
330
1F
100
AcDbEntity
  8
0
  6
Continuous
 62
     7
370
    25
100
AcDbSpline
210
0.0
220
0.0
230
1.0
 70
     8
 71
     3
 72
    14
 73
    10
 74
     0
 42
0.000000001
 43
0.00000001
 40
0.0000000000000002
 40
0.0000000000000002
 40
0.0000000000000002
 40
0.0000000000000002
 40
0.0000336933717916
 40
0.0000336933717916
 40
0.0000336933717916
 40
0.0000698607890144
 40
0.0000698607890144
 40
0.0000698607890144
 40
0.000075066027809
 40
0.000075066027809
 40
0.000075066027809
 40
0.000075066027809
 10
187.2261062502143
 20
113.063435050716
 30
0.0
 10
187.2332386725564
 20
113.0653737616324
 30
0.0
 10
187.2419633185132
 20
113.0672433824732
 30
0.0
 10
187.2515537006008
 20
113.0688899545703
 30
0.0
 10
187.2618267420506
 20
113.0706537324103
 30
0.0
 10
187.2734111667462
 20
113.0722145914888
 30
0.0
 10
187.285211698615
 20
113.0734257939313
 30
0.0
 10
187.2869136009553
 20
113.0736004765892
 30
0.0
 10
187.2886241742853
 20
113.0737685900984
 30
0.0
 10
187.2903399909493
 20
113.0739296810621
 30
0.0
  0
LWPOLYLINE
  5
1B0
330
1F
100
AcDbEntity
  8
0
  6
Continuous
 62
     7
370
    25
100
AcDbPolyline
 90
        4
 70
   128
 43
0.0
 10
187.3032808708
 20
113.8731654163
 10
187.2989409076
 20
113.6051251914
 10
187.2946195709
 20
113.3383068617
 10
187.2903392123
 20
113.0739304598
  0
SPLINE
  5
1B1
330
1F
100
AcDbEntity
  8
0
  6
Continuous
 62
     7
370
    25
100
AcDbSpline
210
0.0
220
0.0
230
1.0
 70
     8
 71
     3
 72
    20
 73
    16
 74
     0
 42
0.000000001
 43
0.00000001
 40
0.0
 40
0.0
 40
0.0
 40
0.0
 40
0.2500000000000006
 40
0.2500000000000006
 40
0.5000000000000012
 40
0.5000000000000012
 40
0.6250000000000001
 40
0.6250000000000001
 40
0.7499999999999989
 40
0.7499999999999989
 40
0.8124999999999984
 40
0.8124999999999984
 40
0.8749999999999979
 40
0.8749999999999979
 40
1.0
 40
1.0
 40
1.0
 40
1.0
 10
251.5358974263643
 20
112.1112341034202
 30
0.0
 10
251.7726405292458
 20
111.9125830531085
 30
0.0
 10
252.0171850887447
 20
111.7486476958739
 30
0.0
 10
252.5304404030993
 20
111.5268329652645
 30
0.0
 10
252.8018172909297
 20
111.4692076080393
 30
0.0
 10
253.1980429860527
 20
111.543073355572
 30
0.0
 10
253.3255957153777
 20
111.5940525263924
 30
0.0
 10
253.5668957035692
 20
111.7628523518733
 30
0.0
 10
253.6749858805716
 20
111.8777649724486
 30
0.0
 10
253.8127070628224
 20
112.0887290132474
 30
0.0
 10
253.8552022758678
 20
112.1666021538518
 30
0.0
 10
253.9303552680358
 20
112.3304677199231
 30
0.0
 10
253.9632460057366
 20
112.4165370731707
 30
0.0
 10
254.0495484417117
 20
112.6856996168651
 30
0.0
 10
254.0900054042223
 20
112.8789262074433
 30
0.0
 10
254.1162200341624
 20
113.0739296810414
 30
0.0
  0
SPLINE
  5
1B2
330
1F
100
AcDbEntity
  8
0
  6
Continuous
 62
     7
370
    25
100
AcDbSpline
210
0.0
220
0.0
230
1.0
 70
     8
 71
     3
 72
    14
 73
    10
 74
     0
 42
0.000000001
 43
0.00000001
 40
0.0000000000000003
 40
0.0000000000000003
 40
0.0000000000000003
 40
0.0000000000000003
 40
0.0000336933717916
 40
0.0000336933717916
 40
0.0000336933717916
 40
0.0000698607890144
 40
0.0000698607890144
 40
0.0000698607890144
 40
0.000075066027809
 40
0.000075066027809
 40
0.000075066027809
 40
0.000075066027809
 10
254.1804537747717
 20
113.0634350507159
 30
0.0
 10
254.1733213524295
 20
113.0653737616323
 30
0.0
 10
254.1645967064728
 20
113.0672433824731
 30
0.0
 10
254.1550063243851
 20
113.0688899545702
 30
0.0
 10
254.1447332829354
 20
113.0706537324103
 30
0.0
 10
254.1331488582397
 20
113.0722145914885
 30
0.0
 10
254.121348326371
 20
113.0734257939313
 30
0.0
 10
254.1196464240307
 20
113.0736004765892
 30
0.0
 10
254.1179358507007
 20
113.0737685900984
 30
0.0
 10
254.1162200340367
 20
113.0739296810621
 30
0.0
  0
LWPOLYLINE
  5
1B3
330
1F
100
AcDbEntity
  8
0
  6
Continuous
 62
     7
370
    25
100
AcDbPolyline
 90
        4
 70
   128
 43
0.0
 10
254.1162208127
 20
113.0739304598
 10
254.1119404541
 20
113.3383068617
 10
254.1076191174
 20
113.6051251914
 10
254.1032791542
 20
113.8731654163
  0
LWPOLYLINE
  5
1B4
330
1F
100
AcDbEntity
  8
0
  6
Continuous
 62
     7
370
    25
100
AcDbPolyline
 90
        4
 70
   128
 43
0.0
 10
187.2903392123
 20
162.8981161292
 10
187.2946195709
 20
162.6337397273
 10
187.2989409076
 20
162.3669213976
 10
187.3032808708
 20
162.0988811727
  0
SPLINE
  5
1B5
330
1F
100
AcDbEntity
  8
0
  6
Continuous
 62
     7
370
    25
100
AcDbSpline
210
0.0
220
0.0
230
1.0
 70
     8
 71
     3
 72
    24
 73
    20
 74
     0
 42
0.000000001
 43
0.00000001
 40
0.0
 40
0.0
 40
0.0
 40
0.0
 40
0.1250000000000016
 40
0.1250000000000016
 40
0.187500000000002
 40
0.187500000000002
 40
0.2500000000000024
 40
0.2500000000000024
 40
0.3125000000000028
 40
0.3125000000000028
 40
0.3750000000000032
 40
0.3750000000000032
 40
0.5000000000000024
 40
0.5000000000000024
 40
0.6250000000000018
 40
0.6250000000000018
 40
0.750000000000001
 40
0.750000000000001
 40
1.0
 40
1.0
 40
1.0
 40
1.0
 10
187.2903399908212
 20
162.8981169079581
 30
0.0
 10
187.3165708726304
 20
163.0932412747792
 30
0.0
 10
187.3570623798916
 20
163.2865876524298
 30
0.0
 10
187.4434491602673
 20
163.5558897556536
 30
0.0
 10
187.4763736490197
 20
163.6420006496898
 30
0.0
 10
187.5516082774564
 20
163.8059368706125
 30
0.0
 10
187.5941474784468
 20
163.8838303808423
 30
0.0
 10
187.6860557523738
 20
164.024493520763
 30
0.0
 10
187.7357559929987
 20
164.0881091436121
 30
0.0
 10
187.8428115044698
 20
164.2016866996602
 30
0.0
 10
187.9008618270214
 20
164.2520398457405
 30
0.0
 10
188.0802216057667
 20
164.3774036231441
 30
0.0
 10
188.2074399478893
 20
164.4287014616583
 30
0.0
 10
188.4727298138859
 20
164.4782993873047
 30
0.0
 10
188.6062038837867
 20
164.4758293003036
 30
0.0
 10
188.8714654026265
 20
164.4318916146888
 30
0.0
 10
189.004196743513
 20
164.3898464616862
 30
0.0
 10
189.3892481008134
 20
164.223485226256
 30
0.0
 10
189.6338579699043
 20
164.0595151622161
 30
0.0
 10
189.8706625986218
 20
163.8608124855982
 30
0.0
  0
SPLINE
  5
1B6
330
1F
100
AcDbEntity
  8
0
  6
Continuous
 62
     7
370
    25
100
AcDbSpline
210
0.0
220
0.0
230
1.0
 70
     8
 71
     3
 72
    14
 73
    10
 74
     0
 42
0.000000001
 43
0.00000001
 40
0.0000000000000003
 40
0.0000000000000003
 40
0.0000000000000003
 40
0.0000000000000003
 40
0.0000374015792806
 40
0.0000374015792806
 40
0.0000374015792806
 40
0.0000696344187552
 40
0.0000696344187552
 40
0.0000696344187552
 40
0.0000748396572828
 40
0.0000748396572828
 40
0.0000748396572828
 40
0.0000748396572828
 10
187.2261062502143
 20
162.9086115383025
 30
0.0
 10
187.234023648964
 20
162.9064594577541
 30
0.0
 10
187.2439274261111
 20
162.9043898489698
 30
0.0
 10
187.2548067762244
 20
162.9026116706973
 30
0.0
 10
187.2642251633974
 20
162.901072279901
 30
0.0
 10
187.2746250743621
 20
162.8997074024714
 30
0.0
 10
187.285211698751
 20
162.8986207950758
 30
0.0
 10
187.2869136010044
 20
162.8984461124284
 30
0.0
 10
187.2886241742459
 20
162.8982779989186
 30
0.0
 10
187.2903399908213
 20
162.8981169079589
 30
0.0
  0
LINE
  5
1B7
330
1F
100
AcDbEntity
  8
0
  6
Continuous
 62
     7
370
    25
100
AcDbLine
 10
187.3032808708
 20
162.0988811727
 30
0.0
 11
187.203279178
 21
162.0988811727
 31
0.0
  0
LINE
  5
1B8
330
1F
100
AcDbEntity
  8
0
  6
Continuous
 62
     7
370
    25
100
AcDbLine
 10
187.203279178
 20
162.0988811727
 30
0.0
 11
187.203279178
 21
163.1184353854
 31
0.0
  0
LINE
  5
1B9
330
1F
100
AcDbEntity
  8
0
  6
Continuous
 62
     7
370
    25
100
AcDbLine
 10
254.203280847
 20
163.1184353854
 30
0.0
 11
254.203280847
 21
162.0988811727
 31
0.0
  0
LINE
  5
1BA
330
1F
100
AcDbEntity
  8
0
  6
Continuous
 62
     7
370
    25
100
AcDbLine
 10
254.203280847
 20
162.0988811727
 30
0.0
 11
254.1032791542
 21
162.0988811727
 31
0.0
  0
LINE
  5
1BB
330
1F
100
AcDbEntity
  8
0
  6
Continuous
 62
     7
370
    25
100
AcDbLine
 10
187.203279178
 20
112.8536112036
 30
0.0
 11
187.203279178
 21
113.8731654163
 31
0.0
  0
LINE
  5
1BC
330
1F
100
AcDbEntity
  8
0
  6
Continuous
 62
     7
370
    25
100
AcDbLine
 10
187.3032808708
 20
113.8731654163
 30
0.0
 11
187.203279178
 21
113.8731654163
 31
0.0
  0
LINE
  5
1BD
330
1F
100
AcDbEntity
  8
0
  6
Continuous
 62
     7
370
    25
100
AcDbLine
 10
254.203280847
 20
113.8731654163
 30
0.0
 11
254.203280847
 21
112.8536112036
 31
0.0
  0
LINE
  5
1BE
330
1F
100
AcDbEntity
  8
0
  6
Continuous
 62
     7
370
    25
100
AcDbLine
 10
254.203280847
 20
113.8731654163
 30
0.0
 11
254.1032791542
 21
113.8731654163
 31
0.0
  0
LINE
  5
1BF
330
1F
100
AcDbEntity
  8
0
  6
Continuous
 62
     7
370
    25
100
AcDbLine
 10
187.3032808708
 20
162.0988811727
 30
0.0
 11
187.3032808708
 21
113.8731654163
 31
0.0
  0
LINE
  5
1C0
330
1F
100
AcDbEntity
  8
0
  6
Continuous
 62
     7
370
    25
100
AcDbLine
 10
187.203279178
 20
113.8731654163
 30
0.0
 11
187.203279178
 21
162.0988811727
 31
0.0
  0
LINE
  5
1C1
330
1F
100
AcDbEntity
  8
0
  6
Continuous
 62
     7
370
    25
100
AcDbLine
 10
254.1032791542
 20
113.8731654163
 30
0.0
 11
254.1032791542
 21
162.0988811727
 31
0.0
  0
LINE
  5
1C2
330
1F
100
AcDbEntity
  8
0
  6
Continuous
 62
     7
370
    25
100
AcDbLine
 10
254.203280847
 20
162.0988811727
 30
0.0
 11
254.203280847
 21
113.8731654163
 31
0.0
  0
LINE
  5
1C3
330
1F
100
AcDbEntity
  8
0
  6
Continuous
 62
     8
370
    25
100
AcDbLine
 10
246.8132082777
 20
120.0741663005
 30
0.0
 11
246.7847247081
 21
120.0741663005
 31
0.0
  0
LINE
  5
1C4
330
1F
100
AcDbEntity
  8
0
  6
Continuous
 62
     8
370
    25
100
AcDbLine
 10
194.6218353169
 20
120.0741663005
 30
0.0
 11
194.5933442967
 21
120.0741663005
 31
0.0
  0
LINE
  5
1C5
330
1F
100
AcDbEntity
  8
0
  6
Continuous
 62
     8
370
    25
100
AcDbLine
 10
246.8132138656
 20
155.8978802885
 30
0.0
 11
246.7847247081
 21
155.8978802885
 31
0.0
  0
LINE
  5
1C6
330
1F
100
AcDbEntity
  8
0
  6
Continuous
 62
     8
370
    25
100
AcDbLine
 10
194.6218353169
 20
155.8978802885
 30
0.0
 11
194.5933442967
 21
155.8978802885
 31
0.0
  0
LINE
  5
1C7
330
1F
100
AcDbEntity
  8
0
  6
Continuous
 62
     8
370
    25
100
AcDbLine
 10
254.1032791542
 20
162.0988811727
 30
0.0
 11
246.8134895371
 21
155.9820196952
 31
0.0
  0
LINE
  5
1C8
330
1F
100
AcDbEntity
  8
0
  6
Continuous
 62
     8
370
    25
100
AcDbLine
 10
187.3032808708
 20
113.8731654163
 30
0.0
 11
194.5895966547
 21
119.9871118541
 31
0.0
  0
LINE
  5
1C9
330
1F
100
AcDbEntity
  8
0
  6
Continuous
 62
     8
370
    25
100
AcDbLine
 10
246.8135640429
 20
119.9899635639
 30
0.0
 11
254.1032791542
 21
113.8731654163
 31
0.0
  0
LINE
  5
1CA
330
1F
100
AcDbEntity
  8
0
  6
Continuous
 62
     8
370
    25
100
AcDbLine
 10
194.5916027235
 20
155.9832509037
 30
0.0
 11
187.3032808708
 21
162.0988811727
 31
0.0
  0
SPLINE
  5
1CB
330
1F
100
AcDbEntity
  8
0
  6
Continuous
 62
     7
370
    25
100
AcDbSpline
210
0.0
220
0.0
230
1.0
 70
     8
 71
     3
 72
    10
 73
     6
 74
     0
 42
0.000000001
 43
0.00000001
 40
0.0
 40
0.0
 40
0.0
 40
0.0
 40
0.3231078864438919
 40
0.8696167344197836
 40
1.0
 40
1.0
 40
1.0
 40
1.0
 10
347.9262598719372
 20
156.7619799997216
 30
0.0
 10
347.9394155523997
 20
156.670139214652
 30
0.0
 10
347.9748229205354
 20
156.4229577407553
 30
0.0
 10
347.9962113505238
 20
156.1322450048119
 30
0.0
 10
347.9912464944194
 20
155.9358075642973
 30
0.0
 10
347.9902901615872
 20
155.8979696955091
 30
0.0
  0
LINE
  5
1CC
330
1F
100
AcDbEntity
  8
0
  6
Continuous
 62
     7
370
    25
100
AcDbLine
 10
346.6058009233
 20
160.4411772813
 30
0.0
 11
346.7136518028
 21
160.2560713317
 31
0.0
  0
SPLINE
  5
1CD
330
1F
100
AcDbEntity
  8
0
  6
Continuous
 62
     7
370
    25
100
AcDbSpline
210
0.0
220
0.0
230
1.0
 70
     8
 71
     3
 72
    11
 73
     7
 74
     0
 42
0.000000001
 43
0.00000001
 40
0.0
 40
0.0
 40
0.0
 40
0.0
 40
0.0046178400639425
 40
0.4805309266937426
 40
0.9091368619699528
 40
1.0
 40
1.0
 40
1.0
 40
1.0
 10
355.135931533195
 20
111.7869283433562
 30
0.0
 10
355.1375071634409
 20
111.7872473373326
 30
0.0
 10
355.3014667314878
 20
111.8204417461741
 30
0.0
 10
355.6219664797412
 20
111.8536409878593
 30
0.0
 10
355.9746210273488
 20
111.8844176721272
 30
0.0
 10
356.1591360626383
 20
111.8780442959347
 30
0.0
 10
356.1914105828776
 20
111.8769294943219
 30
0.0
  0
SPLINE
  5
1CE
330
1F
100
AcDbEntity
  8
0
  6
Continuous
 62
     7
370
    25
100
AcDbSpline
210
0.0
220
0.0
230
1.0
 70
     8
 71
     3
 72
    13
 73
     9
 74
     0
 42
0.000000001
 43
0.00000001
 40
0.0
 40
0.0
 40
0.0
 40
0.0
 40
0.0985175061878095
 40
0.2927781379985874
 40
0.4902589162768765
 40
0.678330764756851
 40
0.8566590748163608
 40
1.0
 40
1.0
 40
1.0
 40
1.0
 10
351.6487264003529
 20
110.4888937796956
 30
0.0
 10
351.7476805322386
 20
110.5480608452722
 30
0.0
 10
352.0417562513857
 20
110.7238958208078
 30
0.0
 10
352.5749077188322
 20
110.985490819112
 30
0.0
 10
353.2321113517723
 20
111.266775230136
 30
0.0
 10
353.9054191042038
 20
111.4990189454007
 30
0.0
 10
354.537923113039
 20
111.6734853465442
 30
0.0
 10
354.9515934530676
 20
111.7519591631049
 30
0.0
 10
355.135931533195
 20
111.7869283433562
 30
0.0
  0
SPLINE
  5
1CF
330
1F
100
AcDbEntity
  8
0
  6
Continuous
 62
     7
370
    25
100
AcDbSpline
210
0.0
220
0.0
230
1.0
 70
     8
 71
     3
 72
    14
 73
    10
 74
     0
 42
0.000000001
 43
0.00000001
 40
0.0
 40
0.0
 40
0.0
 40
0.0
 40
0.009148796719699
 40
0.1530555844167408
 40
0.3166243473982381
 40
0.491885201690851
 40
0.6750847995584037
 40
0.8666469188179166
 40
1.0
 40
1.0
 40
1.0
 40
1.0
 10
393.1602545943036
 20
111.7703675653344
 30
0.0
 10
393.1719080327408
 20
111.7686249471119
 30
0.0
 10
393.3668652369643
 20
111.739471665141
 30
0.0
 10
393.7581179586912
 20
111.6453892336583
 30
0.0
 10
394.3434415928039
 20
111.4859625762885
 30
0.0
 10
394.9517481971115
 20
111.2733620517451
 30
0.0
 10
395.5642637184157
 20
111.0160403832273
 30
0.0
 10
396.107537760546
 20
110.753795278189
 30
0.0
 10
396.4291031737615
 20
110.5647964264365
 30
0.0
 10
396.5610814209952
 20
110.4872267122871
 30
0.0
  0
SPLINE
  5
1D0
330
1F
100
AcDbEntity
  8
0
  6
Continuous
 62
     7
370
    25
100
AcDbSpline
210
0.0
220
0.0
230
1.0
 70
     8
 71
     3
 72
    10
 73
     6
 74
     0
 42
0.000000001
 43
0.00000001
 40
0.0
 40
0.0
 40
0.0
 40
0.0
 40
0.1958620992100041
 40
0.5938249221796186
 40
1.0
 40
1.0
 40
1.0
 40
1.0
 10
392.0151133950724
 20
111.8756386812335
 30
0.0
 10
392.0908063995666
 20
111.8766205191823
 30
0.0
 10
392.3202963962765
 20
111.8795973066562
 30
0.0
 10
392.705312080636
 20
111.8449834598938
 30
0.0
 10
393.0075781261846
 20
111.7954082922496
 30
0.0
 10
393.1602545943036
 20
111.7703675653344
 30
0.0
  0
SPLINE
  5
1D1
330
1F
100
AcDbEntity
  8
0
  6
Continuous
 62
     7
370
    25
100
AcDbSpline
210
0.0
220
0.0
230
1.0
 70
     8
 71
     3
 72
    13
 73
     9
 74
     0
 42
0.000000001
 43
0.00000001
 40
0.0
 40
0.0
 40
0.0
 40
0.0
 40
0.158080505218145
 40
0.3364973134132081
 40
0.5301150926475944
 40
0.7345562708623189
 40
0.9502953129235074
 40
1.0
 40
1.0
 40
1.0
 40
1.0
 10
347.8816420700326
 20
118.9026463206416
 30
0.0
 10
347.8466164600537
 20
118.7252905572142
 30
0.0
 10
347.7720593624387
 20
118.3477630573538
 30
0.0
 10
347.6097508028566
 20
117.7746348569426
 30
0.0
 10
347.4032900636905
 20
117.1716191005049
 30
0.0
 10
347.1472518560196
 20
116.5592796510852
 30
0.0
 10
346.934691242439
 20
116.1048032848948
 30
0.0
 10
346.7981622958058
 20
115.8677476011167
 30
0.0
 10
346.7725970711484
 20
115.823358612836
 30
0.0
  0
SPLINE
  5
1D2
330
1F
100
AcDbEntity
  8
0
  6
Continuous
 62
     7
370
    25
100
AcDbSpline
210
0.0
220
0.0
230
1.0
 70
     8
 71
     3
 72
    11
 73
     7
 74
     0
 42
0.000000001
 43
0.00000001
 40
0.0
 40
0.0
 40
0.0
 40
0.0
 40
0.1607865755502553
 40
0.5545066961141192
 40
0.9884250344957771
 40
1.0
 40
1.0
 40
1.0
 40
1.0
 10
347.9891204204335
 20
120.0741383607989
 30
0.0
 10
347.9900842987857
 20
120.0105757835934
 30
0.0
 10
347.9934084382465
 20
119.791366719888
 30
0.0
 10
347.9565890648087
 20
119.4033326854512
 30
0.0
 10
347.9181357037662
 20
119.0753925187836
 30
0.0
 10
347.8825662482787
 20
118.9070210091037
 30
0.0
 10
347.8816420700326
 20
118.9026463206416
 30
0.0
  0
SPLINE
  5
1D3
330
1F
100
AcDbEntity
  8
0
  6
Continuous
 62
     7
370
    25
100
AcDbSpline
210
0.0
220
0.0
230
1.0
 70
     8
 71
     3
 72
    11
 73
     7
 74
     0
 42
0.000000001
 43
0.00000001
 40
0.0
 40
0.0
 40
0.0
 40
0.0
 40
0.0046340645807501
 40
0.4805393939287907
 40
0.9091383430197137
 40
1.0
 40
1.0
 40
1.0
 40
1.0
 10
400.3023532148375
 20
119.0186835255033
 30
0.0
 10
400.3020329750487
 20
119.0202647426511
 30
0.0
 10
400.2688250144421
 20
119.1842324898981
 30
0.0
 10
400.2356419048234
 20
119.5047340438949
 30
0.0
 10
400.204859961106
 20
119.8573898305009
 30
0.0
 10
400.2112335072429
 20
120.0419048257556
 30
0.0
 10
400.2123483385815
 20
120.0741793389922
 30
0.0
  0
SPLINE
  5
1D4
330
1F
100
AcDbEntity
  8
0
  6
Continuous
 62
     7
370
    25
100
AcDbSpline
210
0.0
220
0.0
230
1.0
 70
     8
 71
     3
 72
    13
 73
     9
 74
     0
 42
0.000000001
 43
0.00000001
 40
0.0
 40
0.0
 40
0.0
 40
0.0
 40
0.0983472188757887
 40
0.2926454830469535
 40
0.4901645174955658
 40
0.6782727994387421
 40
0.8566356554336213
 40
1.0
 40
1.0
 40
1.0
 40
1.0
 10
401.6000469144358
 20
115.5320707138187
 30
0.0
 10
401.540994564307
 20
115.6308358844156
 30
0.0
 10
401.3652762905617
 20
115.924725039472
 30
0.0
 10
401.1037886411485
 20
116.4576785025281
 30
0.0
 10
400.822502165204
 20
117.1148795859121
 30
0.0
 10
400.5902590678444
 20
117.7881879993397
 30
0.0
 10
400.4157937047888
 20
118.4206864162805
 30
0.0
 10
400.3373212155667
 20
118.8343510763017
 30
0.0
 10
400.3023532148375
 20
119.0186835255033
 30
0.0
  0
SPLINE
  5
1D5
330
1F
100
AcDbEntity
  8
0
  6
Continuous
 62
     7
370
    25
100
AcDbSpline
210
0.0
220
0.0
230
1.0
 70
     8
 71
     3
 72
    14
 73
    10
 74
     0
 42
0.000000001
 43
0.00000001
 40
0.0
 40
0.0
 40
0.0
 40
0.0
 40
0.0091473067523162
 40
0.1530543108455426
 40
0.3166233197894214
 40
0.4918844376261018
 40
0.6750843109754064
 40
0.8666467182916008
 40
1.0
 40
1.0
 40
1.0
 40
1.0
 10
400.3189121302142
 20
157.0430289383536
 30
0.0
 10
400.3206541225044
 20
157.0546805136909
 30
0.0
 10
400.3498014373037
 20
157.2496366774883
 30
0.0
 10
400.4438912185451
 20
157.6408862967827
 30
0.0
 10
400.6033144596267
 20
158.2262104761126
 30
0.0
 10
400.8159160117679
 20
158.8345169164223
 30
0.0
 10
401.0732373830646
 20
159.4470324851611
 30
0.0
 10
401.3354825658242
 20
159.9903065148876
 30
0.0
 10
401.5244814096998
 20
160.3118719293602
 30
0.0
 10
401.6020511206164
 20
160.4438501771098
 30
0.0
  0
SPLINE
  5
1D6
330
1F
100
AcDbEntity
  8
0
  6
Continuous
 62
     7
370
    25
100
AcDbSpline
210
0.0
220
0.0
230
1.0
 70
     8
 71
     3
 72
    10
 73
     6
 74
     0
 42
0.000000001
 43
0.00000001
 40
0.0
 40
0.0
 40
0.0
 40
0.0
 40
0.1958611058232906
 40
0.593821910377998
 40
1.0
 40
1.0
 40
1.0
 40
1.0
 10
400.21363915167
 20
155.897882151187
 30
0.0
 10
400.2126573198387
 20
155.9735751549082
 30
0.0
 10
400.2096805509123
 20
156.2030651492745
 30
0.0
 10
400.244294320375
 20
156.5880828183432
 30
0.0
 10
400.2938706577256
 20
156.8903506330994
 30
0.0
 10
400.3189121302142
 20
157.0430289383536
 30
0.0
  0
SPLINE
  5
1D7
330
1F
100
AcDbEntity
  8
0
  6
Continuous
 62
     7
370
    25
100
AcDbSpline
210
0.0
220
0.0
230
1.0
 70
     8
 71
     3
 72
    11
 73
     7
 74
     0
 42
0.000000001
 43
0.00000001
 40
0.0
 40
0.0
 40
0.0
 40
0.0
 40
0.0277600810485895
 40
0.4868394656666464
 40
0.9011547853885207
 40
1.0
 40
1.0
 40
1.0
 40
1.0
 10
393.1513287987485
 20
164.2017609800702
 30
0.0
 10
393.1411393302818
 20
164.1996523644066
 30
0.0
 10
392.9624426119603
 20
164.1626727417178
 30
0.0
 10
392.6203100585199
 20
164.1262077320652
 30
0.0
 10
392.2495660792904
 20
164.092808658243
 30
0.0
 10
392.0530533167461
 20
164.0979896972378
 30
0.0
 10
392.0152009393944
 20
164.0989876713163
 30
0.0
  0
SPLINE
  5
1D8
330
1F
100
AcDbEntity
  8
0
  6
Continuous
 62
     7
370
    25
100
AcDbSpline
210
0.0
220
0.0
230
1.0
 70
     8
 71
     3
 72
    13
 73
     9
 74
     0
 42
0.000000001
 43
0.00000001
 40
0.0
 40
0.0
 40
0.0
 40
0.0
 40
0.1059077826523554
 40
0.304485945936833
 40
0.50605174576672
 40
0.6978958867660557
 40
0.8612410001274339
 40
1.0
 40
1.0
 40
1.0
 40
1.0
 10
396.5578143414035
 20
165.4831304575807
 30
0.0
 10
396.4535223681472
 20
165.420980505367
 30
0.0
 10
396.1536818905613
 20
165.2422987643675
 30
0.0
 10
395.6143839439473
 20
164.978532560668
 30
0.0
 10
394.9565826496467
 20
164.6983712163033
 30
0.0
 10
394.3048866291285
 20
164.4751758684543
 30
0.0
 10
393.7058746963941
 20
164.3083087255054
 30
0.0
 10
393.3258687678526
 20
164.2352962388744
 30
0.0
 10
393.1513287987485
 20
164.2017609800702
 30
0.0
  0
SPLINE
  5
1D9
330
1F
100
AcDbEntity
  8
0
  6
Continuous
 62
     7
370
    25
100
AcDbSpline
210
0.0
220
0.0
230
1.0
 70
     8
 71
     3
 72
    13
 73
     9
 74
     0
 42
0.000000001
 43
0.00000001
 40
0.0
 40
0.0
 40
0.0
 40
0.0
 40
0.1574530375783653
 40
0.3357970534688055
 40
0.5319086822115798
 40
0.7369080644970097
 40
0.9512674717982874
 40
1.0
 40
1.0
 40
1.0
 40
1.0
 10
355.0045312311425
 20
164.2102881695634
 30
0.0
 10
354.8285108109361
 20
164.2454306042458
 30
0.0
 10
354.4531154589965
 20
164.3203781962362
 30
0.0
 10
353.8796683981876
 20
164.4828198301156
 30
0.0
 10
353.2753218836003
 20
164.690034020665
 30
0.0
 10
352.6642080268399
 20
164.9474516075771
 30
0.0
 10
352.2132715746208
 20
165.1591863055878
 30
0.0
 10
351.9790514814517
 20
165.2942061005664
 30
0.0
 10
351.935666885592
 20
165.3192158218032
 30
0.0
  0
SPLINE
  5
1DA
330
1F
100
AcDbEntity
  8
0
  6
Continuous
 62
     7
370
    25
100
AcDbSpline
210
0.0
220
0.0
230
1.0
 70
     8
 71
     3
 72
    11
 73
     7
 74
     0
 42
0.000000001
 43
0.00000001
 40
0.0
 40
0.0
 40
0.0
 40
0.0
 40
0.1651869126770861
 40
0.5512816802139822
 40
0.9853111732184024
 40
1.0
 40
1.0
 40
1.0
 40
1.0
 10
356.1913863684907
 20
164.0997439052468
 30
0.0
 10
356.1252038795438
 20
164.0989003391115
 30
0.0
 10
355.9043316983519
 20
164.0960850885029
 30
0.0
 10
355.5124701557685
 20
164.1334959365645
 30
0.0
 10
355.1818700415432
 20
164.1724438989922
 30
0.0
 10
355.0101524199544
 20
164.2090886025321
 30
0.0
 10
355.0045312311425
 20
164.2102881695634
 30
0.0
  0
LINE
  5
1DB
330
1F
100
AcDbEntity
  8
0
  6
Continuous
 62
     7
370
    25
100
AcDbLine
 10
356.1913975444
 20
111.8760875787
 30
0.0
 11
392.0151115324
 21
111.8760875787
 31
0.0
  0
LINE
  5
1DC
330
1F
100
AcDbEntity
  8
0
  6
Continuous
 62
     7
370
    25
100
AcDbLine
 10
392.0151115324
 20
164.0959590103
 30
0.0
 11
356.1913975444
 21
164.0959590103
 31
0.0
  0
LINE
  5
1DD
330
1F
100
AcDbEntity
  8
0
  6
Continuous
 62
     7
370
    25
100
AcDbLine
 10
400.2131902542
 20
120.0741663005
 30
0.0
 11
400.2131902542
 21
155.8978802885
 31
0.0
  0
LINE
  5
1DE
330
1F
100
AcDbEntity
  8
0
  6
Continuous
 62
     7
370
    25
100
AcDbLine
 10
347.9933188226
 20
155.8978802885
 30
0.0
 11
347.9933188226
 21
120.0741663005
 31
0.0
  0
LINE
  5
1DF
330
1F
100
AcDbEntity
  8
0
  6
Continuous
 62
     7
370
    25
100
AcDbLine
 10
389.4204421829
 20
122.66883565
 30
0.0
 11
389.7431873646
 21
122.66883565
 31
0.0
  0
ARC
  5
1E0
330
1F
100
AcDbEntity
  8
0
  6
Continuous
 62
     7
370
    25
100
AcDbCircle
 10
388.9452898954
 20
123.1439879375
 30
0.0
 40
0.9286603618020174
100
AcDbArc
 50
300.7740287899
 51
329.2259712101
  0
LINE
  5
1E1
330
1F
100
AcDbEntity
  8
0
  6
Continuous
 62
     7
370
    25
100
AcDbLine
 10
389.4204421829
 20
122.66883565
 30
0.0
 11
389.4204421829
 21
122.3460904683
 31
0.0
  0
ARC
  5
1E2
330
1F
100
AcDbEntity
  8
0
  6
Continuous
 62
     7
370
    25
100
AcDbCircle
 10
359.2612191814
 20
123.1439879375
 30
0.0
 40
0.9286603618020904
100
AcDbArc
 50
210.7740287899
 51
239.2259712101
  0
LINE
  5
1E3
330
1F
100
AcDbEntity
  8
0
  6
Continuous
 62
     7
370
    25
100
AcDbLine
 10
358.7860668939
 20
122.66883565
 30
0.0
 11
358.4633217122
 21
122.66883565
 31
0.0
  0
LINE
  5
1E4
330
1F
100
AcDbEntity
  8
0
  6
Continuous
 62
     7
370
    25
100
AcDbLine
 10
358.7860668939
 20
122.66883565
 30
0.0
 11
358.7860668939
 21
122.3460904683
 31
0.0
  0
LINE
  5
1E5
330
1F
100
AcDbEntity
  8
0
  6
Continuous
 62
     7
370
    25
100
AcDbLine
 10
358.7860668939
 20
122.3460904683
 30
0.0
 11
389.4204421829
 21
122.3460904683
 31
0.0
  0
LINE
  5
1E6
330
1F
100
AcDbEntity
  8
0
  6
Continuous
 62
     7
370
    25
100
AcDbLine
 10
389.4204421829
 20
122.66883565
 30
0.0
 11
358.7860668939
 21
122.66883565
 31
0.0
  0
LINE
  5
1E7
330
1F
100
AcDbEntity
  8
0
  6
Continuous
 62
     7
370
    25
100
AcDbLine
 10
389.4204421829
 20
153.3032109391
 30
0.0
 11
389.7431873646
 21
153.3032109391
 31
0.0
  0
LINE
  5
1E8
330
1F
100
AcDbEntity
  8
0
  6
Continuous
 62
     7
370
    25
100
AcDbLine
 10
389.7431873646
 20
153.3032109391
 30
0.0
 11
389.7431873646
 21
122.66883565
 31
0.0
  0
LINE
  5
1E9
330
1F
100
AcDbEntity
  8
0
  6
Continuous
 62
     7
370
    25
100
AcDbLine
 10
389.4204421829
 20
122.66883565
 30
0.0
 11
389.4204421829
 21
153.3032109391
 31
0.0
  0
LINE
  5
1EA
330
1F
100
AcDbEntity
  8
0
  6
Continuous
 62
     7
370
    25
100
AcDbLine
 10
358.4633217122
 20
153.3032109391
 30
0.0
 11
358.4633217122
 21
122.66883565
 31
0.0
  0
LINE
  5
1EB
330
1F
100
AcDbEntity
  8
0
  6
Continuous
 62
     7
370
    25
100
AcDbLine
 10
358.7860668939
 20
153.3032109391
 30
0.0
 11
358.4633217122
 21
153.3032109391
 31
0.0
  0
LINE
  5
1EC
330
1F
100
AcDbEntity
  8
0
  6
Continuous
 62
     7
370
    25
100
AcDbLine
 10
358.7860668939
 20
122.66883565
 30
0.0
 11
358.7860668939
 21
153.3032109391
 31
0.0
  0
LINE
  5
1ED
330
1F
100
AcDbEntity
  8
0
  6
Continuous
 62
     7
370
    25
100
AcDbLine
 10
389.4204421829
 20
153.3032109391
 30
0.0
 11
358.7860668939
 21
153.3032109391
 31
0.0
  0
ARC
  5
1EE
330
1F
100
AcDbEntity
  8
0
  6
Continuous
 62
     7
370
    25
100
AcDbCircle
 10
359.2612191814
 20
152.8280586515
 30
0.0
 40
0.9286603618020977
100
AcDbArc
 50
120.7740287899
 51
149.2259712101
  0
LINE
  5
1EF
330
1F
100
AcDbEntity
  8
0
  6
Continuous
 62
     7
370
    25
100
AcDbLine
 10
358.7860668939
 20
153.3032109391
 30
0.0
 11
358.7860668939
 21
153.6259561207
 31
0.0
  0
LINE
  5
1F0
330
1F
100
AcDbEntity
  8
0
  6
Continuous
 62
     7
370
    25
100
AcDbLine
 10
389.4204421829
 20
153.3032109391
 30
0.0
 11
389.4204421829
 21
153.6259561207
 31
0.0
  0
ARC
  5
1F1
330
1F
100
AcDbEntity
  8
0
  6
Continuous
 62
     7
370
    25
100
AcDbCircle
 10
388.9452898954
 20
152.8280586515
 30
0.0
 40
0.9286603618020296
100
AcDbArc
 50
30.7740287899
 51
59.2259712101
  0
LINE
  5
1F2
330
1F
100
AcDbEntity
  8
0
  6
Continuous
 62
     7
370
    25
100
AcDbLine
 10
358.7860668939
 20
153.6259561207
 30
0.0
 11
389.4204421829
 21
153.6259561207
 31
0.0
  0
SPLINE
  5
1F3
330
1F
100
AcDbEntity
  8
0
  6
Continuous
 62
     7
370
    25
100
AcDbSpline
210
0.0
220
0.0
230
1.0
 70
     8
 71
     3
 72
    10
 73
     6
 74
     0
 42
0.000000001
 43
0.00000001
 40
0.0
 40
0.0
 40
0.0
 40
0.0
 40
0.5
 40
0.5
 40
1.0
 40
1.0
 40
1.0
 40
1.0
 10
340.9969303293807
 20
104.4974589051217
 30
0.0
 10
340.9050233405144
 20
104.5174602357678
 30
0.0
 10
340.8181278122405
 20
104.564165347435
 30
0.0
 10
340.6819077138339
 20
104.7001417964898
 30
0.0
 10
340.6346963958898
 20
104.7877695063039
 30
0.0
 10
340.6146901490064
 20
104.8796990854959
 30
0.0
  0
LWPOLYLINE
  5
1F4
330
1F
100
AcDbEntity
  8
0
  6
Continuous
 62
     7
370
    25
100
AcDbPolyline
 90
        7
 70
   128
 43
0.0
 10
358.4633217122
 20
122.66883565
 10
355.2832257863
 20
119.4993391063
 10
352.1820594486
 20
116.4085104491
 10
349.1622739401
 20
113.398790675
 10
346.2262497213
 20
110.4725527938
 10
343.3763057854
 20
107.6321083482
 10
340.6146903451
 20
104.8796999629
  0
LWPOLYLINE
  5
1F5
330
1F
100
AcDbEntity
  8
0
  6
Continuous
 62
     7
370
    25
100
AcDbPolyline
 90
        7
 70
   128
 43
0.0
 10
340.9969312068
 20
104.4974591013
 10
343.7493395921
 20
107.2590745415
 10
346.5897840377
 20
110.1090184774
 10
349.5160219189
 20
113.0450426962
 10
352.525741693
 20
116.0648282047
 10
355.6165703501
 20
119.1659945424
 10
358.7860668939
 20
122.3460904683
  0
LWPOLYLINE
  5
1F6
330
1F
100
AcDbEntity
  8
0
  6
Continuous
 62
     7
370
    25
100
AcDbPolyline
 90
        7
 70
   128
 43
0.0
 10
389.7431873646
 20
122.66883565
 10
392.9232832905
 20
119.4993391063
 10
396.0244496282
 20
116.4085104491
 10
399.0442351367
 20
113.398790675
 10
401.9802593555
 20
110.4725527938
 10
404.8302032914
 20
107.6321083482
 10
407.5918187316
 20
104.8796999629
  0
SPLINE
  5
1F7
330
1F
100
AcDbEntity
  8
0
  6
Continuous
 62
     7
370
    25
100
AcDbSpline
210
0.0
220
0.0
230
1.0
 70
     8
 71
     3
 72
    10
 73
     6
 74
     0
 42
0.000000001
 43
0.00000001
 40
0.0
 40
0.0
 40
0.0
 40
0.0
 40
0.5
 40
0.5
 40
1.0
 40
1.0
 40
1.0
 40
1.0
 10
407.2095787474082
 20
104.4974589051217
 30
0.0
 10
407.3014857362745
 20
104.5174602357678
 30
0.0
 10
407.3883812645483
 20
104.564165347435
 30
0.0
 10
407.5246013629549
 20
104.7001417964898
 30
0.0
 10
407.571812680899
 20
104.7877695063039
 30
0.0
 10
407.5918189277824
 20
104.8796990854959
 30
0.0
  0
LWPOLYLINE
  5
1F8
330
1F
100
AcDbEntity
  8
0
  6
Continuous
 62
     7
370
    25
100
AcDbPolyline
 90
        7
 70
   128
 43
0.0
 10
407.20957787
 20
104.4974591013
 10
404.4571694847
 20
107.2590745415
 10
401.6167250391
 20
110.1090184774
 10
398.6904871579
 20
113.0450426962
 10
395.6807673838
 20
116.0648282047
 10
392.5899387266
 20
119.1659945424
 10
389.4204421829
 20
122.3460904683
  0
LWPOLYLINE
  5
1F9
330
1F
100
AcDbEntity
  8
0
  6
Continuous
 62
     7
370
    25
100
AcDbPolyline
 90
        7
 70
   128
 43
0.0
 10
389.4204421829
 20
153.6259561207
 10
392.5899387266
 20
156.8060520466
 10
395.6807673838
 20
159.9072183843
 10
398.6904871579
 20
162.9270038928
 10
401.6167250391
 20
165.8630281116
 10
404.4571694847
 20
168.7129720475
 10
407.20957787
 20
171.4745874878
  0
SPLINE
  5
1FA
330
1F
100
AcDbEntity
  8
0
  6
Continuous
 62
     7
370
    25
100
AcDbSpline
210
0.0
220
0.0
230
1.0
 70
     8
 71
     3
 72
    10
 73
     6
 74
     0
 42
0.000000001
 43
0.00000001
 40
0.0
 40
0.0
 40
0.0
 40
0.0
 40
0.5
 40
0.5
 40
1.0
 40
1.0
 40
1.0
 40
1.0
 10
407.5918189277822
 20
171.0923475035223
 30
0.0
 10
407.5718175971361
 20
171.1842544923886
 30
0.0
 10
407.5251124854689
 20
171.2711500206625
 30
0.0
 10
407.3891360364141
 20
171.4073701190691
 30
0.0
 10
407.3015083266001
 20
171.4545814370132
 30
0.0
 10
407.209578747408
 20
171.4745876838966
 30
0.0
  0
LWPOLYLINE
  5
1FB
330
1F
100
AcDbEntity
  8
0
  6
Continuous
 62
     7
370
    25
100
AcDbPolyline
 90
        7
 70
   128
 43
0.0
 10
407.5918187316
 20
171.0923466261
 10
404.8302032914
 20
168.3399382408
 10
401.9802593555
 20
165.4994937952
 10
399.0442351367
 20
162.573255914
 10
396.0244496282
 20
159.5635361399
 10
392.9232832905
 20
156.4727074828
 10
389.7431873646
 20
153.3032109391
  0
SPLINE
  5
1FC
330
1F
100
AcDbEntity
  8
0
  6
Continuous
 62
     7
370
    25
100
AcDbSpline
210
0.0
220
0.0
230
1.0
 70
     8
 71
     3
 72
    10
 73
     6
 74
     0
 42
0.000000001
 43
0.00000001
 40
0.0
 40
0.0
 40
0.0
 40
0.0
 40
0.5
 40
0.5
 40
1.0
 40
1.0
 40
1.0
 40
1.0
 10
340.6146901490067
 20
171.0923475035223
 30
0.0
 10
340.6346914796527
 20
171.1842544923886
 30
0.0
 10
340.6813965913199
 20
171.2711500206625
 30
0.0
 10
340.8173730403746
 20
171.407370119069
 30
0.0
 10
340.9050007501888
 20
171.4545814370132
 30
0.0
 10
340.9969303293808
 20
171.4745876838966
 30
0.0
  0
LWPOLYLINE
  5
1FD
330
1F
100
AcDbEntity
  8
0
  6
Continuous
 62
     7
370
    25
100
AcDbPolyline
 90
        7
 70
   128
 43
0.0
 10
358.7860668939
 20
153.6259561207
 10
355.6165703501
 20
156.8060520466
 10
352.525741693
 20
159.9072183843
 10
349.5160219189
 20
162.9270038928
 10
346.5897840377
 20
165.8630281116
 10
343.7493395921
 20
168.7129720475
 10
340.9969312068
 20
171.4745874878
  0
LWPOLYLINE
  5
1FE
330
1F
100
AcDbEntity
  8
0
  6
Continuous
 62
     7
370
    25
100
AcDbPolyline
 90
        7
 70
   128
 43
0.0
 10
340.6146903451
 20
171.0923466261
 10
343.3763057854
 20
168.3399382408
 10
346.2262497213
 20
165.4994937952
 10
349.1622739401
 20
162.573255914
 10
352.1820594486
 20
159.5635361399
 10
355.2832257863
 20
156.4727074828
 10
358.4633217122
 20
153.3032109391
  0
SPLINE
  5
1FF
330
1F
100
AcDbEntity
  8
0
  6
Continuous
 62
     7
370
    25
100
AcDbSpline
210
0.0
220
0.0
230
1.0
 70
     8
 71
     3
 72
     8
 73
     4
 74
     0
 42
0.000000001
 43
0.00000001
 40
0.0
 40
0.0
 40
0.0
 40
0.0
 40
1.0
 40
1.0
 40
1.0
 40
1.0
 10
407.1032545383948
 20
104.4860232945094
 30
0.0
 10
407.1396826348884
 20
104.4860232945094
 30
0.0
 10
407.1750931541579
 20
104.4899539508018
 30
0.0
 10
407.2095787474082
 20
104.4974589051218
 30
0.0
  0
LINE
  5
200
330
1F
100
AcDbEntity
  8
0
  6
Continuous
 62
     7
370
    25
100
AcDbLine
 10
407.1032543596
 20
104.48602246
 30
0.0
 11
399.2356666293
 21
104.48602246
 31
0.0
  0
SPLINE
  5
201
330
1F
100
AcDbEntity
  8
0
  6
Continuous
 62
     7
370
    25
100
AcDbSpline
210
0.0
220
0.0
230
1.0
 70
     8
 71
     3
 72
    15
 73
    11
 74
     0
 42
0.000000001
 43
0.00000001
 40
0.0
 40
0.0
 40
0.0
 40
0.0
 40
0.0366544934720475
 40
0.0871579041586905
 40
0.1572131609289032
 40
0.2489463905797058
 40
0.3632806975660135
 40
0.5006844238500492
 40
0.732009449644403
 40
1.0
 40
1.0
 40
1.0
 40
1.0
 10
399.0258427821881
 20
104.5088495322304
 30
0.0
 10
399.0269474737477
 20
104.5072443884025
 30
0.0
 10
399.0295742349427
 20
104.5034276402043
 30
0.0
 10
399.0400807827917
 20
104.4996739865211
 30
0.0
 10
399.0543640150729
 20
104.4961977875702
 30
0.0
 10
399.0740424876549
 20
104.4932418537152
 30
0.0
 10
399.0986795664905
 20
104.4906826388348
 30
0.0
 10
399.1336237943823
 20
104.4882069414949
 30
0.0
 10
399.1798586924914
 20
104.4863401570061
 30
0.0
 10
399.2161755160508
 20
104.4861339624044
 30
0.0
 10
399.235667328439
 20
104.4860232945073
 30
0.0
  0
SPLINE
  5
202
330
1F
100
AcDbEntity
  8
0
  6
Continuous
 62
     7
370
    25
100
AcDbSpline
210
0.0
220
0.0
230
1.0
 70
     8
 71
     3
 72
    22
 73
    18
 74
     0
 42
0.000000001
 43
0.00000001
 40
0.0
 40
0.0
 40
0.0
 40
0.0
 40
0.0325259511926366
 40
0.064208985656959
 40
0.0951661513542805
 40
0.1255228937079054
 40
0.1892929145351341
 40
0.2511546079669834
 40
0.3135960922929605
 40
0.3763319668218867
 40
0.5005501411304702
 40
0.6257863658455369
 40
0.6870077499791845
 40
0.7511718398813224
 40
0.8301990056883172
 40
0.9129639607690202
 40
1.0
 40
1.0
 40
1.0
 40
1.0
 10
399.0258427821881
 20
104.5088495322305
 30
0.0
 10
399.0778203608034
 20
104.5171252690964
 30
0.0
 10
399.1804285083724
 20
104.5334622754018
 30
0.0
 10
399.3293995415788
 20
104.5648978508223
 30
0.0
 10
399.4719052112421
 20
104.6010572098849
 30
0.0
 10
399.6581828681003
 20
104.6577641535262
 30
0.0
 10
399.8784785816941
 20
104.7442571527225
 30
0.0
 10
400.1148944114292
 20
104.8748401270558
 30
0.0
 10
400.3132133221493
 20
105.02873120592
 30
0.0
 10
400.5187453446561
 20
105.2608419284805
 30
0.0
 10
400.6595479917302
 20
105.5886016230262
 30
0.0
 10
400.6619827503277
 20
105.9263120669729
 30
0.0
 10
400.6034717098577
 20
106.1947865650701
 30
0.0
 10
400.5269156371109
 20
106.4108048374598
 30
0.0
 10
400.4113092049951
 20
106.6444459410493
 30
0.0
 10
400.25343341208
 20
106.8950263163005
 30
0.0
 10
400.1220118228739
 20
107.0589677400896
 30
0.0
 10
400.0546481737957
 20
107.1430002997948
 30
0.0
  0
LINE
  5
203
330
1F
100
AcDbEntity
  8
0
  6
Continuous
 62
     7
370
    25
100
AcDbLine
 10
398.5330414887
 20
108.9575889881
 30
0.0
 11
400.054647487
 21
107.1430000837
 31
0.0
  0
SPLINE
  5
204
330
1F
100
AcDbEntity
  8
0
  6
Continuous
 62
     7
370
    25
100
AcDbSpline
210
0.0
220
0.0
230
1.0
 70
     8
 71
     3
 72
    24
 73
    20
 74
     0
 42
0.000000001
 43
0.00000001
 40
0.0
 40
0.0
 40
0.0
 40
0.0
 40
0.0303906657397591
 40
0.0613404321352432
 40
0.0928866537095127
 40
0.1250646078262478
 40
0.1865868329955943
 40
0.249548462646803
 40
0.3118633435078123
 40
0.3748138571568626
 40
0.4994054106897741
 40
0.6239837299341741
 40
0.6875750540777446
 40
0.7493115045116231
 40
0.8131487532009646
 40
0.8740703506903998
 40
0.9180038068586295
 40
0.9599058325572288
 40
1.0
 40
1.0
 40
1.0
 40
1.0
 10
398.5330420928316
 20
108.9575895394566
 30
0.0
 10
398.4917238216894
 20
109.0056816407896
 30
0.0
 10
398.4083271423064
 20
109.102750599506
 30
0.0
 10
398.2723351799351
 20
109.2460169830278
 30
0.0
 10
398.1270721300338
 20
109.389181233823
 30
0.0
 10
397.9256945100864
 20
109.5743793167774
 30
0.0
 10
397.6585740045634
 20
109.7986017029078
 30
0.0
 10
397.3184526092975
 20
110.0538585629462
 30
0.0
 10
396.9563351109869
 20
110.2988870337477
 30
0.0
 10
396.4518931326141
 20
110.6073736288224
 30
0.0
 10
395.7807029540709
 20
110.9608839274957
 30
0.0
 10
395.0595689345349
 20
111.2675902164085
 30
0.0
 10
394.4567640179656
 20
111.4785920434585
 30
0.0
 10
393.9872424517452
 20
111.6188726724209
 30
0.0
 10
393.512063003883
 20
111.7355268543309
 30
0.0
 10
393.0718158164709
 20
111.8180804489384
 30
0.0
 10
392.682466682009
 20
111.8695849086685
 30
0.0
 10
392.3446916493329
 20
111.8989171720708
 30
0.0
 10
392.1233442815483
 20
111.9027192953245
 30
0.0
 10
392.0151107393926
 20
111.9045784422012
 30
0.0
  0
LINE
  5
205
330
1F
100
AcDbEntity
  8
0
  6
Continuous
 62
     7
370
    25
100
AcDbLine
 10
392.0151115324
 20
111.9045785989
 30
0.0
 11
356.1913975444
 21
111.9045785989
 31
0.0
  0
SPLINE
  5
206
330
1F
100
AcDbEntity
  8
0
  6
Continuous
 62
     7
370
    25
100
AcDbSpline
210
0.0
220
0.0
230
1.0
 70
     8
 71
     3
 72
    20
 73
    16
 74
     0
 42
0.000000001
 43
0.00000001
 40
0.0
 40
0.0
 40
0.0
 40
0.0
 40
0.125
 40
0.125
 40
0.25
 40
0.25
 40
0.375
 40
0.375
 40
0.5
 40
0.5
 40
0.625
 40
0.625
 40
0.75
 40
0.75
 40
1.0
 40
1.0
 40
1.0
 40
1.0
 10
356.1913983373963
 20
111.9045784422013
 30
0.0
 10
355.8503245698201
 20
111.9045784422013
 30
0.0
 10
355.5104054020639
 20
111.8728067733226
 30
0.0
 10
354.8507131898356
 20
111.770181981647
 30
0.0
 10
354.5299806400968
 20
111.6992539955107
 30
0.0
 10
353.9021224506054
 20
111.5283296265085
 30
0.0
 10
353.5935253473928
 20
111.4275061506272
 30
0.0
 10
352.9991457438051
 20
111.2048009111505
 30
0.0
 10
352.7125675162974
 20
111.0828191171049
 30
0.0
 10
352.1584493593191
 20
110.8200437402247
 30
0.0
 10
351.8909284148594
 20
110.6792296317237
 30
0.0
 10
351.3749635237996
 20
110.3789946685888
 30
0.0
 10
351.126176844489
 20
110.2191664455536
 30
0.0
 10
350.4251303748084
 20
109.719751212599
 30
0.0
 10
350.0101556878203
 20
109.3591071903053
 30
0.0
 10
349.6734669839573
 20
108.9575895394569
 30
0.0
  0
LINE
  5
207
330
1F
100
AcDbEntity
  8
0
  6
Continuous
 62
     7
370
    25
100
AcDbLine
 10
349.673467588
 20
108.9575889881
 30
0.0
 11
348.1518615898
 21
107.1430000837
 31
0.0
  0
SPLINE
  5
208
330
1F
100
AcDbEntity
  8
0
  6
Continuous
 62
     7
370
    25
100
AcDbSpline
210
0.0
220
0.0
230
1.0
 70
     8
 71
     3
 72
    22
 73
    18
 74
     0
 42
0.000000001
 43
0.00000001
 40
0.0
 40
0.0
 40
0.0
 40
0.0
 40
0.2499999999999983
 40
0.2499999999999983
 40
0.4999999999999967
 40
0.4999999999999967
 40
0.6249999999999958
 40
0.6249999999999958
 40
0.6874999999999964
 40
0.6874999999999964
 40
0.7499999999999971
 40
0.7499999999999971
 40
0.8124999999999978
 40
0.8124999999999978
 40
0.8749999999999984
 40
0.8749999999999984
 40
1.0
 40
1.0
 40
1.0
 40
1.0
 10
348.1518609029932
 20
107.143000299795
 30
0.0
 10
347.9507661706115
 20
106.9031850531963
 30
0.0
 10
347.7864939911737
 20
106.6551361938192
 30
0.0
 10
347.5694445649079
 20
106.1337505362024
 30
0.0
 10
347.5175638904229
 20
105.8573581511294
 30
0.0
 10
347.6034680346479
 20
105.4560667802161
 30
0.0
 10
347.6585172606379
 20
105.3277830787077
 30
0.0
 10
347.7901722386158
 20
105.1453030646158
 30
0.0
 10
347.8426408730646
 20
105.0861495345083
 30
0.0
 10
347.9603363029228
 20
104.976730731571
 30
0.0
 10
348.026006684453
 20
104.9257392836727
 30
0.0
 10
348.1707938252546
 20
104.8310452390325
 30
0.0
 10
348.250727801866
 20
104.7870216611707
 30
0.0
 10
348.4187087116075
 20
104.7086822270716
 30
0.0
 10
348.5069037751161
 20
104.6741070432482
 30
0.0
 10
348.7827109111154
 20
104.5826048802075
 30
0.0
 10
348.9806182336027
 20
104.5385264613745
 30
0.0
 10
349.1806662946008
 20
104.5088495322307
 30
0.0
  0
SPLINE
  5
209
330
1F
100
AcDbEntity
  8
0
  6
Continuous
 62
     7
370
    25
100
AcDbSpline
210
0.0
220
0.0
230
1.0
 70
     8
 71
     3
 72
    15
 73
    11
 74
     0
 42
0.000000001
 43
0.00000001
 40
0.0
 40
0.0
 40
0.0
 40
0.0
 40
0.0348438307903311
 40
0.0848270758214272
 40
0.1549758327447356
 40
0.2471032350419909
 40
0.3620089991608359
 40
0.5001128069083504
 40
0.7499624924606059
 40
1.0
 40
1.0
 40
1.0
 40
1.0
 10
349.1806662946008
 20
104.5088495322307
 30
0.0
 10
349.1795739888881
 20
104.507335958074
 30
0.0
 10
349.1769147778484
 20
104.5036511717908
 30
0.0
 10
349.166533347682
 20
104.4999906912247
 30
0.0
 10
349.1523259793599
 20
104.4964282196388
 30
0.0
 10
349.1326372940334
 20
104.4933537672676
 30
0.0
 10
349.1079411559135
 20
104.4906821694511
 30
0.0
 10
349.0716048313288
 20
104.4881154484771
 30
0.0
 10
349.0253198846425
 20
104.4863481614933
 30
0.0
 10
348.9890056752116
 20
104.4861316106254
 30
0.0
 10
348.9708417483501
 20
104.4860232945093
 30
0.0
  0
LINE
  5
20A
330
1F
100
AcDbEntity
  8
0
  6
Continuous
 62
     7
370
    25
100
AcDbLine
 10
341.1032547172
 20
104.48602246
 30
0.0
 11
348.9708424475
 21
104.48602246
 31
0.0
  0
SPLINE
  5
20B
330
1F
100
AcDbEntity
  8
0
  6
Continuous
 62
     7
370
    25
100
AcDbSpline
210
0.0
220
0.0
230
1.0
 70
     8
 71
     3
 72
     8
 73
     4
 74
     0
 42
0.000000001
 43
0.00000001
 40
0.0
 40
0.0
 40
0.0
 40
0.0
 40
1.0
 40
1.0
 40
1.0
 40
1.0
 10
341.1032545383941
 20
104.4860232945094
 30
0.0
 10
341.0668264419004
 20
104.4860232945094
 30
0.0
 10
341.031415922631
 20
104.4899539508018
 30
0.0
 10
340.9969303293807
 20
104.4974589051218
 30
0.0
  0
SPLINE
  5
20C
330
1F
100
AcDbEntity
  8
0
  6
Continuous
 62
     7
370
    25
100
AcDbSpline
210
0.0
220
0.0
230
1.0
 70
     8
 71
     3
 72
     8
 73
     4
 74
     0
 42
0.000000001
 43
0.00000001
 40
0.0
 40
0.0
 40
0.0
 40
0.0
 40
1.0
 40
1.0
 40
1.0
 40
1.0
 10
340.6146901490068
 20
104.8796990854959
 30
0.0
 10
340.6071851946869
 20
104.9141846787462
 30
0.0
 10
340.6032545383941
 20
104.9495951980156
 30
0.0
 10
340.6032545383941
 20
104.9860232945094
 30
0.0
  0
LINE
  5
20D
330
1F
100
AcDbEntity
  8
0
  6
Continuous
 62
     7
370
    25
100
AcDbLine
 10
340.6032537039
 20
112.8536112036
 30
0.0
 11
340.6032537039
 21
104.9860234733
 31
0.0
  0
SPLINE
  5
20E
330
1F
100
AcDbEntity
  8
0
  6
Continuous
 62
     7
370
    25
100
AcDbSpline
210
0.0
220
0.0
230
1.0
 70
     8
 71
     3
 72
    15
 73
    11
 74
     0
 42
0.000000001
 43
0.00000001
 40
0.0
 40
0.0
 40
0.0
 40
0.0
 40
0.0368045401088294
 40
0.0873698824222843
 40
0.1574319117763406
 40
0.2491383810923295
 40
0.3634231986089563
 40
0.5007604366708994
 40
0.733539433986354
 40
0.9999999999999999
 40
0.9999999999999999
 40
0.9999999999999999
 40
0.9999999999999999
 10
340.6260807761159
 20
113.0634350507157
 30
0.0
 10
340.6244676709853
 20
113.0623296049187
 30
0.0
 10
340.6206383389198
 20
113.0597053996163
 30
0.0
 10
340.616866749805
 20
113.0491935092572
 30
0.0
 10
340.6133874863648
 20
113.0349047914976
 30
0.0
 10
340.6104364164512
 20
113.0152269150516
 30
0.0
 10
340.6078904754628
 20
112.9905928163172
 30
0.0
 10
340.605440303121
 20
112.9555413368201
 30
0.0
 10
340.6035790096645
 20
112.9093103500977
 30
0.0
 10
340.6033674530905
 20
112.8729938267643
 30
0.0
 10
340.6032545383927
 20
112.85361050446
 30
0.0
  0
SPLINE
  5
20F
330
1F
100
AcDbEntity
  8
0
  6
Continuous
 62
     7
370
    25
100
AcDbSpline
210
0.0
220
0.0
230
1.0
 70
     8
 71
     3
 72
    22
 73
    18
 74
     0
 42
0.000000001
 43
0.00000001
 40
0.0
 40
0.0
 40
0.0
 40
0.0
 40
0.0527195363273213
 40
0.1038382254145479
 40
0.1534610950227416
 40
0.2017029435882363
 40
0.2486886932216236
 40
0.3127780129218424
 40
0.3739709028239094
 40
0.4991018432489608
 40
0.6232243413210805
 40
0.6859021698364797
 40
0.7483259663485281
 40
0.8101302869078185
 40
0.8739033691646029
 40
0.9354654377815933
 40
1.0
 40
1.0
 40
1.0
 40
1.0
 10
343.2602315436803
 20
112.0346296591081
 30
0.0
 10
343.2095374734034
 20
111.9932618600912
 30
0.0
 10
343.1096886761016
 20
111.9117824098064
 30
0.0
 10
342.9582365786129
 20
111.8036719339582
 30
0.0
 10
342.8085621268638
 20
111.7085452608355
 30
0.0
 10
342.6603776324549
 20
111.6272046190391
 30
0.0
 10
342.4948367619851
 20
111.5506768124789
 30
0.0
 10
342.3128046246156
 20
111.486031373054
 30
0.0
 10
342.0445703072309
 20
111.4274197257729
 30
0.0
 10
341.7071197650719
 20
111.4295296249026
 30
0.0
 10
341.379550742304
 20
111.5696587603563
 30
0.0
 10
341.1474056868011
 20
111.7745357636445
 30
0.0
 10
340.9934406390116
 20
111.9723299966416
 30
0.0
 10
340.862579180123
 20
112.2083250645133
 30
0.0
 10
340.7588810350175
 20
112.4723908705813
 30
0.0
 10
340.6776927771016
 20
112.7597226249505
 30
0.0
 10
340.6435530367438
 20
112.9606189893825
 30
0.0
 10
340.626080776116
 20
113.0634350507157
 30
0.0
  0
LINE
  5
210
330
1F
100
AcDbEntity
  8
0
  6
Continuous
 62
     7
370
    25
100
AcDbLine
 10
345.074820232
 20
113.5562363442
 30
0.0
 11
343.2602313276
 21
112.0346303459
 31
0.0
  0
SPLINE
  5
211
330
1F
100
AcDbEntity
  8
0
  6
Continuous
 62
     7
370
    25
100
AcDbSpline
210
0.0
220
0.0
230
1.0
 70
     8
 71
     3
 72
    24
 73
    20
 74
     0
 42
0.000000001
 43
0.00000001
 40
0.0
 40
0.0
 40
0.0
 40
0.0
 40
0.0238518352116876
 40
0.0483249092422395
 40
0.0734715522717801
 40
0.0993400070457683
 40
0.1259745943841821
 40
0.1868742802220868
 40
0.2507533098942111
 40
0.3124716218814846
 40
0.3760941643905314
 40
0.5006769170035563
 40
0.6252656250133788
 40
0.6881921245349504
 40
0.7505197022402954
 40
0.813455981247956
 40
0.8749835089163899
 40
0.9386779481695847
 40
1.0
 40
1.0
 40
1.0
 40
1.0
 10
348.0218096860866
 20
120.0741670935111
 30
0.0
 10
348.0211522648737
 20
120.0097875036997
 30
0.0
 10
348.0198202994225
 20
119.8793515096943
 30
0.0
 10
348.0093467193946
 20
119.6815125005979
 30
0.0
 10
347.992729481454
 20
119.4791225323387
 30
0.0
 10
347.9693170619314
 20
119.2721790813989
 30
0.0
 10
347.9267487443201
 20
118.9721788114909
 30
0.0
 10
347.8527463565788
 20
118.5769999018582
 30
0.0
 10
347.7360412021441
 20
118.1018331222319
 30
0.0
 10
347.5957186343002
 20
117.6321800100491
 30
0.0
 10
347.3846805736766
 20
117.02934708517
 30
0.0
 10
347.077919217046
 20
116.3081585486898
 30
0.0
 10
346.7244096111302
 20
115.637048550476
 30
0.0
 10
346.4159311274618
 20
115.1326416296677
 30
0.0
 10
346.1709303833177
 20
114.7706441762416
 30
0.0
 10
345.9157195009412
 20
114.4304114658338
 30
0.0
 10
345.6462566745412
 20
114.1101005070278
 30
0.0
 10
345.3680258835524
 20
113.814376957051
 30
0.0
 10
345.1713114935886
 20
113.6411872956631
 30
0.0
 10
345.0748207833424
 20
113.5562357400718
 30
0.0
  0
LINE
  5
212
330
1F
100
AcDbEntity
  8
0
  6
Continuous
 62
     7
370
    25
100
AcDbLine
 10
348.0218098428
 20
120.0741663005
 30
0.0
 11
348.0218098428
 21
155.8978802885
 31
0.0
  0
SPLINE
  5
213
330
1F
100
AcDbEntity
  8
0
  6
Continuous
 62
     7
370
    25
100
AcDbSpline
210
0.0
220
0.0
230
1.0
 70
     8
 71
     3
 72
    11
 73
     7
 74
     0
 42
0.000000001
 43
0.00000001
 40
0.0
 40
0.0
 40
0.0
 40
0.0
 40
0.1891317498950256
 40
0.4421894418772087
 40
0.7924422578785076
 40
1.0
 40
1.0
 40
1.0
 40
1.0
 10
347.9473748173489
 20
156.7766334291106
 30
0.0
 10
347.9106383145819
 20
157.0224080192563
 30
0.0
 10
347.8247484855918
 20
157.5970282451275
 30
0.0
 10
347.5308815712924
 20
158.564638336057
 30
0.0
 10
347.1669806067005
 20
159.5105936543375
 30
0.0
 10
346.8401995723473
 20
160.0800969477414
 30
0.0
 10
346.7186064388528
 20
160.2920054818994
 30
0.0
  0
LINE
  5
214
330
1F
100
AcDbEntity
  8
0
  6
Continuous
 62
     7
370
    25
100
AcDbLine
 10
345.074820232
 20
162.4158102449
 30
0.0
 11
343.2602313276
 21
163.9374162431
 31
0.0
  0
SPLINE
  5
215
330
1F
100
AcDbEntity
  8
0
  6
Continuous
 62
     7
370
    25
100
AcDbSpline
210
0.0
220
0.0
230
1.0
 70
     8
 71
     3
 72
    22
 73
    18
 74
     0
 42
0.000000001
 43
0.00000001
 40
0.0
 40
0.0
 40
0.0
 40
0.0
 40
0.2500000000000016
 40
0.2500000000000016
 40
0.5000000000000032
 40
0.5000000000000032
 40
0.6250000000000039
 40
0.6250000000000039
 40
0.687500000000003
 40
0.687500000000003
 40
0.750000000000002
 40
0.750000000000002
 40
0.8125000000000011
 40
0.8125000000000011
 40
0.8750000000000002
 40
0.8750000000000002
 40
1.0
 40
1.0
 40
1.0
 40
1.0
 10
343.26023154368
 20
163.9374169299099
 30
0.0
 10
343.02052107024
 20
164.1384238057828
 30
0.0
 10
342.772593409755
 20
164.3026280144954
 30
0.0
 10
342.2515165045306
 20
164.5196723321806
 30
0.0
 10
341.9753389808656
 20
164.5716342968029
 30
0.0
 10
341.5742119314195
 20
164.4861249144907
 30
0.0
 10
341.4459685849044
 20
164.4312448026235
 30
0.0
 10
341.2635216937568
 20
164.29991886772
 30
0.0
 10
341.20435278141
 20
164.2475559288076
 30
0.0
 10
341.0948893828743
 20
164.1300634681943
 30
0.0
 10
341.043870478026
 20
164.064495244659
 30
0.0
 10
340.949112565668
 20
163.9199115458128
 30
0.0
 10
340.9050482731681
 20
163.8400753051409
 30
0.0
 10
340.8266048289976
 20
163.6722284042603
 30
0.0
 10
340.7919783781719
 20
163.5840941589303
 30
0.0
 10
340.7003248256684
 20
163.3084525091879
 30
0.0
 10
340.6560179614737
 20
163.1104139503254
 30
0.0
 10
340.6260807761154
 20
162.9086115383023
 30
0.0
  0
SPLINE
  5
216
330
1F
100
AcDbEntity
  8
0
  6
Continuous
 62
     7
370
    25
100
AcDbSpline
210
0.0
220
0.0
230
1.0
 70
     8
 71
     3
 72
    14
 73
    10
 74
     0
 42
0.000000001
 43
0.00000001
 40
0.0
 40
0.0
 40
0.0
 40
0.0
 40
0.1250000000000182
 40
0.1250000000000182
 40
0.2500000000000364
 40
0.2500000000000364
 40
0.500000000000026
 40
0.500000000000026
 40
1.0
 40
1.0
 40
1.0
 40
1.0
 10
340.6260807761157
 20
162.9086115383022
 30
0.0
 10
340.6201358917079
 20
162.9102274566741
 30
0.0
 10
340.6175305404201
 20
162.9207792647311
 30
0.0
 10
340.613395442488
 20
162.9379038255189
 30
0.0
 10
340.6120131022861
 20
162.9467179591662
 30
0.0
 10
340.6084920134245
 20
162.9733904451202
 30
0.0
 10
340.6070917990336
 20
162.9915277599615
 30
0.0
 10
340.6039118761112
 20
163.0457819578619
 30
0.0
 10
340.6032545383924
 20
163.082080102222
 30
0.0
 10
340.6032545383925
 20
163.1184360845532
 30
0.0
  0
LINE
  5
217
330
1F
100
AcDbEntity
  8
0
  6
Continuous
 62
     7
370
    25
100
AcDbLine
 10
340.6032537039
 20
170.9860231157
 30
0.0
 11
340.6032537039
 21
163.1184353854
 31
0.0
  0
SPLINE
  5
218
330
1F
100
AcDbEntity
  8
0
  6
Continuous
 62
     7
370
    25
100
AcDbSpline
210
0.0
220
0.0
230
1.0
 70
     8
 71
     3
 72
     8
 73
     4
 74
     0
 42
0.000000001
 43
0.00000001
 40
0.0
 40
0.0
 40
0.0
 40
0.0
 40
1.0
 40
1.0
 40
1.0
 40
1.0
 10
340.6032545383943
 20
170.9860232945089
 30
0.0
 10
340.6032545383943
 20
171.0224513910026
 30
0.0
 10
340.6071851946867
 20
171.057861910272
 30
0.0
 10
340.6146901490067
 20
171.0923475035223
 30
0.0
  0
SPLINE
  5
219
330
1F
100
AcDbEntity
  8
0
  6
Continuous
 62
     7
370
    25
100
AcDbSpline
210
0.0
220
0.0
230
1.0
 70
     8
 71
     3
 72
     8
 73
     4
 74
     0
 42
0.000000001
 43
0.00000001
 40
0.0
 40
0.0
 40
0.0
 40
0.0
 40
1.0
 40
1.0
 40
1.0
 40
1.0
 10
407.6032545383946
 20
170.9860232945089
 30
0.0
 10
407.6032545383946
 20
171.0224513910026
 30
0.0
 10
407.5993238821021
 20
171.057861910272
 30
0.0
 10
407.5918189277822
 20
171.0923475035223
 30
0.0
  0
LINE
  5
21A
330
1F
100
AcDbEntity
  8
0
  6
Continuous
 62
     7
370
    25
100
AcDbLine
 10
407.6032553729
 20
170.9860231157
 30
0.0
 11
407.6032553729
 21
163.1184353854
 31
0.0
  0
SPLINE
  5
21B
330
1F
100
AcDbEntity
  8
0
  6
Continuous
 62
     7
370
    25
100
AcDbSpline
210
0.0
220
0.0
230
1.0
 70
     8
 71
     3
 72
    15
 73
    11
 74
     0
 42
0.000000001
 43
0.00000001
 40
0.0
 40
0.0
 40
0.0
 40
0.0
 40
0.0368045401036968
 40
0.0873698824154928
 40
0.1574319117698904
 40
0.2491383810872839
 40
0.3634231986063346
 40
0.5007604366713445
 40
0.7335394339468347
 40
1.0
 40
1.0
 40
1.0
 40
1.0
 10
407.5804283006732
 20
162.9086115383022
 30
0.0
 10
407.5820414058035
 20
162.9097169840992
 30
0.0
 10
407.5858707378684
 20
162.9123411894017
 30
0.0
 10
407.5896423269827
 20
162.9228530797603
 30
0.0
 10
407.5931215904227
 20
162.9371417975195
 30
0.0
 10
407.5960726603365
 20
162.9568196739652
 30
0.0
 10
407.5986186013253
 20
162.9814537726994
 30
0.0
 10
407.6010687736679
 20
163.0165052521928
 30
0.0
 10
407.6029300671246
 20
163.0627362389141
 30
0.0
 10
407.6031416236985
 20
163.0990527622465
 30
0.0
 10
407.6032545383964
 20
163.1184360845532
 30
0.0
  0
SPLINE
  5
21C
330
1F
100
AcDbEntity
  8
0
  6
Continuous
 62
     7
370
    25
100
AcDbSpline
210
0.0
220
0.0
230
1.0
 70
     8
 71
     3
 72
    22
 73
    18
 74
     0
 42
0.000000001
 43
0.00000001
 40
0.0
 40
0.0
 40
0.0
 40
0.0
 40
0.0527342971460025
 40
0.1038667666262179
 40
0.1535025287916025
 40
0.201756486632074
 40
0.2487536793114839
 40
0.3128603633874875
 40
0.3740688608659004
 40
0.4992325509812718
 40
0.6233871133935533
 40
0.6860791936075068
 40
0.7485205802707826
 40
0.8103398084646997
 40
0.8741316884243346
 40
0.9355847563519217
 40
0.9999999999999999
 40
0.9999999999999999
 40
0.9999999999999999
 40
0.9999999999999999
 10
404.9462775331089
 20
163.9374169299099
 30
0.0
 10
404.9969858450614
 20
163.9787960472428
 30
0.0
 10
405.0968621814997
 20
164.0602973728663
 30
0.0
 10
405.2483563595106
 20
164.1684326518177
 30
0.0
 10
405.3980715994666
 20
164.2635765824454
 30
0.0
 10
405.5462957528359
 20
164.3449265031252
 30
0.0
 10
405.7118821435416
 20
164.4214568777225
 30
0.0
 10
405.8939648026711
 20
164.4860931383128
 30
0.0
 10
406.1622736824168
 20
164.5446660158067
 30
0.0
 10
406.4998129767728
 20
164.5424508780183
 30
0.0
 10
406.827436126555
 20
164.4021055445865
 30
0.0
 10
407.0595777802993
 20
164.1970087829208
 30
0.0
 10
407.2135144033101
 20
163.9990417969867
 30
0.0
 10
407.3443285807804
 20
163.7628739584652
 30
0.0
 10
407.4478944114456
 20
163.4988293959792
 30
0.0
 10
407.5289218174855
 20
163.2117730042409
 30
0.0
 10
407.5629922029502
 20
163.011238481919
 30
0.0
 10
407.5804283006734
 20
162.9086115383023
 30
0.0
  0
LINE
  5
21D
330
1F
100
AcDbEntity
  8
0
  6
Continuous
 62
     7
370
    25
100
AcDbLine
 10
403.1316888448
 20
162.4158102449
 30
0.0
 11
404.9462777492
 21
163.9374162431
 31
0.0
  0
SPLINE
  5
21E
330
1F
100
AcDbEntity
  8
0
  6
Continuous
 62
     7
370
    25
100
AcDbSpline
210
0.0
220
0.0
230
1.0
 70
     8
 71
     3
 72
    24
 73
    20
 74
     0
 42
0.000000001
 43
0.00000001
 40
0.0
 40
0.0
 40
0.0
 40
0.0
 40
0.0238518352146371
 40
0.048324909246662
 40
0.0734715522761986
 40
0.0993400070487234
 40
0.1259745943842349
 40
0.186874280219528
 40
0.2507533098941624
 40
0.312471621893441
 40
0.3760941643905827
 40
0.5006769170035814
 40
0.6252656250133888
 40
0.6881921244425844
 40
0.7505197022402275
 40
0.813455981256272
 40
0.8749835089166755
 40
0.9386779482242033
 40
1.0
 40
1.0
 40
1.0
 40
1.0
 10
400.1846993907024
 20
155.8978794955069
 30
0.0
 10
400.1853568119153
 20
155.9622590853263
 30
0.0
 10
400.1866887773663
 20
156.0926950793436
 30
0.0
 10
400.197162357394
 20
156.290534088452
 30
0.0
 10
400.2137795953344
 20
156.4929240567113
 30
0.0
 10
400.2371920148569
 20
156.6998675076393
 30
0.0
 10
400.2797603324708
 20
156.9998677775274
 30
0.0
 10
400.353762720217
 20
157.3950466871496
 30
0.0
 10
400.4704678746527
 20
157.8702134668087
 30
0.0
 10
400.6107904424823
 20
158.3398665790091
 30
0.0
 10
400.8218285031331
 20
158.942699503869
 30
0.0
 10
401.1285898597407
 20
159.6638880403294
 30
0.0
 10
401.4820994655522
 20
160.3349980383462
 30
0.0
 10
401.7905779492144
 20
160.8394049591623
 30
0.0
 10
402.0355786933648
 20
161.2014024126099
 30
0.0
 10
402.2907895758208
 20
161.5416351232639
 30
0.0
 10
402.5602524023432
 20
161.8619460820873
 30
0.0
 10
402.8384831933362
 20
162.1576696320126
 30
0.0
 10
403.0351975832907
 20
162.3308592934205
 30
0.0
 10
403.1316882934466
 20
162.4158108489462
 30
0.0
  0
LINE
  5
21F
330
1F
100
AcDbEntity
  8
0
  6
Continuous
 62
     7
370
    25
100
AcDbLine
 10
400.184699234
 20
120.0741663005
 30
0.0
 11
400.184699234
 21
155.8978802885
 31
0.0
  0
SPLINE
  5
220
330
1F
100
AcDbEntity
  8
0
  6
Continuous
 62
     7
370
    25
100
AcDbSpline
210
0.0
220
0.0
230
1.0
 70
     8
 71
     3
 72
    20
 73
    16
 74
     0
 42
0.000000001
 43
0.00000001
 40
0.0
 40
0.0
 40
0.0
 40
0.0
 40
0.125
 40
0.125
 40
0.2500000000000001
 40
0.2500000000000001
 40
0.3750000000000001
 40
0.3750000000000001
 40
0.5000000000000001
 40
0.5000000000000001
 40
0.6250000000000001
 40
0.6250000000000001
 40
0.7500000000000002
 40
0.7500000000000002
 40
1.0
 40
1.0
 40
1.0
 40
1.0
 10
400.1846993907023
 20
120.0741670935111
 30
0.0
 10
400.1846993907023
 20
119.7330933259349
 30
0.0
 10
400.2164710595811
 20
119.3931741581788
 30
0.0
 10
400.3190958512566
 20
118.7334819459504
 30
0.0
 10
400.390023837393
 20
118.4127493962117
 30
0.0
 10
400.5609482063952
 20
117.7848912067202
 30
0.0
 10
400.6617716822765
 20
117.4762941035077
 30
0.0
 10
400.8844769217532
 20
116.88191449992
 30
0.0
 10
401.0064587157987
 20
116.5953362724123
 30
0.0
 10
401.269234092679
 20
116.041218115434
 30
0.0
 10
401.41004820118
 20
115.7736971709743
 30
0.0
 10
401.7102831643148
 20
115.2577322799145
 30
0.0
 10
401.8701113873501
 20
115.0089456006039
 30
0.0
 10
402.3695266203047
 20
114.3078991309233
 30
0.0
 10
402.7301706425984
 20
113.8929244439351
 30
0.0
 10
403.1316882934468
 20
113.5562357400722
 30
0.0
  0
LINE
  5
221
330
1F
100
AcDbEntity
  8
0
  6
Continuous
 62
     7
370
    25
100
AcDbLine
 10
403.1316888448
 20
113.5562363442
 30
0.0
 11
404.9462777492
 21
112.0346303459
 31
0.0
  0
SPLINE
  5
222
330
1F
100
AcDbEntity
  8
0
  6
Continuous
 62
     7
370
    25
100
AcDbSpline
210
0.0
220
0.0
230
1.0
 70
     8
 71
     3
 72
    22
 73
    18
 74
     0
 42
0.000000001
 43
0.00000001
 40
0.0
 40
0.0
 40
0.0
 40
0.0
 40
0.2499999999999985
 40
0.2499999999999985
 40
0.499999999999997
 40
0.499999999999997
 40
0.6249999999999962
 40
0.6249999999999962
 40
0.6874999999999971
 40
0.6874999999999971
 40
0.7499999999999979
 40
0.7499999999999979
 40
0.8124999999999988
 40
0.8124999999999988
 40
0.8749999999999997
 40
0.8749999999999997
 40
1.0
 40
1.0
 40
1.0
 40
1.0
 10
404.9462775331087
 20
112.0346296591081
 30
0.0
 10
405.1860927797074
 20
111.8335349267264
 30
0.0
 10
405.4341416390845
 20
111.6692627472886
 30
0.0
 10
405.9555272967013
 20
111.4522133210229
 30
0.0
 10
406.2319196817743
 20
111.4003326465378
 30
0.0
 10
406.6332110526876
 20
111.4862367907629
 30
0.0
 10
406.7614947541961
 20
111.5412860167528
 30
0.0
 10
406.9439747682879
 20
111.6729409947308
 30
0.0
 10
407.0031282983954
 20
111.7254096291796
 30
0.0
 10
407.1125471013328
 20
111.8431050590377
 30
0.0
 10
407.163538549231
 20
111.908775440568
 30
0.0
 10
407.2582325938712
 20
112.0535625813695
 30
0.0
 10
407.302256171733
 20
112.133496557981
 30
0.0
 10
407.3805956058321
 20
112.3014774677225
 30
0.0
 10
407.4151707896555
 20
112.389672531231
 30
0.0
 10
407.5066729526962
 20
112.6654796672304
 30
0.0
 10
407.5507513715292
 20
112.8633869897176
 30
0.0
 10
407.580428300673
 20
113.0634350507157
 30
0.0
  0
SPLINE
  5
223
330
1F
100
AcDbEntity
  8
0
  6
Continuous
 62
     7
370
    25
100
AcDbSpline
210
0.0
220
0.0
230
1.0
 70
     8
 71
     3
 72
    15
 73
    11
 74
     0
 42
0.000000001
 43
0.00000001
 40
0.0
 40
0.0
 40
0.0
 40
0.0
 40
0.0348438304722532
 40
0.0848270753710119
 40
0.1549758322775243
 40
0.2471032346311767
 40
0.362008998859137
 40
0.5001128067578545
 40
0.749962492385317
 40
0.9999999999999999
 40
0.9999999999999999
 40
0.9999999999999999
 40
0.9999999999999999
 10
407.580428300673
 20
113.0634350507157
 30
0.0
 10
407.5819418748139
 20
113.0623427450048
 30
0.0
 10
407.5856266610728
 20
113.0596835339592
 30
0.0
 10
407.5892871416136
 20
113.0493021038069
 30
0.0
 10
407.5928496132037
 20
113.0350947354971
 30
0.0
 10
407.5959240655908
 20
113.0154060501698
 30
0.0
 10
407.598595663431
 20
112.9907099120428
 30
0.0
 10
407.6011623844374
 20
112.9543735874555
 30
0.0
 10
407.602929671407
 20
112.9080886407563
 30
0.0
 10
407.6031462222772
 20
112.8717744313262
 30
0.0
 10
407.6032545383944
 20
112.853610504465
 30
0.0
  0
LINE
  5
224
330
1F
100
AcDbEntity
  8
0
  6
Continuous
 62
     7
370
    25
100
AcDbLine
 10
407.6032553729
 20
112.8536112036
 30
0.0
 11
407.6032553729
 21
104.9860234733
 31
0.0
  0
SPLINE
  5
225
330
1F
100
AcDbEntity
  8
0
  6
Continuous
 62
     7
370
    25
100
AcDbSpline
210
0.0
220
0.0
230
1.0
 70
     8
 71
     3
 72
     8
 73
     4
 74
     0
 42
0.000000001
 43
0.00000001
 40
0.0
 40
0.0
 40
0.0
 40
0.0
 40
1.0
 40
1.0
 40
1.0
 40
1.0
 10
407.5918189277824
 20
104.879699085496
 30
0.0
 10
407.5993238821023
 20
104.9141846787463
 30
0.0
 10
407.6032545383947
 20
104.9495951980156
 30
0.0
 10
407.6032545383948
 20
104.9860232945093
 30
0.0
  0
SPLINE
  5
226
330
1F
100
AcDbEntity
  8
0
  6
Continuous
 62
     7
370
    25
100
AcDbSpline
210
0.0
220
0.0
230
1.0
 70
     8
 71
     3
 72
    20
 73
    16
 74
     0
 42
0.000000001
 43
0.00000001
 40
0.0
 40
0.0
 40
0.0
 40
0.0
 40
0.1249999999999998
 40
0.1249999999999998
 40
0.2499999999999997
 40
0.2499999999999997
 40
0.3749999999999995
 40
0.3749999999999995
 40
0.4999999999999993
 40
0.4999999999999993
 40
0.6249999999999991
 40
0.6249999999999991
 40
0.749999999999999
 40
0.749999999999999
 40
1.0
 40
1.0
 40
1.0
 40
1.0
 10
392.0151107393924
 20
164.0674681468169
 30
0.0
 10
392.3561845069686
 20
164.0674681468169
 30
0.0
 10
392.6961036747248
 20
164.0992398156956
 30
0.0
 10
393.3557958869531
 20
164.2018646073712
 30
0.0
 10
393.6765284366919
 20
164.2727925935075
 30
0.0
 10
394.3043866261833
 20
164.4437169625098
 30
0.0
 10
394.6129837293959
 20
164.5445404383911
 30
0.0
 10
395.2073633329835
 20
164.7672456778677
 30
0.0
 10
395.4939415604913
 20
164.8892274719133
 30
0.0
 10
396.0480597174696
 20
165.1520028487936
 30
0.0
 10
396.3155806619292
 20
165.2928169572945
 30
0.0
 10
396.831545552989
 20
165.5930519204294
 30
0.0
 10
397.0803322322997
 20
165.7528801434646
 30
0.0
 10
397.7813787019803
 20
166.2522953764192
 30
0.0
 10
398.1963533889684
 20
166.6129393987129
 30
0.0
 10
398.5330420928314
 20
167.0144570495614
 30
0.0
  0
LINE
  5
227
330
1F
100
AcDbEntity
  8
0
  6
Continuous
 62
     7
370
    25
100
AcDbLine
 10
398.5330414887
 20
167.0144576009
 30
0.0
 11
400.054647487
 21
168.8290465053
 31
0.0
  0
SPLINE
  5
228
330
1F
100
AcDbEntity
  8
0
  6
Continuous
 62
     7
370
    25
100
AcDbSpline
210
0.0
220
0.0
230
1.0
 70
     8
 71
     3
 72
    22
 73
    18
 74
     0
 42
0.000000001
 43
0.00000001
 40
0.0
 40
0.0
 40
0.0
 40
0.0
 40
0.2500000000000011
 40
0.2500000000000011
 40
0.5000000000000022
 40
0.5000000000000022
 40
0.6250000000000026
 40
0.6250000000000026
 40
0.6875000000000019
 40
0.6875000000000019
 40
0.7500000000000013
 40
0.7500000000000013
 40
0.8125000000000007
 40
0.8125000000000007
 40
0.8750000000000001
 40
0.8750000000000001
 40
1.0
 40
1.0
 40
1.0
 40
1.0
 10
400.0546481737954
 20
168.8290462892233
 30
0.0
 10
400.2557429061771
 20
169.068861535822
 30
0.0
 10
400.420015085615
 20
169.3169103951991
 30
0.0
 10
400.6370645118806
 20
169.8382960528159
 30
0.0
 10
400.6889451863657
 20
170.1146884378888
 30
0.0
 10
400.6030410421407
 20
170.5159798088021
 30
0.0
 10
400.5479918161507
 20
170.6442635103106
 30
0.0
 10
400.4163368381728
 20
170.8267435244024
 30
0.0
 10
400.363868203724
 20
170.8858970545099
 30
0.0
 10
400.2461727738658
 20
170.9953158574473
 30
0.0
 10
400.1805023923356
 20
171.0463073053455
 30
0.0
 10
400.0357152515341
 20
171.1410013499858
 30
0.0
 10
399.9557812749226
 20
171.1850249278475
 30
0.0
 10
399.7878003651811
 20
171.2633643619466
 30
0.0
 10
399.6996053016725
 20
171.29793954577
 30
0.0
 10
399.4237981656732
 20
171.3894417088108
 30
0.0
 10
399.2258908431859
 20
171.4335201276438
 30
0.0
 10
399.0258427821879
 20
171.4631970567876
 30
0.0
  0
SPLINE
  5
229
330
1F
100
AcDbEntity
  8
0
  6
Continuous
 62
     7
370
    25
100
AcDbSpline
210
0.0
220
0.0
230
1.0
 70
     8
 71
     3
 72
    15
 73
    11
 74
     0
 42
0.000000001
 43
0.00000001
 40
0.0
 40
0.0
 40
0.0
 40
0.0
 40
0.0348438308026472
 40
0.0848270758388645
 40
0.1549758327628593
 40
0.2471032350579049
 40
0.3620089991725406
 40
0.5001128069142147
 40
0.749962492463534
 40
0.9999999999999999
 40
0.9999999999999999
 40
0.9999999999999999
 40
0.9999999999999999
 10
399.0258427821879
 20
171.4631970567875
 30
0.0
 10
399.0269350879006
 20
171.4647106309448
 30
0.0
 10
399.0295942989401
 20
171.468395417229
 30
0.0
 10
399.039975729107
 20
171.4720558977961
 30
0.0
 10
399.0541830974295
 20
171.4756183693818
 30
0.0
 10
399.0738717827561
 20
171.4786928217524
 30
0.0
 10
399.0985679208756
 20
171.481364419568
 30
0.0
 10
399.1349042454603
 20
171.4839311405408
 30
0.0
 10
399.1811891921461
 20
171.4856984275251
 30
0.0
 10
399.2175034015769
 20
171.4859149783929
 30
0.0
 10
399.2356673284385
 20
171.486023294509
 30
0.0
  0
LINE
  5
22A
330
1F
100
AcDbEntity
  8
0
  6
Continuous
 62
     7
370
    25
100
AcDbLine
 10
399.2356666293
 20
171.486024129
 30
0.0
 11
407.1032543596
 21
171.486024129
 31
0.0
  0
SPLINE
  5
22B
330
1F
100
AcDbEntity
  8
0
  6
Continuous
 62
     7
370
    25
100
AcDbSpline
210
0.0
220
0.0
230
1.0
 70
     8
 71
     3
 72
     8
 73
     4
 74
     0
 42
0.000000001
 43
0.00000001
 40
0.0
 40
0.0
 40
0.0
 40
0.0
 40
1.0
 40
1.0
 40
1.0
 40
1.0
 10
407.209578747408
 20
171.4745876838965
 30
0.0
 10
407.1750931541577
 20
171.4820926382164
 30
0.0
 10
407.1396826348882
 20
171.4860232945089
 30
0.0
 10
407.1032545383945
 20
171.4860232945089
 30
0.0
  0
SPLINE
  5
22C
330
1F
100
AcDbEntity
  8
0
  6
Continuous
 62
     7
370
    25
100
AcDbSpline
210
0.0
220
0.0
230
1.0
 70
     8
 71
     3
 72
     8
 73
     4
 74
     0
 42
0.000000001
 43
0.00000001
 40
0.0
 40
0.0
 40
0.0
 40
0.0
 40
1.0
 40
1.0
 40
1.0
 40
1.0
 10
340.9969303293808
 20
171.4745876838965
 30
0.0
 10
341.0314159226311
 20
171.4820926382164
 30
0.0
 10
341.0668264419007
 20
171.4860232945089
 30
0.0
 10
341.1032545383944
 20
171.4860232945089
 30
0.0
  0
LINE
  5
22D
330
1F
100
AcDbEntity
  8
0
  6
Continuous
 62
     7
370
    25
100
AcDbLine
 10
348.9708424475
 20
171.486024129
 30
0.0
 11
341.1032547172
 21
171.486024129
 31
0.0
  0
SPLINE
  5
22E
330
1F
100
AcDbEntity
  8
0
  6
Continuous
 62
     7
370
    25
100
AcDbSpline
210
0.0
220
0.0
230
1.0
 70
     8
 71
     3
 72
    15
 73
    11
 74
     0
 42
0.000000001
 43
0.00000001
 40
0.0
 40
0.0
 40
0.0
 40
0.0
 40
0.0366544934676443
 40
0.0871579041526826
 40
0.157213160922846
 40
0.2489463905744089
 40
0.3632806975620408
 40
0.5006844238480401
 40
0.7320094495991913
 40
0.9999999999999999
 40
0.9999999999999999
 40
0.9999999999999999
 40
0.9999999999999999
 10
349.180666294601
 20
171.4631970567877
 30
0.0
 10
349.1795616030413
 20
171.4648022006155
 30
0.0
 10
349.1769348418463
 20
171.4686189488133
 30
0.0
 10
349.1664282939975
 20
171.472372602496
 30
0.0
 10
349.1521450617165
 20
171.4758488014468
 30
0.0
 10
349.1324665891344
 20
171.4788047353019
 30
0.0
 10
349.1078295102988
 20
171.4813639501828
 30
0.0
 10
349.0728852824101
 20
171.4838396475234
 30
0.0
 10
349.0266503843009
 20
171.4857064320124
 30
0.0
 10
348.9903335607415
 20
171.4859126266139
 30
0.0
 10
348.97084174835
 20
171.4860232945109
 30
0.0
  0
SPLINE
  5
22F
330
1F
100
AcDbEntity
  8
0
  6
Continuous
 62
     7
370
    25
100
AcDbSpline
210
0.0
220
0.0
230
1.0
 70
     8
 71
     3
 72
    22
 73
    18
 74
     0
 42
0.000000001
 43
0.00000001
 40
0.0
 40
0.0
 40
0.0
 40
0.0
 40
0.0325259511945485
 40
0.064208985659497
 40
0.0951661513561577
 40
0.1255228937078779
 40
0.1892929145280837
 40
0.2511546079665881
 40
0.3135960923007615
 40
0.3763319668221624
 40
0.5005501411306523
 40
0.6257863658456402
 40
0.6870077499613246
 40
0.7511718398814511
 40
0.8301990056861203
 40
0.9129639607667607
 40
1.0
 40
1.0
 40
1.0
 40
1.0
 10
349.180666294601
 20
171.4631970567877
 30
0.0
 10
349.1286887159825
 20
171.4549213199213
 30
0.0
 10
349.0260805684094
 20
171.4385843136154
 30
0.0
 10
348.8771095351998
 20
171.4071487381945
 30
0.0
 10
348.7346038655394
 20
171.3709893791325
 30
0.0
 10
348.5483262086964
 20
171.314282435494
 30
0.0
 10
348.3280304951111
 20
171.2277894362933
 30
0.0
 10
348.0916146653615
 20
171.0972064619603
 30
0.0
 10
347.8932957546031
 20
170.943315383104
 30
0.0
 10
347.6877637321472
 20
170.711204660523
 30
0.0
 10
347.5469610850509
 20
170.383444965994
 30
0.0
 10
347.5445263264677
 20
170.0457345220649
 30
0.0
 10
347.6030373669161
 20
169.7772600239662
 30
0.0
 10
347.6795934396718
 20
169.5612417515798
 30
0.0
 10
347.7951998717879
 20
169.3276006479728
 30
0.0
 10
347.9530756647054
 20
169.077020272722
 30
0.0
 10
348.0844972539134
 20
168.9130788489308
 30
0.0
 10
348.1518609029934
 20
168.8290462892234
 30
0.0
  0
LINE
  5
230
330
1F
100
AcDbEntity
  8
0
  6
Continuous
 62
     7
370
    25
100
AcDbLine
 10
349.673467588
 20
167.0144576009
 30
0.0
 11
348.1518615898
 21
168.8290465053
 31
0.0
  0
SPLINE
  5
231
330
1F
100
AcDbEntity
  8
0
  6
Continuous
 62
     7
370
    25
100
AcDbSpline
210
0.0
220
0.0
230
1.0
 70
     8
 71
     3
 72
    24
 73
    20
 74
     0
 42
0.000000001
 43
0.00000001
 40
0.0
 40
0.0
 40
0.0
 40
0.0
 40
0.0303906657170923
 40
0.0613404321050341
 40
0.0928866536868193
 40
0.1250646078260368
 40
0.1865868329787121
 40
0.249548462646724
 40
0.3118633436043344
 40
0.3748138571569032
 40
0.4994054106897948
 40
0.623983729934161
 40
0.6875750540760783
 40
0.7493115045115678
 40
0.8131487531825737
 40
0.8740703506902306
 40
0.9180038068466355
 40
0.9599058325452222
 40
1.0
 40
1.0
 40
1.0
 40
1.0
 10
349.6734669839574
 20
167.0144570495615
 30
0.0
 10
349.7147852550697
 20
166.9663649482648
 30
0.0
 10
349.7981819344138
 20
166.869295989597
 30
0.0
 10
349.9341738967566
 20
166.7260296061125
 30
0.0
 10
350.0794369466909
 20
166.5828653552828
 30
0.0
 10
350.2808145666307
 20
166.3976672722945
 30
0.0
 10
350.5479350721663
 20
166.1734448861158
 30
0.0
 10
350.8880564676502
 20
165.9181880259721
 30
0.0
 10
351.2501739659617
 20
165.673159555125
 30
0.0
 10
351.7546159443998
 20
165.3646729600999
 30
0.0
 10
352.4258061227122
 20
165.0111626615181
 30
0.0
 10
353.1469401422506
 20
164.704456372611
 30
0.0
 10
353.7497450588201
 20
164.4934545455623
 30
0.0
 10
354.2192666249929
 20
164.3531739166094
 30
0.0
 10
354.6944460728629
 20
164.2365197347067
 30
0.0
 10
355.1346932602397
 20
164.1539661400958
 30
0.0
 10
355.5240423947133
 20
164.1024616803427
 30
0.0
 10
355.8618174273913
 20
164.0731294169454
 30
0.0
 10
356.0831647952083
 20
164.0693272936932
 30
0.0
 10
356.1913983373964
 20
164.067468146817
 30
0.0
  0
LINE
  5
232
330
1F
100
AcDbEntity
  8
0
  6
Continuous
 62
     7
370
    25
100
AcDbLine
 10
356.1913975444
 20
164.0674679901
 30
0.0
 11
392.0151115324
 21
164.0674679901
 31
0.0
  0
SPLINE
  5
233
330
1F
100
AcDbEntity
  8
0
  6
Continuous
 62
     7
370
    25
100
AcDbSpline
210
0.0
220
0.0
230
1.0
 70
     8
 71
     3
 72
    10
 73
     6
 74
     0
 42
0.000000001
 43
0.00000001
 40
0.0
 40
0.0
 40
0.0
 40
0.0
 40
0.4406402020125363
 40
0.8820007972958036
 40
1.0
 40
1.0
 40
1.0
 40
1.0
 10
345.084016111113
 20
162.3392071004516
 30
0.0
 10
345.3339050466066
 20
162.1002922202693
 30
0.0
 10
345.834091455686
 20
161.6220718630614
 30
0.0
 10
346.3421172094212
 20
160.9465864050533
 30
0.0
 10
346.580797276805
 20
160.5129959011178
 30
0.0
 10
346.6311477985158
 20
160.4215282376414
 30
0.0
  0
ARC
  5
234
330
1F
100
AcDbEntity
  8
0
  6
Continuous
 62
     7
370
    25
100
AcDbCircle
 10
345.1340016263
 20
162.3840611824
 30
0.0
 40
0.0671598123760778
100
AcDbArc
 50
151.7877617441
 51
221.9029490358
  0
SPLINE
  5
235
330
1F
100
AcDbEntity
  8
0
  6
Continuous
 62
     7
370
    25
100
AcDbSpline
210
0.0
220
0.0
230
1.0
 70
     8
 71
     3
 72
    10
 73
     6
 74
     0
 42
0.000000001
 43
0.00000001
 40
0.0
 40
0.0
 40
0.0
 40
0.0
 40
0.4405233535970127
 40
0.8817669094317733
 40
1.0
 40
1.0
 40
1.0
 40
1.0
 10
349.7500707324519
 20
108.9667848672277
 30
0.0
 10
349.9889840542025
 20
109.2166751075119
 30
0.0
 10
350.4672012919993
 20
109.716864128306
 30
0.0
 10
351.1428836276676
 20
110.2250098113271
 30
0.0
 10
351.5766859566618
 20
110.4637984205703
 30
0.0
 10
351.668360542871
 20
110.514261143983
 30
0.0
  0
ARC
  5
236
330
1F
100
AcDbEntity
  8
0
  6
Continuous
 62
     7
370
    25
100
AcDbCircle
 10
349.7052166505
 20
109.0167703824
 30
0.0
 40
0.0671598123760459
100
AcDbArc
 50
241.7877617441
 51
311.9029490358
  0
SPLINE
  5
237
330
1F
100
AcDbEntity
  8
0
  6
Continuous
 62
     7
370
    25
100
AcDbSpline
210
0.0
220
0.0
230
1.0
 70
     8
 71
     3
 72
    10
 73
     6
 74
     0
 42
0.000000001
 43
0.00000001
 40
0.0
 40
0.0
 40
0.0
 40
0.0
 40
0.4360134417889436
 40
0.8829839119436352
 40
1.0
 40
1.0
 40
1.0
 40
1.0
 10
398.456438344337
 20
108.9667848672277
 30
0.0
 10
398.2200762069318
 20
109.2136073158555
 30
0.0
 10
397.7414121458768
 20
109.7134548672308
 30
0.0
 10
397.0685910485645
 20
110.2221996145655
 30
0.0
 10
396.63195651416
 20
110.462600210108
 30
0.0
 10
396.5413634594454
 20
110.5124785925752
 30
0.0
  0
ARC
  5
238
330
1F
100
AcDbEntity
  8
0
  6
Continuous
 62
     7
370
    25
100
AcDbCircle
 10
398.5012924263
 20
109.0167703824
 30
0.0
 40
0.0671598123760459
100
AcDbArc
 50
228.0970509642
 51
298.2122382559
  0
SPLINE
  5
239
330
1F
100
AcDbEntity
  8
0
  6
Continuous
 62
     7
370
    25
100
AcDbSpline
210
0.0
220
0.0
230
1.0
 70
     8
 71
     3
 72
    13
 73
     9
 74
     0
 42
0.000000001
 43
0.00000001
 40
0.0
 40
0.0
 40
0.0
 40
0.0
 40
0.1936966824532016
 40
0.3892195940722281
 40
0.5871406215779539
 40
0.7865614046633533
 40
0.9952168265730591
 40
0.9999999999999999
 40
0.9999999999999999
 40
0.9999999999999999
 40
0.9999999999999999
 10
345.084016111113
 20
113.6328394885665
 30
0.0
 10
345.2096363554123
 20
113.744925325292
 30
0.0
 10
345.4620612285397
 20
113.9701537769051
 30
0.0
 10
345.8178455169028
 20
114.3680141227861
 30
0.0
 10
346.1594426968093
 20
114.8020932115167
 30
0.0
 10
346.4847652834043
 20
115.2831034728821
 30
0.0
 10
346.6990500763519
 20
115.6227696434951
 30
0.0
 10
346.7983159193885
 20
115.8116819452977
 30
0.0
 10
346.8005404736771
 20
115.8159154828197
 30
0.0
  0
ARC
  5
23A
330
1F
100
AcDbEntity
  8
0
  6
Continuous
 62
     7
370
    25
100
AcDbCircle
 10
345.1340016263
 20
113.5879854066
 30
0.0
 40
0.0671598123760788
100
AcDbArc
 50
138.0970509642
 51
208.2122382559
  0
SPLINE
  5
23B
330
1F
100
AcDbEntity
  8
0
  6
Continuous
 62
     7
370
    25
100
AcDbSpline
210
0.0
220
0.0
230
1.0
 70
     8
 71
     3
 72
    10
 73
     6
 74
     0
 42
0.000000001
 43
0.00000001
 40
0.0
 40
0.0
 40
0.0
 40
0.0
 40
0.4352972201509019
 40
0.881533470000419
 40
1.0
 40
1.0
 40
1.0
 40
1.0
 10
403.1224929656758
 20
113.6328394885665
 30
0.0
 10
402.8756628618047
 20
113.8691922922099
 30
0.0
 10
402.3757998075664
 20
114.3478374511838
 30
0.0
 10
401.8663072478505
 20
115.0218744108668
 30
0.0
 10
401.6252391376685
 20
115.4598253220253
 30
0.0
 10
401.5746665116324
 20
115.5517011310464
 30
0.0
  0
ARC
  5
23C
330
1F
100
AcDbEntity
  8
0
  6
Continuous
 62
     7
370
    25
100
AcDbCircle
 10
403.0725074505
 20
113.5879854066
 30
0.0
 40
0.0671598123759941
100
AcDbArc
 50
331.7877617441
 51
41.9029490358
  0
SPLINE
  5
23D
330
1F
100
AcDbEntity
  8
0
  6
Continuous
 62
     7
370
    25
100
AcDbSpline
210
0.0
220
0.0
230
1.0
 70
     8
 71
     3
 72
    10
 73
     6
 74
     0
 42
0.000000001
 43
0.00000001
 40
0.0
 40
0.0
 40
0.0
 40
0.0
 40
0.4360134417889436
 40
0.8829839119436352
 40
1.0
 40
1.0
 40
1.0
 40
1.0
 10
403.1224929656758
 20
162.3392071004516
 30
0.0
 10
402.875670517048
 20
162.1028449630465
 30
0.0
 10
402.3758229656726
 20
161.6241809019914
 30
0.0
 10
401.8670782183379
 20
160.9513598046791
 30
0.0
 10
401.6266776227955
 20
160.5147252702747
 30
0.0
 10
401.5767992403283
 20
160.4241322155601
 30
0.0
  0
ARC
  5
23E
330
1F
100
AcDbEntity
  8
0
  6
Continuous
 62
     7
370
    25
100
AcDbCircle
 10
403.0725074505
 20
162.3840611824
 30
0.0
 40
0.0671598123759846
100
AcDbArc
 50
318.0970509642
 51
28.212238256
  0
SPLINE
  5
23F
330
1F
100
AcDbEntity
  8
0
  6
Continuous
 62
     7
370
    25
100
AcDbSpline
210
0.0
220
0.0
230
1.0
 70
     8
 71
     3
 72
    10
 73
     6
 74
     0
 42
0.000000001
 43
0.00000001
 40
0.0
 40
0.0
 40
0.0
 40
0.0
 40
0.4354092306054815
 40
0.8817603057350182
 40
1.0
 40
1.0
 40
1.0
 40
1.0
 10
398.456438344337
 20
167.0052617217904
 30
0.0
 10
398.2200839878479
 20
166.7584329829995
 30
0.0
 10
397.7414356841594
 20
166.2585726932261
 30
0.0
 10
397.0675902235954
 20
165.7491952899544
 30
0.0
 10
396.6298441960269
 20
165.5082339820356
 30
0.0
 10
396.5381690230145
 20
165.4577705438739
 30
0.0
  0
ARC
  5
240
330
1F
100
AcDbEntity
  8
0
  6
Continuous
 62
     7
370
    25
100
AcDbCircle
 10
398.5012924263
 20
166.9552762066
 30
0.0
 40
0.0671598123760459
100
AcDbArc
 50
61.7877617441
 51
131.9029490358
  0
SPLINE
  5
241
330
1F
100
AcDbEntity
  8
0
  6
Continuous
 62
     7
370
    25
100
AcDbSpline
210
0.0
220
0.0
230
1.0
 70
     8
 71
     3
 72
    13
 73
     9
 74
     0
 42
0.000000001
 43
0.00000001
 40
0.0
 40
0.0
 40
0.0
 40
0.0
 40
0.1936873304982392
 40
0.3887928046489483
 40
0.5875312394036245
 40
0.7872497687223616
 40
0.9959665901593708
 40
1.0
 40
1.0
 40
1.0
 40
1.0
 10
349.7500707324519
 20
167.0052617217904
 30
0.0
 10
349.8620477567047
 20
166.8797554629937
 30
0.0
 10
350.0868216807579
 20
166.6278240112408
 30
0.0
 10
350.4844870746154
 20
166.2720646938606
 30
0.0
 10
350.9186220981529
 20
165.9303165618442
 30
0.0
 10
351.40014223948
 20
165.6046436887739
 30
0.0
 10
351.7391679472976
 20
165.3907369298998
 30
0.0
 10
351.9272672543494
 20
165.2918397768875
 30
0.0
 10
351.9308333214297
 20
165.2899648423797
 30
0.0
  0
ARC
  5
242
330
1F
100
AcDbEntity
  8
0
  6
Continuous
 62
     7
370
    25
100
AcDbCircle
 10
349.7052166505
 20
166.9552762066
 30
0.0
 40
0.0671598123760459
100
AcDbArc
 50
48.0970509642
 51
118.2122382559
  0
ARC
  5
243
330
1F
100
AcDbEntity
  8
0
  6
Continuous
 62
     7
370
    25
100
AcDbCircle
 10
400.0238314083
 20
107.2033042248
 30
0.0
 40
0.0677216371225487
100
AcDbArc
 50
227.459834129
 51
297.0675316908
  0
LINE
  5
244
330
1F
100
AcDbEntity
  8
0
  6
Continuous
 62
     7
370
    25
100
AcDbLine
 10
399.9780443426
 20
107.1534066822
 30
0.0
 11
398.4564383443
 21
108.9667848672
 31
0.0
  0
LINE
  5
245
330
1F
100
AcDbEntity
  8
0
  6
Continuous
 62
     7
370
    25
100
AcDbLine
 10
404.9358711507
 20
112.1112334903
 30
0.0
 11
403.1224929657
 21
113.6328394886
 31
0.0
  0
ARC
  5
246
330
1F
100
AcDbEntity
  8
0
  6
Continuous
 62
     7
370
    25
100
AcDbCircle
 10
404.8859736081
 20
112.0654464246
 30
0.0
 40
0.0677216371225167
100
AcDbArc
 50
332.9324683092
 51
42.5401658711
  0
LINE
  5
247
330
1F
100
AcDbEntity
  8
0
  6
Continuous
 62
     7
370
    25
100
AcDbLine
 10
399.9780443426
 20
168.8186399068
 30
0.0
 11
398.4564383443
 21
167.0052617218
 31
0.0
  0
ARC
  5
248
330
1F
100
AcDbEntity
  8
0
  6
Continuous
 62
     7
370
    25
100
AcDbCircle
 10
400.0238314083
 20
168.7687423643
 30
0.0
 40
0.0677216371225361
100
AcDbArc
 50
62.9324683091
 51
132.540165871
  0
ARC
  5
249
330
1F
100
AcDbEntity
  8
0
  6
Continuous
 62
     7
370
    25
100
AcDbCircle
 10
348.1826776685
 20
168.7687423643
 30
0.0
 40
0.0677216371225262
100
AcDbArc
 50
47.4598341289
 51
117.0675316908
  0
LINE
  5
24A
330
1F
100
AcDbEntity
  8
0
  6
Continuous
 62
     7
370
    25
100
AcDbLine
 10
348.2284647342
 20
168.8186399068
 30
0.0
 11
349.7500707325
 21
167.0052617218
 31
0.0
  0
ARC
  5
24B
330
1F
100
AcDbEntity
  8
0
  6
Continuous
 62
     7
370
    25
100
AcDbCircle
 10
343.3205354686
 20
112.0654464246
 30
0.0
 40
0.0677216371225673
100
AcDbArc
 50
137.459834129
 51
207.0675316908
  0
LINE
  5
24C
330
1F
100
AcDbEntity
  8
0
  6
Continuous
 62
     7
370
    25
100
AcDbLine
 10
343.2706379261
 20
112.1112334903
 30
0.0
 11
345.0840161111
 21
113.6328394886
 31
0.0
  0
LINE
  5
24D
330
1F
100
AcDbEntity
  8
0
  6
Continuous
 62
     7
370
    25
100
AcDbLine
 10
348.2284647342
 20
107.1534066822
 30
0.0
 11
349.7500707325
 21
108.9667848672
 31
0.0
  0
ARC
  5
24E
330
1F
100
AcDbEntity
  8
0
  6
Continuous
 62
     7
370
    25
100
AcDbCircle
 10
348.1826776685
 20
107.2033042248
 30
0.0
 40
0.0677216371225366
100
AcDbArc
 50
242.9324683092
 51
312.5401658711
  0
ARC
  5
24F
330
1F
100
AcDbEntity
  8
0
  6
Continuous
 62
     7
370
    25
100
AcDbCircle
 10
404.8859736081
 20
163.9066001644
 30
0.0
 40
0.0677216371225231
100
AcDbArc
 50
317.4598341289
 51
27.0675316908
  0
LINE
  5
250
330
1F
100
AcDbEntity
  8
0
  6
Continuous
 62
     7
370
    25
100
AcDbLine
 10
404.9358711507
 20
163.8608130987
 30
0.0
 11
403.1224929657
 21
162.3392071005
 31
0.0
  0
LINE
  5
251
330
1F
100
AcDbEntity
  8
0
  6
Continuous
 62
     7
370
    25
100
AcDbLine
 10
343.2706379261
 20
163.8608130987
 30
0.0
 11
345.0840161111
 21
162.3392071005
 31
0.0
  0
ARC
  5
252
330
1F
100
AcDbEntity
  8
0
  6
Continuous
 62
     7
370
    25
100
AcDbCircle
 10
343.3205354686
 20
163.9066001644
 30
0.0
 40
0.0677216371225738
100
AcDbArc
 50
152.9324683092
 51
222.540165871
  0
SPLINE
  5
253
330
1F
100
AcDbEntity
  8
0
  6
Continuous
 62
     7
370
    25
100
AcDbSpline
210
0.0
220
0.0
230
1.0
 70
     8
 71
     3
 72
    24
 73
    20
 74
     0
 42
0.000000001
 43
0.00000001
 40
0.0
 40
0.0
 40
0.0
 40
0.0
 40
0.1249999999999998
 40
0.1249999999999998
 40
0.1874999999999993
 40
0.1874999999999993
 40
0.2499999999999988
 40
0.2499999999999988
 40
0.3124999999999983
 40
0.3124999999999983
 40
0.3749999999999978
 40
0.3749999999999978
 40
0.4999999999999986
 40
0.4999999999999986
 40
0.6249999999999993
 40
0.6249999999999993
 40
0.7499999999999999
 40
0.7499999999999999
 40
1.0
 40
1.0
 40
1.0
 40
1.0
 10
340.6903145167224
 20
162.8981169079579
 30
0.0
 10
340.7165453985316
 20
163.093241274779
 30
0.0
 10
340.7570369057928
 20
163.2865876524296
 30
0.0
 10
340.8434236861685
 20
163.5558897556534
 30
0.0
 10
340.8763481749208
 20
163.6420006496896
 30
0.0
 10
340.9515828033576
 20
163.8059368706124
 30
0.0
 10
340.994122004348
 20
163.8838303808421
 30
0.0
 10
341.0860302782751
 20
164.0244935207628
 30
0.0
 10
341.1357305189
 20
164.0881091436119
 30
0.0
 10
341.242786030371
 20
164.20168669966
 30
0.0
 10
341.3008363529227
 20
164.2520398457403
 30
0.0
 10
341.480196131668
 20
164.3774036231439
 30
0.0
 10
341.6074144737906
 20
164.4287014616581
 30
0.0
 10
341.8727043397871
 20
164.4782993873044
 30
0.0
 10
342.006178409688
 20
164.4758293003034
 30
0.0
 10
342.2714399285277
 20
164.4318916146886
 30
0.0
 10
342.4041712694143
 20
164.389846461686
 30
0.0
 10
342.7892226267146
 20
164.2234852262557
 30
0.0
 10
343.0338324958055
 20
164.0595151622158
 30
0.0
 10
343.270637124523
 20
163.8608124855979
 30
0.0
  0
SPLINE
  5
254
330
1F
100
AcDbEntity
  8
0
  6
Continuous
 62
     7
370
    25
100
AcDbSpline
210
0.0
220
0.0
230
1.0
 70
     8
 71
     3
 72
    14
 73
    10
 74
     0
 42
0.000000001
 43
0.00000001
 40
0.0000000000000003
 40
0.0000000000000003
 40
0.0000000000000003
 40
0.0000000000000003
 40
0.0000374015792806
 40
0.0000374015792806
 40
0.0000374015792806
 40
0.0000696344187552
 40
0.0000696344187552
 40
0.0000696344187552
 40
0.0000748396572827
 40
0.0000748396572827
 40
0.0000748396572827
 40
0.0000748396572827
 10
340.6260807761157
 20
162.9086115383022
 30
0.0
 10
340.6339981748652
 20
162.9064594577538
 30
0.0
 10
340.6439019520124
 20
162.9043898489697
 30
0.0
 10
340.6547813021257
 20
162.902611670697
 30
0.0
 10
340.6641996892986
 20
162.9010722799006
 30
0.0
 10
340.6745996002635
 20
162.8997074024721
 30
0.0
 10
340.6851862246523
 20
162.8986207950755
 30
0.0
 10
340.6868881269057
 20
162.898446112428
 30
0.0
 10
340.6885987001471
 20
162.8982779989184
 30
0.0
 10
340.6903145167225
 20
162.8981169079586
 30
0.0
  0
SPLINE
  5
255
330
1F
100
AcDbEntity
  8
0
  6
Continuous
 62
     7
370
    25
100
AcDbSpline
210
0.0
220
0.0
230
1.0
 70
     8
 71
     3
 72
    14
 73
    10
 74
     0
 42
0.000000001
 43
0.00000001
 40
0.0
 40
0.0
 40
0.0
 40
0.0
 40
0.0000374015792806
 40
0.0000374015792806
 40
0.0000374015792806
 40
0.0000696344187553
 40
0.0000696344187553
 40
0.0000696344187553
 40
0.0000748396572827
 40
0.0000748396572827
 40
0.0000748396572827
 40
0.0000748396572827
 10
340.6260807761158
 20
113.0634350507157
 30
0.0
 10
340.6339981748653
 20
113.0655871312641
 30
0.0
 10
340.6439019520124
 20
113.0676567400482
 30
0.0
 10
340.6547813021258
 20
113.0694349183209
 30
0.0
 10
340.6641996892988
 20
113.0709743091173
 30
0.0
 10
340.6745996002637
 20
113.0723391865458
 30
0.0
 10
340.6851862246524
 20
113.0734257939424
 30
0.0
 10
340.6868881269058
 20
113.07360047659
 30
0.0
 10
340.6885987001472
 20
113.0737685900995
 30
0.0
 10
340.6903145167226
 20
113.0739296810593
 30
0.0
  0
SPLINE
  5
256
330
1F
100
AcDbEntity
  8
0
  6
Continuous
 62
     7
370
    25
100
AcDbSpline
210
0.0
220
0.0
230
1.0
 70
     8
 71
     3
 72
    24
 73
    20
 74
     0
 42
0.000000001
 43
0.00000001
 40
0.0
 40
0.0
 40
0.0
 40
0.0
 40
0.1250000000000013
 40
0.1250000000000013
 40
0.1875000000000004
 40
0.1875000000000004
 40
0.2499999999999994
 40
0.2499999999999994
 40
0.3124999999999986
 40
0.3124999999999986
 40
0.3749999999999976
 40
0.3749999999999976
 40
0.4999999999999982
 40
0.4999999999999982
 40
0.6249999999999988
 40
0.6249999999999988
 40
0.7499999999999992
 40
0.7499999999999992
 40
1.0
 40
1.0
 40
1.0
 40
1.0
 10
340.6903145167225
 20
113.0739296810601
 30
0.0
 10
340.7165453985317
 20
112.878805314239
 30
0.0
 10
340.7570369057929
 20
112.6854589365883
 30
0.0
 10
340.8434236861686
 20
112.4161568333646
 30
0.0
 10
340.876348174921
 20
112.3300459393284
 30
0.0
 10
340.9515828033577
 20
112.1661097184056
 30
0.0
 10
340.9941220043481
 20
112.0882162081759
 30
0.0
 10
341.0860302782752
 20
111.9475530682551
 30
0.0
 10
341.1357305189001
 20
111.883937445406
 30
0.0
 10
341.2427860303711
 20
111.7703598893579
 30
0.0
 10
341.3008363529228
 20
111.7200067432777
 30
0.0
 10
341.4801961316681
 20
111.594642965874
 30
0.0
 10
341.6074144737907
 20
111.5433451273598
 30
0.0
 10
341.8727043397872
 20
111.4937472017135
 30
0.0
 10
342.0061784096881
 20
111.4962172887146
 30
0.0
 10
342.2714399285278
 20
111.5401549743293
 30
0.0
 10
342.4041712694144
 20
111.582200127332
 30
0.0
 10
342.7892226267147
 20
111.7485613627622
 30
0.0
 10
343.0338324958057
 20
111.9125314268021
 30
0.0
 10
343.2706371245231
 20
112.11123410342
 30
0.0
  0
LWPOLYLINE
  5
257
330
1F
100
AcDbEntity
  8
0
  6
Continuous
 62
     7
370
    25
100
AcDbPolyline
 90
        4
 70
   128
 43
0.0
 10
407.5032536801
 20
113.8731654163
 10
407.5075936433
 20
113.6051251914
 10
407.51191498
 20
113.3383068617
 10
407.5161953386
 20
113.0739304598
  0
SPLINE
  5
258
330
1F
100
AcDbEntity
  8
0
  6
Continuous
 62
     7
370
    25
100
AcDbSpline
210
0.0
220
0.0
230
1.0
 70
     8
 71
     3
 72
    24
 73
    20
 74
     0
 42
0.000000001
 43
0.00000001
 40
0.0
 40
0.0
 40
0.0
 40
0.0
 40
0.1250000000000013
 40
0.1250000000000013
 40
0.1875000000000004
 40
0.1875000000000004
 40
0.2499999999999994
 40
0.2499999999999994
 40
0.3124999999999986
 40
0.3124999999999986
 40
0.3749999999999976
 40
0.3749999999999976
 40
0.4999999999999982
 40
0.4999999999999982
 40
0.6249999999999988
 40
0.6249999999999988
 40
0.7499999999999992
 40
0.7499999999999992
 40
1.0
 40
1.0
 40
1.0
 40
1.0
 10
407.5161945600663
 20
113.0739296810601
 30
0.0
 10
407.4899636782571
 20
112.878805314239
 30
0.0
 10
407.4494721709959
 20
112.6854589365883
 30
0.0
 10
407.3630853906201
 20
112.4161568333646
 30
0.0
 10
407.3301609018678
 20
112.3300459393284
 30
0.0
 10
407.2549262734311
 20
112.1661097184056
 30
0.0
 10
407.2123870724407
 20
112.0882162081759
 30
0.0
 10
407.1204787985137
 20
111.9475530682551
 30
0.0
 10
407.0707785578887
 20
111.883937445406
 30
0.0
 10
406.9637230464178
 20
111.7703598893579
 30
0.0
 10
406.905672723866
 20
111.7200067432777
 30
0.0
 10
406.7263129451208
 20
111.594642965874
 30
0.0
 10
406.5990946029982
 20
111.5433451273598
 30
0.0
 10
406.3338047370016
 20
111.4937472017135
 30
0.0
 10
406.2003306671007
 20
111.4962172887146
 30
0.0
 10
405.935069148261
 20
111.5401549743293
 30
0.0
 10
405.8023378073744
 20
111.582200127332
 30
0.0
 10
405.4172864500741
 20
111.7485613627622
 30
0.0
 10
405.1726765809831
 20
111.9125314268021
 30
0.0
 10
404.9358719522656
 20
112.11123410342
 30
0.0
  0
SPLINE
  5
259
330
1F
100
AcDbEntity
  8
0
  6
Continuous
 62
     7
370
    25
100
AcDbSpline
210
0.0
220
0.0
230
1.0
 70
     8
 71
     3
 72
    14
 73
    10
 74
     0
 42
0.000000001
 43
0.00000001
 40
0.0
 40
0.0
 40
0.0
 40
0.0
 40
0.0000374015792806
 40
0.0000374015792806
 40
0.0000374015792806
 40
0.0000696344187553
 40
0.0000696344187553
 40
0.0000696344187553
 40
0.0000748396572827
 40
0.0000748396572827
 40
0.0000748396572827
 40
0.0000748396572827
 10
407.5804283006731
 20
113.0634350507157
 30
0.0
 10
407.5725109019235
 20
113.0655871312641
 30
0.0
 10
407.5626071247764
 20
113.0676567400482
 30
0.0
 10
407.5517277746631
 20
113.0694349183209
 30
0.0
 10
407.5423093874901
 20
113.0709743091173
 30
0.0
 10
407.5319094765252
 20
113.0723391865458
 30
0.0
 10
407.5213228521365
 20
113.0734257939424
 30
0.0
 10
407.519620949883
 20
113.07360047659
 30
0.0
 10
407.5179103766416
 20
113.0737685900995
 30
0.0
 10
407.5161945600662
 20
113.0739296810593
 30
0.0
  0
LWPOLYLINE
  5
25A
330
1F
100
AcDbEntity
  8
0
  6
Continuous
 62
     7
370
    25
100
AcDbPolyline
 90
        4
 70
   128
 43
0.0
 10
340.7032553967
 20
113.8731654163
 10
340.6989154335
 20
113.6051251914
 10
340.6945940968
 20
113.3383068617
 10
340.6903137382
 20
113.0739304598
  0
SPLINE
  5
25B
330
1F
100
AcDbEntity
  8
0
  6
Continuous
 62
     7
370
    25
100
AcDbSpline
210
0.0
220
0.0
230
1.0
 70
     8
 71
     3
 72
    24
 73
    20
 74
     0
 42
0.000000001
 43
0.00000001
 40
0.0
 40
0.0
 40
0.0
 40
0.0
 40
0.1250000000000009
 40
0.1250000000000009
 40
0.1874999999999998
 40
0.1874999999999998
 40
0.2499999999999986
 40
0.2499999999999986
 40
0.3124999999999974
 40
0.3124999999999974
 40
0.3749999999999963
 40
0.3749999999999963
 40
0.4999999999999973
 40
0.4999999999999973
 40
0.6249999999999982
 40
0.6249999999999982
 40
0.749999999999999
 40
0.749999999999999
 40
1.0
 40
1.0
 40
1.0
 40
1.0
 10
399.0153481518437
 20
104.5730832728374
 30
0.0
 10
399.2104725186648
 20
104.5993141546466
 30
0.0
 10
399.4038188963154
 20
104.6398056619078
 30
0.0
 10
399.6731209995392
 20
104.7261924422835
 30
0.0
 10
399.7592318935754
 20
104.7591169310359
 30
0.0
 10
399.9231681144982
 20
104.8343515594726
 30
0.0
 10
400.0010616247279
 20
104.876890760463
 30
0.0
 10
400.1417247646486
 20
104.96879903439
 30
0.0
 10
400.2053403874977
 20
105.018499275015
 30
0.0
 10
400.3189179435458
 20
105.125554786486
 30
0.0
 10
400.3692710896262
 20
105.1836051090377
 30
0.0
 10
400.4946348670297
 20
105.3629648877829
 30
0.0
 10
400.545932705544
 20
105.4901832299056
 30
0.0
 10
400.5955306311903
 20
105.7554730959021
 30
0.0
 10
400.5930605441892
 20
105.888947165803
 30
0.0
 10
400.5491228585744
 20
106.1542086846427
 30
0.0
 10
400.5070777055718
 20
106.2869400255293
 30
0.0
 10
400.3407164701415
 20
106.6719913828296
 30
0.0
 10
400.1767464061016
 20
106.9166012519206
 30
0.0
 10
399.9780437294838
 20
107.153405880638
 30
0.0
  0
LWPOLYLINE
  5
25C
330
1F
100
AcDbEntity
  8
0
  6
Continuous
 62
     7
370
    25
100
AcDbPolyline
 90
        4
 70
   128
 43
0.0
 10
398.2161124166
 20
104.5860241528
 10
398.4841526415
 20
104.5816841896
 10
398.7509709712
 20
104.5773628529
 10
399.0153473731
 20
104.5730824943
  0
SPLINE
  5
25D
330
1F
100
AcDbEntity
  8
0
  6
Continuous
 62
     7
370
    25
100
AcDbSpline
210
0.0
220
0.0
230
1.0
 70
     8
 71
     3
 72
    24
 73
    20
 74
     0
 42
0.000000001
 43
0.00000001
 40
0.0
 40
0.0
 40
0.0
 40
0.0
 40
0.1250000000000009
 40
0.1250000000000009
 40
0.1874999999999998
 40
0.1874999999999998
 40
0.2499999999999986
 40
0.2499999999999986
 40
0.3124999999999974
 40
0.3124999999999974
 40
0.3749999999999963
 40
0.3749999999999963
 40
0.4999999999999973
 40
0.4999999999999973
 40
0.6249999999999982
 40
0.6249999999999982
 40
0.749999999999999
 40
0.749999999999999
 40
1.0
 40
1.0
 40
1.0
 40
1.0
 10
349.1911609249451
 20
104.5730832728374
 30
0.0
 10
348.996036558124
 20
104.5993141546466
 30
0.0
 10
348.8026901804735
 20
104.6398056619078
 30
0.0
 10
348.5333880772496
 20
104.7261924422835
 30
0.0
 10
348.4472771832134
 20
104.7591169310359
 30
0.0
 10
348.2833409622907
 20
104.8343515594726
 30
0.0
 10
348.2054474520609
 20
104.876890760463
 30
0.0
 10
348.0647843121401
 20
104.96879903439
 30
0.0
 10
348.0011686892911
 20
105.018499275015
 30
0.0
 10
347.8875911332429
 20
105.125554786486
 30
0.0
 10
347.8372379871627
 20
105.1836051090377
 30
0.0
 10
347.7118742097591
 20
105.3629648877829
 30
0.0
 10
347.6605763712449
 20
105.4901832299056
 30
0.0
 10
347.6109784455986
 20
105.7554730959021
 30
0.0
 10
347.6134485325997
 20
105.888947165803
 30
0.0
 10
347.6573862182144
 20
106.1542086846427
 30
0.0
 10
347.6994313712171
 20
106.2869400255293
 30
0.0
 10
347.8657926066473
 20
106.6719913828296
 30
0.0
 10
348.0297626706872
 20
106.9166012519206
 30
0.0
 10
348.2284653473051
 20
107.153405880638
 30
0.0
  0
SPLINE
  5
25E
330
1F
100
AcDbEntity
  8
0
  6
Continuous
 62
     7
370
    25
100
AcDbSpline
210
0.0
220
0.0
230
1.0
 70
     8
 71
     3
 72
    14
 73
    10
 74
     0
 42
0.000000001
 43
0.00000001
 40
0.0000000000000003
 40
0.0000000000000003
 40
0.0000000000000003
 40
0.0000000000000003
 40
0.0000374015792806
 40
0.0000374015792806
 40
0.0000374015792806
 40
0.0000696344187552
 40
0.0000696344187552
 40
0.0000696344187552
 40
0.0000748396572827
 40
0.0000748396572827
 40
0.0000748396572827
 40
0.0000748396572827
 10
349.1806662946008
 20
104.5088495322306
 30
0.0
 10
349.1828183751492
 20
104.5167669309802
 30
0.0
 10
349.1848879839333
 20
104.5266707081273
 30
0.0
 10
349.186666162206
 20
104.5375500582406
 30
0.0
 10
349.1882055530024
 20
104.5469684454136
 30
0.0
 10
349.1895704304308
 20
104.5573683563785
 30
0.0
 10
349.1906570378275
 20
104.5679549807672
 30
0.0
 10
349.190831720475
 20
104.5696568830206
 30
0.0
 10
349.1909998339846
 20
104.5713674562621
 30
0.0
 10
349.1911609249444
 20
104.5730832728375
 30
0.0
  0
SPLINE
  5
25F
330
1F
100
AcDbEntity
  8
0
  6
Continuous
 62
     7
370
    25
100
AcDbSpline
210
0.0
220
0.0
230
1.0
 70
     8
 71
     3
 72
    14
 73
    10
 74
     0
 42
0.000000001
 43
0.00000001
 40
0.0
 40
0.0
 40
0.0
 40
0.0
 40
0.0000374015792806
 40
0.0000374015792806
 40
0.0000374015792806
 40
0.0000696344187552
 40
0.0000696344187552
 40
0.0000696344187552
 40
0.0000748396572827
 40
0.0000748396572827
 40
0.0000748396572827
 40
0.0000748396572827
 10
399.0258427821881
 20
104.5088495322306
 30
0.0
 10
399.0236907016397
 20
104.5167669309802
 30
0.0
 10
399.0216210928555
 20
104.5266707081273
 30
0.0
 10
399.0198429145828
 20
104.5375500582406
 30
0.0
 10
399.0183035237865
 20
104.5469684454136
 30
0.0
 10
399.016938646358
 20
104.5573683563785
 30
0.0
 10
399.0158520389614
 20
104.5679549807672
 30
0.0
 10
399.0156773563138
 20
104.5696568830206
 30
0.0
 10
399.0155092428043
 20
104.5713674562621
 30
0.0
 10
399.0153481518445
 20
104.5730832728375
 30
0.0
  0
LWPOLYLINE
  5
260
330
1F
100
AcDbEntity
  8
0
  6
Continuous
 62
     7
370
    25
100
AcDbPolyline
 90
        4
 70
   128
 43
0.0
 10
349.9903966602
 20
104.5860241528
 10
349.7223564353
 20
104.5816841896
 10
349.4555381056
 20
104.5773628529
 10
349.1911617037
 20
104.5730824943
  0
SPLINE
  5
261
330
1F
100
AcDbEntity
  8
0
  6
Continuous
 62
     7
370
    25
100
AcDbSpline
210
0.0
220
0.0
230
1.0
 70
     8
 71
     3
 72
    24
 73
    20
 74
     0
 42
0.000000001
 43
0.00000001
 40
0.0
 40
0.0
 40
0.0
 40
0.0
 40
0.1249999999999998
 40
0.1249999999999998
 40
0.1874999999999993
 40
0.1874999999999993
 40
0.2499999999999988
 40
0.2499999999999988
 40
0.3124999999999983
 40
0.3124999999999983
 40
0.3749999999999978
 40
0.3749999999999978
 40
0.4999999999999986
 40
0.4999999999999986
 40
0.6249999999999993
 40
0.6249999999999993
 40
0.7499999999999999
 40
0.7499999999999999
 40
1.0
 40
1.0
 40
1.0
 40
1.0
 10
407.5161945600664
 20
162.8981169079579
 30
0.0
 10
407.4899636782573
 20
163.093241274779
 30
0.0
 10
407.449472170996
 20
163.2865876524296
 30
0.0
 10
407.3630853906203
 20
163.5558897556534
 30
0.0
 10
407.3301609018679
 20
163.6420006496896
 30
0.0
 10
407.2549262734312
 20
163.8059368706124
 30
0.0
 10
407.2123870724408
 20
163.8838303808421
 30
0.0
 10
407.1204787985138
 20
164.0244935207628
 30
0.0
 10
407.0707785578888
 20
164.0881091436119
 30
0.0
 10
406.9637230464179
 20
164.20168669966
 30
0.0
 10
406.9056727238662
 20
164.2520398457403
 30
0.0
 10
406.7263129451209
 20
164.3774036231439
 30
0.0
 10
406.5990946029983
 20
164.4287014616581
 30
0.0
 10
406.3338047370017
 20
164.4782993873044
 30
0.0
 10
406.2003306671009
 20
164.4758293003034
 30
0.0
 10
405.9350691482612
 20
164.4318916146886
 30
0.0
 10
405.8023378073745
 20
164.389846461686
 30
0.0
 10
405.4172864500742
 20
164.2234852262557
 30
0.0
 10
405.1726765809833
 20
164.0595151622158
 30
0.0
 10
404.9358719522658
 20
163.8608124855979
 30
0.0
  0
LWPOLYLINE
  5
262
330
1F
100
AcDbEntity
  8
0
  6
Continuous
 62
     7
370
    25
100
AcDbPolyline
 90
        4
 70
   128
 43
0.0
 10
407.5032536801
 20
162.0988811727
 10
407.5075936433
 20
162.3669213976
 10
407.51191498
 20
162.6337397273
 10
407.5161953386
 20
162.8981161292
  0
LWPOLYLINE
  5
263
330
1F
100
AcDbEntity
  8
0
  6
Continuous
 62
     7
370
    25
100
AcDbPolyline
 90
        4
 70
   128
 43
0.0
 10
340.7032553967
 20
162.0988811727
 10
340.6989154335
 20
162.3669213976
 10
340.6945940968
 20
162.6337397273
 10
340.6903137382
 20
162.8981161292
  0
SPLINE
  5
264
330
1F
100
AcDbEntity
  8
0
  6
Continuous
 62
     7
370
    25
100
AcDbSpline
210
0.0
220
0.0
230
1.0
 70
     8
 71
     3
 72
    14
 73
    10
 74
     0
 42
0.000000001
 43
0.00000001
 40
0.0000000000000003
 40
0.0000000000000003
 40
0.0000000000000003
 40
0.0000000000000003
 40
0.0000374015792806
 40
0.0000374015792806
 40
0.0000374015792806
 40
0.0000696344187552
 40
0.0000696344187552
 40
0.0000696344187552
 40
0.0000748396572827
 40
0.0000748396572827
 40
0.0000748396572827
 40
0.0000748396572827
 10
407.5804283006732
 20
162.9086115383022
 30
0.0
 10
407.5725109019236
 20
162.9064594577538
 30
0.0
 10
407.5626071247765
 20
162.9043898489697
 30
0.0
 10
407.5517277746632
 20
162.902611670697
 30
0.0
 10
407.5423093874902
 20
162.9010722799006
 30
0.0
 10
407.5319094765254
 20
162.8997074024721
 30
0.0
 10
407.5213228521366
 20
162.8986207950755
 30
0.0
 10
407.5196209498831
 20
162.898446112428
 30
0.0
 10
407.5179103766417
 20
162.8982779989184
 30
0.0
 10
407.5161945600663
 20
162.8981169079586
 30
0.0
  0
SPLINE
  5
265
330
1F
100
AcDbEntity
  8
0
  6
Continuous
 62
     7
370
    25
100
AcDbSpline
210
0.0
220
0.0
230
1.0
 70
     8
 71
     3
 72
    14
 73
    10
 74
     0
 42
0.000000001
 43
0.00000001
 40
0.0
 40
0.0
 40
0.0
 40
0.0
 40
0.0000374015792806
 40
0.0000374015792806
 40
0.0000374015792806
 40
0.0000696344187552
 40
0.0000696344187552
 40
0.0000696344187552
 40
0.0000748396572827
 40
0.0000748396572827
 40
0.0000748396572827
 40
0.0000748396572827
 10
349.180666294601
 20
171.4631970567876
 30
0.0
 10
349.1828183751493
 20
171.455279658038
 30
0.0
 10
349.1848879839335
 20
171.4453758808909
 30
0.0
 10
349.1866661622062
 20
171.4344965307776
 30
0.0
 10
349.1882055530025
 20
171.4250781436047
 30
0.0
 10
349.1895704304316
 20
171.4146782326398
 30
0.0
 10
349.1906570378276
 20
171.404091608251
 30
0.0
 10
349.1908317204752
 20
171.4023897059976
 30
0.0
 10
349.1909998339848
 20
171.4006791327562
 30
0.0
 10
349.1911609249445
 20
171.3989633161808
 30
0.0
  0
SPLINE
  5
266
330
1F
100
AcDbEntity
  8
0
  6
Continuous
 62
     7
370
    25
100
AcDbSpline
210
0.0
220
0.0
230
1.0
 70
     8
 71
     3
 72
    24
 73
    20
 74
     0
 42
0.000000001
 43
0.00000001
 40
0.0
 40
0.0
 40
0.0
 40
0.0
 40
0.1249999999999995
 40
0.1249999999999995
 40
0.1875000000000009
 40
0.1875000000000009
 40
0.2500000000000023
 40
0.2500000000000023
 40
0.3125000000000037
 40
0.3125000000000037
 40
0.375000000000005
 40
0.375000000000005
 40
0.5000000000000041
 40
0.5000000000000041
 40
0.6250000000000032
 40
0.6250000000000032
 40
0.7500000000000021
 40
0.7500000000000021
 40
1.0
 40
1.0
 40
1.0
 40
1.0
 10
349.1911609249453
 20
171.3989633161808
 30
0.0
 10
348.9960365581242
 20
171.3727324343717
 30
0.0
 10
348.8026901804736
 20
171.3322409271105
 30
0.0
 10
348.5333880772498
 20
171.2458541467347
 30
0.0
 10
348.4472771832137
 20
171.2129296579824
 30
0.0
 10
348.2833409622909
 20
171.1376950295456
 30
0.0
 10
348.2054474520612
 20
171.0951558285552
 30
0.0
 10
348.0647843121404
 20
171.0032475546282
 30
0.0
 10
348.0011686892913
 20
170.9535473140033
 30
0.0
 10
347.8875911332432
 20
170.8464918025323
 30
0.0
 10
347.837237987163
 20
170.7884414799806
 30
0.0
 10
347.7118742097593
 20
170.6090817012353
 30
0.0
 10
347.6605763712452
 20
170.4818633591127
 30
0.0
 10
347.6109784455988
 20
170.2165734931161
 30
0.0
 10
347.6134485325998
 20
170.0830994232153
 30
0.0
 10
347.6573862182146
 20
169.8178379043756
 30
0.0
 10
347.6994313712173
 20
169.685106563489
 30
0.0
 10
347.8657926066475
 20
169.3000552061886
 30
0.0
 10
348.0297626706874
 20
169.0554453370977
 30
0.0
 10
348.2284653473053
 20
168.8186407083802
 30
0.0
  0
LWPOLYLINE
  5
267
330
1F
100
AcDbEntity
  8
0
  6
Continuous
 62
     7
370
    25
100
AcDbPolyline
 90
        4
 70
   128
 43
0.0
 10
398.2161124166
 20
171.3860224362
 10
398.4841526415
 20
171.3903623994
 10
398.7509709712
 20
171.3946837361
 10
399.0153473731
 20
171.3989640947
  0
SPLINE
  5
268
330
1F
100
AcDbEntity
  8
0
  6
Continuous
 62
     7
370
    25
100
AcDbSpline
210
0.0
220
0.0
230
1.0
 70
     8
 71
     3
 72
    24
 73
    20
 74
     0
 42
0.000000001
 43
0.00000001
 40
0.0
 40
0.0
 40
0.0
 40
0.0
 40
0.1249999999999995
 40
0.1249999999999995
 40
0.1875000000000009
 40
0.1875000000000009
 40
0.2500000000000023
 40
0.2500000000000023
 40
0.3125000000000037
 40
0.3125000000000037
 40
0.375000000000005
 40
0.375000000000005
 40
0.5000000000000041
 40
0.5000000000000041
 40
0.6250000000000032
 40
0.6250000000000032
 40
0.7500000000000021
 40
0.7500000000000021
 40
1.0
 40
1.0
 40
1.0
 40
1.0
 10
399.0153481518435
 20
171.3989633161808
 30
0.0
 10
399.2104725186646
 20
171.3727324343717
 30
0.0
 10
399.4038188963152
 20
171.3322409271105
 30
0.0
 10
399.673120999539
 20
171.2458541467347
 30
0.0
 10
399.7592318935752
 20
171.2129296579824
 30
0.0
 10
399.923168114498
 20
171.1376950295456
 30
0.0
 10
400.0010616247277
 20
171.0951558285552
 30
0.0
 10
400.1417247646484
 20
171.0032475546282
 30
0.0
 10
400.2053403874975
 20
170.9535473140033
 30
0.0
 10
400.3189179435456
 20
170.8464918025323
 30
0.0
 10
400.3692710896259
 20
170.7884414799806
 30
0.0
 10
400.4946348670295
 20
170.6090817012353
 30
0.0
 10
400.5459327055437
 20
170.4818633591127
 30
0.0
 10
400.5955306311901
 20
170.2165734931161
 30
0.0
 10
400.593060544189
 20
170.0830994232153
 30
0.0
 10
400.5491228585743
 20
169.8178379043756
 30
0.0
 10
400.5070777055716
 20
169.685106563489
 30
0.0
 10
400.3407164701413
 20
169.3000552061886
 30
0.0
 10
400.1767464061015
 20
169.0554453370977
 30
0.0
 10
399.9780437294835
 20
168.8186407083802
 30
0.0
  0
LWPOLYLINE
  5
269
330
1F
100
AcDbEntity
  8
0
  6
Continuous
 62
     7
370
    25
100
AcDbPolyline
 90
        4
 70
   128
 43
0.0
 10
349.9903966602
 20
171.3860224362
 10
349.7223564353
 20
171.3903623994
 10
349.4555381056
 20
171.3946837361
 10
349.1911617037
 20
171.3989640947
  0
SPLINE
  5
26A
330
1F
100
AcDbEntity
  8
0
  6
Continuous
 62
     7
370
    25
100
AcDbSpline
210
0.0
220
0.0
230
1.0
 70
     8
 71
     3
 72
    14
 73
    10
 74
     0
 42
0.000000001
 43
0.00000001
 40
0.0
 40
0.0
 40
0.0
 40
0.0
 40
0.0000374015792806
 40
0.0000374015792806
 40
0.0000374015792806
 40
0.0000696344187552
 40
0.0000696344187552
 40
0.0000696344187552
 40
0.0000748396572827
 40
0.0000748396572827
 40
0.0000748396572827
 40
0.0000748396572827
 10
399.0258427821879
 20
171.4631970567876
 30
0.0
 10
399.0236907016395
 20
171.455279658038
 30
0.0
 10
399.0216210928554
 20
171.4453758808909
 30
0.0
 10
399.0198429145826
 20
171.4344965307776
 30
0.0
 10
399.0183035237862
 20
171.4250781436047
 30
0.0
 10
399.0169386463572
 20
171.4146782326398
 30
0.0
 10
399.0158520389612
 20
171.404091608251
 30
0.0
 10
399.0156773563137
 20
171.4023897059976
 30
0.0
 10
399.0155092428041
 20
171.4006791327562
 30
0.0
 10
399.0153481518443
 20
171.3989633161808
 30
0.0
  0
LINE
  5
26B
330
1F
100
AcDbEntity
  8
0
  6
Continuous
 62
     7
370
    25
100
AcDbLine
 10
399.2356666293
 20
104.48602246
 30
0.0
 11
398.2161124166
 21
104.48602246
 31
0.0
  0
LINE
  5
26C
330
1F
100
AcDbEntity
  8
0
  6
Continuous
 62
     7
370
    25
100
AcDbLine
 10
398.2161124166
 20
104.48602246
 30
0.0
 11
398.2161124166
 21
104.5860241528
 31
0.0
  0
LINE
  5
26D
330
1F
100
AcDbEntity
  8
0
  6
Continuous
 62
     7
370
    25
100
AcDbLine
 10
349.9903966602
 20
104.48602246
 30
0.0
 11
349.9903966602
 21
104.5860241528
 31
0.0
  0
LINE
  5
26E
330
1F
100
AcDbEntity
  8
0
  6
Continuous
 62
     7
370
    25
100
AcDbLine
 10
348.9708424475
 20
104.48602246
 30
0.0
 11
349.9903966602
 21
104.48602246
 31
0.0
  0
LINE
  5
26F
330
1F
100
AcDbEntity
  8
0
  6
Continuous
 62
     7
370
    25
100
AcDbLine
 10
407.6032553729
 20
113.8731654163
 30
0.0
 11
407.5032536801
 21
113.8731654163
 31
0.0
  0
LINE
  5
270
330
1F
100
AcDbEntity
  8
0
  6
Continuous
 62
     7
370
    25
100
AcDbLine
 10
407.6032553729
 20
112.8536112036
 30
0.0
 11
407.6032553729
 21
113.8731654163
 31
0.0
  0
LINE
  5
271
330
1F
100
AcDbEntity
  8
0
  6
Continuous
 62
     7
370
    25
100
AcDbLine
 10
340.6032537039
 20
112.8536112036
 30
0.0
 11
340.6032537039
 21
113.8731654163
 31
0.0
  0
LINE
  5
272
330
1F
100
AcDbEntity
  8
0
  6
Continuous
 62
     7
370
    25
100
AcDbLine
 10
340.6032537039
 20
113.8731654163
 30
0.0
 11
340.7032553967
 21
113.8731654163
 31
0.0
  0
LINE
  5
273
330
1F
100
AcDbEntity
  8
0
  6
Continuous
 62
     7
370
    25
100
AcDbLine
 10
407.6032553729
 20
163.1184353854
 30
0.0
 11
407.6032553729
 21
162.0988811727
 31
0.0
  0
LINE
  5
274
330
1F
100
AcDbEntity
  8
0
  6
Continuous
 62
     7
370
    25
100
AcDbLine
 10
407.6032553729
 20
162.0988811727
 30
0.0
 11
407.5032536801
 21
162.0988811727
 31
0.0
  0
LINE
  5
275
330
1F
100
AcDbEntity
  8
0
  6
Continuous
 62
     7
370
    25
100
AcDbLine
 10
398.2161124166
 20
171.486024129
 30
0.0
 11
398.2161124166
 21
171.3860224362
 31
0.0
  0
LINE
  5
276
330
1F
100
AcDbEntity
  8
0
  6
Continuous
 62
     7
370
    25
100
AcDbLine
 10
399.2356666293
 20
171.486024129
 30
0.0
 11
398.2161124166
 21
171.486024129
 31
0.0
  0
LINE
  5
277
330
1F
100
AcDbEntity
  8
0
  6
Continuous
 62
     7
370
    25
100
AcDbLine
 10
348.9708424475
 20
171.486024129
 30
0.0
 11
349.9903966602
 21
171.486024129
 31
0.0
  0
LINE
  5
278
330
1F
100
AcDbEntity
  8
0
  6
Continuous
 62
     7
370
    25
100
AcDbLine
 10
349.9903966602
 20
171.486024129
 30
0.0
 11
349.9903966602
 21
171.3860224362
 31
0.0
  0
LINE
  5
279
330
1F
100
AcDbEntity
  8
0
  6
Continuous
 62
     7
370
    25
100
AcDbLine
 10
340.6032537039
 20
162.0988811727
 30
0.0
 11
340.7032553967
 21
162.0988811727
 31
0.0
  0
LINE
  5
27A
330
1F
100
AcDbEntity
  8
0
  6
Continuous
 62
     7
370
    25
100
AcDbLine
 10
340.6032537039
 20
163.1184353854
 30
0.0
 11
340.6032537039
 21
162.0988811727
 31
0.0
  0
LINE
  5
27B
330
1F
100
AcDbEntity
  8
0
  6
Continuous
 62
     7
370
    25
100
AcDbLine
 10
398.2161124166
 20
104.5860241528
 30
0.0
 11
349.9903966602
 21
104.5860241528
 31
0.0
  0
LINE
  5
27C
330
1F
100
AcDbEntity
  8
0
  6
Continuous
 62
     7
370
    25
100
AcDbLine
 10
349.9903966602
 20
104.48602246
 30
0.0
 11
398.2161124166
 21
104.48602246
 31
0.0
  0
LINE
  5
27D
330
1F
100
AcDbEntity
  8
0
  6
Continuous
 62
     7
370
    25
100
AcDbLine
 10
407.5032536801
 20
113.8731654163
 30
0.0
 11
407.5032536801
 21
162.0988811727
 31
0.0
  0
LINE
  5
27E
330
1F
100
AcDbEntity
  8
0
  6
Continuous
 62
     7
370
    25
100
AcDbLine
 10
407.6032553729
 20
162.0988811727
 30
0.0
 11
407.6032553729
 21
113.8731654163
 31
0.0
  0
LINE
  5
27F
330
1F
100
AcDbEntity
  8
0
  6
Continuous
 62
     7
370
    25
100
AcDbLine
 10
340.7032553967
 20
113.8731654163
 30
0.0
 11
340.7032553967
 21
162.0988811727
 31
0.0
  0
LINE
  5
280
330
1F
100
AcDbEntity
  8
0
  6
Continuous
 62
     7
370
    25
100
AcDbLine
 10
340.6032537039
 20
162.0988811727
 30
0.0
 11
340.6032537039
 21
113.8731654163
 31
0.0
  0
LINE
  5
281
330
1F
100
AcDbEntity
  8
0
  6
Continuous
 62
     7
370
    25
100
AcDbLine
 10
349.9903966602
 20
171.3860224362
 30
0.0
 11
398.2161124166
 21
171.3860224362
 31
0.0
  0
LINE
  5
282
330
1F
100
AcDbEntity
  8
0
  6
Continuous
 62
     7
370
    25
100
AcDbLine
 10
398.2161124166
 20
171.486024129
 30
0.0
 11
349.9903966602
 21
171.486024129
 31
0.0
  0
SPLINE
  5
283
330
1F
100
AcDbEntity
  8
0
  6
Continuous
 62
     8
370
    25
100
AcDbSpline
210
0.0
220
0.0
230
1.0
 70
     8
 71
     3
 72
    10
 73
     6
 74
     0
 42
0.000000001
 43
0.00000001
 40
0.0
 40
0.0
 40
0.0
 40
0.0
 40
0.3691111860058142
 40
0.7404350394412982
 40
0.9999999999999999
 40
0.9999999999999999
 40
0.9999999999999999
 40
0.9999999999999999
 10
348.0218098428025
 20
155.8978802885419
 30
0.0
 10
348.0194721925121
 20
156.0070119500895
 30
0.0
 10
348.0147828786938
 20
156.2259294719253
 30
0.0
 10
347.9951285240038
 20
156.5217941808162
 30
0.0
 10
347.9612948987037
 20
156.7023484506843
 30
0.0
 10
347.9473748173489
 20
156.7766334291106
 30
0.0
  0
SPLINE
  5
284
330
1F
100
AcDbEntity
  8
0
  6
Continuous
 62
     8
370
    25
100
AcDbSpline
210
0.0
220
0.0
230
1.0
 70
     8
 71
     3
 72
    10
 73
     6
 74
     0
 42
0.000000001
 43
0.00000001
 40
0.0
 40
0.0
 40
0.0
 40
0.0
 40
0.1854859255591821
 40
0.5881811427984006
 40
0.9999999999999999
 40
0.9999999999999999
 40
0.9999999999999999
 40
0.9999999999999999
 10
346.7186064388528
 20
160.2920054818994
 30
0.0
 10
346.634854652758
 20
160.4504533511916
 30
0.0
 10
346.3692753582205
 20
160.9528960489504
 30
0.0
 10
345.8260621057623
 20
161.6942056351018
 30
0.0
 10
345.3270972132025
 20
162.1734858498485
 30
0.0
 10
345.0748202320113
 20
162.4158102448588
 30
0.0
  0
LINE
  5
285
330
1F
100
AcDbEntity
  8
0
  6
Continuous
 62
     8
370
    25
100
AcDbLine
 10
347.9933188226
 20
155.8978802885
 30
0.0
 11
348.0218098428
 21
155.8978802885
 31
0.0
  0
LINE
  5
286
330
1F
100
AcDbEntity
  8
0
  6
Continuous
 62
     8
370
    25
100
AcDbLine
 10
356.1913975444
 20
111.876091304
 30
0.0
 11
356.1913975444
 21
111.9045785989
 31
0.0
  0
LINE
  5
287
330
1F
100
AcDbEntity
  8
0
  6
Continuous
 62
     8
370
    25
100
AcDbLine
 10
392.0151115324
 20
111.8760894414
 30
0.0
 11
392.0151115324
 21
111.9045785989
 31
0.0
  0
LINE
  5
288
330
1F
100
AcDbEntity
  8
0
  6
Continuous
 62
     8
370
    25
100
AcDbLine
 10
347.9933188226
 20
120.0741663005
 30
0.0
 11
348.0218098428
 21
120.0741663005
 31
0.0
  0
LINE
  5
289
330
1F
100
AcDbEntity
  8
0
  6
Continuous
 62
     8
370
    25
100
AcDbLine
 10
400.2131865289
 20
120.0741663005
 30
0.0
 11
400.184699234
 21
120.0741663005
 31
0.0
  0
LINE
  5
28A
330
1F
100
AcDbEntity
  8
0
  6
Continuous
 62
     8
370
    25
100
AcDbLine
 10
400.2131883915
 20
155.8978802885
 30
0.0
 11
400.184699234
 21
155.8978802885
 31
0.0
  0
LINE
  5
28B
330
1F
100
AcDbEntity
  8
0
  6
Continuous
 62
     8
370
    25
100
AcDbLine
 10
392.0151115324
 20
164.0959590103
 30
0.0
 11
392.0151115324
 21
164.0674679901
 31
0.0
  0
LINE
  5
28C
330
1F
100
AcDbEntity
  8
0
  6
Continuous
 62
     8
370
    25
100
AcDbLine
 10
356.1913975444
 20
164.0959590103
 30
0.0
 11
356.1913975444
 21
164.0674679901
 31
0.0
  0
LINE
  5
28D
330
1F
100
AcDbEntity
  8
0
  6
Continuous
 62
     8
370
    25
100
AcDbLine
 10
407.5032536801
 20
113.8731654163
 30
0.0
 11
400.210115027
 21
119.9928376253
 31
0.0
  0
LINE
  5
28E
330
1F
100
AcDbEntity
  8
0
  6
Continuous
 62
     8
370
    25
100
AcDbLine
 10
340.7032553967
 20
113.8731654163
 30
0.0
 11
347.9895208891
 21
119.9870690133
 31
0.0
  0
LINE
  5
28F
330
1F
100
AcDbEntity
  8
0
  6
Continuous
 62
     8
370
    25
100
AcDbLine
 10
398.2161124166
 20
104.5860241528
 30
0.0
 11
392.0992770161
 21
111.8757821049
 31
0.0
  0
LINE
  5
290
330
1F
100
AcDbEntity
  8
0
  6
Continuous
 62
     8
370
    25
100
AcDbLine
 10
349.9903966602
 20
104.5860241528
 30
0.0
 11
356.1100688692
 21
111.8791628059
 31
0.0
  0
LINE
  5
291
330
1F
100
AcDbEntity
  8
0
  6
Continuous
 62
     8
370
    25
100
AcDbLine
 10
407.5032536801
 20
162.0988811727
 30
0.0
 11
400.213495728
 21
155.9820457723
 31
0.0
  0
LINE
  5
292
330
1F
100
AcDbEntity
  8
0
  6
Continuous
 62
     8
370
    25
100
AcDbLine
 10
340.7032553967
 20
162.0988811727
 30
0.0
 11
347.9918976244
 21
155.9829826828
 31
0.0
  0
LINE
  5
293
330
1F
100
AcDbEntity
  8
0
  6
Continuous
 62
     8
370
    25
100
AcDbLine
 10
398.2161124166
 20
171.3860224362
 30
0.0
 11
392.1002139267
 21
164.0973802086
 31
0.0
  0
LINE
  5
294
330
1F
100
AcDbEntity
  8
0
  6
Continuous
 62
     8
370
    25
100
AcDbLine
 10
349.9903966602
 20
171.3860224362
 30
0.0
 11
356.104458582
 21
164.0995688166
 31
0.0
  0
SPLINE
  5
295
330
1F
100
AcDbEntity
  8
0
  6
Continuous
 62
     7
370
    25
100
AcDbSpline
210
0.0
220
0.0
230
1.0
 70
     8
 71
     3
 72
    14
 73
    10
 74
     0
 42
0.000000001
 43
0.00000001
 40
0.0
 40
0.0
 40
0.0
 40
0.0
 40
0.0091990946941759
 40
0.1526134977097959
 40
0.3155764288672448
 40
0.4903416230876444
 40
0.6729303349931481
 40
0.8638499980740099
 40
1.0
 40
1.0
 40
1.0
 40
1.0
 10
272.013400071862
 20
119.0268542308827
 30
0.0
 10
272.0116465880677
 20
119.0151100410576
 30
0.0
 10
271.9825561934229
 20
118.8202732721621
 30
0.0
 10
271.8886745272639
 20
118.429410026931
 30
0.0
 10
271.7295894288822
 20
117.8446366232224
 30
0.0
 10
271.5174047715345
 20
117.2368546950147
 30
0.0
 10
271.2605617789176
 20
116.6247275736108
 30
0.0
 10
270.9970352593711
 20
116.0785197088665
 30
0.0
 10
270.8064608143369
 20
115.7539767687571
 30
0.0
 10
270.7271299749639
 20
115.6188785721083
 30
0.0
  0
SPLINE
  5
296
330
1F
100
AcDbEntity
  8
0
  6
Continuous
 62
     7
370
    25
100
AcDbSpline
210
0.0
220
0.0
230
1.0
 70
     8
 71
     3
 72
    10
 73
     6
 74
     0
 42
0.000000001
 43
0.00000001
 40
0.0
 40
0.0
 40
0.0
 40
0.0
 40
0.1954253526276923
 40
0.5937596848550096
 40
1.0
 40
1.0
 40
1.0
 40
1.0
 10
272.1182874828603
 20
120.1697937835474
 30
0.0
 10
272.1192740284568
 20
120.0944179506837
 30
0.0
 10
272.1222714440664
 20
119.8654040066635
 30
0.0
 10
272.0877926720888
 20
119.4811295830436
 30
0.0
 10
272.0383595200817
 20
119.1792680743991
 30
0.0
 10
272.013400071862
 20
119.0268542308827
 30
0.0
  0
SPLINE
  5
297
330
1F
100
AcDbEntity
  8
0
  6
Continuous
 62
     7
370
    25
100
AcDbSpline
210
0.0
220
0.0
230
1.0
 70
     8
 71
     3
 72
    13
 73
     9
 74
     0
 42
0.000000001
 43
0.00000001
 40
0.0
 40
0.0
 40
0.0
 40
0.0
 40
0.1570709957032965
 40
0.3347158730754459
 40
0.5300966041334421
 40
0.734329092396941
 40
0.94788013095384
 40
1.0
 40
1.0
 40
1.0
 40
1.0
 10
317.3247206449535
 20
111.8578925420065
 30
0.0
 10
317.5007919044482
 20
111.8227888909826
 30
0.0
 10
317.8759970470742
 20
111.747983551219
 30
0.0
 10
318.4490839360155
 20
111.5858341580153
 30
0.0
 10
319.0528360172688
 20
111.3790430843451
 30
0.0
 10
319.663504975589
 20
111.1221818658822
 30
0.0
 10
320.1173484393336
 20
110.9090797768345
 30
0.0
 10
320.3545431914297
 20
110.7724219450523
 30
0.0
 10
320.4010765492942
 20
110.7456121284981
 30
0.0
  0
SPLINE
  5
298
330
1F
100
AcDbEntity
  8
0
  6
Continuous
 62
     7
370
    25
100
AcDbSpline
210
0.0
220
0.0
230
1.0
 70
     8
 71
     3
 72
    11
 73
     7
 74
     0
 42
0.000000001
 43
0.00000001
 40
0.0
 40
0.0
 40
0.0
 40
0.0
 40
0.164789428196709
 40
0.5513690446859321
 40
0.9858967822748229
 40
1.0
 40
1.0
 40
1.0
 40
1.0
 10
316.1405346781041
 20
111.9679394800682
 30
0.0
 10
316.2064055255109
 20
111.968786433471
 30
0.0
 10
316.4268028325756
 20
111.9716202553592
 30
0.0
 10
316.8180058829178
 20
111.9343262881859
 30
0.0
 10
317.1480218028104
 20
111.8955454448324
 30
0.0
 10
317.3193352155046
 20
111.8590401276344
 30
0.0
 10
317.3247206449535
 20
111.8578925420065
 30
0.0
  0
SPLINE
  5
299
330
1F
100
AcDbEntity
  8
0
  6
Continuous
 62
     7
370
    25
100
AcDbSpline
210
0.0
220
0.0
230
1.0
 70
     8
 71
     3
 72
    11
 73
     7
 74
     0
 42
0.000000001
 43
0.00000001
 40
0.0
 40
0.0
 40
0.0
 40
0.0
 40
0.0020358486260001
 40
0.4767830043330678
 40
0.9042852194334386
 40
1.0
 40
1.0
 40
1.0
 40
1.0
 10
272.0291487365987
 20
157.052009894373
 30
0.0
 10
272.0292897702138
 20
157.0513132978644
 30
0.0
 10
272.0623189600296
 20
156.8881747560779
 30
0.0
 10
272.0957953467387
 20
156.5685309305724
 30
0.0
 10
272.1268863211553
 20
156.2139992646172
 30
0.0
 10
272.1206013738656
 20
156.0275994072497
 30
0.0
 10
272.1194516360786
 20
155.9935003210325
 30
0.0
  0
SPLINE
  5
29A
330
1F
100
AcDbEntity
  8
0
  6
Continuous
 62
     7
370
    25
100
AcDbSpline
210
0.0
220
0.0
230
1.0
 70
     8
 71
     3
 72
    13
 73
     9
 74
     0
 42
0.000000001
 43
0.00000001
 40
0.0
 40
0.0
 40
0.0
 40
0.0
 40
0.0982088338437836
 40
0.2922784035429976
 40
0.4896265777287065
 40
0.6776075436335908
 40
0.8558490233225517
 40
1.0
 40
1.0
 40
1.0
 40
1.0
 10
270.730214515331
 20
160.5384550679941
 30
0.0
 10
270.7892177257982
 20
160.4398448296788
 30
0.0
 10
270.9648166356342
 20
160.1463718099945
 30
0.0
 10
271.2262222705161
 20
159.6140873876138
 30
0.0
 10
271.5075456881421
 20
158.9576008117248
 30
0.0
 10
271.7399800412208
 20
158.2849175005781
 30
0.0
 10
271.9149639164732
 20
157.6518290332951
 30
0.0
 10
271.993868305717
 20
157.2373399377975
 30
0.0
 10
272.0291487365987
 20
157.052009894373
 30
0.0
  0
SPLINE
  5
29B
330
1F
100
AcDbEntity
  8
0
  6
Continuous
 62
     7
370
    25
100
AcDbSpline
210
0.0
220
0.0
230
1.0
 70
     8
 71
     3
 72
    13
 73
     9
 74
     0
 42
0.000000001
 43
0.00000001
 40
0.0
 40
0.0
 40
0.0
 40
0.0
 40
0.1570709957032965
 40
0.3347158730754459
 40
0.5300966041334421
 40
0.734329092396941
 40
0.94788013095384
 40
1.0
 40
1.0
 40
1.0
 40
1.0
 10
324.4524266064193
 20
157.1777067769785
 30
0.0
 10
324.4875302574432
 20
157.3537780364732
 30
0.0
 10
324.5623355972068
 20
157.7289831790992
 30
0.0
 10
324.7244849904106
 20
158.3020700680405
 30
0.0
 10
324.9312760640808
 20
158.9058221492938
 30
0.0
 10
325.1881372825437
 20
159.516491107614
 30
0.0
 10
325.4012393715913
 20
159.9703345713587
 30
0.0
 10
325.5378972033736
 20
160.2075293234547
 30
0.0
 10
325.5647070199277
 20
160.2540626813193
 30
0.0
  0
SPLINE
  5
29C
330
1F
100
AcDbEntity
  8
0
  6
Continuous
 62
     7
370
    25
100
AcDbSpline
210
0.0
220
0.0
230
1.0
 70
     8
 71
     3
 72
    11
 73
     7
 74
     0
 42
0.000000001
 43
0.00000001
 40
0.0
 40
0.0
 40
0.0
 40
0.0
 40
0.164789428196709
 40
0.5513690446859321
 40
0.9858967822748229
 40
1.0
 40
1.0
 40
1.0
 40
1.0
 10
324.3423796683576
 20
155.9935208101292
 30
0.0
 10
324.3415327149548
 20
156.0593916575359
 30
0.0
 10
324.3386988930666
 20
156.2797889646006
 30
0.0
 10
324.3759928602399
 20
156.6709920149428
 30
0.0
 10
324.4147737035934
 20
157.0010079348355
 30
0.0
 10
324.4512790207914
 20
157.1723213475295
 30
0.0
 10
324.4524266064193
 20
157.1777067769785
 30
0.0
  0
SPLINE
  5
29D
330
1F
100
AcDbEntity
  8
0
  6
Continuous
 62
     7
370
    25
100
AcDbSpline
210
0.0
220
0.0
230
1.0
 70
     8
 71
     3
 72
    11
 73
     7
 74
     0
 42
0.000000001
 43
0.00000001
 40
0.0
 40
0.0
 40
0.0
 40
0.0
 40
0.0259459294301048
 40
0.483468404605851
 40
0.8967300972098106
 40
1.0
 40
1.0
 40
1.0
 40
1.0
 10
324.444996514919
 20
119.029828875186
 30
0.0
 10
324.4430143366844
 20
119.0393820862115
 30
0.0
 10
324.4060790420237
 20
119.2173936585403
 30
0.0
 10
324.3693861075895
 20
119.5589347098451
 30
0.0
 10
324.3356452363134
 20
119.9315492808426
 30
0.0
 10
324.340715841624
 20
120.1300281781318
 30
0.0
 10
324.3417296052005
 20
120.1697099645157
 30
0.0
  0
SPLINE
  5
29E
330
1F
100
AcDbEntity
  8
0
  6
Continuous
 62
     7
370
    25
100
AcDbSpline
210
0.0
220
0.0
230
1.0
 70
     8
 71
     3
 72
    13
 73
     9
 74
     0
 42
0.000000001
 43
0.00000001
 40
0.0
 40
0.0
 40
0.0
 40
0.0
 40
0.1058014890967527
 40
0.3041850828600034
 40
0.505617287629648
 40
0.6973684707298923
 40
0.8606998169870811
 40
1.0
 40
1.0
 40
1.0
 40
1.0
 10
325.7274314254548
 20
115.6242485780735
 30
0.0
 10
325.6653198117835
 20
115.7283990130072
 30
0.0
 10
325.4867455165396
 20
116.0278372246117
 30
0.0
 10
325.2230543897565
 20
116.5664856275739
 30
0.0
 10
324.9428566438383
 20
117.2235749559635
 30
0.0
 10
324.7194527614126
 20
117.8747476637066
 30
0.0
 10
324.5521554321801
 20
118.4740966214514
 30
0.0
 10
324.478773807589
 20
118.8546579098541
 30
0.0
 10
324.444996514919
 20
119.029828875186
 30
0.0
  0
SPLINE
  5
29F
330
1F
100
AcDbEntity
  8
0
  6
Continuous
 62
     7
370
    25
100
AcDbSpline
210
0.0
220
0.0
230
1.0
 70
     8
 71
     3
 72
    11
 73
     7
 74
     0
 42
0.000000001
 43
0.00000001
 40
0.0
 40
0.0
 40
0.0
 40
0.0
 40
0.0259459294301048
 40
0.483468404605851
 40
0.8967300972098106
 40
1.0
 40
1.0
 40
1.0
 40
1.0
 10
279.1768427431609
 20
111.8653226335068
 30
0.0
 10
279.1863959541865
 20
111.8673048117414
 30
0.0
 10
279.3644075265153
 20
111.9042401064021
 30
0.0
 10
279.7059485778201
 20
111.9409330408364
 30
0.0
 10
280.0785631488176
 20
111.9746739121125
 30
0.0
 10
280.2770420461068
 20
111.9696033068018
 30
0.0
 10
280.3167238324907
 20
111.9685895432253
 30
0.0
  0
SPLINE
  5
2A0
330
1F
100
AcDbEntity
  8
0
  6
Continuous
 62
     7
370
    25
100
AcDbSpline
210
0.0
220
0.0
230
1.0
 70
     8
 71
     3
 72
    13
 73
     9
 74
     0
 42
0.000000001
 43
0.00000001
 40
0.0
 40
0.0
 40
0.0
 40
0.0
 40
0.1059768075181938
 40
0.3043215057810895
 40
0.5057142173333589
 40
0.6974278052974888
 40
0.8607271284709345
 40
1.0
 40
1.0
 40
1.0
 40
1.0
 10
275.7706775754716
 20
110.5825468589087
 30
0.0
 10
275.8750200013032
 20
110.6447745052777
 30
0.0
 10
276.1746482396841
 20
110.8234665369376
 30
0.0
 10
276.7134974361558
 20
111.087266398416
 30
0.0
 10
277.3705893526104
 20
111.3674620836441
 30
0.0
 10
278.0217614156422
 20
111.5908664794072
 30
0.0
 10
278.6211105118608
 20
111.7581636983828
 30
0.0
 10
279.0016717849006
 20
111.8315453352063
 30
0.0
 10
279.1768427431609
 20
111.8653226335068
 30
0.0
  0
LINE
  5
2A1
330
1F
100
AcDbEntity
  8
0
  6
Continuous
 62
     7
370
    25
100
AcDbLine
 10
272.1187307924
 20
155.9935096343
 30
0.0
 11
272.1187307924
 21
120.1697956462
 31
0.0
  0
LINE
  5
2A2
330
1F
100
AcDbEntity
  8
0
  6
Continuous
 62
     7
370
    25
100
AcDbLine
 10
324.338602224
 20
120.1697956462
 30
0.0
 11
324.338602224
 21
155.9935096343
 31
0.0
  0
LINE
  5
2A3
330
1F
100
AcDbEntity
  8
0
  6
Continuous
 62
     7
370
    25
100
AcDbLine
 10
280.3168095142
 20
111.9717169244
 30
0.0
 11
316.1405235022
 21
111.9717169244
 31
0.0
  0
LINE
  5
2A4
330
1F
100
AcDbEntity
  8
0
  6
Continuous
 62
     7
370
    25
100
AcDbLine
 10
313.5458541527
 20
122.7644649957
 30
0.0
 11
313.8685993344
 21
122.7644649957
 31
0.0
  0
ARC
  5
2A5
330
1F
100
AcDbEntity
  8
0
  6
Continuous
 62
     7
370
    25
100
AcDbCircle
 10
313.0707018652
 20
123.2396172832
 30
0.0
 40
0.9286603618020709
100
AcDbArc
 50
300.7740287899
 51
329.2259712101
  0
LINE
  5
2A6
330
1F
100
AcDbEntity
  8
0
  6
Continuous
 62
     7
370
    25
100
AcDbLine
 10
313.5458541527
 20
122.7644649957
 30
0.0
 11
313.5458541527
 21
122.4417198141
 31
0.0
  0
LINE
  5
2A7
330
1F
100
AcDbEntity
  8
0
  6
Continuous
 62
     7
370
    25
100
AcDbLine
 10
313.5458541527
 20
153.3988402848
 30
0.0
 11
313.8685993344
 21
153.3988402848
 31
0.0
  0
LINE
  5
2A8
330
1F
100
AcDbEntity
  8
0
  6
Continuous
 62
     7
370
    25
100
AcDbLine
 10
313.8685993344
 20
153.3988402848
 30
0.0
 11
313.8685993344
 21
122.7644649957
 31
0.0
  0
LINE
  5
2A9
330
1F
100
AcDbEntity
  8
0
  6
Continuous
 62
     7
370
    25
100
AcDbLine
 10
313.5458541527
 20
122.7644649957
 30
0.0
 11
313.5458541527
 21
153.3988402848
 31
0.0
  0
LINE
  5
2AA
330
1F
100
AcDbEntity
  8
0
  6
Continuous
 62
     7
370
    25
100
AcDbLine
 10
282.9114788637
 20
122.7644649957
 30
0.0
 11
313.5458541527
 21
122.7644649957
 31
0.0
  0
LINE
  5
2AB
330
1F
100
AcDbEntity
  8
0
  6
Continuous
 62
     7
370
    25
100
AcDbLine
 10
282.9114788637
 20
153.3988402848
 30
0.0
 11
282.9114788637
 21
122.7644649957
 31
0.0
  0
LINE
  5
2AC
330
1F
100
AcDbEntity
  8
0
  6
Continuous
 62
     7
370
    25
100
AcDbLine
 10
313.5458541527
 20
153.3988402848
 30
0.0
 11
282.9114788637
 21
153.3988402848
 31
0.0
  0
LINE
  5
2AD
330
1F
100
AcDbEntity
  8
0
  6
Continuous
 62
     7
370
    25
100
AcDbLine
 10
282.9114788637
 20
122.7644649957
 30
0.0
 11
282.9114788637
 21
122.4417198141
 31
0.0
  0
ARC
  5
2AE
330
1F
100
AcDbEntity
  8
0
  6
Continuous
 62
     7
370
    25
100
AcDbCircle
 10
283.3866311512
 20
123.2396172832
 30
0.0
 40
0.9286603618020709
100
AcDbArc
 50
210.7740287899
 51
239.2259712101
  0
LINE
  5
2AF
330
1F
100
AcDbEntity
  8
0
  6
Continuous
 62
     7
370
    25
100
AcDbLine
 10
282.9114788637
 20
122.7644649957
 30
0.0
 11
282.588733682
 21
122.7644649957
 31
0.0
  0
LINE
  5
2B0
330
1F
100
AcDbEntity
  8
0
  6
Continuous
 62
     7
370
    25
100
AcDbLine
 10
282.588733682
 20
122.7644649957
 30
0.0
 11
282.588733682
 21
153.3988402848
 31
0.0
  0
LINE
  5
2B1
330
1F
100
AcDbEntity
  8
0
  6
Continuous
 62
     7
370
    25
100
AcDbLine
 10
282.9114788637
 20
153.3988402848
 30
0.0
 11
282.588733682
 21
153.3988402848
 31
0.0
  0
LINE
  5
2B2
330
1F
100
AcDbEntity
  8
0
  6
Continuous
 62
     7
370
    25
100
AcDbLine
 10
313.5458541527
 20
153.3988402848
 30
0.0
 11
313.5458541527
 21
153.7215854664
 31
0.0
  0
ARC
  5
2B3
330
1F
100
AcDbEntity
  8
0
  6
Continuous
 62
     7
370
    25
100
AcDbCircle
 10
313.0707018652
 20
152.9236879973
 30
0.0
 40
0.9286603618020831
100
AcDbArc
 50
30.7740287899
 51
59.2259712101
  0
LINE
  5
2B4
330
1F
100
AcDbEntity
  8
0
  6
Continuous
 62
     7
370
    25
100
AcDbLine
 10
313.5458541527
 20
122.4417198141
 30
0.0
 11
282.9114788637
 21
122.4417198141
 31
0.0
  0
ARC
  5
2B5
330
1F
100
AcDbEntity
  8
0
  6
Continuous
 62
     7
370
    25
100
AcDbCircle
 10
283.3866311512
 20
152.9236879973
 30
0.0
 40
0.9286603618020831
100
AcDbArc
 50
120.7740287899
 51
149.2259712101
  0
LINE
  5
2B6
330
1F
100
AcDbEntity
  8
0
  6
Continuous
 62
     7
370
    25
100
AcDbLine
 10
282.9114788637
 20
153.3988402848
 30
0.0
 11
282.9114788637
 21
153.7215854664
 31
0.0
  0
LINE
  5
2B7
330
1F
100
AcDbEntity
  8
0
  6
Continuous
 62
     7
370
    25
100
AcDbLine
 10
282.9114788637
 20
153.7215854664
 30
0.0
 11
313.5458541527
 21
153.7215854664
 31
0.0
  0
LWPOLYLINE
  5
2B8
330
1F
100
AcDbEntity
  8
0
  6
Continuous
 62
     7
370
    25
100
AcDbPolyline
 90
        7
 70
   128
 43
0.0
 10
313.8685993344
 20
122.7644649957
 10
317.0486952603
 20
119.594968452
 10
320.149861598
 20
116.5041397948
 10
323.1696471065
 20
113.4944200207
 10
326.1056713253
 20
110.5681821395
 10
328.9556152612
 20
107.7277376939
 10
331.7172307014
 20
104.9753293086
  0
SPLINE
  5
2B9
330
1F
100
AcDbEntity
  8
0
  6
Continuous
 62
     7
370
    25
100
AcDbSpline
210
0.0
220
0.0
230
1.0
 70
     8
 71
     3
 72
    10
 73
     6
 74
     0
 42
0.000000001
 43
0.00000001
 40
0.0
 40
0.0
 40
0.0
 40
0.0
 40
0.5
 40
0.5
 40
1.0
 40
1.0
 40
1.0
 40
1.0
 10
331.3349907172137
 20
104.5930882508377
 30
0.0
 10
331.42689770608
 20
104.6130895814837
 30
0.0
 10
331.5137932343539
 20
104.659794693151
 30
0.0
 10
331.6500133327605
 20
104.7957711422058
 30
0.0
 10
331.6972246507046
 20
104.8833988520198
 30
0.0
 10
331.717230897588
 20
104.9753284312118
 30
0.0
  0
LWPOLYLINE
  5
2BA
330
1F
100
AcDbEntity
  8
0
  6
Continuous
 62
     7
370
    25
100
AcDbPolyline
 90
        7
 70
   128
 43
0.0
 10
331.3349898398
 20
104.593088447
 10
328.5825814545
 20
107.3547038872
 10
325.7421370089
 20
110.2046478231
 10
322.8158991277
 20
113.1406720419
 10
319.8061793536
 20
116.1604575504
 10
316.7153506964
 20
119.2616238881
 10
313.5458541527
 20
122.4417198141
  0
LWPOLYLINE
  5
2BB
330
1F
100
AcDbEntity
  8
0
  6
Continuous
 62
     7
370
    25
100
AcDbPolyline
 90
        7
 70
   128
 43
0.0
 10
282.588733682
 20
153.3988402848
 10
279.4086377561
 20
156.5683368285
 10
276.3074714184
 20
159.6591654856
 10
273.2876859099
 20
162.6688852597
 10
270.3516616911
 20
165.5951231409
 10
267.5017177552
 20
168.4355675865
 10
264.740102315
 20
171.1879759718
  0
SPLINE
  5
2BC
330
1F
100
AcDbEntity
  8
0
  6
Continuous
 62
     7
370
    25
100
AcDbSpline
210
0.0
220
0.0
230
1.0
 70
     8
 71
     3
 72
    10
 73
     6
 74
     0
 42
0.000000001
 43
0.00000001
 40
0.0
 40
0.0
 40
0.0
 40
0.0
 40
0.5
 40
0.5
 40
1.0
 40
1.0
 40
1.0
 40
1.0
 10
265.1223422991873
 20
171.5702170296133
 30
0.0
 10
265.030435310321
 20
171.5502156989673
 30
0.0
 10
264.9435397820471
 20
171.5035105873001
 30
0.0
 10
264.8073196836405
 20
171.3675341382453
 30
0.0
 10
264.7601083656964
 20
171.2799064284312
 30
0.0
 10
264.740102118813
 20
171.1879768492392
 30
0.0
  0
LWPOLYLINE
  5
2BD
330
1F
100
AcDbEntity
  8
0
  6
Continuous
 62
     7
370
    25
100
AcDbPolyline
 90
        7
 70
   128
 43
0.0
 10
265.1223431766
 20
171.5702168335
 10
267.8747515619
 20
168.8086013932
 10
270.7151960075
 20
165.9586574574
 10
273.6414338887
 20
163.0226332386
 10
276.6511536628
 20
160.00284773
 10
279.74198232
 20
156.9016813923
 10
282.9114788637
 20
153.7215854664
  0
LWPOLYLINE
  5
2BE
330
1F
100
AcDbEntity
  8
0
  6
Continuous
 62
     7
370
    25
100
AcDbPolyline
 90
        7
 70
   128
 43
0.0
 10
313.5458541527
 20
153.7215854664
 10
316.7153506964
 20
156.9016813923
 10
319.8061793536
 20
160.00284773
 10
322.8158991277
 20
163.0226332386
 10
325.7421370089
 20
165.9586574574
 10
328.5825814545
 20
168.8086013932
 10
331.3349898398
 20
171.5702168335
  0
SPLINE
  5
2BF
330
1F
100
AcDbEntity
  8
0
  6
Continuous
 62
     7
370
    25
100
AcDbSpline
210
0.0
220
0.0
230
1.0
 70
     8
 71
     3
 72
    10
 73
     6
 74
     0
 42
0.000000001
 43
0.00000001
 40
0.0
 40
0.0
 40
0.0
 40
0.0
 40
0.5
 40
0.5
 40
1.0
 40
1.0
 40
1.0
 40
1.0
 10
331.717230897588
 20
171.1879768492389
 30
0.0
 10
331.697229566942
 20
171.2798838381051
 30
0.0
 10
331.6505244552748
 20
171.3667793663791
 30
0.0
 10
331.5145480062199
 20
171.5029994647856
 30
0.0
 10
331.4269202964059
 20
171.5502107827297
 30
0.0
 10
331.3349907172139
 20
171.5702170296131
 30
0.0
  0
LWPOLYLINE
  5
2C0
330
1F
100
AcDbEntity
  8
0
  6
Continuous
 62
     7
370
    25
100
AcDbPolyline
 90
        7
 70
   128
 43
0.0
 10
331.7172307014
 20
171.1879759718
 10
328.9556152612
 20
168.4355675865
 10
326.1056713253
 20
165.5951231409
 10
323.1696471065
 20
162.6688852597
 10
320.149861598
 20
159.6591654856
 10
317.0486952603
 20
156.5683368285
 10
313.8685993344
 20
153.3988402848
  0
LWPOLYLINE
  5
2C1
330
1F
100
AcDbEntity
  8
0
  6
Continuous
 62
     7
370
    25
100
AcDbPolyline
 90
        7
 70
   128
 43
0.0
 10
282.9114788637
 20
122.4417198141
 10
279.74198232
 20
119.2616238881
 10
276.6511536628
 20
116.1604575504
 10
273.6414338887
 20
113.1406720419
 10
270.7151960075
 20
110.2046478231
 10
267.8747515619
 20
107.3547038872
 10
265.1223431766
 20
104.593088447
  0
SPLINE
  5
2C2
330
1F
100
AcDbEntity
  8
0
  6
Continuous
 62
     7
370
    25
100
AcDbSpline
210
0.0
220
0.0
230
1.0
 70
     8
 71
     3
 72
    10
 73
     6
 74
     0
 42
0.000000001
 43
0.00000001
 40
0.0
 40
0.0
 40
0.0
 40
0.0
 40
0.5
 40
0.5
 40
1.0
 40
1.0
 40
1.0
 40
1.0
 10
264.7401021188128
 20
104.975328431212
 30
0.0
 10
264.7601034494588
 20
104.8834214423457
 30
0.0
 10
264.806808561126
 20
104.7965259140718
 30
0.0
 10
264.9427850101808
 20
104.6603058156652
 30
0.0
 10
265.0304127199949
 20
104.6130944977211
 30
0.0
 10
265.1223422991869
 20
104.5930882508377
 30
0.0
  0
LWPOLYLINE
  5
2C3
330
1F
100
AcDbEntity
  8
0
  6
Continuous
 62
     7
370
    25
100
AcDbPolyline
 90
        7
 70
   128
 43
0.0
 10
264.740102315
 20
104.9753293086
 10
267.5017177552
 20
107.7277376939
 10
270.3516616911
 20
110.5681821395
 10
273.2876859099
 20
113.4944200207
 10
276.3074714184
 20
116.5041397948
 10
279.4086377561
 20
119.594968452
 10
282.588733682
 20
122.7644649957
  0
SPLINE
  5
2C4
330
1F
100
AcDbEntity
  8
0
  6
Continuous
 62
     7
370
    25
100
AcDbSpline
210
0.0
220
0.0
230
1.0
 70
     8
 71
     3
 72
     8
 73
     4
 74
     0
 42
0.000000001
 43
0.00000001
 40
0.0
 40
0.0
 40
0.0
 40
0.0
 40
1.0
 40
1.0
 40
1.0
 40
1.0
 10
331.3349907172138
 20
171.570217029613
 30
0.0
 10
331.3005051239635
 20
171.5777219839329
 30
0.0
 10
331.2650946046941
 20
171.5816526402254
 30
0.0
 10
331.2286665082004
 20
171.5816526402254
 30
0.0
  0
SPLINE
  5
2C5
330
1F
100
AcDbEntity
  8
0
  6
Continuous
 62
     7
370
    25
100
AcDbSpline
210
0.0
220
0.0
230
1.0
 70
     8
 71
     3
 72
     8
 73
     4
 74
     0
 42
0.000000001
 43
0.00000001
 40
0.0
 40
0.0
 40
0.0
 40
0.0
 40
1.0
 40
1.0
 40
1.0
 40
1.0
 10
265.2286665082007
 20
171.5816526402254
 30
0.0
 10
265.1922384117071
 20
171.5816526402254
 30
0.0
 10
265.1568278924376
 20
171.5777219839332
 30
0.0
 10
265.1223422991873
 20
171.5702170296133
 30
0.0
  0
LINE
  5
2C6
330
1F
100
AcDbEntity
  8
0
  6
Continuous
 62
     7
370
    25
100
AcDbLine
 10
265.228666687
 20
171.5816534747
 30
0.0
 11
331.2286663294
 21
171.5816534747
 31
0.0
  0
SPLINE
  5
2C7
330
1F
100
AcDbEntity
  8
0
  6
Continuous
 62
     7
370
    25
100
AcDbSpline
210
0.0
220
0.0
230
1.0
 70
     8
 71
     3
 72
     8
 73
     4
 74
     0
 42
0.000000001
 43
0.00000001
 40
0.0
 40
0.0
 40
0.0
 40
0.0
 40
1.0
 40
1.0
 40
1.0
 40
1.0
 10
331.7286665082004
 20
171.0816526402254
 30
0.0
 10
331.7286665082004
 20
171.1180807367191
 30
0.0
 10
331.724735851908
 20
171.1534912559885
 30
0.0
 10
331.717230897588
 20
171.1879768492389
 30
0.0
  0
LINE
  5
2C8
330
1F
100
AcDbEntity
  8
0
  6
Continuous
 62
     7
370
    25
100
AcDbLine
 10
331.7286673427
 20
171.0816524614
 30
0.0
 11
331.7286673427
 21
163.2140647311
 31
0.0
  0
SPLINE
  5
2C9
330
1F
100
AcDbEntity
  8
0
  6
Continuous
 62
     7
370
    25
100
AcDbSpline
210
0.0
220
0.0
230
1.0
 70
     8
 71
     3
 72
    15
 73
    11
 74
     0
 42
0.000000001
 43
0.00000001
 40
0.0
 40
0.0
 40
0.0
 40
0.0
 40
0.0368045401018995
 40
0.0873698824131347
 40
0.1574319117674978
 40
0.249138381085147
 40
0.3634231986047174
 40
0.5007604366704724
 40
0.7335394339299665
 40
1.0
 40
1.0
 40
1.0
 40
1.0
 10
331.705840270479
 20
163.0042408840188
 30
0.0
 10
331.7074533756092
 20
163.0053463298157
 30
0.0
 10
331.7112827076741
 20
163.0079705351183
 30
0.0
 10
331.7150542967881
 20
163.0184824254768
 30
0.0
 10
331.7185335602281
 20
163.032771143236
 30
0.0
 10
331.721484630142
 20
163.0524490196817
 30
0.0
 10
331.7240305711308
 20
163.0770831184159
 30
0.0
 10
331.7264807434737
 20
163.1121345979081
 30
0.0
 10
331.7283420369306
 20
163.1583655846295
 30
0.0
 10
331.7285535935044
 20
163.1946821079619
 30
0.0
 10
331.7286665082022
 20
163.2140654302697
 30
0.0
  0
SPLINE
  5
2CA
330
1F
100
AcDbEntity
  8
0
  6
Continuous
 62
     7
370
    25
100
AcDbSpline
210
0.0
220
0.0
230
1.0
 70
     8
 71
     3
 72
    22
 73
    18
 74
     0
 42
0.000000001
 43
0.00000001
 40
0.0
 40
0.0
 40
0.0
 40
0.0
 40
0.0527342971287938
 40
0.1038667666004303
 40
0.1535025287658296
 40
0.2017564866148177
 40
0.2487536793110795
 40
0.3128603633663015
 40
0.3740688608656998
 40
0.4992325509811115
 40
0.623387113393431
 40
0.6860791936354452
 40
0.7485205802713495
 40
0.810339808491194
 40
0.8741316884242976
 40
0.9355847563518959
 40
1.0
 40
1.0
 40
1.0
 40
1.0
 10
329.0716895029147
 20
164.0330462756264
 30
0.0
 10
329.1223978148508
 20
164.0744253929454
 30
0.0
 10
329.2222741512646
 20
164.1559267185478
 30
0.0
 10
329.3737683292513
 20
164.2640619974772
 30
0.0
 10
329.5234835692075
 20
164.3592059281044
 30
0.0
 10
329.6717077226019
 20
164.4405558488017
 30
0.0
 10
329.8372941133071
 20
164.5170862234271
 30
0.0
 10
330.0193767724531
 20
164.5817224840365
 30
0.0
 10
330.2876856522004
 20
164.6402953615148
 30
0.0
 10
330.6252249465804
 20
164.6380802237425
 30
0.0
 10
330.9528480963847
 20
164.497734890276
 30
0.0
 10
331.1849897501406
 20
164.292638128635
 30
0.0
 10
331.3389263731574
 20
164.0946711426407
 30
0.0
 10
331.4697405505857
 20
163.8585033041271
 30
0.0
 10
331.5733063812672
 20
163.5944587416602
 30
0.0
 10
331.6543337872902
 20
163.3074023499562
 30
0.0
 10
331.6884041727556
 20
163.1068678276352
 30
0.0
 10
331.7058402704792
 20
163.0042408840188
 30
0.0
  0
LINE
  5
2CB
330
1F
100
AcDbEntity
  8
0
  6
Continuous
 62
     7
370
    25
100
AcDbLine
 10
327.2571008146
 20
162.5114395906
 30
0.0
 11
329.071689719
 21
164.0330455889
 31
0.0
  0
SPLINE
  5
2CC
330
1F
100
AcDbEntity
  8
0
  6
Continuous
 62
     7
370
    25
100
AcDbSpline
210
0.0
220
0.0
230
1.0
 70
     8
 71
     3
 72
    24
 73
    20
 74
     0
 42
0.000000001
 43
0.00000001
 40
0.0
 40
0.0
 40
0.0
 40
0.0
 40
0.0238518352119299
 40
0.0483249092426047
 40
0.0734715522721432
 40
0.0993400070460057
 40
0.1259745943841734
 40
0.1868742802057964
 40
0.2507533098940851
 40
0.3124716218782315
 40
0.3760941643905266
 40
0.5006769170035321
 40
0.6252656250133437
 40
0.6881921244411625
 40
0.7505197022402536
 40
0.8134559812672376
 40
0.8749835089166723
 40
0.938677948224204
 40
1.0
 40
1.0
 40
1.0
 40
1.0
 10
324.3101113605083
 20
155.9935088412234
 30
0.0
 10
324.3107687817212
 20
156.0578884310354
 30
0.0
 10
324.3121007471724
 20
156.1883244250418
 30
0.0
 10
324.3225743272003
 20
156.3861634341392
 30
0.0
 10
324.3391915651408
 20
156.5885534023985
 30
0.0
 10
324.3626039846638
 20
156.7954968533372
 30
0.0
 10
324.4051723022677
 20
157.0954971232015
 30
0.0
 10
324.4791746900186
 20
157.4906760328294
 30
0.0
 10
324.5958798444387
 20
157.9658428124528
 30
0.0
 10
324.7362024122742
 20
158.4354959246898
 30
0.0
 10
324.9472404729255
 20
159.0383288495496
 30
0.0
 10
325.2540018295445
 20
159.7595173860483
 30
0.0
 10
325.6075114353615
 20
160.4306273840532
 30
0.0
 10
325.9159899190099
 20
160.9350343048875
 30
0.0
 10
326.1609906631843
 20
161.2970317583433
 30
0.0
 10
326.4162015456453
 20
161.637264468994
 30
0.0
 10
326.6856643721646
 20
161.9575754278227
 30
0.0
 10
326.9638951631424
 20
162.2532989777287
 30
0.0
 10
327.1606095530967
 20
162.4264886391369
 30
0.0
 10
327.2571002632525
 20
162.5114401946627
 30
0.0
  0
LINE
  5
2CD
330
1F
100
AcDbEntity
  8
0
  6
Continuous
 62
     7
370
    25
100
AcDbLine
 10
324.3101112038
 20
120.1697956462
 30
0.0
 11
324.3101112038
 21
155.9935096343
 31
0.0
  0
SPLINE
  5
2CE
330
1F
100
AcDbEntity
  8
0
  6
Continuous
 62
     7
370
    25
100
AcDbSpline
210
0.0
220
0.0
230
1.0
 70
     8
 71
     3
 72
    20
 73
    16
 74
     0
 42
0.000000001
 43
0.00000001
 40
0.0
 40
0.0
 40
0.0
 40
0.0
 40
0.1250000000000001
 40
0.1250000000000001
 40
0.2500000000000002
 40
0.2500000000000002
 40
0.3750000000000002
 40
0.3750000000000002
 40
0.5000000000000003
 40
0.5000000000000003
 40
0.6250000000000004
 40
0.6250000000000004
 40
0.7500000000000004
 40
0.7500000000000004
 40
1.0
 40
1.0
 40
1.0
 40
1.0
 10
324.3101113605082
 20
120.1697964392273
 30
0.0
 10
324.3101113605082
 20
119.8287226716511
 30
0.0
 10
324.341883029387
 20
119.4888035038949
 30
0.0
 10
324.4445078210625
 20
118.8291112916666
 30
0.0
 10
324.5154358071988
 20
118.5083787419279
 30
0.0
 10
324.686360176201
 20
117.8805205524364
 30
0.0
 10
324.7871836520824
 20
117.5719234492238
 30
0.0
 10
325.009888891559
 20
116.9775438456362
 30
0.0
 10
325.1318706856045
 20
116.6909656181284
 30
0.0
 10
325.3946460624848
 20
116.1368474611502
 30
0.0
 10
325.5354601709858
 20
115.8693265166905
 30
0.0
 10
325.8356951341207
 20
115.3533616256307
 30
0.0
 10
325.9955233571559
 20
115.10457494632
 30
0.0
 10
326.4949385901105
 20
114.4035284766395
 30
0.0
 10
326.8555826124041
 20
113.9885537896513
 30
0.0
 10
327.2571002632527
 20
113.6518650857883
 30
0.0
  0
LINE
  5
2CF
330
1F
100
AcDbEntity
  8
0
  6
Continuous
 62
     7
370
    25
100
AcDbLine
 10
327.2571008146
 20
113.6518656899
 30
0.0
 11
329.071689719
 21
112.1302596916
 31
0.0
  0
SPLINE
  5
2D0
330
1F
100
AcDbEntity
  8
0
  6
Continuous
 62
     7
370
    25
100
AcDbSpline
210
0.0
220
0.0
230
1.0
 70
     8
 71
     3
 72
    22
 73
    18
 74
     0
 42
0.000000001
 43
0.00000001
 40
0.0
 40
0.0
 40
0.0
 40
0.0
 40
0.2499999999999977
 40
0.2499999999999977
 40
0.4999999999999953
 40
0.4999999999999953
 40
0.6249999999999942
 40
0.6249999999999942
 40
0.6874999999999949
 40
0.6874999999999949
 40
0.7499999999999956
 40
0.7499999999999956
 40
0.8124999999999962
 40
0.8124999999999962
 40
0.8749999999999968
 40
0.8749999999999968
 40
1.0
 40
1.0
 40
1.0
 40
1.0
 10
329.0716895029145
 20
112.1302590048243
 30
0.0
 10
329.3115047495132
 20
111.9291642724426
 30
0.0
 10
329.5595536088903
 20
111.7648920930047
 30
0.0
 10
330.0809392665072
 20
111.5478426667391
 30
0.0
 10
330.3573316515801
 20
111.495961992254
 30
0.0
 10
330.7586230224934
 20
111.581866136479
 30
0.0
 10
330.8869067240018
 20
111.636915362469
 30
0.0
 10
331.0693867380937
 20
111.7685703404469
 30
0.0
 10
331.1285402682012
 20
111.8210389748957
 30
0.0
 10
331.2379590711385
 20
111.9387344047539
 30
0.0
 10
331.2889505190367
 20
112.0044047862841
 30
0.0
 10
331.383644563677
 20
112.1491919270857
 30
0.0
 10
331.4276681415388
 20
112.2291259036971
 30
0.0
 10
331.5060075756379
 20
112.3971068134386
 30
0.0
 10
331.5405827594613
 20
112.4853018769472
 30
0.0
 10
331.632084922502
 20
112.7611090129465
 30
0.0
 10
331.676163341335
 20
112.9590163354338
 30
0.0
 10
331.7058402704789
 20
113.1590643964319
 30
0.0
  0
SPLINE
  5
2D1
330
1F
100
AcDbEntity
  8
0
  6
Continuous
 62
     7
370
    25
100
AcDbSpline
210
0.0
220
0.0
230
1.0
 70
     8
 71
     3
 72
    15
 73
    11
 74
     0
 42
0.000000001
 43
0.00000001
 40
0.0
 40
0.0
 40
0.0
 40
0.0
 40
0.0348438304723111
 40
0.0848270753711042
 40
0.1549758322775962
 40
0.2471032346312728
 40
0.3620089988591941
 40
0.5001128067578858
 40
0.7499624923853307
 40
1.0
 40
1.0
 40
1.0
 40
1.0
 10
331.7058402704788
 20
113.1590643964318
 30
0.0
 10
331.7073538446197
 20
113.157972090721
 30
0.0
 10
331.7110386308786
 20
113.1553128796754
 30
0.0
 10
331.7146991114193
 20
113.144931449523
 30
0.0
 10
331.7182615830096
 20
113.1307240812132
 30
0.0
 10
331.7213360353966
 20
113.1110353958859
 30
0.0
 10
331.7240076332368
 20
113.0863392577589
 30
0.0
 10
331.7265743542433
 20
113.0500029331717
 30
0.0
 10
331.7283416412128
 20
113.0037179864724
 30
0.0
 10
331.728558192083
 20
112.9674037770423
 30
0.0
 10
331.7286665082002
 20
112.9492398501812
 30
0.0
  0
LINE
  5
2D2
330
1F
100
AcDbEntity
  8
0
  6
Continuous
 62
     7
370
    25
100
AcDbLine
 10
331.7286673427
 20
112.9492405493
 30
0.0
 11
331.7286673427
 21
105.081652819
 31
0.0
  0
SPLINE
  5
2D3
330
1F
100
AcDbEntity
  8
0
  6
Continuous
 62
     7
370
    25
100
AcDbSpline
210
0.0
220
0.0
230
1.0
 70
     8
 71
     3
 72
     8
 73
     4
 74
     0
 42
0.000000001
 43
0.00000001
 40
0.0
 40
0.0
 40
0.0
 40
0.0
 40
1.0
 40
1.0
 40
1.0
 40
1.0
 10
331.7172308975879
 20
104.9753284312119
 30
0.0
 10
331.7247358519078
 20
105.0098140244622
 30
0.0
 10
331.7286665082003
 20
105.0452245437317
 30
0.0
 10
331.7286665082003
 20
105.0816526402254
 30
0.0
  0
SPLINE
  5
2D4
330
1F
100
AcDbEntity
  8
0
  6
Continuous
 62
     7
370
    25
100
AcDbSpline
210
0.0
220
0.0
230
1.0
 70
     8
 71
     3
 72
     8
 73
     4
 74
     0
 42
0.000000001
 43
0.00000001
 40
0.0
 40
0.0
 40
0.0
 40
0.0
 40
1.0
 40
1.0
 40
1.0
 40
1.0
 10
331.2286665082003
 20
104.5816526402253
 30
0.0
 10
331.265094604694
 20
104.5816526402253
 30
0.0
 10
331.3005051239634
 20
104.5855832965178
 30
0.0
 10
331.3349907172137
 20
104.5930882508377
 30
0.0
  0
LINE
  5
2D5
330
1F
100
AcDbEntity
  8
0
  6
Continuous
 62
     7
370
    25
100
AcDbLine
 10
331.2286663294
 20
104.5816518058
 30
0.0
 11
323.3610785991
 21
104.5816518058
 31
0.0
  0
SPLINE
  5
2D6
330
1F
100
AcDbEntity
  8
0
  6
Continuous
 62
     7
370
    25
100
AcDbSpline
210
0.0
220
0.0
230
1.0
 70
     8
 71
     3
 72
    15
 73
    11
 74
     0
 42
0.000000001
 43
0.00000001
 40
0.0
 40
0.0
 40
0.0
 40
0.0
 40
0.0368045401020181
 40
0.0873698824132206
 40
0.1574319117675968
 40
0.2491383810852498
 40
0.3634231986047746
 40
0.5007604366705107
 40
0.7335394339301741
 40
1.0
 40
1.0
 40
1.0
 40
1.0
 10
323.1512547519936
 20
104.6044788779467
 30
0.0
 10
323.1523601977906
 20
104.6028657728165
 30
0.0
 10
323.1549844030931
 20
104.5990364407517
 30
0.0
 10
323.1654962934517
 20
104.5952648516376
 30
0.0
 10
323.1797850112109
 20
104.5917855881977
 30
0.0
 10
323.1994628876566
 20
104.5888345182838
 30
0.0
 10
323.2240969863907
 20
104.5862885772949
 30
0.0
 10
323.259148465883
 20
104.583838404952
 30
0.0
 10
323.3053794526044
 20
104.5819771114952
 30
0.0
 10
323.3416959759368
 20
104.5817655549213
 30
0.0
 10
323.3610792982446
 20
104.5816526402235
 30
0.0
  0
SPLINE
  5
2D7
330
1F
100
AcDbEntity
  8
0
  6
Continuous
 62
     7
370
    25
100
AcDbSpline
210
0.0
220
0.0
230
1.0
 70
     8
 71
     3
 72
    22
 73
    18
 74
     0
 42
0.000000001
 43
0.00000001
 40
0.0
 40
0.0
 40
0.0
 40
0.0
 40
0.0527342971322324
 40
0.103866766605585
 40
0.1535025287709852
 40
0.2017564866182796
 40
0.2487536793112001
 40
0.3128603633469033
 40
0.3740688608656315
 40
0.499232550981049
 40
0.6233871133933866
 40
0.6860791936125236
 40
0.7485205802708179
 40
0.8103398084692373
 40
0.8741316884242711
 40
0.93558475635094
 40
1.0
 40
1.0
 40
1.0
 40
1.0
 10
324.1800601436012
 20
107.238629645511
 30
0.0
 10
324.221439260923
 20
107.1879213335716
 30
0.0
 10
324.3029405865296
 20
107.0880449971529
 30
0.0
 10
324.4110758654634
 20
106.9365508191614
 30
0.0
 10
324.5062197960909
 20
106.7868355792053
 30
0.0
 10
324.5875697167838
 20
106.6386114258158
 30
0.0
 10
324.6641000913961
 20
106.4730250351356
 30
0.0
 10
324.7287363519861
 20
106.2909423759911
 30
0.0
 10
324.7873092295014
 20
106.0226334962472
 30
0.0
 10
324.7850940917097
 20
105.6850942018465
 30
0.0
 10
324.6447487582725
 20
105.3574710520607
 30
0.0
 10
324.4396519966129
 20
105.1253293983136
 30
0.0
 10
324.241685010667
 20
104.9713927753023
 30
0.0
 10
324.005517172146
 20
104.8405785978407
 30
0.0
 10
323.7414726096659
 20
104.7370127671719
 30
0.0
 10
323.4544162179338
 20
104.6559853611345
 30
0.0
 10
323.253881695612
 20
104.6219149756699
 30
0.0
 10
323.1512547519937
 20
104.6044788779465
 30
0.0
  0
LINE
  5
2D8
330
1F
100
AcDbEntity
  8
0
  6
Continuous
 62
     7
370
    25
100
AcDbLine
 10
322.6584534586
 20
109.0532183338
 30
0.0
 11
324.1800594568
 21
107.2386294295
 31
0.0
  0
SPLINE
  5
2D9
330
1F
100
AcDbEntity
  8
0
  6
Continuous
 62
     7
370
    25
100
AcDbSpline
210
0.0
220
0.0
230
1.0
 70
     8
 71
     3
 72
    24
 73
    20
 74
     0
 42
0.000000001
 43
0.00000001
 40
0.0
 40
0.0
 40
0.0
 40
0.0
 40
0.0238518352146376
 40
0.0483249092466622
 40
0.0734715522762009
 40
0.0993400070487255
 40
0.1259745943842376
 40
0.1868742802111488
 40
0.2507533098941148
 40
0.312471621881449
 40
0.3760941643905677
 40
0.5006769170035695
 40
0.625265625013379
 40
0.6881921244476464
 40
0.7505197022402312
 40
0.8134559812547025
 40
0.874983508916647
 40
0.9386779482186172
 40
1.0
 40
1.0
 40
1.0
 40
1.0
 10
316.1405227091983
 20
112.0002077879175
 30
0.0
 10
316.2049022990176
 20
111.9995503667046
 30
0.0
 10
316.335338293035
 20
111.9982184012535
 30
0.0
 10
316.5331773021435
 20
111.9877448212259
 30
0.0
 10
316.7355672704027
 20
111.9711275832855
 30
0.0
 10
316.9425107213307
 20
111.9477151637629
 30
0.0
 10
317.2425109911969
 20
111.9051468461529
 30
0.0
 10
317.6376899008167
 20
111.8311444584014
 30
0.0
 10
318.1128566804492
 20
111.7144393039815
 30
0.0
 10
318.5825097926735
 20
111.5741167361505
 30
0.0
 10
319.1853427175315
 20
111.3630786754965
 30
0.0
 10
319.9065312540216
 20
111.0563173188801
 30
0.0
 10
320.5776412520473
 20
110.702807713061
 30
0.0
 10
321.0820481728657
 20
110.3943292294006
 30
0.0
 10
321.4440456263085
 20
110.1493284852507
 30
0.0
 10
321.7842783369464
 20
109.8941176027977
 30
0.0
 10
322.1045892957674
 20
109.6246547762874
 30
0.0
 10
322.4003128456994
 20
109.3464239852938
 30
0.0
 10
322.5735025071052
 20
109.1497095953384
 30
0.0
 10
322.6584540626376
 20
109.0532188851732
 30
0.0
  0
LINE
  5
2DA
330
1F
100
AcDbEntity
  8
0
  6
Continuous
 62
     7
370
    25
100
AcDbLine
 10
280.3168095142
 20
112.0002079446
 30
0.0
 11
316.1405235022
 21
112.0002079446
 31
0.0
  0
SPLINE
  5
2DB
330
1F
100
AcDbEntity
  8
0
  6
Continuous
 62
     7
370
    25
100
AcDbSpline
210
0.0
220
0.0
230
1.0
 70
     8
 71
     3
 72
    20
 73
    16
 74
     0
 42
0.000000001
 43
0.00000001
 40
0.0
 40
0.0
 40
0.0
 40
0.0
 40
0.1249999999999999
 40
0.1249999999999999
 40
0.2499999999999998
 40
0.2499999999999998
 40
0.3749999999999997
 40
0.3749999999999997
 40
0.4999999999999996
 40
0.4999999999999996
 40
0.6249999999999994
 40
0.6249999999999994
 40
0.7499999999999993
 40
0.7499999999999993
 40
1.0
 40
1.0
 40
1.0
 40
1.0
 10
280.3168103072025
 20
112.0002077879175
 30
0.0
 10
279.9757365396263
 20
112.0002077879175
 30
0.0
 10
279.6358173718701
 20
111.9684361190387
 30
0.0
 10
278.9761251596418
 20
111.8658113273632
 30
0.0
 10
278.6553926099031
 20
111.7948833412269
 30
0.0
 10
278.0275344204116
 20
111.6239589722246
 30
0.0
 10
277.718937317199
 20
111.5231354963433
 30
0.0
 10
277.1245577136115
 20
111.3004302568666
 30
0.0
 10
276.8379794861037
 20
111.1784484628211
 30
0.0
 10
276.2838613291253
 20
110.9156730859408
 30
0.0
 10
276.0163403846657
 20
110.7748589774398
 30
0.0
 10
275.5003754936059
 20
110.4746240143049
 30
0.0
 10
275.2515888142952
 20
110.3147957912697
 30
0.0
 10
274.5505423446147
 20
109.8153805583152
 30
0.0
 10
274.1355676576266
 20
109.4547365360214
 30
0.0
 10
273.7988789537636
 20
109.0532188851729
 30
0.0
  0
LINE
  5
2DC
330
1F
100
AcDbEntity
  8
0
  6
Continuous
 62
     7
370
    25
100
AcDbLine
 10
273.7988795579
 20
109.0532183338
 30
0.0
 11
272.2772735596
 21
107.2386294295
 31
0.0
  0
SPLINE
  5
2DD
330
1F
100
AcDbEntity
  8
0
  6
Continuous
 62
     7
370
    25
100
AcDbSpline
210
0.0
220
0.0
230
1.0
 70
     8
 71
     3
 72
    22
 73
    18
 74
     0
 42
0.000000001
 43
0.00000001
 40
0.0
 40
0.0
 40
0.0
 40
0.0
 40
0.2499999999999977
 40
0.2499999999999977
 40
0.4999999999999953
 40
0.4999999999999953
 40
0.6249999999999942
 40
0.6249999999999942
 40
0.6874999999999949
 40
0.6874999999999949
 40
0.7499999999999957
 40
0.7499999999999957
 40
0.8124999999999964
 40
0.8124999999999964
 40
0.8749999999999971
 40
0.8749999999999971
 40
1.0
 40
1.0
 40
1.0
 40
1.0
 10
272.2772728727995
 20
107.2386296455111
 30
0.0
 10
272.0761781404178
 20
106.9988143989124
 30
0.0
 10
271.9119059609801
 20
106.7507655395353
 30
0.0
 10
271.6948565347143
 20
106.2293798819184
 30
0.0
 10
271.6429758602292
 20
105.9529874968455
 30
0.0
 10
271.7288800044543
 20
105.5516961259322
 30
0.0
 10
271.7839292304443
 20
105.4234124244238
 30
0.0
 10
271.9155842084222
 20
105.2409324103319
 30
0.0
 10
271.968052842871
 20
105.1817788802244
 30
0.0
 10
272.0857482727292
 20
105.0723600772871
 30
0.0
 10
272.1514186542594
 20
105.0213686293888
 30
0.0
 10
272.2962057950609
 20
104.9266745847486
 30
0.0
 10
272.3761397716724
 20
104.8826510068868
 30
0.0
 10
272.5441206814139
 20
104.8043115727877
 30
0.0
 10
272.6323157449225
 20
104.7697363889643
 30
0.0
 10
272.9081228809218
 20
104.6782342259236
 30
0.0
 10
273.1060302034091
 20
104.6341558070906
 30
0.0
 10
273.3060782644072
 20
104.6044788779467
 30
0.0
  0
SPLINE
  5
2DE
330
1F
100
AcDbEntity
  8
0
  6
Continuous
 62
     7
370
    25
100
AcDbSpline
210
0.0
220
0.0
230
1.0
 70
     8
 71
     3
 72
    15
 73
    11
 74
     0
 42
0.000000001
 43
0.00000001
 40
0.0
 40
0.0
 40
0.0
 40
0.0
 40
0.0348438307924516
 40
0.0848270758244209
 40
0.1549758327478664
 40
0.2471032350447321
 40
0.3620089991628678
 40
0.5001128069094083
 40
0.7499624924611129
 40
1.0
 40
1.0
 40
1.0
 40
1.0
 10
273.3060782644071
 20
104.6044788779468
 30
0.0
 10
273.3049859586944
 20
104.60296530379
 30
0.0
 10
273.3023267476548
 20
104.5992805175067
 30
0.0
 10
273.2919453174883
 20
104.5956200369403
 30
0.0
 10
273.2777379491662
 20
104.5920575653545
 30
0.0
 10
273.2580492638396
 20
104.5889831129834
 30
0.0
 10
273.2333531257198
 20
104.586311515167
 30
0.0
 10
273.1970168011351
 20
104.5837447941932
 30
0.0
 10
273.1507318544489
 20
104.5819775072094
 30
0.0
 10
273.114417645018
 20
104.5817609563415
 30
0.0
 10
273.0962537181564
 20
104.5816526402254
 30
0.0
  0
LINE
  5
2DF
330
1F
100
AcDbEntity
  8
0
  6
Continuous
 62
     7
370
    25
100
AcDbLine
 10
273.0962544173
 20
104.5816518058
 30
0.0
 11
265.228666687
 21
104.5816518058
 31
0.0
  0
SPLINE
  5
2E0
330
1F
100
AcDbEntity
  8
0
  6
Continuous
 62
     7
370
    25
100
AcDbSpline
210
0.0
220
0.0
230
1.0
 70
     8
 71
     3
 72
     8
 73
     4
 74
     0
 42
0.000000001
 43
0.00000001
 40
0.0
 40
0.0
 40
0.0
 40
0.0
 40
1.0
 40
1.0
 40
1.0
 40
1.0
 10
265.122342299187
 20
104.5930882508378
 30
0.0
 10
265.1568278924373
 20
104.5855832965179
 30
0.0
 10
265.1922384117067
 20
104.5816526402254
 30
0.0
 10
265.2286665082004
 20
104.5816526402254
 30
0.0
  0
SPLINE
  5
2E1
330
1F
100
AcDbEntity
  8
0
  6
Continuous
 62
     7
370
    25
100
AcDbSpline
210
0.0
220
0.0
230
1.0
 70
     8
 71
     3
 72
    20
 73
    16
 74
     0
 42
0.000000001
 43
0.00000001
 40
0.0
 40
0.0
 40
0.0
 40
0.0
 40
0.1249999999999999
 40
0.1249999999999999
 40
0.2499999999999999
 40
0.2499999999999999
 40
0.3749999999999998
 40
0.3749999999999998
 40
0.4999999999999998
 40
0.4999999999999998
 40
0.6249999999999998
 40
0.6249999999999998
 40
0.7499999999999997
 40
0.7499999999999997
 40
1.0
 40
1.0
 40
1.0
 40
1.0
 10
272.1472216558928
 20
155.9935088412238
 30
0.0
 10
272.1472216558928
 20
156.3345826088
 30
0.0
 10
272.1154499870141
 20
156.6745017765562
 30
0.0
 10
272.0128251953386
 20
157.3341939887846
 30
0.0
 10
271.9418972092022
 20
157.6549265385233
 30
0.0
 10
271.7709728402
 20
158.2827847280148
 30
0.0
 10
271.6701493643187
 20
158.5913818312274
 30
0.0
 10
271.447444124842
 20
159.185761434815
 30
0.0
 10
271.3254623307965
 20
159.4723396623228
 30
0.0
 10
271.0626869539162
 20
160.026457819301
 30
0.0
 10
270.9218728454152
 20
160.2939787637607
 30
0.0
 10
270.6216378822804
 20
160.8099436548205
 30
0.0
 10
270.4618096592452
 20
161.0587303341312
 30
0.0
 10
269.9623944262906
 20
161.7597768038117
 30
0.0
 10
269.6017504039969
 20
162.1747514907999
 30
0.0
 10
269.2002327531485
 20
162.5114401946629
 30
0.0
  0
LINE
  5
2E2
330
1F
100
AcDbEntity
  8
0
  6
Continuous
 62
     7
370
    25
100
AcDbLine
 10
269.2002322018
 20
162.5114395906
 30
0.0
 11
267.3856432974
 21
164.0330455889
 31
0.0
  0
SPLINE
  5
2E3
330
1F
100
AcDbEntity
  8
0
  6
Continuous
 62
     7
370
    25
100
AcDbSpline
210
0.0
220
0.0
230
1.0
 70
     8
 71
     3
 72
    22
 73
    18
 74
     0
 42
0.000000001
 43
0.00000001
 40
0.0
 40
0.0
 40
0.0
 40
0.0
 40
0.2500000000000018
 40
0.2500000000000018
 40
0.5000000000000037
 40
0.5000000000000037
 40
0.6250000000000044
 40
0.6250000000000044
 40
0.6875000000000037
 40
0.6875000000000037
 40
0.7500000000000029
 40
0.7500000000000029
 40
0.8125000000000022
 40
0.8125000000000022
 40
0.8750000000000014
 40
0.8750000000000014
 40
1.0
 40
1.0
 40
1.0
 40
1.0
 10
267.3856435134866
 20
164.033046275627
 30
0.0
 10
267.1458282668879
 20
164.2341410080086
 30
0.0
 10
266.8977794075108
 20
164.3984131874465
 30
0.0
 10
266.376393749894
 20
164.6154626137122
 30
0.0
 10
266.100001364821
 20
164.6673432881973
 30
0.0
 10
265.6987099939077
 20
164.5814391439722
 30
0.0
 10
265.5704262923993
 20
164.5263899179822
 30
0.0
 10
265.3879462783075
 20
164.3947349400043
 30
0.0
 10
265.3287927482
 20
164.3422663055555
 30
0.0
 10
265.2193739452626
 20
164.2245708756974
 30
0.0
 10
265.1683824973644
 20
164.1589004941671
 30
0.0
 10
265.0736884527241
 20
164.0141133533656
 30
0.0
 10
265.0296648748624
 20
163.9341793767541
 30
0.0
 10
264.9513254407633
 20
163.7661984670127
 30
0.0
 10
264.9167502569398
 20
163.6780034035041
 30
0.0
 10
264.8252480938991
 20
163.4021962675047
 30
0.0
 10
264.7811696750661
 20
163.2042889450175
 30
0.0
 10
264.7514927459223
 20
163.0042408840194
 30
0.0
  0
SPLINE
  5
2E4
330
1F
100
AcDbEntity
  8
0
  6
Continuous
 62
     7
370
    25
100
AcDbSpline
210
0.0
220
0.0
230
1.0
 70
     8
 71
     3
 72
    15
 73
    11
 74
     0
 42
0.000000001
 43
0.00000001
 40
0.0
 40
0.0
 40
0.0
 40
0.0
 40
0.0348438307957553
 40
0.0848270758290995
 40
0.1549758327527367
 40
0.2471032350490104
 40
0.3620089991659962
 40
0.5001128069109539
 40
0.7499624924619105
 40
1.0
 40
1.0
 40
1.0
 40
1.0
 10
264.7514927459223
 20
163.0042408840194
 30
0.0
 10
264.7499791717654
 20
163.0053331897321
 30
0.0
 10
264.7462943854817
 20
163.0079924007718
 30
0.0
 10
264.7426339049151
 20
163.0183738309383
 30
0.0
 10
264.7390714333294
 20
163.0325811992606
 30
0.0
 10
264.7359969809585
 20
163.0522698845872
 30
0.0
 10
264.7333253831423
 20
163.0769660227068
 30
0.0
 10
264.7307586621689
 20
163.1133023472916
 30
0.0
 10
264.7289913751849
 20
163.1595872939776
 30
0.0
 10
264.728774824317
 20
163.1959015034085
 30
0.0
 10
264.7286665082009
 20
163.2140654302701
 30
0.0
  0
LINE
  5
2E5
330
1F
100
AcDbEntity
  8
0
  6
Continuous
 62
     7
370
    25
100
AcDbLine
 10
264.7286656737
 20
163.2140647311
 30
0.0
 11
264.7286656737
 21
171.0816524614
 31
0.0
  0
SPLINE
  5
2E6
330
1F
100
AcDbEntity
  8
0
  6
Continuous
 62
     7
370
    25
100
AcDbSpline
210
0.0
220
0.0
230
1.0
 70
     8
 71
     3
 72
     8
 73
     4
 74
     0
 42
0.000000001
 43
0.00000001
 40
0.0
 40
0.0
 40
0.0
 40
0.0
 40
1.0
 40
1.0
 40
1.0
 40
1.0
 10
264.7401021188131
 20
171.1879768492392
 30
0.0
 10
264.7325971644931
 20
171.1534912559888
 30
0.0
 10
264.7286665082007
 20
171.1180807367192
 30
0.0
 10
264.7286665082007
 20
171.0816526402256
 30
0.0
  0
SPLINE
  5
2E7
330
1F
100
AcDbEntity
  8
0
  6
Continuous
 62
     7
370
    25
100
AcDbSpline
210
0.0
220
0.0
230
1.0
 70
     8
 71
     3
 72
     8
 73
     4
 74
     0
 42
0.000000001
 43
0.00000001
 40
0.0
 40
0.0
 40
0.0
 40
0.0
 40
1.0
 40
1.0
 40
1.0
 40
1.0
 10
264.7286665082004
 20
105.0816526402254
 30
0.0
 10
264.7286665082004
 20
105.0452245437317
 30
0.0
 10
264.7325971644929
 20
105.0098140244623
 30
0.0
 10
264.7401021188128
 20
104.975328431212
 30
0.0
  0
LINE
  5
2E8
330
1F
100
AcDbEntity
  8
0
  6
Continuous
 62
     7
370
    25
100
AcDbLine
 10
264.7286656737
 20
105.081652819
 30
0.0
 11
264.7286656737
 21
112.9492405493
 31
0.0
  0
SPLINE
  5
2E9
330
1F
100
AcDbEntity
  8
0
  6
Continuous
 62
     7
370
    25
100
AcDbSpline
210
0.0
220
0.0
230
1.0
 70
     8
 71
     3
 72
    15
 73
    11
 74
     0
 42
0.000000001
 43
0.00000001
 40
0.0
 40
0.0
 40
0.0
 40
0.0
 40
0.0368045401018995
 40
0.0873698824131347
 40
0.1574319117674978
 40
0.249138381085147
 40
0.3634231986047174
 40
0.5007604366704724
 40
0.7335394339299665
 40
1.0
 40
1.0
 40
1.0
 40
1.0
 10
264.7514927459217
 20
113.1590643964321
 30
0.0
 10
264.7498796407916
 20
113.1579589506351
 30
0.0
 10
264.7460503087267
 20
113.1553347453326
 30
0.0
 10
264.7422787196127
 20
113.144822854974
 30
0.0
 10
264.7387994561727
 20
113.1305341372149
 30
0.0
 10
264.7358483862589
 20
113.1108562607692
 30
0.0
 10
264.73330244527
 20
113.086222162035
 30
0.0
 10
264.7308522729271
 20
113.0511706825427
 30
0.0
 10
264.7289909794702
 20
113.0049396958214
 30
0.0
 10
264.7287794228964
 20
112.968623172489
 30
0.0
 10
264.7286665081986
 20
112.9492398501811
 30
0.0
  0
SPLINE
  5
2EA
330
1F
100
AcDbEntity
  8
0
  6
Continuous
 62
     7
370
    25
100
AcDbSpline
210
0.0
220
0.0
230
1.0
 70
     8
 71
     3
 72
    22
 73
    18
 74
     0
 42
0.000000001
 43
0.00000001
 40
0.0
 40
0.0
 40
0.0
 40
0.0
 40
0.0527342971287938
 40
0.1038667666004303
 40
0.1535025287658296
 40
0.2017564866148177
 40
0.2487536793110795
 40
0.3128603633663015
 40
0.3740688608656998
 40
0.4992325509811115
 40
0.623387113393431
 40
0.6860791936354452
 40
0.7485205802713495
 40
0.810339808491194
 40
0.8741316884242976
 40
0.9355847563518959
 40
1.0
 40
1.0
 40
1.0
 40
1.0
 10
267.3856435134861
 20
112.1302590048245
 30
0.0
 10
267.3349352015499
 20
112.0888798875055
 30
0.0
 10
267.2350588651362
 20
112.0073785619031
 30
0.0
 10
267.0835646871494
 20
111.8992432829736
 30
0.0
 10
266.9338494471933
 20
111.8040993523464
 30
0.0
 10
266.7856252937989
 20
111.7227494316492
 30
0.0
 10
266.6200389030937
 20
111.6462190570237
 30
0.0
 10
266.4379562439477
 20
111.5815827964144
 30
0.0
 10
266.1696473642004
 20
111.523009918936
 30
0.0
 10
265.8321080698204
 20
111.5252250567084
 30
0.0
 10
265.5044849200161
 20
111.6655703901748
 30
0.0
 10
265.2723432662602
 20
111.8706671518159
 30
0.0
 10
265.1184066432434
 20
112.0686341378102
 30
0.0
 10
264.9875924658151
 20
112.3048019763237
 30
0.0
 10
264.8840266351335
 20
112.5688465387907
 30
0.0
 10
264.8029992291106
 20
112.8559029304946
 30
0.0
 10
264.7689288436452
 20
113.0564374528157
 30
0.0
 10
264.7514927459216
 20
113.159064396432
 30
0.0
  0
LINE
  5
2EB
330
1F
100
AcDbEntity
  8
0
  6
Continuous
 62
     7
370
    25
100
AcDbLine
 10
269.2002322018
 20
113.6518656899
 30
0.0
 11
267.3856432974
 21
112.1302596916
 31
0.0
  0
SPLINE
  5
2EC
330
1F
100
AcDbEntity
  8
0
  6
Continuous
 62
     7
370
    25
100
AcDbSpline
210
0.0
220
0.0
230
1.0
 70
     8
 71
     3
 72
    24
 73
    20
 74
     0
 42
0.000000001
 43
0.00000001
 40
0.0
 40
0.0
 40
0.0
 40
0.0
 40
0.0238518352119299
 40
0.0483249092426047
 40
0.0734715522721432
 40
0.0993400070460057
 40
0.1259745943841734
 40
0.1868742802057964
 40
0.2507533098940851
 40
0.3124716218782315
 40
0.3760941643905266
 40
0.5006769170035321
 40
0.6252656250133437
 40
0.6881921244411625
 40
0.7505197022402536
 40
0.8134559812672376
 40
0.8749835089166723
 40
0.938677948224204
 40
1.0
 40
1.0
 40
1.0
 40
1.0
 10
272.1472216558925
 20
120.1697964392275
 30
0.0
 10
272.1465642346796
 20
120.1054168494154
 30
0.0
 10
272.1452322692284
 20
119.974980855409
 30
0.0
 10
272.1347586892005
 20
119.7771418463116
 30
0.0
 10
272.11814145126
 20
119.5747518780523
 30
0.0
 10
272.094729031737
 20
119.3678084271136
 30
0.0
 10
272.0521607141331
 20
119.0678081572493
 30
0.0
 10
271.9781583263822
 20
118.6726292476215
 30
0.0
 10
271.8614531719621
 20
118.197462467998
 30
0.0
 10
271.7211306041266
 20
117.7278093557611
 30
0.0
 10
271.5100925434753
 20
117.1249764309012
 30
0.0
 10
271.2033311868563
 20
116.4037878944025
 30
0.0
 10
270.8498215810393
 20
115.7326778963976
 30
0.0
 10
270.5413430973909
 20
115.2282709755633
 30
0.0
 10
270.2963423532165
 20
114.8662735221076
 30
0.0
 10
270.0411314707555
 20
114.5260408114568
 30
0.0
 10
269.7716686442362
 20
114.2057298526281
 30
0.0
 10
269.4934378532585
 20
113.9100063027221
 30
0.0
 10
269.2967234633041
 20
113.7368166413139
 30
0.0
 10
269.2002327531483
 20
113.6518650857881
 30
0.0
  0
LINE
  5
2ED
330
1F
100
AcDbEntity
  8
0
  6
Continuous
 62
     7
370
    25
100
AcDbLine
 10
272.1472218126
 20
155.9935096343
 30
0.0
 11
272.1472218126
 21
120.1697956462
 31
0.0
  0
SPLINE
  5
2EE
330
1F
100
AcDbEntity
  8
0
  6
Continuous
 62
     7
370
    25
100
AcDbSpline
210
0.0
220
0.0
230
1.0
 70
     8
 71
     3
 72
    10
 73
     6
 74
     0
 42
0.000000001
 43
0.00000001
 40
0.0
 40
0.0
 40
0.0
 40
0.0
 40
0.4369573384216562
 40
0.8848954253543307
 40
1.0
 40
1.0
 40
1.0
 40
1.0
 10
269.209428080919
 20
113.7284688342829
 30
0.0
 10
269.4562404629512
 20
113.9648433387885
 30
0.0
 10
269.9560676281613
 20
114.4435324448302
 30
0.0
 10
270.4638303332773
 20
115.1147564950944
 30
0.0
 10
270.7033553925871
 20
115.5496630169634
 30
0.0
 10
270.7523222506072
 20
115.6385723192711
 30
0.0
  0
SPLINE
  5
2EF
330
1F
100
AcDbEntity
  8
0
  6
Continuous
 62
     7
370
    25
100
AcDbSpline
210
0.0
220
0.0
230
1.0
 70
     8
 71
     3
 72
    13
 73
     9
 74
     0
 42
0.000000001
 43
0.00000001
 40
0.0
 40
0.0
 40
0.0
 40
0.0
 40
0.193847666639562
 40
0.3891146508838628
 40
0.588017603130102
 40
0.7879014612716343
 40
0.9967910603998447
 40
1.0
 40
1.0
 40
1.0
 40
1.0
 10
322.5818503141429
 20
109.062414212944
 30
0.0
 10
322.4698734008211
 20
109.1879205702639
 30
0.0
 10
322.2450996994418
 20
109.4398522197845
 30
0.0
 10
321.847432615704
 20
109.795610036299
 30
0.0
 10
321.4133041498963
 20
110.1373639925572
 30
0.0
 10
320.931758922291
 20
110.4630145852725
 30
0.0
 10
320.5934783048911
 20
110.6765503406599
 30
0.0
 10
320.4061147704695
 20
110.7750657656741
 30
0.0
 10
320.4032800585057
 20
110.7765562523623
 30
0.0
  0
ARC
  5
2F0
330
1F
100
AcDbEntity
  8
0
  6
Continuous
 62
     7
370
    25
100
AcDbCircle
 10
269.2594135961
 20
113.6836147523
 30
0.0
 40
0.0671598123760345
100
AcDbArc
 50
138.0970509642
 51
208.2122382559
  0
ARC
  5
2F1
330
1F
100
AcDbEntity
  8
0
  6
Continuous
 62
     7
370
    25
100
AcDbCircle
 10
322.6267043961
 20
109.1123997281
 30
0.0
 40
0.0671598123760287
100
AcDbArc
 50
228.0970509642
 51
298.212238256
  0
SPLINE
  5
2F2
330
1F
100
AcDbEntity
  8
0
  6
Continuous
 62
     7
370
    25
100
AcDbSpline
210
0.0
220
0.0
230
1.0
 70
     8
 71
     3
 72
    13
 73
     9
 74
     0
 42
0.000000001
 43
0.00000001
 40
0.0
 40
0.0
 40
0.0
 40
0.0
 40
0.193847666639562
 40
0.3891146508838628
 40
0.588017603130102
 40
0.7879014612716343
 40
0.9967910603998447
 40
1.0
 40
1.0
 40
1.0
 40
1.0
 10
327.2479049354818
 20
162.434836446168
 30
0.0
 10
327.1223985781619
 20
162.3228595328461
 30
0.0
 10
326.8704669286413
 20
162.0980858314668
 30
0.0
 10
326.5147091121268
 20
161.700418747729
 30
0.0
 10
326.1729551558686
 20
161.2662902819214
 30
0.0
 10
325.8473045631534
 20
160.784745054316
 30
0.0
 10
325.6337688077659
 20
160.446464436916
 30
0.0
 10
325.5352533827518
 20
160.2591009024945
 30
0.0
 10
325.5337628960635
 20
160.2562661905308
 30
0.0
  0
SPLINE
  5
2F3
330
1F
100
AcDbEntity
  8
0
  6
Continuous
 62
     7
370
    25
100
AcDbSpline
210
0.0
220
0.0
230
1.0
 70
     8
 71
     3
 72
    10
 73
     6
 74
     0
 42
0.000000001
 43
0.00000001
 40
0.0
 40
0.0
 40
0.0
 40
0.0
 40
0.4358497923613424
 40
0.8826525005743487
 40
0.9999999999999999
 40
0.9999999999999999
 40
0.9999999999999999
 40
0.9999999999999999
 10
269.209428080919
 20
162.434836446168
 30
0.0
 10
269.4562522085366
 20
162.1984764268296
 30
0.0
 10
269.9561031600845
 20
161.7198166551348
 30
0.0
 10
270.4650193753427
 20
161.0467182677926
 30
0.0
 10
270.7055713343337
 20
160.6097831043789
 30
0.0
 10
270.7556079566505
 20
160.5188972939272
 30
0.0
  0
ARC
  5
2F4
330
1F
100
AcDbEntity
  8
0
  6
Continuous
 62
     7
370
    25
100
AcDbCircle
 10
269.2594135961
 20
162.4796905281
 30
0.0
 40
0.0671598123760459
100
AcDbArc
 50
151.7877617441
 51
221.9029490358
  0
ARC
  5
2F5
330
1F
100
AcDbEntity
  8
0
  6
Continuous
 62
     7
370
    25
100
AcDbCircle
 10
327.1979194203
 20
162.4796905281
 30
0.0
 40
0.0671598123760459
100
AcDbArc
 50
318.0970509642
 51
28.2122382559
  0
SPLINE
  5
2F6
330
1F
100
AcDbEntity
  8
0
  6
Continuous
 62
     7
370
    25
100
AcDbSpline
210
0.0
220
0.0
230
1.0
 70
     8
 71
     3
 72
    10
 73
     6
 74
     0
 42
0.000000001
 43
0.00000001
 40
0.0
 40
0.0
 40
0.0
 40
0.0
 40
0.4359612906888536
 40
0.8828782991850452
 40
1.0
 40
1.0
 40
1.0
 40
1.0
 10
327.2479049354818
 20
113.7284688342829
 30
0.0
 10
327.0010819901717
 20
113.9648303398397
 30
0.0
 10
326.5012334329504
 20
114.4434931213197
 30
0.0
 10
325.9924336102162
 20
115.1164020595434
 30
0.0
 10
325.7519853022262
 20
115.5531329474326
 30
0.0
 10
325.7020566105869
 20
115.6438193906565
 30
0.0
  0
ARC
  5
2F7
330
1F
100
AcDbEntity
  8
0
  6
Continuous
 62
     7
370
    25
100
AcDbCircle
 10
327.1979194203
 20
113.6836147523
 30
0.0
 40
0.0671598123760345
100
AcDbArc
 50
331.7877617441
 51
41.9029490358
  0
SPLINE
  5
2F8
330
1F
100
AcDbEntity
  8
0
  6
Continuous
 62
     7
370
    25
100
AcDbSpline
210
0.0
220
0.0
230
1.0
 70
     8
 71
     3
 72
    10
 73
     6
 74
     0
 42
0.000000001
 43
0.00000001
 40
0.0
 40
0.0
 40
0.0
 40
0.0
 40
0.4411971847663007
 40
0.8831156734025603
 40
1.0
 40
1.0
 40
1.0
 40
1.0
 10
273.8754827022578
 20
109.062414212944
 30
0.0
 10
274.114404791956
 20
109.312297299387
 30
0.0
 10
274.5926395799823
 20
109.812472000803
 30
0.0
 10
275.2671904973719
 20
110.3199227562109
 30
0.0
 10
275.6997698457879
 20
110.5580911480563
 30
0.0
 10
275.7902521133449
 20
110.6079086352606
 30
0.0
  0
ARC
  5
2F9
330
1F
100
AcDbEntity
  8
0
  6
Continuous
 62
     7
370
    25
100
AcDbCircle
 10
273.8306286203
 20
109.1123997281
 30
0.0
 40
0.0671598123760287
100
AcDbArc
 50
241.787761744
 51
311.9029490358
  0
LINE
  5
2FA
330
1F
100
AcDbEntity
  8
0
  6
Continuous
 62
     7
370
    25
100
AcDbLine
 10
267.3960498959
 20
163.9564424444
 30
0.0
 11
269.2094280809
 21
162.4348364462
 31
0.0
  0
ARC
  5
2FB
330
1F
100
AcDbEntity
  8
0
  6
Continuous
 62
     7
370
    25
100
AcDbCircle
 10
267.4459474385
 20
164.0022295101
 30
0.0
 40
0.0677216371225262
100
AcDbArc
 50
152.9324683092
 51
222.5401658711
  0
LINE
  5
2FC
330
1F
100
AcDbEntity
  8
0
  6
Continuous
 62
     7
370
    25
100
AcDbLine
 10
272.353876704
 20
107.2490360279
 30
0.0
 11
273.8754827023
 21
109.0624142129
 31
0.0
  0
ARC
  5
2FD
330
1F
100
AcDbEntity
  8
0
  6
Continuous
 62
     7
370
    25
100
AcDbCircle
 10
272.3080896383
 20
107.2989335705
 30
0.0
 40
0.0677216371225366
100
AcDbArc
 50
242.9324683092
 51
312.5401658711
  0
LINE
  5
2FE
330
1F
100
AcDbEntity
  8
0
  6
Continuous
 62
     7
370
    25
100
AcDbLine
 10
329.0612831205
 20
112.206862836
 30
0.0
 11
327.2479049355
 21
113.7284688343
 31
0.0
  0
ARC
  5
2FF
330
1F
100
AcDbEntity
  8
0
  6
Continuous
 62
     7
370
    25
100
AcDbCircle
 10
329.0113855779
 20
112.1610757704
 30
0.0
 40
0.0677216371225167
100
AcDbArc
 50
332.9324683092
 51
42.5401658711
  0
ARC
  5
300
330
1F
100
AcDbEntity
  8
0
  6
Continuous
 62
     7
370
    25
100
AcDbCircle
 10
329.0113855779
 20
164.0022295101
 30
0.0
 40
0.0677216371225262
100
AcDbArc
 50
317.4598341289
 51
27.0675316908
  0
LINE
  5
301
330
1F
100
AcDbEntity
  8
0
  6
Continuous
 62
     7
370
    25
100
AcDbLine
 10
329.0612831205
 20
163.9564424444
 30
0.0
 11
327.2479049355
 21
162.4348364462
 31
0.0
  0
ARC
  5
302
330
1F
100
AcDbEntity
  8
0
  6
Continuous
 62
     7
370
    25
100
AcDbCircle
 10
324.1492433781
 20
107.2989335705
 30
0.0
 40
0.0677216371225366
100
AcDbArc
 50
227.4598341289
 51
297.0675316908
  0
LINE
  5
303
330
1F
100
AcDbEntity
  8
0
  6
Continuous
 62
     7
370
    25
100
AcDbLine
 10
324.1034563124
 20
107.2490360279
 30
0.0
 11
322.5818503141
 21
109.0624142129
 31
0.0
  0
ARC
  5
304
330
1F
100
AcDbEntity
  8
0
  6
Continuous
 62
     7
370
    25
100
AcDbCircle
 10
267.4459474385
 20
112.1610757704
 30
0.0
 40
0.0677216371225167
100
AcDbArc
 50
137.4598341289
 51
207.0675316908
  0
LINE
  5
305
330
1F
100
AcDbEntity
  8
0
  6
Continuous
 62
     7
370
    25
100
AcDbLine
 10
267.3960498959
 20
112.206862836
 30
0.0
 11
269.2094280809
 21
113.7284688343
 31
0.0
  0
LWPOLYLINE
  5
306
330
1F
100
AcDbEntity
  8
0
  6
Continuous
 62
     7
370
    25
100
AcDbPolyline
 90
        4
 70
   128
 43
0.0
 10
264.8286673665
 20
162.1945105184
 10
264.8243274033
 20
162.4625507433
 10
264.8200060666
 20
162.729369073
 10
264.815725708
 20
162.9937454749
  0
SPLINE
  5
307
330
1F
100
AcDbEntity
  8
0
  6
Continuous
 62
     7
370
    25
100
AcDbSpline
210
0.0
220
0.0
230
1.0
 70
     8
 71
     3
 72
    24
 73
    20
 74
     0
 42
0.000000001
 43
0.00000001
 40
0.0
 40
0.0
 40
0.0
 40
0.0
 40
0.1250000000000011
 40
0.1250000000000011
 40
0.1875000000000016
 40
0.1875000000000016
 40
0.2500000000000022
 40
0.2500000000000022
 40
0.3125000000000027
 40
0.3125000000000027
 40
0.3750000000000032
 40
0.3750000000000032
 40
0.5000000000000027
 40
0.5000000000000027
 40
0.6250000000000021
 40
0.6250000000000021
 40
0.7500000000000012
 40
0.7500000000000012
 40
1.0
 40
1.0
 40
1.0
 40
1.0
 10
264.8157264865291
 20
162.9937462536751
 30
0.0
 10
264.8419573683382
 20
163.1888706204962
 30
0.0
 10
264.8824488755994
 20
163.3822169981468
 30
0.0
 10
264.9688356559752
 20
163.6515191013706
 30
0.0
 10
265.0017601447275
 20
163.7376299954068
 30
0.0
 10
265.0769947731642
 20
163.9015662163295
 30
0.0
 10
265.1195339741546
 20
163.9794597265592
 30
0.0
 10
265.2114422480817
 20
164.12012286648
 30
0.0
 10
265.2611424887066
 20
164.183738489329
 30
0.0
 10
265.3681980001776
 20
164.2973160453772
 30
0.0
 10
265.4262483227292
 20
164.3476691914575
 30
0.0
 10
265.6056081014746
 20
164.4730329688611
 30
0.0
 10
265.7328264435972
 20
164.5243308073752
 30
0.0
 10
265.9981163095937
 20
164.5739287330216
 30
0.0
 10
266.1315903794946
 20
164.5714586460205
 30
0.0
 10
266.3968518983343
 20
164.5275209604058
 30
0.0
 10
266.5295832392209
 20
164.4854758074031
 30
0.0
 10
266.9146345965212
 20
164.3191145719728
 30
0.0
 10
267.1592444656122
 20
164.155144507933
 30
0.0
 10
267.3960490943297
 20
163.9564418313151
 30
0.0
  0
SPLINE
  5
308
330
1F
100
AcDbEntity
  8
0
  6
Continuous
 62
     7
370
    25
100
AcDbSpline
210
0.0
220
0.0
230
1.0
 70
     8
 71
     3
 72
    14
 73
    10
 74
     0
 42
0.000000001
 43
0.00000001
 40
0.0
 40
0.0
 40
0.0
 40
0.0
 40
0.0000374015792806
 40
0.0000374015792806
 40
0.0000374015792806
 40
0.0000696344187553
 40
0.0000696344187553
 40
0.0000696344187553
 40
0.0000748396572827
 40
0.0000748396572827
 40
0.0000748396572827
 40
0.0000748396572827
 10
264.7514927459222
 20
163.0042408840194
 30
0.0
 10
264.7594101446718
 20
163.0020888034711
 30
0.0
 10
264.7693139218189
 20
163.0000191946869
 30
0.0
 10
264.7801932719323
 20
162.9982410164142
 30
0.0
 10
264.7896116591052
 20
162.9967016256178
 30
0.0
 10
264.8000115700701
 20
162.9953367481895
 30
0.0
 10
264.8105981944589
 20
162.9942501407928
 30
0.0
 10
264.8123000967122
 20
162.9940754581452
 30
0.0
 10
264.8140106699537
 20
162.9939073446356
 30
0.0
 10
264.8157264865291
 20
162.9937462536758
 30
0.0
  0
LWPOLYLINE
  5
309
330
1F
100
AcDbEntity
  8
0
  6
Continuous
 62
     7
370
    25
100
AcDbPolyline
 90
        4
 70
   128
 43
0.0
 10
331.6286656499
 20
113.968794762
 10
331.6330056131
 20
113.7007545371
 10
331.6373269498
 20
113.4339362074
 10
331.6416073084
 20
113.1695598055
  0
SPLINE
  5
30A
330
1F
100
AcDbEntity
  8
0
  6
Continuous
 62
     7
370
    25
100
AcDbSpline
210
0.0
220
0.0
230
1.0
 70
     8
 71
     3
 72
    24
 73
    20
 74
     0
 42
0.000000001
 43
0.00000001
 40
0.0
 40
0.0
 40
0.0
 40
0.0
 40
0.1250000000000021
 40
0.1250000000000021
 40
0.1875000000000026
 40
0.1875000000000026
 40
0.2500000000000031
 40
0.2500000000000031
 40
0.3125000000000035
 40
0.3125000000000035
 40
0.3750000000000039
 40
0.3750000000000039
 40
0.5000000000000033
 40
0.5000000000000033
 40
0.6250000000000028
 40
0.6250000000000028
 40
0.7500000000000021
 40
0.7500000000000021
 40
1.0
 40
1.0
 40
1.0
 40
1.0
 10
331.6416065298721
 20
113.1695590267762
 30
0.0
 10
331.6153756480629
 20
112.9744346599551
 30
0.0
 10
331.5748841408017
 20
112.7810882823045
 30
0.0
 10
331.488497360426
 20
112.5117861790807
 30
0.0
 10
331.4555728716737
 20
112.4256752850445
 30
0.0
 10
331.3803382432369
 20
112.2617390641217
 30
0.0
 10
331.3377990422464
 20
112.183845553892
 30
0.0
 10
331.2458907683194
 20
112.0431824139713
 30
0.0
 10
331.1961905276946
 20
111.9795667911222
 30
0.0
 10
331.0891350162236
 20
111.8659892350741
 30
0.0
 10
331.0310846936718
 20
111.8156360889938
 30
0.0
 10
330.8517249149265
 20
111.6902723115902
 30
0.0
 10
330.7245065728039
 20
111.638974473076
 30
0.0
 10
330.4592167068074
 20
111.5893765474297
 30
0.0
 10
330.3257426369065
 20
111.5918466344307
 30
0.0
 10
330.0604811180668
 20
111.6357843200455
 30
0.0
 10
329.9277497771802
 20
111.6778294730481
 30
0.0
 10
329.5426984198799
 20
111.8441907084784
 30
0.0
 10
329.2980885507889
 20
112.0081607725183
 30
0.0
 10
329.0612839220715
 20
112.2068634491362
 30
0.0
  0
SPLINE
  5
30B
330
1F
100
AcDbEntity
  8
0
  6
Continuous
 62
     7
370
    25
100
AcDbSpline
210
0.0
220
0.0
230
1.0
 70
     8
 71
     3
 72
    14
 73
    10
 74
     0
 42
0.000000001
 43
0.00000001
 40
0.0
 40
0.0
 40
0.0
 40
0.0
 40
0.0000374015792806
 40
0.0000374015792806
 40
0.0000374015792806
 40
0.0000696344187552
 40
0.0000696344187552
 40
0.0000696344187552
 40
0.0000748396572827
 40
0.0000748396572827
 40
0.0000748396572827
 40
0.0000748396572827
 10
331.7058402704789
 20
113.1590643964318
 30
0.0
 10
331.6979228717293
 20
113.1612164769802
 30
0.0
 10
331.6880190945822
 20
113.1632860857644
 30
0.0
 10
331.6771397444689
 20
113.1650642640371
 30
0.0
 10
331.6677213572959
 20
113.1666036548335
 30
0.0
 10
331.657321446331
 20
113.1679685322618
 30
0.0
 10
331.6467348219423
 20
113.1690551396586
 30
0.0
 10
331.6450329196889
 20
113.1692298223061
 30
0.0
 10
331.6433223464475
 20
113.1693979358157
 30
0.0
 10
331.641606529872
 20
113.1695590267754
 30
0.0
  0
LWPOLYLINE
  5
30C
330
1F
100
AcDbEntity
  8
0
  6
Continuous
 62
     7
370
    25
100
AcDbPolyline
 90
        4
 70
   128
 43
0.0
 10
274.11580863
 20
104.6816534985
 10
273.8477684051
 20
104.6773135353
 10
273.5809500754
 20
104.6729921986
 10
273.3165736735
 20
104.66871184
  0
SPLINE
  5
30D
330
1F
100
AcDbEntity
  8
0
  6
Continuous
 62
     7
370
    25
100
AcDbSpline
210
0.0
220
0.0
230
1.0
 70
     8
 71
     3
 72
    24
 73
    20
 74
     0
 42
0.000000001
 43
0.00000001
 40
0.0
 40
0.0
 40
0.0
 40
0.0
 40
0.1250000000000022
 40
0.1250000000000022
 40
0.1875000000000027
 40
0.1875000000000027
 40
0.2500000000000031
 40
0.2500000000000031
 40
0.3125000000000036
 40
0.3125000000000036
 40
0.375000000000004
 40
0.375000000000004
 40
0.5000000000000032
 40
0.5000000000000032
 40
0.6250000000000024
 40
0.6250000000000024
 40
0.7500000000000014
 40
0.7500000000000014
 40
1.0
 40
1.0
 40
1.0
 40
1.0
 10
273.3165728947515
 20
104.6687126185535
 30
0.0
 10
273.1214485279304
 20
104.6949435003627
 30
0.0
 10
272.9281021502798
 20
104.7354350076239
 30
0.0
 10
272.658800047056
 20
104.8218217879996
 30
0.0
 10
272.5726891530198
 20
104.854746276752
 30
0.0
 10
272.4087529320971
 20
104.9299809051887
 30
0.0
 10
272.3308594218673
 20
104.9725201061791
 30
0.0
 10
272.1901962819466
 20
105.0644283801062
 30
0.0
 10
272.1265806590975
 20
105.1141286207311
 30
0.0
 10
272.0130031030494
 20
105.2211841322021
 30
0.0
 10
271.9626499569691
 20
105.2792344547538
 30
0.0
 10
271.8372861795655
 20
105.458594233499
 30
0.0
 10
271.7859883410513
 20
105.5858125756217
 30
0.0
 10
271.7363904154049
 20
105.8511024416182
 30
0.0
 10
271.7388605024061
 20
105.9845765115191
 30
0.0
 10
271.7827981880208
 20
106.2498380303588
 30
0.0
 10
271.8248433410234
 20
106.3825693712454
 30
0.0
 10
271.9912045764536
 20
106.7676207285457
 30
0.0
 10
272.1551746404936
 20
107.0122305976367
 30
0.0
 10
272.3538773171114
 20
107.2490352263541
 30
0.0
  0
SPLINE
  5
30E
330
1F
100
AcDbEntity
  8
0
  6
Continuous
 62
     7
370
    25
100
AcDbSpline
210
0.0
220
0.0
230
1.0
 70
     8
 71
     3
 72
    24
 73
    20
 74
     0
 42
0.000000001
 43
0.00000001
 40
0.0
 40
0.0
 40
0.0
 40
0.0
 40
0.1249999999999983
 40
0.1249999999999983
 40
0.1874999999999978
 40
0.1874999999999978
 40
0.2499999999999972
 40
0.2499999999999972
 40
0.3124999999999967
 40
0.3124999999999967
 40
0.3749999999999962
 40
0.3749999999999962
 40
0.4999999999999968
 40
0.4999999999999968
 40
0.6249999999999973
 40
0.6249999999999973
 40
0.7499999999999982
 40
0.7499999999999982
 40
1.0
 40
1.0
 40
1.0
 40
1.0
 10
323.1407601216493
 20
104.6687126185535
 30
0.0
 10
323.3358844884704
 20
104.6949435003627
 30
0.0
 10
323.5292308661209
 20
104.7354350076239
 30
0.0
 10
323.7985329693448
 20
104.8218217879996
 30
0.0
 10
323.884643863381
 20
104.8547462767519
 30
0.0
 10
324.0485800843038
 20
104.9299809051887
 30
0.0
 10
324.1264735945335
 20
104.9725201061791
 30
0.0
 10
324.2671367344543
 20
105.0644283801061
 30
0.0
 10
324.3307523573033
 20
105.114128620731
 30
0.0
 10
324.4443299133515
 20
105.221184132202
 30
0.0
 10
324.4946830594317
 20
105.2792344547537
 30
0.0
 10
324.6200468368353
 20
105.458594233499
 30
0.0
 10
324.6713446753495
 20
105.5858125756216
 30
0.0
 10
324.7209426009958
 20
105.8511024416182
 30
0.0
 10
324.7184725139948
 20
105.984576511519
 30
0.0
 10
324.67453482838
 20
106.2498380303588
 30
0.0
 10
324.6324896753773
 20
106.3825693712454
 30
0.0
 10
324.4661284399471
 20
106.7676207285457
 30
0.0
 10
324.3021583759073
 20
107.0122305976366
 30
0.0
 10
324.1034556992893
 20
107.2490352263541
 30
0.0
  0
LWPOLYLINE
  5
30F
330
1F
100
AcDbEntity
  8
0
  6
Continuous
 62
     7
370
    25
100
AcDbPolyline
 90
        4
 70
   128
 43
0.0
 10
322.3415243864
 20
104.6816534985
 10
322.6095646113
 20
104.6773135353
 10
322.876382941
 20
104.6729921986
 10
323.1407593429
 20
104.66871184
  0
SPLINE
  5
310
330
1F
100
AcDbEntity
  8
0
  6
Continuous
 62
     7
370
    25
100
AcDbSpline
210
0.0
220
0.0
230
1.0
 70
     8
 71
     3
 72
    14
 73
    10
 74
     0
 42
0.000000001
 43
0.00000001
 40
0.0000000000000003
 40
0.0000000000000003
 40
0.0000000000000003
 40
0.0000000000000003
 40
0.0000374015792806
 40
0.0000374015792806
 40
0.0000374015792806
 40
0.0000696344187553
 40
0.0000696344187553
 40
0.0000696344187553
 40
0.0000748396572827
 40
0.0000748396572827
 40
0.0000748396572827
 40
0.0000748396572827
 10
264.7514927459217
 20
113.1590643964321
 30
0.0
 10
264.7594101446713
 20
113.1612164769805
 30
0.0
 10
264.7693139218185
 20
113.1632860857646
 30
0.0
 10
264.7801932719318
 20
113.1650642640373
 30
0.0
 10
264.7896116591048
 20
113.1666036548337
 30
0.0
 10
264.8000115700696
 20
113.1679685322622
 30
0.0
 10
264.8105981944584
 20
113.1690551396588
 30
0.0
 10
264.8123000967117
 20
113.1692298223063
 30
0.0
 10
264.8140106699532
 20
113.1693979358159
 30
0.0
 10
264.8157264865286
 20
113.1695590267757
 30
0.0
  0
SPLINE
  5
311
330
1F
100
AcDbEntity
  8
0
  6
Continuous
 62
     7
370
    25
100
AcDbSpline
210
0.0
220
0.0
230
1.0
 70
     8
 71
     3
 72
    24
 73
    20
 74
     0
 42
0.000000001
 43
0.00000001
 40
0.0
 40
0.0
 40
0.0
 40
0.0
 40
0.1250000000000017
 40
0.1250000000000017
 40
0.1875000000000022
 40
0.1875000000000022
 40
0.2500000000000027
 40
0.2500000000000027
 40
0.3125000000000032
 40
0.3125000000000032
 40
0.3750000000000037
 40
0.3750000000000037
 40
0.5000000000000029
 40
0.5000000000000029
 40
0.625000000000002
 40
0.625000000000002
 40
0.7500000000000011
 40
0.7500000000000011
 40
1.0
 40
1.0
 40
1.0
 40
1.0
 10
264.8157264865285
 20
113.1695590267764
 30
0.0
 10
264.8419573683377
 20
112.9744346599553
 30
0.0
 10
264.8824488755989
 20
112.7810882823047
 30
0.0
 10
264.9688356559746
 20
112.5117861790809
 30
0.0
 10
265.001760144727
 20
112.4256752850447
 30
0.0
 10
265.0769947731637
 20
112.261739064122
 30
0.0
 10
265.1195339741541
 20
112.1838455538922
 30
0.0
 10
265.2114422480812
 20
112.0431824139715
 30
0.0
 10
265.2611424887061
 20
111.9795667911224
 30
0.0
 10
265.3681980001771
 20
111.8659892350743
 30
0.0
 10
265.4262483227288
 20
111.815636088994
 30
0.0
 10
265.6056081014741
 20
111.6902723115904
 30
0.0
 10
265.7328264435967
 20
111.6389744730762
 30
0.0
 10
265.9981163095932
 20
111.5893765474299
 30
0.0
 10
266.1315903794941
 20
111.5918466344309
 30
0.0
 10
266.3968518983338
 20
111.6357843200457
 30
0.0
 10
266.5295832392204
 20
111.6778294730484
 30
0.0
 10
266.9146345965208
 20
111.8441907084786
 30
0.0
 10
267.1592444656117
 20
112.0081607725185
 30
0.0
 10
267.3960490943291
 20
112.2068634491364
 30
0.0
  0
SPLINE
  5
312
330
1F
100
AcDbEntity
  8
0
  6
Continuous
 62
     7
370
    25
100
AcDbSpline
210
0.0
220
0.0
230
1.0
 70
     8
 71
     3
 72
    14
 73
    10
 74
     0
 42
0.000000001
 43
0.00000001
 40
0.0000000000000003
 40
0.0000000000000003
 40
0.0000000000000003
 40
0.0000000000000003
 40
0.0000374015792806
 40
0.0000374015792806
 40
0.0000374015792806
 40
0.0000696344187553
 40
0.0000696344187553
 40
0.0000696344187553
 40
0.0000748396572827
 40
0.0000748396572827
 40
0.0000748396572827
 40
0.0000748396572827
 10
323.1512547519936
 20
104.6044788779467
 30
0.0
 10
323.1491026714452
 20
104.6123962766963
 30
0.0
 10
323.1470330626611
 20
104.6223000538434
 30
0.0
 10
323.1452548843884
 20
104.6331794039567
 30
0.0
 10
323.143715493592
 20
104.6425977911297
 30
0.0
 10
323.1423506161637
 20
104.6529977020946
 30
0.0
 10
323.141264008767
 20
104.6635843264833
 30
0.0
 10
323.1410893261194
 20
104.6652862287367
 30
0.0
 10
323.1409212126098
 20
104.6669968019781
 30
0.0
 10
323.14076012165
 20
104.6687126185535
 30
0.0
  0
SPLINE
  5
313
330
1F
100
AcDbEntity
  8
0
  6
Continuous
 62
     7
370
    25
100
AcDbSpline
210
0.0
220
0.0
230
1.0
 70
     8
 71
     3
 72
    24
 73
    20
 74
     0
 42
0.000000001
 43
0.00000001
 40
0.0
 40
0.0
 40
0.0
 40
0.0
 40
0.1250000000000017
 40
0.1250000000000017
 40
0.1875000000000009
 40
0.1875000000000009
 40
0.2500000000000001
 40
0.2500000000000001
 40
0.3124999999999993
 40
0.3124999999999993
 40
0.3749999999999986
 40
0.3749999999999986
 40
0.4999999999999987
 40
0.4999999999999987
 40
0.6249999999999988
 40
0.6249999999999988
 40
0.7499999999999989
 40
0.7499999999999989
 40
1.0
 40
1.0
 40
1.0
 40
1.0
 10
331.6416065298723
 20
162.9937462536744
 30
0.0
 10
331.6153756480631
 20
163.1888706204955
 30
0.0
 10
331.5748841408019
 20
163.3822169981461
 30
0.0
 10
331.4884973604262
 20
163.6515191013699
 30
0.0
 10
331.4555728716738
 20
163.7376299954061
 30
0.0
 10
331.3803382432371
 20
163.9015662163289
 30
0.0
 10
331.3377990422466
 20
163.9794597265586
 30
0.0
 10
331.2458907683196
 20
164.1201228664793
 30
0.0
 10
331.1961905276947
 20
164.1837384893284
 30
0.0
 10
331.0891350162237
 20
164.2973160453766
 30
0.0
 10
331.031084693672
 20
164.3476691914568
 30
0.0
 10
330.8517249149267
 20
164.4730329688604
 30
0.0
 10
330.7245065728041
 20
164.5243308073746
 30
0.0
 10
330.4592167068076
 20
164.5739287330209
 30
0.0
 10
330.3257426369067
 20
164.5714586460199
 30
0.0
 10
330.0604811180669
 20
164.5275209604051
 30
0.0
 10
329.9277497771804
 20
164.4854758074025
 30
0.0
 10
329.54269841988
 20
164.3191145719722
 30
0.0
 10
329.2980885507891
 20
164.1551445079324
 30
0.0
 10
329.0612839220717
 20
163.9564418313145
 30
0.0
  0
LWPOLYLINE
  5
314
330
1F
100
AcDbEntity
  8
0
  6
Continuous
 62
     7
370
    25
100
AcDbPolyline
 90
        4
 70
   128
 43
0.0
 10
331.6286656499
 20
162.1945105184
 10
331.6330056131
 20
162.4625507433
 10
331.6373269498
 20
162.729369073
 10
331.6416073084
 20
162.9937454749
  0
SPLINE
  5
315
330
1F
100
AcDbEntity
  8
0
  6
Continuous
 62
     7
370
    25
100
AcDbSpline
210
0.0
220
0.0
230
1.0
 70
     8
 71
     3
 72
    14
 73
    10
 74
     0
 42
0.000000001
 43
0.00000001
 40
0.0000000000000003
 40
0.0000000000000003
 40
0.0000000000000003
 40
0.0000000000000003
 40
0.0000374015792806
 40
0.0000374015792806
 40
0.0000374015792806
 40
0.0000696344187553
 40
0.0000696344187553
 40
0.0000696344187553
 40
0.0000748396572827
 40
0.0000748396572827
 40
0.0000748396572827
 40
0.0000748396572827
 10
331.705840270479
 20
163.0042408840188
 30
0.0
 10
331.6979228717295
 20
163.0020888034704
 30
0.0
 10
331.6880190945823
 20
163.0000191946862
 30
0.0
 10
331.6771397444691
 20
162.9982410164135
 30
0.0
 10
331.667721357296
 20
162.9967016256172
 30
0.0
 10
331.6573214463312
 20
162.9953367481887
 30
0.0
 10
331.6467348219425
 20
162.9942501407921
 30
0.0
 10
331.6450329196891
 20
162.9940754581445
 30
0.0
 10
331.6433223464476
 20
162.9939073446349
 30
0.0
 10
331.6416065298722
 20
162.9937462536752
 30
0.0
  0
LWPOLYLINE
  5
316
330
1F
100
AcDbEntity
  8
0
  6
Continuous
 62
     7
370
    25
100
AcDbPolyline
 90
        4
 70
   128
 43
0.0
 10
264.8286673665
 20
113.968794762
 10
264.8243274033
 20
113.7007545371
 10
264.8200060666
 20
113.4339362074
 10
264.815725708
 20
113.1695598055
  0
SPLINE
  5
317
330
1F
100
AcDbEntity
  8
0
  6
Continuous
 62
     7
370
    25
100
AcDbSpline
210
0.0
220
0.0
230
1.0
 70
     8
 71
     3
 72
    14
 73
    10
 74
     0
 42
0.000000001
 43
0.00000001
 40
0.0
 40
0.0
 40
0.0
 40
0.0
 40
0.0000374015792806
 40
0.0000374015792806
 40
0.0000374015792806
 40
0.0000696344187553
 40
0.0000696344187553
 40
0.0000696344187553
 40
0.0000748396572827
 40
0.0000748396572827
 40
0.0000748396572827
 40
0.0000748396572827
 10
273.3060782644071
 20
104.6044788779467
 30
0.0
 10
273.3082303449556
 20
104.6123962766963
 30
0.0
 10
273.3102999537397
 20
104.6223000538434
 30
0.0
 10
273.3120781320123
 20
104.6331794039567
 30
0.0
 10
273.3136175228087
 20
104.6425977911297
 30
0.0
 10
273.3149824002372
 20
104.6529977020946
 30
0.0
 10
273.3160690076338
 20
104.6635843264833
 30
0.0
 10
273.3162436902814
 20
104.6652862287367
 30
0.0
 10
273.316411803791
 20
104.6669968019781
 30
0.0
 10
273.3165728947508
 20
104.6687126185536
 30
0.0
  0
LINE
  5
318
330
1F
100
AcDbEntity
  8
0
  6
Continuous
 62
     7
370
    25
100
AcDbLine
 10
264.7286656737
 20
112.9492405493
 30
0.0
 11
264.7286656737
 21
113.968794762
 31
0.0
  0
LINE
  5
319
330
1F
100
AcDbEntity
  8
0
  6
Continuous
 62
     7
370
    25
100
AcDbLine
 10
264.7286656737
 20
113.968794762
 30
0.0
 11
264.8286673665
 21
113.968794762
 31
0.0
  0
LINE
  5
31A
330
1F
100
AcDbEntity
  8
0
  6
Continuous
 62
     7
370
    25
100
AcDbLine
 10
331.7286673427
 20
163.2140647311
 30
0.0
 11
331.7286673427
 21
162.1945105184
 31
0.0
  0
LINE
  5
31B
330
1F
100
AcDbEntity
  8
0
  6
Continuous
 62
     7
370
    25
100
AcDbLine
 10
331.7286673427
 20
162.1945105184
 30
0.0
 11
331.6286656499
 21
162.1945105184
 31
0.0
  0
LINE
  5
31C
330
1F
100
AcDbEntity
  8
0
  6
Continuous
 62
     7
370
    25
100
AcDbLine
 10
323.3610785991
 20
104.5816518058
 30
0.0
 11
322.3415243864
 21
104.5816518058
 31
0.0
  0
LINE
  5
31D
330
1F
100
AcDbEntity
  8
0
  6
Continuous
 62
     7
370
    25
100
AcDbLine
 10
322.3415243864
 20
104.5816518058
 30
0.0
 11
322.3415243864
 21
104.6816534985
 31
0.0
  0
LINE
  5
31E
330
1F
100
AcDbEntity
  8
0
  6
Continuous
 62
     7
370
    25
100
AcDbLine
 10
331.7286673427
 20
113.968794762
 30
0.0
 11
331.6286656499
 21
113.968794762
 31
0.0
  0
LINE
  5
31F
330
1F
100
AcDbEntity
  8
0
  6
Continuous
 62
     7
370
    25
100
AcDbLine
 10
331.7286673427
 20
112.9492405493
 30
0.0
 11
331.7286673427
 21
113.968794762
 31
0.0
  0
LINE
  5
320
330
1F
100
AcDbEntity
  8
0
  6
Continuous
 62
     7
370
    25
100
AcDbLine
 10
274.11580863
 20
104.5816518058
 30
0.0
 11
274.11580863
 21
104.6816534985
 31
0.0
  0
LINE
  5
321
330
1F
100
AcDbEntity
  8
0
  6
Continuous
 62
     7
370
    25
100
AcDbLine
 10
273.0962544173
 20
104.5816518058
 30
0.0
 11
274.11580863
 21
104.5816518058
 31
0.0
  0
LINE
  5
322
330
1F
100
AcDbEntity
  8
0
  6
Continuous
 62
     7
370
    25
100
AcDbLine
 10
264.7286656737
 20
162.1945105184
 30
0.0
 11
264.8286673665
 21
162.1945105184
 31
0.0
  0
LINE
  5
323
330
1F
100
AcDbEntity
  8
0
  6
Continuous
 62
     7
370
    25
100
AcDbLine
 10
264.7286656737
 20
163.2140647311
 30
0.0
 11
264.7286656737
 21
162.1945105184
 31
0.0
  0
LINE
  5
324
330
1F
100
AcDbEntity
  8
0
  6
Continuous
 62
     7
370
    25
100
AcDbLine
 10
331.6286656499
 20
113.968794762
 30
0.0
 11
331.6286656499
 21
162.1945105184
 31
0.0
  0
LINE
  5
325
330
1F
100
AcDbEntity
  8
0
  6
Continuous
 62
     7
370
    25
100
AcDbLine
 10
331.7286673427
 20
162.1945105184
 30
0.0
 11
331.7286673427
 21
113.968794762
 31
0.0
  0
LINE
  5
326
330
1F
100
AcDbEntity
  8
0
  6
Continuous
 62
     7
370
    25
100
AcDbLine
 10
264.8286673665
 20
162.1945105184
 30
0.0
 11
264.8286673665
 21
113.968794762
 31
0.0
  0
LINE
  5
327
330
1F
100
AcDbEntity
  8
0
  6
Continuous
 62
     7
370
    25
100
AcDbLine
 10
264.7286656737
 20
113.968794762
 30
0.0
 11
264.7286656737
 21
162.1945105184
 31
0.0
  0
LINE
  5
328
330
1F
100
AcDbEntity
  8
0
  6
Continuous
 62
     7
370
    25
100
AcDbLine
 10
274.11580863
 20
104.6816534985
 30
0.0
 11
322.3415243864
 21
104.6816534985
 31
0.0
  0
LINE
  5
329
330
1F
100
AcDbEntity
  8
0
  6
Continuous
 62
     7
370
    25
100
AcDbLine
 10
322.3415243864
 20
104.5816518058
 30
0.0
 11
274.11580863
 21
104.5816518058
 31
0.0
  0
LINE
  5
32A
330
1F
100
AcDbEntity
  8
0
  6
Continuous
 62
     8
370
    25
100
AcDbLine
 10
272.1187326551
 20
120.1697956462
 30
0.0
 11
272.1472218126
 21
120.1697956462
 31
0.0
  0
LINE
  5
32B
330
1F
100
AcDbEntity
  8
0
  6
Continuous
 62
     8
370
    25
100
AcDbLine
 10
316.1405235022
 20
111.9717169244
 30
0.0
 11
316.1405235022
 21
112.0002079446
 31
0.0
  0
LINE
  5
32C
330
1F
100
AcDbEntity
  8
0
  6
Continuous
 62
     8
370
    25
100
AcDbLine
 10
272.1187345177
 20
155.9935096343
 30
0.0
 11
272.1472218126
 21
155.9935096343
 31
0.0
  0
LINE
  5
32D
330
1F
100
AcDbEntity
  8
0
  6
Continuous
 62
     8
370
    25
100
AcDbLine
 10
324.338602224
 20
155.9935096343
 30
0.0
 11
324.3101112038
 21
155.9935096343
 31
0.0
  0
LINE
  5
32E
330
1F
100
AcDbEntity
  8
0
  6
Continuous
 62
     8
370
    25
100
AcDbLine
 10
324.338602224
 20
120.1697956462
 30
0.0
 11
324.3101112038
 21
120.1697956462
 31
0.0
  0
LINE
  5
32F
330
1F
100
AcDbEntity
  8
0
  6
Continuous
 62
     8
370
    25
100
AcDbLine
 10
280.3168095142
 20
111.9717169244
 30
0.0
 11
280.3168095142
 21
112.0002079446
 31
0.0
  0
LINE
  5
330
330
1F
100
AcDbEntity
  8
0
  6
Continuous
 62
     8
370
    25
100
AcDbLine
 10
264.8286673665
 20
162.1945105184
 30
0.0
 11
272.1215992659
 21
156.0750133981
 31
0.0
  0
LINE
  5
331
330
1F
100
AcDbEntity
  8
0
  6
Continuous
 62
     8
370
    25
100
AcDbLine
 10
331.6286656499
 20
113.968794762
 30
0.0
 11
324.3402096868
 21
120.0845367898
 31
0.0
  0
LINE
  5
332
330
1F
100
AcDbEntity
  8
0
  6
Continuous
 62
     8
370
    25
100
AcDbLine
 10
274.11580863
 20
104.6816534985
 30
0.0
 11
280.2315506578
 21
111.9701094617
 31
0.0
  0
LINE
  5
333
330
1F
100
AcDbEntity
  8
0
  6
Continuous
 62
     8
370
    25
100
AcDbLine
 10
322.3415243864
 20
104.6816534985
 30
0.0
 11
316.2274457008
 21
111.9681276072
 31
0.0
  0
LINE
  5
334
330
1F
100
AcDbEntity
  8
0
  6
Continuous
 62
     8
370
    25
100
AcDbLine
 10
331.6286656499
 20
162.1945105184
 30
0.0
 11
324.3421915412
 21
156.0804318328
 31
0.0
  0
LINE
  5
335
330
1F
100
AcDbEntity
  8
0
  6
Continuous
 62
     8
370
    25
100
AcDbLine
 10
264.8286673665
 20
113.968794762
 30
0.0
 11
272.1184439451
 21
120.0856450636
 31
0.0
  0
ENDSEC
  0
SECTION
  2
OBJECTS
  0
DICTIONARY
  5
C
330
0
100
AcDbDictionary
281
     1
  3
ACAD_GROUP
350
D
  3
ACAD_LAYOUT
350
1A
  3
ACAD_MLINESTYLE
350
17
  3
ACAD_PLOTSETTINGS
350
19
  3
ACAD_PLOTSTYLENAME
350
E
  3
ACAD_SCALELIST
350
47
  0
DICTIONARY
  5
D
102
{ACAD_REACTORS
330
C
102
}
330
C
100
AcDbDictionary
281
     1
  0
DICTIONARY
  5
1A
102
{ACAD_REACTORS
330
C
102
}
330
C
100
AcDbDictionary
281
     1
  3
Layout1
350
1E
  3
Layout2
350
26
  3
Model
350
22
  0
DICTIONARY
  5
17
102
{ACAD_REACTORS
330
C
102
}
330
C
100
AcDbDictionary
281
     1
  3
Standard
350
18
  0
DICTIONARY
  5
19
102
{ACAD_REACTORS
330
C
102
}
330
C
100
AcDbDictionary
281
     1
  0
ACDBDICTIONARYWDFLT
  5
E
102
{ACAD_REACTORS
330
C
102
}
330
C
100
AcDbDictionary
281
     1
  3
Normal
350
F
100
AcDbDictionaryWithDefault
340
F
  0
DICTIONARY
  5
47
102
{ACAD_REACTORS
330
C
102
}
330
C
100
AcDbDictionary
281
     1
  3
A0
350
48
  3
A1
350
49
  3
A2
350
4A
  3
A3
350
4B
  3
A4
350
4C
  3
A5
350
4D
  3
A6
350
4E
  3
A7
350
4F
  3
A8
350
50
  3
A9
350
51
  3
B0
350
52
  3
B1
350
53
  3
B2
350
54
  3
B3
350
55
  3
B4
350
56
  3
B5
350
57
  3
B6
350
58
  3
B7
350
59
  3
B8
350
5A
  3
B9
350
5B
  3
C0
350
5C
  3
C1
350
5D
  3
C2
350
5E
  3
C3
350
5F
  3
C4
350
60
  3
C5
350
61
  3
C6
350
62
  3
C7
350
63
  3
C8
350
64
  3
C9
350
65
  3
D0
350
66
  3
D1
350
67
  3
D2
350
68
  0
LAYOUT
  5
1E
102
{ACAD_REACTORS
330
1A
102
}
330
1A
100
AcDbPlotSettings
  1

  2
none_device
  4

  6

 40
0.0
 41
0.0
 42
0.0
 43
0.0
 44
0.0
 45
0.0
 46
0.0
 47
0.0
 48
0.0
 49
0.0
140
0.0
141
0.0
142
1.0
143
1.0
 70
   688
 72
     1
 73
     0
 74
     5
  7

 75
    16
147
1.0
148
0.0
149
0.0
100
AcDbLayout
  1
Layout1
 70
     1
 71
     1
 10
0.0
 20
0.0
 11
420.0
 21
297.0
 12
0.0
 22
0.0
 32
0.0
 14
1.0000000000E+20
 24
1.0000000000E+20
 34
1.0000000000E+20
 15
-1.0000000000E+20
 25
-1.0000000000E+20
 35
-1.0000000000E+20
146
0.0
 13
0.0
 23
0.0
 33
0.0
 16
1.0
 26
0.0
 36
0.0
 17
0.0
 27
1.0
 37
0.0
 76
     0
330
1B
  0
LAYOUT
  5
26
102
{ACAD_REACTORS
330
1A
102
}
330
1A
100
AcDbPlotSettings
  1

  2
none_device
  4

  6

 40
0.0
 41
0.0
 42
0.0
 43
0.0
 44
0.0
 45
0.0
 46
0.0
 47
0.0
 48
0.0
 49
0.0
140
0.0
141
0.0
142
1.0
143
1.0
 70
   688
 72
     1
 73
     0
 74
     5
  7

 75
    16
147
1.0
148
0.0
149
0.0
100
AcDbLayout
  1
Layout2
 70
     1
 71
     2
 10
0.0
 20
0.0
 11
0.0
 21
0.0
 12
0.0
 22
0.0
 32
0.0
 14
0.0
 24
0.0
 34
0.0
 15
0.0
 25
0.0
 35
0.0
146
0.0
 13
0.0
 23
0.0
 33
0.0
 16
1.0
 26
0.0
 36
0.0
 17
0.0
 27
1.0
 37
0.0
 76
     0
330
23
  0
LAYOUT
  5
22
102
{ACAD_REACTORS
330
1A
102
}
330
1A
100
AcDbPlotSettings
  1

  2
none_device
  4
Letter_(8.50_x_11.00_Inches)
  6

 40
6.35
 41
6.35
 42
6.35000508
 43
6.35000508
 44
215.9
 45
279.4
 46
0.0
 47
0.0
 48
0.0
 49
0.0
140
0.0
141
0.0
142
1.0
143
1.0
 70
  1712
 72
     1
 73
     0
 74
     0
  7

 75
     0
147
1.0
148
0.0
149
0.0
100
AcDbLayout
  1
Model
 70
     1
 71
     0
 10
0.0
 20
0.0
 11
420.0
 21
297.0
 12
0.0
 22
0.0
 32
0.0
 14
0.0
 24
0.0
 34
0.0
 15
420.0
 25
297.0
 35
0.0
146
0.0
 13
0.0
 23
0.0
 33
0.0
 16
1.0
 26
0.0
 36
0.0
 17
0.0
 27
1.0
 37
0.0
 76
     0
330
1F
331
29
  0
MLINESTYLE
  5
18
102
{ACAD_REACTORS
330
17
102
}
330
17
100
AcDbMlineStyle
  2
Standard
 70
     0
  3

 62
   256
 51
90.0
 52
90.0
 71
     2
 49
0.5
 62
   256
  6
BYLAYER
 49
-0.5
 62
   256
  6
BYLAYER
  0
ACDBPLACEHOLDER
  5
F
102
{ACAD_REACTORS
330
E
102
}
330
E
  0
SCALE
  5
48
102
{ACAD_REACTORS
330
47
102
}
330
47
100
AcDbScale
 70
     0
300
1:1
140
1.0
141
1.0
290
     1
  0
SCALE
  5
49
102
{ACAD_REACTORS
330
47
102
}
330
47
100
AcDbScale
 70
     0
300
1:2
140
1.0
141
2.0
290
     0
  0
SCALE
  5
4A
102
{ACAD_REACTORS
330
47
102
}
330
47
100
AcDbScale
 70
     0
300
1:4
140
1.0
141
4.0
290
     0
  0
SCALE
  5
4B
102
{ACAD_REACTORS
330
47
102
}
330
47
100
AcDbScale
 70
     0
300
1:5
140
1.0
141
5.0
290
     0
  0
SCALE
  5
4C
102
{ACAD_REACTORS
330
47
102
}
330
47
100
AcDbScale
 70
     0
300
1:8
140
1.0
141
8.0
290
     0
  0
SCALE
  5
4D
102
{ACAD_REACTORS
330
47
102
}
330
47
100
AcDbScale
 70
     0
300
1:10
140
1.0
141
10.0
290
     0
  0
SCALE
  5
4E
102
{ACAD_REACTORS
330
47
102
}
330
47
100
AcDbScale
 70
     0
300
1:16
140
1.0
141
16.0
290
     0
  0
SCALE
  5
4F
102
{ACAD_REACTORS
330
47
102
}
330
47
100
AcDbScale
 70
     0
300
1:20
140
1.0
141
20.0
290
     0
  0
SCALE
  5
50
102
{ACAD_REACTORS
330
47
102
}
330
47
100
AcDbScale
 70
     0
300
1:30
140
1.0
141
30.0
290
     0
  0
SCALE
  5
51
102
{ACAD_REACTORS
330
47
102
}
330
47
100
AcDbScale
 70
     0
300
1:40
140
1.0
141
40.0
290
     0
  0
SCALE
  5
52
102
{ACAD_REACTORS
330
47
102
}
330
47
100
AcDbScale
 70
     0
300
1:50
140
1.0
141
50.0
290
     0
  0
SCALE
  5
53
102
{ACAD_REACTORS
330
47
102
}
330
47
100
AcDbScale
 70
     0
300
1:100
140
1.0
141
100.0
290
     0
  0
SCALE
  5
54
102
{ACAD_REACTORS
330
47
102
}
330
47
100
AcDbScale
 70
     0
300
2:1
140
2.0
141
1.0
290
     0
  0
SCALE
  5
55
102
{ACAD_REACTORS
330
47
102
}
330
47
100
AcDbScale
 70
     0
300
4:1
140
4.0
141
1.0
290
     0
  0
SCALE
  5
56
102
{ACAD_REACTORS
330
47
102
}
330
47
100
AcDbScale
 70
     0
300
8:1
140
8.0
141
1.0
290
     0
  0
SCALE
  5
57
102
{ACAD_REACTORS
330
47
102
}
330
47
100
AcDbScale
 70
     0
300
10:1
140
10.0
141
1.0
290
     0
  0
SCALE
  5
58
102
{ACAD_REACTORS
330
47
102
}
330
47
100
AcDbScale
 70
     0
300
100:1
140
100.0
141
1.0
290
     0
  0
SCALE
  5
59
102
{ACAD_REACTORS
330
47
102
}
330
47
100
AcDbScale
 70
     0
300
1/128" = 1'-0"
140
0.0078125
141
12.0
290
     0
  0
SCALE
  5
5A
102
{ACAD_REACTORS
330
47
102
}
330
47
100
AcDbScale
 70
     0
300
1/64" = 1'-0"
140
0.015625
141
12.0
290
     0
  0
SCALE
  5
5B
102
{ACAD_REACTORS
330
47
102
}
330
47
100
AcDbScale
 70
     0
300
1/32" = 1'-0"
140
0.03125
141
12.0
290
     0
  0
SCALE
  5
5C
102
{ACAD_REACTORS
330
47
102
}
330
47
100
AcDbScale
 70
     0
300
1/16" = 1'-0"
140
0.0625
141
12.0
290
     0
  0
SCALE
  5
5D
102
{ACAD_REACTORS
330
47
102
}
330
47
100
AcDbScale
 70
     0
300
3/32" = 1'-0"
140
0.09375
141
12.0
290
     0
  0
SCALE
  5
5E
102
{ACAD_REACTORS
330
47
102
}
330
47
100
AcDbScale
 70
     0
300
1/8" = 1'-0"
140
0.125
141
12.0
290
     0
  0
SCALE
  5
5F
102
{ACAD_REACTORS
330
47
102
}
330
47
100
AcDbScale
 70
     0
300
3/16" = 1'-0"
140
0.1875
141
12.0
290
     0
  0
SCALE
  5
60
102
{ACAD_REACTORS
330
47
102
}
330
47
100
AcDbScale
 70
     0
300
1/4" = 1'-0"
140
0.25
141
12.0
290
     0
  0
SCALE
  5
61
102
{ACAD_REACTORS
330
47
102
}
330
47
100
AcDbScale
 70
     0
300
3/8" = 1'-0"
140
0.375
141
12.0
290
     0
  0
SCALE
  5
62
102
{ACAD_REACTORS
330
47
102
}
330
47
100
AcDbScale
 70
     0
300
1/2" = 1'-0"
140
0.5
141
12.0
290
     0
  0
SCALE
  5
63
102
{ACAD_REACTORS
330
47
102
}
330
47
100
AcDbScale
 70
     0
300
3/4" = 1'-0"
140
0.75
141
12.0
290
     0
  0
SCALE
  5
64
102
{ACAD_REACTORS
330
47
102
}
330
47
100
AcDbScale
 70
     0
300
1" = 1'-0"
140
1.0
141
12.0
290
     0
  0
SCALE
  5
65
102
{ACAD_REACTORS
330
47
102
}
330
47
100
AcDbScale
 70
     0
300
1-1/2" = 1'-0"
140
1.5
141
12.0
290
     0
  0
SCALE
  5
66
102
{ACAD_REACTORS
330
47
102
}
330
47
100
AcDbScale
 70
     0
300
3" = 1'-0"
140
3.0
141
12.0
290
     0
  0
SCALE
  5
67
102
{ACAD_REACTORS
330
47
102
}
330
47
100
AcDbScale
 70
     0
300
6" = 1'-0"
140
6.0
141
12.0
290
     0
  0
SCALE
  5
68
102
{ACAD_REACTORS
330
47
102
}
330
47
100
AcDbScale
 70
     0
300
1'-0" = 1'-0"
140
12.0
141
12.0
290
     0
  0
ENDSEC
  0
EOF
