  0
SECTION
  2
HEADER
  9
$ACADVER
  1
AC1015
  9
$ACADMAINTVER
 70
     6
  9
$DWGCODEPAGE
  3
ANSI_1254
  9
$INSBASE
 10
0.0
 20
0.0
 30
0.0
  9
$EXTMIN
 10
0.0
 20
0.0
 30
0.0
  9
$EXTMAX
 10
1189.0
 20
841.0
 30
0.0
  9
$LIMMIN
 10
0.0
 20
0.0
  9
$LIMMAX
 10
1189.0
 20
841.0
  9
$ORTHOMODE
 70
     0
  9
$REGENMODE
 70
     1
  9
$FILLMODE
 70
     1
  9
$QTEXTMODE
 70
     0
  9
$MIRRTEXT
 70
     1
  9
$LTSCALE
 40
1.0
  9
$ATTMODE
 70
     1
  9
$TEXTSIZE
 40
4.9388888889
  9
$TRACEWID
 40
1.0
  9
$TEXTSTYLE
  7
Standard
  9
$CLAYER
  8
0
  9
$CELTYPE
  6
ByLayer
  9
$CECOLOR
 62
   256
  9
$CELTSCALE
 40
1.0
  9
$DISPSILH
 70
     0
  9
$DIMSCALE
 40
1.0
  9
$DIMASZ
 40
3.65
  9
$DIMEXO
 40
0.5
  9
$DIMDLI
 40
3.75
  9
$DIMRND
 40
0.0
  9
$DIMDLE
 40
0.0
  9
$DIMEXE
 40
1.0
  9
$DIMTP
 40
0.0
  9
$DIMTM
 40
0.0
  9
$DIMTXT
 40
4.2333333333
  9
$DIMCEN
 40
2.5
  9
$DIMTSZ
 40
0.0
  9
$DIMTOL
 70
     0
  9
$DIMLIM
 70
     0
  9
$DIMTIH
 70
     1
  9
$DIMTOH
 70
     1
  9
$DIMSE1
 70
     0
  9
$DIMSE2
 70
     0
  9
$DIMTAD
 70
     1
  9
$DIMZIN
 70
     0
  9
$DIMBLK
  1

  9
$DIMASO
 70
     1
  9
$DIMSHO
 70
     1
  9
$DIMPOST
  1

  9
$DIMAPOST
  1

  9
$DIMALT
 70
     0
  9
$DIMALTD
 70
     3
  9
$DIMALTF
 40
0.0393700787
  9
$DIMLFAC
 40
1.0
  9
$DIMTOFL
 70
     1
  9
$DIMTVP
 40
0.0
  9
$DIMTIX
 70
     0
  9
$DIMSOXD
 70
     0
  9
$DIMSAH
 70
     0
  9
$DIMBLK1
  1

  9
$DIMBLK2
  1

  9
$DIMSTYLE
  2
ISO-25
  9
$DIMCLRD
 70
     0
  9
$DIMCLRE
 70
     0
  9
$DIMCLRT
 70
     0
  9
$DIMTFAC
 40
1.0
  9
$DIMGAP
 40
1.524
  9
$DIMJUST
 70
     0
  9
$DIMSD1
 70
     0
  9
$DIMSD2
 70
     0
  9
$DIMTOLJ
 70
     0
  9
$DIMTZIN
 70
     0
  9
$DIMALTZ
 70
     0
  9
$DIMALTTZ
 70
     0
  9
$DIMUPT
 70
     0
  9
$DIMDEC
 70
     2
  9
$DIMTDEC
 70
     2
  9
$DIMALTU
 70
     2
  9
$DIMALTTD
 70
     3
  9
$DIMTXSTY
  7
Standard
  9
$DIMAUNIT
 70
     0
  9
$DIMADEC
 70
     2
  9
$DIMALTRND
 40
0.0
  9
$DIMAZIN
 70
     0
  9
$DIMDSEP
 70
    44
  9
$DIMATFIT
 70
     3
  9
$DIMFRAC
 70
     0
  9
$DIMLDRBLK
  1

  9
$DIMLUNIT
 70
     2
  9
$DIMLWD
 70
    -2
  9
$DIMLWE
 70
    -2
  9
$DIMTMOVE
 70
     0
  9
$LUNITS
 70
     2
  9
$LUPREC
 70
     2
  9
$SKETCHINC
 40
1.0
  9
$FILLETRAD
 40
10.0
  9
$AUNITS
 70
     0
  9
$AUPREC
 70
     2
  9
$MENU
  1
.
  9
$ELEVATION
 40
0.0
  9
$PELEVATION
 40
0.0
  9
$THICKNESS
 40
0.0
  9
$LIMCHECK
 70
     0
  9
$CHAMFERA
 40
0.0
  9
$CHAMFERB
 40
0.0
  9
$CHAMFERC
 40
0.0
  9
$CHAMFERD
 40
0.0
  9
$SKPOLY
 70
     0
  9
$TDCREATE
 40
2459080.475653113
  9
$TDUCREATE
 40
2459080.350653113
  9
$TDUPDATE
 40
2459080.47565456
  9
$TDUUPDATE
 40
2459080.35065456
  9
$TDINDWG
 40
0.0000000116
  9
$TDUSRTIMER
 40
0.0000000116
  9
$USRTIMER
 70
     1
  9
$ANGBASE
 50
0.0
  9
$ANGDIR
 70
     0
  9
$PDMODE
 70
     0
  9
$PDSIZE
 40
-1.0
  9
$PLINEWID
 40
0.0
  9
$SPLFRAME
 70
     0
  9
$SPLINETYPE
 70
     6
  9
$SPLINESEGS
 70
     8
  9
$HANDSEED
  5
37A
  9
$SURFTAB1
 70
     6
  9
$SURFTAB2
 70
     6
  9
$SURFTYPE
 70
     6
  9
$SURFU
 70
     6
  9
$SURFV
 70
     6
  9
$UCSBASE
  2

  9
$UCSNAME
  2

  9
$UCSORG
 10
0.0
 20
0.0
 30
0.0
  9
$UCSXDIR
 10
1.0
 20
0.0
 30
0.0
  9
$UCSYDIR
 10
0.0
 20
1.0
 30
0.0
  9
$UCSORTHOREF
  2

  9
$UCSORTHOVIEW
 70
     0
  9
$UCSORGTOP
 10
0.0
 20
0.0
 30
0.0
  9
$UCSORGBOTTOM
 10
0.0
 20
0.0
 30
0.0
  9
$UCSORGLEFT
 10
0.0
 20
0.0
 30
0.0
  9
$UCSORGRIGHT
 10
0.0
 20
0.0
 30
0.0
  9
$UCSORGFRONT
 10
0.0
 20
0.0
 30
0.0
  9
$UCSORGBACK
 10
0.0
 20
0.0
 30
0.0
  9
$PUCSBASE
  2

  9
$PUCSNAME
  2

  9
$PUCSORG
 10
0.0
 20
0.0
 30
0.0
  9
$PUCSXDIR
 10
1.0
 20
0.0
 30
0.0
  9
$PUCSYDIR
 10
0.0
 20
1.0
 30
0.0
  9
$PUCSORTHOREF
  2

  9
$PUCSORTHOVIEW
 70
     0
  9
$PUCSORGTOP
 10
0.0
 20
0.0
 30
0.0
  9
$PUCSORGBOTTOM
 10
0.0
 20
0.0
 30
0.0
  9
$PUCSORGLEFT
 10
0.0
 20
0.0
 30
0.0
  9
$PUCSORGRIGHT
 10
0.0
 20
0.0
 30
0.0
  9
$PUCSORGFRONT
 10
0.0
 20
0.0
 30
0.0
  9
$PUCSORGBACK
 10
0.0
 20
0.0
 30
0.0
  9
$USERI1
 70
     0
  9
$USERI2
 70
     0
  9
$USERI3
 70
     0
  9
$USERI4
 70
     0
  9
$USERI5
 70
     0
  9
$USERR1
 40
0.0
  9
$USERR2
 40
0.0
  9
$USERR3
 40
0.0
  9
$USERR4
 40
0.0
  9
$USERR5
 40
0.0
  9
$WORLDVIEW
 70
     1
  9
$SHADEDGE
 70
     3
  9
$SHADEDIF
 70
    70
  9
$TILEMODE
 70
     1
  9
$MAXACTVP
 70
    64
  9
$PINSBASE
 10
0.0
 20
0.0
 30
0.0
  9
$PLIMCHECK
 70
     0
  9
$PEXTMIN
 10
1.0000000000E+20
 20
1.0000000000E+20
 30
1.0000000000E+20
  9
$PEXTMAX
 10
-1.0000000000E+20
 20
-1.0000000000E+20
 30
-1.0000000000E+20
  9
$PLIMMIN
 10
0.0
 20
0.0
  9
$PLIMMAX
 10
420.0
 20
297.0
  9
$UNITMODE
 70
     0
  9
$VISRETAIN
 70
     1
  9
$PLINEGEN
 70
     0
  9
$PSLTSCALE
 70
     1
  9
$TREEDEPTH
 70
  3020
  9
$CMLSTYLE
  2
Standard
  9
$CMLJUST
 70
     0
  9
$CMLSCALE
 40
20.0
  9
$PROXYGRAPHICS
 70
     1
  9
$MEASUREMENT
 70
     1
  9
$CELWEIGHT
370
    -1
  9
$ENDCAPS
280
     0
  9
$JOINSTYLE
280
     0
  9
$LWDISPLAY
290
     1
  9
$INSUNITS
 70
     4
  9
$HYPERLINKBASE
  1

  9
$STYLESHEET
  1

  9
$XEDIT
290
     1
  9
$CEPSNTYPE
380
     0
  9
$PSTYLEMODE
290
     1
  9
$FINGERPRINTGUID
  2
{ae103ee4-8b34-4140-a0d2-c409a2ec82fe}
  9
$VERSIONGUID
  2
{FAEB1C32-E019-11D5-929B-00C0DF256EC4}
  9
$EXTNAMES
290
     1
  9
$PSVPSCALE
 40
0.0
  9
$OLESTARTUP
290
     0
  0
ENDSEC
  0
SECTION
  2
CLASSES
  0
CLASS
  1
ACDBDICTIONARYWDFLT
  2
AcDbDictionaryWithDefault
  3
ObjectDBX Classes
 90
        0
280
     0
281
     0
  0
CLASS
  1
VISUALSTYLE
  2
AcDbVisualStyle
  3
ObjectDBX Classes
 90
     4095
280
     0
281
     0
  0
CLASS
  1
MATERIAL
  2
AcDbMaterial
  3
ObjectDBX Classes
 90
     1153
280
     0
281
     0
  0
CLASS
  1
SCALE
  2
AcDbScale
  3
ObjectDBX Classes
 90
     1153
280
     0
281
     0
  0
CLASS
  1
TABLESTYLE
  2
AcDbTableStyle
  3
ObjectDBX Classes
 90
     4095
280
     0
281
     0
  0
CLASS
  1
MLEADERSTYLE
  2
AcDbMLeaderStyle
  3
ACDB_MLEADERSTYLE_CLASS
 90
     4095
280
     0
281
     0
  0
CLASS
  1
SUN
  2
AcDbSun
  3
SCENEOE
 90
     1153
280
     0
281
     0
  0
CLASS
  1
ACDBPLACEHOLDER
  2
AcDbPlaceHolder
  3
ObjectDBX Classes
 90
        0
280
     0
281
     0
  0
CLASS
  1
LAYOUT
  2
AcDbLayout
  3
ObjectDBX Classes
 90
        0
280
     0
281
     0
  0
ENDSEC
  0
SECTION
  2
TABLES
  0
TABLE
  2
VPORT
  5
8
330
0
100
AcDbSymbolTable
 70
     1
  0
VPORT
  5
29
330
8
100
AcDbSymbolTableRecord
100
AcDbViewportTableRecord
  2
*Active
 70
     0
 10
0.0
 20
0.0
 11
1.0
 21
1.0
 12
594.5
 22
420.5
 13
0.0
 23
0.0
 14
10.0
 24
10.0
 15
10.0
 25
10.0
 16
0.0
 26
0.0
 36
1.0
 17
0.0
 27
0.0
 37
0.0
 40
841.0
 41
1.4137931034
 42
50.0
 43
0.0
 44
0.0
 50
0.0
 51
0.0
 71
     0
 72
  2000
 73
     1
 74
     3
 75
     0
 76
     0
 77
     0
 78
     0
281
     0
 65
     1
110
0.0
120
0.0
130
0.0
111
1.0
121
0.0
131
0.0
112
0.0
122
1.0
132
0.0
 79
     0
146
0.0
  0
ENDTAB
  0
TABLE
  2
LTYPE
  5
5
330
0
100
AcDbSymbolTable
 70
     6
  0
LTYPE
  5
14
330
5
100
AcDbSymbolTableRecord
100
AcDbLinetypeTableRecord
  2
ByBlock
 70
     0
  3

 72
    65
 73
     0
 40
0.0
  0
LTYPE
  5
15
330
5
100
AcDbSymbolTableRecord
100
AcDbLinetypeTableRecord
  2
ByLayer
 70
     0
  3

 72
    65
 73
     0
 40
0.0
  0
LTYPE
  5
16
330
5
100
AcDbSymbolTableRecord
100
AcDbLinetypeTableRecord
  2
Continuous
 70
     0
  3
Solid line
 72
    65
 73
     0
 40
0.0
  0
LTYPE
  5
6E
330
5
100
AcDbSymbolTableRecord
100
AcDbLinetypeTableRecord
  2
HIDDEN
 70
     0
  3
Hidden __ __ __ __ __ __ __ __ __ __ __ __ __ __
 72
    65
 73
     2
 40
1.905
 49
1.27
 74
     0
 49
-0.635
 74
     0
  0
LTYPE
  5
6F
330
5
100
AcDbSymbolTableRecord
100
AcDbLinetypeTableRecord
  2
PHANTOM
 70
     0
  3
Phantom ______  __  __  ______  __  __  ______
 72
    65
 73
     6
 40
12.7
 49
6.35
 74
     0
 49
-1.27
 74
     0
 49
1.27
 74
     0
 49
-1.27
 74
     0
 49
1.27
 74
     0
 49
-1.27
 74
     0
  0
LTYPE
  5
70
330
5
100
AcDbSymbolTableRecord
100
AcDbLinetypeTableRecord
  2
CENTER
 70
     0
  3
Center ____ _ ____ _ ____ _ ____ _ ____ _ ____
 72
    65
 73
     4
 40
10.16
 49
6.35
 74
     0
 49
-1.27
 74
     0
 49
1.27
 74
     0
 49
-1.27
 74
     0
  0
LTYPE
  5
71
330
5
100
AcDbSymbolTableRecord
100
AcDbLinetypeTableRecord
  2
CENTERX2
 70
     0
  3
Center (2x) ________  __  ________  __  _____
 72
    65
 73
     4
 40
20.32
 49
12.7
 74
     0
 49
-2.54
 74
     0
 49
2.54
 74
     0
 49
-2.54
 74
     0
  0
LTYPE
  5
72
330
5
100
AcDbSymbolTableRecord
100
AcDbLinetypeTableRecord
  2
DOT2
 70
     0
  3
Dot (.5x) ........................................
 72
    65
 73
     2
 40
0.635
 49
0.0
 74
     0
 49
-0.635
 74
     0
  0
ENDTAB
  0
TABLE
  2
LAYER
  5
2
330
0
100
AcDbSymbolTable
 70
     5
  0
LAYER
  5
10
330
2
100
AcDbSymbolTableRecord
100
AcDbLayerTableRecord
  2
0
 70
     0
 62
     7
  6
Continuous
370
    -3
390
F
  0
LAYER
  5
73
330
2
100
AcDbSymbolTableRecord
100
AcDbLayerTableRecord
  2
FORMAT
 70
     0
 62
     7
  6
Continuous
370
    -3
390
F
  0
LAYER
  5
74
330
2
100
AcDbSymbolTableRecord
100
AcDbLayerTableRecord
  2
SLD-0
 70
     0
 62
   179
  6
Continuous
370
    -3
390
F
  0
LAYER
  5
75
330
2
100
AcDbSymbolTableRecord
100
AcDbLayerTableRecord
  2
AAA_EKSEN
 70
     0
 62
     1
  6
CENTER
370
    -3
390
F
  0
LAYER
  5
76
330
2
100
AcDbSymbolTableRecord
100
AcDbLayerTableRecord
  2
03
 70
     0
 62
     3
  6
HIDDEN
370
    -3
390
F
  0
ENDTAB
  0
TABLE
  2
STYLE
  5
3
330
0
100
AcDbSymbolTable
 70
     1
  0
STYLE
  5
11
330
3
100
AcDbSymbolTableRecord
100
AcDbTextStyleTableRecord
  2
Standard
 70
     0
 40
0.0
 41
1.0
 50
0.0
 71
     0
 42
4.9388888889
  3
txt
  4

  0
ENDTAB
  0
TABLE
  2
VIEW
  5
6
330
0
100
AcDbSymbolTable
 70
     0
  0
ENDTAB
  0
TABLE
  2
UCS
  5
7
330
0
100
AcDbSymbolTable
 70
     0
  0
ENDTAB
  0
TABLE
  2
APPID
  5
9
330
0
100
AcDbSymbolTable
 70
     1
  0
APPID
  5
12
330
9
100
AcDbSymbolTableRecord
100
AcDbRegAppTableRecord
  2
ACAD
 70
     0
  0
ENDTAB
  0
TABLE
  2
DIMSTYLE
  5
A
330
0
100
AcDbSymbolTable
 70
     1
100
AcDbDimStyleTable
  0
DIMSTYLE
105
27
330
A
100
AcDbSymbolTableRecord
100
AcDbDimStyleTableRecord
  2
ISO-25
 70
     0
 41
2.5
 42
0.625
 43
3.75
 44
1.25
 73
     0
 74
     0
 77
     1
 78
     8
140
2.5
141
2.5
143
0.0393700787
147
0.625
171
     3
172
     1
178
     0
271
     2
272
     2
274
     3
278
    44
283
     0
284
     8
340
11
  0
ENDTAB
  0
TABLE
  2
BLOCK_RECORD
  5
1
330
0
100
AcDbSymbolTable
 70
     1
  0
BLOCK_RECORD
  5
1F
330
1
100
AcDbSymbolTableRecord
100
AcDbBlockTableRecord
  2
*Model_Space
340
22
  0
BLOCK_RECORD
  5
1B
330
1
100
AcDbSymbolTableRecord
100
AcDbBlockTableRecord
  2
*Paper_Space
340
1E
  0
BLOCK_RECORD
  5
23
330
1
100
AcDbSymbolTableRecord
100
AcDbBlockTableRecord
  2
*Paper_Space0
340
26
  0
ENDTAB
  0
ENDSEC
  0
SECTION
  2
BLOCKS
  0
BLOCK
  5
20
330
1F
100
AcDbEntity
  8
0
100
AcDbBlockBegin
  2
*Model_Space
 70
     0
 10
0.0
 20
0.0
 30
0.0
  3
*Model_Space
  1

  0
ENDBLK
  5
21
330
1F
100
AcDbEntity
  8
0
100
AcDbBlockEnd
  0
BLOCK
  5
1C
330
1B
100
AcDbEntity
 67
     1
  8
0
100
AcDbBlockBegin
  2
*Paper_Space
 70
     0
 10
0.0
 20
0.0
 30
0.0
  3
*Paper_Space
  1

  0
ENDBLK
  5
1D
330
1B
100
AcDbEntity
 67
     1
  8
0
100
AcDbBlockEnd
  0
BLOCK
  5
24
330
23
100
AcDbEntity
  8
0
100
AcDbBlockBegin
  2
*Paper_Space0
 70
     0
 10
0.0
 20
0.0
 30
0.0
  3
*Paper_Space0
  1

  0
ENDBLK
  5
25
330
23
100
AcDbEntity
  8
0
100
AcDbBlockEnd
  0
ENDSEC
  0
SECTION
  2
ENTITIES
  0
CIRCLE
  5
77
330
1F
100
AcDbEntity
  8
0
  6
Continuous
 62
     7
370
    25
100
AcDbCircle
 10
541.429863012
 20
331.7429017341
 30
0.0
 40
134.9690773068785
  0
CIRCLE
  5
78
330
1F
100
AcDbEntity
  8
0
  6
Continuous
 62
     7
370
    25
100
AcDbCircle
 10
541.429863012
 20
331.7429017341
 30
0.0
 40
137.4105645949677
  0
CIRCLE
  5
79
330
1F
100
AcDbEntity
  8
0
  6
Continuous
 62
     7
370
    25
100
AcDbCircle
 10
541.429863012
 20
331.7429017341
 30
0.0
 40
134.8397804554577
  0
CIRCLE
  5
7A
330
1F
100
AcDbEntity
  8
0
  6
Continuous
 62
     7
370
    25
100
AcDbCircle
 10
541.429863012
 20
331.7429017341
 30
0.0
 40
133.6205236464945
  0
CIRCLE
  5
7B
330
1F
100
AcDbEntity
  8
0
  6
Continuous
 62
     7
370
    25
100
AcDbCircle
 10
541.4299215127
 20
204.8628971706
 30
0.0
 40
1.999999999999996
  0
CIRCLE
  5
7C
330
1F
100
AcDbEntity
  8
0
  6
Continuous
 62
     7
370
    25
100
AcDbCircle
 10
541.429863012
 20
458.6228971706
 30
0.0
 40
1.999999999999939
  0
ARC
  5
7D
330
1F
100
AcDbEntity
  8
0
  6
Continuous
 62
     7
370
    25
100
AcDbCircle
 10
541.4299234245
 20
204.8628968723
 30
0.0
 40
2.000000000000036
100
AcDbArc
 50
81.1324263609
 51
261.1324263609
  0
ARC
  5
7E
330
1F
100
AcDbEntity
  8
0
  6
Continuous
 62
     7
370
    25
100
AcDbCircle
 10
541.4298649238
 20
458.6228968723
 30
0.0
 40
2.000000000000078
100
AcDbArc
 50
81.1324263609
 51
180.0000159713
  0
ARC
  5
7F
330
1F
100
AcDbEntity
  8
0
  6
Continuous
 62
     7
370
    25
100
AcDbCircle
 10
541.4298649238
 20
458.6228968723
 30
0.0
 40
2.000000000000081
100
AcDbArc
 50
180.0000159713
 51
261.1324263609
  0
SPLINE
  5
80
330
1F
100
AcDbEntity
  8
0
  6
Continuous
 62
     7
370
    25
100
AcDbSpline
210
0.0
220
0.0
230
1.0
 70
     8
 71
     3
 72
    10
 73
     6
 74
     0
 42
0.000000001
 43
0.00000001
 40
0.0
 40
0.0
 40
0.0
 40
0.0
 40
0.1904044946248233
 40
0.6749771007029174
 40
1.0
 40
1.0
 40
1.0
 40
1.0
 10
658.9828154920448
 20
329.0762846261939
 30
0.0
 10
658.9929972969206
 20
329.4048924170382
 30
0.0
 10
659.0290914298271
 20
330.569795243358
 30
0.0
 10
659.0340522336244
 20
332.3601074598693
 30
0.0
 10
658.9992790463351
 20
333.7694138766969
 30
0.0
 10
658.9853188871253
 20
334.3351987094363
 30
0.0
  0
SPLINE
  5
81
330
1F
100
AcDbEntity
  8
0
  6
Continuous
 62
     7
370
    25
100
AcDbSpline
210
0.0
220
0.0
230
1.0
 70
     8
 71
     3
 72
    10
 73
     6
 74
     0
 42
0.000000001
 43
0.00000001
 40
0.0
 40
0.0
 40
0.0
 40
0.0
 40
0.1702825183066414
 40
0.6570581967720962
 40
1.0
 40
1.0
 40
1.0
 40
1.0
 10
423.875222253691
 20
334.3578494057735
 30
0.0
 10
423.8660830842074
 20
334.0661708919902
 30
0.0
 10
423.830818358969
 20
332.9406897785471
 30
0.0
 10
423.8255881775073
 20
331.1626590984542
 30
0.0
 10
423.8601638875118
 20
329.7275569803838
 30
0.0
 10
423.8744548438896
 20
329.1343954295596
 30
0.0
  0
SPLINE
  5
82
330
1F
100
AcDbEntity
  8
0
  6
Continuous
 62
     7
370
    25
100
AcDbSpline
210
0.0
220
0.0
230
1.0
 70
     8
 71
     3
 72
     9
 73
     5
 74
     0
 42
0.000000001
 43
0.00000001
 40
0.0
 40
0.0
 40
0.0
 40
0.0
 40
0.2184361751060182
 40
1.0
 40
1.0
 40
1.0
 40
1.0
 10
424.3817648767341
 20
330.1245738656005
 30
0.0
 10
424.3775899384278
 20
330.3488692469199
 30
0.0
 10
424.3584770863357
 20
331.3756926712481
 30
0.0
 10
424.3688846677533
 20
332.4191461190538
 30
0.0
 10
424.3770188568939
 20
333.2346715868196
 30
0.0
  0
CIRCLE
  5
83
330
1F
100
AcDbEntity
  8
0
  6
Continuous
 62
     7
370
    25
100
AcDbCircle
 10
453.929863012
 20
331.7429017341
 30
0.0
 40
0.7500000000000435
  0
ARC
  5
84
330
1F
100
AcDbEntity
  8
0
  6
Continuous
 62
     7
370
    25
100
AcDbCircle
 10
452.9207510763
 20
333.2874787316
 30
0.0
 40
0.4400000000004636
100
AcDbArc
 50
35.3428744198
 51
210.972364862
  0
ARC
  5
85
330
1F
100
AcDbEntity
  8
0
  6
Continuous
 62
     7
370
    25
100
AcDbCircle
 10
455.7535644302
 20
332.9343728432
 30
0.0
 40
0.6500000000001104
100
AcDbArc
 50
155.3428744199
 51
270.972364862
  0
ARC
  5
86
330
1F
100
AcDbEntity
  8
0
  6
Continuous
 62
     7
370
    25
100
AcDbCircle
 10
453.0967760619
 20
330.0966966638
 30
0.0
 40
0.4400000000000777
100
AcDbArc
 50
155.3428744199
 51
330.972364862
  0
ARC
  5
87
330
1F
100
AcDbEntity
  8
0
  6
Continuous
 62
     7
370
    25
100
AcDbCircle
 10
454.0498565513
 20
329.5677944225
 30
0.0
 40
0.6499999999999518
100
AcDbArc
 50
35.3428744199
 51
150.9723648619
  0
ARC
  5
88
330
1F
100
AcDbEntity
  8
0
  6
Continuous
 62
     7
370
    25
100
AcDbCircle
 10
455.7720618978
 20
331.844529807
 30
0.0
 40
0.4400000000000052
100
AcDbArc
 50
275.3428744199
 51
90.972364862
  0
ARC
  5
89
330
1F
100
AcDbEntity
  8
0
  6
Continuous
 62
     7
370
    25
100
AcDbCircle
 10
454.7629499621
 20
333.3891068044
 30
0.0
 40
0.4400000000000497
100
AcDbArc
 50
335.3428744199
 51
150.972364862
  0
ARC
  5
8A
330
1F
100
AcDbEntity
  8
0
  6
Continuous
 62
     7
370
    25
100
AcDbCircle
 10
453.8098694727
 20
333.9180090458
 30
0.0
 40
0.6499999999999518
100
AcDbArc
 50
215.3428744199
 51
330.9723648619
  0
CIRCLE
  5
8B
330
1F
100
AcDbEntity
  8
0
  6
Continuous
 62
     7
370
    25
100
AcDbCircle
 10
453.929863012
 20
331.7429017341
 30
0.0
 40
4.999999999999988
  0
ARC
  5
8C
330
1F
100
AcDbEntity
  8
0
  6
Continuous
 62
     7
370
    25
100
AcDbCircle
 10
454.9389749477
 20
330.1983247366
 30
0.0
 40
0.4400000000004307
100
AcDbArc
 50
215.3428744198
 51
30.972364862
  0
ARC
  5
8D
330
1F
100
AcDbEntity
  8
0
  6
Continuous
 62
     7
370
    25
100
AcDbCircle
 10
452.1061615938
 20
330.551430625
 30
0.0
 40
0.6500000000000535
100
AcDbArc
 50
335.3428744199
 51
90.972364862
  0
ARC
  5
8E
330
1F
100
AcDbEntity
  8
0
  6
Continuous
 62
     7
370
    25
100
AcDbCircle
 10
455.8735579695
 20
330.7592655316
 30
0.0
 40
0.6500000000004252
100
AcDbArc
 50
95.3428744199
 51
210.972364862
  0
ARC
  5
8F
330
1F
100
AcDbEntity
  8
0
  6
Continuous
 62
     7
370
    25
100
AcDbCircle
 10
452.0876641262
 20
331.6412736613
 30
0.0
 40
0.440000000000062
100
AcDbArc
 50
95.3428744199
 51
270.972364862
  0
ARC
  5
90
330
1F
100
AcDbEntity
  8
0
  6
Continuous
 62
     7
370
    25
100
AcDbCircle
 10
451.9861680545
 20
332.7265379366
 30
0.0
 40
0.6500000000004252
100
AcDbArc
 50
275.3428744199
 51
30.972364862
  0
CIRCLE
  5
91
330
1F
100
AcDbEntity
  8
0
  6
Continuous
 62
     7
370
    25
100
AcDbCircle
 10
628.929863012
 20
331.7429017341
 30
0.0
 40
5.000000000000036
  0
ARC
  5
92
330
1F
100
AcDbEntity
  8
0
  6
Continuous
 62
     7
370
    25
100
AcDbCircle
 10
629.9389749477
 20
330.1983247366
 30
0.0
 40
0.4400000000005563
100
AcDbArc
 50
215.3428744198
 51
30.972364862
  0
ARC
  5
93
330
1F
100
AcDbEntity
  8
0
  6
Continuous
 62
     7
370
    25
100
AcDbCircle
 10
630.8735579695
 20
330.7592655316
 30
0.0
 40
0.650000000000474
100
AcDbArc
 50
95.3428744199
 51
210.972364862
  0
ARC
  5
94
330
1F
100
AcDbEntity
  8
0
  6
Continuous
 62
     7
370
    25
100
AcDbCircle
 10
630.7720618978
 20
331.844529807
 30
0.0
 40
0.4400000000000052
100
AcDbArc
 50
275.3428744199
 51
90.972364862
  0
ARC
  5
95
330
1F
100
AcDbEntity
  8
0
  6
Continuous
 62
     7
370
    25
100
AcDbCircle
 10
630.7535644302
 20
332.9343728432
 30
0.0
 40
0.6500000000000535
100
AcDbArc
 50
155.3428744199
 51
270.972364862
  0
ARC
  5
96
330
1F
100
AcDbEntity
  8
0
  6
Continuous
 62
     7
370
    25
100
AcDbCircle
 10
627.9207510763
 20
333.2874787316
 30
0.0
 40
0.4400000000004636
100
AcDbArc
 50
35.3428744198
 51
210.972364862
  0
ARC
  5
97
330
1F
100
AcDbEntity
  8
0
  6
Continuous
 62
     7
370
    25
100
AcDbCircle
 10
626.9861680545
 20
332.7265379366
 30
0.0
 40
0.6500000000004057
100
AcDbArc
 50
275.3428744199
 51
30.972364862
  0
ARC
  5
98
330
1F
100
AcDbEntity
  8
0
  6
Continuous
 62
     7
370
    25
100
AcDbCircle
 10
627.0876641262
 20
331.6412736612
 30
0.0
 40
0.4400000000000052
100
AcDbArc
 50
95.3428744199
 51
270.972364862
  0
ARC
  5
99
330
1F
100
AcDbEntity
  8
0
  6
Continuous
 62
     7
370
    25
100
AcDbCircle
 10
627.1061615938
 20
330.551430625
 30
0.0
 40
0.6500000000001206
100
AcDbArc
 50
335.3428744199
 51
90.972364862
  0
ARC
  5
9A
330
1F
100
AcDbEntity
  8
0
  6
Continuous
 62
     7
370
    25
100
AcDbCircle
 10
629.0498565513
 20
329.5677944224
 30
0.0
 40
0.6499999999999384
100
AcDbArc
 50
35.3428744199
 51
150.9723648619
  0
ARC
  5
9B
330
1F
100
AcDbEntity
  8
0
  6
Continuous
 62
     7
370
    25
100
AcDbCircle
 10
628.0967760619
 20
330.0966966638
 30
0.0
 40
0.4400000000001014
100
AcDbArc
 50
155.3428744199
 51
330.972364862
  0
ARC
  5
9C
330
1F
100
AcDbEntity
  8
0
  6
Continuous
 62
     7
370
    25
100
AcDbCircle
 10
628.8098694727
 20
333.9180090458
 30
0.0
 40
0.6500000000000311
100
AcDbArc
 50
215.3428744199
 51
330.9723648619
  0
ARC
  5
9D
330
1F
100
AcDbEntity
  8
0
  6
Continuous
 62
     7
370
    25
100
AcDbCircle
 10
629.7629499621
 20
333.3891068044
 30
0.0
 40
0.4400000000002285
100
AcDbArc
 50
335.3428744199
 51
150.972364862
  0
CIRCLE
  5
9E
330
1F
100
AcDbEntity
  8
0
  6
Continuous
 62
     7
370
    25
100
AcDbCircle
 10
628.929863012
 20
331.7429017341
 30
0.0
 40
0.7499999999999959
  0
SPLINE
  5
9F
330
1F
100
AcDbEntity
  8
0
  6
Continuous
 62
     7
370
    25
100
AcDbSpline
210
0.0
220
0.0
230
1.0
 70
     8
 71
     3
 72
    10
 73
     6
 74
     0
 42
0.000000001
 43
0.00000001
 40
0.0
 40
0.0
 40
0.0
 40
0.0
 40
0.0334164225376767
 40
0.3055663916960054
 40
0.9999999999999999
 40
0.9999999999999999
 40
0.9999999999999999
 40
0.9999999999999999
 10
635.7560402630676
 20
383.3054379463871
 30
0.0
 10
635.7548511687438
 20
383.3075214800144
 30
0.0
 10
635.7439778545375
 20
383.3265737245126
 30
0.0
 10
635.7059321024643
 20
383.3941407014046
 30
0.0
 10
635.6679404469681
 20
383.4637801790449
 30
0.0
 10
635.6406456707824
 20
383.5138120592316
 30
0.0
  0
LWPOLYLINE
  5
A0
330
1F
100
AcDbEntity
  8
0
  6
Continuous
 62
     7
370
    25
100
AcDbPolyline
 90
        5
 70
   128
 43
0.0
 10
639.0971488236
 20
384.6861162127
 10
638.9933622359
 20
384.643234396
 10
638.5782084345
 20
384.4717071295
 10
636.9174293159
 20
383.7854416013
 10
635.7560402631
 20
383.3054379464
  0
ARC
  5
A1
330
1F
100
AcDbEntity
  8
0
  6
Continuous
 62
     7
370
    25
100
AcDbCircle
 10
541.429863012
 20
331.7429017341
 30
0.0
 40
111.0940262493768
100
AcDbArc
 50
346.5388868525
 51
28.4611131475
  0
LWPOLYLINE
  5
A2
330
1F
100
AcDbEntity
  8
0
  6
Continuous
 62
     7
370
    25
100
AcDbPolyline
 90
        5
 70
   128
 43
0.0
 10
645.8873248576
 20
306.3507267178
 10
645.9963045
 20
306.3364625812
 10
646.4418343185
 20
306.2781543375
 10
648.2237598776
 20
306.0450405718
 10
649.4719258427
 20
305.8818393291
  0
SPLINE
  5
A3
330
1F
100
AcDbEntity
  8
0
  6
Continuous
 62
     7
370
    25
100
AcDbSpline
210
0.0
220
0.0
230
1.0
 70
     8
 71
     3
 72
    10
 73
     6
 74
     0
 42
0.000000001
 43
0.00000001
 40
0.0
 40
0.0
 40
0.0
 40
0.0
 40
0.5326175681998295
 40
0.9666238411665722
 40
0.9999999999999999
 40
0.9999999999999999
 40
0.9999999999999999
 40
0.9999999999999999
 10
645.829791474234
 20
306.1195873559197
 30
0.0
 10
645.8399563406804
 20
306.1616390639163
 30
0.0
 10
645.8584041028947
 20
306.2379568309938
 30
0.0
 10
645.8781764342488
 20
306.3159131866491
 30
0.0
 10
645.8867151042477
 20
306.3484063543011
 30
0.0
 10
645.8873248576034
 20
306.3507267177781
 30
0.0
  0
ELLIPSE
  5
A4
330
1F
100
AcDbEntity
  8
0
  6
Continuous
 62
     7
370
    25
100
AcDbEllipse
 10
559.0904345683
 20
327.0107658477
 30
0.0
 11
86.18084721765501
 21
-23.09208841500066
 31
0.0
210
0.0
220
0.0
230
1.0
 40
0.9787777724
 41
6.257182922850793
 42
6.309187691508433
  0
SPLINE
  5
A5
330
1F
100
AcDbEntity
  8
0
  6
Continuous
 62
     7
370
    25
100
AcDbSpline
210
0.0
220
0.0
230
1.0
 70
     8
 71
     3
 72
    10
 73
     6
 74
     0
 42
0.000000001
 43
0.00000001
 40
0.0
 40
0.0
 40
0.0
 40
0.0
 40
0.0334209445026434
 40
0.3055508683262702
 40
1.0
 40
1.0
 40
1.0
 40
1.0
 10
644.5887631653655
 20
301.5044406891545
 30
0.0
 10
644.5893966320921
 20
301.5067549204895
 30
0.0
 10
644.5951880994256
 20
301.5279127723825
 30
0.0
 10
644.6160430736473
 20
301.6025942438725
 30
0.0
 10
644.6384259034422
 20
301.6786996533881
 30
0.0
 10
644.6545070885529
 20
301.7333784044465
 30
0.0
  0
LWPOLYLINE
  5
A6
330
1F
100
AcDbEntity
  8
0
  6
Continuous
 62
     7
370
    25
100
AcDbPolyline
 90
        5
 70
   128
 43
0.0
 10
647.9275694965
 20
300.1182042897
 10
647.8238574146
 20
300.1612723709
 10
647.409009087
 20
300.3335446954
 10
645.7493997096
 20
301.0226302684
 10
644.5887631654
 20
301.5044406892
  0
ARC
  5
A7
330
1F
100
AcDbEntity
  8
0
  6
Continuous
 62
     7
370
    25
100
AcDbCircle
 10
541.429863012
 20
331.7429017341
 30
0.0
 40
111.0940262493767
100
AcDbArc
 50
320.2382968892
 51
343.4611131475
  0
LINE
  5
A8
330
1F
100
AcDbEntity
  8
0
  6
Continuous
 62
     7
370
    25
100
AcDbLine
 10
626.5347025274
 20
260.7802004457
 30
0.0
 11
626.8290824174
 21
260.6876046301
 31
0.0
  0
SPLINE
  5
A9
330
1F
100
AcDbEntity
  8
0
  6
Continuous
 62
     7
370
    25
100
AcDbSpline
210
0.0
220
0.0
230
1.0
 70
     8
 71
     3
 72
    11
 73
     7
 74
     0
 42
0.000000001
 43
0.00000001
 40
0.0
 40
0.0
 40
0.0
 40
0.0
 40
0.2458503077649603
 40
0.500423772950533
 40
0.7191146593916876
 40
0.9999999999999999
 40
0.9999999999999999
 40
0.9999999999999999
 40
0.9999999999999999
 10
626.5347025274148
 20
260.7802004457196
 30
0.0
 10
626.487904576487
 20
260.7630520884467
 30
0.0
 10
626.3926482093812
 20
260.7281469230865
 30
0.0
 10
625.8761077379337
 20
260.2244512564292
 30
0.0
 10
625.1021381112769
 20
259.4159146629797
 30
0.0
 10
624.3660854448154
 20
258.6362472140028
 30
0.0
 10
623.9522418855537
 20
258.19788136489
 30
0.0
  0
LINE
  5
AA
330
1F
100
AcDbEntity
  8
0
  6
Continuous
 62
     7
370
    25
100
AcDbLine
 10
623.9522418856
 20
258.1978813649
 30
0.0
 11
623.9317080854
 21
258.1761256695
 31
0.0
  0
SPLINE
  5
AB
330
1F
100
AcDbEntity
  8
0
  6
Continuous
 62
     7
370
    25
100
AcDbSpline
210
0.0
220
0.0
230
1.0
 70
     8
 71
     3
 72
    10
 73
     6
 74
     0
 42
0.000000001
 43
0.00000001
 40
0.0
 40
0.0
 40
0.0
 40
0.0
 40
0.3141854958724534
 40
0.5857862239262706
 40
1.0
 40
1.0
 40
1.0
 40
1.0
 10
623.9317080854286
 20
258.1761256695469
 30
0.0
 10
623.5303244565899
 20
257.7531013386347
 30
0.0
 10
622.7819608199101
 20
256.9643894830924
 30
0.0
 10
621.2976094721479
 20
255.4212709623928
 30
0.0
 10
620.199595594795
 20
254.3084514058769
 30
0.0
 10
619.5364243267883
 20
253.6363379002293
 30
0.0
  0
LINE
  5
AC
330
1F
100
AcDbEntity
  8
0
  6
Continuous
 62
     7
370
    25
100
AcDbLine
 10
619.2606932401
 20
253.3606068135
 30
0.0
 11
619.5364317774
 21
253.6363453508
 31
0.0
  0
SPLINE
  5
AD
330
1F
100
AcDbEntity
  8
0
  6
Continuous
 62
     7
370
    25
100
AcDbSpline
210
0.0
220
0.0
230
1.0
 70
     8
 71
     3
 72
    11
 73
     7
 74
     0
 42
0.000000001
 43
0.00000001
 40
0.0
 40
0.0
 40
0.0
 40
0.0
 40
0.1825874805506043
 40
0.4101457909311445
 40
0.6826345836716654
 40
1.0
 40
1.0
 40
1.0
 40
1.0
 10
619.2603952168334
 20
253.3609048367223
 30
0.0
 10
618.9803401575423
 20
253.0839129897819
 30
0.0
 10
618.3512531935794
 20
252.461706911894
 30
0.0
 10
617.3194905812036
 20
251.4604550757488
 30
0.0
 10
616.1293684302692
 20
250.3148526655564
 30
0.0
 10
615.3787460535897
 20
249.6033370587817
 30
0.0
 10
614.9748808621276
 20
249.2205128908834
 30
0.0
  0
LINE
  5
AE
330
1F
100
AcDbEntity
  8
0
  6
Continuous
 62
     7
370
    25
100
AcDbLine
 10
614.9748808621
 20
249.2205128909
 30
0.0
 11
614.9279720067
 21
249.176241541
 31
0.0
  0
SPLINE
  5
AF
330
1F
100
AcDbEntity
  8
0
  6
Continuous
 62
     7
370
    25
100
AcDbSpline
210
0.0
220
0.0
230
1.0
 70
     8
 71
     3
 72
    11
 73
     7
 74
     0
 42
0.000000001
 43
0.00000001
 40
0.0
 40
0.0
 40
0.0
 40
0.0
 40
0.2801973680785594
 40
0.5002467700622641
 40
0.7543444506170608
 40
1.0
 40
1.0
 40
1.0
 40
1.0
 10
614.9279720066894
 20
249.1762415409764
 30
0.0
 10
614.4979740178782
 20
248.7703090842469
 30
0.0
 10
613.7302826347965
 20
248.0455827895823
 30
0.0
 10
612.9366312631312
 20
247.2850254309338
 30
0.0
 10
612.4429542811009
 20
246.7777116358516
 30
0.0
 10
612.4091690410556
 20
246.6840881306131
 30
0.0
 10
612.392561781298
 20
246.6380671501836
 30
0.0
  0
LINE
  5
B0
330
1F
100
AcDbEntity
  8
0
  6
Continuous
 62
     7
370
    25
100
AcDbLine
 10
612.485157597
 20
246.3436798096
 30
0.0
 11
612.3925617813
 21
246.6380671502
 31
0.0
  0
ARC
  5
B1
330
1F
100
AcDbEntity
  8
0
  6
Continuous
 62
     7
370
    25
100
AcDbCircle
 10
541.429863012
 20
331.7429017341
 30
0.0
 40
111.0940262493767
100
AcDbArc
 50
301.5388868525
 51
309.7617031108
  0
LWPOLYLINE
  5
B2
330
1F
100
AcDbEntity
  8
0
  6
Continuous
 62
     7
370
    25
100
AcDbPolyline
 90
        5
 70
   128
 43
0.0
 10
597.3374641417
 20
239.9253473521
 10
597.4044374107
 20
239.8381979109
 10
597.6782462477
 20
239.4819260479
 10
598.7734219908
 20
238.0570844651
 10
599.5406082748
 20
237.0590940953
  0
SPLINE
  5
B3
330
1F
100
AcDbEntity
  8
0
  6
Continuous
 62
     7
370
    25
100
AcDbSpline
210
0.0
220
0.0
230
1.0
 70
     8
 71
     3
 72
    10
 73
     6
 74
     0
 42
0.000000001
 43
0.00000001
 40
0.0
 40
0.0
 40
0.0
 40
0.0
 40
0.5326014329106823
 40
0.9666073416115758
 40
1.0
 40
1.0
 40
1.0
 40
1.0
 10
597.1333405851234
 20
239.8025841356
 30
0.0
 10
597.1702625334447
 20
239.8251327222468
 30
0.0
 10
597.2372714149619
 20
239.8660556864917
 30
0.0
 10
597.3063733059984
 20
239.9071925240144
 30
0.0
 10
597.3353910110512
 20
239.9241367918033
 30
0.0
 10
597.3374641417373
 20
239.9253473520955
 30
0.0
  0
ELLIPSE
  5
B4
330
1F
100
AcDbEntity
  8
0
  6
Continuous
 62
     7
370
    25
100
AcDbEllipse
 10
550.5716475443
 20
315.9088664523
 30
0.0
 11
-44.6104891659943
 21
77.26763378601481
 31
0.0
210
0.0
220
0.0
230
1.0
 40
0.9787777724
 41
3.11559026926116
 42
3.16759503791885
  0
SPLINE
  5
B5
330
1F
100
AcDbEntity
  8
0
  6
Continuous
 62
     7
370
    25
100
AcDbSpline
210
0.0
220
0.0
230
1.0
 70
     8
 71
     3
 72
    10
 73
     6
 74
     0
 42
0.000000001
 43
0.00000001
 40
0.0
 40
0.0
 40
0.0
 40
0.0
 40
0.0334163938524815
 40
0.3055535571457925
 40
1.0
 40
1.0
 40
1.0
 40
1.0
 10
592.9924010216106
 20
237.41672196395
 30
0.0
 10
592.9944845583757
 20
237.4179110540877
 30
0.0
 10
593.0135360476784
 20
237.4287838826437
 30
0.0
 10
593.081100385978
 20
237.4668328772144
 30
0.0
 10
593.1507412994686
 20
237.5048226378021
 30
0.0
 10
593.2007751344551
 20
237.5321165562352
 30
0.0
  0
LWPOLYLINE
  5
B6
330
1F
100
AcDbEntity
  8
0
  6
Continuous
 62
     7
370
    25
100
AcDbPolyline
 90
        5
 70
   128
 43
0.0
 10
594.3730755626
 20
234.0756134034
 10
594.3301974713
 20
234.1793999911
 10
594.1586702048
 20
234.5945612431
 10
593.4724009513
 20
236.2553403617
 10
592.9924010216
 20
237.416721964
  0
ARC
  5
B7
330
1F
100
AcDbEntity
  8
0
  6
Continuous
 62
     7
370
    25
100
AcDbCircle
 10
541.429863012
 20
331.7429017341
 30
0.0
 40
111.0940262493768
100
AcDbArc
 50
256.5388868525
 51
298.4611131476
  0
LWPOLYLINE
  5
B8
330
1F
100
AcDbEntity
  8
0
  6
Continuous
 62
     7
370
    25
100
AcDbPolyline
 90
        5
 70
   128
 43
0.0
 10
516.037689793
 20
227.28544482
 10
516.0234237938
 20
227.176457727
 10
515.9651155501
 20
226.7309279085
 10
515.7320017843
 20
224.9490023494
 10
515.5688005417
 20
223.7008363844
  0
SPLINE
  5
B9
330
1F
100
AcDbEntity
  8
0
  6
Continuous
 62
     7
370
    25
100
AcDbSpline
210
0.0
220
0.0
230
1.0
 70
     8
 71
     3
 72
    10
 73
     6
 74
     0
 42
0.000000001
 43
0.00000001
 40
0.0
 40
0.0
 40
0.0
 40
0.0
 40
0.5326138736394649
 40
0.9666243878713453
 40
1.0
 40
1.0
 40
1.0
 40
1.0
 10
515.806548568498
 20
227.3429782033643
 30
0.0
 10
515.8486020425939
 20
227.3328202785761
 30
0.0
 10
515.9249235874651
 20
227.3143849761621
 30
0.0
 10
516.0028657384859
 20
227.2945545750864
 30
0.0
 10
516.0353687807377
 20
227.2860519823021
 30
0.0
 10
516.0376897930015
 20
227.2854448199948
 30
0.0
  0
ELLIPSE
  5
BA
330
1F
100
AcDbEntity
  8
0
  6
Continuous
 62
     7
370
    25
100
AcDbEllipse
 10
536.6977271256
 20
314.0823301778
 30
0.0
 11
23.0920884150047
 21
86.18084721765484
 31
0.0
210
0.0
220
0.0
230
1.0
 40
0.9787777724
 41
3.115590269261196
 42
3.167595037918904
  0
SPLINE
  5
BB
330
1F
100
AcDbEntity
  8
0
  6
Continuous
 62
     7
370
    25
100
AcDbSpline
210
0.0
220
0.0
230
1.0
 70
     8
 71
     3
 72
    10
 73
     6
 74
     0
 42
0.000000001
 43
0.00000001
 40
0.0
 40
0.0
 40
0.0
 40
0.0
 40
0.0334204799890675
 40
0.3055605203888974
 40
1.0
 40
1.0
 40
1.0
 40
1.0
 10
511.1914000390876
 20
228.5839990616521
 30
0.0
 10
511.1937142689431
 20
228.5833655924759
 30
0.0
 10
511.2148730697492
 20
228.5775738392998
 30
0.0
 10
511.2895569965473
 20
228.5567204259271
 30
0.0
 10
511.3656630512946
 20
228.5343367210442
 30
0.0
 10
511.4203414796698
 20
228.5182551384648
 30
0.0
  0
LWPOLYLINE
  5
BC
330
1F
100
AcDbEntity
  8
0
  6
Continuous
 62
     7
370
    25
100
AcDbPolyline
 90
        5
 70
   128
 43
0.0
 10
509.805167365
 20
225.2451927305
 10
509.8482354461
 20
225.3489048124
 10
510.0205077707
 20
225.76375314
 10
510.709591481
 20
227.4233625174
 10
511.1914000391
 20
228.5839990617
  0
ARC
  5
BD
330
1F
100
AcDbEntity
  8
0
  6
Continuous
 62
     7
370
    25
100
AcDbCircle
 10
541.429863012
 20
331.7429017341
 30
0.0
 40
111.0940262493768
100
AcDbArc
 50
230.2382968892
 51
253.4611131476
  0
LINE
  5
BE
330
1F
100
AcDbEntity
  8
0
  6
Continuous
 62
     7
370
    25
100
AcDbLine
 10
470.4671597957
 20
246.6380671502
 30
0.0
 11
470.37456398
 21
246.3436798096
 31
0.0
  0
SPLINE
  5
BF
330
1F
100
AcDbEntity
  8
0
  6
Continuous
 62
     7
370
    25
100
AcDbSpline
210
0.0
220
0.0
230
1.0
 70
     8
 71
     3
 72
     9
 73
     5
 74
     0
 42
0.000000001
 43
0.00000001
 40
0.0
 40
0.0
 40
0.0
 40
0.0
 40
0.4936619222517329
 40
1.0
 40
1.0
 40
1.0
 40
1.0
 10
470.4671597956527
 20
246.6380671501836
 30
0.0
 10
470.4581842638686
 20
246.6749972424751
 30
0.0
 10
470.4400027283286
 20
246.7498057108353
 30
0.0
 10
470.1251006686632
 20
247.0721896407517
 30
0.0
 10
469.9656537650932
 20
247.2354249001226
 30
0.0
  0
LINE
  5
C0
330
1F
100
AcDbEntity
  8
0
  6
Continuous
 62
     7
370
    25
100
AcDbLine
 10
469.9656537651
 20
247.2354249001
 30
0.0
 11
469.9253982781
 21
247.2755686284
 31
0.0
  0
SPLINE
  5
C1
330
1F
100
AcDbEntity
  8
0
  6
Continuous
 62
     7
370
    25
100
AcDbSpline
210
0.0
220
0.0
230
1.0
 70
     8
 71
     3
 72
    14
 73
    10
 74
     0
 42
0.000000001
 43
0.00000001
 40
0.0
 40
0.0
 40
0.0
 40
0.0
 40
0.0888783606409037
 40
0.2019604193654229
 40
0.3392274286628738
 40
0.5006544065584684
 40
0.6457167247135557
 40
0.7773752576323403
 40
1.0
 40
1.0
 40
1.0
 40
1.0
 10
469.925398278128
 20
247.2755686283788
 30
0.0
 10
469.8204626529923
 20
247.3781466999892
 30
0.0
 10
469.5820149284174
 20
247.6112372994418
 30
0.0
 10
469.0543102866031
 20
248.1116746183552
 30
0.0
 10
468.2880883111233
 20
248.8377874811484
 30
0.0
 10
467.3080109412446
 20
249.7644048566151
 30
0.0
 10
466.2258573580689
 20
250.7962100608465
 30
0.0
 10
464.9113056663945
 20
252.0645950519811
 30
0.0
 10
463.9361030932759
 20
253.0298134007393
 30
0.0
 10
463.3233047007431
 20
253.6363379002293
 30
0.0
  0
SPLINE
  5
C2
330
1F
100
AcDbEntity
  8
0
  6
Continuous
 62
     7
370
    25
100
AcDbSpline
210
0.0
220
0.0
230
1.0
 70
     8
 71
     3
 72
    15
 73
    11
 74
     0
 42
0.000000001
 43
0.00000001
 40
0.0
 40
0.0
 40
0.0
 40
0.0
 40
0.1196426967939358
 40
0.24981548218185
 40
0.374795072418103
 40
0.4997818746157495
 40
0.6333132451840704
 40
0.7611772466798562
 40
0.8833973442891367
 40
1.0
 40
1.0
 40
1.0
 40
1.0
 10
463.3233047007431
 20
253.6363379002293
 30
0.0
 10
462.8817932439757
 20
254.0806936115602
 30
0.0
 10
461.9599116714539
 20
255.0085140240134
 30
0.0
 10
460.6453437005471
 20
256.3678967357448
 30
0.0
 10
459.4260956679705
 20
257.6432977418855
 30
0.0
 10
458.3580086146191
 20
258.7805003729214
 30
0.0
 10
457.4796263766553
 20
259.715924302311
 30
0.0
 10
456.83603639404
 20
260.3712579005222
 30
0.0
 10
456.4341570280571
 20
260.7494913086488
 30
0.0
 10
456.3608284125676
 20
260.7701258510338
 30
0.0
 10
456.3250265001167
 20
260.7802004457196
 30
0.0
  0
LINE
  5
C3
330
1F
100
AcDbEntity
  8
0
  6
Continuous
 62
     7
370
    25
100
AcDbLine
 10
456.0306391596
 20
260.6876046301
 30
0.0
 11
456.3250265001
 21
260.7802004457
 31
0.0
  0
ARC
  5
C4
330
1F
100
AcDbEntity
  8
0
  6
Continuous
 62
     7
370
    25
100
AcDbCircle
 10
541.429863012
 20
331.7429017341
 30
0.0
 40
111.0940262493768
100
AcDbArc
 50
211.5388868525
 51
219.7617031108
  0
LWPOLYLINE
  5
C5
330
1F
100
AcDbEntity
  8
0
  6
Continuous
 62
     7
370
    25
100
AcDbPolyline
 90
        5
 70
   128
 43
0.0
 10
449.612306702
 20
275.8352980853
 10
449.5251572608
 20
275.7683248163
 10
449.1688928484
 20
275.4945159794
 10
447.744043815
 20
274.3993476868
 10
446.7460534452
 20
273.6321539522
  0
SPLINE
  5
C6
330
1F
100
AcDbEntity
  8
0
  6
Continuous
 62
     7
370
    25
100
AcDbSpline
210
0.0
220
0.0
230
1.0
 70
     8
 71
     3
 72
    10
 73
     6
 74
     0
 42
0.000000001
 43
0.00000001
 40
0.0
 40
0.0
 40
0.0
 40
0.0
 40
0.5326216628693021
 40
0.9666077132958996
 40
1.0
 40
1.0
 40
1.0
 40
1.0
 10
449.4895509361137
 20
276.0394290924748
 30
0.0
 10
449.5121002361519
 20
276.0025050077446
 30
0.0
 10
449.5530229564725
 20
275.9354947684044
 30
0.0
 10
449.5941523237954
 20
275.8663879343023
 30
0.0
 10
449.6110961354058
 20
275.8373712123823
 30
0.0
 10
449.6123067020286
 20
275.8352980852803
 30
0.0
  0
ELLIPSE
  5
C7
330
1F
100
AcDbEntity
  8
0
  6
Continuous
 62
     7
370
    25
100
AcDbEllipse
 10
525.5958277302
 20
322.6011172018
 30
0.0
 11
77.26763378601072
 21
44.61048916600567
 31
0.0
210
0.0
220
0.0
230
1.0
 40
0.9787777724
 41
3.11559026926115
 42
3.167595037918794
  0
SPLINE
  5
C8
330
1F
100
AcDbEntity
  8
0
  6
Continuous
 62
     7
370
    25
100
AcDbSpline
210
0.0
220
0.0
230
1.0
 70
     8
 71
     3
 72
    10
 73
     6
 74
     0
 42
0.000000001
 43
0.00000001
 40
0.0
 40
0.0
 40
0.0
 40
0.0
 40
0.0334282388059776
 40
0.3055654736178243
 40
1.0
 40
1.0
 40
1.0
 40
1.0
 10
447.1036813138832
 20
280.1803649306973
 30
0.0
 10
447.1048703785482
 20
280.1782801277711
 30
0.0
 10
447.1157395454711
 20
280.1592230725292
 30
0.0
 10
447.1537944151418
 20
280.0916664561835
 30
0.0
 10
447.1917873160402
 20
280.0220270498682
 30
0.0
 10
447.2190833567489
 20
279.9719945431431
 30
0.0
  0
LWPOLYLINE
  5
C9
330
1F
100
AcDbEntity
  8
0
  6
Continuous
 62
     7
370
    25
100
AcDbPolyline
 90
        5
 70
   128
 43
0.0
 10
443.7625727533
 20
278.7996903897
 10
443.8663667916
 20
278.842568481
 10
444.2815205931
 20
279.0140957475
 10
445.9422997116
 20
279.7003612757
 10
447.1036813139
 20
280.1803649307
  0
ARC
  5
CA
330
1F
100
AcDbEntity
  8
0
  6
Continuous
 62
     7
370
    25
100
AcDbCircle
 10
541.429863012
 20
331.7429017341
 30
0.0
 40
111.0940262493768
100
AcDbArc
 50
166.5388868525
 51
208.4611131476
  0
LWPOLYLINE
  5
CB
330
1F
100
AcDbEntity
  8
0
  6
Continuous
 62
     7
370
    25
100
AcDbPolyline
 90
        5
 70
   128
 43
0.0
 10
436.9724041699
 20
357.135075228
 10
436.863417077
 20
357.1493402959
 10
436.4178872584
 20
357.2076485396
 10
434.63596915
 20
357.4407632366
 10
433.3877957343
 20
357.6039644793
  0
SPLINE
  5
CC
330
1F
100
AcDbEntity
  8
0
  6
Continuous
 62
     7
370
    25
100
AcDbSpline
210
0.0
220
0.0
230
1.0
 70
     8
 71
     3
 72
    10
 73
     6
 74
     0
 42
0.000000001
 43
0.00000001
 40
0.0
 40
0.0
 40
0.0
 40
0.0
 40
0.5326176980882921
 40
0.9666174846050571
 40
1.0
 40
1.0
 40
1.0
 40
1.0
 10
437.0299375532974
 20
357.3662164524874
 30
0.0
 10
437.0197730208566
 20
357.32416402909
 30
0.0
 10
437.0013259906221
 20
357.2478454841527
 30
0.0
 10
436.9815508816063
 20
357.1698919371184
 30
0.0
 10
436.9730139177234
 20
357.137396216377
 30
0.0
 10
436.9724041699279
 20
357.1350752279839
 30
0.0
  0
ELLIPSE
  5
CD
330
1F
100
AcDbEntity
  8
0
  6
Continuous
 62
     7
370
    25
100
AcDbEllipse
 10
523.7692914557
 20
336.4750376205
 30
0.0
 11
86.1808472176599
 21
-23.09208841498491
 31
0.0
210
0.0
220
0.0
230
1.0
 40
0.9787777724
 41
3.115590269260901
 42
3.167595037918623
  0
SPLINE
  5
CE
330
1F
100
AcDbEntity
  8
0
  6
Continuous
 62
     7
370
    25
100
AcDbSpline
210
0.0
220
0.0
230
1.0
 70
     8
 71
     3
 72
    10
 73
     6
 74
     0
 42
0.000000001
 43
0.00000001
 40
0.0
 40
0.0
 40
0.0
 40
0.0
 40
0.0334133706998474
 40
0.3055540395608209
 40
1.0
 40
1.0
 40
1.0
 40
1.0
 10
438.2709584115852
 20
361.9813640505752
 30
0.0
 10
438.2703275609616
 20
361.979049789201
 30
0.0
 10
438.2645586441363
 20
361.9578866471222
 30
0.0
 10
438.2436679358207
 20
361.8832107231128
 30
0.0
 10
438.2212911393876
 20
361.8071031608711
 30
0.0
 10
438.2052144883979
 20
361.7524235413155
 30
0.0
  0
LWPOLYLINE
  5
CF
330
1F
100
AcDbEntity
  8
0
  6
Continuous
 62
     7
370
    25
100
AcDbPolyline
 90
        5
 70
   128
 43
0.0
 10
434.932159531
 20
363.3675967247
 10
435.0358641623
 20
363.3245286436
 10
435.45071249
 20
363.152256319
 10
437.1103293179
 20
362.4631744713
 10
438.2709584116
 20
361.9813640506
  0
ARC
  5
D0
330
1F
100
AcDbEntity
  8
0
  6
Continuous
 62
     7
370
    25
100
AcDbCircle
 10
541.429863012
 20
331.7429017341
 30
0.0
 40
111.0940262493767
100
AcDbArc
 50
140.2382968892
 51
163.4611131476
  0
LINE
  5
D1
330
1F
100
AcDbEntity
  8
0
  6
Continuous
 62
     7
370
    25
100
AcDbLine
 10
456.3250265001
 20
402.7056024314
 30
0.0
 11
456.0306391596
 21
402.798198247
 31
0.0
  0
SPLINE
  5
D2
330
1F
100
AcDbEntity
  8
0
  6
Continuous
 62
     7
370
    25
100
AcDbSpline
210
0.0
220
0.0
230
1.0
 70
     8
 71
     3
 72
    11
 73
     7
 74
     0
 42
0.000000001
 43
0.00000001
 40
0.0
 40
0.0
 40
0.0
 40
0.0
 40
0.2452209289959551
 40
0.4990734379331517
 40
0.7183485665987369
 40
1.0
 40
1.0
 40
1.0
 40
1.0
 10
456.3250265001167
 20
402.7056024313649
 30
0.0
 10
456.3716291633145
 20
402.7226165738269
 30
0.0
 10
456.4664748660621
 20
402.7572437429137
 30
0.0
 10
456.9812382235589
 20
403.2589300712732
 30
0.0
 10
457.754647201369
 20
404.0667759905205
 30
0.0
 10
458.492572902338
 20
404.8484287222582
 30
0.0
 10
458.907479691397
 20
405.2879215121945
 30
0.0
  0
LINE
  5
D3
330
1F
100
AcDbEntity
  8
0
  6
Continuous
 62
     7
370
    25
100
AcDbLine
 10
458.9074796914
 20
405.2879215122
 30
0.0
 11
458.9280209421
 21
405.3096734822
 31
0.0
  0
SPLINE
  5
D4
330
1F
100
AcDbEntity
  8
0
  6
Continuous
 62
     7
370
    25
100
AcDbSpline
210
0.0
220
0.0
230
1.0
 70
     8
 71
     3
 72
    10
 73
     6
 74
     0
 42
0.000000001
 43
0.00000001
 40
0.0
 40
0.0
 40
0.0
 40
0.0
 40
0.3141862481907246
 40
0.5857864670184099
 40
1.0
 40
1.0
 40
1.0
 40
1.0
 10
458.9280209421028
 20
405.3096734822473
 30
0.0
 10
459.3294025109723
 20
405.7326967857354
 30
0.0
 10
460.0777608255336
 20
406.5214051644239
 30
0.0
 10
461.5620941126284
 20
408.0645125148225
 30
0.0
 10
462.6601004160244
 20
409.1773207270909
 30
0.0
 10
463.3232674478401
 20
409.8494277239521
 30
0.0
  0
SPLINE
  5
D5
330
1F
100
AcDbEntity
  8
0
  6
Continuous
 62
     7
370
    25
100
AcDbSpline
210
0.0
220
0.0
230
1.0
 70
     8
 71
     3
 72
    10
 73
     6
 74
     0
 42
0.000000001
 43
0.00000001
 40
0.0
 40
0.0
 40
0.0
 40
0.0
 40
0.4127606531660427
 40
0.6847257746052655
 40
1.0
 40
1.0
 40
1.0
 40
1.0
 10
463.3232748984207
 20
409.8494426251134
 30
0.0
 10
463.9968461807983
 20
410.5139626161002
 30
0.0
 10
465.1142288928862
 20
411.6163302038996
 30
0.0
 10
466.6656196037408
 20
413.1084978976967
 30
0.0
 10
467.4589361878052
 20
413.8611888836045
 30
0.0
 10
467.8848481654037
 20
414.2652899862011
 30
0.0
  0
LINE
  5
D6
330
1F
100
AcDbEntity
  8
0
  6
Continuous
 62
     7
370
    25
100
AcDbLine
 10
467.8848481654
 20
414.2652899862
 30
0.0
 11
467.9317644714
 21
414.3095762373
 31
0.0
  0
SPLINE
  5
D7
330
1F
100
AcDbEntity
  8
0
  6
Continuous
 62
     7
370
    25
100
AcDbSpline
210
0.0
220
0.0
230
1.0
 70
     8
 71
     3
 72
    11
 73
     7
 74
     0
 42
0.000000001
 43
0.00000001
 40
0.0
 40
0.0
 40
0.0
 40
0.0
 40
0.2798755045870407
 40
0.4996788528978214
 40
0.7540791112394347
 40
1.0
 40
1.0
 40
1.0
 40
1.0
 10
467.9317644714225
 20
414.3095762372693
 30
0.0
 10
468.3612980044597
 20
414.7150628187059
 30
0.0
 10
469.1281704872297
 20
415.4390028082976
 30
0.0
 10
469.9220953158091
 20
416.1998046110254
 30
0.0
 10
470.4166052899654
 20
416.7078434384345
 30
0.0
 10
470.4504997733383
 20
416.801634818272
 30
0.0
 10
470.4671597956527
 20
416.8477357269009
 30
0.0
  0
LINE
  5
D8
330
1F
100
AcDbEntity
  8
0
  6
Continuous
 62
     7
370
    25
100
AcDbLine
 10
470.37456398
 20
417.1421230674
 30
0.0
 11
470.4671597957
 21
416.8477357269
 31
0.0
  0
ARC
  5
D9
330
1F
100
AcDbEntity
  8
0
  6
Continuous
 62
     7
370
    25
100
AcDbCircle
 10
541.429863012
 20
331.7429017341
 30
0.0
 40
111.0940262493768
100
AcDbArc
 50
121.5388868525
 51
129.7617031108
  0
LWPOLYLINE
  5
DA
330
1F
100
AcDbEntity
  8
0
  6
Continuous
 62
     7
370
    25
100
AcDbPolyline
 90
        5
 70
   128
 43
0.0
 10
485.5222611605
 20
423.560455525
 10
485.4552878915
 20
423.6476049662
 10
485.1814790546
 20
424.0038768292
 10
484.0863070368
 20
425.428718412
 10
483.3191170274
 20
426.4267087818
  0
SPLINE
  5
DB
330
1F
100
AcDbEntity
  8
0
  6
Continuous
 62
     7
370
    25
100
AcDbSpline
210
0.0
220
0.0
230
1.0
 70
     8
 71
     3
 72
    10
 73
     6
 74
     0
 42
0.000000001
 43
0.00000001
 40
0.0
 40
0.0
 40
0.0
 40
0.0
 40
0.5326070714298106
 40
0.9666195580516957
 40
1.0
 40
1.0
 40
1.0
 40
1.0
 10
485.7263884424079
 20
423.6832187414845
 30
0.0
 10
485.6894665394518
 20
423.6606690765908
 30
0.0
 10
485.6224576027847
 20
423.6197440714921
 30
0.0
 10
485.5533433710872
 20
423.5786166699904
 30
0.0
 10
485.5243330317075
 20
423.5616661066256
 30
0.0
 10
485.5222611605037
 20
423.560455524989
 30
0.0
  0
ELLIPSE
  5
DC
330
1F
100
AcDbEntity
  8
0
  6
Continuous
 62
     7
370
    25
100
AcDbEllipse
 10
532.2880784797
 20
347.5769370159
 30
0.0
 11
-44.61048916601993
 21
77.26763378599946
 31
0.0
210
0.0
220
0.0
230
1.0
 40
0.9787777724
 41
6.257182922850551
 42
6.309187691508234
  0
SPLINE
  5
DD
330
1F
100
AcDbEntity
  8
0
  6
Continuous
 62
     7
370
    25
100
AcDbSpline
210
0.0
220
0.0
230
1.0
 70
     8
 71
     3
 72
    10
 73
     6
 74
     0
 42
0.000000001
 43
0.00000001
 40
0.0
 40
0.0
 40
0.0
 40
0.0
 40
0.033428283322152
 40
0.3055658805374349
 40
1.0
 40
1.0
 40
1.0
 40
1.0
 10
489.8673280059207
 20
426.0690809131344
 30
0.0
 10
489.8652432024649
 20
426.0678918494307
 30
0.0
 10
489.8461861423821
 20
426.0570226912948
 30
0.0
 10
489.7786300345956
 20
426.018967112477
 30
0.0
 10
489.7089881519262
 20
425.9809789456345
 30
0.0
 10
489.6589538930763
 20
425.9536863208493
 30
0.0
  0
LWPOLYLINE
  5
DE
330
1F
100
AcDbEntity
  8
0
  6
Continuous
 62
     7
370
    25
100
AcDbPolyline
 90
        5
 70
   128
 43
0.0
 10
488.4866497396
 20
429.4101894737
 10
488.529527831
 20
429.306402886
 10
488.7010588228
 20
428.891241634
 10
489.387324351
 20
427.2304625154
 10
489.8673280059
 20
426.0690809131
  0
ARC
  5
DF
330
1F
100
AcDbEntity
  8
0
  6
Continuous
 62
     7
370
    25
100
AcDbCircle
 10
541.429863012
 20
331.7429017341
 30
0.0
 40
111.0940262493768
100
AcDbArc
 50
76.5388868525
 51
118.4611131475
  0
LWPOLYLINE
  5
E0
330
1F
100
AcDbEntity
  8
0
  6
Continuous
 62
     7
370
    25
100
AcDbPolyline
 90
        5
 70
   128
 43
0.0
 10
566.8220355092
 20
436.2003655077
 10
566.8362996458
 20
436.3093451501
 10
566.8946078895
 20
436.7548749686
 10
567.1277253806
 20
438.5368005276
 10
567.2909266232
 20
439.7849664927
  0
SPLINE
  5
E1
330
1F
100
AcDbEntity
  8
0
  6
Continuous
 62
     7
370
    25
100
AcDbSpline
210
0.0
220
0.0
230
1.0
 70
     8
 71
     3
 72
    10
 73
     6
 74
     0
 42
0.000000001
 43
0.00000001
 40
0.0
 40
0.0
 40
0.0
 40
0.0
 40
0.5326066949498914
 40
0.9666113594904522
 40
1.0
 40
1.0
 40
1.0
 40
1.0
 10
567.0531785963882
 20
436.1428246737202
 30
0.0
 10
567.0111258369305
 20
436.1529876982069
 30
0.0
 10
566.9348055890346
 20
436.1714322559052
 30
0.0
 10
566.8568564238151
 20
436.1912203672413
 30
0.0
 10
566.824357124484
 20
436.1997557736156
 30
0.0
 10
566.8220355092395
 20
436.2003655076703
 30
0.0
  0
ELLIPSE
  5
E2
330
1F
100
AcDbEntity
  8
0
  6
Continuous
 62
     7
370
    25
100
AcDbEllipse
 10
546.1619988984
 20
349.4034732904
 30
0.0
 11
23.09208841497934
 21
86.18084721766115
 31
0.0
210
0.0
220
0.0
230
1.0
 40
0.9787777724
 41
6.257182922850466
 42
6.309187691508142
  0
SPLINE
  5
E3
330
1F
100
AcDbEntity
  8
0
  6
Continuous
 62
     7
370
    25
100
AcDbSpline
210
0.0
220
0.0
230
1.0
 70
     8
 71
     3
 72
    10
 73
     6
 74
     0
 42
0.000000001
 43
0.00000001
 40
0.0
 40
0.0
 40
0.0
 40
0.0
 40
0.0334204799890675
 40
0.3055605203888974
 40
1.0
 40
1.0
 40
1.0
 40
1.0
 10
571.6683252631534
 20
434.9018038154324
 30
0.0
 10
571.666011033298
 20
434.9024372846087
 30
0.0
 10
571.6448522324919
 20
434.9082290377847
 30
0.0
 10
571.5701683056938
 20
434.9290824511573
 30
0.0
 10
571.4940622509464
 20
434.9514661560403
 30
0.0
 10
571.4393838225711
 20
434.9675477386197
 30
0.0
  0
LWPOLYLINE
  5
E4
330
1F
100
AcDbEntity
  8
0
  6
Continuous
 62
     7
370
    25
100
AcDbPolyline
 90
        5
 70
   128
 43
0.0
 10
573.0545579373
 20
438.2406101466
 10
573.0114898561
 20
438.1368980647
 10
572.8392175316
 20
437.722049737
 10
572.1501356839
 20
436.0624403597
 10
571.6683252632
 20
434.9018038154
  0
ARC
  5
E5
330
1F
100
AcDbEntity
  8
0
  6
Continuous
 62
     7
370
    25
100
AcDbCircle
 10
541.429863012
 20
331.7429017341
 30
0.0
 40
111.0940262493767
100
AcDbArc
 50
50.2382968892
 51
73.4611131475
  0
LINE
  5
E6
330
1F
100
AcDbEntity
  8
0
  6
Continuous
 62
     7
370
    25
100
AcDbLine
 10
612.3925617813
 20
416.8477357269
 30
0.0
 11
612.485157597
 21
417.1421230674
 31
0.0
  0
SPLINE
  5
E7
330
1F
100
AcDbEntity
  8
0
  6
Continuous
 62
     7
370
    25
100
AcDbSpline
210
0.0
220
0.0
230
1.0
 70
     8
 71
     3
 72
     9
 73
     5
 74
     0
 42
0.000000001
 43
0.00000001
 40
0.0
 40
0.0
 40
0.0
 40
0.0
 40
0.4936623269498482
 40
1.0
 40
1.0
 40
1.0
 40
1.0
 10
612.392561781298
 20
416.8477357269009
 30
0.0
 10
612.4015384905135
 20
416.8108057064542
 30
0.0
 10
612.4197223962431
 20
416.7359974449549
 30
0.0
 10
612.7346271315371
 20
416.4136132434036
 30
0.0
 10
612.8940752624382
 20
416.2503779769619
 30
0.0
  0
LINE
  5
E8
330
1F
100
AcDbEntity
  8
0
  6
Continuous
 62
     7
370
    25
100
AcDbLine
 10
612.8940752624
 20
416.250377977
 30
0.0
 11
612.9342934965
 21
416.2102715016
 31
0.0
  0
SPLINE
  5
E9
330
1F
100
AcDbEntity
  8
0
  6
Continuous
 62
     7
370
    25
100
AcDbSpline
210
0.0
220
0.0
230
1.0
 70
     8
 71
     3
 72
    14
 73
    10
 74
     0
 42
0.000000001
 43
0.00000001
 40
0.0
 40
0.0
 40
0.0
 40
0.0
 40
0.088876394204549
 40
0.2019125021289999
 40
0.3390887185958867
 40
0.5003812685849809
 40
0.6455524351757955
 40
0.7772935716820644
 40
1.0
 40
1.0
 40
1.0
 40
1.0
 10
612.9342934965003
 20
416.2102715016087
 30
0.0
 10
613.0392213848871
 20
416.1076959678858
 30
0.0
 10
613.2776002331391
 20
415.8746612812676
 30
0.0
 10
613.8050513376903
 20
415.3744492167498
 30
0.0
 10
614.5706716365963
 20
414.6489278923492
 30
0.0
 10
615.5502867284303
 20
413.7227376898771
 30
0.0
 10
616.6324531908176
 20
412.6909531139292
 30
0.0
 10
617.9476694035192
 20
411.4219340873924
 30
0.0
 10
618.9233348127947
 20
410.4562702838107
 30
0.0
 10
619.5363647221435
 20
409.8495245814999
 30
0.0
  0
SPLINE
  5
EA
330
1F
100
AcDbEntity
  8
0
  6
Continuous
 62
     7
370
    25
100
AcDbSpline
210
0.0
220
0.0
230
1.0
 70
     8
 71
     3
 72
    15
 73
    11
 74
     0
 42
0.000000001
 43
0.00000001
 40
0.0
 40
0.0
 40
0.0
 40
0.0
 40
0.1196586390642791
 40
0.2498512822430111
 40
0.3748883952930194
 40
0.4999328821545831
 40
0.6334053792519023
 40
0.7612247528846737
 40
0.8834141325631666
 40
1.0
 40
1.0
 40
1.0
 40
1.0
 10
619.5363796233047
 20
409.8495096803387
 30
0.0
 10
619.9779522043553
 20
409.4050926529657
 30
0.0
 10
620.8999706765828
 20
408.4771348806885
 30
0.0
 10
622.2148517747318
 20
407.117412286649
 30
0.0
 10
623.4344826369919
 20
405.8416184163347
 30
0.0
 10
624.5025710623371
 20
404.7043981467958
 30
0.0
 10
625.3806282199429
 20
403.7693125006625
 30
0.0
 10
626.0238822862808
 20
403.114353063791
 30
0.0
 10
626.4255911947961
 20
402.7362963242057
 30
0.0
 10
626.4989055906099
 20
402.7156723967475
 30
0.0
 10
626.5347025274147
 20
402.7056024313649
 30
0.0
  0
LINE
  5
EB
330
1F
100
AcDbEntity
  8
0
  6
Continuous
 62
     7
370
    25
100
AcDbLine
 10
626.8290824174
 20
402.798198247
 30
0.0
 11
626.5347025274
 21
402.7056024314
 31
0.0
  0
ARC
  5
EC
330
1F
100
AcDbEntity
  8
0
  6
Continuous
 62
     7
370
    25
100
AcDbCircle
 10
541.429863012
 20
331.7429017341
 30
0.0
 40
111.0940262493766
100
AcDbArc
 50
31.5388868525
 51
39.7617031108
  0
LWPOLYLINE
  5
ED
330
1F
100
AcDbEntity
  8
0
  6
Continuous
 62
     7
370
    25
100
AcDbPolyline
 90
        5
 70
   128
 43
0.0
 10
633.2474223255
 20
387.6505010665
 10
633.3345717667
 20
387.7174780608
 10
633.6908361791
 20
387.9912831724
 10
635.1156852125
 20
389.0864589155
 10
636.1136755823
 20
389.8536451996
  0
SPLINE
  5
EE
330
1F
100
AcDbEntity
  8
0
  6
Continuous
 62
     7
370
    25
100
AcDbSpline
210
0.0
220
0.0
230
1.0
 70
     8
 71
     3
 72
    10
 73
     6
 74
     0
 42
0.000000001
 43
0.00000001
 40
0.0
 40
0.0
 40
0.0
 40
0.0
 40
0.5326218082495597
 40
0.9666186344410594
 40
1.0
 40
1.0
 40
1.0
 40
1.0
 10
633.3701780914176
 20
387.4463775098999
 30
0.0
 10
633.3476276585344
 20
387.4832990772551
 30
0.0
 10
633.3067024310991
 20
387.5503054868039
 30
0.0
 10
633.265582541402
 20
387.6194206126346
 30
0.0
 10
633.2486329120941
 20
387.6484291979344
 30
0.0
 10
633.2474223255027
 20
387.6505010665139
 30
0.0
  0
ELLIPSE
  5
EF
330
1F
100
AcDbEntity
  8
0
  6
Continuous
 62
     7
370
    25
100
AcDbEllipse
 10
557.2638982938
 20
340.8846862664
 30
0.0
 11
77.26763378600525
 21
44.61048916600958
 31
0.0
210
0.0
220
0.0
230
1.0
 40
0.9787777724
 41
6.257182922850546
 42
6.309187691508241
  0
CIRCLE
  5
F0
330
1F
100
AcDbEntity
  8
0
  6
Continuous
 62
     7
370
    25
100
AcDbCircle
 10
541.429863012
 20
331.7429017341
 30
0.0
 40
105.5006095442991
  0
CIRCLE
  5
F1
330
1F
100
AcDbEntity
  8
0
  6
Continuous
 62
     7
370
    25
100
AcDbCircle
 10
541.429863012
 20
331.7429017341
 30
0.0
 40
102.9938456013599
  0
CIRCLE
  5
F2
330
1F
100
AcDbEntity
  8
0
  6
Continuous
 62
     7
370
    25
100
AcDbCircle
 10
541.429863012
 20
331.7429017341
 30
0.0
 40
102.6965002318051
  0
ARC
  5
F3
330
1F
100
AcDbEntity
  8
0
  6
Continuous
 62
     7
370
    25
100
AcDbCircle
 10
640.5035287757
 20
385.4487033621
 30
0.0
 40
1.59982615617465
100
AcDbArc
 50
122.0006893754
 51
208.4680585167
  0
SPLINE
  5
F4
330
1F
100
AcDbEntity
  8
0
  6
Continuous
 62
     7
370
    25
100
AcDbSpline
210
0.0
220
0.0
230
1.0
 70
     8
 71
     3
 72
    16
 73
    12
 74
     0
 42
0.000000001
 43
0.00000001
 40
0.0
 40
0.0
 40
0.0
 40
0.0
 40
0.2742392819132315
 40
0.5482577763438629
 40
0.8221005869769301
 40
0.9563124330193219
 40
0.9875092850374163
 40
0.9947711729041948
 40
0.9985042044188192
 40
0.999708604177663
 40
1.0
 40
1.0
 40
1.0
 40
1.0
 10
636.9160360573638
 20
385.6782541514119
 30
0.0
 10
636.7459076197222
 20
385.5685568780077
 30
0.0
 10
636.4057877132536
 20
385.3492506474488
 30
0.0
 10
635.955206242151
 20
384.9178605565173
 30
0.0
 10
635.6880608508307
 20
384.3766348535412
 30
0.0
 10
635.5942385169287
 20
383.8975696419714
 30
0.0
 10
635.6540391390595
 20
383.5477563530935
 30
0.0
 10
635.7104734779002
 20
383.3990430253655
 30
0.0
 10
635.7369549726651
 20
383.3421526853451
 30
0.0
 10
635.7509812760403
 20
383.3149655975373
 30
0.0
 10
635.7552154114696
 20
383.3069913993281
 30
0.0
 10
635.7560402630676
 20
383.3054379463871
 30
0.0
  0
LINE
  5
F5
330
1F
100
AcDbEntity
  8
0
  6
Continuous
 62
     7
370
    25
100
AcDbLine
 10
636.9160360574
 20
385.6782541514
 30
0.0
 11
639.6557337521
 21
386.8054226876
 31
0.0
  0
SPLINE
  5
F6
330
1F
100
AcDbEntity
  8
0
  6
Continuous
 62
     7
370
    25
100
AcDbSpline
210
0.0
220
0.0
230
1.0
 70
     8
 71
     3
 72
    14
 73
    10
 74
     0
 42
0.000000001
 43
0.00000001
 40
0.0
 40
0.0
 40
0.0
 40
0.0
 40
0.0042920389747697
 40
0.0388514294810016
 40
0.107570279458903
 40
0.1766154610281961
 40
0.451067503982191
 40
0.7259604525043718
 40
1.0
 40
1.0
 40
1.0
 40
1.0
 10
635.6406456707824
 20
383.5138120592316
 30
0.0
 10
635.6329723135378
 20
383.5330905922145
 30
0.0
 10
635.5635132756252
 20
383.7075993907321
 30
0.0
 10
635.4890142478919
 20
384.0444560086592
 30
0.0
 10
635.4647455956066
 20
384.4318203117938
 30
0.0
 10
635.5722465024245
 20
385.1058576854639
 30
0.0
 10
635.8872546924376
 20
385.8648018053076
 30
0.0
 10
636.5143227187184
 20
386.5278138753835
 30
0.0
 10
636.9985338155514
 20
386.8557374549038
 30
0.0
 10
637.2402629732002
 20
387.019444340535
 30
0.0
  0
ARC
  5
F7
330
1F
100
AcDbEntity
  8
0
  6
Continuous
 62
     7
370
    25
100
AcDbCircle
 10
636.3832083037
 20
386.5168482722
 30
0.0
 40
0.9935519686336148
100
AcDbArc
 50
302.4311492744
 51
30.3883153069
  0
SPLINE
  5
F8
330
1F
100
AcDbEntity
  8
0
  6
Continuous
 62
     7
370
    25
100
AcDbSpline
210
0.0
220
0.0
230
1.0
 70
     8
 71
     3
 72
    16
 73
    12
 74
     0
 42
0.000000001
 43
0.00000001
 40
0.0
 40
0.0
 40
0.0
 40
0.0
 40
0.0002916841146422
 40
0.0044812684086056
 40
0.0052171764097595
 40
0.0124790880289262
 40
0.0436761940341607
 40
0.1778896773109976
 40
0.4517357106188433
 40
0.7257574573445286
 40
1.0
 40
1.0
 40
1.0
 40
1.0
 10
597.3374641417374
 20
239.9253473520955
 30
0.0
 10
597.3359703838937
 20
239.9244154615298
 30
0.0
 10
597.3130211401798
 20
239.9100984262768
 30
0.0
 10
597.2893053991336
 20
239.8938985118831
 30
0.0
 10
597.2426421891348
 20
239.8600646185338
 30
0.0
 10
597.1275692910131
 20
239.7662084446798
 30
0.0
 10
596.9020011077374
 20
239.493971876012
 30
0.0
 10
596.7423716444428
 20
239.0312054773353
 30
0.0
 10
596.703935315019
 20
238.4295204847733
 30
0.0
 10
596.8781968849673
 20
237.8304445400091
 30
0.0
 10
597.0631342510169
 20
237.4704862491258
 30
0.0
 10
597.15564017285
 20
237.2904346228322
 30
0.0
  0
ARC
  5
F9
330
1F
100
AcDbEntity
  8
0
  6
Continuous
 62
     7
370
    25
100
AcDbCircle
 10
596.2748786512
 20
236.8306067007
 30
0.0
 40
0.9935706194788811
100
AcDbArc
 50
299.6125003926
 51
27.5681582395
  0
SPLINE
  5
FA
330
1F
100
AcDbEntity
  8
0
  6
Continuous
 62
     7
370
    25
100
AcDbSpline
210
0.0
220
0.0
230
1.0
 70
     8
 71
     3
 72
    14
 73
    10
 74
     0
 42
0.000000001
 43
0.00000001
 40
0.0
 40
0.0
 40
0.0
 40
0.0
 40
0.2740395161549536
 40
0.5489324530365103
 40
0.8233844913142261
 40
0.8924296972268682
 40
0.9611485215247774
 40
0.9957081659311977
 40
1.0
 40
1.0
 40
1.0
 40
1.0
 10
596.7658332465995
 20
235.9668091774663
 30
0.0
 10
596.6383458324982
 20
236.2294480699316
 30
0.0
 10
596.3829739797968
 20
236.7555437714809
 30
0.0
 10
596.1714083075838
 20
237.6432640407578
 30
0.0
 10
596.2780769553999
 20
238.4580252833881
 30
0.0
 10
596.5219984898448
 20
239.0955221286196
 30
0.0
 10
596.7366864785806
 20
239.4188455676181
 30
0.0
 10
596.9696516132379
 20
239.6733357824834
 30
0.0
 10
597.1170570439486
 20
239.7897266971574
 30
0.0
 10
597.1333405851234
 20
239.8025841356
 30
0.0
  0
ARC
  5
FB
330
1F
100
AcDbEntity
  8
0
  6
Continuous
 62
     7
370
    25
100
AcDbCircle
 10
600.3772747467
 20
235.6954814608
 30
0.0
 40
1.599828178919394
100
AcDbArc
 50
121.5318668146
 51
207.9992706522
  0
LINE
  5
FC
330
1F
100
AcDbEntity
  8
0
  6
Continuous
 62
     7
370
    25
100
AcDbLine
 10
598.9647007464
 20
234.9444256068
 30
0.0
 11
597.1556401728
 21
237.2904346228
 31
0.0
  0
SPLINE
  5
FD
330
1F
100
AcDbEntity
  8
0
  6
Continuous
 62
     7
370
    25
100
AcDbSpline
210
0.0
220
0.0
230
1.0
 70
     8
 71
     3
 72
    14
 73
    10
 74
     0
 42
0.000000001
 43
0.00000001
 40
0.0
 40
0.0
 40
0.0
 40
0.0
 40
0.004292176217197
 40
0.0388515147935114
 40
0.1075703555770261
 40
0.1766155279082702
 40
0.4510676035202542
 40
0.7259604891700839
 40
1.0
 40
1.0
 40
1.0
 40
1.0
 10
489.6589538930763
 20
425.9536863208493
 30
0.0
 10
489.6396740576695
 20
425.9460129897699
 30
0.0
 10
489.4651586667305
 20
425.8765562571335
 30
0.0
 10
489.1283168662774
 20
425.8020388991581
 30
0.0
 10
488.7409433014164
 20
425.7777816558048
 30
0.0
 10
488.0669113207393
 20
425.8852757138831
 30
0.0
 10
487.3079565897861
 20
426.2002996942556
 30
0.0
 10
486.6449539478338
 20
426.8273623034221
 30
0.0
 10
486.3170291255843
 20
427.3115741032013
 30
0.0
 10
486.1533216117729
 20
427.5533036232671
 30
0.0
  0
ARC
  5
FE
330
1F
100
AcDbEntity
  8
0
  6
Continuous
 62
     7
370
    25
100
AcDbCircle
 10
486.6559125699
 20
426.6962278148
 30
0.0
 40
0.9935676185349722
100
AcDbArc
 50
32.4320201296
 51
120.3874444518
  0
SPLINE
  5
FF
330
1F
100
AcDbEntity
  8
0
  6
Continuous
 62
     7
370
    25
100
AcDbSpline
210
0.0
220
0.0
230
1.0
 70
     8
 71
     3
 72
    16
 73
    12
 74
     0
 42
0.000000001
 43
0.00000001
 40
0.0
 40
0.0
 40
0.0
 40
0.0
 40
0.2742392616271045
 40
0.548257718539158
 40
0.8221005582947469
 40
0.956312389275092
 40
0.9875092389854817
 40
0.994771034631487
 40
0.9985042045294668
 40
0.9997086041992184
 40
1.0
 40
1.0
 40
1.0
 40
1.0
 10
487.494511800896
 20
427.2290767074307
 30
0.0
 10
487.6042094160238
 20
427.0589487674544
 30
0.0
 10
487.823516322855
 20
426.7188298666167
 30
0.0
 10
488.2549013078875
 20
426.2682409202572
 30
0.0
 10
488.7961247999705
 20
426.0011188975357
 30
0.0
 10
489.2752046333674
 20
425.9072408129193
 30
0.0
 10
489.6250048548268
 20
425.9671010346427
 30
0.0
 10
489.7737256273676
 20
426.0235006516115
 30
0.0
 10
489.8306123492096
 20
426.0499960010006
 30
0.0
 10
489.8578003595554
 20
426.0640219078672
 30
0.0
 10
489.8657745537599
 20
426.0682560585626
 30
0.0
 10
489.8673280059207
 20
426.0690809131344
 30
0.0
  0
ARC
  5
100
330
1F
100
AcDbEntity
  8
0
  6
Continuous
 62
     7
370
    25
100
AcDbCircle
 10
487.7240598439
 20
430.8165680542
 30
0.0
 40
1.59982625955862
100
AcDbArc
 50
212.0006291397
 51
298.468168394
  0
LINE
  5
101
330
1F
100
AcDbEntity
  8
0
  6
Continuous
 62
     7
370
    25
100
AcDbLine
 10
487.4945118009
 20
427.2290767074
 30
0.0
 11
486.3673395394
 21
429.9687744022
 31
0.0
  0
SPLINE
  5
102
330
1F
100
AcDbEntity
  8
0
  6
Continuous
 62
     7
370
    25
100
AcDbSpline
210
0.0
220
0.0
230
1.0
 70
     8
 71
     3
 72
    14
 73
    10
 74
     0
 42
0.000000001
 43
0.00000001
 40
0.0
 40
0.0
 40
0.0
 40
0.0
 40
0.004292200219876
 40
0.0388515052391951
 40
0.1075703428131519
 40
0.1766155197740789
 40
0.4510675837729569
 40
0.725960486584187
 40
1.0
 40
1.0
 40
1.0
 40
1.0
 10
644.6545070885528
 20
301.7333784044465
 30
0.0
 10
644.6627150669594
 20
301.7524369913452
 30
0.0
 10
644.7370108359655
 20
301.9249486988177
 30
0.0
 10
644.9224886567106
 20
302.2158265009618
 30
0.0
 10
645.1792570081327
 20
302.5068927391538
 30
0.0
 10
645.7318780272412
 20
302.907493789893
 30
0.0
 10
646.4912917041621
 20
303.221407026917
 30
0.0
 10
647.403508654595
 20
303.2468118650427
 30
0.0
 10
647.9777754094606
 20
303.1363042089116
 30
0.0
 10
648.2644623993743
 20
303.0811362803659
 30
0.0
  0
ARC
  5
103
330
1F
100
AcDbEntity
  8
0
  6
Continuous
 62
     7
370
    25
100
AcDbCircle
 10
647.3030371468
 20
303.3317858287
 30
0.0
 40
0.9935611266888497
100
AcDbArc
 50
257.4319084427
 51
345.3878887528
  0
SPLINE
  5
104
330
1F
100
AcDbEntity
  8
0
  6
Continuous
 62
     7
370
    25
100
AcDbSpline
210
0.0
220
0.0
230
1.0
 70
     8
 71
     3
 72
    16
 73
    12
 74
     0
 42
0.000000001
 43
0.00000001
 40
0.0
 40
0.0
 40
0.0
 40
0.0
 40
0.2742393038313336
 40
0.548257777339592
 40
0.8221005986964585
 40
0.9563125077944773
 40
0.9875092412769242
 40
0.9947711567132344
 40
0.9985041442144047
 40
0.9997085335285512
 40
1.0
 40
1.0
 40
1.0
 40
1.0
 10
647.0868385313858
 20
302.3620323181829
 30
0.0
 10
646.8889723113493
 20
302.4047629624607
 30
0.0
 10
646.493399202418
 20
302.4901898423017
 30
0.0
 10
645.8697246977727
 20
302.5037698439946
 30
0.0
 10
645.2982233750013
 20
302.3099480332696
 30
0.0
 10
644.8929549373732
 20
302.0375724141444
 30
0.0
 10
644.6880287277172
 20
301.74789645231
 30
0.0
 10
644.6227060290419
 20
301.602859004459
 30
0.0
 10
644.6012523975005
 20
301.5438906652972
 30
0.0
 10
644.5919128789701
 20
301.5147592056377
 30
0.0
 10
644.5892768029632
 20
301.5061233748471
 30
0.0
 10
644.5887631653655
 20
301.5044406891545
 30
0.0
  0
ARC
  5
105
330
1F
100
AcDbEntity
  8
0
  6
Continuous
 62
     7
370
    25
100
AcDbCircle
 10
649.4612573522
 20
299.6629834088
 30
0.0
 40
1.599820142734013
100
AcDbArc
 50
77.0004217897
 51
163.4683448423
  0
LINE
  5
106
330
1F
100
AcDbEntity
  8
0
  6
Continuous
 62
     7
370
    25
100
AcDbLine
 10
647.0868385314
 20
302.3620323182
 30
0.0
 11
649.8211271047
 21
301.2218029142
 31
0.0
  0
SPLINE
  5
107
330
1F
100
AcDbEntity
  8
0
  6
Continuous
 62
     7
370
    25
100
AcDbSpline
210
0.0
220
0.0
230
1.0
 70
     8
 71
     3
 72
    14
 73
    10
 74
     0
 42
0.000000001
 43
0.00000001
 40
0.0
 40
0.0
 40
0.0
 40
0.0
 40
0.0042919467970162
 40
0.0388513654233468
 40
0.1075702124738675
 40
0.1766153989563617
 40
0.4510675008031225
 40
0.7259604437455051
 40
1.0
 40
1.0
 40
1.0
 40
1.0
 10
571.4393838225711
 20
434.9675477386197
 30
0.0
 10
571.4203265136223
 20
434.9757530896185
 30
0.0
 10
571.2478168090579
 20
435.0500291944169
 30
0.0
 10
570.956939940469
 20
435.2355486985603
 30
0.0
 10
570.6658731247906
 20
435.4922912710028
 30
0.0
 10
570.2652721860738
 20
436.0449264556008
 30
0.0
 10
569.951360549017
 20
436.8043293204065
 30
0.0
 10
569.9259480942725
 20
437.7165500668356
 30
0.0
 10
570.0364597476131
 20
438.2908163123323
 30
0.0
 10
570.0916296719421
 20
438.5775030494412
 30
0.0
  0
ARC
  5
108
330
1F
100
AcDbEntity
  8
0
  6
Continuous
 62
     7
370
    25
100
AcDbCircle
 10
569.8409800656
 20
437.6160794612
 30
0.0
 40
0.9935595307381069
100
AcDbArc
 50
347.4313493832
 51
75.3878613026
  0
SPLINE
  5
109
330
1F
100
AcDbEntity
  8
0
  6
Continuous
 62
     7
370
    25
100
AcDbSpline
210
0.0
220
0.0
230
1.0
 70
     8
 71
     3
 72
    16
 73
    12
 74
     0
 42
0.000000001
 43
0.00000001
 40
0.0
 40
0.0
 40
0.0
 40
0.0
 40
0.2742392657320286
 40
0.5482577468805901
 40
0.8221006386269977
 40
0.9563124622365873
 40
0.9875093418975032
 40
0.9947711587367595
 40
0.9985042558535906
 40
0.9997085335204244
 40
1.0
 40
1.0
 40
1.0
 40
1.0
 10
570.8107299088348
 20
437.399871730872
 30
0.0
 10
570.76799928526
 20
437.2020064621906
 30
0.0
 10
570.6825724396863
 20
436.806435222224
 30
0.0
 10
570.6689921348315
 20
436.1827909973319
 30
0.0
 10
570.8628149405722
 20
435.6111869043947
 30
0.0
 10
571.1351977270765
 20
435.2060693034516
 30
0.0
 10
571.4248617544275
 20
435.0010290468242
 30
0.0
 10
571.5699112106287
 20
434.935760022356
 30
0.0
 10
571.6288713973391
 20
434.9142758568491
 30
0.0
 10
571.6580075000827
 20
434.9049537452169
 30
0.0
 10
571.6666425951815
 20
434.9023175203824
 30
0.0
 10
571.6683252631534
 20
434.9018038154324
 30
0.0
  0
ARC
  5
10A
330
1F
100
AcDbEntity
  8
0
  6
Continuous
 62
     7
370
    25
100
AcDbCircle
 10
573.5097797387
 20
439.7742971228
 30
0.0
 40
1.599819561496587
100
AcDbArc
 50
167.0006585096
 51
253.468304277
  0
LINE
  5
10B
330
1F
100
AcDbEntity
  8
0
  6
Continuous
 62
     7
370
    25
100
AcDbLine
 10
570.8107299088
 20
437.3998717309
 30
0.0
 11
571.9509593128
 21
440.1341603041
 31
0.0
  0
SPLINE
  5
10C
330
1F
100
AcDbEntity
  8
0
  6
Continuous
 62
     7
370
    25
100
AcDbSpline
210
0.0
220
0.0
230
1.0
 70
     8
 71
     3
 72
    16
 73
    12
 74
     0
 42
0.000000001
 43
0.00000001
 40
0.0
 40
0.0
 40
0.0
 40
0.0
 40
0.0002915173933916
 40
0.0044811669602705
 40
0.0052169196943196
 40
0.0124788440504013
 40
0.0436759997650203
 40
0.1778894949218845
 40
0.4517356472623857
 40
0.725757426970507
 40
1.0
 40
1.0
 40
1.0
 40
1.0
 10
645.8873248576034
 20
306.3507267177781
 30
0.0
 10
645.8869277957285
 20
306.349012604215
 30
0.0
 10
645.880824212906
 20
306.3226634763777
 30
0.0
 10
645.8755185019188
 20
306.2944338842085
 30
0.0
 10
645.8664127597187
 20
306.2375306500692
 30
0.0
 10
645.851478368792
 20
306.0897678453389
 30
0.0
 10
645.884353321338
 20
305.7378138799114
 30
0.0
 10
646.0988426553535
 20
305.2976578065491
 30
0.0
 10
646.4970495613896
 20
304.845053412429
 30
0.0
 10
647.0439021332357
 20
304.5446615062107
 30
0.0
 10
647.4291935758317
 20
304.4208989884222
 30
0.0
 10
647.621916878115
 20
304.3589928091249
 30
0.0
  0
ARC
  5
10D
330
1F
100
AcDbEntity
  8
0
  6
Continuous
 62
     7
370
    25
100
AcDbCircle
 10
647.3242863374
 20
303.4110637191
 30
0.0
 40
0.9935559865763847
100
AcDbArc
 50
344.6120536851
 51
72.5687674089
  0
SPLINE
  5
10E
330
1F
100
AcDbEntity
  8
0
  6
Continuous
 62
     7
370
    25
100
AcDbSpline
210
0.0
220
0.0
230
1.0
 70
     8
 71
     3
 72
    14
 73
    10
 74
     0
 42
0.000000001
 43
0.00000001
 40
0.0
 40
0.0
 40
0.0
 40
0.0
 40
0.2740395350480275
 40
0.5489324998059025
 40
0.8233845484047566
 40
0.8924297684826236
 40
0.9611485978935307
 40
0.995707997982121
 40
1.0
 40
1.0
 40
1.0
 40
1.0
 10
648.2822245835174
 20
303.1474203706464
 30
0.0
 10
648.0063631281896
 20
303.2429854793714
 30
0.0
 10
647.4537811138952
 20
303.4344133111894
 30
0.0
 10
646.6764680103182
 20
303.9125280671607
 30
0.0
 10
646.1757738647179
 20
304.5640848519695
 30
0.0
 10
645.8974776149881
 20
305.1873346394577
 30
0.0
 10
645.8206485018759
 20
305.5677796289839
 30
0.0
 10
645.8054538408039
 20
305.9124404232497
 30
0.0
 10
645.8273703122068
 20
306.0989799172843
 30
0.0
 10
645.829791474234
 20
306.1195873559197
 30
0.0
  0
ARC
  5
10F
330
1F
100
AcDbEntity
  8
0
  6
Continuous
 62
     7
370
    25
100
AcDbCircle
 10
651.0277714559
 20
305.5092416127
 30
0.0
 40
1.599838938931708
100
AcDbArc
 50
166.5323085293
 51
252.9991522984
  0
LINE
  5
110
330
1F
100
AcDbEntity
  8
0
  6
Continuous
 62
     7
370
    25
100
AcDbLine
 10
650.5600011824
 20
303.9793149472
 30
0.0
 11
647.6219168781
 21
304.3589928091
 31
0.0
  0
ARC
  5
111
330
1F
100
AcDbEntity
  8
0
  6
Continuous
 62
     7
370
    25
100
AcDbCircle
 10
595.1356662887
 20
232.6692470214
 30
0.0
 40
1.599815931923607
100
AcDbArc
 50
32.0003451115
 51
118.4684027806
  0
SPLINE
  5
112
330
1F
100
AcDbEntity
  8
0
  6
Continuous
 62
     7
370
    25
100
AcDbSpline
210
0.0
220
0.0
230
1.0
 70
     8
 71
     3
 72
    16
 73
    12
 74
     0
 42
0.000000001
 43
0.00000001
 40
0.0
 40
0.0
 40
0.0
 40
0.0
 40
0.2742392652530262
 40
0.5482577562528194
 40
0.8221006128365721
 40
0.9563124520644896
 40
0.9875092291244145
 40
0.994771025216671
 40
0.9985041953440612
 40
0.9997084266241261
 40
1.0
 40
1.0
 40
1.0
 40
1.0
 10
595.365213501345
 20
236.2567261696538
 30
0.0
 10
595.2555184556543
 20
236.4268531808763
 30
0.0
 10
595.0362166734425
 20
236.7669702438532
 30
0.0
 10
594.6048154917399
 20
237.2175731249809
 30
0.0
 10
594.0636209443803
 20
237.484651081511
 30
0.0
 10
593.5844968117611
 20
237.5786009644648
 30
0.0
 10
593.2347338283984
 20
237.5186806318142
 30
0.0
 10
593.0859972796699
 20
237.4623155199865
 30
0.0
 10
593.0291256854543
 20
237.4357893505171
 30
0.0
 10
593.0019231327008
 20
237.4217952633886
 30
0.0
 10
592.9939543550557
 20
237.417549566739
 30
0.0
 10
592.9924010216106
 20
237.4167219639501
 30
0.0
  0
LINE
  5
113
330
1F
100
AcDbEntity
  8
0
  6
Continuous
 62
     7
370
    25
100
AcDbLine
 10
595.3652135013
 20
236.2567261697
 30
0.0
 11
596.4923820375
 21
233.5170284749
 31
0.0
  0
SPLINE
  5
114
330
1F
100
AcDbEntity
  8
0
  6
Continuous
 62
     7
370
    25
100
AcDbSpline
210
0.0
220
0.0
230
1.0
 70
     8
 71
     3
 72
    14
 73
    10
 74
     0
 42
0.000000001
 43
0.00000001
 40
0.0
 40
0.0
 40
0.0
 40
0.0
 40
0.0042920388186928
 40
0.0388514873818803
 40
0.1075702621937735
 40
0.1766154412522882
 40
0.4510675043348312
 40
0.7259604428607273
 40
1.0
 40
1.0
 40
1.0
 40
1.0
 10
593.2007751344551
 20
237.5321165562352
 30
0.0
 10
593.2200536679416
 20
237.539789891748
 30
0.0
 10
593.3945627374378
 20
237.6092488389865
 30
0.0
 10
593.7314187599634
 20
237.6837619236736
 30
0.0
 10
594.1187787372475
 20
237.7080218767071
 30
0.0
 10
594.7928183482911
 20
237.600526358143
 30
0.0
 10
595.5517608596311
 20
237.2855034197615
 30
0.0
 10
596.2147723822235
 20
236.6584405114288
 30
0.0
 10
596.542699004999
 20
236.1742287512737
 30
0.0
 10
596.7064074157585
 20
235.9324992538175
 30
0.0
  0
ARC
  5
115
330
1F
100
AcDbEntity
  8
0
  6
Continuous
 62
     7
370
    25
100
AcDbCircle
 10
596.2038140004
 20
236.7895745329
 30
0.0
 40
0.9935684048976224
100
AcDbArc
 50
212.431955149
 51
300.3875821288
  0
SPLINE
  5
116
330
1F
100
AcDbEntity
  8
0
  6
Continuous
 62
     7
370
    25
100
AcDbSpline
210
0.0
220
0.0
230
1.0
 70
     8
 71
     3
 72
    16
 73
    12
 74
     0
 42
0.000000001
 43
0.00000001
 40
0.0
 40
0.0
 40
0.0
 40
0.0
 40
0.0002915247717506
 40
0.0044812402074548
 40
0.0052168724016812
 40
0.0124787966986339
 40
0.0436759870980768
 40
0.1778894878828779
 40
0.4517356017832257
 40
0.7257573854184235
 40
1.0
 40
1.0
 40
1.0
 40
1.0
 10
516.0376897930015
 20
227.2854448199948
 30
0.0
 10
516.0359750340604
 20
227.285839270077
 30
0.0
 10
516.0096162218513
 20
227.2919026504105
 30
0.0
 10
515.9813962442186
 20
227.2972673065491
 30
0.0
 10
515.9244930804025
 20
227.3063215871403
 30
0.0
 10
515.7767312774643
 20
227.321337682166
 30
0.0
 10
515.4247711834654
 20
227.2883321074472
 30
0.0
 10
514.9846257680055
 20
227.0739833123369
 30
0.0
 10
514.5320154490659
 20
226.6757004117191
 30
0.0
 10
514.2316224891969
 20
226.1288742853621
 30
0.0
 10
514.1078601272786
 20
225.7435733917908
 30
0.0
 10
514.0459540217031
 20
225.5508453489026
 30
0.0
  0
ARC
  5
117
330
1F
100
AcDbEntity
  8
0
  6
Continuous
 62
     7
370
    25
100
AcDbCircle
 10
513.0980193984
 20
225.8484852987
 30
0.0
 40
0.9935640843704606
100
AcDbArc
 50
254.6124017497
 51
342.5683453188
  0
SPLINE
  5
118
330
1F
100
AcDbEntity
  8
0
  6
Continuous
 62
     7
370
    25
100
AcDbSpline
210
0.0
220
0.0
230
1.0
 70
     8
 71
     3
 72
    14
 73
    10
 74
     0
 42
0.000000001
 43
0.00000001
 40
0.0
 40
0.0
 40
0.0
 40
0.0
 40
0.2740395320994567
 40
0.5489324878718858
 40
0.8233845769100313
 40
0.8924297546541967
 40
0.9611485459346544
 40
0.995707998122414
 40
1.0
 40
1.0
 40
1.0
 40
1.0
 10
512.8343797205795
 20
224.8905376435002
 30
0.0
 10
512.9299455600024
 20
225.1663996515307
 30
0.0
 10
513.1213748533896
 20
225.7189827668841
 30
0.0
 10
513.5994898416127
 20
226.4962875874787
 30
0.0
 10
514.2510444154042
 20
226.9970055046643
 30
0.0
 10
514.8742969290058
 20
227.2752844025421
 30
0.0
 10
515.2547377553836
 20
227.3521073607873
 30
0.0
 10
515.5994014271375
 20
227.3673160807654
 30
0.0
 10
515.7859411345263
 20
227.3453993866751
 30
0.0
 10
515.806548568498
 20
227.3429782033643
 30
0.0
  0
ARC
  5
119
330
1F
100
AcDbEntity
  8
0
  6
Continuous
 62
     7
370
    25
100
AcDbCircle
 10
515.1961927798
 20
222.1450077519
 30
0.0
 40
1.599824764681977
100
AcDbArc
 50
76.5318170197
 51
162.9993540017
  0
LINE
  5
11A
330
1F
100
AcDbEntity
  8
0
  6
Continuous
 62
     7
370
    25
100
AcDbLine
 10
513.6662780224
 20
222.6127684952
 30
0.0
 11
514.0459540217
 21
225.5508453489
 31
0.0
  0
SPLINE
  5
11B
330
1F
100
AcDbEntity
  8
0
  6
Continuous
 62
     7
370
    25
100
AcDbSpline
210
0.0
220
0.0
230
1.0
 70
     8
 71
     3
 72
    14
 73
    10
 74
     0
 42
0.000000001
 43
0.00000001
 40
0.0
 40
0.0
 40
0.0
 40
0.0
 40
0.0042919804862033
 40
0.0388514452154786
 40
0.107570260287016
 40
0.1766154508441301
 40
0.4510675361865991
 40
0.7259604614869241
 40
1.0
 40
1.0
 40
1.0
 40
1.0
 10
438.2052144883979
 20
361.7524235413155
 30
0.0
 10
438.1970091401067
 20
361.7333659131974
 30
0.0
 10
438.1227334902904
 20
361.5608543192733
 30
0.0
 10
437.9372134682063
 20
361.2699764635134
 30
0.0
 10
437.6804709124149
 20
360.9789128731178
 30
0.0
 10
437.1278358161873
 20
360.5783077678959
 30
0.0
 10
436.3684328954693
 20
360.26439854687
 30
0.0
 10
435.4562121635566
 20
360.2389884756618
 30
0.0
 10
434.8819459157552
 20
360.3494990658168
 30
0.0
 10
434.5952591775764
 20
360.4046684593638
 30
0.0
  0
ARC
  5
11C
330
1F
100
AcDbEntity
  8
0
  6
Continuous
 62
     7
370
    25
100
AcDbCircle
 10
435.5566831338
 20
360.1540195062
 30
0.0
 40
0.9935597221082333
100
AcDbArc
 50
77.4313735897
 51
165.3879031067
  0
SPLINE
  5
11D
330
1F
100
AcDbEntity
  8
0
  6
Continuous
 62
     7
370
    25
100
AcDbSpline
210
0.0
220
0.0
230
1.0
 70
     8
 71
     3
 72
    16
 73
    12
 74
     0
 42
0.000000001
 43
0.00000001
 40
0.0
 40
0.0
 40
0.0
 40
0.0
 40
0.2742393110806201
 40
0.5482577918323276
 40
0.822100627717426
 40
0.9563124579634283
 40
0.9875093047792951
 40
0.9947711918502296
 40
0.998504255855757
 40
0.9997085335208467
 40
1.0
 40
1.0
 40
1.0
 40
1.0
 10
435.7728904961456
 20
361.1237696275791
 30
0.0
 10
435.9707576796646
 20
361.0810391497419
 30
0.0
 10
436.3663327147856
 20
360.9956126026483
 30
0.0
 10
436.9899927905416
 20
360.9820301073031
 30
0.0
 10
437.5615395454234
 20
361.1758597585136
 30
0.0
 10
437.9667338569261
 20
361.4482292261116
 30
0.0
 10
438.1717108230736
 20
361.7379059929111
 30
0.0
 10
438.2370165412381
 20
361.8829455073355
 30
0.0
 10
438.2584856126275
 20
361.9419106217064
 30
0.0
 10
438.2678085016606
 20
361.971046281364
 30
0.0
 10
438.2704447098741
 20
361.9796813816018
 30
0.0
 10
438.2709584115852
 20
361.9813640505752
 30
0.0
  0
ARC
  5
11E
330
1F
100
AcDbEntity
  8
0
  6
Continuous
 62
     7
370
    25
100
AcDbCircle
 10
433.3984624353
 20
363.8228334596
 30
0.0
 40
1.599833512013132
100
AcDbArc
 50
257.0008719473
 51
343.4678946847
  0
LINE
  5
11F
330
1F
100
AcDbEntity
  8
0
  6
Continuous
 62
     7
370
    25
100
AcDbLine
 10
435.7728904961
 20
361.1237696276
 30
0.0
 11
433.0386019229
 21
362.2639981002
 31
0.0
  0
ARC
  5
120
330
1F
100
AcDbEntity
  8
0
  6
Continuous
 62
     7
370
    25
100
AcDbCircle
 10
567.663534484
 20
441.3407923332
 30
0.0
 40
1.59982207256971
100
AcDbArc
 50
256.5317902879
 51
342.999429082
  0
LINE
  5
121
330
1F
100
AcDbEntity
  8
0
  6
Continuous
 62
     7
370
    25
100
AcDbLine
 10
569.1934472798
 20
440.8730343819
 30
0.0
 11
568.8137731432
 21
437.9349575282
 31
0.0
  0
SPLINE
  5
122
330
1F
100
AcDbEntity
  8
0
  6
Continuous
 62
     7
370
    25
100
AcDbSpline
210
0.0
220
0.0
230
1.0
 70
     8
 71
     3
 72
    16
 73
    12
 74
     0
 42
0.000000001
 43
0.00000001
 40
0.0
 40
0.0
 40
0.0
 40
0.0
 40
0.0002915173705035
 40
0.0044813346756397
 40
0.0052169403079559
 40
0.0124788640938769
 40
0.0436760940982772
 40
0.177889539577641
 40
0.4517356342070606
 40
0.7257574047172541
 40
1.0
 40
1.0
 40
1.0
 40
1.0
 10
566.8220355092395
 20
436.2003655076703
 30
0.0
 10
566.8237496172073
 20
436.1999684444135
 30
0.0
 10
566.8500996472613
 20
436.1938646114301
 30
0.0
 10
566.8783337791881
 20
436.1885600624148
 30
0.0
 10
566.9352264354704
 20
436.179452122547
 30
0.0
 10
567.0830055188959
 20
436.1645213914662
 30
0.0
 10
567.4349380263261
 20
436.1973894804211
 30
0.0
 10
567.8751132979982
 20
436.4118883328239
 30
0.0
 10
568.327704532989
 20
436.8100790975122
 30
0.0
 10
568.6281064709416
 20
437.3569344343914
 30
0.0
 10
568.7518676366492
 20
437.7422314348159
 30
0.0
 10
568.8137731431831
 20
437.9349575281819
 30
0.0
  0
ARC
  5
123
330
1F
100
AcDbEntity
  8
0
  6
Continuous
 62
     7
370
    25
100
AcDbCircle
 10
569.7617058326
 20
437.6373203832
 30
0.0
 40
0.9935613990616017
100
AcDbArc
 50
74.6123548695
 51
162.5684662245
  0
SPLINE
  5
124
330
1F
100
AcDbEntity
  8
0
  6
Continuous
 62
     7
370
    25
100
AcDbSpline
210
0.0
220
0.0
230
1.0
 70
     8
 71
     3
 72
    14
 73
    10
 74
     0
 42
0.000000001
 43
0.00000001
 40
0.0
 40
0.0
 40
0.0
 40
0.0
 40
0.2740395356242392
 40
0.5489325009601206
 40
0.8233845501360538
 40
0.8924297703590992
 40
0.9611485999144987
 40
0.9957079979730963
 40
1.0
 40
1.0
 40
1.0
 40
1.0
 10
570.0253455816616
 20
438.5952652335843
 30
0.0
 10
569.9297804732093
 20
438.3194038647869
 30
0.0
 10
569.7383526419375
 20
437.7668220238226
 30
0.0
 10
569.2602378818614
 20
436.9895076178626
 30
0.0
 10
568.608681108751
 20
436.4888171839506
 30
0.0
 10
567.9854313059423
 20
436.2105160732725
 30
0.0
 10
567.6049863491143
 20
436.1336958628537
 30
0.0
 10
567.2603255184438
 20
436.1184868208958
 30
0.0
 10
567.073786034972
 20
436.1404034897491
 30
0.0
 10
567.0531785963882
 20
436.1428246737202
 30
0.0
  0
ARC
  5
125
330
1F
100
AcDbEntity
  8
0
  6
Continuous
 62
     7
370
    25
100
AcDbCircle
 10
431.8319724558
 20
357.9765753032
 30
0.0
 40
1.599820271106972
100
AcDbArc
 50
346.5316657154
 51
72.9995053061
  0
LINE
  5
126
330
1F
100
AcDbEntity
  8
0
  6
Continuous
 62
     7
370
    25
100
AcDbLine
 10
432.2997278451
 20
359.5064869986
 30
0.0
 11
435.2378046988
 21
359.126810068
 31
0.0
  0
SPLINE
  5
127
330
1F
100
AcDbEntity
  8
0
  6
Continuous
 62
     7
370
    25
100
AcDbSpline
210
0.0
220
0.0
230
1.0
 70
     8
 71
     3
 72
    16
 73
    12
 74
     0
 42
0.000000001
 43
0.00000001
 40
0.0
 40
0.0
 40
0.0
 40
0.0
 40
0.0002915634948559
 40
0.0044812127017803
 40
0.0052169183684332
 40
0.0124788707701794
 40
0.0436760621739491
 40
0.1778895164448853
 40
0.4517356452578472
 40
0.7257574106607294
 40
1.0
 40
1.0
 40
1.0
 40
1.0
 10
436.9724041699279
 20
357.1350752279839
 30
0.0
 10
436.9728012121803
 20
357.1367896560579
 30
0.0
 10
436.9789035906179
 20
357.1631397204432
 30
0.0
 10
436.9842245654016
 20
357.191367473144
 30
0.0
 10
436.9932832493306
 20
357.2482749030812
 30
0.0
 10
437.0083149062868
 20
357.3960297156448
 30
0.0
 10
436.9752581856761
 20
357.7480036929276
 30
0.0
 10
436.760985766867
 20
358.188131111186
 30
0.0
 10
436.3626451301524
 20
358.6407518622792
 30
0.0
 10
435.8158373114732
 20
358.9411435815427
 30
0.0
 10
435.4305339658078
 20
359.0649046234465
 30
0.0
 10
435.2378046988357
 20
359.1268100679597
 30
0.0
  0
ARC
  5
128
330
1F
100
AcDbEntity
  8
0
  6
Continuous
 62
     7
370
    25
100
AcDbCircle
 10
435.5354452749
 20
360.0747450326
 30
0.0
 40
0.9935645976739436
100
AcDbArc
 50
164.6124303127
 51
252.5683167558
  0
SPLINE
  5
129
330
1F
100
AcDbEntity
  8
0
  6
Continuous
 62
     7
370
    25
100
AcDbSpline
210
0.0
220
0.0
230
1.0
 70
     8
 71
     3
 72
    14
 73
    10
 74
     0
 42
0.000000001
 43
0.00000001
 40
0.0
 40
0.0
 40
0.0
 40
0.0
 40
0.2740395841686588
 40
0.548932480146031
 40
0.8233845539163088
 40
0.8924297299600948
 40
0.9611485633322069
 40
0.9957079614400552
 40
1.0
 40
1.0
 40
1.0
 40
1.0
 10
434.5774969934333
 20
360.3383843690833
 30
0.0
 10
434.8533631721779
 20
360.2428190480659
 30
0.0
 10
435.4059545291748
 20
360.0513908321708
 30
0.0
 10
436.1832412588142
 20
359.573273789766
 30
0.0
 10
436.6839712791824
 20
358.9217196057615
 30
0.0
 10
436.9622386474455
 20
358.2984689081233
 30
0.0
 10
437.0390823739646
 20
357.9180244446586
 30
0.0
 10
437.054274999182
 20
357.5733652035658
 30
0.0
 10
437.0323587132905
 20
357.3868242135122
 30
0.0
 10
437.0299375532974
 20
357.3662164524874
 30
0.0
  0
ARC
  5
12A
330
1F
100
AcDbEntity
  8
0
  6
Continuous
 62
     7
370
    25
100
AcDbCircle
 10
445.3824436783
 20
272.7954980096
 30
0.0
 40
1.599820228255689
100
AcDbArc
 50
31.5315991061
 51
117.9995383607
  0
LINE
  5
12B
330
1F
100
AcDbEntity
  8
0
  6
Continuous
 62
     7
370
    25
100
AcDbLine
 10
444.6313849567
 20
274.2080614806
 30
0.0
 11
446.9773939728
 21
276.0171295047
 31
0.0
  0
SPLINE
  5
12C
330
1F
100
AcDbEntity
  8
0
  6
Continuous
 62
     7
370
    25
100
AcDbSpline
210
0.0
220
0.0
230
1.0
 70
     8
 71
     3
 72
    16
 73
    12
 74
     0
 42
0.000000001
 43
0.00000001
 40
0.0
 40
0.0
 40
0.0
 40
0.0
 40
0.0002916841314831
 40
0.0044812686673402
 40
0.0052170019790349
 40
0.012479068586976
 40
0.0436761763934347
 40
0.1778895934771275
 40
0.4517356988550345
 40
0.725757461401886
 40
0.9999999999999999
 40
0.9999999999999999
 40
0.9999999999999999
 40
0.9999999999999999
 10
449.6123067020286
 20
275.8352980852803
 30
0.0
 10
449.6113748259988
 20
275.83679184786
 30
0.0
 10
449.597058014066
 20
275.8597411643374
 30
0.0
 10
449.5808469194301
 20
275.8834522915128
 30
0.0
 10
449.5470513717036
 20
275.930128256358
 30
0.0
 10
449.4531153701292
 20
276.0451759680631
 30
0.0
 10
449.1810271630639
 20
276.2707917066484
 30
0.0
 10
448.7180984960013
 20
276.4303647263644
 30
0.0
 10
448.1165024416129
 20
276.4688362373526
 30
0.0
 10
447.5173982657544
 20
276.2945611594421
 30
0.0
 10
447.1574437194756
 20
276.1096315455756
 30
0.0
 10
446.9773939727653
 20
276.0171295047482
 30
0.0
  0
SPLINE
  5
12D
330
1F
100
AcDbEntity
  8
0
  6
Continuous
 62
     7
370
    25
100
AcDbSpline
210
0.0
220
0.0
230
1.0
 70
     8
 71
     3
 72
    14
 73
    10
 74
     0
 42
0.000000001
 43
0.00000001
 40
0.0
 40
0.0
 40
0.0
 40
0.0
 40
0.2740395648554373
 40
0.5489325101298173
 40
0.8233845704220806
 40
0.8924297818730272
 40
0.961148491915387
 40
0.9957079811053843
 40
1.0
 40
1.0
 40
1.0
 40
1.0
 10
445.65377597798
 20
276.4069289804181
 30
0.0
 10
445.9164149067403
 20
276.5344203730535
 30
0.0
 10
446.4425106422167
 20
276.7898001763904
 30
0.0
 10
447.3302302854734
 20
277.0013508044207
 30
0.0
 10
448.1449936067402
 20
276.8946848935772
 30
0.0
 10
448.7824874925493
 20
276.6507642560189
 30
0.0
 10
449.1058154437604
 20
276.4360748225348
 30
0.0
 10
449.3602813417477
 20
276.2031118186675
 30
0.0
 10
449.4766908947502
 20
276.0557126326193
 30
0.0
 10
449.4895509361137
 20
276.0394290924748
 30
0.0
  0
ARC
  5
12E
330
1F
100
AcDbEntity
  8
0
  6
Continuous
 62
     7
370
    25
100
AcDbCircle
 10
446.5175632991
 20
276.8978745566
 30
0.0
 40
0.9935572931613814
100
AcDbArc
 50
209.6123389265
 51
297.568738457
  0
ARC
  5
12F
330
1F
100
AcDbEntity
  8
0
  6
Continuous
 62
     7
370
    25
100
AcDbCircle
 10
482.4824494046
 20
427.7903217297
 30
0.0
 40
1.599829048000273
100
AcDbArc
 50
301.5318960774
 51
27.9992413894
  0
LINE
  5
130
330
1F
100
AcDbEntity
  8
0
  6
Continuous
 62
     7
370
    25
100
AcDbLine
 10
483.8950245558
 20
428.5413772703
 30
0.0
 11
485.7040888547
 21
426.1953757048
 31
0.0
  0
SPLINE
  5
131
330
1F
100
AcDbEntity
  8
0
  6
Continuous
 62
     7
370
    25
100
AcDbSpline
210
0.0
220
0.0
230
1.0
 70
     8
 71
     3
 72
    16
 73
    12
 74
     0
 42
0.000000001
 43
0.00000001
 40
0.0
 40
0.0
 40
0.0
 40
0.0
 40
0.0002915235747663
 40
0.0044812502402979
 40
0.005217037688663
 40
0.0124789497199967
 40
0.0436761105448709
 40
0.177889601439313
 40
0.4517357040239453
 40
0.7257574196400657
 40
1.0
 40
1.0
 40
1.0
 40
1.0
 10
485.5222611605037
 20
423.560455524989
 30
0.0
 10
485.5237536473787
 20
423.5613874398865
 30
0.0
 10
485.5466958988661
 20
423.5757126753725
 30
0.0
 10
485.5704237843694
 20
423.5919011789303
 30
0.0
 10
485.6170711949227
 20
423.6257427019185
 30
0.0
 10
485.732168827787
 20
423.7195864896635
 30
0.0
 10
485.9577004389173
 20
423.991845238761
 30
0.0
 10
486.117374325422
 20
424.4545836835699
 30
0.0
 10
486.1557785113157
 20
425.056300039134
 30
0.0
 10
485.9815247432384
 20
425.6553521241501
 30
0.0
 10
485.7965923171463
 20
426.0153195077572
 30
0.0
 10
485.7040888546813
 20
426.1953757048329
 30
0.0
  0
ARC
  5
132
330
1F
100
AcDbEntity
  8
0
  6
Continuous
 62
     7
370
    25
100
AcDbCircle
 10
486.5848325642
 20
426.6552053921
 30
0.0
 40
0.9935556467081372
100
AcDbArc
 50
119.6120567507
 51
207.5687238566
  0
SPLINE
  5
133
330
1F
100
AcDbEntity
  8
0
  6
Continuous
 62
     7
370
    25
100
AcDbSpline
210
0.0
220
0.0
230
1.0
 70
     8
 71
     3
 72
    14
 73
    10
 74
     0
 42
0.000000001
 43
0.00000001
 40
0.0
 40
0.0
 40
0.0
 40
0.0
 40
0.2740395572228884
 40
0.548932515070612
 40
0.82338458109853
 40
0.89242981487206
 40
0.9611486461182187
 40
0.9957079810156872
 40
1.0
 40
1.0
 40
1.0
 40
1.0
 10
486.0938920556415
 20
427.5189936996182
 30
0.0
 10
486.221381663343
 20
427.2563545835295
 30
0.0
 10
486.4767579006651
 20
426.7302584534249
 30
0.0
 10
486.688312975333
 20
425.8425415898107
 30
0.0
 10
486.5816544572009
 20
425.0277704665374
 30
0.0
 10
486.3377218342357
 20
424.39028651324
 30
0.0
 10
486.1230359744907
 20
424.0669404533094
 30
0.0
 10
485.8900705529615
 20
423.8124880816677
 30
0.0
 10
485.742671979814
 20
423.6960788037675
 30
0.0
 10
485.7263884424079
 20
423.6832187414845
 30
0.0
  0
ARC
  5
134
330
1F
100
AcDbEntity
  8
0
  6
Continuous
 62
     7
370
    25
100
AcDbCircle
 10
442.356196624
 20
278.0370968674
 30
0.0
 40
1.599825833461245
100
AcDbArc
 50
302.0008498072
 51
28.4683244133
  0
SPLINE
  5
135
330
1F
100
AcDbEntity
  8
0
  6
Continuous
 62
     7
370
    25
100
AcDbSpline
210
0.0
220
0.0
230
1.0
 70
     8
 71
     3
 72
    16
 73
    12
 74
     0
 42
0.000000001
 43
0.00000001
 40
0.0
 40
0.0
 40
0.0
 40
0.0
 40
0.2742392966235414
 40
0.5482577580391158
 40
0.8221006214000113
 40
0.9563124218266434
 40
0.9875093485821494
 40
0.994771029101995
 40
0.9985041992963217
 40
0.9997085937955216
 40
1.0
 40
1.0
 40
1.0
 40
1.0
 10
445.9436929701675
 20
277.8075487256726
 30
0.0
 10
446.1138195646428
 20
277.9172482971561
 30
0.0
 10
446.4539357566626
 20
278.1365591029372
 30
0.0
 10
446.9045448410399
 20
278.5679370771637
 30
0.0
 10
447.1716035269743
 20
279.1091605345061
 30
0.0
 10
447.2655669280574
 20
279.5882520607935
 30
0.0
 10
447.2056363399595
 20
279.9380360418728
 30
0.0
 10
447.1492776352597
 20
280.086771221085
 30
0.0
 10
447.1227442101485
 20
280.1436377742788
 30
0.0
 10
447.1087573890171
 20
280.1708461920617
 30
0.0
 10
447.1045089739496
 20
280.1788128890817
 30
0.0
 10
447.1036813138832
 20
280.1803649306973
 30
0.0
  0
LINE
  5
136
330
1F
100
AcDbEntity
  8
0
  6
Continuous
 62
     7
370
    25
100
AcDbLine
 10
445.9436929702
 20
277.8075487257
 30
0.0
 11
443.2039952754
 21
276.6803801895
 31
0.0
  0
SPLINE
  5
137
330
1F
100
AcDbEntity
  8
0
  6
Continuous
 62
     7
370
    25
100
AcDbSpline
210
0.0
220
0.0
230
1.0
 70
     8
 71
     3
 72
    14
 73
    10
 74
     0
 42
0.000000001
 43
0.00000001
 40
0.0
 40
0.0
 40
0.0
 40
0.0
 40
0.0042922057718901
 40
0.0388514389506065
 40
0.1075703548301002
 40
0.1766154765376105
 40
0.4510675317394555
 40
0.7259604990947642
 40
1.0
 40
1.0
 40
1.0
 40
1.0
 10
447.2190833567489
 20
279.9719945431431
 30
0.0
 10
447.2267540537272
 20
279.9527133868524
 30
0.0
 10
447.2961863296247
 20
279.7781875820938
 30
0.0
 10
447.370740672927
 20
279.4413675517379
 30
0.0
 10
447.3949750188063
 20
279.0539749664262
 30
0.0
 10
447.2874925834535
 20
278.3799627512354
 30
0.0
 10
446.9724730947199
 20
277.6209944359272
 30
0.0
 10
446.3453974031977
 20
276.957989799942
 30
0.0
 10
445.8611872576316
 20
276.6300681597568
 30
0.0
 10
445.6194586037506
 20
276.4663622618397
 30
0.0
  0
ARC
  5
138
330
1F
100
AcDbEntity
  8
0
  6
Continuous
 62
     7
370
    25
100
AcDbCircle
 10
446.4765304844
 20
276.9689488801
 30
0.0
 40
0.9935620350619543
100
AcDbArc
 50
122.4314473096
 51
210.3873431433
  0
ARC
  5
139
330
1F
100
AcDbEntity
  8
0
  6
Continuous
 62
     7
370
    25
100
AcDbCircle
 10
509.3499472712
 20
223.7115067496
 30
0.0
 40
1.59981812150839
100
AcDbArc
 50
347.0006100232
 51
73.4683527633
  0
SPLINE
  5
13A
330
1F
100
AcDbEntity
  8
0
  6
Continuous
 62
     7
370
    25
100
AcDbSpline
210
0.0
220
0.0
230
1.0
 70
     8
 71
     3
 72
    16
 73
    12
 74
     0
 42
0.000000001
 43
0.00000001
 40
0.0
 40
0.0
 40
0.0
 40
0.0
 40
0.2742392542812884
 40
0.5482577721212026
 40
0.8221005993985397
 40
0.9563124174041735
 40
0.9875092629626113
 40
0.9947710794986535
 40
0.9985042528630452
 40
0.9997084430049333
 40
1.0
 40
1.0
 40
1.0
 40
1.0
 10
512.0489953934062
 20
226.0859311462125
 30
0.0
 10
512.0917259993765
 20
226.2837952413299
 30
0.0
 10
512.1771528172553
 20
226.6793641698414
 30
0.0
 10
512.1907333757176
 20
227.303025975451
 30
0.0
 10
511.9969098104589
 20
227.8746111626334
 30
0.0
 10
511.7245282029626
 20
228.2797373731341
 30
0.0
 10
511.434863327564
 20
228.4847716938058
 30
0.0
 10
511.2898169976441
 20
228.5500443535557
 30
0.0
 10
511.2308536745418
 20
228.5715252786796
 30
0.0
 10
511.2017190476054
 20
228.5808500749624
 30
0.0
 10
511.1930833447218
 20
228.5834853778977
 30
0.0
 10
511.1914000390876
 20
228.5839990616521
 30
0.0
  0
LINE
  5
13B
330
1F
100
AcDbEntity
  8
0
  6
Continuous
 62
     7
370
    25
100
AcDbLine
 10
512.0489953934
 20
226.0859311462
 30
0.0
 11
510.9087659894
 21
223.3516425729
 31
0.0
  0
SPLINE
  5
13C
330
1F
100
AcDbEntity
  8
0
  6
Continuous
 62
     7
370
    25
100
AcDbSpline
210
0.0
220
0.0
230
1.0
 70
     8
 71
     3
 72
    14
 73
    10
 74
     0
 42
0.000000001
 43
0.00000001
 40
0.0
 40
0.0
 40
0.0
 40
0.0
 40
0.0042919466438933
 40
0.0388514122184459
 40
0.1075702289707517
 40
0.1766154294433321
 40
0.4510675214985245
 40
0.7259604535223552
 40
1.0
 40
1.0
 40
1.0
 40
1.0
 10
511.4203414796698
 20
228.5182551384648
 30
0.0
 10
511.4393987834749
 20
228.510049786723
 30
0.0
 10
511.6119086554115
 20
228.4357735830867
 30
0.0
 10
511.9027887195968
 20
228.2502545558818
 30
0.0
 10
512.1938505995973
 20
227.9935113975817
 30
0.0
 10
512.5944591175112
 20
227.4408767042468
 30
0.0
 10
512.9083656760095
 20
226.6814734568148
 30
0.0
 10
512.9337769777794
 20
225.769252833356
 30
0.0
 10
512.8232654780522
 20
225.1949865728338
 30
0.0
 10
512.768095630299
 20
224.9082998276433
 30
0.0
  0
ARC
  5
13D
330
1F
100
AcDbEntity
  8
0
  6
Continuous
 62
     7
370
    25
100
AcDbCircle
 10
513.0187452366
 20
225.8697234159
 30
0.0
 40
0.9935595307381558
100
AcDbArc
 50
167.4313493832
 51
255.3878613026
  0
ARC
  5
13E
330
1F
100
AcDbEntity
  8
0
  6
Continuous
 62
     7
370
    25
100
AcDbCircle
 10
637.4772864387
 20
390.6903142798
 30
0.0
 40
1.599828027481042
100
AcDbArc
 50
211.5319797403
 51
297.9993456574
  0
LINE
  5
13F
330
1F
100
AcDbEntity
  8
0
  6
Continuous
 62
     7
370
    25
100
AcDbLine
 10
638.2283440708
 20
389.2777413965
 30
0.0
 11
635.8823350548
 21
387.4686770976
 31
0.0
  0
SPLINE
  5
140
330
1F
100
AcDbEntity
  8
0
  6
Continuous
 62
     7
370
    25
100
AcDbSpline
210
0.0
220
0.0
230
1.0
 70
     8
 71
     3
 72
    16
 73
    12
 74
     0
 42
0.000000001
 43
0.00000001
 40
0.0
 40
0.0
 40
0.0
 40
0.0
 40
0.0002915236262204
 40
0.0044810599532523
 40
0.0052168475314843
 40
0.0124787608445495
 40
0.0436759271757397
 40
0.1778894417589365
 40
0.451735592677556
 40
0.725757403320988
 40
1.0
 40
1.0
 40
1.0
 40
1.0
 10
633.2474223255027
 20
387.6505010665139
 30
0.0
 10
633.2483542481091
 20
387.6490085829576
 30
0.0
 10
633.2626789912694
 20
387.6260673607246
 30
0.0
 10
633.2788606993014
 20
387.6023375380472
 30
0.0
 10
633.3127024811596
 20
387.55569123862
 30
0.0
 10
633.4065450047457
 20
387.4405929973975
 30
0.0
 10
633.6788061007732
 20
387.2150625249192
 30
0.0
 10
634.1415421619386
 20
387.0553872424162
 30
0.0
 10
634.7432566163549
 20
387.0169842146259
 30
0.0
 10
635.3423232576142
 20
387.1912363930279
 30
0.0
 10
635.7022828038214
 20
387.3761720382369
 30
0.0
 10
635.882335054766
 20
387.4686770976265
 30
0.0
  0
ARC
  5
141
330
1F
100
AcDbEntity
  8
0
  6
Continuous
 62
     7
370
    25
100
AcDbCircle
 10
636.3421630678
 20
386.5879277032
 30
0.0
 40
0.993559911295997
100
AcDbArc
 50
29.6122940592
 51
117.5684865481
  0
SPLINE
  5
142
330
1F
100
AcDbEntity
  8
0
  6
Continuous
 62
     7
370
    25
100
AcDbSpline
210
0.0
220
0.0
230
1.0
 70
     8
 71
     3
 72
    14
 73
    10
 74
     0
 42
0.000000001
 43
0.00000001
 40
0.0
 40
0.0
 40
0.0
 40
0.0
 40
0.2740395412972107
 40
0.5489324831696617
 40
0.8233845332479292
 40
0.8924297421292923
 40
0.9611485693818891
 40
0.995707981265116
 40
1.0
 40
1.0
 40
1.0
 40
1.0
 10
637.2059530495513
 20
387.0788738966664
 30
0.0
 10
636.9433139316698
 20
386.9513844438852
 30
0.0
 10
636.4172177979742
 20
386.6960085168864
 30
0.0
 10
635.5295009613429
 20
386.4844511104865
 30
0.0
 10
634.7147297886805
 20
386.5911162702681
 30
0.0
 10
634.0772459741188
 20
386.8350401675343
 30
0.0
 10
633.7538991101666
 20
387.0497237258031
 30
0.0
 10
633.4994476835291
 20
387.2826951952242
 30
0.0
 10
633.3830381552168
 20
387.4300939820019
 30
0.0
 10
633.3701780914176
 20
387.4463775098999
 30
0.0
  0
ELLIPSE
  5
143
330
1F
100
AcDbEntity
  8
0
  6
Continuous
 62
     7
370
    25
100
AcDbEllipse
 10
648.8341921012
 20
396.7964906228
 30
0.0
 11
-1.303109082004881
 21
2.251700961386406
 31
0.0
210
0.0
220
0.0
230
1.0
 40
0.1703010238
 41
3.141417540995763
 42
3.503811484926034
  0
LINE
  5
144
330
1F
100
AcDbEntity
  8
0
  6
Continuous
 62
     7
370
    25
100
AcDbLine
 10
650.3919086336
 20
394.4174387396
 30
0.0
 11
650.1886269926
 21
394.7695345522
 31
0.0
  0
ELLIPSE
  5
145
330
1F
100
AcDbEntity
  8
0
  6
Continuous
 62
     7
370
    25
100
AcDbEllipse
 10
651.4700881416
 20
392.2309847574
 30
0.0
 11
-1.298475693284445
 21
2.254376049611438
 31
0.0
210
0.0
220
0.0
230
1.0
 40
0.1703010238
 41
5.920966475843644
 42
6.283360419773345
  0
LINE
  5
146
330
1F
100
AcDbEntity
  8
0
  6
Continuous
 62
     7
370
    25
100
AcDbLine
 10
637.2402629732
 20
387.0194443405
 30
0.0
 11
650.1715428113
 21
394.4853209794
 31
0.0
  0
LINE
  5
147
330
1F
100
AcDbEntity
  8
0
  6
Continuous
 62
     7
370
    25
100
AcDbLine
 10
650.1372328876
 20
394.5447505356
 30
0.0
 11
637.2059530496
 21
387.0788738967
 31
0.0
  0
ELLIPSE
  5
148
330
1F
100
AcDbEntity
  8
0
  6
Continuous
 62
     7
370
    25
100
AcDbEllipse
 10
476.3762741233
 20
439.1472308233
 30
0.0
 11
2.251700961386406
 21
1.303109082004881
 31
0.0
210
0.0
220
0.0
230
1.0
 40
0.1703010238
 41
6.283010194585573
 42
6.645404138515735
  0
LINE
  5
149
330
1F
100
AcDbEntity
  8
0
  6
Continuous
 62
     7
370
    25
100
AcDbLine
 10
478.7553272127
 20
440.7049492837
 30
0.0
 11
478.4032314001
 21
440.5016676427
 31
0.0
  0
ELLIPSE
  5
14A
330
1F
100
AcDbEntity
  8
0
  6
Continuous
 62
     7
370
    25
100
AcDbEllipse
 10
480.9417799887
 20
441.7831268637
 30
0.0
 11
2.254376049611324
 21
1.298475693284502
 31
0.0
210
0.0
220
0.0
230
1.0
 40
0.1703010238
 41
2.779373822253413
 42
3.141767766183793
  0
LINE
  5
14B
330
1F
100
AcDbEntity
  8
0
  6
Continuous
 62
     7
370
    25
100
AcDbLine
 10
486.1533216118
 20
427.5533036233
 30
0.0
 11
478.6874412476
 21
440.4845834614
 31
0.0
  0
LINE
  5
14C
330
1F
100
AcDbEntity
  8
0
  6
Continuous
 62
     7
370
    25
100
AcDbLine
 10
478.6280154168
 20
440.4502735377
 30
0.0
 11
486.0938920556
 21
427.5189936996
 31
0.0
  0
LINE
  5
14D
330
1F
100
AcDbEntity
  8
0
  6
Continuous
 62
     7
370
    25
100
AcDbLine
 10
420.1545289635
 20
364.2030079753
 30
0.0
 11
434.5774969934
 21
360.3383843691
 31
0.0
  0
ELLIPSE
  5
14E
330
1F
100
AcDbEntity
  8
0
  6
Continuous
 62
     7
370
    25
100
AcDbEllipse
 10
419.4836997405
 20
361.6893973181
 30
0.0
 11
0.6707557504891498
 21
2.513630287512058
 31
0.0
210
0.0
220
0.0
230
1.0
 40
0.1703010238
 41
6.283010194585041
 42
6.645404138515465
  0
LINE
  5
14F
330
1F
100
AcDbEntity
  8
0
  6
Continuous
 62
     7
370
    25
100
AcDbLine
 10
420.0644737958
 20
364.4731138737
 30
0.0
 11
419.9592417954
 21
364.0804030836
 31
0.0
  0
ELLIPSE
  5
150
330
1F
100
AcDbEntity
  8
0
  6
Continuous
 62
     7
370
    25
100
AcDbEllipse
 10
420.8481399328
 20
366.7815574397
 30
0.0
 11
0.6759236240974928
 21
2.512245559952135
 31
0.0
210
0.0
220
0.0
230
1.0
 40
0.1703010238
 41
2.779373822253922
 42
3.141767766184515
  0
LINE
  5
151
330
1F
100
AcDbEntity
  8
0
  6
Continuous
 62
     7
370
    25
100
AcDbLine
 10
434.5952591776
 20
360.4046684594
 30
0.0
 11
420.1722911476
 21
364.2692920656
 31
0.0
  0
LINE
  5
152
330
1F
100
AcDbEntity
  8
0
  6
Continuous
 62
     7
370
    25
100
AcDbLine
 10
662.7052000641
 20
299.2827967644
 30
0.0
 11
648.2822245835
 21
303.1474203706
 31
0.0
  0
ELLIPSE
  5
153
330
1F
100
AcDbEntity
  8
0
  6
Continuous
 62
     7
370
    25
100
AcDbEllipse
 10
663.3760262835
 20
301.7964061501
 30
0.0
 11
0.6707557504893202
 21
2.513630287512001
 31
0.0
210
0.0
220
0.0
230
1.0
 40
0.1703010238
 41
3.14141754099598
 42
3.503811484926573
  0
LINE
  5
154
330
1F
100
AcDbEntity
  8
0
  6
Continuous
 62
     7
370
    25
100
AcDbLine
 10
662.7952626823
 20
299.0126908661
 30
0.0
 11
662.9004797815
 21
299.4053997935
 31
0.0
  0
ELLIPSE
  5
155
330
1F
100
AcDbEntity
  8
0
  6
Continuous
 62
     7
370
    25
100
AcDbEllipse
 10
662.0115860912
 20
296.7042460285
 30
0.0
 11
0.6759236240973223
 21
2.512245559952078
 31
0.0
210
0.0
220
0.0
230
1.0
 40
0.1703010238
 41
5.920966475843173
 42
6.28336041977321
  0
LINE
  5
156
330
1F
100
AcDbEntity
  8
0
  6
Continuous
 62
     7
370
    25
100
AcDbLine
 10
648.2644623994
 20
303.0811362804
 30
0.0
 11
662.6874378799
 21
299.2165126742
 31
0.0
  0
ELLIPSE
  5
157
330
1F
100
AcDbEntity
  8
0
  6
Continuous
 62
     7
370
    25
100
AcDbEllipse
 10
571.376358596
 20
453.6890650056
 30
0.0
 11
2.513630287512114
 21
-0.6707557504890929
 31
0.0
210
0.0
220
0.0
230
1.0
 40
0.1703010238
 41
6.283010194585506
 42
6.645404138515538
  0
LINE
  5
158
330
1F
100
AcDbEntity
  8
0
  6
Continuous
 62
     7
370
    25
100
AcDbLine
 10
574.1600750862
 20
453.1082958818
 30
0.0
 11
573.7673624336
 21
453.2135204316
 31
0.0
  0
ELLIPSE
  5
159
330
1F
100
AcDbEntity
  8
0
  6
Continuous
 62
     7
370
    25
100
AcDbEllipse
 10
576.4685187176
 20
452.3246248133
 30
0.0
 11
2.512245559952021
 21
-0.6759236240973793
 31
0.0
210
0.0
220
0.0
230
1.0
 40
0.1703010238
 41
2.779373822253681
 42
3.141767766183939
  0
LINE
  5
15A
330
1F
100
AcDbEntity
  8
0
  6
Continuous
 62
     7
370
    25
100
AcDbLine
 10
570.0916296719
 20
438.5775030494
 30
0.0
 11
573.9562532781
 21
453.0004710794
 31
0.0
  0
LINE
  5
15B
330
1F
100
AcDbEntity
  8
0
  6
Continuous
 62
     7
370
    25
100
AcDbLine
 10
573.8899691879
 20
453.0182332636
 30
0.0
 11
570.0253455817
 21
438.5952652336
 31
0.0
  0
LINE
  5
15C
330
1F
100
AcDbEntity
  8
0
  6
Continuous
 62
     7
370
    25
100
AcDbLine
 10
445.6194586038
 20
276.4663622618
 30
0.0
 11
432.6881787657
 21
269.0004781724
 31
0.0
  0
LINE
  5
15D
330
1F
100
AcDbEntity
  8
0
  6
Continuous
 62
     7
370
    25
100
AcDbLine
 10
432.7224886893
 20
268.9410523415
 30
0.0
 11
445.653775978
 21
276.4069289804
 31
0.0
  0
ELLIPSE
  5
15E
330
1F
100
AcDbEntity
  8
0
  6
Continuous
 62
     7
370
    25
100
AcDbEllipse
 10
434.0255339228
 20
266.6893128454
 30
0.0
 11
-1.303109082004881
 21
2.251700961386406
 31
0.0
210
0.0
220
0.0
230
1.0
 40
0.1703010238
 41
6.283010194585746
 42
6.823989235061942
  0
LINE
  5
15F
330
1F
100
AcDbEntity
  8
0
  6
Continuous
 62
     7
370
    25
100
AcDbLine
 10
432.3051593183
 20
269.2083121181
 30
0.0
 11
432.7109700917
 21
268.5054317952
 31
0.0
  0
ELLIPSE
  5
160
330
1F
100
AcDbEntity
  8
0
  6
Continuous
 62
     7
370
    25
100
AcDbEllipse
 10
431.3896378824
 20
271.2548187108
 30
0.0
 11
-1.298475693284445
 21
2.254376049611438
 31
0.0
210
0.0
220
0.0
230
1.0
 40
0.1703010238
 41
2.600788725707376
 42
3.141767766184067
  0
LINE
  5
161
330
1F
100
AcDbEntity
  8
0
  6
Continuous
 62
     7
370
    25
100
AcDbLine
 10
508.969757977
 20
210.4675696135
 30
0.0
 11
512.8343797206
 21
224.8905376435
 31
0.0
  0
ELLIPSE
  5
162
330
1F
100
AcDbEntity
  8
0
  6
Continuous
 62
     7
370
    25
100
AcDbEllipse
 10
511.483367428
 20
209.7967384626
 30
0.0
 11
2.513630287512058
 21
-0.6707557504891498
 31
0.0
210
0.0
220
0.0
230
1.0
 40
0.1703010238
 41
3.14141754099557
 42
3.503811484925816
  0
LINE
  5
163
330
1F
100
AcDbEntity
  8
0
  6
Continuous
 62
     7
370
    25
100
AcDbLine
 10
508.699650216
 20
210.3775069953
 30
0.0
 11
509.092361006
 21
210.2722898961
 31
0.0
  0
ELLIPSE
  5
164
330
1F
100
AcDbEntity
  8
0
  6
Continuous
 62
     7
370
    25
100
AcDbEllipse
 10
506.3912073064
 20
211.1611786549
 30
0.0
 11
2.512245559952134
 21
-0.6759236240974077
 31
0.0
210
0.0
220
0.0
230
1.0
 40
0.1703010238
 41
5.920966475843549
 42
6.283360419773737
  0
LINE
  5
165
330
1F
100
AcDbEntity
  8
0
  6
Continuous
 62
     7
370
    25
100
AcDbLine
 10
512.7680956303
 20
224.9082998276
 30
0.0
 11
508.9034738867
 21
210.4853317977
 31
0.0
  0
LINE
  5
166
330
1F
100
AcDbEntity
  8
0
  6
Continuous
 62
     7
370
    25
100
AcDbLine
 10
604.2317098855
 20
223.0355293394
 30
0.0
 11
596.7658332466
 21
235.9668091775
 31
0.0
  0
ELLIPSE
  5
167
330
1F
100
AcDbEntity
  8
0
  6
Continuous
 62
     7
370
    25
100
AcDbEllipse
 10
606.4834519007
 20
224.3385726449
 30
0.0
 11
2.251700961386405
 21
1.303109082004909
 31
0.0
210
0.0
220
0.0
230
1.0
 40
0.1703010238
 41
3.141417540995643
 42
3.503811484925957
  0
LINE
  5
168
330
1F
100
AcDbEntity
  8
0
  6
Continuous
 62
     7
370
    25
100
AcDbLine
 10
604.1044018148
 20
222.7808535934
 30
0.0
 11
604.4564939021
 21
222.9841352344
 31
0.0
  0
ELLIPSE
  5
169
330
1F
100
AcDbEntity
  8
0
  6
Continuous
 62
     7
370
    25
100
AcDbEllipse
 10
601.9179460353
 20
221.7026766045
 30
0.0
 11
2.254376049611437
 21
1.298475693284473
 31
0.0
210
0.0
220
0.0
230
1.0
 40
0.1703010238
 41
5.920966475843634
 42
6.283360419773742
  0
LINE
  5
16A
330
1F
100
AcDbEntity
  8
0
  6
Continuous
 62
     7
370
    25
100
AcDbLine
 10
596.7064074158
 20
235.9324992538
 30
0.0
 11
604.1722840546
 21
223.0012194157
 31
0.0
  0
ARC
  5
16B
330
1F
100
AcDbEntity
  8
0
  6
Continuous
 62
     7
370
    25
100
AcDbCircle
 10
649.3144847501
 20
393.982725731
 30
0.0
 40
0.9935544796131741
100
AcDbArc
 50
302.4312890032
 51
30.3881755781
  0
LINE
  5
16C
330
1F
100
AcDbEntity
  8
0
  6
Continuous
 62
     7
370
    25
100
AcDbLine
 10
649.8473158954
 20
393.1441307903
 30
0.0
 11
636.9160360574
 21
385.6782541514
 31
0.0
  0
ARC
  5
16D
330
1F
100
AcDbEntity
  8
0
  6
Continuous
 62
     7
370
    25
100
AcDbCircle
 10
661.7260054257
 20
299.4671745598
 30
0.0
 40
0.9935712077524578
100
AcDbArc
 50
257.4315831384
 51
345.3873050834
  0
LINE
  5
16E
330
1F
100
AcDbEntity
  8
0
  6
Continuous
 62
     7
370
    25
100
AcDbLine
 10
661.5097991108
 20
298.4974124373
 30
0.0
 11
647.0868385314
 21
302.3620323182
 31
0.0
  0
ARC
  5
16F
330
1F
100
AcDbEntity
  8
0
  6
Continuous
 62
     7
370
    25
100
AcDbCircle
 10
573.7056061369
 20
452.0390503644
 30
0.0
 40
0.9935561286164101
100
AcDbArc
 50
347.4315760903
 51
75.3879570626
  0
LINE
  5
170
330
1F
100
AcDbEntity
  8
0
  6
Continuous
 62
     7
370
    25
100
AcDbLine
 10
574.675353515
 20
451.8228472114
 30
0.0
 11
570.8107299088
 21
437.3998717309
 31
0.0
  0
ARC
  5
171
330
1F
100
AcDbEntity
  8
0
  6
Continuous
 62
     7
370
    25
100
AcDbCircle
 10
479.1900356156
 20
439.6275121227
 30
0.0
 40
0.9935654876440042
100
AcDbArc
 50
32.4317928179
 51
120.3877444599
  0
LINE
  5
172
330
1F
100
AcDbEntity
  8
0
  6
Continuous
 62
     7
370
    25
100
AcDbLine
 10
480.028635162
 20
440.1603565455
 30
0.0
 11
487.4945118009
 21
427.2290767074
 31
0.0
  0
LINE
  5
173
330
1F
100
AcDbEntity
  8
0
  6
Continuous
 62
     7
370
    25
100
AcDbLine
 10
597.1556401728
 20
237.2904346228
 30
0.0
 11
604.6215168117
 21
224.3591473342
 31
0.0
  0
ARC
  5
174
330
1F
100
AcDbEntity
  8
0
  6
Continuous
 62
     7
370
    25
100
AcDbCircle
 10
603.7407732784
 20
223.8993189767
 30
0.0
 40
0.9935548750711329
100
AcDbArc
 50
299.6118232548
 51
27.5686605767
  0
ARC
  5
175
330
1F
100
AcDbEntity
  8
0
  6
Continuous
 62
     7
370
    25
100
AcDbCircle
 10
421.1337147358
 20
364.0186424592
 30
0.0
 40
0.9935595307380518
100
AcDbArc
 50
77.4313493832
 51
165.3878613026
  0
LINE
  5
176
330
1F
100
AcDbEntity
  8
0
  6
Continuous
 62
     7
370
    25
100
AcDbLine
 10
421.3499224662
 20
364.9883923025
 30
0.0
 11
435.7728904961
 21
361.1237696276
 31
0.0
  0
LINE
  5
177
330
1F
100
AcDbEntity
  8
0
  6
Continuous
 62
     7
370
    25
100
AcDbLine
 10
647.6219168781
 20
304.3589928091
 30
0.0
 11
662.0448849081
 21
300.4943692029
 31
0.0
  0
ARC
  5
178
330
1F
100
AcDbEntity
  8
0
  6
Continuous
 62
     7
370
    25
100
AcDbCircle
 10
661.7472498199
 20
299.5464317436
 30
0.0
 40
0.9935653337826581
100
AcDbArc
 50
344.6127026098
 51
72.5686617891
  0
ARC
  5
179
330
1F
100
AcDbEntity
  8
0
  6
Continuous
 62
     7
370
    25
100
AcDbCircle
 10
603.6696902581
 20
223.8582931179
 30
0.0
 40
0.9935672374758576
100
AcDbArc
 50
212.4318901878
 51
300.38764709
  0
LINE
  5
17A
330
1F
100
AcDbEntity
  8
0
  6
Continuous
 62
     7
370
    25
100
AcDbLine
 10
602.8310901402
 20
223.3254463316
 30
0.0
 11
595.3652135013
 21
236.2567261697
 31
0.0
  0
LINE
  5
17B
330
1F
100
AcDbEntity
  8
0
  6
Continuous
 62
     7
370
    25
100
AcDbLine
 10
433.0124131321
 20
270.3416720868
 30
0.0
 11
445.9436929702
 21
277.8075487257
 31
0.0
  0
ARC
  5
17C
330
1F
100
AcDbEntity
  8
0
  6
Continuous
 62
     7
370
    25
100
AcDbCircle
 10
433.5452448177
 20
269.5030708583
 30
0.0
 40
0.9935600764575104
100
AcDbArc
 50
122.4311208441
 51
210.3878150051
  0
LINE
  5
17D
330
1F
100
AcDbEntity
  8
0
  6
Continuous
 62
     7
370
    25
100
AcDbLine
 10
568.8137731432
 20
437.9349575282
 30
0.0
 11
572.6783930241
 21
452.3579255582
 31
0.0
  0
ARC
  5
17E
330
1F
100
AcDbEntity
  8
0
  6
Continuous
 62
     7
370
    25
100
AcDbCircle
 10
573.6263273473
 20
452.0602869028
 30
0.0
 40
0.9935634102552089
100
AcDbArc
 50
74.6122616928
 51
162.5684113504
  0
ARC
  5
17F
330
1F
100
AcDbEntity
  8
0
  6
Continuous
 62
     7
370
    25
100
AcDbCircle
 10
509.1541099078
 20
211.4467472561
 30
0.0
 40
0.9935482367844901
100
AcDbArc
 50
167.4311640478
 51
255.3885011265
  0
LINE
  5
180
330
1F
100
AcDbEntity
  8
0
  6
Continuous
 62
     7
370
    25
100
AcDbLine
 10
508.1843717872
 20
211.6629556657
 30
0.0
 11
512.0489953934
 21
226.0859311462
 31
0.0
  0
LINE
  5
181
330
1F
100
AcDbEntity
  8
0
  6
Continuous
 62
     7
370
    25
100
AcDbLine
 10
514.0459540217
 20
225.5508453489
 30
0.0
 11
510.1813322781
 21
211.1278698683
 31
0.0
  0
ARC
  5
182
330
1F
100
AcDbEntity
  8
0
  6
Continuous
 62
     7
370
    25
100
AcDbCircle
 10
509.2334017417
 20
211.4255131283
 30
0.0
 40
0.9935611768501589
100
AcDbArc
 50
254.6121111661
 51
342.5680925951
  0
LINE
  5
183
330
1F
100
AcDbEntity
  8
0
  6
Continuous
 62
     7
370
    25
100
AcDbLine
 10
485.7040888547
 20
426.1953757048
 30
0.0
 11
478.2382084905
 21
439.1266555429
 31
0.0
  0
ARC
  5
184
330
1F
100
AcDbEntity
  8
0
  6
Continuous
 62
     7
370
    25
100
AcDbCircle
 10
479.1189536284
 20
439.5864834278
 30
0.0
 40
0.9935560787839178
100
AcDbArc
 50
119.6118902375
 51
207.568593594
  0
LINE
  5
185
330
1F
100
AcDbEntity
  8
0
  6
Continuous
 62
     7
370
    25
100
AcDbLine
 10
435.2378046988
 20
359.126810068
 30
0.0
 11
420.8148366689
 21
362.9914336742
 31
0.0
  0
ARC
  5
186
330
1F
100
AcDbEntity
  8
0
  6
Continuous
 62
     7
370
    25
100
AcDbCircle
 10
421.1124766186
 20
363.9393682975
 30
0.0
 40
0.9935640843703893
100
AcDbArc
 50
164.6124017497
 51
252.5683453188
  0
LINE
  5
187
330
1F
100
AcDbEntity
  8
0
  6
Continuous
 62
     7
370
    25
100
AcDbLine
 10
446.9773939728
 20
276.0171295047
 30
0.0
 11
434.0461141347
 21
268.5512454153
 31
0.0
  0
ARC
  5
188
330
1F
100
AcDbEntity
  8
0
  6
Continuous
 62
     7
370
    25
100
AcDbCircle
 10
433.5862862126
 20
269.4320069369
 30
0.0
 40
0.9935706194788438
100
AcDbArc
 50
209.6125003926
 51
297.5681582395
  0
LINE
  5
189
330
1F
100
AcDbEntity
  8
0
  6
Continuous
 62
     7
370
    25
100
AcDbLine
 10
635.8823350548
 20
387.4686770976
 30
0.0
 11
648.8136148929
 21
394.9345574618
 31
0.0
  0
ARC
  5
18A
330
1F
100
AcDbEntity
  8
0
  6
Continuous
 62
     7
370
    25
100
AcDbCircle
 10
649.2734398986
 20
394.0538025476
 30
0.0
 40
0.9935634125990969
100
AcDbArc
 50
29.6122983354
 51
117.5681854962
  0
SPLINE
  5
18B
330
1F
100
AcDbEntity
  8
0
  6
Continuous
 62
     7
370
    25
100
AcDbSpline
210
0.0
220
0.0
230
1.0
 70
     8
 71
     3
 72
    12
 73
     8
 74
     0
 42
0.000000001
 43
0.00000001
 40
0.0
 40
0.0
 40
0.0
 40
0.0
 40
0.2190474209781289
 40
0.4380873687557665
 40
0.6572893255030434
 40
0.8768697070217933
 40
1.0
 40
1.0
 40
1.0
 40
1.0
 10
639.6557337521423
 20
386.8054226875981
 30
0.0
 10
639.6999508246209
 20
386.8303948134171
 30
0.0
 10
639.7883834610325
 20
386.8803382130855
 30
0.0
 10
640.3177044645493
 20
387.2038470129384
 30
0.0
 10
641.0734115529368
 20
387.6704317100592
 30
0.0
 10
641.8666195448787
 20
388.1630563244058
 30
0.0
 10
642.3713606120588
 20
388.4778722389016
 30
0.0
 10
642.5527057527412
 20
388.590980404683
 30
0.0
  0
LINE
  5
18C
330
1F
100
AcDbEntity
  8
0
  6
Continuous
 62
     7
370
    25
100
AcDbLine
 10
642.5527057527
 20
388.5909804047
 30
0.0
 11
649.8473158954
 21
393.1441307903
 31
0.0
  0
SPLINE
  5
18D
330
1F
100
AcDbEntity
  8
0
  6
Continuous
 62
     7
370
    25
100
AcDbSpline
210
0.0
220
0.0
230
1.0
 70
     8
 71
     3
 72
    12
 73
     8
 74
     0
 42
0.000000001
 43
0.00000001
 40
0.0
 40
0.0
 40
0.0
 40
0.0
 40
0.1206827831575044
 40
0.3401106625895627
 40
0.5599343148867405
 40
0.7799713715730647
 40
1.0
 40
1.0
 40
1.0
 40
1.0
 10
649.8211271046508
 20
301.2218029142102
 30
0.0
 10
649.8392552495926
 20
301.2163516141935
 30
0.0
 10
649.8903443546525
 20
301.2009886501305
 30
0.0
 10
650.2679515902372
 20
301.1080836860811
 30
0.0
 10
651.0173755632738
 20
300.9294735033309
 30
0.0
 10
652.0118282609544
 20
300.6958340366099
 30
0.0
 10
652.7587292369388
 20
300.5225540211989
 30
0.0
 10
653.1321725725044
 20
300.4359156728466
 30
0.0
  0
LINE
  5
18E
330
1F
100
AcDbEntity
  8
0
  6
Continuous
 62
     7
370
    25
100
AcDbLine
 10
653.1321725725
 20
300.4359156728
 30
0.0
 11
661.5097991108
 21
298.4974124373
 31
0.0
  0
SPLINE
  5
18F
330
1F
100
AcDbEntity
  8
0
  6
Continuous
 62
     7
370
    25
100
AcDbSpline
210
0.0
220
0.0
230
1.0
 70
     8
 71
     3
 72
    12
 73
     8
 74
     0
 42
0.000000001
 43
0.00000001
 40
0.0
 40
0.0
 40
0.0
 40
0.0
 40
0.2190472553209442
 40
0.4380880651345082
 40
0.6572888122757254
 40
0.8768692148169763
 40
1.0
 40
1.0
 40
1.0
 40
1.0
 10
571.9509593128074
 20
440.1341603041371
 30
0.0
 10
571.964567412993
 20
440.1830830637912
 30
0.0
 10
571.9917832129432
 20
440.2809271435377
 30
0.0
 10
572.1373186738092
 20
440.8839822203238
 30
0.0
 10
572.341752823021
 20
441.7482653337738
 30
0.0
 10
572.5543032324432
 20
442.6574867306567
 30
0.0
 10
572.6885996654345
 20
443.2370023117906
 30
0.0
 10
572.7368502794612
 20
443.4452132225712
 30
0.0
  0
LINE
  5
190
330
1F
100
AcDbEntity
  8
0
  6
Continuous
 62
     7
370
    25
100
AcDbLine
 10
572.7368502795
 20
443.4452132226
 30
0.0
 11
574.675353515
 21
451.8228472114
 31
0.0
  0
SPLINE
  5
191
330
1F
100
AcDbEntity
  8
0
  6
Continuous
 62
     7
370
    25
100
AcDbSpline
210
0.0
220
0.0
230
1.0
 70
     8
 71
     3
 72
    12
 73
     8
 74
     0
 42
0.000000001
 43
0.00000001
 40
0.0
 40
0.0
 40
0.0
 40
0.0
 40
0.2190470453635962
 40
0.438087569183858
 40
0.6572897622824055
 40
0.8768697367651792
 40
0.9999999999999999
 40
0.9999999999999999
 40
0.9999999999999999
 40
0.9999999999999999
 10
486.3673395394195
 20
429.9687744022092
 30
0.0
 10
486.342368705297
 20
430.0129877065093
 30
0.0
 10
486.2924277804921
 20
430.1014129987757
 30
0.0
 10
485.9689206479264
 20
430.6307479448347
 30
0.0
 10
485.5023287748
 20
431.386449701808
 30
0.0
 10
485.0097099523579
 20
432.1796611076692
 30
0.0
 10
484.6948938851174
 20
432.6844013655705
 30
0.0
 10
484.5817855476249
 20
432.865746402808
 30
0.0
  0
LINE
  5
192
330
1F
100
AcDbEntity
  8
0
  6
Continuous
 62
     7
370
    25
100
AcDbLine
 10
484.5817855476
 20
432.8657464028
 30
0.0
 11
480.028635162
 21
440.1603565455
 31
0.0
  0
SPLINE
  5
193
330
1F
100
AcDbEntity
  8
0
  6
Continuous
 62
     7
370
    25
100
AcDbSpline
210
0.0
220
0.0
230
1.0
 70
     8
 71
     3
 72
    12
 73
     8
 74
     0
 42
0.000000001
 43
0.00000001
 40
0.0
 40
0.0
 40
0.0
 40
0.0
 40
0.2200284303954156
 40
0.4400652591038217
 40
0.6598896737401744
 40
0.8793172554377562
 40
1.0
 40
1.0
 40
1.0
 40
1.0
 10
600.5807763813842
 20
231.9495976806363
 30
0.0
 10
600.4004377057876
 20
232.2878937037218
 30
0.0
 10
600.0397534712082
 20
232.9644986623873
 30
0.0
 10
599.5566807576033
 20
233.8645887026184
 30
0.0
 10
599.1901948842657
 20
234.5422614816158
 30
0.0
 10
599.0027261543838
 20
234.8829524854907
 30
0.0
 10
598.9746596865375
 20
234.9283256576735
 30
0.0
 10
598.9647007464279
 20
234.9444256067952
 30
0.0
  0
LINE
  5
194
330
1F
100
AcDbEntity
  8
0
  6
Continuous
 62
     7
370
    25
100
AcDbLine
 10
604.6215168117
 20
224.3591473342
 30
0.0
 11
600.5807763814
 21
231.9495976806
 31
0.0
  0
SPLINE
  5
195
330
1F
100
AcDbEntity
  8
0
  6
Continuous
 62
     7
370
    25
100
AcDbSpline
210
0.0
220
0.0
230
1.0
 70
     8
 71
     3
 72
    12
 73
     8
 74
     0
 42
0.000000001
 43
0.00000001
 40
0.0
 40
0.0
 40
0.0
 40
0.0
 40
0.1206828346993647
 40
0.3401106982483647
 40
0.559935435610445
 40
0.7799713223437227
 40
1.0
 40
1.0
 40
1.0
 40
1.0
 10
433.0386019228805
 20
362.2639981002292
 30
0.0
 10
433.0204737403182
 20
362.2694510781505
 30
0.0
 10
432.9693845456981
 20
362.2848187659661
 30
0.0
 10
432.5917781113752
 20
362.3777145308781
 30
0.0
 10
431.8423467868927
 20
362.5563316988766
 30
0.0
 10
430.8478998676622
 20
362.7899711856625
 30
0.0
 10
430.1010001807028
 20
362.9632507193567
 30
0.0
 10
429.727556455027
 20
363.0498890668829
 30
0.0
  0
LINE
  5
196
330
1F
100
AcDbEntity
  8
0
  6
Continuous
 62
     7
370
    25
100
AcDbLine
 10
429.727556455
 20
363.0498890669
 30
0.0
 11
421.3499224662
 21
364.9883923025
 31
0.0
  0
SPLINE
  5
197
330
1F
100
AcDbEntity
  8
0
  6
Continuous
 62
     7
370
    25
100
AcDbSpline
210
0.0
220
0.0
230
1.0
 70
     8
 71
     3
 72
    12
 73
     8
 74
     0
 42
0.000000001
 43
0.00000001
 40
0.0
 40
0.0
 40
0.0
 40
0.0
 40
0.2200293654658535
 40
0.44006511908308
 40
0.659889636514176
 40
0.879317249962725
 40
0.9999999999999999
 40
0.9999999999999999
 40
0.9999999999999999
 40
0.9999999999999999
 10
653.8203976034035
 20
303.0043953002175
 30
0.0
 10
653.4536648293736
 20
303.1160851293802
 30
0.0
 10
652.7201886338967
 20
303.3394680304161
 30
0.0
 10
651.742153244419
 20
303.6343597138118
 30
0.0
 10
651.0038179134939
 20
303.8543864146903
 30
0.0
 10
650.6303532965183
 20
303.9627326410547
 30
0.0
 10
650.5784265589298
 20
303.9749720040218
 30
0.0
 10
650.5600011824478
 20
303.9793149471959
 30
0.0
  0
LINE
  5
198
330
1F
100
AcDbEntity
  8
0
  6
Continuous
 62
     7
370
    25
100
AcDbLine
 10
662.0448849081
 20
300.4943692029
 30
0.0
 11
653.8203976034
 21
303.0043953002
 31
0.0
  0
SPLINE
  5
199
330
1F
100
AcDbEntity
  8
0
  6
Continuous
 62
     7
370
    25
100
AcDbSpline
210
0.0
220
0.0
230
1.0
 70
     8
 71
     3
 72
    12
 73
     8
 74
     0
 42
0.000000001
 43
0.00000001
 40
0.0
 40
0.0
 40
0.0
 40
0.0
 40
0.1206827950095152
 40
0.3401102212004332
 40
0.559934366806914
 40
0.7799707331354282
 40
1.0
 40
1.0
 40
1.0
 40
1.0
 10
596.4923820375312
 20
233.5170284748754
 30
0.0
 10
596.5013460541684
 20
233.5003534671121
 30
0.0
 10
596.5266085920559
 20
233.4533596882685
 30
0.0
 10
596.7279329119639
 20
233.1206736176833
 30
0.0
 10
597.1315487961202
 20
232.4644392081529
 30
0.0
 10
597.669521465534
 20
231.5960470977681
 30
0.0
 10
598.0751383230191
 20
230.94538318311
 30
0.0
 10
598.2779434799064
 20
230.6200564742765
 30
0.0
  0
LINE
  5
19A
330
1F
100
AcDbEntity
  8
0
  6
Continuous
 62
     7
370
    25
100
AcDbLine
 10
598.2779434799
 20
230.6200564743
 30
0.0
 11
602.8310901402
 21
223.3254463316
 31
0.0
  0
SPLINE
  5
19B
330
1F
100
AcDbEntity
  8
0
  6
Continuous
 62
     7
370
    25
100
AcDbSpline
210
0.0
220
0.0
230
1.0
 70
     8
 71
     3
 72
    12
 73
     8
 74
     0
 42
0.000000001
 43
0.00000001
 40
0.0
 40
0.0
 40
0.0
 40
0.0
 40
0.2190472222739048
 40
0.4380878654181052
 40
0.6572887593274519
 40
0.8768701546968449
 40
0.9999999999999999
 40
0.9999999999999999
 40
0.9999999999999999
 40
0.9999999999999999
 10
443.203995275389
 20
276.6803801894864
 30
0.0
 10
443.1597789104695
 20
276.6554098110855
 30
0.0
 10
443.0713475086784
 20
276.6054698042742
 30
0.0
 10
442.5420150558968
 20
276.2819566220636
 30
0.0
 10
441.7863177810035
 20
275.8153684669428
 30
0.0
 10
440.9931043086223
 20
275.3227471119797
 30
0.0
 10
440.4883608611615
 20
275.0079330866384
 30
0.0
 10
440.3070158242095
 20
274.8948261976918
 30
0.0
  0
LINE
  5
19C
330
1F
100
AcDbEntity
  8
0
  6
Continuous
 62
     7
370
    25
100
AcDbLine
 10
440.3070158242
 20
274.8948261977
 30
0.0
 11
433.0124131321
 21
270.3416720868
 31
0.0
  0
SPLINE
  5
19D
330
1F
100
AcDbEntity
  8
0
  6
Continuous
 62
     7
370
    25
100
AcDbSpline
210
0.0
220
0.0
230
1.0
 70
     8
 71
     3
 72
    12
 73
     8
 74
     0
 42
0.000000001
 43
0.00000001
 40
0.0
 40
0.0
 40
0.0
 40
0.0
 40
0.1231298283913198
 40
0.3427106182089162
 40
0.5619121618376728
 40
0.7809526726356065
 40
1.0
 40
1.0
 40
1.0
 40
1.0
 10
570.1683706520904
 20
444.1334308028897
 30
0.0
 10
570.1060514446226
 20
443.9289914272334
 30
0.0
 10
569.9325966904282
 20
443.3599697228032
 30
0.0
 10
569.6620651962046
 20
442.4662852678701
 30
0.0
 10
569.4069615709939
 20
441.6155737535989
 30
0.0
 10
569.2314793776264
 20
441.0205484289755
 30
0.0
 10
569.2061247772609
 20
440.9222062410101
 30
0.0
 10
569.1934472798217
 20
440.873034381934
 30
0.0
  0
LINE
  5
19E
330
1F
100
AcDbEntity
  8
0
  6
Continuous
 62
     7
370
    25
100
AcDbLine
 10
572.6783930241
 20
452.3579255582
 30
0.0
 11
570.1683706521
 21
444.1334308029
 31
0.0
  0
SPLINE
  5
19F
330
1F
100
AcDbEntity
  8
0
  6
Continuous
 62
     7
370
    25
100
AcDbSpline
210
0.0
220
0.0
230
1.0
 70
     8
 71
     3
 72
    12
 73
     8
 74
     0
 42
0.000000001
 43
0.00000001
 40
0.0
 40
0.0
 40
0.0
 40
0.0
 40
0.1206831025346083
 40
0.340111189348565
 40
0.5599351371014174
 40
0.7799725058955559
 40
1.0
 40
1.0
 40
1.0
 40
1.0
 10
510.9087659894336
 20
223.3516425729474
 30
0.0
 10
510.903313854028
 20
223.3335114939109
 30
0.0
 10
510.8879485525204
 20
223.2824141760116
 30
0.0
 10
510.7950483106708
 20
222.9048117685408
 30
0.0
 10
510.6164342934484
 20
222.1553862926308
 30
0.0
 10
510.3827939714293
 20
221.1609362454099
 30
0.0
 10
510.2095133762388
 20
220.4140378986065
 30
0.0
 10
510.1228750227797
 20
220.0405971050939
 30
0.0
  0
LINE
  5
1A0
330
1F
100
AcDbEntity
  8
0
  6
Continuous
 62
     7
370
    25
100
AcDbLine
 10
510.1228750228
 20
220.0405971051
 30
0.0
 11
508.1843717872
 21
211.6629556657
 31
0.0
  0
SPLINE
  5
1A1
330
1F
100
AcDbEntity
  8
0
  6
Continuous
 62
     7
370
    25
100
AcDbSpline
210
0.0
220
0.0
230
1.0
 70
     8
 71
     3
 72
    12
 73
     8
 74
     0
 42
0.000000001
 43
0.00000001
 40
0.0
 40
0.0
 40
0.0
 40
0.0
 40
0.2200296040400912
 40
0.4400654031531894
 40
0.659889212422308
 40
0.8793169991678852
 40
1.0
 40
1.0
 40
1.0
 40
1.0
 10
512.6913546501506
 20
219.3523720741948
 30
0.0
 10
512.8030455162725
 20
219.7191046435915
 30
0.0
 10
513.0264303932436
 20
220.4525801079729
 30
0.0
 10
513.3213172076604
 20
221.4306169305058
 30
0.0
 10
513.5413483222889
 20
222.1689445583445
 30
0.0
 10
513.6496959164652
 20
222.5424053840413
 30
0.0
 10
513.6619351290102
 20
222.5943402272134
 30
0.0
 10
513.6662780224193
 20
222.6127684951505
 30
0.0
  0
LINE
  5
1A2
330
1F
100
AcDbEntity
  8
0
  6
Continuous
 62
     7
370
    25
100
AcDbLine
 10
510.1813322781
 20
211.1278698683
 30
0.0
 11
512.6913546502
 21
219.3523720742
 31
0.0
  0
SPLINE
  5
1A3
330
1F
100
AcDbEntity
  8
0
  6
Continuous
 62
     7
370
    25
100
AcDbSpline
210
0.0
220
0.0
230
1.0
 70
     8
 71
     3
 72
    12
 73
     8
 74
     0
 42
0.000000001
 43
0.00000001
 40
0.0
 40
0.0
 40
0.0
 40
0.0
 40
0.1231298508532167
 40
0.3427109948189089
 40
0.561912582237944
 40
0.7809527272081451
 40
1.0
 40
1.0
 40
1.0
 40
1.0
 10
482.2789489208568
 20
431.5362051964482
 30
0.0
 10
482.3794437048512
 20
431.3475785291018
 30
0.0
 10
482.6591538414115
 20
430.8225682869248
 30
0.0
 10
483.0997843145976
 20
429.9993388802368
 30
0.0
 10
483.5209504554599
 20
429.2174108548558
 30
0.0
 10
483.8176046451545
 20
428.6725798065406
 30
0.0
 10
483.869217639007
 20
428.5851119234165
 30
0.0
 10
483.8950245558132
 20
428.5413772702893
 30
0.0
  0
LINE
  5
1A4
330
1F
100
AcDbEntity
  8
0
  6
Continuous
 62
     7
370
    25
100
AcDbLine
 10
478.2382084905
 20
439.1266555429
 30
0.0
 11
482.2789489209
 21
431.5362051964
 31
0.0
  0
SPLINE
  5
1A5
330
1F
100
AcDbEntity
  8
0
  6
Continuous
 62
     7
370
    25
100
AcDbSpline
210
0.0
220
0.0
230
1.0
 70
     8
 71
     3
 72
    12
 73
     8
 74
     0
 42
0.000000001
 43
0.00000001
 40
0.0
 40
0.0
 40
0.0
 40
0.0
 40
0.2200294921660181
 40
0.4400650828593675
 40
0.6598896409509224
 40
0.8793172649357022
 40
1.0
 40
1.0
 40
1.0
 40
1.0
 10
429.0393314241279
 20
360.4814103708347
 30
0.0
 10
429.4060640678829
 20
360.3697190426808
 30
0.0
 10
430.1395395200713
 20
360.1463332906396
 30
0.0
 10
431.11757638669
 20
359.8514474681738
 30
0.0
 10
431.8559109636967
 20
359.6314171457125
 30
0.0
 10
432.2293757304731
 20
359.5230691096243
 30
0.0
 10
432.2813024699701
 20
359.5108298902917
 30
0.0
 10
432.2997278450836
 20
359.5064869985661
 30
0.0
  0
LINE
  5
1A6
330
1F
100
AcDbEntity
  8
0
  6
Continuous
 62
     7
370
    25
100
AcDbLine
 10
420.8148366689
 20
362.9914336742
 30
0.0
 11
429.0393314241
 21
360.4814103708
 31
0.0
  0
SPLINE
  5
1A7
330
1F
100
AcDbEntity
  8
0
  6
Continuous
 62
     7
370
    25
100
AcDbSpline
210
0.0
220
0.0
230
1.0
 70
     8
 71
     3
 72
    12
 73
     8
 74
     0
 42
0.000000001
 43
0.00000001
 40
0.0
 40
0.0
 40
0.0
 40
0.0
 40
0.1231303190388549
 40
0.3427102004593894
 40
0.5619122856393274
 40
0.7809524907453786
 40
0.9999999999999999
 40
0.9999999999999999
 40
0.9999999999999999
 40
0.9999999999999999
 10
441.63656448115
 20
272.5919858456334
 30
0.0
 10
441.8251910949292
 20
272.6924821329864
 30
0.0
 10
442.3501979748335
 20
272.9721947419767
 30
0.0
 10
443.1734258435408
 20
273.4128203096863
 30
0.0
 10
443.9553504620136
 20
273.8339934531304
 30
0.0
 10
444.5001827159889
 20
274.130640090565
 30
0.0
 10
444.5876503903715
 20
274.1822540637317
 30
0.0
 10
444.6313849567283
 20
274.2080614805897
 30
0.0
  0
LINE
  5
1A8
330
1F
100
AcDbEntity
  8
0
  6
Continuous
 62
     7
370
    25
100
AcDbLine
 10
434.0461141347
 20
268.5512454153
 30
0.0
 11
441.6365644812
 21
272.5919858456
 31
0.0
  0
SPLINE
  5
1A9
330
1F
100
AcDbEntity
  8
0
  6
Continuous
 62
     7
370
    25
100
AcDbSpline
210
0.0
220
0.0
230
1.0
 70
     8
 71
     3
 72
    12
 73
     8
 74
     0
 42
0.000000001
 43
0.00000001
 40
0.0
 40
0.0
 40
0.0
 40
0.0
 40
0.1231299010583148
 40
0.3427111345562593
 40
0.5619125502234356
 40
0.7809529608266025
 40
1.0
 40
1.0
 40
1.0
 40
1.0
 10
641.2231645463814
 20
390.8938133061608
 30
0.0
 10
641.0345378720668
 20
390.7933185770038
 30
0.0
 10
640.5095276104954
 20
390.5136085930737
 30
0.0
 10
639.6862988200986
 20
390.0729764852903
 30
0.0
 10
638.9043698186392
 20
389.6518179657515
 30
0.0
 10
638.3595377491928
 20
389.355155301771
 30
0.0
 10
638.2720757380534
 20
389.3035462918804
 30
0.0
 10
638.228344070803
 20
389.2777413964947
 30
0.0
  0
LINE
  5
1AA
330
1F
100
AcDbEntity
  8
0
  6
Continuous
 62
     7
370
    25
100
AcDbLine
 10
648.8136148929
 20
394.9345574618
 30
0.0
 11
641.2231645464
 21
390.8938133062
 31
0.0
  0
SPLINE
  5
1AB
330
1F
100
AcDbEntity
  8
0
  6
Continuous
 62
     7
370
    25
100
AcDbSpline
210
0.0
220
0.0
230
1.0
 70
     8
 71
     3
 72
    12
 73
     8
 74
     0
 42
0.000000001
 43
0.00000001
 40
0.0
 40
0.0
 40
0.0
 40
0.0
 40
0.2199274427778423
 40
0.4399123810605186
 40
0.6597567976867362
 40
0.8792632651607131
 40
0.9999999999999999
 40
0.9999999999999999
 40
0.9999999999999999
 40
0.9999999999999999
 10
430.088239061724
 20
364.6086753249844
 30
0.0
 10
430.6344118024992
 20
364.4709871827726
 30
0.0
 10
431.726900069675
 20
364.1955749026172
 30
0.0
 10
433.1814192023799
 20
363.8252141165055
 30
0.0
 10
434.2776894403626
 20
363.5432444244118
 30
0.0
 10
434.8303259319739
 20
363.3980931076872
 30
0.0
 10
434.9054879662535
 20
363.3755841302431
 30
0.0
 10
434.9321595310081
 20
363.367596724697
 30
0.0
  0
ARC
  5
1AC
330
1F
100
AcDbEntity
  8
0
  6
Continuous
 62
     7
370
    25
100
AcDbCircle
 10
541.429863012
 20
331.7429017341
 30
0.0
 40
116.0909803844723
100
AcDbArc
 50
140.0539642822
 51
163.5544751997
  0
SPLINE
  5
1AD
330
1F
100
AcDbEntity
  8
0
  6
Continuous
 62
     7
370
    25
100
AcDbSpline
210
0.0
220
0.0
230
1.0
 70
     8
 71
     3
 72
    12
 73
     8
 74
     0
 42
0.000000001
 43
0.00000001
 40
0.0
 40
0.0
 40
0.0
 40
0.0
 40
0.2204898977599864
 40
0.4409997373228118
 40
0.66096249076168
 40
0.8800247451887508
 40
0.9999999999999999
 40
0.9999999999999999
 40
0.9999999999999999
 40
0.9999999999999999
 10
452.4287677286972
 20
406.280953520604
 30
0.0
 10
452.8292479386303
 20
405.8818419531921
 30
0.0
 10
453.6302445791918
 20
405.0835827214572
 30
0.0
 10
454.7058796738334
 20
404.0293342273371
 30
0.0
 10
455.5231820571631
 20
403.2434571305814
 30
0.0
 10
455.9425165558684
 20
402.8574597910318
 30
0.0
 10
456.0076059616691
 20
402.8136878355486
 30
0.0
 10
456.030639159571
 20
402.7981982470234
 30
0.0
  0
SPLINE
  5
1AE
330
1F
100
AcDbEntity
  8
0
  6
Continuous
 62
     7
370
    25
100
AcDbSpline
210
0.0
220
0.0
230
1.0
 70
     8
 71
     3
 72
    12
 73
     8
 74
     0
 42
0.000000001
 43
0.00000001
 40
0.0
 40
0.0
 40
0.0
 40
0.0
 40
0.2199266148362181
 40
0.4399123704066075
 40
0.6597568716091282
 40
0.8792633598346227
 40
0.9999999999999999
 40
0.9999999999999999
 40
0.9999999999999999
 40
0.9999999999999999
 10
508.5640887646783
 20
220.4012797117909
 30
0.0
 10
508.701778244936
 20
220.9474494778814
 30
0.0
 10
508.9771942316975
 20
222.0399358812403
 30
0.0
 10
509.3475473976632
 20
223.4944598826195
 30
0.0
 10
509.629523280352
 20
224.5907284129127
 30
0.0
 10
509.774670496854
 20
225.1433703708926
 30
0.0
 10
509.797179835702
 20
225.2185241206538
 30
0.0
 10
509.8051673649657
 20
225.2451927304944
 30
0.0
  0
ARC
  5
1AF
330
1F
100
AcDbEntity
  8
0
  6
Continuous
 62
     7
370
    25
100
AcDbCircle
 10
541.429863012
 20
331.7429017341
 30
0.0
 40
116.0909803844723
100
AcDbArc
 50
230.0539642822
 51
253.5544751997
  0
SPLINE
  5
1B0
330
1F
100
AcDbEntity
  8
0
  6
Continuous
 62
     7
370
    25
100
AcDbSpline
210
0.0
220
0.0
230
1.0
 70
     8
 71
     3
 72
    12
 73
     8
 74
     0
 42
0.000000001
 43
0.00000001
 40
0.0
 40
0.0
 40
0.0
 40
0.0
 40
0.2204899428317323
 40
0.4409995179006096
 40
0.6609623342591472
 40
0.8800247578822236
 40
0.9999999999999999
 40
0.9999999999999999
 40
0.9999999999999999
 40
0.9999999999999999
 10
466.8918124317039
 20
242.7418083787641
 30
0.0
 10
467.2909231452721
 20
243.1422895002906
 30
0.0
 10
468.0891801088874
 20
243.9432874018425
 30
0.0
 10
469.143441036189
 20
245.0189084454429
 30
0.0
 10
469.9292999174767
 20
245.8362262309973
 30
0.0
 10
470.3153090518714
 20
246.2555566821501
 30
0.0
 10
470.3590761271986
 20
246.320646484484
 30
0.0
 10
470.3745639799942
 20
246.3436798096379
 30
0.0
  0
SPLINE
  5
1B1
330
1F
100
AcDbEntity
  8
0
  6
Continuous
 62
     7
370
    25
100
AcDbSpline
210
0.0
220
0.0
230
1.0
 70
     8
 71
     3
 72
    13
 73
     9
 74
     0
 42
0.000000001
 43
0.00000001
 40
0.0
 40
0.0
 40
0.0
 40
0.0
 40
0.1230217473442514
 40
0.342439963260407
 40
0.5615448758481127
 40
0.7805577817431018
 40
0.9681801727135911
 40
1.0
 40
1.0
 40
1.0
 40
1.0
 10
574.2956384002078
 20
443.0845231652936
 30
0.0
 10
574.2189276115442
 20
442.7799578847164
 30
0.0
 10
574.0053975632502
 20
441.9321783193733
 30
0.0
 10
573.6686240596955
 20
440.6044568865858
 30
0.0
 10
573.3428744365489
 20
439.3311773184292
 30
0.0
 10
573.1330725166667
 20
438.5232185338909
 30
0.0
 10
573.0648966009878
 20
438.2712127976047
 30
0.0
 10
573.0558672257234
 20
438.2444856665385
 30
0.0
 10
573.0545579372753
 20
438.2406101465901
 30
0.0
  0
ARC
  5
1B2
330
1F
100
AcDbEntity
  8
0
  6
Continuous
 62
     7
370
    25
100
AcDbCircle
 10
541.429863012
 20
331.7429017341
 30
0.0
 40
116.0909803844722
100
AcDbArc
 50
50.0539642822
 51
73.5544751997
  0
SPLINE
  5
1B3
330
1F
100
AcDbEntity
  8
0
  6
Continuous
 62
     7
370
    25
100
AcDbSpline
210
0.0
220
0.0
230
1.0
 70
     8
 71
     3
 72
    12
 73
     8
 74
     0
 42
0.000000001
 43
0.00000001
 40
0.0
 40
0.0
 40
0.0
 40
0.0
 40
0.220489863322414
 40
0.4409993588748936
 40
0.6609625437148036
 40
0.8800247639272807
 40
1.0
 40
1.0
 40
1.0
 40
1.0
 10
615.9679165958274
 20
420.7439944983204
 30
0.0
 10
615.5688056523938
 20
420.3435134241578
 30
0.0
 10
614.7705482290272
 20
419.5425156173378
 30
0.0
 10
613.7162900329881
 20
418.4668931350552
 30
0.0
 10
612.9304179928138
 20
417.6495778967346
 30
0.0
 10
612.5444189940855
 20
417.2302459946533
 30
0.0
 10
612.5006471470908
 20
417.1651563499049
 30
0.0
 10
612.4851575969566
 20
417.1421230674466
 30
0.0
  0
SPLINE
  5
1B4
330
1F
100
AcDbEntity
  8
0
  6
Continuous
 62
     7
370
    25
100
AcDbSpline
210
0.0
220
0.0
230
1.0
 70
     8
 71
     3
 72
    12
 73
     8
 74
     0
 42
0.000000001
 43
0.00000001
 40
0.0
 40
0.0
 40
0.0
 40
0.0
 40
0.2199267164347121
 40
0.4399117481425933
 40
0.6597563509056744
 40
0.8792633210552852
 40
1.0
 40
1.0
 40
1.0
 40
1.0
 10
652.7714825152268
 20
298.8771275521
 30
0.0
 10
652.2253125412946
 20
299.0148168561619
 30
0.0
 10
651.1328277722292
 20
299.2902319736717
 30
0.0
 10
649.6783083636208
 20
299.6605873996415
 30
0.0
 10
648.5820430234994
 20
299.9425608127835
 30
0.0
 10
648.0293909337728
 20
300.0877133297357
 30
0.0
 10
647.9542378409864
 20
300.110218315016
 30
0.0
 10
647.9275694965232
 20
300.1182042897423
 30
0.0
  0
ARC
  5
1B5
330
1F
100
AcDbEntity
  8
0
  6
Continuous
 62
     7
370
    25
100
AcDbCircle
 10
541.429863012
 20
331.7429017341
 30
0.0
 40
116.0909803844721
100
AcDbArc
 50
320.0539642822
 51
343.5544751997
  0
SPLINE
  5
1B6
330
1F
100
AcDbEntity
  8
0
  6
Continuous
 62
     7
370
    25
100
AcDbSpline
210
0.0
220
0.0
230
1.0
 70
     8
 71
     3
 72
    12
 73
     8
 74
     0
 42
0.000000001
 43
0.00000001
 40
0.0
 40
0.0
 40
0.0
 40
0.0
 40
0.2204894115701191
 40
0.4409991472213021
 40
0.6609620941968188
 40
0.8800245413682243
 40
1.0
 40
1.0
 40
1.0
 40
1.0
 10
630.4309538482537
 20
257.2048530817708
 30
0.0
 10
630.0304766193316
 20
257.6039652080314
 30
0.0
 10
629.2294852466462
 20
258.4022262495629
 30
0.0
 10
628.1538485217205
 20
259.4564679357904
 30
0.0
 10
627.3365459009927
 20
260.2423460326191
 30
0.0
 10
626.9172162428188
 20
260.6283431278915
 30
0.0
 10
626.8521185573863
 20
260.6721150464173
 30
0.0
 10
626.8290824173797
 20
260.687604630061
 30
0.0
  0
ARC
  5
1B7
330
1F
100
AcDbEntity
  8
0
  6
Continuous
 62
     7
370
    25
100
AcDbCircle
 10
541.429863012
 20
331.7429017341
 30
0.0
 40
116.0909803844722
100
AcDbArc
 50
301.4455248003
 51
309.9460357178
  0
SPLINE
  5
1B8
330
1F
100
AcDbEntity
  8
0
  6
Continuous
 62
     7
370
    25
100
AcDbSpline
210
0.0
220
0.0
230
1.0
 70
     8
 71
     3
 72
    13
 73
     9
 74
     0
 42
0.000000001
 43
0.00000001
 40
0.0
 40
0.0
 40
0.0
 40
0.0
 40
0.1206911833119138
 40
0.3401150775490003
 40
0.5598763520651998
 40
0.7797787534326289
 40
0.9691132154272047
 40
0.9999999999999999
 40
0.9999999999999999
 40
0.9999999999999999
 40
0.9999999999999999
 10
599.5406082748283
 20
237.0590940952977
 30
0.0
 10
599.5552272402688
 20
237.03539994851
 30
0.0
 10
599.5964243718904
 20
236.9686284052123
 30
0.0
 10
599.8796520542162
 20
236.4723801430071
 30
0.0
 10
600.4357904661478
 20
235.4864570008847
 30
0.0
 10
601.1358569499606
 20
234.2378732205281
 30
0.0
 10
601.6814059091733
 20
233.2608665369714
 30
0.0
 10
601.9547553432272
 20
232.7702533939846
 30
0.0
 10
601.9930935381759
 20
232.7014432192525
 30
0.0
  0
SPLINE
  5
1B9
330
1F
100
AcDbEntity
  8
0
  6
Continuous
 62
     7
370
    25
100
AcDbSpline
210
0.0
220
0.0
230
1.0
 70
     8
 71
     3
 72
    12
 73
     8
 74
     0
 42
0.000000001
 43
0.00000001
 40
0.0
 40
0.0
 40
0.0
 40
0.0
 40
0.2183551891393713
 40
0.4367037467119019
 40
0.6553063977299775
 40
0.8746996410407973
 40
1.0
 40
1.0
 40
1.0
 40
1.0
 10
612.4851575969566
 20
246.3436798096379
 30
0.0
 10
612.5304429635077
 20
246.2846263177061
 30
0.0
 10
612.6210123212686
 20
246.1665211273293
 30
0.0
 10
613.245462775196
 20
245.5059734034079
 30
0.0
 10
614.1530805593964
 20
244.5715116242976
 30
0.0
 10
615.1197036869343
 20
243.5917059574068
 30
0.0
 10
615.7417830904518
 20
242.9683910169834
 30
0.0
 10
615.9679165958274
 20
242.7418083787641
 30
0.0
  0
LWPOLYLINE
  5
1BA
330
1F
100
AcDbEntity
  8
0
  6
Continuous
 62
     7
370
    25
100
AcDbPolyline
 90
        9
 70
   128
 43
0.0
 10
601.9930935382
 20
232.7014432193
 10
601.7185768961
 20
232.5553000808
 10
601.4545283197
 20
232.4147374273
 10
601.2110209941
 20
232.2851122261
 10
600.9973457931
 20
232.1713642121
 10
600.8216536521
 20
232.0778296233
 10
600.6906500934
 20
232.0080921889
 10
600.6093195557
 20
231.9647968651
 10
600.5807763814
 20
231.9495976806
  0
LWPOLYLINE
  5
1BB
330
1F
100
AcDbEntity
  8
0
  6
Continuous
 62
     7
370
    25
100
AcDbPolyline
 90
        9
 70
   128
 43
0.0
 10
653.1321725725
 20
300.4359156728
 10
653.1248859047
 20
300.4044071675
 10
653.104113686
 20
300.3146462978
 10
653.0706531285
 20
300.1700528801
 10
653.0257857322
 20
299.9761403442
 10
652.9712176799
 20
299.7403071166
 10
652.9090276836
 20
299.4715497733
 10
652.8415924786
 20
299.1801165879
 10
652.7714825152
 20
298.8771275521
  0
SPLINE
  5
1BC
330
1F
100
AcDbEntity
  8
0
  6
Continuous
 62
     7
370
    25
100
AcDbSpline
210
0.0
220
0.0
230
1.0
 70
     8
 71
     3
 72
    13
 73
     9
 74
     0
 42
0.000000001
 43
0.00000001
 40
0.0
 40
0.0
 40
0.0
 40
0.0
 40
0.1206912369695694
 40
0.3401151236355829
 40
0.5598767878432183
 40
0.7797785734619216
 40
0.9691133609712217
 40
1.0
 40
1.0
 40
1.0
 40
1.0
 10
433.3877957342971
 20
357.6039644793352
 30
0.0
 10
433.3607042635991
 20
357.6103815574882
 30
0.0
 10
433.2843588789855
 20
357.6284652674921
 30
0.0
 10
432.7331905111818
 20
357.7790960201103
 30
0.0
 10
431.6427819002412
 20
358.0829906895915
 30
0.0
 10
430.2648849874909
 20
358.4708598340197
 30
0.0
 10
429.188274558495
 20
358.7759402866241
 30
0.0
 10
428.6480715806581
 20
358.9295700183321
 30
0.0
 10
428.5723066805709
 20
358.9511169955811
 30
0.0
  0
SPLINE
  5
1BD
330
1F
100
AcDbEntity
  8
0
  6
Continuous
 62
     7
370
    25
100
AcDbSpline
210
0.0
220
0.0
230
1.0
 70
     8
 71
     3
 72
    13
 73
     9
 74
     0
 42
0.000000001
 43
0.00000001
 40
0.0
 40
0.0
 40
0.0
 40
0.0
 40
0.1230222337672859
 40
0.3424395611117271
 40
0.561544583784478
 40
0.7805575618634812
 40
0.968180169327262
 40
1.0
 40
1.0
 40
1.0
 40
1.0
 10
439.4598326562751
 20
276.2520984650334
 30
0.0
 10
439.7294362549232
 20
276.41321716098
 30
0.0
 10
440.479893592333
 20
276.8617004459709
 30
0.0
 10
441.6568689059258
 20
277.5624012900798
 30
0.0
 10
442.7875545734126
 20
278.2324037622941
 30
0.0
 10
443.5072118278596
 20
278.6553723082723
 30
0.0
 10
443.7336365373907
 20
278.785338997961
 30
0.0
 10
443.7589082735901
 20
278.7978729307674
 30
0.0
 10
443.762572753321
 20
278.7996903897007
 30
0.0
  0
ARC
  5
1BE
330
1F
100
AcDbEntity
  8
0
  6
Continuous
 62
     7
370
    25
100
AcDbCircle
 10
541.429863012
 20
331.7429017341
 30
0.0
 40
116.0909803844723
100
AcDbArc
 50
182.9293899128
 51
208.5544751997
  0
SPLINE
  5
1BF
330
1F
100
AcDbEntity
  8
0
  6
Continuous
 62
     7
370
    25
100
AcDbSpline
210
0.0
220
0.0
230
1.0
 70
     8
 71
     3
 72
    15
 73
    11
 74
     0
 42
0.000000001
 43
0.00000001
 40
0.0
 40
0.0
 40
0.0
 40
0.0
 40
0.0329330968549125
 40
0.139013316108332
 40
0.2452625956164587
 40
0.4253946848439302
 40
0.603965796323495
 40
0.7134206080739973
 40
0.8230082092008019
 40
0.9999999999999999
 40
0.9999999999999999
 40
0.9999999999999999
 40
0.9999999999999999
 10
425.4905826329101
 20
337.6757577896794
 30
0.0
 10
425.598017091248
 20
337.573780676683
 30
0.0
 10
426.0515067944377
 20
337.1433268779636
 30
0.0
 10
426.7525713487467
 20
336.2904881202976
 30
0.0
 10
427.6259258409428
 20
334.790246572759
 30
0.0
 10
428.2248204927811
 20
332.787611893043
 30
0.0
 10
428.170781490844
 20
330.6251822328839
 30
0.0
 10
427.6785440042748
 20
328.9279272384857
 30
0.0
 10
426.9197443259928
 20
327.3433077535342
 30
0.0
 10
426.0362375330126
 20
326.3954458093577
 30
0.0
 10
425.4905826329101
 20
325.8100450874051
 30
0.0
  0
ARC
  5
1C0
330
1F
100
AcDbEntity
  8
0
  6
Continuous
 62
     7
370
    25
100
AcDbCircle
 10
541.429863012
 20
331.7429017341
 30
0.0
 40
116.0909803844723
100
AcDbArc
 50
166.4455248003
 51
177.0706100873
  0
LWPOLYLINE
  5
1C1
330
1F
100
AcDbEntity
  8
0
  6
Continuous
 62
     7
370
    25
100
AcDbPolyline
 90
        9
 70
   128
 43
0.0
 10
428.5723066806
 20
358.9511169956
 10
428.6630845546
 20
359.2485674561
 10
428.7503979086
 20
359.5346716136
 10
428.8309237837
 20
359.7985171617
 10
428.9015776395
 20
360.0300392971
 10
428.959677267
 20
360.2204072193
 10
429.0030023931
 20
360.3623584748
 10
429.0298915385
 20
360.4504802168
 10
429.0393314241
 20
360.4814103708
  0
SPLINE
  5
1C2
330
1F
100
AcDbEntity
  8
0
  6
Continuous
 62
     7
370
    25
100
AcDbSpline
210
0.0
220
0.0
230
1.0
 70
     8
 71
     3
 72
    12
 73
     8
 74
     0
 42
0.000000001
 43
0.00000001
 40
0.0
 40
0.0
 40
0.0
 40
0.0
 40
0.2199263797232518
 40
0.4399120505814145
 40
0.6597564591340441
 40
0.8792632812464587
 40
1.0
 40
1.0
 40
1.0
 40
1.0
 10
596.9206637619842
 20
229.772873306342
 30
0.0
 10
596.6318252067869
 20
230.2564341611783
 30
0.0
 10
596.0540702268535
 20
231.2236862366211
 30
0.0
 10
595.2874514037075
 20
232.5140713490339
 30
0.0
 10
594.7116545549059
 20
233.4886299389247
 30
0.0
 10
594.4235153299165
 20
233.9820499846164
 30
0.0
 10
594.3862863929465
 20
234.0511079284959
 30
0.0
 10
594.3730755626071
 20
234.0756134033879
 30
0.0
  0
ARC
  5
1C3
330
1F
100
AcDbEntity
  8
0
  6
Continuous
 62
     7
370
    25
100
AcDbCircle
 10
541.429863012
 20
331.7429017341
 30
0.0
 40
116.0909803844722
100
AcDbArc
 50
256.4455248003
 51
298.5544751997
  0
SPLINE
  5
1C4
330
1F
100
AcDbEntity
  8
0
  6
Continuous
 62
     7
370
    25
100
AcDbSpline
210
0.0
220
0.0
230
1.0
 70
     8
 71
     3
 72
    13
 73
     9
 74
     0
 42
0.000000001
 43
0.00000001
 40
0.0
 40
0.0
 40
0.0
 40
0.0
 40
0.1206911369686594
 40
0.3401148418270378
 40
0.559876345657832
 40
0.7797787398466483
 40
0.9691124835306963
 40
0.9999999999999999
 40
0.9999999999999999
 40
0.9999999999999999
 40
0.9999999999999999
 10
515.5688005416501
 20
223.700836384364
 30
0.0
 10
515.5623834342658
 20
223.6737449249917
 30
0.0
 10
515.5442996418864
 20
223.5973995722947
 30
0.0
 10
515.3936698942256
 20
223.0462307914812
 30
0.0
 10
515.0897706314444
 20
221.9558224466332
 30
0.0
 10
514.7019111633923
 20
220.5779199870208
 30
0.0
 10
514.3968169901669
 20
219.5013124423821
 30
0.0
 10
514.2431946011823
 20
218.961107294161
 30
0.0
 10
514.2216480254043
 20
218.8853398800572
 30
0.0
  0
LWPOLYLINE
  5
1C5
330
1F
100
AcDbEntity
  8
0
  6
Continuous
 62
     7
370
    25
100
AcDbPolyline
 90
        9
 70
   128
 43
0.0
 10
429.727556455
 20
363.0498890669
 10
429.7348431229
 20
363.0813938469
 10
429.7556153416
 20
363.1711565793
 10
429.7890684484
 20
363.3157518596
 10
429.8339432954
 20
363.5096643955
 10
429.8885113477
 20
363.7454976232
 10
429.9507013439
 20
364.0142549664
 10
430.0181365489
 20
364.3056862891
 10
430.0882390617
 20
364.608675325
  0
LWPOLYLINE
  5
1C6
330
1F
100
AcDbEntity
  8
0
  6
Continuous
 62
     7
370
    25
100
AcDbPolyline
 90
        9
 70
   128
 43
0.0
 10
514.2216480254
 20
218.8853398801
 10
513.9241966336
 20
218.9761177541
 10
513.638092476
 20
219.0634385586
 10
513.374246928
 20
219.1439644337
 10
513.1427257239
 20
219.214610839
 10
512.9523578017
 20
219.2727104665
 10
512.8104056149
 20
219.3160430432
 10
512.7222838729
 20
219.342924738
 10
512.6913546502
 20
219.3523720742
  0
LWPOLYLINE
  5
1C7
330
1F
100
AcDbEntity
  8
0
  6
Continuous
 62
     7
370
    25
100
AcDbPolyline
 90
        9
 70
   128
 43
0.0
 10
510.1228750228
 20
220.0405971051
 10
510.0913702427
 20
220.0478837729
 10
510.0016075103
 20
220.0686559916
 10
509.85701223
 20
220.1021090985
 10
509.6630996941
 20
220.1469764949
 10
509.4272683292
 20
220.2015445471
 10
509.1585091232
 20
220.263741994
 10
508.8670778005
 20
220.3311697484
 10
508.5640887647
 20
220.4012797118
  0
LWPOLYLINE
  5
1C8
330
1F
100
AcDbEntity
  8
0
  6
Continuous
 62
     7
370
    25
100
AcDbPolyline
 90
        9
 70
   128
 43
0.0
 10
598.2779434799
 20
230.6200564743
 10
598.2505104421
 20
230.6029350401
 10
598.1723464011
 20
230.5541486383
 10
598.0464464902
 20
230.4755673648
 10
597.8776014327
 20
230.3701789022
 10
597.6722559809
 20
230.2419991136
 10
597.4382406949
 20
230.0959379316
 10
597.1844888209
 20
229.9375460387
 10
596.920663762
 20
229.7728733063
  0
SPLINE
  5
1C9
330
1F
100
AcDbEntity
  8
0
  6
Continuous
 62
     7
370
    25
100
AcDbSpline
210
0.0
220
0.0
230
1.0
 70
     8
 71
     3
 72
    13
 73
     9
 74
     0
 42
0.000000001
 43
0.00000001
 40
0.0
 40
0.0
 40
0.0
 40
0.0
 40
0.1206911419869376
 40
0.3401148423124207
 40
0.5598762547610726
 40
0.7797787597749515
 40
0.969113353921394
 40
1.0
 40
1.0
 40
1.0
 40
1.0
 10
649.4719258426536
 20
305.8818393290719
 30
0.0
 10
649.4990173127836
 20
305.8754215490948
 30
0.0
 10
649.5753626927309
 20
305.8573358620347
 30
0.0
 10
650.1265309720667
 20
305.7067050578613
 30
0.0
 10
651.2169410492829
 20
305.402815262754
 30
0.0
 10
652.5948419914208
 20
305.0149408948892
 30
0.0
 10
653.6714550944845
 20
304.7098642569461
 30
0.0
 10
654.2116574524233
 20
304.5562322672644
 30
0.0
 10
654.2874223469605
 20
304.5346849501809
 30
0.0
  0
SPLINE
  5
1CA
330
1F
100
AcDbEntity
  8
0
  6
Continuous
 62
     7
370
    25
100
AcDbSpline
210
0.0
220
0.0
230
1.0
 70
     8
 71
     3
 72
    13
 73
     9
 74
     0
 42
0.000000001
 43
0.00000001
 40
0.0
 40
0.0
 40
0.0
 40
0.0
 40
0.1230222332785432
 40
0.3424397931498268
 40
0.561544624109268
 40
0.780557728236695
 40
0.9681801442780413
 40
0.9999999999999999
 40
0.9999999999999999
 40
0.9999999999999999
 40
0.9999999999999999
 10
643.3998889206756
 20
387.2337044120511
 30
0.0
 10
643.1302852712347
 20
387.0725858853431
 30
0.0
 10
642.3798272809465
 20
386.6241027657626
 30
0.0
 10
641.2028536189647
 20
385.9233962138083
 30
0.0
 10
640.0721688382969
 20
385.2533997010104
 30
0.0
 10
639.3524999678533
 20
384.8304323037393
 30
0.0
 10
639.1261065031234
 20
384.700446411159
 30
0.0
 10
639.1008160264539
 20
384.687930990145
 30
0.0
 10
639.0971488236297
 20
384.686116212674
 30
0.0
  0
ARC
  5
1CB
330
1F
100
AcDbEntity
  8
0
  6
Continuous
 62
     7
370
    25
100
AcDbCircle
 10
541.429863012
 20
331.7429017341
 30
0.0
 40
116.0909803844722
100
AcDbArc
 50
2.9304804448
 51
28.5544751997
  0
SPLINE
  5
1CC
330
1F
100
AcDbEntity
  8
0
  6
Continuous
 62
     7
370
    25
100
AcDbSpline
210
0.0
220
0.0
230
1.0
 70
     8
 71
     3
 72
    15
 73
    11
 74
     0
 42
0.000000001
 43
0.00000001
 40
0.0
 40
0.0
 40
0.0
 40
0.0
 40
0.033360000351658
 40
0.1393746156121814
 40
0.245558036804696
 40
0.4255935689671245
 40
0.6040719329883211
 40
0.7135109488317863
 40
0.8230824686573394
 40
1.0
 40
1.0
 40
1.0
 40
1.0
 10
657.3690346359123
 20
325.8078397155484
 30
0.0
 10
657.2601591025596
 20
325.9111867002811
 30
0.0
 10
656.8052884355736
 20
326.3429596655075
 30
0.0
 10
656.1035602293757
 20
327.1975107061429
 30
0.0
 10
655.23098754385
 20
328.6978079131409
 30
0.0
 10
654.6328650733135
 20
330.700459911614
 30
0.0
 10
654.6875077287569
 20
332.8628824609132
 30
0.0
 10
655.180178898841
 20
334.560168337892
 30
0.0
 10
655.939454243423
 20
336.1448353224282
 30
0.0
 10
656.8232550906052
 20
337.0926522575685
 30
0.0
 10
657.3690346359123
 20
337.6779640928587
 30
0.0
  0
ARC
  5
1CD
330
1F
100
AcDbEntity
  8
0
  6
Continuous
 62
     7
370
    25
100
AcDbCircle
 10
541.429863012
 20
331.7429017341
 30
0.0
 40
116.0909803844722
100
AcDbArc
 50
346.4455248003
 51
357.0695195552
  0
LWPOLYLINE
  5
1CE
330
1F
100
AcDbEntity
  8
0
  6
Continuous
 62
     7
370
    25
100
AcDbPolyline
 90
        9
 70
   128
 43
0.0
 10
654.287422347
 20
304.5346849502
 10
654.196644473
 20
304.237235421
 10
654.109331119
 20
303.9511331261
 10
654.0288052439
 20
303.6872857154
 10
653.9581439375
 20
303.4557626487
 10
653.9000517606
 20
303.2653965891
 10
653.8567266344
 20
303.1234444023
 10
653.8298300384
 20
303.0353226603
 10
653.8203976034
 20
303.0043953002
  0
SPLINE
  5
1CF
330
1F
100
AcDbEntity
  8
0
  6
Continuous
 62
     7
370
    25
100
AcDbSpline
210
0.0
220
0.0
230
1.0
 70
     8
 71
     3
 72
    13
 73
     9
 74
     0
 42
0.000000001
 43
0.00000001
 40
0.0
 40
0.0
 40
0.0
 40
0.0
 40
0.1230222238030817
 40
0.3424397667743091
 40
0.5615447717006159
 40
0.7805577320406303
 40
0.968180133630857
 40
1.0
 40
1.0
 40
1.0
 40
1.0
 10
485.9390578149665
 20
433.7129295707425
 30
0.0
 10
486.1001763851382
 20
433.4433259338242
 30
0.0
 10
486.5486596257021
 20
432.6928679783936
 30
0.0
 10
487.2493649574707
 20
431.5158934962441
 30
0.0
 10
487.9193675164399
 20
430.3852104554697
 30
0.0
 10
488.3423319128421
 20
429.6655402992484
 30
0.0
 10
488.4723089891027
 20
429.4391471471649
 30
0.0
 10
488.4848336252928
 20
429.4138566768849
 30
0.0
 10
488.4866497396339
 20
429.4101894736966
 30
0.0
  0
ARC
  5
1D0
330
1F
100
AcDbEntity
  8
0
  6
Continuous
 62
     7
370
    25
100
AcDbCircle
 10
541.429863012
 20
331.7429017341
 30
0.0
 40
116.0909803844723
100
AcDbArc
 50
76.4455248003
 51
118.5544751997
  0
SPLINE
  5
1D1
330
1F
100
AcDbEntity
  8
0
  6
Continuous
 62
     7
370
    25
100
AcDbSpline
210
0.0
220
0.0
230
1.0
 70
     8
 71
     3
 72
    12
 73
     8
 74
     0
 42
0.000000001
 43
0.00000001
 40
0.0
 40
0.0
 40
0.0
 40
0.0
 40
0.2191409135182149
 40
0.4382382995166258
 40
0.6574276697437001
 40
0.8769305535471817
 40
1.0
 40
1.0
 40
1.0
 40
1.0
 10
567.290926623236
 20
439.7849664927205
 30
0.0
 10
567.3091477661814
 20
439.8573710395996
 30
0.0
 10
567.3455864328431
 20
440.0021657517881
 30
0.0
 10
567.5885329412622
 20
440.880667150775
 30
0.0
 10
567.9405051562744
 20
442.1372269678271
 30
0.0
 10
568.3133279934485
 20
443.4576271390845
 30
0.0
 10
568.5522458146664
 20
444.2984106824402
 30
0.0
 10
568.6380772768367
 20
444.6004629970273
 30
0.0
  0
SPLINE
  5
1D2
330
1F
100
AcDbEntity
  8
0
  6
Continuous
 62
     7
370
    25
100
AcDbSpline
210
0.0
220
0.0
230
1.0
 70
     8
 71
     3
 72
    12
 73
     8
 74
     0
 42
0.000000001
 43
0.00000001
 40
0.0
 40
0.0
 40
0.0
 40
0.0
 40
0.2191411062007927
 40
0.4382388659954107
 40
0.6574280510646765
 40
0.8769307669220415
 40
1.0
 40
1.0
 40
1.0
 40
1.0
 10
483.3191170274127
 20
426.4267087817868
 30
0.0
 10
483.2808057414585
 20
426.4907928637675
 30
0.0
 10
483.2041907475739
 20
426.618948351811
 30
0.0
 10
482.7547777796036
 20
427.4119322184713
 30
0.0
 10
482.1151434904486
 20
428.5493348466704
 30
0.0
 10
481.4451071487859
 20
429.7466233327021
 30
0.0
 10
481.0195231420233
 20
430.5100853483332
 30
0.0
 10
480.8666317640651
 20
430.784359657832
 30
0.0
  0
LWPOLYLINE
  5
1D3
330
1F
100
AcDbEntity
  8
0
  6
Continuous
 62
     7
370
    25
100
AcDbPolyline
 90
        9
 70
   128
 43
0.0
 10
480.8666317641
 20
430.7843596578
 10
481.1411484062
 20
430.9305027962
 10
481.4051969825
 20
431.0710654498
 10
481.6487043082
 20
431.200690651
 10
481.8623757838
 20
431.314438665
 10
482.0380679249
 20
431.4079732538
 10
482.1690789341
 20
431.4777106882
 10
482.2504057466
 20
431.521006012
 10
482.2789489209
 20
431.5362051964
  0
ARC
  5
1D4
330
1F
100
AcDbEntity
  8
0
  6
Continuous
 62
     7
370
    25
100
AcDbCircle
 10
541.429863012
 20
331.7429017341
 30
0.0
 40
116.0909803844723
100
AcDbArc
 50
121.4455248003
 51
129.9460357178
  0
SPLINE
  5
1D5
330
1F
100
AcDbEntity
  8
0
  6
Continuous
 62
     7
370
    25
100
AcDbSpline
210
0.0
220
0.0
230
1.0
 70
     8
 71
     3
 72
    12
 73
     8
 74
     0
 42
0.000000001
 43
0.00000001
 40
0.0
 40
0.0
 40
0.0
 40
0.0
 40
0.2183552900608753
 40
0.4367036054928797
 40
0.6553068782972833
 40
0.8746995831282708
 40
1.0
 40
1.0
 40
1.0
 40
1.0
 10
470.3745639799942
 20
417.1421230674466
 30
0.0
 10
470.3292777065737
 20
417.2011763244365
 30
0.0
 10
470.2387066062514
 20
417.3192809521577
 30
0.0
 10
469.6142699745654
 20
417.9798320008694
 30
0.0
 10
468.7066385322732
 20
418.9142872839859
 30
0.0
 10
467.7400253127589
 20
419.8940987606963
 30
0.0
 10
467.1179462375314
 20
420.5174120424322
 30
0.0
 10
466.8918124317039
 20
420.7439944983204
 30
0.0
  0
LWPOLYLINE
  5
1D6
330
1F
100
AcDbEntity
  8
0
  6
Continuous
 62
     7
370
    25
100
AcDbPolyline
 90
        9
 70
   128
 43
0.0
 10
484.5817855476
 20
432.8657464028
 10
484.6092185854
 20
432.882867837
 10
484.6873751758
 20
432.9316542388
 10
484.8132788121
 20
433.0102355123
 10
484.9821238695
 20
433.1156314254
 10
485.1874693214
 20
433.2438037635
 10
485.4214846073
 20
433.3898649455
 10
485.6752402066
 20
433.5482568384
 10
485.939057815
 20
433.7129295707
  0
LWPOLYLINE
  5
1D7
330
1F
100
AcDbEntity
  8
0
  6
Continuous
 62
     7
370
    25
100
AcDbPolyline
 90
        9
 70
   128
 43
0.0
 10
568.6380772768
 20
444.600462997
 10
568.9355305313
 20
444.509685123
 10
569.2216328262
 20
444.4223643184
 10
569.4854802369
 20
444.3418458939
 10
569.7169995784
 20
444.2711845875
 10
569.9073693632
 20
444.2130849601
 10
570.04932155
 20
444.1697672845
 10
570.137443292
 20
444.1428706885
 10
570.1683706521
 20
444.1334308029
  0
LWPOLYLINE
  5
1D8
330
1F
100
AcDbEntity
  8
0
  6
Continuous
 62
     7
370
    25
100
AcDbPolyline
 90
        9
 70
   128
 43
0.0
 10
440.3070158242
 20
274.8948261977
 10
440.28989439
 20
274.9222592354
 10
440.2411154388
 20
275.0004158259
 10
440.1625267147
 20
275.1263157368
 10
440.0571382521
 20
275.2951607943
 10
439.9289659141
 20
275.5005062462
 10
439.7828972815
 20
275.7345215321
 10
439.6245053886
 20
275.9882808567
 10
439.4598326563
 20
276.252098465
  0
SPLINE
  5
1D9
330
1F
100
AcDbEntity
  8
0
  6
Continuous
 62
     7
370
    25
100
AcDbSpline
210
0.0
220
0.0
230
1.0
 70
     8
 71
     3
 72
    12
 73
     8
 74
     0
 42
0.000000001
 43
0.00000001
 40
0.0
 40
0.0
 40
0.0
 40
0.0
 40
0.2191410258599314
 40
0.4382381458543053
 40
0.6574279034173428
 40
0.8769299651111364
 40
0.9999999999999999
 40
0.9999999999999999
 40
0.9999999999999999
 40
0.9999999999999999
 10
446.7460534452308
 20
273.6321539521893
 30
0.0
 10
446.6819686268884
 20
273.5938425162072
 30
0.0
 10
446.5538118298779
 20
273.517227320107
 30
0.0
 10
445.7608396616865
 20
273.0678169654795
 30
0.0
 10
444.6234258511012
 20
272.4281886300083
 30
0.0
 10
443.4261451309121
 20
271.7581396869933
 30
0.0
 10
442.6626797547009
 20
271.3325595917755
 30
0.0
 10
442.3884025691856
 20
271.1796686888417
 30
0.0
  0
LWPOLYLINE
  5
1DA
330
1F
100
AcDbEntity
  8
0
  6
Continuous
 62
     7
370
    25
100
AcDbPolyline
 90
        9
 70
   128
 43
0.0
 10
442.3884025692
 20
271.1796686888
 10
442.2422668814
 20
271.4541853309
 10
442.1016967772
 20
271.7182339073
 10
441.972071576
 20
271.9617412329
 10
441.858323562
 20
272.1754164339
 10
441.7647964238
 20
272.3511085749
 10
441.6950515388
 20
272.4821121336
 10
441.651756215
 20
272.5634426714
 10
441.6365644812
 20
272.5919858456
  0
ARC
  5
1DB
330
1F
100
AcDbEntity
  8
0
  6
Continuous
 62
     7
370
    25
100
AcDbCircle
 10
541.429863012
 20
331.7429017341
 30
0.0
 40
116.0909803844723
100
AcDbArc
 50
211.4455248003
 51
219.9460357178
  0
SPLINE
  5
1DC
330
1F
100
AcDbEntity
  8
0
  6
Continuous
 62
     7
370
    25
100
AcDbSpline
210
0.0
220
0.0
230
1.0
 70
     8
 71
     3
 72
    12
 73
     8
 74
     0
 42
0.000000001
 43
0.00000001
 40
0.0
 40
0.0
 40
0.0
 40
0.0
 40
0.218355266905145
 40
0.4367035591821588
 40
0.6553062726810802
 40
0.87469959412737
 40
1.0
 40
1.0
 40
1.0
 40
1.0
 10
456.030639159571
 20
260.687604630061
 30
0.0
 10
455.9715859989826
 20
260.6423183457108
 30
0.0
 10
455.8534815640612
 20
260.5517472235292
 30
0.0
 10
455.1929296092389
 20
259.9273112667156
 30
0.0
 10
454.2584800227611
 20
259.019679402531
 30
0.0
 10
453.2786760955657
 20
258.0530552624385
 30
0.0
 10
452.6553532449887
 20
257.4309837289302
 30
0.0
 10
452.4287677286972
 20
257.2048530817708
 30
0.0
  0
LWPOLYLINE
  5
1DD
330
1F
100
AcDbEntity
  8
0
  6
Continuous
 62
     7
370
    25
100
AcDbPolyline
 90
        9
 70
   128
 43
0.0
 10
572.7368502795
 20
443.4452132226
 10
572.7683550595
 20
443.4379191042
 10
572.8581196545
 20
443.417154336
 10
573.0027130722
 20
443.3836937786
 10
573.1966256081
 20
443.3388263822
 10
573.4324588357
 20
443.2842508794
 10
573.701216179
 20
443.2220683337
 10
573.9926493644
 20
443.1546331287
 10
574.2956384002
 20
443.0845231653
  0
LWPOLYLINE
  5
1DE
330
1F
100
AcDbEntity
  8
0
  6
Continuous
 62
     7
370
    25
100
AcDbPolyline
 90
        9
 70
   128
 43
0.0
 10
642.5527057527
 20
388.5909804047
 10
642.569827187
 20
388.5635473669
 10
642.6186135887
 20
388.4853870512
 10
642.6972023128
 20
388.3594871402
 10
642.8025907754
 20
388.1906420828
 10
642.9307631134
 20
387.9852966309
 10
643.076831746
 20
387.751281345
 10
643.2352161883
 20
387.4975257457
 10
643.3998889207
 20
387.2337044121
  0
SPLINE
  5
1DF
330
1F
100
AcDbEntity
  8
0
  6
Continuous
 62
     7
370
    25
100
AcDbSpline
210
0.0
220
0.0
230
1.0
 70
     8
 71
     3
 72
    12
 73
     8
 74
     0
 42
0.000000001
 43
0.00000001
 40
0.0
 40
0.0
 40
0.0
 40
0.0
 40
0.2191410122584458
 40
0.4382387984119334
 40
0.6574280098510679
 40
0.8769307521160213
 40
1.0
 40
1.0
 40
1.0
 40
1.0
 10
636.1136755823005
 20
389.8536451996048
 30
0.0
 10
636.1777565563619
 20
389.8919580834083
 30
0.0
 10
636.3059058643547
 20
389.9685762937044
 30
0.0
 10
637.0988921003353
 20
390.4179879025857
 30
0.0
 10
638.2362940517886
 20
391.0576225353975
 30
0.0
 10
639.4335827010405
 20
391.7276587941756
 30
0.0
 10
640.1970447031309
 20
392.1532428078144
 30
0.0
 10
640.4713190077651
 20
392.3061341882428
 30
0.0
  0
LWPOLYLINE
  5
1E0
330
1F
100
AcDbEntity
  8
0
  6
Continuous
 62
     7
370
    25
100
AcDbPolyline
 90
        9
 70
   128
 43
0.0
 10
641.2231645464
 20
390.8938133062
 10
641.207965362
 20
390.9223602057
 10
641.1646700381
 20
391.0036870182
 10
641.0949326037
 20
391.1346943021
 10
641.0014054655
 20
391.3103864432
 10
640.8876574515
 20
391.5240616441
 10
640.7580247997
 20
391.7675652445
 10
640.6174621462
 20
392.0316138209
 10
640.4713190078
 20
392.3061341882
  0
ARC
  5
1E1
330
1F
100
AcDbEntity
  8
0
  6
Continuous
 62
     7
370
    25
100
AcDbCircle
 10
541.429863012
 20
331.7429017341
 30
0.0
 40
116.0909803844722
100
AcDbArc
 50
31.4455248003
 51
39.9460357178
  0
SPLINE
  5
1E2
330
1F
100
AcDbEntity
  8
0
  6
Continuous
 62
     7
370
    25
100
AcDbSpline
210
0.0
220
0.0
230
1.0
 70
     8
 71
     3
 72
    12
 73
     8
 74
     0
 42
0.000000001
 43
0.00000001
 40
0.0
 40
0.0
 40
0.0
 40
0.0
 40
0.2183552772589443
 40
0.4367041150778106
 40
0.6553065785660303
 40
0.8746995904744967
 40
1.0
 40
1.0
 40
1.0
 40
1.0
 10
626.8290824173798
 20
402.7981982470235
 30
0.0
 10
626.8881349375972
 20
402.8434842750195
 30
0.0
 10
627.0062382365346
 20
402.9340549954969
 30
0.0
 10
627.6668006696217
 20
403.5584956595345
 30
0.0
 10
628.601246915906
 20
404.4661242097187
 30
0.0
 10
629.5810575326514
 20
405.4327405167442
 30
0.0
 10
630.2043713925184
 20
406.0548198359735
 30
0.0
 10
630.4309538482536
 20
406.280953520604
 30
0.0
  0
CIRCLE
  5
1E3
330
1F
100
AcDbEntity
  8
0
  6
Continuous
 62
     7
370
    25
100
AcDbCircle
 10
419.429863012
 20
331.7429017341
 30
0.0
 40
7.823771650427489
  0
CIRCLE
  5
1E4
330
1F
100
AcDbEntity
  8
0
  6
Continuous
 62
     7
370
    25
100
AcDbCircle
 10
419.429863012
 20
331.7429017341
 30
0.0
 40
5.25006982844593
  0
SPLINE
  5
1E5
330
1F
100
AcDbEntity
  8
0
  6
Continuous
 62
     7
370
    25
100
AcDbSpline
210
0.0
220
0.0
230
1.0
 70
     8
 71
     3
 72
    13
 73
     9
 74
     0
 42
0.000000001
 43
0.00000001
 40
0.0
 40
0.0
 40
0.0
 40
0.0
 40
0.1732696163520224
 40
0.3934502686059099
 40
0.5765240048600284
 40
0.7593803666174264
 40
0.968169038277788
 40
1.0
 40
1.0
 40
1.0
 40
1.0
 10
425.1334986566413
 20
326.1595965266904
 30
0.0
 10
425.5918572377507
 20
326.7136072666909
 30
0.0
 10
426.6326704550484
 20
327.9716216782937
 30
0.0
 10
427.3694795580337
 20
330.2452153085677
 30
0.0
 10
427.4347704361236
 20
332.7159108147379
 30
0.0
 10
426.8295170876899
 20
335.00359220127
 30
0.0
 10
425.9088263458851
 20
336.5077040372651
 30
0.0
 10
425.2240817804881
 20
337.2305790467036
 30
0.0
 10
425.1334986566413
 20
337.3262063503942
 30
0.0
  0
ARC
  5
1E6
330
1F
100
AcDbEntity
  8
0
  6
Continuous
 62
     7
370
    25
100
AcDbCircle
 10
419.429863012
 20
331.7429017341
 30
0.0
 40
7.981524471780117
100
AcDbArc
 50
44.3891963046
 51
315.6108036955
  0
CIRCLE
  5
1E7
330
1F
100
AcDbEntity
  8
0
  6
Continuous
 62
     7
370
    25
100
AcDbCircle
 10
663.429863012
 20
331.7429017341
 30
0.0
 40
7.825396152541316
  0
CIRCLE
  5
1E8
330
1F
100
AcDbEntity
  8
0
  6
Continuous
 62
     7
370
    25
100
AcDbCircle
 10
663.429863012
 20
331.7429017341
 30
0.0
 40
5.25006982844593
  0
SPLINE
  5
1E9
330
1F
100
AcDbEntity
  8
0
  6
Continuous
 62
     7
370
    25
100
AcDbSpline
210
0.0
220
0.0
230
1.0
 70
     8
 71
     3
 72
    13
 73
     9
 74
     0
 42
0.000000001
 43
0.00000001
 40
0.0
 40
0.0
 40
0.0
 40
0.0
 40
0.1731940971412245
 40
0.3933401641198305
 40
0.5763202340569781
 40
0.7590840331593972
 40
0.9677559022254898
 40
1.0
 40
1.0
 40
1.0
 40
1.0
 10
657.7260515569558
 20
337.3283502549609
 30
0.0
 10
657.2675825028027
 20
336.7744172720854
 30
0.0
 10
656.226355948428
 20
335.5163831127692
 30
0.0
 10
655.4890434703455
 20
333.242846623632
 30
0.0
 10
655.4231291805687
 20
330.7719888464649
 30
0.0
 10
656.0276580053486
 20
328.4842954019176
 30
0.0
 10
656.948383290165
 20
326.9784961296143
 30
0.0
 10
657.6342547869342
 20
326.2543694506138
 30
0.0
 10
657.7260515569557
 20
326.1574526221236
 30
0.0
  0
ARC
  5
1EA
330
1F
100
AcDbEntity
  8
0
  6
Continuous
 62
     7
370
    25
100
AcDbCircle
 10
663.429863012
 20
331.7429017341
 30
0.0
 40
7.983148973894008
100
AcDbArc
 50
224.3993137337
 51
135.6006862663
  0
ELLIPSE
  5
1EB
330
1F
100
AcDbEntity
  8
0
  6
Continuous
 62
     7
370
    25
100
AcDbEllipse
 10
420.43589911
 20
361.434256266
 30
0.0
 11
0.3742855200192139
 21
1.558391795757359
 31
0.0
210
0.0
220
0.0
230
1.0
 40
0.2761412075
 41
6.272322409428352
 42
7.837256064556179
  0
SPLINE
  5
1EC
330
1F
100
AcDbEntity
  8
0
  6
Continuous
 62
     7
370
    25
100
AcDbSpline
210
0.0
220
0.0
230
1.0
 70
     8
 71
     3
 72
    13
 73
     9
 74
     0
 42
0.000000001
 43
0.00000001
 40
0.0
 40
0.0
 40
0.0
 40
0.0
 40
0.0031712012762015
 40
0.06796865180678
 40
0.3102424035940266
 40
0.6067510108938605
 40
0.8183417097416307
 40
1.0
 40
1.0
 40
1.0
 40
1.0
 10
420.0118801473487
 20
361.5636612192473
 30
0.0
 10
420.0116886990229
 20
361.5664846656062
 30
0.0
 10
420.0075853692541
 20
361.6269998539382
 30
0.0
 10
419.990219257032
 20
361.9033043053329
 30
0.0
 10
419.962321176349
 20
362.434347364547
 30
0.0
 10
419.9010163723307
 20
363.0350692929076
 30
0.0
 10
419.8534565239082
 20
363.5999363609617
 30
0.0
 10
419.9258159331243
 20
363.9285859706822
 30
0.0
 10
419.9592417954315
 20
364.0804030836305
 30
0.0
  0
ELLIPSE
  5
1ED
330
1F
100
AcDbEntity
  8
0
  6
Continuous
 62
     7
370
    25
100
AcDbEllipse
 10
434.8792525221
 20
267.1822075085
 30
0.0
 11
-0.8372895772200196
 21
1.366609235831049
 31
0.0
210
0.0
220
0.0
230
1.0
 40
0.2761412075
 41
6.27232240942833
 42
7.837256064556135
  0
SPLINE
  5
1EE
330
1F
100
AcDbEntity
  8
0
  6
Continuous
 62
     7
370
    25
100
AcDbSpline
210
0.0
220
0.0
230
1.0
 70
     8
 71
     3
 72
    11
 73
     7
 74
     0
 42
0.000000001
 43
0.00000001
 40
0.0
 40
0.0
 40
0.0
 40
0.0
 40
0.253998336903218
 40
0.5956943527581346
 40
0.9966177013657621
 40
1.0
 40
1.0
 40
1.0
 40
1.0
 10
432.7109700917114
 20
268.5054317951878
 30
0.0
 10
432.8233425061395
 20
268.3390722927343
 30
0.0
 10
433.0868860139308
 20
267.9489145564773
 30
0.0
 10
433.7153118043553
 20
267.4776617971463
 30
0.0
 10
434.2101050973194
 20
267.1465872006179
 30
0.0
 10
434.4856212289572
 20
266.975315801771
 30
0.0
 10
434.4879261134971
 20
266.9738829971035
 30
0.0
  0
SPLINE
  5
1EF
330
1F
100
AcDbEntity
  8
0
  6
Continuous
 62
     7
370
    25
100
AcDbSpline
210
0.0
220
0.0
230
1.0
 70
     8
 71
     3
 72
    11
 73
     7
 74
     0
 42
0.000000001
 43
0.00000001
 40
0.0
 40
0.0
 40
0.0
 40
0.0
 40
0.0033817966239297
 40
0.4043053984115957
 40
0.7460011999259997
 40
1.0
 40
1.0
 40
1.0
 40
1.0
 10
431.8672812460769
 20
271.5129778624257
 30
0.0
 10
431.8673704064247
 20
271.510265797796
 30
0.0
 10
431.8780298321533
 20
271.1860291589391
 30
0.0
 10
431.9172100281437
 20
270.5919826480809
 30
0.0
 10
432.0111708125718
 20
269.8121267437956
 30
0.0
 10
432.2172773510853
 20
269.3888103897193
 30
0.0
 10
432.3051593183387
 20
269.208312118121
 30
0.0
  0
ELLIPSE
  5
1F0
330
1F
100
AcDbEntity
  8
0
  6
Continuous
 62
     7
370
    25
100
AcDbEllipse
 10
432.2433564817
 20
271.7477133739
 30
0.0
 11
-0.7648735266664062
 21
1.408418662111842
 31
0.0
210
0.0
220
0.0
230
1.0
 40
0.2761412075
 41
1.587521896213222
 42
3.152455551341149
  0
SPLINE
  5
1F1
330
1F
100
AcDbEntity
  8
0
  6
Continuous
 62
     7
370
    25
100
AcDbSpline
210
0.0
220
0.0
230
1.0
 70
     8
 71
     3
 72
    13
 73
     9
 74
     0
 42
0.000000001
 43
0.00000001
 40
0.0
 40
0.0
 40
0.0
 40
0.0
 40
0.1816576119577329
 40
0.3932486111181563
 40
0.6897571975504857
 40
0.9320306131532232
 40
0.9968281568231292
 40
1.0
 40
1.0
 40
1.0
 40
1.0
 10
420.0644737957824
 20
364.4731138736685
 30
0.0
 10
420.1114322187499
 20
364.6213045495468
 30
0.0
 10
420.2130868337875
 20
364.9421046351679
 30
0.0
 10
420.5367176031116
 20
365.4075082524089
 30
0.0
 10
420.8901300625124
 20
365.8971226104263
 30
0.0
 10
421.1799133204495
 20
366.3430019410017
 30
0.0
 10
421.3329974914
 20
366.5736781705361
 30
0.0
 10
421.3668499572829
 20
366.6240072363966
 30
0.0
 10
421.3684297083724
 20
366.6263558805665
 30
0.0
  0
ELLIPSE
  5
1F2
330
1F
100
AcDbEntity
  8
0
  6
Continuous
 62
     7
370
    25
100
AcDbEllipse
 10
421.8003393023
 20
366.5264163877
 30
0.0
 11
0.4550551292730916
 21
1.536749644184852
 31
0.0
210
0.0
220
0.0
230
1.0
 40
0.2761412075
 41
1.587521896213243
 42
3.152455551341658
  0
SPLINE
  5
1F3
330
1F
100
AcDbEntity
  8
0
  6
Continuous
 62
     7
370
    25
100
AcDbSpline
210
0.0
220
0.0
230
1.0
 70
     8
 71
     3
 72
    13
 73
     9
 74
     0
 42
0.000000001
 43
0.00000001
 40
0.0
 40
0.0
 40
0.0
 40
0.0
 40
0.181658648530471
 40
0.3932497981914805
 40
0.6897600684932652
 40
0.9320330895579908
 40
0.9968306793171364
 40
0.9999999999999999
 40
0.9999999999999999
 40
0.9999999999999999
 40
0.9999999999999999
 10
508.6996502159942
 20
210.3775069952687
 30
0.0
 10
508.5514602107733
 20
210.4244691971935
 30
0.0
 10
508.2306624391362
 20
210.5261317196164
 30
0.0
 10
507.7652452877547
 20
210.8497440034128
 30
0.0
 10
507.2756862802513
 20
211.2032422525537
 30
0.0
 10
506.8296759611548
 20
211.492831128927
 30
0.0
 10
506.599139462692
 20
211.6461185325449
 30
0.0
 10
506.5487575358741
 20
211.6798882157794
 30
0.0
 10
506.5464082090962
 20
211.6814629078588
 30
0.0
  0
ELLIPSE
  5
1F4
330
1F
100
AcDbEntity
  8
0
  6
Continuous
 62
     7
370
    25
100
AcDbEllipse
 10
506.6463483585
 20
212.1133780244
 30
0.0
 11
1.536749644184795
 21
-0.4550551292730348
 31
0.0
210
0.0
220
0.0
230
1.0
 40
0.2761412075
 41
4.729114549802989
 42
6.294048204930847
  0
SPLINE
  5
1F5
330
1F
100
AcDbEntity
  8
0
  6
Continuous
 62
     7
370
    25
100
AcDbSpline
210
0.0
220
0.0
230
1.0
 70
     8
 71
     3
 72
    13
 73
     9
 74
     0
 42
0.000000001
 43
0.00000001
 40
0.0
 40
0.0
 40
0.0
 40
0.0
 40
0.0031719215328773
 40
0.0679694285500164
 40
0.3102432503317263
 40
0.6067509402978136
 40
0.8183415606483744
 40
1.0
 40
1.0
 40
1.0
 40
1.0
 10
481.1999372123588
 20
441.3054809809407
 30
0.0
 10
481.1971593330605
 20
441.3049373583754
 30
0.0
 10
481.1376336271044
 20
441.293288358004
 30
0.0
 10
480.8662740241366
 20
441.2384205072472
 30
0.0
 10
480.3460828129032
 20
441.1280415630705
 30
0.0
 10
479.7499731090483
 20
441.0317359927802
 30
0.0
 10
479.1920433382201
 20
440.9314846861202
 30
0.0
 10
478.8933201418809
 20
440.7765296122163
 30
0.0
 10
478.7553272127021
 20
440.7049492836674
 30
0.0
  0
ELLIPSE
  5
1F6
330
1F
100
AcDbEntity
  8
0
  6
Continuous
 62
     7
370
    25
100
AcDbEllipse
 10
481.4346746518
 20
440.9294082644
 30
0.0
 11
1.408418662111785
 21
0.7648735266664062
 31
0.0
210
0.0
220
0.0
230
1.0
 40
0.2761412075
 41
1.587521896213231
 42
3.152455551341024
  0
ELLIPSE
  5
1F7
330
1F
100
AcDbEntity
  8
0
  6
Continuous
 62
     7
370
    25
100
AcDbEllipse
 10
511.7385084801
 20
210.7489378321
 30
0.0
 11
1.558391795757359
 21
-0.3742855200192423
 31
0.0
210
0.0
220
0.0
230
1.0
 40
0.2761412075
 41
3.130729755838692
 42
4.695663410966357
  0
SPLINE
  5
1F8
330
1F
100
AcDbEntity
  8
0
  6
Continuous
 62
     7
370
    25
100
AcDbSpline
210
0.0
220
0.0
230
1.0
 70
     8
 71
     3
 72
    13
 73
     9
 74
     0
 42
0.000000001
 43
0.00000001
 40
0.0
 40
0.0
 40
0.0
 40
0.0
 40
0.003171736349212
 40
0.0679689843020345
 40
0.3102419605160466
 40
0.6067506762860718
 40
0.8183411326534935
 40
1.0
 40
1.0
 40
1.0
 40
1.0
 10
511.6091038017381
 20
210.3249207974156
 30
0.0
 10
511.6062800492828
 20
210.3247268016288
 30
0.0
 10
511.5457682143821
 20
210.3205695529992
 30
0.0
 10
511.2694535235323
 20
210.3033590348362
 30
0.0
 10
510.7384209235829
 20
210.2753177729576
 30
0.0
 10
510.1376966361476
 20
210.2140493596908
 30
0.0
 10
509.5728289853931
 20
210.1665074315332
 30
0.0
 10
509.2441787576041
 20
210.2388648675382
 30
0.0
 10
509.0923610060323
 20
210.272289896079
 30
0.0
  0
ELLIPSE
  5
1F9
330
1F
100
AcDbEntity
  8
0
  6
Continuous
 62
     7
370
    25
100
AcDbEllipse
 10
476.8691687864
 20
438.293512224
 30
0.0
 11
1.366609235830992
 21
0.8372895772199628
 31
0.0
210
0.0
220
0.0
230
1.0
 40
0.2761412075
 41
6.272322409428504
 42
7.837256064556186
  0
SPLINE
  5
1FA
330
1F
100
AcDbEntity
  8
0
  6
Continuous
 62
     7
370
    25
100
AcDbSpline
210
0.0
220
0.0
230
1.0
 70
     8
 71
     3
 72
    13
 73
     9
 74
     0
 42
0.000000001
 43
0.00000001
 40
0.0
 40
0.0
 40
0.0
 40
0.0
 40
0.0031705921820922
 40
0.0679678228889594
 40
0.3102406765970188
 40
0.6067502788172023
 40
0.8183413749653257
 40
1.0
 40
1.0
 40
1.0
 40
1.0
 10
476.660846072327
 20
438.6848435641011
 30
0.0
 10
476.6627073251823
 20
438.6869745634796
 30
0.0
 10
476.7026069077081
 20
438.7326566884629
 30
0.0
 10
476.8856767164848
 20
438.9403347866998
 30
0.0
 10
477.2414804568318
 20
439.3355419173923
 30
0.0
 10
477.6228915215589
 20
439.8036790029548
 30
0.0
 10
477.988687894146
 20
440.236727780977
 30
0.0
 10
478.2722446023135
 20
440.4179523664661
 30
0.0
 10
478.403231400143
 20
440.5016676426609
 30
0.0
  0
ELLIPSE
  5
1FB
330
1F
100
AcDbEntity
  8
0
  6
Continuous
 62
     7
370
    25
100
AcDbEllipse
 10
605.9905572376
 20
225.1922912442
 30
0.0
 11
1.366609235830992
 21
0.8372895772199914
 31
0.0
210
0.0
220
0.0
230
1.0
 40
0.2761412075
 41
3.130729755838451
 42
4.695663410966281
  0
SPLINE
  5
1FC
330
1F
100
AcDbEntity
  8
0
  6
Continuous
 62
     7
370
    25
100
AcDbSpline
210
0.0
220
0.0
230
1.0
 70
     8
 71
     3
 72
    13
 73
     9
 74
     0
 42
0.000000001
 43
0.00000001
 40
0.0
 40
0.0
 40
0.0
 40
0.0
 40
0.0031717671556014
 40
0.0679697768936109
 40
0.3102421088940807
 40
0.6067502501170392
 40
0.8183417661469291
 40
1.0
 40
1.0
 40
1.0
 40
1.0
 10
606.198879229914
 20
224.800966763564
 30
0.0
 10
606.1970192676895
 20
224.7988332380024
 30
0.0
 10
606.1571609769553
 20
224.7531125878706
 30
0.0
 10
605.9739774114521
 20
224.5455313199946
 30
0.0
 10
605.6182791733567
 20
224.1502316991995
 30
0.0
 10
605.2368314477247
 20
223.6821276842838
 30
0.0
 10
604.8710385221424
 20
223.2490749421804
 30
0.0
 10
604.5874808524638
 20
223.0678503344921
 30
0.0
 10
604.456493902098
 20
222.9841352344235
 30
0.0
  0
SPLINE
  5
1FD
330
1F
100
AcDbEntity
  8
0
  6
Continuous
 62
     7
370
    25
100
AcDbSpline
210
0.0
220
0.0
230
1.0
 70
     8
 71
     3
 72
    13
 73
     9
 74
     0
 42
0.000000001
 43
0.00000001
 40
0.0
 40
0.0
 40
0.0
 40
0.0
 40
0.181658476363069
 40
0.3932491398235137
 40
0.6897594150509021
 40
0.9320332861939512
 40
0.9968294433889462
 40
1.0
 40
1.0
 40
1.0
 40
1.0
 10
604.1044018148292
 20
222.7808535934171
 30
0.0
 10
603.9664088584999
 20
222.7092733190617
 30
0.0
 10
603.6676856033863
 20
222.5543183624745
 30
0.0
 10
603.109754356672
 20
222.4540655582608
 30
0.0
 10
602.5136398191643
 20
222.357765479483
 30
0.0
 10
601.9934501067879
 20
222.2473756432449
 30
0.0
 10
601.7220907614493
 20
222.1925191960383
 30
0.0
 10
601.6625684515943
 20
222.1808655243937
 30
0.0
 10
601.6597918151725
 20
222.1803218961438
 30
0.0
  0
ELLIPSE
  5
1FE
330
1F
100
AcDbEntity
  8
0
  6
Continuous
 62
     7
370
    25
100
AcDbEllipse
 10
601.4250513722
 20
222.5563952038
 30
0.0
 11
1.408418662111785
 21
0.7648735266663776
 31
0.0
210
0.0
220
0.0
230
1.0
 40
0.2761412075
 41
4.729114549803061
 42
6.294048204930704
  0
ELLIPSE
  5
1FF
330
1F
100
AcDbEntity
  8
0
  6
Continuous
 62
     7
370
    25
100
AcDbEllipse
 10
571.1212175439
 20
452.7368656361
 30
0.0
 11
1.558391795757416
 21
-0.3742855200192139
 31
0.0
210
0.0
220
0.0
230
1.0
 40
0.2761412075
 41
6.272322409428536
 42
7.837256064556104
  0
SPLINE
  5
200
330
1F
100
AcDbEntity
  8
0
  6
Continuous
 62
     7
370
    25
100
AcDbSpline
210
0.0
220
0.0
230
1.0
 70
     8
 71
     3
 72
    13
 73
     9
 74
     0
 42
0.000000001
 43
0.00000001
 40
0.0
 40
0.0
 40
0.0
 40
0.0
 40
0.1816584692791248
 40
0.3932487377950046
 40
0.6897576372983752
 40
0.9320316278417503
 40
0.9968284485162141
 40
0.9999999999999999
 40
0.9999999999999999
 40
0.9999999999999999
 40
0.9999999999999999
 10
573.7673624335636
 20
453.2135204315861
 30
0.0
 10
573.6155452947914
 20
453.2469463038468
 30
0.0
 10
573.2868961630735
 20
453.3193056170587
 30
0.0
 10
572.7220301381145
 20
453.2717458884862
 30
0.0
 10
572.121308570977
 20
453.2104405899009
 30
0.0
 10
571.5902660641776
 20
453.1825439519928
 30
0.0
 10
571.3139620309229
 20
453.1651763760942
 30
0.0
 10
571.253447119985
 20
453.1610735274735
 30
0.0
 10
571.2506233631481
 20
453.1608820796689
 30
0.0
  0
SPLINE
  5
201
330
1F
100
AcDbEntity
  8
0
  6
Continuous
 62
     7
370
    25
100
AcDbSpline
210
0.0
220
0.0
230
1.0
 70
     8
 71
     3
 72
    13
 73
     9
 74
     0
 42
0.000000001
 43
0.00000001
 40
0.0
 40
0.0
 40
0.0
 40
0.0
 40
0.1816585293749205
 40
0.393249540246722
 40
0.6897581430905445
 40
0.9320310052408697
 40
0.9968291311776464
 40
1.0
 40
1.0
 40
1.0
 40
1.0
 10
574.1600750862468
 20
453.1082958818158
 30
0.0
 10
574.3082653639223
 20
453.0613341001142
 30
0.0
 10
574.6290637253611
 20
452.9596724873791
 30
0.0
 10
575.0944741989233
 20
452.6360521279747
 30
0.0
 10
575.5840612124576
 20
452.2825991796348
 30
0.0
 10
576.030008277053
 20
451.9929170302451
 30
0.0
 10
576.2606114010673
 20
451.8397255724823
 30
0.0
 10
576.3109696577515
 20
451.8059171876864
 30
0.0
 10
576.3133189557899
 20
451.8043399692257
 30
0.0
  0
ELLIPSE
  5
202
330
1F
100
AcDbEntity
  8
0
  6
Continuous
 62
     7
370
    25
100
AcDbEllipse
 10
576.2133776656
 20
451.3724254438
 30
0.0
 11
1.536749644184738
 21
-0.4550551292730914
 31
0.0
210
0.0
220
0.0
230
1.0
 40
0.2761412075
 41
1.587521896213331
 42
3.152455551341028
  0
SPLINE
  5
203
330
1F
100
AcDbEntity
  8
0
  6
Continuous
 62
     7
370
    25
100
AcDbSpline
210
0.0
220
0.0
230
1.0
 70
     8
 71
     3
 72
    13
 73
     9
 74
     0
 42
0.000000001
 43
0.00000001
 40
0.0
 40
0.0
 40
0.0
 40
0.0
 40
0.1816579841764041
 40
0.3932483600155123
 40
0.6897575459329005
 40
0.9320308146886667
 40
0.9968275887965564
 40
1.0
 40
1.0
 40
1.0
 40
1.0
 10
662.7952626823295
 20
299.0126908660611
 30
0.0
 10
662.748301124781
 20
298.8645004288614
 30
0.0
 10
662.6466399972868
 20
298.5437017220883
 30
0.0
 10
662.3230142705127
 20
298.0782935826467
 30
0.0
 10
661.969583882185
 20
297.5886879847152
 30
0.0
 10
661.6798206537162
 20
297.1427938422926
 30
0.0
 10
661.5267177569672
 20
296.9121295813208
 30
0.0
 10
661.4928716122266
 20
296.8617962665716
 30
0.0
 10
661.4912918685783
 20
296.859446996518
 30
0.0
  0
ELLIPSE
  5
204
330
1F
100
AcDbEntity
  8
0
  6
Continuous
 62
     7
370
    25
100
AcDbEllipse
 10
661.0593867217
 20
296.9593870805
 30
0.0
 11
0.4550551292730916
 21
1.536749644184852
 31
0.0
210
0.0
220
0.0
230
1.0
 40
0.2761412075
 41
4.729114549803079
 42
6.29404820493094
  0
ELLIPSE
  5
205
330
1F
100
AcDbEntity
  8
0
  6
Continuous
 62
     7
370
    25
100
AcDbEllipse
 10
647.9804735019
 20
396.3035959597
 30
0.0
 11
-0.8372895772200762
 21
1.366609235831049
 31
0.0
210
0.0
220
0.0
230
1.0
 40
0.2761412075
 41
3.130729755838445
 42
4.695663410966336
  0
SPLINE
  5
206
330
1F
100
AcDbEntity
  8
0
  6
Continuous
 62
     7
370
    25
100
AcDbSpline
210
0.0
220
0.0
230
1.0
 70
     8
 71
     3
 72
    13
 73
     9
 74
     0
 42
0.000000001
 43
0.00000001
 40
0.0
 40
0.0
 40
0.0
 40
0.0
 40
0.0031696792677328
 40
0.067967876838634
 40
0.3102429506901715
 40
0.6067499857085322
 40
0.818341239566074
 40
1.0
 40
1.0
 40
1.0
 40
1.0
 10
648.3718029140343
 20
396.5119161546907
 30
0.0
 10
648.3739339294157
 20
396.5100561619078
 30
0.0
 10
648.4196295909494
 20
396.4701720759468
 30
0.0
 10
648.6272695882158
 20
396.2870559757091
 30
0.0
 10
649.022520300765
 20
395.9313004384827
 30
0.0
 10
649.4906367353365
 20
395.5498696081865
 30
0.0
 10
649.9236877332195
 20
395.1840786561528
 30
0.0
 10
650.104911906716
 20
394.9005215389466
 30
0.0
 10
650.1886269925942
 20
394.7695345521649
 30
0.0
  0
ELLIPSE
  5
207
330
1F
100
AcDbEntity
  8
0
  6
Continuous
 62
     7
370
    25
100
AcDbEllipse
 10
662.423826914
 20
302.0515472022
 30
0.0
 11
0.374285520019157
 21
1.558391795757359
 31
0.0
210
0.0
220
0.0
230
1.0
 40
0.2761412075
 41
3.130729755838163
 42
4.695663410966288
  0
SPLINE
  5
208
330
1F
100
AcDbEntity
  8
0
  6
Continuous
 62
     7
370
    25
100
AcDbSpline
210
0.0
220
0.0
230
1.0
 70
     8
 71
     3
 72
    13
 73
     9
 74
     0
 42
0.000000001
 43
0.00000001
 40
0.0
 40
0.0
 40
0.0
 40
0.0
 40
0.0031713613568374
 40
0.0679682914251231
 40
0.31024202976769
 40
0.606750393866569
 40
0.8183417198225309
 40
1.0
 40
1.0
 40
1.0
 40
1.0
 10
662.8478488801826
 20
301.9221425891599
 30
0.0
 10
662.8480377800402
 20
301.9193188280005
 30
0.0
 10
662.8520862624198
 20
301.8588002683672
 30
0.0
 10
662.8696107146818
 20
301.5825067262446
 30
0.0
 10
662.8973610358024
 20
301.0514544243209
 30
0.0
 10
662.9587131630996
 20
300.4507354107372
 30
0.0
 10
663.0062637126395
 20
299.8858668758516
 30
0.0
 10
662.933905183145
 20
299.5572168513663
 30
0.0
 10
662.9004797815193
 20
299.405399793454
 30
0.0
  0
SPLINE
  5
209
330
1F
100
AcDbEntity
  8
0
  6
Continuous
 62
     7
370
    25
100
AcDbSpline
210
0.0
220
0.0
230
1.0
 70
     8
 71
     3
 72
    13
 73
     9
 74
     0
 42
0.000000001
 43
0.00000001
 40
0.0
 40
0.0
 40
0.0
 40
0.0
 40
0.1816583606902758
 40
0.3932488894183175
 40
0.68975771341502
 40
0.9320314302878365
 40
0.9968289092464974
 40
0.9999999999999999
 40
0.9999999999999999
 40
0.9999999999999999
 40
0.9999999999999999
 10
650.3919086336006
 20
394.4174387396058
 30
0.0
 10
650.4634884460196
 20
394.2794457008174
 30
0.0
 10
650.6184424026203
 20
393.9807222671985
 30
0.0
 10
650.7187046602352
 20
393.4227937618908
 30
0.0
 10
650.8149555784044
 20
392.8266714480474
 30
0.0
 10
650.9254722027442
 20
392.3065063420094
 30
0.0
 10
650.9801950806112
 20
392.0351190239234
 30
0.0
 10
650.9919016103581
 20
391.9756053647214
 30
0.0
 10
650.9924477814544
 20
391.9728287399491
 30
0.0
  0
ELLIPSE
  5
20A
330
1F
100
AcDbEntity
  8
0
  6
Continuous
 62
     7
370
    25
100
AcDbEllipse
 10
650.6163695423
 20
391.7380900943
 30
0.0
 11
-0.7648735266664062
 21
1.408418662111785
 31
0.0
210
0.0
220
0.0
230
1.0
 40
0.2761412075
 41
4.729114549803071
 42
6.294048204931005
  0
LWPOLYLINE
  5
20B
330
1F
100
AcDbEntity
  8
0
  6
Continuous
 62
     7
370
    25
100
AcDbPolyline
 90
        9
 70
   128
 43
0.0
 10
657.3690346359
 20
325.8078397155
 10
657.4371925472
 20
325.8745894671
 10
657.502854514
 20
325.938886115
 10
657.5635990976
 20
325.9983678252
 10
657.6171985744
 20
326.0508497149
 10
657.6616636394
 20
326.0944002212
 10
657.6953849672
 20
326.127423057
 10
657.7171108602
 20
326.1487000526
 10
657.726051557
 20
326.1574526221
  0
LWPOLYLINE
  5
20C
330
1F
100
AcDbEntity
  8
0
  6
Continuous
 62
     7
370
    25
100
AcDbPolyline
 90
        9
 70
   128
 43
0.0
 10
657.726051557
 20
337.328350255
 10
657.7171108602
 20
337.3371028245
 10
657.6953849672
 20
337.3583807514
 10
657.6616636394
 20
337.3914026559
 10
657.6171985744
 20
337.4349540935
 10
657.5635990976
 20
337.4874350519
 10
657.502854514
 20
337.5469167621
 10
657.4371925472
 20
337.6112143413
 10
657.3690346359
 20
337.6779640929
  0
LWPOLYLINE
  5
20D
330
1F
100
AcDbEntity
  8
0
  6
Continuous
 62
     7
370
    25
100
AcDbPolyline
 90
        9
 70
   128
 43
0.0
 10
425.4905826329
 20
337.6757577897
 10
425.4224023699
 20
337.609019214
 10
425.3567329525
 20
337.5447337419
 10
425.2959809183
 20
337.4852622763
 10
425.2423814415
 20
337.4327906311
 10
425.1978940247
 20
337.3892475755
 10
425.164172697
 20
337.3562321902
 10
425.1424393534
 20
337.3349579886
 10
425.1334986566
 20
337.3262063504
  0
LWPOLYLINE
  5
20E
330
1F
100
AcDbEntity
  8
0
  6
Continuous
 62
     7
370
    25
100
AcDbPolyline
 90
        9
 70
   128
 43
0.0
 10
425.1334986566
 20
326.1595965267
 10
425.1424393534
 20
326.1508458198
 10
425.164172697
 20
326.1295706869
 10
425.1978940247
 20
326.0965553016
 10
425.2423814415
 20
326.053012246
 10
425.2959809183
 20
326.0005415321
 10
425.3567329525
 20
325.9410691351
 10
425.4224023699
 20
325.8767836631
 10
425.4905826329
 20
325.8100450874
  0
LINE
  5
20F
330
1F
100
AcDbEntity
  8
0
  6
Continuous
 62
     7
370
    25
100
AcDbLine
 10
431.8672812461
 20
271.5129778624
 30
0.0
 11
439.4598326563
 21
276.252098465
 31
0.0
  0
LINE
  5
210
330
1F
100
AcDbEntity
  8
0
  6
Continuous
 62
     7
370
    25
100
AcDbLine
 10
442.3884025692
 20
271.1796686888
 30
0.0
 11
434.4879261135
 21
266.9738829971
 31
0.0
  0
LINE
  5
211
330
1F
100
AcDbEntity
  8
0
  6
Continuous
 62
     7
370
    25
100
AcDbLine
 10
428.5723066806
 20
358.9511169956
 30
0.0
 11
420.0118801473
 21
361.5636612192
 31
0.0
  0
LINE
  5
212
330
1F
100
AcDbEntity
  8
0
  6
Continuous
 62
     7
370
    25
100
AcDbLine
 10
421.3684297084
 20
366.6263558806
 30
0.0
 11
430.0882390617
 21
364.608675325
 31
0.0
  0
LINE
  5
213
330
1F
100
AcDbEntity
  8
0
  6
Continuous
 62
     7
370
    25
100
AcDbLine
 10
506.5464082091
 20
211.6814629079
 30
0.0
 11
508.5640887647
 21
220.4012797118
 31
0.0
  0
LINE
  5
214
330
1F
100
AcDbEntity
  8
0
  6
Continuous
 62
     7
370
    25
100
AcDbLine
 10
514.2216480254
 20
218.8853398801
 30
0.0
 11
511.6091038017
 21
210.3249207974
 31
0.0
  0
LINE
  5
215
330
1F
100
AcDbEntity
  8
0
  6
Continuous
 62
     7
370
    25
100
AcDbLine
 10
481.1999372124
 20
441.3054809809
 30
0.0
 11
485.939057815
 21
433.7129295707
 31
0.0
  0
LINE
  5
216
330
1F
100
AcDbEntity
  8
0
  6
Continuous
 62
     7
370
    25
100
AcDbLine
 10
480.8666317641
 20
430.7843596578
 30
0.0
 11
476.6608460723
 21
438.6848435641
 31
0.0
  0
LINE
  5
217
330
1F
100
AcDbEntity
  8
0
  6
Continuous
 62
     7
370
    25
100
AcDbLine
 10
601.6597918152
 20
222.1803218961
 30
0.0
 11
596.920663762
 21
229.7728733063
 31
0.0
  0
LINE
  5
218
330
1F
100
AcDbEntity
  8
0
  6
Continuous
 62
     7
370
    25
100
AcDbLine
 10
601.9930935382
 20
232.7014432193
 30
0.0
 11
606.1988792299
 21
224.8009667636
 31
0.0
  0
LINE
  5
219
330
1F
100
AcDbEntity
  8
0
  6
Continuous
 62
     7
370
    25
100
AcDbLine
 10
576.3133189558
 20
451.8043399692
 30
0.0
 11
574.2956384002
 21
443.0845231653
 31
0.0
  0
LINE
  5
21A
330
1F
100
AcDbEntity
  8
0
  6
Continuous
 62
     7
370
    25
100
AcDbLine
 10
568.6380772768
 20
444.600462997
 30
0.0
 11
571.2506233631
 21
453.1608820797
 31
0.0
  0
LINE
  5
21B
330
1F
100
AcDbEntity
  8
0
  6
Continuous
 62
     7
370
    25
100
AcDbLine
 10
640.4713190078
 20
392.3061341882
 30
0.0
 11
648.371802914
 21
396.5119161547
 31
0.0
  0
LINE
  5
21C
330
1F
100
AcDbEntity
  8
0
  6
Continuous
 62
     7
370
    25
100
AcDbLine
 10
661.4912918686
 20
296.8594469965
 30
0.0
 11
652.7714825152
 21
298.8771275521
 31
0.0
  0
LINE
  5
21D
330
1F
100
AcDbEntity
  8
0
  6
Continuous
 62
     7
370
    25
100
AcDbLine
 10
650.9924477815
 20
391.9728287399
 30
0.0
 11
643.3998889207
 21
387.2337044121
 31
0.0
  0
LINE
  5
21E
330
1F
100
AcDbEntity
  8
0
  6
Continuous
 62
     7
370
    25
100
AcDbLine
 10
654.287422347
 20
304.5346849502
 30
0.0
 11
662.8478488802
 21
301.9221425892
 31
0.0
  0
LWPOLYLINE
  5
21F
330
1F
100
AcDbEntity
  8
0
  6
Continuous
 62
     7
370
    25
100
AcDbPolyline
 90
        9
 70
   128
 43
0.0
 10
420.0644737958
 20
364.4731138737
 10
420.0215957044
 20
364.4846026689
 10
419.9508598923
 20
364.5035550833
 10
419.8544419288
 20
364.5293918342
 10
419.7352773427
 20
364.5613194347
 10
419.5970392703
 20
364.5983618588
 10
419.4439372896
 20
364.6393847556
 10
419.2806876181
 20
364.6831289769
 10
419.1122746943
 20
364.7282552809
  0
SPLINE
  5
220
330
1F
100
AcDbEntity
  8
0
  6
Continuous
 62
     7
370
    25
100
AcDbSpline
210
0.0
220
0.0
230
1.0
 70
     8
 71
     3
 72
    13
 73
     9
 74
     0
 42
0.000000001
 43
0.00000001
 40
0.0
 40
0.0
 40
0.0
 40
0.0
 40
0.2544604674366255
 40
0.5083240420920458
 40
0.7824910697178588
 40
0.9559557063260691
 40
0.997109451751077
 40
1.0
 40
1.0
 40
1.0
 40
1.0
 10
419.1122746943344
 20
364.7282552809199
 30
0.0
 10
419.2067367180318
 20
364.9759050834348
 30
0.0
 10
419.3954391840525
 20
365.4706237715903
 30
0.0
 10
419.9810165611666
 20
366.0566603187391
 30
0.0
 10
420.6215056981098
 20
366.4081403032284
 30
0.0
 10
421.1040187448291
 20
366.5593234275888
 30
0.0
 10
421.3214072308697
 20
366.6148119084505
 30
0.0
 10
421.3655337629631
 20
366.6256449288083
 30
0.0
 10
421.3684297083724
 20
366.6263558805665
 30
0.0
  0
LWPOLYLINE
  5
221
330
1F
100
AcDbEntity
  8
0
  6
Continuous
 62
     7
370
    25
100
AcDbPolyline
 90
        9
 70
   128
 43
0.0
 10
419.9592417954
 20
364.0804030836
 10
419.9163711547
 20
364.0918918789
 10
419.8456353425
 20
364.1108442933
 10
419.7492099284
 20
364.1366810442
 10
419.6300527929
 20
364.1686086447
 10
419.4918072699
 20
364.2056510688
 10
419.3387127398
 20
364.2466739655
 10
419.1754556178
 20
364.2904181869
 10
419.007042694
 20
364.3355444909
  0
SPLINE
  5
222
330
1F
100
AcDbEntity
  8
0
  6
Continuous
 62
     7
370
    25
100
AcDbSpline
210
0.0
220
0.0
230
1.0
 70
     8
 71
     3
 72
    13
 73
     9
 74
     0
 42
0.000000001
 43
0.00000001
 40
0.0
 40
0.0
 40
0.0
 40
0.0
 40
0.0028894247234232
 40
0.0440420607607053
 40
0.2175083428155321
 40
0.4916746486292917
 40
0.7455389333163333
 40
1.0
 40
1.0
 40
1.0
 40
1.0
 10
420.0118801473487
 20
361.5636612192473
 30
0.0
 10
420.0097290073281
 20
361.5657246223216
 30
0.0
 10
419.9769402522775
 20
361.5971760468337
 30
0.0
 10
419.8164047616155
 20
361.7539072182235
 30
0.0
 10
419.4741418368701
 20
362.1261069748311
 30
0.0
 10
419.0951943548216
 20
362.7507363892809
 30
0.0
 10
418.8810935619478
 20
363.5510504001087
 30
0.0
 10
418.9650268036541
 20
364.0738418721405
 30
0.0
 10
419.0070426939834
 20
364.3355444908818
 30
0.0
  0
LWPOLYLINE
  5
223
330
1F
100
AcDbEntity
  8
0
  6
Continuous
 62
     7
370
    25
100
AcDbPolyline
 90
        9
 70
   128
 43
0.0
 10
477.9103382408
 20
441.3553849698
 10
477.997513759
 20
441.2043915034
 10
478.0820219694
 20
441.058017397
 10
478.16127007
 20
440.9207553507
 10
478.2328291713
 20
440.7968074918
 10
478.2945088028
 20
440.6899736167
 10
478.3444239675
 20
440.60352453
 10
478.3810361205
 20
440.540105188
 10
478.4032314001
 20
440.5016676427
  0
SPLINE
  5
224
330
1F
100
AcDbEntity
  8
0
  6
Continuous
 62
     7
370
    25
100
AcDbSpline
210
0.0
220
0.0
230
1.0
 70
     8
 71
     3
 72
    13
 73
     9
 74
     0
 42
0.000000001
 43
0.00000001
 40
0.0
 40
0.0
 40
0.0
 40
0.0
 40
0.0028895328896237
 40
0.0440422148311494
 40
0.2175075653222106
 40
0.4916744309099834
 40
0.7455393928078934
 40
0.9999999999999999
 40
0.9999999999999999
 40
0.9999999999999999
 40
0.9999999999999999
 10
476.660846072327
 20
438.6848435641011
 30
0.0
 10
476.6607833878717
 20
438.6878237944858
 30
0.0
 10
476.6598279523904
 20
438.7332484191097
 30
0.0
 10
476.6571618257557
 20
438.9575895565655
 30
0.0
 10
476.6783124230284
 20
439.4627899684122
 30
0.0
 10
476.8520472758234
 20
440.1724245789308
 30
0.0
 10
477.2665472288822
 20
440.8897343481277
 30
0.0
 10
477.6955736620559
 20
441.2000468899748
 30
0.0
 10
477.9103382407535
 20
441.3553849697789
 30
0.0
  0
LWPOLYLINE
  5
225
330
1F
100
AcDbEntity
  8
0
  6
Continuous
 62
     7
370
    25
100
AcDbPolyline
 90
        9
 70
   128
 43
0.0
 10
478.262430328
 20
441.5586666108
 10
478.3496095716
 20
441.4076731444
 10
478.434117782
 20
441.261299038
 10
478.5133621572
 20
441.1240369917
 10
478.5849249839
 20
441.0000965834
 10
478.6466046153
 20
440.8932552577
 10
478.6965160548
 20
440.806806171
 10
478.7331319331
 20
440.743386829
 10
478.7553272127
 20
440.7049492837
  0
SPLINE
  5
226
330
1F
100
AcDbEntity
  8
0
  6
Continuous
 62
     7
370
    25
100
AcDbSpline
210
0.0
220
0.0
230
1.0
 70
     8
 71
     3
 72
    13
 73
     9
 74
     0
 42
0.000000001
 43
0.00000001
 40
0.0
 40
0.0
 40
0.0
 40
0.0
 40
0.2544609583159606
 40
0.5083246601992751
 40
0.7824910037057223
 40
0.9559563674624254
 40
0.9971094809494627
 40
1.0
 40
1.0
 40
1.0
 40
1.0
 10
478.2624303280223
 20
441.5586666107853
 30
0.0
 10
478.5043405983847
 20
441.6669884140672
 30
0.0
 10
478.9875933409448
 20
441.8833777737939
 30
0.0
 10
479.8160501614133
 20
441.8836878706792
 30
0.0
 10
480.517482103631
 20
441.679336882665
 30
0.0
 10
480.9655690403191
 20
441.4450443870286
 30
0.0
 10
481.1585276793941
 20
441.330572108709
 30
0.0
 10
481.1973869362836
 20
441.3070262604517
 30
0.0
 10
481.1999372123588
 20
441.3054809809407
 30
0.0
  0
LWPOLYLINE
  5
227
330
1F
100
AcDbEntity
  8
0
  6
Continuous
 62
     7
370
    25
100
AcDbPolyline
 90
        9
 70
   128
 43
0.0
 10
509.092361006
 20
210.2722898961
 10
509.0808722108
 20
210.2294043542
 10
509.0619197964
 20
210.158668542
 10
509.0360830455
 20
210.0622580291
 10
509.004155445
 20
209.943093443
 10
508.9671130209
 20
209.8048404694
 10
508.9260919868
 20
209.6517459393
 10
508.8823477655
 20
209.4885037184
 10
508.8372214614
 20
209.3200907946
  0
SPLINE
  5
228
330
1F
100
AcDbEntity
  8
0
  6
Continuous
 62
     7
370
    25
100
AcDbSpline
210
0.0
220
0.0
230
1.0
 70
     8
 71
     3
 72
    13
 73
     9
 74
     0
 42
0.000000001
 43
0.00000001
 40
0.0
 40
0.0
 40
0.0
 40
0.0
 40
0.002889424904845
 40
0.0440439953357681
 40
0.2175086786502243
 40
0.4916750016783905
 40
0.7455393023051115
 40
1.0
 40
1.0
 40
1.0
 40
1.0
 10
511.6091038017381
 20
210.3249207974156
 30
0.0
 10
511.6070403956464
 20
210.3227696603553
 30
0.0
 10
511.5755875455903
 20
210.2899795122224
 30
0.0
 10
511.4188662405821
 20
210.1294338771087
 30
0.0
 10
511.0466490118595
 20
209.7871883535236
 30
0.0
 10
510.4220296852284
 20
209.4082336316982
 30
0.0
 10
509.6217134348574
 20
209.1941327367595
 30
0.0
 10
509.0989232420676
 20
209.2780719478517
 30
0.0
 10
508.8372214614261
 20
209.3200907946309
 30
0.0
  0
LWPOLYLINE
  5
229
330
1F
100
AcDbEntity
  8
0
  6
Continuous
 62
     7
370
    25
100
AcDbPolyline
 90
        9
 70
   128
 43
0.0
 10
508.699650216
 20
210.3775069953
 10
508.6881632834
 20
210.3346363545
 10
508.6692090063
 20
210.2639005423
 10
508.6433722555
 20
210.1674751282
 10
508.611444655
 20
210.0483254433
 10
508.5744022309
 20
209.9100724698
 10
508.5333811967
 20
209.7569779397
 10
508.4896369754
 20
209.5937208176
 10
508.4445106714
 20
209.4253078938
  0
SPLINE
  5
22A
330
1F
100
AcDbEntity
  8
0
  6
Continuous
 62
     7
370
    25
100
AcDbSpline
210
0.0
220
0.0
230
1.0
 70
     8
 71
     3
 72
    13
 73
     9
 74
     0
 42
0.000000001
 43
0.00000001
 40
0.0
 40
0.0
 40
0.0
 40
0.0
 40
0.254462250816147
 40
0.5083260491951406
 40
0.782493023930064
 40
0.9559579997921707
 40
0.9971094492037095
 40
0.9999999999999999
 40
0.9999999999999999
 40
0.9999999999999999
 40
0.9999999999999999
 10
508.4445106713879
 20
209.4253078938207
 30
0.0
 10
508.1968604047053
 20
209.5197727609973
 30
0.0
 10
507.7021423031354
 20
209.7084803298631
 30
0.0
 10
507.1161035471436
 20
210.2940562728851
 30
0.0
 10
506.7646247544689
 20
210.9345468840848
 30
0.0
 10
506.613444783616
 20
211.4170577476787
 30
0.0
 10
506.5579515816355
 20
211.6344427604438
 30
0.0
 10
506.5471191592571
 20
211.6785669620462
 30
0.0
 10
506.5464082090962
 20
211.6814629078588
 30
0.0
  0
LWPOLYLINE
  5
22B
330
1F
100
AcDbEntity
  8
0
  6
Continuous
 62
     7
370
    25
100
AcDbPolyline
 90
        9
 70
   128
 43
0.0
 10
604.4564939021
 20
222.9841352344
 10
604.4786891817
 20
222.9456976891
 10
604.5153013347
 20
222.8822783471
 10
604.5652127742
 20
222.7958292604
 10
604.6268961309
 20
222.6889953852
 10
604.6984589576
 20
222.5650475264
 10
604.7777033328
 20
222.4277854801
 10
604.8622152685
 20
222.2814113737
 10
604.9493870615
 20
222.1304179073
  0
SPLINE
  5
22C
330
1F
100
AcDbEntity
  8
0
  6
Continuous
 62
     7
370
    25
100
AcDbSpline
210
0.0
220
0.0
230
1.0
 70
     8
 71
     3
 72
    13
 73
     9
 74
     0
 42
0.000000001
 43
0.00000001
 40
0.0
 40
0.0
 40
0.0
 40
0.0
 40
0.0028919318229212
 40
0.0440445003993881
 40
0.2175093092019647
 40
0.4916754195305081
 40
0.7455376263291654
 40
0.9999999999999999
 40
0.9999999999999999
 40
0.9999999999999999
 40
0.9999999999999999
 10
606.198879229914
 20
224.800966763564
 30
0.0
 10
606.1989419136295
 20
224.7979840496164
 30
0.0
 10
606.199896594824
 20
224.7525569255687
 30
0.0
 10
606.2025646130276
 20
224.5282134217738
 30
0.0
 10
606.1814179561435
 20
224.0230128925125
 30
0.0
 10
606.0076835262238
 20
223.3133792579292
 30
0.0
 10
605.5931771612275
 20
222.5960738604838
 30
0.0
 10
605.1641526077996
 20
222.2857586856402
 30
0.0
 10
604.9493870614875
 20
222.1304179073056
 30
0.0
  0
LWPOLYLINE
  5
22D
330
1F
100
AcDbEntity
  8
0
  6
Continuous
 62
     7
370
    25
100
AcDbPolyline
 90
        9
 70
   128
 43
0.0
 10
604.1044018148
 20
222.7808535934
 10
604.1265970944
 20
222.7424160481
 10
604.1632092475
 20
222.6789967061
 10
604.2131206869
 20
222.5925476194
 10
604.2748040437
 20
222.4857137442
 10
604.3463594197
 20
222.3617658854
 10
604.4256112455
 20
222.2245038391
 10
604.5101157307
 20
222.0781297327
 10
604.5972949742
 20
221.9271362663
  0
SPLINE
  5
22E
330
1F
100
AcDbEntity
  8
0
  6
Continuous
 62
     7
370
    25
100
AcDbSpline
210
0.0
220
0.0
230
1.0
 70
     8
 71
     3
 72
    13
 73
     9
 74
     0
 42
0.000000001
 43
0.00000001
 40
0.0
 40
0.0
 40
0.0
 40
0.0
 40
0.2544600615792054
 40
0.5083264032325018
 40
0.7824918396171464
 40
0.9559573626007487
 40
0.9971094782962047
 40
1.0
 40
1.0
 40
1.0
 40
1.0
 10
604.5972949742187
 20
221.9271362662992
 30
0.0
 10
604.3553859772506
 20
221.818814631922
 30
0.0
 10
603.8721324184203
 20
221.6024241050415
 30
0.0
 10
603.0436745383261
 20
221.6021137272847
 30
0.0
 10
602.3422434339831
 20
221.8064687487408
 30
0.0
 10
601.8941552713208
 20
222.0407547204798
 30
0.0
 10
601.7012004483314
 20
222.1552313453941
 30
0.0
 10
601.6623420921017
 20
222.1787766180741
 30
0.0
 10
601.6597918151725
 20
222.1803218961438
 30
0.0
  0
LWPOLYLINE
  5
22F
330
1F
100
AcDbEntity
  8
0
  6
Continuous
 62
     7
370
    25
100
AcDbPolyline
 90
        9
 70
   128
 43
0.0
 10
650.1886269926
 20
394.7695345522
 10
650.2270719885
 20
394.7917298318
 10
650.2904838799
 20
394.8283419848
 10
650.3769404172
 20
394.8782534242
 10
650.4837742924
 20
394.939936781
 10
650.6077221512
 20
395.0114958823
 10
650.7449767469
 20
395.0907439829
 10
650.8913508533
 20
395.1752521933
 10
651.0423443197
 20
395.2624277116
  0
SPLINE
  5
230
330
1F
100
AcDbEntity
  8
0
  6
Continuous
 62
     7
370
    25
100
AcDbSpline
210
0.0
220
0.0
230
1.0
 70
     8
 71
     3
 72
    13
 73
     9
 74
     0
 42
0.000000001
 43
0.00000001
 40
0.0
 40
0.0
 40
0.0
 40
0.0
 40
0.0028895330740805
 40
0.0440422176426379
 40
0.2175075153708514
 40
0.4916743984604006
 40
0.7455393765640901
 40
1.0
 40
1.0
 40
1.0
 40
1.0
 10
648.3718029140342
 20
396.5119161546906
 30
0.0
 10
648.3747831444238
 20
396.5119788392362
 30
0.0
 10
648.4202077691208
 20
396.5129342760926
 30
0.0
 10
648.6445488245819
 20
396.5156000981938
 30
0.0
 10
649.1497495209045
 20
396.4944561080065
 30
0.0
 10
649.8593838888485
 20
396.3207179240612
 30
0.0
 10
650.5766937077686
 20
395.9062189059655
 30
0.0
 10
650.8870062431464
 20
395.4771923511461
 30
0.0
 10
651.042344319712
 20
395.2624277115544
 30
0.0
  0
LWPOLYLINE
  5
231
330
1F
100
AcDbEntity
  8
0
  6
Continuous
 62
     7
370
    25
100
AcDbPolyline
 90
        9
 70
   128
 43
0.0
 10
662.7952626823
 20
299.0126908661
 10
662.8381333231
 20
299.0012020708
 10
662.9088691353
 20
298.9822477937
 10
663.0052945494
 20
298.9564129055
 10
663.1244442343
 20
298.9244834424
 10
663.2626972078
 20
298.8874391556
 10
663.4157917379
 20
298.8464199842
 10
663.5790339588
 20
298.8026739002
 10
663.7474617838
 20
298.7575494588
  0
SPLINE
  5
232
330
1F
100
AcDbEntity
  8
0
  6
Continuous
 62
     7
370
    25
100
AcDbSpline
210
0.0
220
0.0
230
1.0
 70
     8
 71
     3
 72
    13
 73
     9
 74
     0
 42
0.000000001
 43
0.00000001
 40
0.0
 40
0.0
 40
0.0
 40
0.0
 40
0.2544610638644199
 40
0.5083236780831972
 40
0.7824893739527364
 40
0.9559535406789023
 40
0.9971094626868264
 40
1.0
 40
1.0
 40
1.0
 40
1.0
 10
663.7474617837776
 20
298.7575494588097
 30
0.0
 10
663.6529968894085
 20
298.5098992982279
 30
0.0
 10
663.4642892662218
 20
298.0151814086103
 30
0.0
 10
662.878713740705
 20
297.429141023574
 30
0.0
 10
662.2382216349264
 20
297.0776680625277
 30
0.0
 10
661.7557091221526
 20
296.9264751168814
 30
0.0
 10
661.538316675624
 20
296.870991569697
 30
0.0
 10
661.4941878135505
 20
296.8601579499648
 30
0.0
 10
661.4912918685783
 20
296.859446996518
 30
0.0
  0
SPLINE
  5
233
330
1F
100
AcDbEntity
  8
0
  6
Continuous
 62
     7
370
    25
100
AcDbSpline
210
0.0
220
0.0
230
1.0
 70
     8
 71
     3
 72
    13
 73
     9
 74
     0
 42
0.000000001
 43
0.00000001
 40
0.0
 40
0.0
 40
0.0
 40
0.0
 40
0.0028894248030245
 40
0.04404185160198
 40
0.2175081384356583
 40
0.4916744518024711
 40
0.7455393112720579
 40
0.9999999999999999
 40
0.9999999999999999
 40
0.9999999999999999
 40
0.9999999999999999
 10
571.2506233631481
 20
453.1608820796689
 30
0.0
 10
571.2526867666425
 20
453.163033219286
 30
0.0
 10
571.2841380473262
 20
453.195821811566
 30
0.0
 10
571.4408676460232
 20
453.3563585124251
 30
0.0
 10
571.8130686865999
 20
453.698620401488
 30
0.0
 10
572.4376985747953
 20
454.0775648869675
 30
0.0
 10
573.2380102845226
 20
454.2916804415859
 30
0.0
 10
573.7608017269417
 20
454.2077392995052
 30
0.0
 10
574.0225038408149
 20
454.1657195330342
 30
0.0
  0
LWPOLYLINE
  5
234
330
1F
100
AcDbEntity
  8
0
  6
Continuous
 62
     7
370
    25
100
AcDbPolyline
 90
        9
 70
   128
 43
0.0
 10
573.7673624336
 20
453.2135204316
 10
573.7788512288
 20
453.2563985229
 10
573.7978055059
 20
453.3271268845
 10
573.8236403941
 20
453.4235522986
 10
573.8555698573
 20
453.5427094341
 10
573.892614144
 20
453.6809549571
 10
573.9336333155
 20
453.8340494872
 10
573.9773793994
 20
453.9973066092
 10
574.0225038408
 20
454.165719533
  0
LWPOLYLINE
  5
235
330
1F
100
AcDbEntity
  8
0
  6
Continuous
 62
     7
370
    25
100
AcDbPolyline
 90
        9
 70
   128
 43
0.0
 10
650.3919086336
 20
394.4174387396
 10
650.4303536295
 20
394.4396340192
 10
650.4937655209
 20
394.4762461723
 10
650.5802220582
 20
394.526161337
 10
650.6870559334
 20
394.5878409684
 10
650.8110037922
 20
394.6594000698
 10
650.9482583879
 20
394.7386481703
 10
651.0946324943
 20
394.8231563807
 10
651.2456259607
 20
394.910331899
  0
SPLINE
  5
236
330
1F
100
AcDbEntity
  8
0
  6
Continuous
 62
     7
370
    25
100
AcDbSpline
210
0.0
220
0.0
230
1.0
 70
     8
 71
     3
 72
    13
 73
     9
 74
     0
 42
0.000000001
 43
0.00000001
 40
0.0
 40
0.0
 40
0.0
 40
0.0
 40
0.2544602411185249
 40
0.508325615582296
 40
0.7824918969973869
 40
0.9559575423730132
 40
0.9971107226716333
 40
1.0
 40
1.0
 40
1.0
 40
1.0
 10
651.2456259607185
 20
394.9103318989953
 30
0.0
 10
651.3539458966696
 20
394.6684233664553
 30
0.0
 10
651.5703325426938
 20
394.1851718251637
 30
0.0
 10
651.5706697482783
 20
393.3567075287364
 30
0.0
 10
651.3662619664335
 20
392.6553030799797
 30
0.0
 10
651.1320530094205
 20
392.2071671368617
 30
0.0
 10
651.0175070333116
 20
392.0142545567949
 30
0.0
 10
650.9939905142838
 20
391.9753790542202
 30
0.0
 10
650.9924477814544
 20
391.9728287399491
 30
0.0
  0
LWPOLYLINE
  5
237
330
1F
100
AcDbEntity
  8
0
  6
Continuous
 62
     7
370
    25
100
AcDbPolyline
 90
        9
 70
   128
 43
0.0
 10
662.9004797815
 20
299.4053997935
 10
662.9433653234
 20
299.3939109982
 10
663.0140862345
 20
299.3749604464
 10
663.1105116485
 20
299.3491218329
 10
663.2296762346
 20
299.3171923698
 10
663.367914307
 20
299.2801518083
 10
663.5210088371
 20
299.2391289116
 10
663.6842659592
 20
299.1953865529
 10
663.852678883
 20
299.1502583862
  0
SPLINE
  5
238
330
1F
100
AcDbEntity
  8
0
  6
Continuous
 62
     7
370
    25
100
AcDbSpline
210
0.0
220
0.0
230
1.0
 70
     8
 71
     3
 72
    13
 73
     9
 74
     0
 42
0.000000001
 43
0.00000001
 40
0.0
 40
0.0
 40
0.0
 40
0.0
 40
0.0028894237759601
 40
0.0440401145623626
 40
0.2175079493861974
 40
0.4916752002786114
 40
0.7455394017217267
 40
1.0
 40
1.0
 40
1.0
 40
1.0
 10
662.8478488801826
 20
301.9221425891599
 30
0.0
 10
662.8500000231722
 20
301.920079189106
 30
0.0
 10
662.8827873853072
 20
301.888629190142
 30
0.0
 10
663.0433127034156
 20
301.7318881432032
 30
0.0
 10
663.3855943446323
 20
301.359705261431
 30
0.0
 10
663.7645311318437
 20
300.7350634170994
 30
0.0
 10
663.9786380643014
 20
299.934751391051
 30
0.0
 10
663.8946981045268
 20
299.4119605109187
 30
0.0
 10
663.8526788829673
 20
299.1502583862027
 30
0.0
  0
LWPOLYLINE
  5
239
330
1F
100
AcDbEntity
  8
0
  6
Continuous
 62
     7
370
    25
100
AcDbPolyline
 90
        9
 70
   128
 43
0.0
 10
574.1600750862
 20
453.1082958818
 10
574.1715638815
 20
453.1511739732
 10
574.1905181586
 20
453.2219023348
 10
574.2163530468
 20
453.3183277488
 10
574.2482825099
 20
453.4374848843
 10
574.2853230714
 20
453.5757304073
 10
574.3263459681
 20
453.7288249374
 10
574.3700883268
 20
453.8920820595
 10
574.4152164935
 20
454.0604949833
  0
SPLINE
  5
23A
330
1F
100
AcDbEntity
  8
0
  6
Continuous
 62
     7
370
    25
100
AcDbSpline
210
0.0
220
0.0
230
1.0
 70
     8
 71
     3
 72
    13
 73
     9
 74
     0
 42
0.000000001
 43
0.00000001
 40
0.0
 40
0.0
 40
0.0
 40
0.0
 40
0.2544610740903659
 40
0.5083263707695758
 40
0.7824931692803886
 40
0.955958033645802
 40
0.9971117888864824
 40
1.0
 40
1.0
 40
1.0
 40
1.0
 10
574.4152164934982
 20
454.0604949832638
 30
0.0
 10
574.6628670536845
 20
453.9660333692631
 30
0.0
 10
575.1575883423084
 20
453.7773313070963
 30
0.0
 10
575.7436244881585
 20
453.1917468160648
 30
0.0
 10
576.0950904508998
 20
452.5512533345159
 30
0.0
 10
576.2463021438722
 20
452.068747529346
 30
0.0
 10
576.3017664527523
 20
451.8513553824532
 30
0.0
 10
576.312607983246
 20
451.8072334259804
 30
0.0
 10
576.3133189557899
 20
451.8043399692258
 30
0.0
  0
LINE
  5
23B
330
1F
100
AcDbEntity
  8
0
  6
Continuous
 62
     7
370
    25
100
AcDbLine
 10
419.007042694
 20
364.3355444909
 30
0.0
 11
419.1122746943
 21
364.7282552809
 31
0.0
  0
LINE
  5
23C
330
1F
100
AcDbEntity
  8
0
  6
Continuous
 62
     7
370
    25
100
AcDbLine
 10
508.8372214614
 20
209.3200907946
 30
0.0
 11
508.4445106714
 21
209.4253078938
 31
0.0
  0
LINE
  5
23D
330
1F
100
AcDbEntity
  8
0
  6
Continuous
 62
     7
370
    25
100
AcDbLine
 10
477.9103382408
 20
441.3553849698
 30
0.0
 11
478.262430328
 21
441.5586666108
 31
0.0
  0
LINE
  5
23E
330
1F
100
AcDbEntity
  8
0
  6
Continuous
 62
     7
370
    25
100
AcDbLine
 10
604.9493870615
 20
222.1304179073
 30
0.0
 11
604.5972949742
 21
221.9271362663
 31
0.0
  0
LINE
  5
23F
330
1F
100
AcDbEntity
  8
0
  6
Continuous
 62
     7
370
    25
100
AcDbLine
 10
574.0225038408
 20
454.165719533
 30
0.0
 11
574.4152164935
 21
454.0604949833
 31
0.0
  0
LINE
  5
240
330
1F
100
AcDbEntity
  8
0
  6
Continuous
 62
     7
370
    25
100
AcDbLine
 10
651.0423443197
 20
395.2624277116
 30
0.0
 11
651.2456259607
 21
394.910331899
 31
0.0
  0
LINE
  5
241
330
1F
100
AcDbEntity
  8
0
  6
Continuous
 62
     7
370
    25
100
AcDbLine
 10
663.852678883
 20
299.1502583862
 30
0.0
 11
663.7474617838
 21
298.7575494588
 31
0.0
  0
LWPOLYLINE
  5
242
330
1F
100
AcDbEntity
  8
0
  6
Continuous
 62
     7
370
    25
100
AcDbPolyline
 90
        9
 70
   128
 43
0.0
 10
432.3051593183
 20
269.2083121181
 10
432.285944271
 20
269.197210753
 10
432.2542346
 20
269.1789046765
 10
432.2110063313
 20
269.1539452315
 10
432.157593119
 20
269.1231072784
 10
432.0956191896
 20
269.0873295904
 10
432.0269844412
 20
269.0477074028
 10
431.953797388
 20
269.0054477096
 10
431.8783006548
 20
268.9618618131
  0
SPLINE
  5
243
330
1F
100
AcDbEntity
  8
0
  6
Continuous
 62
     7
370
    25
100
AcDbSpline
210
0.0
220
0.0
230
1.0
 70
     8
 71
     3
 72
    11
 73
     7
 74
     0
 42
0.000000001
 43
0.00000001
 40
0.0
 40
0.0
 40
0.0
 40
0.0
 40
0.2902084121709381
 40
0.6384063723467963
 40
0.9970511440364282
 40
1.0
 40
1.0
 40
1.0
 40
1.0
 10
431.8783006547798
 20
268.961861813136
 30
0.0
 10
431.7758160366133
 20
269.1972582678197
 30
0.0
 10
431.5503682874746
 20
269.715088180377
 30
0.0
 10
431.5874686113898
 20
270.6149835621508
 30
0.0
 10
431.7613147861759
 20
271.2118080270009
 30
0.0
 10
431.8664240625077
 20
271.5105416402975
 30
0.0
 10
431.8672812460769
 20
271.5129778624257
 30
0.0
  0
LWPOLYLINE
  5
244
330
1F
100
AcDbEntity
  8
0
  6
Continuous
 62
     7
370
    25
100
AcDbPolyline
 90
        9
 70
   128
 43
0.0
 10
432.7109700917
 20
268.5054317952
 10
432.6917475938
 20
268.4943378807
 10
432.6600379228
 20
268.4760318042
 10
432.6168096541
 20
268.4510723592
 10
432.5633964418
 20
268.4202344061
 10
432.5014225124
 20
268.384456718
 10
432.432787764
 20
268.3448270798
 10
432.3596081613
 20
268.3025748373
 10
432.2841039776
 20
268.2589889408
  0
SPLINE
  5
245
330
1F
100
AcDbEntity
  8
0
  6
Continuous
 62
     7
370
    25
100
AcDbSpline
210
0.0
220
0.0
230
1.0
 70
     8
 71
     3
 72
    11
 73
     7
 74
     0
 42
0.000000001
 43
0.00000001
 40
0.0
 40
0.0
 40
0.0
 40
0.0
 40
0.0029488004309295
 40
0.3615912387484872
 40
0.7097899674467125
 40
1.0
 40
1.0
 40
1.0
 40
1.0
 10
434.4879261134971
 20
266.9738829971035
 30
0.0
 10
434.4853878682362
 20
266.9743594611149
 30
0.0
 10
434.1741402034124
 20
267.0327849857006
 30
0.0
 10
433.5703278226148
 20
267.1805134585107
 30
0.0
 10
432.7724550582992
 20
267.5983823364709
 30
0.0
 10
432.4367224513533
 20
268.0525375256048
 30
0.0
 10
432.2841039775718
 20
268.2589889407834
 30
0.0
  0
ARC
  5
246
330
1F
100
AcDbEntity
  8
0
  6
Continuous
 62
     7
370
    25
100
AcDbCircle
 10
419.429863012
 20
331.7429017341
 30
0.0
 40
8.481219885289612
100
AcDbArc
 50
44.3891963046
 51
315.6108036955
  0
ARC
  5
247
330
1F
100
AcDbEntity
  8
0
  6
Continuous
 62
     7
370
    25
100
AcDbCircle
 10
663.429863012
 20
331.7429017341
 30
0.0
 40
8.48284438740352
100
AcDbArc
 50
224.3993137337
 51
135.6006862663
  0
LINE
  5
248
330
1F
100
AcDbEntity
  8
0
  6
Continuous
 62
     7
370
    25
100
AcDbLine
 10
432.2841039776
 20
268.2589889408
 30
0.0
 11
431.8783006548
 21
268.9618618131
 31
0.0
  0
SPLINE
  5
249
330
1F
100
AcDbEntity
  8
0
  6
Continuous
 62
     7
370
    25
100
AcDbSpline
210
0.0
220
0.0
230
1.0
 70
     8
 71
     3
 72
    12
 73
     8
 74
     0
 42
0.000000001
 43
0.00000001
 40
0.0
 40
0.0
 40
0.0
 40
0.0
 40
0.2196972804472686
 40
0.4393948166694363
 40
0.6590589703831197
 40
0.87870936125806
 40
1.0
 40
1.0
 40
1.0
 40
1.0
 10
450.3429404376853
 20
246.9378338099202
 30
0.0
 10
449.9318482494436
 20
247.4766884133704
 30
0.0
 10
449.1096633943606
 20
248.5543982476135
 30
0.0
 10
448.6417154112902
 20
250.5748682796707
 30
0.0
 10
448.8309341456699
 20
252.6056871141952
 30
0.0
 10
449.5476599411472
 20
254.212397678974
 30
0.0
 10
450.2439368451157
 20
254.9907988357307
 30
0.0
 10
450.4916391252387
 20
255.2677170277318
 30
0.0
  0
ARC
  5
24A
330
1F
100
AcDbEntity
  8
0
  6
Continuous
 62
     7
370
    25
100
AcDbCircle
 10
541.429863012
 20
331.7429017341
 30
0.0
 40
124.4537152308531
100
AcDbArc
 50
222.9545902209
 51
227.0454097791
  0
SPLINE
  5
24B
330
1F
100
AcDbEntity
  8
0
  6
Continuous
 62
     7
370
    25
100
AcDbSpline
210
0.0
220
0.0
230
1.0
 70
     8
 71
     3
 72
    12
 73
     8
 74
     0
 42
0.000000001
 43
0.00000001
 40
0.0
 40
0.0
 40
0.0
 40
0.0
 40
0.2196972391628016
 40
0.4393950715243067
 40
0.6590593449865924
 40
0.878709222438426
 40
1.0
 40
1.0
 40
1.0
 40
1.0
 10
464.9546838282455
 20
240.8046797753057
 30
0.0
 10
464.430845223974
 20
240.3746174651248
 30
0.0
 10
463.3831666010283
 20
239.5144916835634
 30
0.0
 10
461.3806854769099
 20
238.9747230998778
 30
0.0
 10
459.3444082997552
 20
239.0913467749934
 30
0.0
 10
457.7131401835629
 20
239.7502637468844
 30
0.0
 10
456.9103838567755
 20
240.4183129133516
 30
0.0
 10
456.6248006104339
 20
240.6559736371717
 30
0.0
  0
SPLINE
  5
24C
330
1F
100
AcDbEntity
  8
0
  6
Continuous
 62
     7
370
    25
100
AcDbSpline
210
0.0
220
0.0
230
1.0
 70
     8
 71
     3
 72
    12
 73
     8
 74
     0
 42
0.000000001
 43
0.00000001
 40
0.0
 40
0.0
 40
0.0
 40
0.0
 40
0.2196962447510995
 40
0.4393946590399712
 40
0.659058093270471
 40
0.8787093118396413
 40
1.0
 40
1.0
 40
1.0
 40
1.0
 10
626.2349284170974
 20
240.6559736371717
 30
0.0
 10
625.6960760509099
 20
240.2448843718895
 30
0.0
 10
624.6183659972762
 20
239.4227017817488
 30
0.0
 10
622.5978985137355
 20
238.9547564075681
 30
0.0
 10
620.567078566399
 20
239.1439771225166
 30
0.0
 10
618.9603660757792
 20
239.8606987321902
 30
0.0
 10
618.1819633499202
 20
240.5569774029598
 30
0.0
 10
617.9050451992858
 20
240.8046797753057
 30
0.0
  0
ARC
  5
24D
330
1F
100
AcDbEntity
  8
0
  6
Continuous
 62
     7
370
    25
100
AcDbCircle
 10
541.429863012
 20
331.7429017341
 30
0.0
 40
124.4537152308529
100
AcDbArc
 50
312.9545902209
 51
317.0454097791
  0
SPLINE
  5
24E
330
1F
100
AcDbEntity
  8
0
  6
Continuous
 62
     7
370
    25
100
AcDbSpline
210
0.0
220
0.0
230
1.0
 70
     8
 71
     3
 72
    12
 73
     8
 74
     0
 42
0.000000001
 43
0.00000001
 40
0.0
 40
0.0
 40
0.0
 40
0.0
 40
0.2196961386985634
 40
0.4393947844663458
 40
0.6590582319349939
 40
0.8787092045777137
 40
1.0
 40
1.0
 40
1.0
 40
1.0
 10
632.3680899022926
 20
255.2677170277318
 30
0.0
 10
632.7981496397663
 20
254.7438806348206
 30
0.0
 10
633.6582740223538
 20
253.6962018712232
 30
0.0
 10
634.1980350172254
 20
251.6937237535953
 30
0.0
 10
634.0814259549011
 20
249.6574425321168
 30
0.0
 10
633.4224993711215
 20
248.026176264257
 30
0.0
 10
632.7544490009919
 20
247.2234171556336
 30
0.0
 10
632.516788589846
 20
246.9378338099202
 30
0.0
  0
SPLINE
  5
24F
330
1F
100
AcDbEntity
  8
0
  6
Continuous
 62
     7
370
    25
100
AcDbSpline
210
0.0
220
0.0
230
1.0
 70
     8
 71
     3
 72
    12
 73
     8
 74
     0
 42
0.000000001
 43
0.00000001
 40
0.0
 40
0.0
 40
0.0
 40
0.0
 40
0.2196973402266458
 40
0.4393947402077724
 40
0.6590588776134577
 40
0.8787093282550168
 40
1.0
 40
1.0
 40
1.0
 40
1.0
 10
632.516788589846
 20
416.5479690671643
 30
0.0
 10
632.9278818177829
 20
416.009114649569
 30
0.0
 10
633.750068385468
 20
414.9314056678178
 30
0.0
 10
634.2180009220921
 20
412.9109338624716
 30
0.0
 10
634.0287982187024
 20
410.880115450727
 30
0.0
 10
633.3120686579084
 20
409.2734052098539
 30
0.0
 10
632.6157920699826
 20
408.4950040444353
 30
0.0
 10
632.3680899022926
 20
408.2180858493527
 30
0.0
  0
ARC
  5
250
330
1F
100
AcDbEntity
  8
0
  6
Continuous
 62
     7
370
    25
100
AcDbCircle
 10
541.429863012
 20
331.7429017341
 30
0.0
 40
124.4537152308529
100
AcDbArc
 50
42.9545902209
 51
47.0454097791
  0
SPLINE
  5
251
330
1F
100
AcDbEntity
  8
0
  6
Continuous
 62
     7
370
    25
100
AcDbSpline
210
0.0
220
0.0
230
1.0
 70
     8
 71
     3
 72
    12
 73
     8
 74
     0
 42
0.000000001
 43
0.00000001
 40
0.0
 40
0.0
 40
0.0
 40
0.0
 40
0.2196961386985634
 40
0.4393947844663458
 40
0.6590582319349939
 40
0.8787092045777137
 40
1.0
 40
1.0
 40
1.0
 40
1.0
 10
617.9050451992858
 20
422.6811305523594
 30
0.0
 10
618.428881592197
 20
423.1111902898332
 30
0.0
 10
619.4765603557944
 20
423.9713146724207
 30
0.0
 10
621.4790384734223
 20
424.5110756672922
 30
0.0
 10
623.5153196949008
 20
424.3944666049679
 30
0.0
 10
625.1465859627606
 20
423.7355400211883
 30
0.0
 10
625.9493450713841
 20
423.0674896510588
 30
0.0
 10
626.2349284170974
 20
422.8298292399128
 30
0.0
  0
SPLINE
  5
252
330
1F
100
AcDbEntity
  8
0
  6
Continuous
 62
     7
370
    25
100
AcDbSpline
210
0.0
220
0.0
230
1.0
 70
     8
 71
     3
 72
    12
 73
     8
 74
     0
 42
0.000000001
 43
0.00000001
 40
0.0
 40
0.0
 40
0.0
 40
0.0
 40
0.2196963256478045
 40
0.4393948208341801
 40
0.6590582598706235
 40
0.8787091606820252
 40
1.0
 40
1.0
 40
1.0
 40
1.0
 10
456.6248006104339
 20
422.8298292399129
 30
0.0
 10
457.1636530597579
 20
423.2409188392015
 30
0.0
 10
458.2413632796656
 20
424.0631020973582
 30
0.0
 10
460.2618292829759
 20
424.5310424076294
 30
0.0
 10
462.2926525033838
 20
424.3418409771079
 30
0.0
 10
463.8993525165967
 20
423.6250971447919
 30
0.0
 10
464.6777625850448
 20
422.9288294497871
 30
0.0
 10
464.9546838282455
 20
422.6811305523594
 30
0.0
  0
ARC
  5
253
330
1F
100
AcDbEntity
  8
0
  6
Continuous
 62
     7
370
    25
100
AcDbCircle
 10
541.429863012
 20
331.7429017341
 30
0.0
 40
124.453715230853
100
AcDbArc
 50
132.9545902209
 51
137.0454097791
  0
SPLINE
  5
254
330
1F
100
AcDbEntity
  8
0
  6
Continuous
 62
     7
370
    25
100
AcDbSpline
210
0.0
220
0.0
230
1.0
 70
     8
 71
     3
 72
    12
 73
     8
 74
     0
 42
0.000000001
 43
0.00000001
 40
0.0
 40
0.0
 40
0.0
 40
0.0
 40
0.2196965546296467
 40
0.43939492232938
 40
0.659058315778785
 40
0.8787092344053298
 40
1.0
 40
1.0
 40
1.0
 40
1.0
 10
450.4916391252387
 20
408.2180858493527
 30
0.0
 10
450.0615755265808
 20
408.7419216179923
 30
0.0
 10
449.2014447801175
 20
409.7895974782838
 30
0.0
 10
448.661696767058
 20
411.7920807424248
 30
0.0
 10
448.7783023339552
 20
413.8283600930412
 30
0.0
 10
449.437229748575
 20
415.4596266442606
 30
0.0
 10
450.1052800507237
 20
416.2623857296991
 30
0.0
 10
450.3429404376853
 20
416.5479690671643
 30
0.0
  0
CIRCLE
  5
255
330
1F
100
AcDbEntity
  8
0
  6
Continuous
 62
     7
370
    25
100
AcDbCircle
 10
541.429863012
 20
331.7429017341
 30
0.0
 40
133.0523651947849
  0
CIRCLE
  5
256
330
1F
100
AcDbEntity
  8
0
  6
Continuous
 62
     7
370
    25
100
AcDbCircle
 10
541.429863012
 20
204.8629017341
 30
0.0
 40
2.599999999999909
  0
CIRCLE
  5
257
330
1F
100
AcDbEntity
  8
0
  6
Continuous
 62
     7
370
    25
100
AcDbCircle
 10
541.429863012
 20
458.6229017341
 30
0.0
 40
2.599999999999909
  0
LINE
  5
258
330
1F
100
AcDbEntity
  8
0
  6
Continuous
 62
     7
370
    25
100
AcDbLine
 10
615.9679165958
 20
242.7418083788
 30
0.0
 11
617.9050451993
 21
240.8046797753
 31
0.0
  0
LINE
  5
259
330
1F
100
AcDbEntity
  8
0
  6
Continuous
 62
     7
370
    25
100
AcDbLine
 10
630.4309538483
 20
406.2809535206
 30
0.0
 11
632.3680899023
 21
408.2180858494
 31
0.0
  0
LINE
  5
25A
330
1F
100
AcDbEntity
  8
0
  6
Continuous
 62
     7
370
    25
100
AcDbLine
 10
617.9050451993
 20
422.6811305524
 30
0.0
 11
615.9679165958
 21
420.7439944983
 31
0.0
  0
LINE
  5
25B
330
1F
100
AcDbEntity
  8
0
  6
Continuous
 62
     7
370
    25
100
AcDbLine
 10
632.3680899023
 20
255.2677170277
 30
0.0
 11
630.4309538483
 21
257.2048530818
 31
0.0
  0
LINE
  5
25C
330
1F
100
AcDbEntity
  8
0
  6
Continuous
 62
     7
370
    25
100
AcDbLine
 10
450.4916391252
 20
408.2180858494
 30
0.0
 11
452.4287677287
 21
406.2809535206
 31
0.0
  0
LINE
  5
25D
330
1F
100
AcDbEntity
  8
0
  6
Continuous
 62
     7
370
    25
100
AcDbLine
 10
464.9546838282
 20
240.8046797753
 30
0.0
 11
466.8918124317
 21
242.7418083788
 31
0.0
  0
LINE
  5
25E
330
1F
100
AcDbEntity
  8
0
  6
Continuous
 62
     7
370
    25
100
AcDbLine
 10
452.4287677287
 20
257.2048530818
 30
0.0
 11
450.4916391252
 21
255.2677170277
 31
0.0
  0
LINE
  5
25F
330
1F
100
AcDbEntity
  8
0
  6
Continuous
 62
     7
370
    25
100
AcDbLine
 10
466.8918124317
 20
420.7439944983
 30
0.0
 11
464.9546838282
 21
422.6811305524
 31
0.0
  0
CIRCLE
  5
260
330
1F
100
AcDbEntity
  8
0
  6
Continuous
 62
     7
370
    25
100
AcDbCircle
 10
541.429863012
 20
331.7429017341
 30
0.0
 40
133.1571275032602
  0
CIRCLE
  5
261
330
1F
100
AcDbEntity
  8
0
  6
Continuous
 62
     7
370
    25
100
AcDbCircle
 10
541.429863012
 20
331.7429017341
 30
0.0
 40
64.40000000000003
  0
CIRCLE
  5
262
330
1F
100
AcDbEntity
  8
0
  6
Continuous
 62
     7
370
    25
100
AcDbCircle
 10
541.429863012
 20
331.7429017341
 30
0.0
 40
64.89999999999998
  0
CIRCLE
  5
263
330
1F
100
AcDbEntity
  8
0
  6
Continuous
 62
     7
370
    25
100
AcDbCircle
 10
541.429863012
 20
331.7429017341
 30
0.0
 40
65.00000000000011
  0
CIRCLE
  5
264
330
1F
100
AcDbEntity
  8
0
  6
Continuous
 62
     7
370
    25
100
AcDbCircle
 10
628.929863012
 20
331.7429017341
 30
0.0
 40
5.7349999999999
  0
LINE
  5
265
330
1F
100
AcDbEntity
  8
0
  6
Continuous
 62
     7
370
    25
100
AcDbLine
 10
541.0684759646
 20
411.6038382889
 30
0.0
 11
541.0684759646
 21
411.1043141127
 31
0.0
  0
LINE
  5
266
330
1F
100
AcDbEntity
  8
0
  6
Continuous
 62
     7
370
    25
100
AcDbLine
 10
541.0684759646
 20
411.1043141127
 30
0.0
 11
545.4443481668
 21
411.1043141127
 31
0.0
  0
LINE
  5
267
330
1F
100
AcDbEntity
  8
0
  6
Continuous
 62
     7
370
    25
100
AcDbLine
 10
545.4443481668
 20
411.1043141127
 30
0.0
 11
545.4443481668
 21
411.6038382889
 31
0.0
  0
LINE
  5
268
330
1F
100
AcDbEntity
  8
0
  6
Continuous
 62
     7
370
    25
100
AcDbLine
 10
545.4443481668
 20
411.6038382889
 30
0.0
 11
541.0684759646
 21
411.6038382889
 31
0.0
  0
LINE
  5
269
330
1F
100
AcDbEntity
  8
0
  6
Continuous
 62
     7
370
    25
100
AcDbLine
 10
536.2116406123
 20
411.6035253645
 30
0.0
 11
536.2116406123
 21
411.1043141127
 31
0.0
  0
LINE
  5
26A
330
1F
100
AcDbEntity
  8
0
  6
Continuous
 62
     7
370
    25
100
AcDbLine
 10
536.2116406123
 20
411.1043141127
 30
0.0
 11
540.3274281799
 21
411.1043141127
 31
0.0
  0
LINE
  5
26B
330
1F
100
AcDbEntity
  8
0
  6
Continuous
 62
     7
370
    25
100
AcDbLine
 10
540.3274281799
 20
411.1043141127
 30
0.0
 11
540.3274281799
 21
411.6035253645
 31
0.0
  0
LINE
  5
26C
330
1F
100
AcDbEntity
  8
0
  6
Continuous
 62
     7
370
    25
100
AcDbLine
 10
540.3274281799
 20
411.6035253645
 30
0.0
 11
536.2116406123
 21
411.6035253645
 31
0.0
  0
LINE
  5
26D
330
1F
100
AcDbEntity
  8
0
  6
Continuous
 62
     7
370
    25
100
AcDbLine
 10
546.8222017317
 20
415.6314880491
 30
0.0
 11
546.8222017317
 21
414.7347063661
 31
0.0
  0
LINE
  5
26E
330
1F
100
AcDbEntity
  8
0
  6
Continuous
 62
     7
370
    25
100
AcDbLine
 10
546.8222017317
 20
414.7347063661
 30
0.0
 11
547.7222020655
 21
414.7347063661
 31
0.0
  0
LINE
  5
26F
330
1F
100
AcDbEntity
  8
0
  6
Continuous
 62
     7
370
    25
100
AcDbLine
 10
547.7222020655
 20
414.7347063661
 30
0.0
 11
547.7222020655
 21
415.0347039939
 31
0.0
  0
LINE
  5
270
330
1F
100
AcDbEntity
  8
0
  6
Continuous
 62
     7
370
    25
100
AcDbLine
 10
547.7222020655
 20
415.0347039939
 30
0.0
 11
547.1222021534
 21
415.0347039939
 31
0.0
  0
LINE
  5
271
330
1F
100
AcDbEntity
  8
0
  6
Continuous
 62
     7
370
    25
100
AcDbLine
 10
547.1222021534
 20
415.0347039939
 30
0.0
 11
547.1222021534
 21
415.6314880491
 31
0.0
  0
LINE
  5
272
330
1F
100
AcDbEntity
  8
0
  6
Continuous
 62
     7
370
    25
100
AcDbLine
 10
547.1222021534
 20
415.6314880491
 30
0.0
 11
546.8222017317
 21
415.6314880491
 31
0.0
  0
LINE
  5
273
330
1F
100
AcDbEntity
  8
0
  6
Continuous
 62
     7
370
    25
100
AcDbLine
 10
546.5262618764
 20
414.4126028658
 30
0.0
 11
546.5262618764
 21
413.805596614
 31
0.0
  0
LINE
  5
274
330
1F
100
AcDbEntity
  8
0
  6
Continuous
 62
     7
370
    25
100
AcDbLine
 10
546.5262618764
 20
413.805596614
 30
0.0
 11
546.8222017317
 21
413.805596614
 31
0.0
  0
LINE
  5
275
330
1F
100
AcDbEntity
  8
0
  6
Continuous
 62
     7
370
    25
100
AcDbLine
 10
546.8222017317
 20
413.805596614
 30
0.0
 11
546.8222017317
 21
414.7026018143
 31
0.0
  0
LINE
  5
276
330
1F
100
AcDbEntity
  8
0
  6
Continuous
 62
     7
370
    25
100
AcDbLine
 10
546.8222017317
 20
414.7026018143
 30
0.0
 11
545.9249543874
 21
414.7026018143
 31
0.0
  0
LINE
  5
277
330
1F
100
AcDbEntity
  8
0
  6
Continuous
 62
     7
370
    25
100
AcDbLine
 10
545.9249543874
 20
414.7026018143
 30
0.0
 11
545.9249543874
 21
414.4126028658
 31
0.0
  0
LINE
  5
278
330
1F
100
AcDbEntity
  8
0
  6
Continuous
 62
     7
370
    25
100
AcDbLine
 10
545.9249543874
 20
414.4126028658
 30
0.0
 11
546.5262618764
 21
414.4126028658
 31
0.0
  0
SPLINE
  5
279
330
1F
100
AcDbEntity
  8
0
  6
Continuous
 62
     7
370
    25
100
AcDbSpline
210
0.0
220
0.0
230
1.0
 70
     8
 71
     3
 72
     9
 73
     5
 74
     0
 42
0.000000001
 43
0.00000001
 40
0.0
 40
0.0
 40
0.0
 40
0.0
 40
0.5580517961742354
 40
1.0
 40
1.0
 40
1.0
 40
1.0
 10
538.4860674767602
 20
412.0360911727627
 30
0.0
 10
538.6224665315261
 20
411.9262265881652
 30
0.0
 10
538.8668865937873
 20
411.7293549261602
 30
0.0
 10
539.1774318810261
 20
411.7012537684686
 30
0.0
 10
539.3146768129278
 20
411.6888345123013
 30
0.0
  0
ARC
  5
27A
330
1F
100
AcDbEntity
  8
0
  6
Continuous
 62
     7
370
    25
100
AcDbCircle
 10
539.3290155626
 20
412.8627112442
 30
0.0
 40
1.173963480567505
100
AcDbArc
 50
269.3001830049
 51
303.9353836459
  0
SPLINE
  5
27B
330
1F
100
AcDbEntity
  8
0
  6
Continuous
 62
     7
370
    25
100
AcDbSpline
210
0.0
220
0.0
230
1.0
 70
     8
 71
     3
 72
     9
 73
     5
 74
     0
 42
0.000000001
 43
0.00000001
 40
0.0
 40
0.0
 40
0.0
 40
0.0
 40
0.5801629461770538
 40
1.0
 40
1.0
 40
1.0
 40
1.0
 10
539.9843894793499
 20
411.888711237975
 30
0.0
 10
540.0933975143093
 20
411.9710469486334
 30
0.0
 10
540.2812896154469
 20
412.1129651997057
 30
0.0
 10
540.3773055004108
 20
412.3262764132042
 30
0.0
 10
540.4176165266741
 20
412.4158323646267
 30
0.0
  0
LINE
  5
27C
330
1F
100
AcDbEntity
  8
0
  6
Continuous
 62
     7
370
    25
100
AcDbLine
 10
540.4176165267
 20
412.4158323646
 30
0.0
 11
539.8169553756
 21
412.4158323646
 31
0.0
  0
SPLINE
  5
27D
330
1F
100
AcDbEntity
  8
0
  6
Continuous
 62
     7
370
    25
100
AcDbSpline
210
0.0
220
0.0
230
1.0
 70
     8
 71
     3
 72
    10
 73
     6
 74
     0
 42
0.000000001
 43
0.00000001
 40
0.0
 40
0.0
 40
0.0
 40
0.0
 40
0.2598926455034716
 40
0.5269042769711384
 40
1.0
 40
1.0
 40
1.0
 40
1.0
 10
539.816955375563
 20
412.4158323646267
 30
0.0
 10
539.7818594408999
 20
412.3822148230434
 30
0.0
 10
539.7107062228375
 20
412.3140588873214
 30
0.0
 10
539.5377959774229
 20
412.235168574437
 30
0.0
 10
539.3992901294299
 20
412.2258476933008
 30
0.0
 10
539.3107536165822
 20
412.2198895455082
 30
0.0
  0
SPLINE
  5
27E
330
1F
100
AcDbEntity
  8
0
  6
Continuous
 62
     7
370
    25
100
AcDbSpline
210
0.0
220
0.0
230
1.0
 70
     8
 71
     3
 72
     9
 73
     5
 74
     0
 42
0.000000001
 43
0.00000001
 40
0.0
 40
0.0
 40
0.0
 40
0.0
 40
0.5576505338713106
 40
0.9999999999999999
 40
0.9999999999999999
 40
0.9999999999999999
 40
0.9999999999999999
 10
539.3107536165822
 20
412.2198895455083
 30
0.0
 10
539.2363499730922
 20
412.2261442408747
 30
0.0
 10
539.1029265493332
 20
412.2373603968479
 30
0.0
 10
538.9894845373681
 20
412.3074321016122
 30
0.0
 10
538.9393035239387
 20
412.3384282828054
 30
0.0
  0
SPLINE
  5
27F
330
1F
100
AcDbEntity
  8
0
  6
Continuous
 62
     7
370
    25
100
AcDbSpline
210
0.0
220
0.0
230
1.0
 70
     8
 71
     3
 72
     9
 73
     5
 74
     0
 42
0.000000001
 43
0.00000001
 40
0.0
 40
0.0
 40
0.0
 40
0.0
 40
0.5561219722925967
 40
1.0
 40
1.0
 40
1.0
 40
1.0
 10
538.9393035239387
 20
412.3384282828053
 30
0.0
 10
538.88356032955
 20
412.3870191434046
 30
0.0
 10
538.7833247748231
 20
412.474393609835
 30
0.0
 10
538.7356819926682
 20
412.5979218883812
 30
0.0
 10
538.7145344084907
 20
412.6527533770283
 30
0.0
  0
LINE
  5
280
330
1F
100
AcDbEntity
  8
0
  6
Continuous
 62
     7
370
    25
100
AcDbLine
 10
538.7145344085
 20
412.652753377
 30
0.0
 11
540.4250503435
 21
412.652753377
 31
0.0
  0
LINE
  5
281
330
1F
100
AcDbEntity
  8
0
  6
Continuous
 62
     7
370
    25
100
AcDbLine
 10
540.4250503435
 20
412.652753377
 30
0.0
 11
540.4250503435
 21
411.1000970841
 31
0.0
  0
LINE
  5
282
330
1F
100
AcDbEntity
  8
0
  6
Continuous
 62
     7
370
    25
100
AcDbLine
 10
540.4250503435
 20
411.1000970841
 30
0.0
 11
540.9685515716
 21
411.1000970841
 31
0.0
  0
LINE
  5
283
330
1F
100
AcDbEntity
  8
0
  6
Continuous
 62
     7
370
    25
100
AcDbLine
 10
540.9685515716
 20
411.1000970841
 30
0.0
 11
540.9685515716
 21
412.007734263
 31
0.0
  0
SPLINE
  5
284
330
1F
100
AcDbEntity
  8
0
  6
Continuous
 62
     7
370
    25
100
AcDbSpline
210
0.0
220
0.0
230
1.0
 70
     8
 71
     3
 72
    10
 73
     6
 74
     0
 42
0.000000001
 43
0.00000001
 40
0.0
 40
0.0
 40
0.0
 40
0.0
 40
0.282228912004079
 40
0.5534179521885954
 40
1.0
 40
1.0
 40
1.0
 40
1.0
 10
540.9685515715588
 20
412.0077342630108
 30
0.0
 10
541.0191193423617
 20
411.9536139636527
 30
0.0
 10
541.1182768381892
 20
411.8474903740108
 30
0.0
 10
541.3517957906892
 20
411.7165913316582
 30
0.0
 10
541.5410858325987
 20
411.6994162056823
 30
0.0
 10
541.6588581084121
 20
411.6887302041729
 30
0.0
  0
SPLINE
  5
285
330
1F
100
AcDbEntity
  8
0
  6
Continuous
 62
     7
370
    25
100
AcDbSpline
210
0.0
220
0.0
230
1.0
 70
     8
 71
     3
 72
     9
 73
     5
 74
     0
 42
0.000000001
 43
0.00000001
 40
0.0
 40
0.0
 40
0.0
 40
0.0
 40
0.5554485195237041
 40
1.0
 40
1.0
 40
1.0
 40
1.0
 10
541.6588581084121
 20
411.6887302041729
 30
0.0
 10
541.8326848494662
 20
411.7085234714123
 30
0.0
 10
542.1456332775277
 20
411.7441582180064
 30
0.0
 10
542.3740652128141
 20
411.9576801627261
 30
0.0
 10
542.4756149678338
 20
412.0526016593655
 30
0.0
  0
SPLINE
  5
286
330
1F
100
AcDbEntity
  8
0
  6
Continuous
 62
     7
370
    25
100
AcDbSpline
210
0.0
220
0.0
230
1.0
 70
     8
 71
     3
 72
     9
 73
     5
 74
     0
 42
0.000000001
 43
0.00000001
 40
0.0
 40
0.0
 40
0.0
 40
0.0
 40
0.5657387101456978
 40
1.0
 40
1.0
 40
1.0
 40
1.0
 10
542.4756149678338
 20
412.0526016593655
 30
0.0
 10
542.5249559507839
 20
412.1123996870718
 30
0.0
 10
542.6121710945687
 20
412.2180987078989
 30
0.0
 10
542.6703622913387
 20
412.34195821153
 30
0.0
 10
542.6956324755062
 20
412.3957455993374
 30
0.0
  0
SPLINE
  5
287
330
1F
100
AcDbEntity
  8
0
  6
Continuous
 62
     7
370
    25
100
AcDbSpline
210
0.0
220
0.0
230
1.0
 70
     8
 71
     3
 72
     9
 73
     5
 74
     0
 42
0.000000001
 43
0.00000001
 40
0.0
 40
0.0
 40
0.0
 40
0.0
 40
0.5501171018656084
 40
1.0
 40
1.0
 40
1.0
 40
1.0
 10
542.6956324755062
 20
412.3957455993374
 30
0.0
 10
542.7323968066985
 20
412.3236129051656
 30
0.0
 10
542.7992268162868
 20
412.1924904697293
 30
0.0
 10
542.8990710048766
 20
412.0846201740194
 30
0.0
 10
542.9439891978014
 20
412.0360911727627
 30
0.0
  0
SPLINE
  5
288
330
1F
100
AcDbEntity
  8
0
  6
Continuous
 62
     7
370
    25
100
AcDbSpline
210
0.0
220
0.0
230
1.0
 70
     8
 71
     3
 72
    10
 73
     6
 74
     0
 42
0.000000001
 43
0.00000001
 40
0.0
 40
0.0
 40
0.0
 40
0.0
 40
0.2780900611409718
 40
0.547912307291948
 40
1.0
 40
1.0
 40
1.0
 40
1.0
 10
542.9439891978014
 20
412.0360911727627
 30
0.0
 10
543.0359355507854
 20
411.9579064697224
 30
0.0
 10
543.2170946263878
 20
411.8038615503824
 30
0.0
 10
543.637204859998
 20
411.6685283518691
 30
0.0
 10
543.9497497054822
 20
411.6809507942739
 30
0.0
 10
544.145477275442
 20
411.6887302041729
 30
0.0
  0
SPLINE
  5
289
330
1F
100
AcDbEntity
  8
0
  6
Continuous
 62
     7
370
    25
100
AcDbSpline
210
0.0
220
0.0
230
1.0
 70
     8
 71
     3
 72
     9
 73
     5
 74
     0
 42
0.000000001
 43
0.00000001
 40
0.0
 40
0.0
 40
0.0
 40
0.0
 40
0.5916885181659203
 40
1.0
 40
1.0
 40
1.0
 40
1.0
 10
544.145477275442
 20
411.6887302041729
 30
0.0
 10
544.3294093846105
 20
411.794819107181
 30
0.0
 10
544.6402690743316
 20
411.9741176734889
 30
0.0
 10
544.8077393546727
 20
412.2877661076851
 30
0.0
 10
544.8761193930019
 20
412.4158323646267
 30
0.0
  0
LINE
  5
28A
330
1F
100
AcDbEntity
  8
0
  6
Continuous
 62
     7
370
    25
100
AcDbLine
 10
544.876119393
 20
412.4158323646
 30
0.0
 11
544.2757218062
 21
412.4158323646
 31
0.0
  0
SPLINE
  5
28B
330
1F
100
AcDbEntity
  8
0
  6
Continuous
 62
     7
370
    25
100
AcDbSpline
210
0.0
220
0.0
230
1.0
 70
     8
 71
     3
 72
    10
 73
     6
 74
     0
 42
0.000000001
 43
0.00000001
 40
0.0
 40
0.0
 40
0.0
 40
0.0
 40
0.2606331142346483
 40
0.5276913023358724
 40
1.0
 40
1.0
 40
1.0
 40
1.0
 10
544.2757218061794
 20
412.4158323646267
 30
0.0
 10
544.2404259511387
 20
412.3822280736844
 30
0.0
 10
544.1689641349067
 20
412.3141910857385
 30
0.0
 10
543.9961292753661
 20
412.2351989323678
 30
0.0
 10
543.8577387764286
 20
412.2258571136169
 30
0.0
 10
543.7693347140063
 20
412.2198895455082
 30
0.0
  0
SPLINE
  5
28C
330
1F
100
AcDbEntity
  8
0
  6
Continuous
 62
     7
370
    25
100
AcDbSpline
210
0.0
220
0.0
230
1.0
 70
     8
 71
     3
 72
     9
 73
     5
 74
     0
 42
0.000000001
 43
0.00000001
 40
0.0
 40
0.0
 40
0.0
 40
0.0
 40
0.5576799697517535
 40
1.0
 40
1.0
 40
1.0
 40
1.0
 10
543.7693347140063
 20
412.2198895455082
 30
0.0
 10
543.6948651427771
 20
412.2261427795918
 30
0.0
 10
543.5613305436011
 20
412.237355723256
 30
0.0
 10
543.4477613765575
 20
412.3074320984222
 30
0.0
 10
543.3975274591554
 20
412.3384282828054
 30
0.0
  0
SPLINE
  5
28D
330
1F
100
AcDbEntity
  8
0
  6
Continuous
 62
     7
370
    25
100
AcDbSpline
210
0.0
220
0.0
230
1.0
 70
     8
 71
     3
 72
     9
 73
     5
 74
     0
 42
0.000000001
 43
0.00000001
 40
0.0
 40
0.0
 40
0.0
 40
0.0
 40
0.556155288671342
 40
1.0
 40
1.0
 40
1.0
 40
1.0
 10
543.3975274591554
 20
412.3384282828053
 30
0.0
 10
543.3417859662422
 20
412.387016453324
 30
0.0
 10
543.2415594754606
 20
412.4743808486797
 30
0.0
 10
543.1939887665801
 20
412.5979208159277
 30
0.0
 10
543.1728747590292
 20
412.6527533770284
 30
0.0
  0
LINE
  5
28E
330
1F
100
AcDbEntity
  8
0
  6
Continuous
 62
     7
370
    25
100
AcDbLine
 10
543.172874759
 20
412.652753377
 30
0.0
 11
544.8959789156
 21
412.652753377
 31
0.0
  0
LINE
  5
28F
330
1F
100
AcDbEntity
  8
0
  6
Continuous
 62
     7
370
    25
100
AcDbLine
 10
544.8959789156
 20
412.652753377
 30
0.0
 11
544.8959789156
 21
411.6899893523
 31
0.0
  0
LINE
  5
290
330
1F
100
AcDbEntity
  8
0
  6
Continuous
 62
     7
370
    25
100
AcDbLine
 10
544.8959789156
 20
411.6899893523
 30
0.0
 11
545.4391700133
 21
411.6899893523
 31
0.0
  0
LINE
  5
291
330
1F
100
AcDbEntity
  8
0
  6
Continuous
 62
     7
370
    25
100
AcDbLine
 10
545.4391700133
 20
411.6899893523
 30
0.0
 11
545.4391700133
 21
413.1525532246
 31
0.0
  0
SPLINE
  5
292
330
1F
100
AcDbEntity
  8
0
  6
Continuous
 62
     7
370
    25
100
AcDbSpline
210
0.0
220
0.0
230
1.0
 70
     8
 71
     3
 72
     9
 73
     5
 74
     0
 42
0.000000001
 43
0.00000001
 40
0.0
 40
0.0
 40
0.0
 40
0.0
 40
0.5708764983353677
 40
0.9999999999999999
 40
0.9999999999999999
 40
0.9999999999999999
 40
0.9999999999999999
 10
545.4391700132597
 20
413.1525532246312
 30
0.0
 10
545.4503279836804
 20
413.2219442353133
 30
0.0
 10
545.4698733152069
 20
413.3434959385004
 30
0.0
 10
545.5569764353157
 20
413.428891830251
 30
0.0
 10
545.5943544312228
 20
413.4655372143467
 30
0.0
  0
SPLINE
  5
293
330
1F
100
AcDbEntity
  8
0
  6
Continuous
 62
     7
370
    25
100
AcDbSpline
210
0.0
220
0.0
230
1.0
 70
     8
 71
     3
 72
     9
 73
     5
 74
     0
 42
0.000000001
 43
0.00000001
 40
0.0
 40
0.0
 40
0.0
 40
0.0
 40
0.5401641733528313
 40
1.0
 40
1.0
 40
1.0
 40
1.0
 10
545.5943544312228
 20
413.4655372143467
 30
0.0
 10
545.6492906251049
 20
413.4996352035506
 30
0.0
 10
545.7509933973215
 20
413.5627604363702
 30
0.0
 10
545.8701371073853
 20
413.5689253114764
 30
0.0
 10
545.9249236537922
 20
413.5717601419171
 30
0.0
  0
LINE
  5
294
330
1F
100
AcDbEntity
  8
0
  6
Continuous
 62
     7
370
    25
100
AcDbLine
 10
545.9249236538
 20
413.5717601419
 30
0.0
 11
545.9249236538
 21
414.0983969808
 31
0.0
  0
LINE
  5
295
330
1F
100
AcDbEntity
  8
0
  6
Continuous
 62
     7
370
    25
100
AcDbLine
 10
545.9249236538
 20
414.0983969808
 30
0.0
 11
545.8838411524
 21
414.0983969808
 31
0.0
  0
SPLINE
  5
296
330
1F
100
AcDbEntity
  8
0
  6
Continuous
 62
     7
370
    25
100
AcDbSpline
210
0.0
220
0.0
230
1.0
 70
     8
 71
     3
 72
    10
 73
     6
 74
     0
 42
0.000000001
 43
0.00000001
 40
0.0
 40
0.0
 40
0.0
 40
0.0
 40
0.2799751769321893
 40
0.5478596482331447
 40
1.0
 40
1.0
 40
1.0
 40
1.0
 10
545.8838411523808
 20
414.09839698083
 30
0.0
 10
545.8286637770394
 20
414.094483282803
 30
0.0
 10
545.7206918568992
 20
414.0868248994852
 30
0.0
 10
545.5362582694908
 20
414.0033724057067
 30
0.0
 10
545.4462417943311
 20
413.8912441244701
 30
0.0
 10
545.3897158532251
 20
413.8208330512722
 30
0.0
  0
LINE
  5
297
330
1F
100
AcDbEntity
  8
0
  6
Continuous
 62
     7
370
    25
100
AcDbLine
 10
545.3897158532
 20
413.8208330513
 30
0.0
 11
545.3897158532
 21
414.0247256399
 31
0.0
  0
LINE
  5
298
330
1F
100
AcDbEntity
  8
0
  6
Continuous
 62
     7
370
    25
100
AcDbLine
 10
545.3897158532
 20
414.0247256399
 30
0.0
 11
544.8959789156
 21
414.0247256399
 31
0.0
  0
LINE
  5
299
330
1F
100
AcDbEntity
  8
0
  6
Continuous
 62
     7
370
    25
100
AcDbLine
 10
544.8959789156
 20
414.0247256399
 30
0.0
 11
544.8959789156
 21
413.2895172477
 31
0.0
  0
SPLINE
  5
29A
330
1F
100
AcDbEntity
  8
0
  6
Continuous
 62
     7
370
    25
100
AcDbSpline
210
0.0
220
0.0
230
1.0
 70
     8
 71
     3
 72
     9
 73
     5
 74
     0
 42
0.000000001
 43
0.00000001
 40
0.0
 40
0.0
 40
0.0
 40
0.0
 40
0.5459641237373817
 40
0.9999999999999999
 40
0.9999999999999999
 40
0.9999999999999999
 40
0.9999999999999999
 10
544.895978915583
 20
413.2895172477444
 30
0.0
 10
544.8535741687679
 20
413.3888902123234
 30
0.0
 10
544.7759046938494
 20
413.5709039386077
 30
0.0
 10
544.6404151511194
 20
413.7146285365462
 30
0.0
 10
544.5788980378617
 20
413.7798846603116
 30
0.0
  0
ARC
  5
29B
330
1F
100
AcDbEntity
  8
0
  6
Continuous
 62
     7
370
    25
100
AcDbCircle
 10
543.8283854445
 20
413.0549225944
 30
0.0
 40
1.043475631478202
100
AcDbArc
 50
44.0079786985
 51
90.0
  0
SPLINE
  5
29C
330
1F
100
AcDbEntity
  8
0
  6
Continuous
 62
     7
370
    25
100
AcDbSpline
210
0.0
220
0.0
230
1.0
 70
     8
 71
     3
 72
     9
 73
     5
 74
     0
 42
0.000000001
 43
0.00000001
 40
0.0
 40
0.0
 40
0.0
 40
0.0
 40
0.5605830696003089
 40
1.0
 40
1.0
 40
1.0
 40
1.0
 10
543.8283852218498
 20
414.09839698083
 30
0.0
 10
543.6407308418213
 20
414.0825508567545
 30
0.0
 10
543.3059822734026
 20
414.0542836383263
 30
0.0
 10
543.0544963641042
 20
413.8355039167252
 30
0.0
 10
542.9439891978014
 20
413.7393684030255
 30
0.0
  0
SPLINE
  5
29D
330
1F
100
AcDbEntity
  8
0
  6
Continuous
 62
     7
370
    25
100
AcDbSpline
210
0.0
220
0.0
230
1.0
 70
     8
 71
     3
 72
     9
 73
     5
 74
     0
 42
0.000000001
 43
0.00000001
 40
0.0
 40
0.0
 40
0.0
 40
0.0
 40
0.5679925214578382
 40
1.0
 40
1.0
 40
1.0
 40
1.0
 10
542.9439891978014
 20
413.7393684030255
 30
0.0
 10
542.8894065991195
 20
413.6778846123585
 30
0.0
 10
542.7933092094183
 20
413.5696370767937
 30
0.0
 10
542.7291161887332
 20
413.4401576558689
 30
0.0
 10
542.701384323727
 20
413.3842215777119
 30
0.0
  0
SPLINE
  5
29E
330
1F
100
AcDbEntity
  8
0
  6
Continuous
 62
     7
370
    25
100
AcDbSpline
210
0.0
220
0.0
230
1.0
 70
     8
 71
     3
 72
     9
 73
     5
 74
     0
 42
0.000000001
 43
0.00000001
 40
0.0
 40
0.0
 40
0.0
 40
0.0
 40
0.554396863785183
 40
1.0
 40
1.0
 40
1.0
 40
1.0
 10
542.701384323727
 20
413.3842215777119
 30
0.0
 10
542.6687118903818
 20
413.4537815200074
 30
0.0
 10
542.6097785964195
 20
413.5792511011671
 30
0.0
 10
542.5196087155047
 20
413.6842969496245
 30
0.0
 10
542.4794287337769
 20
413.7311057091435
 30
0.0
  0
SPLINE
  5
29F
330
1F
100
AcDbEntity
  8
0
  6
Continuous
 62
     7
370
    25
100
AcDbSpline
210
0.0
220
0.0
230
1.0
 70
     8
 71
     3
 72
     9
 73
     5
 74
     0
 42
0.000000001
 43
0.00000001
 40
0.0
 40
0.0
 40
0.0
 40
0.0
 40
0.5625863833562506
 40
1.0
 40
1.0
 40
1.0
 40
1.0
 10
542.4794287337769
 20
413.7311057091435
 30
0.0
 10
542.3459054967001
 20
413.8490293459452
 30
0.0
 10
542.1085673011321
 20
414.058639177058
 30
0.0
 10
541.7957073229652
 20
414.0862984418039
 30
0.0
 10
541.6588581084121
 20
414.09839698083
 30
0.0
  0
SPLINE
  5
2A0
330
1F
100
AcDbEntity
  8
0
  6
Continuous
 62
     7
370
    25
100
AcDbSpline
210
0.0
220
0.0
230
1.0
 70
     8
 71
     3
 72
    10
 73
     6
 74
     0
 42
0.000000001
 43
0.00000001
 40
0.0
 40
0.0
 40
0.0
 40
0.0
 40
0.2953982508793491
 40
0.5677972860998729
 40
1.0
 40
1.0
 40
1.0
 40
1.0
 10
541.6588581084121
 20
414.09839698083
 30
0.0
 10
541.5747628152164
 20
414.0933151594952
 30
0.0
 10
541.4131197482444
 20
414.0835471789679
 30
0.0
 10
541.1403790767051
 20
413.9781680149813
 30
0.0
 10
541.0058548711083
 20
413.8250365499864
 30
0.0
 10
540.9233377232064
 20
413.7311057091435
 30
0.0
  0
LINE
  5
2A1
330
1F
100
AcDbEntity
  8
0
  6
Continuous
 62
     7
370
    25
100
AcDbLine
 10
540.9233377232
 20
413.7311057091
 30
0.0
 11
540.9233377232
 21
414.0247256399
 31
0.0
  0
LINE
  5
2A2
330
1F
100
AcDbEntity
  8
0
  6
Continuous
 62
     7
370
    25
100
AcDbLine
 10
540.9233377232
 20
414.0247256399
 30
0.0
 11
540.4250503435
 21
414.0247256399
 31
0.0
  0
LINE
  5
2A3
330
1F
100
AcDbEntity
  8
0
  6
Continuous
 62
     7
370
    25
100
AcDbLine
 10
540.4250503435
 20
414.0247256399
 30
0.0
 11
540.4250503435
 21
413.3245722295
 31
0.0
  0
SPLINE
  5
2A4
330
1F
100
AcDbEntity
  8
0
  6
Continuous
 62
     7
370
    25
100
AcDbSpline
210
0.0
220
0.0
230
1.0
 70
     8
 71
     3
 72
     9
 73
     5
 74
     0
 42
0.000000001
 43
0.00000001
 40
0.0
 40
0.0
 40
0.0
 40
0.0
 40
0.5456400300089151
 40
1.0
 40
1.0
 40
1.0
 40
1.0
 10
540.4250503434647
 20
413.3245722294529
 30
0.0
 10
540.3830760218267
 20
413.4162365154161
 30
0.0
 10
540.3061492581553
 20
413.5842305791244
 30
0.0
 10
540.1793824623522
 20
413.7182424995351
 30
0.0
 10
540.1217847048152
 20
413.7791321516713
 30
0.0
  0
ARC
  5
2A5
330
1F
100
AcDbEntity
  8
0
  6
Continuous
 62
     7
370
    25
100
AcDbCircle
 10
539.3705423262
 20
413.0549225944
 30
0.0
 40
1.043475631478202
100
AcDbArc
 50
43.9502643288
 51
90.0
  0
SPLINE
  5
2A6
330
1F
100
AcDbEntity
  8
0
  6
Continuous
 62
     7
370
    25
100
AcDbSpline
210
0.0
220
0.0
230
1.0
 70
     8
 71
     3
 72
     9
 73
     5
 74
     0
 42
0.000000001
 43
0.00000001
 40
0.0
 40
0.0
 40
0.0
 40
0.0
 40
0.5607650250395185
 40
1.0
 40
1.0
 40
1.0
 40
1.0
 10
539.3705421975661
 20
414.09839698083
 30
0.0
 10
539.1827780154111
 20
414.0826120553132
 30
0.0
 10
538.8479422575252
 20
414.0544631430022
 30
0.0
 10
538.5965067469514
 20
413.835531039865
 30
0.0
 10
538.4860674767602
 20
413.7393684030255
 30
0.0
  0
SPLINE
  5
2A7
330
1F
100
AcDbEntity
  8
0
  6
Continuous
 62
     7
370
    25
100
AcDbSpline
210
0.0
220
0.0
230
1.0
 70
     8
 71
     3
 72
     9
 73
     5
 74
     0
 42
0.000000001
 43
0.00000001
 40
0.0
 40
0.0
 40
0.0
 40
0.0
 40
0.5672229837593903
 40
0.9999999999999999
 40
0.9999999999999999
 40
0.9999999999999999
 40
0.9999999999999999
 10
538.4860674767602
 20
413.7393684030255
 30
0.0
 10
538.4192104790206
 20
413.6625164109426
 30
0.0
 10
538.3013432563342
 20
413.5270282620428
 30
0.0
 10
538.2345009532213
 20
413.3608269552179
 30
0.0
 10
538.2055731407214
 20
413.2888988495549
 30
0.0
  0
SPLINE
  5
2A8
330
1F
100
AcDbEntity
  8
0
  6
Continuous
 62
     7
370
    25
100
AcDbSpline
210
0.0
220
0.0
230
1.0
 70
     8
 71
     3
 72
     9
 73
     5
 74
     0
 42
0.000000001
 43
0.00000001
 40
0.0
 40
0.0
 40
0.0
 40
0.0
 40
0.5940951353882276
 40
1.0
 40
1.0
 40
1.0
 40
1.0
 10
538.2055731407214
 20
413.2888988495549
 30
0.0
 10
538.2032325682027
 20
413.3143030420633
 30
0.0
 10
538.199292841416
 20
413.3570641942679
 30
0.0
 10
538.1916853686826
 20
413.3993170506046
 30
0.0
 10
538.1885974584926
 20
413.4164676905354
 30
0.0
  0
SPLINE
  5
2A9
330
1F
100
AcDbEntity
  8
0
  6
Continuous
 62
     7
370
    25
100
AcDbSpline
210
0.0
220
0.0
230
1.0
 70
     8
 71
     3
 72
     9
 73
     5
 74
     0
 42
0.000000001
 43
0.00000001
 40
0.0
 40
0.0
 40
0.0
 40
0.0
 40
0.5681220316963279
 40
0.9999999999999999
 40
0.9999999999999999
 40
0.9999999999999999
 40
0.9999999999999999
 10
538.1885974584926
 20
413.4164676905354
 30
0.0
 10
538.1660200809777
 20
413.4951306251006
 30
0.0
 10
538.1262797149027
 20
413.6335919594204
 30
0.0
 10
538.0386919426566
 20
413.747379482499
 30
0.0
 10
538.0008647135306
 20
413.7965218067845
 30
0.0
  0
SPLINE
  5
2AA
330
1F
100
AcDbEntity
  8
0
  6
Continuous
 62
     7
370
    25
100
AcDbSpline
210
0.0
220
0.0
230
1.0
 70
     8
 71
     3
 72
    10
 73
     6
 74
     0
 42
0.000000001
 43
0.00000001
 40
0.0
 40
0.0
 40
0.0
 40
0.0
 40
0.286743736629629
 40
0.5597342364516109
 40
1.0
 40
1.0
 40
1.0
 40
1.0
 10
538.0008647135306
 20
413.7965218067845
 30
0.0
 10
537.9500426457856
 20
413.8476405217492
 30
0.0
 10
537.8508361151793
 20
413.9474261185523
 30
0.0
 10
537.6264833954327
 20
414.0710167677083
 30
0.0
 10
537.4463073259761
 20
414.087946750878
 30
0.0
 10
537.3350915415991
 20
414.09839698083
 30
0.0
  0
SPLINE
  5
2AB
330
1F
100
AcDbEntity
  8
0
  6
Continuous
 62
     7
370
    25
100
AcDbSpline
210
0.0
220
0.0
230
1.0
 70
     8
 71
     3
 72
     9
 73
     5
 74
     0
 42
0.000000001
 43
0.00000001
 40
0.0
 40
0.0
 40
0.0
 40
0.0
 40
0.5574045263620951
 40
1.0
 40
1.0
 40
1.0
 40
1.0
 10
537.3350915415991
 20
414.09839698083
 30
0.0
 10
537.2742419111142
 20
414.0952007879151
 30
0.0
 10
537.1650758968337
 20
414.0894667244768
 30
0.0
 10
537.062120341267
 20
414.0532290790622
 30
0.0
 10
537.0165526783873
 20
414.0371904612263
 30
0.0
  0
SPLINE
  5
2AC
330
1F
100
AcDbEntity
  8
0
  6
Continuous
 62
     7
370
    25
100
AcDbSpline
210
0.0
220
0.0
230
1.0
 70
     8
 71
     3
 72
     9
 73
     5
 74
     0
 42
0.000000001
 43
0.00000001
 40
0.0
 40
0.0
 40
0.0
 40
0.0
 40
0.5917283109347554
 40
0.9999999999999999
 40
0.9999999999999999
 40
0.9999999999999999
 40
0.9999999999999999
 10
537.0165526783873
 20
414.0371904612263
 30
0.0
 10
536.9569962033312
 20
414.0116935168327
 30
0.0
 10
536.8563478585492
 20
413.968604579017
 30
0.0
 10
536.7843176167328
 20
413.887010226433
 30
0.0
 10
536.7549097082425
 20
413.8536975622853
 30
0.0
  0
LINE
  5
2AD
330
1F
100
AcDbEntity
  8
0
  6
Continuous
 62
     7
370
    25
100
AcDbLine
 10
536.7549097082
 20
413.8536975623
 30
0.0
 11
536.7549097082
 21
414.7805721403
 31
0.0
  0
LINE
  5
2AE
330
1F
100
AcDbEntity
  8
0
  6
Continuous
 62
     7
370
    25
100
AcDbLine
 10
536.7549097082
 20
414.7805721403
 30
0.0
 11
536.2116406123
 21
414.7805721403
 31
0.0
  0
LINE
  5
2AF
330
1F
100
AcDbEntity
  8
0
  6
Continuous
 62
     7
370
    25
100
AcDbLine
 10
536.2116406123
 20
414.7805721403
 30
0.0
 11
536.2116406123
 21
411.6899893523
 31
0.0
  0
LINE
  5
2B0
330
1F
100
AcDbEntity
  8
0
  6
Continuous
 62
     7
370
    25
100
AcDbLine
 10
536.2116406123
 20
411.6899893523
 30
0.0
 11
536.7549097082
 21
411.6899893523
 31
0.0
  0
LINE
  5
2B1
330
1F
100
AcDbEntity
  8
0
  6
Continuous
 62
     7
370
    25
100
AcDbLine
 10
536.7549097082
 20
411.6899893523
 30
0.0
 11
536.7549097082
 21
412.7039388657
 31
0.0
  0
ARC
  5
2B2
330
1F
100
AcDbEntity
  8
0
  6
Continuous
 62
     7
370
    25
100
AcDbCircle
 10
537.7983853242
 20
412.7039364632
 30
0.0
 40
1.043475631478297
100
AcDbArc
 50
124.1577277816
 51
180.0
  0
SPLINE
  5
2B3
330
1F
100
AcDbEntity
  8
0
  6
Continuous
 62
     7
370
    25
100
AcDbSpline
210
0.0
220
0.0
230
1.0
 70
     8
 71
     3
 72
    11
 73
     7
 74
     0
 42
0.000000001
 43
0.00000001
 40
0.0
 40
0.0
 40
0.0
 40
0.0
 40
0.2066519494033554
 40
0.3890245863928395
 40
0.5617669676274989
 40
1.0
 40
1.0
 40
1.0
 40
1.0
 10
537.2125020167638
 20
413.5674090028485
 30
0.0
 10
537.2563257561083
 20
413.5652250533464
 30
0.0
 10
537.3388244314021
 20
413.56111374419
 30
0.0
 10
537.4523860296547
 20
413.5199989480884
 30
0.0
 10
537.5870890874354
 20
413.4142151288139
 30
0.0
 10
537.6373521593089
 20
413.2916460934446
 30
0.0
 10
537.6734042457152
 20
413.2037312627514
 30
0.0
  0
LINE
  5
2B4
330
1F
100
AcDbEntity
  8
0
  6
Continuous
 62
     7
370
    25
100
AcDbLine
 10
537.6734042457
 20
413.2037312628
 30
0.0
 11
537.6734042457
 21
411.6899893523
 31
0.0
  0
LINE
  5
2B5
330
1F
100
AcDbEntity
  8
0
  6
Continuous
 62
     7
370
    25
100
AcDbLine
 10
537.6734042457
 20
411.6899893523
 30
0.0
 11
538.2172156042
 21
411.6899893523
 31
0.0
  0
LINE
  5
2B6
330
1F
100
AcDbEntity
  8
0
  6
Continuous
 62
     7
370
    25
100
AcDbLine
 10
538.2172156042
 20
411.6899893523
 30
0.0
 11
538.2172156042
 21
412.4440328122
 31
0.0
  0
SPLINE
  5
2B7
330
1F
100
AcDbEntity
  8
0
  6
Continuous
 62
     7
370
    25
100
AcDbSpline
210
0.0
220
0.0
230
1.0
 70
     8
 71
     3
 72
     9
 73
     5
 74
     0
 42
0.000000001
 43
0.00000001
 40
0.0
 40
0.0
 40
0.0
 40
0.0
 40
0.5496510431786007
 40
1.0
 40
1.0
 40
1.0
 40
1.0
 10
538.2172156042267
 20
412.4440328121862
 30
0.0
 10
538.255085711376
 20
412.3616128661054
 30
0.0
 10
538.323984165439
 20
412.2116632806301
 30
0.0
 10
538.4357388645815
 20
412.0906082014083
 30
0.0
 10
538.4860674767602
 20
412.0360911727627
 30
0.0
  0
CIRCLE
  5
2B8
330
1F
100
AcDbEntity
  8
0
  6
Continuous
 62
     7
370
    25
100
AcDbCircle
 10
453.929863012
 20
331.7429017341
 30
0.0
 40
5.735000000002913
  0
CIRCLE
  5
2B9
330
1F
100
AcDbEntity
  8
0
  6
Continuous
 62
     7
370
    25
100
AcDbCircle
 10
541.429863012
 20
331.7429017341
 30
0.0
 40
100.9999999999999
  0
CIRCLE
  5
2BA
330
1F
100
AcDbEntity
  8
0
  6
Continuous
 62
     7
370
    25
100
AcDbCircle
 10
541.429863012
 20
331.7429017341
 30
0.0
 40
101.5
  0
ARC
  5
2BB
330
1F
100
AcDbEntity
  8
0
  6
Continuous
 62
     7
370
    25
100
AcDbCircle
 10
539.3437705936
 20
412.9259538342
 30
0.0
 40
0.6415122358643465
100
AcDbArc
 50
54.6244790204
 51
90.7750253881
  0
LINE
  5
2BC
330
1F
100
AcDbEntity
  8
0
  6
Continuous
 62
     7
370
    25
100
AcDbLine
 10
538.7065501801
 20
413.1348431946
 30
0.0
 11
539.9519547737
 21
413.1348431946
 31
0.0
  0
SPLINE
  5
2BD
330
1F
100
AcDbEntity
  8
0
  6
Continuous
 62
     7
370
    25
100
AcDbSpline
210
0.0
220
0.0
230
1.0
 70
     8
 71
     3
 72
     9
 73
     5
 74
     0
 42
0.000000001
 43
0.00000001
 40
0.0
 40
0.0
 40
0.0
 40
0.0
 40
0.5596986858404949
 40
1.0
 40
1.0
 40
1.0
 40
1.0
 10
538.9475508509983
 20
413.4451375246724
 30
0.0
 10
538.8873377231178
 20
413.3985751308203
 30
0.0
 10
538.7797563951574
 20
413.3153832366278
 30
0.0
 10
538.7289293811298
 20
413.1900344361368
 30
0.0
 10
538.7065501800586
 20
413.1348431945523
 30
0.0
  0
ARC
  5
2BE
330
1F
100
AcDbEntity
  8
0
  6
Continuous
 62
     7
370
    25
100
AcDbCircle
 10
539.396554645
 20
412.9625760944
 30
0.0
 40
0.5815030931999166
100
AcDbArc
 50
17.2323275995
 51
56.7765929054
  0
ARC
  5
2BF
330
1F
100
AcDbEntity
  8
0
  6
Continuous
 62
     7
370
    25
100
AcDbCircle
 10
539.3339521976
 20
412.8957269494
 30
0.0
 40
0.6716814011305569
100
AcDbArc
 50
89.9026628204
 51
125.1188542945
  0
ARC
  5
2C0
330
1F
100
AcDbEntity
  8
0
  6
Continuous
 62
     7
370
    25
100
AcDbCircle
 10
543.8521615931
 20
412.9603107224
 30
0.0
 40
0.584986151018276
100
AcDbArc
 50
17.3588655173
 51
56.6608723461
  0
ARC
  5
2C1
330
1F
100
AcDbEntity
  8
0
  6
Continuous
 62
     7
370
    25
100
AcDbCircle
 10
543.8023326593
 20
412.9261230421
 30
0.0
 40
0.6413401040137299
100
AcDbArc
 50
54.620026381
 51
90.7555740279
  0
SPLINE
  5
2C2
330
1F
100
AcDbEntity
  8
0
  6
Continuous
 62
     7
370
    25
100
AcDbSpline
210
0.0
220
0.0
230
1.0
 70
     8
 71
     3
 72
     9
 73
     5
 74
     0
 42
0.000000001
 43
0.00000001
 40
0.0
 40
0.0
 40
0.0
 40
0.0
 40
0.5597050547430046
 40
1.0
 40
1.0
 40
1.0
 40
1.0
 10
543.4057435869087
 20
413.4451375246724
 30
0.0
 10
543.3455604478322
 20
413.3985797253513
 30
0.0
 10
543.2380339236986
 20
413.3153969866452
 30
0.0
 10
543.1873686337101
 20
413.1900380852011
 30
0.0
 10
543.1650609626282
 20
413.1348431945523
 30
0.0
  0
ARC
  5
2C3
330
1F
100
AcDbEntity
  8
0
  6
Continuous
 62
     7
370
    25
100
AcDbCircle
 10
543.7936011629
 20
412.8911121159
 30
0.0
 40
0.6762953209495763
100
AcDbArc
 50
89.9767675271
 51
124.9948352776
  0
LINE
  5
2C4
330
1F
100
AcDbEntity
  8
0
  6
Continuous
 62
     7
370
    25
100
AcDbLine
 10
543.1650609626
 20
413.1348431946
 30
0.0
 11
544.4105046718
 21
413.1348431946
 31
0.0
  0
SPLINE
  5
2C5
330
1F
100
AcDbEntity
  8
0
  6
Continuous
 62
     7
370
    25
100
AcDbSpline
210
0.0
220
0.0
230
1.0
 70
     8
 71
     3
 72
    15
 73
    11
 74
     0
 42
0.000000001
 43
0.00000001
 40
0.0
 40
0.0
 40
0.0
 40
0.0
 40
0.1270969776620455
 40
0.2498919251512718
 40
0.3727458364056633
 40
0.5000531705858966
 40
0.6272315183595578
 40
0.7500765834179504
 40
0.8728973846879161
 40
1.0
 40
1.0
 40
1.0
 40
1.0
 10
541.5914825080741
 20
413.5641381979664
 30
0.0
 10
541.5021138143505
 20
413.553782624525
 30
0.0
 10
541.3264014147826
 20
413.5334219973021
 30
0.0
 10
541.1053901075152
 20
413.3781482292955
 30
0.0
 10
540.9558822203009
 20
413.1585434102477
 30
0.0
 10
540.9025463631494
 20
412.8928844648217
 30
0.0
 10
540.955924366931
 20
412.6272467276355
 30
0.0
 10
541.1054252896889
 20
412.4077465955506
 30
0.0
 10
541.3263741098954
 20
412.2523649078954
 30
0.0
 10
541.5021094465367
 20
412.2319686015447
 30
0.0
 10
541.5914825080741
 20
412.2215957284649
 30
0.0
  0
SPLINE
  5
2C6
330
1F
100
AcDbEntity
  8
0
  6
Continuous
 62
     7
370
    25
100
AcDbSpline
210
0.0
220
0.0
230
1.0
 70
     8
 71
     3
 72
    15
 73
    11
 74
     0
 42
0.000000001
 43
0.00000001
 40
0.0
 40
0.0
 40
0.0
 40
0.0
 40
0.1273018460718827
 40
0.2501032954790635
 40
0.3728523740769943
 40
0.4999468450153087
 40
0.6271702322722034
 40
0.7499281533378201
 40
0.8727037759859974
 40
1.0
 40
1.0
 40
1.0
 40
1.0
 10
541.5914825080741
 20
412.2215957284649
 30
0.0
 10
541.6810546510743
 20
412.2319458670971
 30
0.0
 10
541.8570323673348
 20
412.2522802444878
 30
0.0
 10
542.0782585208538
 20
412.4076739144168
 30
0.0
 10
542.2276942613319
 20
412.6272711033888
 30
0.0
 10
542.2809415287744
 20
412.8928844832747
 30
0.0
 10
542.2277363777916
 20
413.1585189970116
 30
0.0
 10
542.0782936873242
 20
413.3782209164618
 30
0.0
 10
541.8570050203411
 20
413.5335065749674
 30
0.0
 10
541.6810502691774
 20
413.5538053419402
 30
0.0
 10
541.5914825080741
 20
413.5641381979664
 30
0.0
  0
ARC
  5
2C7
330
1F
100
AcDbEntity
  8
0
  6
Continuous
 62
     8
370
    25
100
AcDbCircle
 10
541.429863012
 20
331.7429017341
 30
0.0
 40
117.9047903402968
100
AcDbArc
 50
130.0239819148
 51
139.9760180852
  0
ARC
  5
2C8
330
1F
100
AcDbEntity
  8
0
  6
Continuous
 62
     8
370
    25
100
AcDbCircle
 10
541.429863012
 20
331.7429017341
 30
0.0
 40
117.9047903402968
100
AcDbArc
 50
178.4305357834
 51
181.5694642166
  0
ARC
  5
2C9
330
1F
100
AcDbEntity
  8
0
  6
Continuous
 62
     8
370
    25
100
AcDbCircle
 10
541.429863012
 20
331.7429017341
 30
0.0
 40
117.9047903402969
100
AcDbArc
 50
220.0239819148
 51
229.9760180852
  0
ARC
  5
2CA
330
1F
100
AcDbEntity
  8
0
  6
Continuous
 62
     8
370
    25
100
AcDbCircle
 10
541.429863012
 20
331.7429017341
 30
0.0
 40
117.9047903402969
100
AcDbArc
 50
310.0239819148
 51
319.9760180852
  0
ARC
  5
2CB
330
1F
100
AcDbEntity
  8
0
  6
Continuous
 62
     8
370
    25
100
AcDbCircle
 10
541.429863012
 20
331.7429017341
 30
0.0
 40
117.9047903402968
100
AcDbArc
 50
358.4305357834
 51
1.5694642166
  0
ARC
  5
2CC
330
1F
100
AcDbEntity
  8
0
  6
Continuous
 62
     8
370
    25
100
AcDbCircle
 10
541.429863012
 20
331.7429017341
 30
0.0
 40
117.9047903402969
100
AcDbArc
 50
40.0239819148
 51
49.9760180852
  0
ARC
  5
2CD
330
1F
100
AcDbEntity
  8
0
  6
Continuous
 62
     8
370
    25
100
AcDbCircle
 10
541.429863012
 20
331.7429017341
 30
0.0
 40
121.5642329045691
100
AcDbArc
 50
130.5188185419
 51
139.495910878
  0
LWPOLYLINE
  5
2CE
330
1F
100
AcDbEntity
  8
0
  6
Continuous
 62
     8
370
    25
100
AcDbPolyline
 90
        3
 70
   128
 43
0.0
 10
419.9778160929
 20
336.9642981232
 10
419.8656327008
 20
331.7428734989
 10
419.9778160929
 20
326.5215047539
  0
ARC
  5
2CF
330
1F
100
AcDbEntity
  8
0
  6
Continuous
 62
     8
370
    25
100
AcDbCircle
 10
541.429863012
 20
331.7429017341
 30
0.0
 40
121.5642329045691
100
AcDbArc
 50
220.487500688
 51
229.4536774429
  0
ARC
  5
2D0
330
1F
100
AcDbEntity
  8
0
  6
Continuous
 62
     8
370
    25
100
AcDbCircle
 10
541.429863012
 20
331.7429017341
 30
0.0
 40
121.5642329045692
100
AcDbArc
 50
310.5213204725
 51
319.4955654991
  0
LWPOLYLINE
  5
2D1
330
1F
100
AcDbEntity
  8
0
  6
Continuous
 62
     8
370
    25
100
AcDbPolyline
 90
        3
 70
   128
 43
0.0
 10
662.8819129347
 20
326.5215047539
 10
662.9940888761
 20
331.7429293782
 10
662.8819129347
 20
336.9642981232
  0
ARC
  5
2D2
330
1F
100
AcDbEntity
  8
0
  6
Continuous
 62
     8
370
    25
100
AcDbCircle
 10
541.429863012
 20
331.7429017341
 30
0.0
 40
121.5642329045692
100
AcDbArc
 50
40.4873865974
 51
49.457070641
  0
ARC
  5
2D3
330
1F
100
AcDbEntity
  8
0
  6
Continuous
 62
     8
370
    25
100
AcDbCircle
 10
541.429863012
 20
331.7429017341
 30
0.0
 40
116.8261327826214
100
AcDbArc
 50
219.9779207826
 51
230.0220792174
  0
LINE
  5
2D4
330
1F
100
AcDbEntity
  8
0
  6
Continuous
 62
     8
370
    25
100
AcDbLine
 10
424.6069884776
 20
330.8707588256
 30
0.0
 11
424.6069884776
 21
332.6150449828
 31
0.0
  0
ARC
  5
2D5
330
1F
100
AcDbEntity
  8
0
  6
Continuous
 62
     8
370
    25
100
AcDbCircle
 10
541.429863012
 20
331.7429017341
 30
0.0
 40
116.8261327826214
100
AcDbArc
 50
129.9779207826
 51
140.0220792174
  0
ARC
  5
2D6
330
1F
100
AcDbEntity
  8
0
  6
Continuous
 62
     8
370
    25
100
AcDbCircle
 10
541.429863012
 20
331.7429017341
 30
0.0
 40
116.8261327826215
100
AcDbArc
 50
39.9779207826
 51
50.0220792174
  0
LINE
  5
2D7
330
1F
100
AcDbEntity
  8
0
  6
Continuous
 62
     8
370
    25
100
AcDbLine
 10
658.2527330994
 20
332.6150449828
 30
0.0
 11
658.2527330994
 21
330.8707588256
 31
0.0
  0
ARC
  5
2D8
330
1F
100
AcDbEntity
  8
0
  6
Continuous
 62
     8
370
    25
100
AcDbCircle
 10
541.429863012
 20
331.7429017341
 30
0.0
 40
116.8261327826215
100
AcDbArc
 50
309.9779207826
 51
320.0220792174
  0
ARC
  5
2D9
330
1F
100
AcDbEntity
  8
0
  6
Continuous
 62
     8
370
    25
100
AcDbCircle
 10
541.429863012
 20
331.7429017341
 30
0.0
 40
113.8265896971523
100
AcDbArc
 50
309.843647845
 51
320.1558393154
  0
ARC
  5
2DA
330
1F
100
AcDbEntity
  8
0
  6
Continuous
 62
     8
370
    25
100
AcDbCircle
 10
541.429863012
 20
331.7429017341
 30
0.0
 40
113.8265896971523
100
AcDbArc
 50
39.8436737493
 51
50.1558563962
  0
ARC
  5
2DB
330
1F
100
AcDbEntity
  8
0
  6
Continuous
 62
     8
370
    25
100
AcDbCircle
 10
541.429863012
 20
331.7429017341
 30
0.0
 40
113.8265896971523
100
AcDbArc
 50
129.8437032279
 51
140.1558701393
  0
ARC
  5
2DC
330
1F
100
AcDbEntity
  8
0
  6
Continuous
 62
     8
370
    25
100
AcDbCircle
 10
541.429863012
 20
331.7429017341
 30
0.0
 40
113.8265896971523
100
AcDbArc
 50
219.8437363271
 51
230.1558805906
  0
LINE
  5
2DD
330
1F
100
AcDbEntity
  8
0
  6
Continuous
 62
     7
370
    25
100
AcDbLine
 10
404.019298303
 20
557.7851502662
 30
0.0
 11
404.1515759109
 21
553.9974241024
 31
0.0
  0
LINE
  5
2DE
330
1F
100
AcDbEntity
  8
0
  6
Continuous
 62
     7
370
    25
100
AcDbLine
 10
678.7081531166
 20
553.9974241024
 30
0.0
 11
678.8404307245
 21
557.7851502662
 31
0.0
  0
ARC
  5
2DF
330
1F
100
AcDbEntity
  8
0
  6
Continuous
 62
     7
370
    25
100
AcDbCircle
 10
407.8093393655
 20
554.1251530412
 30
0.0
 40
3.660000000000082
100
AcDbArc
 50
182.0
 51
270.0
  0
ARC
  5
2E0
330
1F
100
AcDbEntity
  8
0
  6
Continuous
 62
     7
370
    25
100
AcDbCircle
 10
675.0503866585
 20
554.1251530412
 30
0.0
 40
3.660000000000082
100
AcDbArc
 50
270.0
 51
358.0
  0
ARC
  5
2E1
330
1F
100
AcDbEntity
  8
0
  6
Continuous
 62
     7
370
    25
100
AcDbCircle
 10
547.2078351381
 20
549.2451530412
 30
0.0
 40
1.220000000000085
100
AcDbArc
 50
90.0
 51
178.5
  0
ARC
  5
2E2
330
1F
100
AcDbEntity
  8
0
  6
Continuous
 62
     7
370
    25
100
AcDbCircle
 10
535.6519558867
 20
549.2451530412
 30
0.0
 40
1.220000000000198
100
AcDbArc
 50
1.5
 51
90.0
  0
LINE
  5
2E3
330
1F
100
AcDbEntity
  8
0
  6
Continuous
 62
     7
370
    25
100
AcDbLine
 10
536.8715378373
 20
549.2770864134
 30
0.0
 11
537.1598953298
 21
538.2651506429
 31
0.0
  0
LINE
  5
2E4
330
1F
100
AcDbEntity
  8
0
  6
Continuous
 62
     7
370
    25
100
AcDbLine
 10
545.6998956307
 20
538.2651506429
 30
0.0
 11
545.9882535889
 21
549.2770864134
 31
0.0
  0
ARC
  5
2E5
330
1F
100
AcDbEntity
  8
0
  6
Continuous
 62
     7
370
    25
100
AcDbCircle
 10
419.8656301074
 20
549.2451530412
 30
0.0
 40
1.220000000000143
100
AcDbArc
 50
1.0
 51
90.0
  0
ARC
  5
2E6
330
1F
100
AcDbEntity
  8
0
  6
Continuous
 62
     7
370
    25
100
AcDbCircle
 10
662.9940959166
 20
549.2451530412
 30
0.0
 40
1.220000000000027
100
AcDbArc
 50
90.0
 51
179.0
  0
LINE
  5
2E7
330
1F
100
AcDbEntity
  8
0
  6
Continuous
 62
     7
370
    25
100
AcDbLine
 10
421.9269475817
 20
501.0567797785
 30
0.0
 11
422.2148082136
 21
484.5651431447
 31
0.0
  0
LINE
  5
2E8
330
1F
100
AcDbEntity
  8
0
  6
Continuous
 62
     7
370
    25
100
AcDbLine
 10
421.0854417561
 20
549.2664469843
 30
0.0
 11
421.3954753159
 21
531.5046800738
 31
0.0
  0
LINE
  5
2E9
330
1F
100
AcDbEntity
  8
0
  6
Continuous
 62
     7
370
    25
100
AcDbLine
 10
661.4642909645
 20
531.507146216
 30
0.0
 11
661.7742798208
 21
549.2664469843
 31
0.0
  0
LINE
  5
2EA
330
1F
100
AcDbEntity
  8
0
  6
Continuous
 62
     7
370
    25
100
AcDbLine
 10
660.6449208139
 20
484.5651431447
 30
0.0
 11
660.9336010097
 21
501.1039121514
 31
0.0
  0
ARC
  5
2EB
330
1F
100
AcDbEntity
  8
0
  6
Continuous
 62
     7
370
    25
100
AcDbCircle
 10
657.6449161789
 20
484.5651359761
 30
0.0
 40
3.0
100
AcDbArc
 50
270.0
 51
0.0
  0
ARC
  5
2EC
330
1F
100
AcDbEntity
  8
0
  6
Continuous
 62
     7
370
    25
100
AcDbCircle
 10
425.2148098451
 20
484.5651359761
 30
0.0
 40
3.0
100
AcDbArc
 50
180.0
 51
270.0
  0
LINE
  5
2ED
330
1F
100
AcDbEntity
  8
0
  6
Continuous
 62
     7
370
    25
100
AcDbLine
 10
512.0242091744
 20
645.1575743472
 30
0.0
 11
508.1706627189
 21
557.7851502662
 31
0.0
  0
LINE
  5
2EE
330
1F
100
AcDbEntity
  8
0
  6
Continuous
 62
     7
370
    25
100
AcDbLine
 10
649.9093866824
 20
635.6002033194
 30
0.0
 11
646.9304731964
 21
720.9051518207
 31
0.0
  0
LINE
  5
2EF
330
1F
100
AcDbEntity
  8
0
  6
Continuous
 62
     7
370
    25
100
AcDbLine
 10
435.9292558311
 20
720.9051518207
 30
0.0
 11
430.3358367561
 21
560.7306553488
 31
0.0
  0
LINE
  5
2F0
330
1F
100
AcDbEntity
  8
0
  6
Continuous
 62
     7
370
    25
100
AcDbLine
 10
604.7172865747
 20
557.7851502662
 30
0.0
 11
597.2693285822
 21
645.1984091168
 31
0.0
  0
SPLINE
  5
2F1
330
1F
100
AcDbEntity
  8
0
  6
Continuous
 62
     7
370
    25
100
AcDbSpline
210
0.0
220
0.0
230
1.0
 70
     8
 71
     3
 72
     9
 73
     5
 74
     0
 42
0.000000001
 43
0.00000001
 40
0.0
 40
0.0
 40
0.0
 40
0.0
 40
0.7152367882523969
 40
1.0
 40
1.0
 40
1.0
 40
1.0
 10
512.1314062653888
 20
649.379451430375
 30
0.0
 10
512.1214745221923
 20
648.3730941670718
 30
0.0
 10
512.1075885709108
 20
646.9660674595082
 30
0.0
 10
512.0480150244608
 20
645.5582682062933
 30
0.0
 10
512.0310506700386
 20
645.157378769452
 30
0.0
  0
SPLINE
  5
2F2
330
1F
100
AcDbEntity
  8
0
  6
Continuous
 62
     7
370
    25
100
AcDbSpline
210
0.0
220
0.0
230
1.0
 70
     8
 71
     3
 72
    10
 73
     6
 74
     0
 42
0.000000001
 43
0.00000001
 40
0.0
 40
0.0
 40
0.0
 40
0.0
 40
0.1529086895511109
 40
0.7691705029376702
 40
1.0
 40
1.0
 40
1.0
 40
1.0
 10
597.2638896583427
 20
645.1982470666712
 30
0.0
 10
597.2274278521716
 20
645.6465553902899
 30
0.0
 10
597.0440154779435
 20
647.9016629303595
 30
0.0
 10
596.8429296695389
 20
650.8359163237083
 30
0.0
 10
596.8078301291512
 20
653.3111322403577
 30
0.0
 10
596.798265623938
 20
653.9856201475209
 30
0.0
  0
LINE
  5
2F3
330
1F
100
AcDbEntity
  8
0
  6
Continuous
 62
     7
370
    25
100
AcDbLine
 10
445.4838952898
 20
645.2595094656
 30
0.0
 11
432.5746393679
 21
557.7851502662
 31
0.0
  0
SPLINE
  5
2F4
330
1F
100
AcDbEntity
  8
0
  6
Continuous
 62
     7
370
    25
100
AcDbSpline
210
0.0
220
0.0
230
1.0
 70
     8
 71
     3
 72
    13
 73
     9
 74
     0
 42
0.000000001
 43
0.00000001
 40
0.0
 40
0.0
 40
0.0
 40
0.0
 40
0.0695396419300954
 40
0.1972031324583491
 40
0.3723152970951028
 40
0.6523276625212394
 40
0.9592048255551325
 40
1.0
 40
1.0
 40
1.0
 40
1.0
 10
447.2180849789489
 20
661.2635447149819
 30
0.0
 10
447.2088959001294
 20
660.9018922065375
 30
0.0
 10
447.1828371647474
 20
659.876304418807
 30
0.0
 10
447.015992522497
 20
657.8922826606862
 30
0.0
 10
446.734381611592
 20
654.7887100560768
 30
0.0
 10
446.2466165347417
 20
650.7068423261278
 30
0.0
 10
445.7938691945322
 20
647.3422931183795
 30
0.0
 10
445.5210284268595
 20
645.4781893678148
 30
0.0
 10
445.4890138386596
 20
645.2594591742104
 30
0.0
  0
ARC
  5
2F5
330
1F
100
AcDbEntity
  8
0
  6
Continuous
 62
     7
370
    25
100
AcDbCircle
 10
425.3388826275
 20
560.9051530412
 30
0.0
 40
4.999999999999977
100
AcDbArc
 50
321.3911723046
 51
358.0
  0
LINE
  5
2F6
330
1F
100
AcDbEntity
  8
0
  6
Continuous
 62
     7
370
    25
100
AcDbLine
 10
662.7178511499
 20
557.7851502662
 30
0.0
 11
648.316750574
 21
645.2759286826
 31
0.0
  0
LINE
  5
2F7
330
1F
100
AcDbEntity
  8
0
  6
Continuous
 62
     7
370
    25
100
AcDbLine
 10
671.3642052292
 20
557.7851502662
 30
0.0
 11
671.2552628397
 21
560.905155397
 31
0.0
  0
LINE
  5
2F8
330
1F
100
AcDbEntity
  8
0
  6
Continuous
 62
     7
370
    25
100
AcDbLine
 10
427.3625857114
 20
557.7851502662
 30
0.0
 11
427.2536358713
 21
560.905155397
 31
0.0
  0
LINE
  5
2F9
330
1F
100
AcDbEntity
  8
0
  6
Continuous
 62
     7
370
    25
100
AcDbLine
 10
411.6060904144
 20
560.905155397
 30
0.0
 11
411.4971405743
 21
557.7851502662
 31
0.0
  0
LINE
  5
2FA
330
1F
100
AcDbEntity
  8
0
  6
Continuous
 62
     7
370
    25
100
AcDbLine
 10
432.9503423451
 20
635.6002033194
 30
0.0
 11
420.6554240464
 21
560.905155397
 31
0.0
  0
LINE
  5
2FB
330
1F
100
AcDbEntity
  8
0
  6
Continuous
 62
     7
370
    25
100
AcDbLine
 10
477.0298621534
 20
721.405152834
 30
0.0
 11
477.0298621534
 21
720.9051518207
 31
0.0
  0
LINE
  5
2FC
330
1F
100
AcDbEntity
  8
0
  6
Continuous
 62
     7
370
    25
100
AcDbLine
 10
605.8298594235
 20
720.9051518207
 30
0.0
 11
605.8298594235
 21
721.405152834
 31
0.0
  0
LINE
  5
2FD
330
1F
100
AcDbEntity
  8
0
  6
Continuous
 62
     7
370
    25
100
AcDbLine
 10
404.019298303
 20
557.7851502662
 30
0.0
 11
678.8404307245
 21
557.7851502662
 31
0.0
  0
LINE
  5
2FE
330
1F
100
AcDbEntity
  8
0
  6
Continuous
 62
     7
370
    25
100
AcDbLine
 10
407.8093415974
 20
550.4651559954
 30
0.0
 11
675.0503799795
 21
550.4651559954
 31
0.0
  0
LINE
  5
2FF
330
1F
100
AcDbEntity
  8
0
  6
Continuous
 62
     7
370
    25
100
AcDbLine
 10
545.6998956307
 20
538.2651506429
 30
0.0
 11
537.1598953298
 21
538.2651506429
 31
0.0
  0
SPLINE
  5
300
330
1F
100
AcDbEntity
  8
0
  6
Continuous
 62
     7
370
    25
100
AcDbSpline
210
0.0
220
0.0
230
1.0
 70
     8
 71
     3
 72
    27
 73
    23
 74
     0
 42
0.000000001
 43
0.00000001
 40
0.0
 40
0.0
 40
0.0
 40
0.0
 40
0.0171338086023799
 40
0.0695226785694203
 40
0.1234274215827319
 40
0.1759053156312682
 40
0.2298785448002746
 40
0.2828275470413188
 40
0.337299166940308
 40
0.390447342642414
 40
0.4451548868755518
 40
0.4979737911359949
 40
0.5523449387202667
 40
0.6048235592884686
 40
0.6588180940995501
 40
0.7114216679311417
 40
0.7655313963924486
 40
0.8184656358587987
 40
0.8729330975800333
 40
0.92587638396204
 40
0.9803711435557484
 40
0.9999999999999999
 40
0.9999999999999999
 40
0.9999999999999999
 40
0.9999999999999999
 10
661.4582261918891
 20
531.5072505240983
 30
0.0
 10
661.460182322716
 20
531.5208386938991
 30
0.0
 10
661.4681195804432
 20
531.575974477386
 30
0.0
 10
661.4191323713054
 20
531.2369212529393
 30
0.0
 10
661.3161834830847
 20
530.5012548631959
 30
0.0
 10
661.1615034718681
 20
529.3309299787148
 30
0.0
 10
660.9779910590662
 20
527.8144671579959
 30
0.0
 10
660.778957357402
 20
525.9532203727673
 30
0.0
 10
660.5871703192065
 20
523.8287324107564
 30
0.0
 10
660.4185194831955
 20
521.4650430743006
 30
0.0
 10
660.291975522934
 20
518.9754323916263
 30
0.0
 10
660.2162620325677
 20
516.3898593006506
 30
0.0
 10
660.1972704367097
 20
513.8352048381308
 30
0.0
 10
660.2324045778571
 20
511.3332059834649
 30
0.0
 10
660.3132234726733
 20
508.9970604221626
 30
0.0
 10
660.4285298687746
 20
506.8448842328749
 30
0.0
 10
660.5608984906582
 20
504.9706472995096
 30
0.0
 10
660.6946573134678
 20
503.3985443971565
 30
0.0
 10
660.8113730328702
 20
502.1939428541502
 30
0.0
 10
660.8938595922913
 20
501.4083072666031
 30
0.0
 10
660.9340697313768
 20
501.0432817153016
 30
0.0
 10
660.9287745534136
 20
501.0913004900748
 30
0.0
 10
660.9273723243583
 20
501.1040164595193
 30
0.0
  0
SPLINE
  5
301
330
1F
100
AcDbEntity
  8
0
  6
Continuous
 62
     7
370
    25
100
AcDbSpline
210
0.0
220
0.0
230
1.0
 70
    11
 71
     3
 72
    44
 73
    40
 74
     0
 42
0.000000001
 43
0.00000001
 40
0.0
 40
0.0
 40
0.0
 40
0.0
 40
0.0267220860431483
 40
0.0534429322605965
 40
0.0801732542849676
 40
0.1069030417057581
 40
0.1334779262159729
 40
0.1600537199287638
 40
0.186667868343117
 40
0.213283030619444
 40
0.2401401653777981
 40
0.2669970829455272
 40
0.2939635251108557
 40
0.3209287888667343
 40
0.3477284268778087
 40
0.3745277269133527
 40
0.4011475863450793
 40
0.4277682321914344
 40
0.4544481079251974
 40
0.4811286058242659
 40
0.507981169027469
 40
0.5348332464236497
 40
0.5616949766243214
 40
0.5885560929427057
 40
0.6152726590413328
 40
0.6419895222630049
 40
0.6686622890187797
 40
0.6953357340276975
 40
0.7221395732300493
 40
0.7489431670611696
 40
0.7758291308107873
 40
0.8027141329514188
 40
0.8294734292793611
 40
0.8562325364761387
 40
0.8828467751034357
 40
0.909462045953269
 40
0.9361635277431315
 40
0.9628657095530032
 40
0.9999999999999999
 40
0.9999999999999999
 40
0.9999999999999999
 40
0.9999999999999999
 10
550.2672589300979
 20
528.7334813242501
 30
0.0
 10
549.5482164895368
 20
529.1929957054033
 30
0.0
 10
548.1101649698554
 20
530.1120031476026
 30
0.0
 10
545.6986816529298
 20
531.016782500445
 30
0.0
 10
543.1804031053491
 20
531.5249610343451
 30
0.0
 10
540.612553433385
 20
531.6061522814073
 30
0.0
 10
538.0750403186938
 20
531.2514470606648
 30
0.0
 10
535.6341570667709
 20
530.4892942681785
 30
0.0
 10
533.3591158026298
 20
529.324709133587
 30
0.0
 10
531.2986039048577
 20
527.8009570452406
 30
0.0
 10
529.522719671578
 20
525.9436562338686
 30
0.0
 10
528.0694018025462
 20
523.8102171375398
 30
0.0
 10
527.0011513054363
 20
521.4542185608337
 30
0.0
 10
526.3362359013882
 20
518.9536920637375
 30
0.0
 10
526.1108042065126
 20
516.3795010422672
 30
0.0
 10
526.3104430850524
 20
513.8132515956949
 30
0.0
 10
526.9437544724392
 20
511.3247081787659
 30
0.0
 10
527.9726795901532
 20
508.977389438266
 30
0.0
 10
529.3862714015778
 20
506.8388214835466
 30
0.0
 10
531.1348087464665
 20
504.9552530294893
 30
0.0
 10
533.183760360599
 20
503.3943838485605
 30
0.0
 10
535.4673933469762
 20
502.1886136919373
 30
0.0
 10
537.9255161583816
 20
501.391761364678
 30
0.0
 10
540.4780544027312
 20
501.0108932941758
 30
0.0
 10
543.0536667127172
 20
501.0725749521094
 30
0.0
 10
545.5779261922786
 20
501.554011280214
 30
0.0
 10
547.9806413900395
 20
502.4578596471915
 30
0.0
 10
550.2046885780638
 20
503.7429986826614
 30
0.0
 10
552.1797290964037
 20
505.3909575872552
 30
0.0
 10
553.862073365562
 20
507.3460862711598
 30
0.0
 10
555.1865784574603
 20
509.563757351744
 30
0.0
 10
556.1277139904774
 20
511.9692811236279
 30
0.0
 10
556.6419133003936
 20
514.4973206422947
 30
0.0
 10
556.7342701313964
 20
517.0668393177863
 30
0.0
 10
556.3875719617216
 20
519.6078271699358
 30
0.0
 10
555.6338033196922
 20
522.0564461293072
 30
0.0
 10
554.4693799627918
 20
524.3343234591251
 30
0.0
 10
552.7717221283748
 20
526.6919854451925
 30
0.0
 10
551.1883321331536
 20
527.9826748641503
 30
0.0
 10
550.2672589300979
 20
528.7334813242501
 30
0.0
  0
SPLINE
  5
302
330
1F
100
AcDbEntity
  8
0
  6
Continuous
 62
     7
370
    25
100
AcDbSpline
210
0.0
220
0.0
230
1.0
 70
     8
 71
     3
 72
    27
 73
    23
 74
     0
 42
0.000000001
 43
0.00000001
 40
0.0
 40
0.0
 40
0.0
 40
0.0
 40
0.0004129793245884
 40
0.0547069582963179
 40
0.1072767995651007
 40
0.1613614346353117
 40
0.214113900918794
 40
0.2683818850527209
 40
0.3213721745798531
 40
0.3759058475684984
 40
0.4287576263039164
 40
0.4831616888304184
 40
0.5356811346447078
 40
0.5897237695237739
 40
0.6422699582973013
 40
0.6963169521214819
 40
0.749271692549321
 40
0.8037492106001066
 40
0.8569016346994909
 40
0.911614247597227
 40
0.9644204350710158
 40
0.9999999999999999
 40
0.9999999999999999
 40
0.9999999999999999
 40
0.9999999999999999
 10
421.9271561979164
 20
501.0567797785348
 30
0.0
 10
421.9270961713329
 20
501.0562395385643
 30
0.0
 10
421.9191445098346
 20
500.9846744897154
 30
0.0
 10
421.9471092518593
 20
501.2364312999678
 30
0.0
 10
422.0124362891195
 20
501.8463912649634
 30
0.0
 10
422.1187298889189
 20
502.9048616667847
 30
0.0
 10
422.2474704993461
 20
504.3381931756439
 30
0.0
 10
422.3823370752259
 20
506.1020199326161
 30
0.0
 10
422.5071636378523
 20
508.1745788032014
 30
0.0
 10
422.6027370098504
 20
510.4615142572789
 30
0.0
 10
422.6560419025558
 20
512.9353994860707
 30
0.0
 10
422.6566325301091
 20
515.4752693650332
 30
0.0
 10
422.6010531920057
 20
518.0555188755662
 30
0.0
 10
422.49328689581
 20
520.5566613487254
 30
0.0
 10
422.3399450035063
 20
522.9590306177283
 30
0.0
 10
422.156854944604
 20
525.1588666377039
 30
0.0
 10
421.9579124048164
 20
527.1339212715235
 30
0.0
 10
421.7656261241984
 20
528.7924890534924
 30
0.0
 10
421.5955872318937
 20
530.1173348250093
 30
0.0
 10
421.471408741556
 20
531.0202703075099
 30
0.0
 10
421.4011414203705
 20
531.5100315627327
 30
0.0
 10
421.4016540893197
 20
531.5062956992762
 30
0.0
 10
421.4018604635108
 20
531.5047918325013
 30
0.0
  0
SPLINE
  5
303
330
1F
100
AcDbEntity
  8
0
  6
Continuous
 62
     7
370
    25
100
AcDbSpline
210
0.0
220
0.0
230
1.0
 70
     8
 71
     3
 72
    22
 73
    18
 74
     0
 42
0.000000001
 43
0.00000001
 40
0.0
 40
0.0
 40
0.0
 40
0.0
 40
0.0661350144025608
 40
0.1341862522409281
 40
0.2003213612408761
 40
0.2683852736696541
 40
0.3342995979869994
 40
0.4021571983306936
 40
0.4675389863747676
 40
0.5348205113857378
 40
0.6001730506457261
 40
0.667396699935809
 40
0.7331793919845753
 40
0.8008578387680998
 40
0.86682069234237
 40
0.9347135414976766
 40
1.0
 40
1.0
 40
1.0
 40
1.0
 10
550.2625520258058
 20
528.7368266349381
 30
0.0
 10
550.9293838971147
 20
528.2128455261213
 30
0.0
 10
552.2823687039383
 20
527.1497012617352
 30
0.0
 10
553.9280558012666
 20
525.1614925662637
 30
0.0
 10
555.2499280337934
 20
522.9260313510185
 30
0.0
 10
556.1623138676786
 20
520.5164923102142
 30
0.0
 10
556.6623615802563
 20
517.9663347872801
 30
0.0
 10
556.7253004095344
 20
515.3996054676305
 30
0.0
 10
556.3549479396273
 20
512.8420251209783
 30
0.0
 10
555.5728508208674
 20
510.4124070876065
 30
0.0
 10
554.3868199298975
 20
508.1283209515991
 30
0.0
 10
552.8487934047043
 20
506.0891684410201
 30
0.0
 10
550.9711056727728
 20
504.3165334647495
 30
0.0
 10
548.8352092459504
 20
502.8895906711025
 30
0.0
 10
546.4653657696124
 20
501.8385972544071
 30
0.0
 10
543.9789345086476
 20
501.1768006136412
 30
0.0
 10
542.2683489193789
 20
501.0959513450207
 30
0.0
 10
541.4297946645726
 20
501.0563178425378
 30
0.0
  0
SPLINE
  5
304
330
1F
100
AcDbEntity
  8
0
  6
Continuous
 62
     7
370
    25
100
AcDbSpline
210
0.0
220
0.0
230
1.0
 70
     8
 71
     3
 72
    11
 73
     7
 74
     0
 42
0.000000001
 43
0.00000001
 40
0.0
 40
0.0
 40
0.0
 40
0.0
 40
0.0942519285161019
 40
0.360710312200603
 40
0.6348758319300902
 40
1.0
 40
1.0
 40
1.0
 40
1.0
 10
541.4312512530793
 20
531.5051196580475
 30
0.0
 10
541.7271299412087
 20
531.5189405469405
 30
0.0
 10
542.8594833651538
 20
531.5718342884895
 30
0.0
 10
544.8383897490955
 20
531.2181740633181
 30
0.0
 10
547.5754996827895
 20
530.4047471964853
 30
0.0
 10
549.2857557126416
 20
529.3431485249469
 30
0.0
 10
550.2625520258058
 20
528.7368266349381
 30
0.0
  0
LINE
  5
305
330
1F
100
AcDbEntity
  8
0
  6
Continuous
 62
     7
370
    25
100
AcDbLine
 10
541.4298896595
 20
481.565137065
 30
0.0
 11
425.2148068427
 21
481.565137065
 31
0.0
  0
LINE
  5
306
330
1F
100
AcDbEntity
  8
0
  6
Continuous
 62
     7
370
    25
100
AcDbLine
 10
657.6449147343
 20
481.565137065
 30
0.0
 11
541.4298896595
 21
481.565137065
 31
0.0
  0
SPLINE
  5
307
330
1F
100
AcDbEntity
  8
0
  6
Continuous
 62
     7
370
    25
100
AcDbSpline
210
0.0
220
0.0
230
1.0
 70
     8
 71
     3
 72
    14
 73
    10
 74
     0
 42
0.000000001
 43
0.00000001
 40
0.0
 40
0.0
 40
0.0
 40
0.0
 40
0.2740395320994567
 40
0.5489324878718858
 40
0.8233845769100313
 40
0.8924297546541967
 40
0.9611485459346544
 40
0.995707998122414
 40
1.0
 40
1.0
 40
1.0
 40
1.0
 10
512.8343797205795
 20
645.2814998542613
 30
0.0
 10
512.9299455600024
 20
646.9903217223228
 30
0.0
 10
513.1213748533896
 20
650.4132871323809
 30
0.0
 10
513.5994898416127
 20
655.5454691808121
 30
0.0
 10
514.2510444154042
 20
659.3732128021687
 30
0.0
 10
514.8742969290058
 20
661.8972687342284
 30
0.0
 10
515.2547377553836
 20
662.9105500230404
 30
0.0
 10
515.5994014271375
 20
663.520237824083
 30
0.0
 10
515.7859411345263
 20
663.6792989887812
 30
0.0
 10
515.806548568498
 20
663.6968708103245
 30
0.0
  0
SPLINE
  5
308
330
1F
100
AcDbEntity
  8
0
  6
Continuous
 62
     7
370
    25
100
AcDbSpline
210
0.0
220
0.0
230
1.0
 70
     8
 71
     3
 72
    14
 73
    10
 74
     0
 42
0.000000001
 43
0.00000001
 40
0.0
 40
0.0
 40
0.0
 40
0.0
 40
0.0042919466438933
 40
0.0388514122184459
 40
0.1075702289707517
 40
0.1766154294433321
 40
0.4510675214985245
 40
0.7259604535223552
 40
1.0
 40
1.0
 40
1.0
 40
1.0
 10
511.4203414796698
 20
663.6968708103245
 30
0.0
 10
511.4393987834749
 20
663.6792989683752
 30
0.0
 10
511.6119086554115
 20
663.5202357433039
 30
0.0
 10
511.9027887195968
 20
662.9105515701632
 30
0.0
 10
512.1938505995973
 20
661.8972682500702
 30
0.0
 10
512.5944591175112
 20
659.3732140291568
 30
0.0
 10
512.9083656760095
 20
655.5454691189537
 30
0.0
 10
512.9337769777794
 20
650.4132867734912
 30
0.0
 10
512.8232654780522
 20
646.9903216820766
 30
0.0
 10
512.768095630299
 20
645.2814998542613
 30
0.0
  0
ELLIPSE
  5
309
330
1F
100
AcDbEntity
  8
0
  6
Continuous
 62
     7
370
    25
100
AcDbEllipse
 10
536.6977271256
 20
1187.0927957891
 30
0.0
 11
23.7055480394115
 21
523.5590406683136
 31
0.0
210
0.0
220
0.0
230
1.0
 40
0.1607871287
 41
3.122870211680806
 42
3.17487498033859
  0
ARC
  5
30A
330
1F
100
AcDbEntity
  8
0
  6
Continuous
 62
     7
370
    25
100
AcDbCircle
 10
512.9961410777
 20
641.8821864623
 30
0.0
 40
3.403160042289632
100
AcDbArc
 50
72.0322393408
 51
92.7244491984
  0
LINE
  5
30B
330
1F
100
AcDbEntity
  8
0
  6
Continuous
 62
     7
370
    25
100
AcDbLine
 10
513.6662780224
 20
560.7771171694
 30
0.0
 11
514.0459540217
 21
645.1193752205
 31
0.0
  0
LINE
  5
30C
330
1F
100
AcDbEntity
  8
0
  6
Continuous
 62
     7
370
    25
100
AcDbLine
 10
515.5688005417
 20
560.7306553488
 30
0.0
 11
594.3730755626
 21
560.7306553488
 31
0.0
  0
ARC
  5
30D
330
1F
100
AcDbEntity
  8
0
  6
Continuous
 62
     7
370
    25
100
AcDbCircle
 10
515.2076823274
 20
584.9191130788
 30
0.0
 40
24.19115321183848
100
AcDbArc
 50
266.3467706768
 51
270.8553258257
  0
SPLINE
  5
30E
330
1F
100
AcDbEntity
  8
0
  6
Continuous
 62
     7
370
    25
100
AcDbSpline
210
0.0
220
0.0
230
1.0
 70
     8
 71
     3
 72
    10
 73
     6
 74
     0
 42
0.000000001
 43
0.00000001
 40
0.0
 40
0.0
 40
0.0
 40
0.0
 40
0.1985964234505676
 40
0.7164073557418179
 40
0.9999999999999999
 40
0.9999999999999999
 40
0.9999999999999999
 40
0.9999999999999999
 10
469.5789909838546
 20
557.7851502662247
 30
0.0
 10
469.6826479480229
 20
557.9402250079183
 30
0.0
 10
470.0565751835377
 20
558.4996343049676
 30
0.0
 10
470.3096402384165
 20
559.5678918156963
 30
0.0
 10
470.3575944319017
 20
560.4267361473776
 30
0.0
 10
470.3745639799942
 20
560.730655348832
 30
0.0
  0
SPLINE
  5
30F
330
1F
100
AcDbEntity
  8
0
  6
Continuous
 62
     7
370
    25
100
AcDbSpline
210
0.0
220
0.0
230
1.0
 70
     8
 71
     3
 72
    10
 73
     6
 74
     0
 42
0.000000001
 43
0.00000001
 40
0.0
 40
0.0
 40
0.0
 40
0.0
 40
0.5326175681998295
 40
0.9666238411665722
 40
0.9999999999999999
 40
0.9999999999999999
 40
0.9999999999999999
 40
0.9999999999999999
 10
645.829791474234
 20
663.6968708103245
 30
0.0
 10
645.8399563406804
 20
663.700846451616
 30
0.0
 10
645.8584041028947
 20
663.7080616654684
 30
0.0
 10
645.8781764342488
 20
663.6857389650947
 30
0.0
 10
645.8867151042477
 20
663.6681981567209
 30
0.0
 10
645.8873248576034
 20
663.666945553357
 30
0.0
  0
ELLIPSE
  5
310
330
1F
100
AcDbEntity
  8
0
  6
Continuous
 62
     7
370
    25
100
AcDbEllipse
 10
559.0904345683
 20
1187.0927957891
 30
0.0
 11
-86.33541606946453
 21
523.5603411974053
 31
0.0
210
0.0
220
0.0
230
1.0
 40
0.0420280539
 41
3.108659928776442
 42
3.160664697434432
  0
SPLINE
  5
311
330
1F
100
AcDbEntity
  8
0
  6
Continuous
 62
     7
370
    25
100
AcDbSpline
210
0.0
220
0.0
230
1.0
 70
     8
 71
     3
 72
    10
 73
     6
 74
     0
 42
0.000000001
 43
0.00000001
 40
0.0
 40
0.0
 40
0.0
 40
0.0
 40
0.0334209445026434
 40
0.3055508683262702
 40
1.0
 40
1.0
 40
1.0
 40
1.0
 10
644.5887631653655
 20
663.666945553357
 30
0.0
 10
644.5893966320921
 20
663.6681981759334
 30
0.0
 10
644.5951880994256
 20
663.6796502734601
 30
0.0
 10
644.6160430736473
 20
663.7071996169011
 30
0.0
 10
644.6384259034422
 20
663.7011891179932
 30
0.0
 10
644.6545070885529
 20
663.6968708103245
 30
0.0
  0
LWPOLYLINE
  5
312
330
1F
100
AcDbEntity
  8
0
  6
Continuous
 62
     7
370
    25
100
AcDbPolyline
 90
        5
 70
   128
 43
0.0
 10
647.9275694965
 20
560.7306553488
 10
647.8238574146
 20
563.9286829596
 10
647.409009087
 20
576.7208008533
 10
645.7493997096
 20
627.8892558389
 10
644.5887631654
 20
663.6669455534
  0
LINE
  5
313
330
1F
100
AcDbEntity
  8
0
  6
Continuous
 62
     7
370
    25
100
AcDbLine
 10
626.8290824174
 20
560.7306553488
 30
0.0
 11
647.9275694965
 21
560.7306553488
 31
0.0
  0
LINE
  5
314
330
1F
100
AcDbEntity
  8
0
  6
Continuous
 62
     7
370
    25
100
AcDbLine
 10
626.5347025274
 20
568.905152983
 30
0.0
 11
626.8290824174
 21
560.7306553488
 31
0.0
  0
SPLINE
  5
315
330
1F
100
AcDbEntity
  8
0
  6
Continuous
 62
     7
370
    25
100
AcDbSpline
210
0.0
220
0.0
230
1.0
 70
     8
 71
     3
 72
    11
 73
     7
 74
     0
 42
0.000000001
 43
0.00000001
 40
0.0
 40
0.0
 40
0.0
 40
0.0
 40
0.2458503077649603
 40
0.500423772950533
 40
0.7191146593916876
 40
0.9999999999999999
 40
0.9999999999999999
 40
0.9999999999999999
 40
0.9999999999999999
 10
626.5347025274148
 20
568.9051529830044
 30
0.0
 10
626.487904576487
 20
569.6288717712682
 30
0.0
 10
626.3926482093812
 20
571.1019880340488
 30
0.0
 10
625.8761077379337
 20
573.1129794912146
 30
0.0
 10
625.1021381112769
 20
575.0466359158893
 30
0.0
 10
624.3660854448154
 20
576.0614052029667
 30
0.0
 10
623.9522418855537
 20
576.6319564049786
 30
0.0
  0
LINE
  5
316
330
1F
100
AcDbEntity
  8
0
  6
Continuous
 62
     7
370
    25
100
AcDbLine
 10
623.9522418856
 20
576.631956405
 30
0.0
 11
623.9317080854
 21
576.6564278369
 31
0.0
  0
SPLINE
  5
317
330
1F
100
AcDbEntity
  8
0
  6
Continuous
 62
     7
370
    25
100
AcDbSpline
210
0.0
220
0.0
230
1.0
 70
     8
 71
     3
 72
    10
 73
     6
 74
     0
 42
0.000000001
 43
0.00000001
 40
0.0
 40
0.0
 40
0.0
 40
0.0
 40
0.3141854958724534
 40
0.5857862239262706
 40
1.0
 40
1.0
 40
1.0
 40
1.0
 10
623.9317080854286
 20
576.6564278369492
 30
0.0
 10
623.5303244565899
 20
577.0725303789329
 30
0.0
 10
622.7819608199101
 20
577.848336837337
 30
0.0
 10
621.2976094721479
 20
578.69813117826
 30
0.0
 10
620.199595594795
 20
578.8272002968067
 30
0.0
 10
619.5364243267883
 20
578.9051546221322
 30
0.0
  0
LINE
  5
318
330
1F
100
AcDbEntity
  8
0
  6
Continuous
 62
     7
370
    25
100
AcDbLine
 10
619.2606932401
 20
578.8975475793
 30
0.0
 11
619.5364317774
 21
578.9051546221
 31
0.0
  0
SPLINE
  5
319
330
1F
100
AcDbEntity
  8
0
  6
Continuous
 62
     7
370
    25
100
AcDbSpline
210
0.0
220
0.0
230
1.0
 70
     8
 71
     3
 72
    11
 73
     7
 74
     0
 42
0.000000001
 43
0.00000001
 40
0.0
 40
0.0
 40
0.0
 40
0.0
 40
0.1825874805506043
 40
0.4101457909311445
 40
0.6826345836716654
 40
1.0
 40
1.0
 40
1.0
 40
1.0
 10
619.2603952168334
 20
578.8975475793427
 30
0.0
 10
618.9803401575423
 20
578.8685858746966
 30
0.0
 10
618.3512531935794
 20
578.8035292715657
 30
0.0
 10
617.3194905812036
 20
578.4507240346575
 30
0.0
 10
616.1293684302692
 20
577.7893970936277
 30
0.0
 10
615.3787460535897
 20
577.0368498188653
 30
0.0
 10
614.9748808621276
 20
576.631948954398
 30
0.0
  0
LINE
  5
31A
330
1F
100
AcDbEntity
  8
0
  6
Continuous
 62
     7
370
    25
100
AcDbLine
 10
614.9748808621
 20
576.6319489544
 30
0.0
 11
614.9279720067
 21
576.5785245662
 31
0.0
  0
SPLINE
  5
31B
330
1F
100
AcDbEntity
  8
0
  6
Continuous
 62
     7
370
    25
100
AcDbSpline
210
0.0
220
0.0
230
1.0
 70
     8
 71
     3
 72
    11
 73
     7
 74
     0
 42
0.000000001
 43
0.00000001
 40
0.0
 40
0.0
 40
0.0
 40
0.0
 40
0.2801973680785594
 40
0.5002467700622641
 40
0.7543444506170608
 40
1.0
 40
1.0
 40
1.0
 40
1.0
 10
614.9279720066894
 20
576.5785245662278
 30
0.0
 10
614.4979740178782
 20
576.0103402967418
 30
0.0
 10
613.7302826347965
 20
574.9959398133981
 30
0.0
 10
612.9366312631312
 20
573.0745870403299
 30
0.0
 10
612.4429542811009
 20
571.0786205541027
 30
0.0
 10
612.4091690410556
 20
569.6214369671169
 30
0.0
 10
612.392561781298
 20
568.9051529830044
 30
0.0
  0
LINE
  5
31C
330
1F
100
AcDbEntity
  8
0
  6
Continuous
 62
     7
370
    25
100
AcDbLine
 10
612.485157597
 20
560.7306553488
 30
0.0
 11
612.3925617813
 21
568.905152983
 31
0.0
  0
SPLINE
  5
31D
330
1F
100
AcDbEntity
  8
0
  6
Continuous
 62
     7
370
    25
100
AcDbSpline
210
0.0
220
0.0
230
1.0
 70
     8
 71
     3
 72
    10
 73
     6
 74
     0
 42
0.000000001
 43
0.00000001
 40
0.0
 40
0.0
 40
0.0
 40
0.0
 40
0.5326014329106823
 40
0.9666073416115758
 40
1.0
 40
1.0
 40
1.0
 40
1.0
 10
597.1333405851234
 20
663.6968708103245
 30
0.0
 10
597.1702625334447
 20
663.7008477686835
 30
0.0
 10
597.2372714149619
 20
663.7080654682794
 30
0.0
 10
597.3063733059984
 20
663.6857307065499
 30
0.0
 10
597.3353910110512
 20
663.6681981436011
 30
0.0
 10
597.3374641417373
 20
663.666945553357
 30
0.0
  0
ELLIPSE
  5
31E
330
1F
100
AcDbEntity
  8
0
  6
Continuous
 62
     7
370
    25
100
AcDbEllipse
 10
550.5716475443
 20
1187.0927957891
 30
0.0
 11
-45.55041359662505
 21
523.532177735887
 31
0.0
210
0.0
220
0.0
230
1.0
 40
0.1433827415
 41
3.103115764972648
 42
3.155120533630419
  0
SPLINE
  5
31F
330
1F
100
AcDbEntity
  8
0
  6
Continuous
 62
     7
370
    25
100
AcDbSpline
210
0.0
220
0.0
230
1.0
 70
     8
 71
     3
 72
    10
 73
     6
 74
     0
 42
0.000000001
 43
0.00000001
 40
0.0
 40
0.0
 40
0.0
 40
0.0
 40
0.0334163938524815
 40
0.3055535571457925
 40
1.0
 40
1.0
 40
1.0
 40
1.0
 10
592.9924010216106
 20
663.666945553357
 30
0.0
 10
592.9944845583757
 20
663.6681981838838
 30
0.0
 10
593.0135360476784
 20
663.6796520144476
 30
0.0
 10
593.081100385978
 20
663.7071973810047
 30
0.0
 10
593.1507412994686
 20
663.7011881616453
 30
0.0
 10
593.2007751344551
 20
663.6968708103245
 30
0.0
  0
LWPOLYLINE
  5
320
330
1F
100
AcDbEntity
  8
0
  6
Continuous
 62
     7
370
    25
100
AcDbPolyline
 90
        5
 70
   128
 43
0.0
 10
594.3730755626
 20
560.7306553488
 10
594.3301974713
 20
563.9286829596
 10
594.1586702048
 20
576.7208008533
 10
593.4724009513
 20
627.8892558389
 10
592.9924010216
 20
663.6669455534
  0
LWPOLYLINE
  5
321
330
1F
100
AcDbEntity
  8
0
  6
Continuous
 62
     7
370
    25
100
AcDbPolyline
 90
        5
 70
   128
 43
0.0
 10
516.037689793
 20
663.6669455534
 10
516.0234237938
 20
660.537873066
 10
515.9651155501
 20
647.7457626229
 10
515.7320017843
 20
596.5773133998
 10
515.5688005417
 20
560.7306553488
  0
SPLINE
  5
322
330
1F
100
AcDbEntity
  8
0
  6
Continuous
 62
     7
370
    25
100
AcDbSpline
210
0.0
220
0.0
230
1.0
 70
     8
 71
     3
 72
    10
 73
     6
 74
     0
 42
0.000000001
 43
0.00000001
 40
0.0
 40
0.0
 40
0.0
 40
0.0
 40
0.5326138736394649
 40
0.9666243878713453
 40
1.0
 40
1.0
 40
1.0
 40
1.0
 10
515.806548568498
 20
663.6968708103245
 30
0.0
 10
515.8486020425939
 20
663.7008463142748
 30
0.0
 10
515.9249235874651
 20
663.7080613330018
 30
0.0
 10
516.0028657384859
 20
663.6857394004085
 30
0.0
 10
516.0353687807377
 20
663.6681981573429
 30
0.0
 10
516.0376897930015
 20
663.666945553357
 30
0.0
  0
SPLINE
  5
323
330
1F
100
AcDbEntity
  8
0
  6
Continuous
 62
     7
370
    25
100
AcDbSpline
210
0.0
220
0.0
230
1.0
 70
     8
 71
     3
 72
    10
 73
     6
 74
     0
 42
0.000000001
 43
0.00000001
 40
0.0
 40
0.0
 40
0.0
 40
0.0
 40
0.0334204799890675
 40
0.3055605203888974
 40
1.0
 40
1.0
 40
1.0
 40
1.0
 10
511.1914000390876
 20
663.666945553357
 30
0.0
 10
511.1937142689431
 20
663.6681981782654
 30
0.0
 10
511.2148730697492
 20
663.6796508180536
 30
0.0
 10
511.2895569965473
 20
663.7071982484647
 30
0.0
 10
511.3656630512946
 20
663.7011885097425
 30
0.0
 10
511.4203414796698
 20
663.6968708103245
 30
0.0
  0
LINE
  5
324
330
1F
100
AcDbEntity
  8
0
  6
Continuous
 62
     7
370
    25
100
AcDbLine
 10
470.4671597957
 20
568.905152983
 30
0.0
 11
470.37456398
 21
560.7306553488
 31
0.0
  0
SPLINE
  5
325
330
1F
100
AcDbEntity
  8
0
  6
Continuous
 62
     7
370
    25
100
AcDbSpline
210
0.0
220
0.0
230
1.0
 70
     8
 71
     3
 72
     9
 73
     5
 74
     0
 42
0.000000001
 43
0.00000001
 40
0.0
 40
0.0
 40
0.0
 40
0.0
 40
0.4936619222517329
 40
1.0
 40
1.0
 40
1.0
 40
1.0
 10
470.4671597956527
 20
568.9051529830044
 30
0.0
 10
470.4581842638686
 20
569.5600215792849
 30
0.0
 10
470.4400027283286
 20
570.8865743611832
 30
0.0
 10
470.1251006686632
 20
572.1368663396775
 30
0.0
 10
469.9656537650932
 20
572.7699367766922
 30
0.0
  0
LINE
  5
326
330
1F
100
AcDbEntity
  8
0
  6
Continuous
 62
     7
370
    25
100
AcDbLine
 10
469.9656537651
 20
572.7699367767
 30
0.0
 11
469.9253982781
 21
572.902899838
 31
0.0
  0
SPLINE
  5
327
330
1F
100
AcDbEntity
  8
0
  6
Continuous
 62
     7
370
    25
100
AcDbSpline
210
0.0
220
0.0
230
1.0
 70
     8
 71
     3
 72
    14
 73
    10
 74
     0
 42
0.000000001
 43
0.00000001
 40
0.0
 40
0.0
 40
0.0
 40
0.0
 40
0.0888783606409037
 40
0.2019604193654229
 40
0.3392274286628738
 40
0.5006544065584684
 40
0.6457167247135557
 40
0.7773752576323403
 40
1.0
 40
1.0
 40
1.0
 40
1.0
 10
469.925398278128
 20
572.902899838025
 30
0.0
 10
469.8204626529923
 20
573.2133312354887
 30
0.0
 10
469.5820149284174
 20
573.9187319062916
 30
0.0
 10
469.0543102866031
 20
575.0140010186079
 30
0.0
 10
468.2880883111233
 20
576.2096198004355
 30
0.0
 10
467.3080109412446
 20
577.2844880952587
 30
0.0
 10
466.2258573580689
 20
578.0866819162891
 30
0.0
 10
464.9113056663945
 20
578.7429562613758
 30
0.0
 10
463.9361030932759
 20
578.8425634166525
 30
0.0
 10
463.3233047007431
 20
578.9051546221322
 30
0.0
  0
SPLINE
  5
328
330
1F
100
AcDbEntity
  8
0
  6
Continuous
 62
     7
370
    25
100
AcDbSpline
210
0.0
220
0.0
230
1.0
 70
     8
 71
     3
 72
    15
 73
    11
 74
     0
 42
0.000000001
 43
0.00000001
 40
0.0
 40
0.0
 40
0.0
 40
0.0
 40
0.1196426967939358
 40
0.24981548218185
 40
0.374795072418103
 40
0.4997818746157495
 40
0.6333132451840704
 40
0.7611772466798562
 40
0.8833973442891367
 40
1.0
 40
1.0
 40
1.0
 40
1.0
 10
463.3233047007431
 20
578.9051546221322
 30
0.0
 10
462.8817932439757
 20
578.8708860909791
 30
0.0
 10
461.9599116714539
 20
578.7993329593372
 30
0.0
 10
460.6453437005471
 20
578.2127256180445
 30
0.0
 10
459.4260956679705
 20
577.2762631193419
 30
0.0
 10
458.3580086146191
 20
575.9955709488856
 30
0.0
 10
457.4796263766553
 20
574.4148749356843
 30
0.0
 10
456.83603639404
 20
572.6195716249955
 30
0.0
 10
456.4341570280571
 20
570.7651804319096
 30
0.0
 10
456.3608284125676
 20
569.5153629869227
 30
0.0
 10
456.3250265001167
 20
568.9051529830044
 30
0.0
  0
LINE
  5
329
330
1F
100
AcDbEntity
  8
0
  6
Continuous
 62
     7
370
    25
100
AcDbLine
 10
456.0306391596
 20
560.7306553488
 30
0.0
 11
456.3250265001
 21
568.905152983
 31
0.0
  0
LINE
  5
32A
330
1F
100
AcDbEntity
  8
0
  6
Continuous
 62
     7
370
    25
100
AcDbLine
 10
446.7460534452
 20
560.7306553488
 30
0.0
 11
456.0306391596
 21
560.7306553488
 31
0.0
  0
LWPOLYLINE
  5
32B
330
1F
100
AcDbEntity
  8
0
  6
Continuous
 62
     7
370
    25
100
AcDbPolyline
 90
        5
 70
   128
 43
0.0
 10
449.612306702
 20
663.6669455534
 10
449.5251572608
 20
660.537873066
 10
449.1688928484
 20
647.7457626229
 10
447.744043815
 20
596.5773133998
 10
446.7460534452
 20
560.7306553488
  0
SPLINE
  5
32C
330
1F
100
AcDbEntity
  8
0
  6
Continuous
 62
     7
370
    25
100
AcDbSpline
210
0.0
220
0.0
230
1.0
 70
     8
 71
     3
 72
    10
 73
     6
 74
     0
 42
0.000000001
 43
0.00000001
 40
0.0
 40
0.0
 40
0.0
 40
0.0
 40
0.5326216628693021
 40
0.9666077132958996
 40
1.0
 40
1.0
 40
1.0
 40
1.0
 10
449.4895509361137
 20
663.6968708103245
 30
0.0
 10
449.5121002361519
 20
663.700848179176
 30
0.0
 10
449.5530229564725
 20
663.7080663523716
 30
0.0
 10
449.5941523237954
 20
663.685730134052
 30
0.0
 10
449.6110961354058
 20
663.6681981430145
 30
0.0
 10
449.6123067020286
 20
663.666945553357
 30
0.0
  0
ELLIPSE
  5
32D
330
1F
100
AcDbEntity
  8
0
  6
Continuous
 62
     7
370
    25
100
AcDbEllipse
 10
525.5958277302
 20
1187.0927957891
 30
0.0
 11
77.79137201820947
 21
523.534427252313
 31
0.0
210
0.0
220
0.0
230
1.0
 40
0.0816062554
 41
3.127715453644929
 42
3.179720222302731
  0
SPLINE
  5
32E
330
1F
100
AcDbEntity
  8
0
  6
Continuous
 62
     7
370
    25
100
AcDbSpline
210
0.0
220
0.0
230
1.0
 70
     8
 71
     3
 72
    10
 73
     6
 74
     0
 42
0.000000001
 43
0.00000001
 40
0.0
 40
0.0
 40
0.0
 40
0.0
 40
0.0334282388059776
 40
0.3055654736178243
 40
1.0
 40
1.0
 40
1.0
 40
1.0
 10
447.1036813138832
 20
663.666945553357
 30
0.0
 10
447.1048703785482
 20
663.6681981662522
 30
0.0
 10
447.1157395454711
 20
663.6796482236358
 30
0.0
 10
447.1537944151418
 20
663.707200899958
 30
0.0
 10
447.1917873160402
 20
663.7011896205275
 30
0.0
 10
447.2190833567489
 20
663.6968708103245
 30
0.0
  0
LINE
  5
32F
330
1F
100
AcDbEntity
  8
0
  6
Continuous
 62
     7
370
    25
100
AcDbLine
 10
466.8296671389
 20
720.9051518207
 30
0.0
 11
646.9304731964
 21
720.9051518207
 31
0.0
  0
LINE
  5
330
330
1F
100
AcDbEntity
  8
0
  6
Continuous
 62
     7
370
    25
100
AcDbLine
 10
435.9292558311
 20
720.9051518207
 30
0.0
 11
466.8296671389
 21
720.9051518207
 31
0.0
  0
SPLINE
  5
331
330
1F
100
AcDbEntity
  8
0
  6
Continuous
 62
     7
370
    25
100
AcDbSpline
210
0.0
220
0.0
230
1.0
 70
     8
 71
     3
 72
    16
 73
    12
 74
     0
 42
0.000000001
 43
0.00000001
 40
0.0
 40
0.0
 40
0.0
 40
0.0
 40
0.0002915247717506
 40
0.0044812402074548
 40
0.0052168724016812
 40
0.0124787966986339
 40
0.0436759870980768
 40
0.1778894878828779
 40
0.4517356017832257
 40
0.7257573854184235
 40
1.0
 40
1.0
 40
1.0
 40
1.0
 10
516.0376897930015
 20
663.666945553357
 30
0.0
 10
516.0359750340604
 20
663.666433765419
 30
0.0
 10
516.0096162218513
 20
663.6585666991945
 30
0.0
 10
515.9813962442186
 20
663.6403351470951
 30
0.0
 10
515.9244930804025
 20
663.5899793224248
 30
0.0
 10
515.7767312774643
 20
663.3890799329747
 30
0.0
 10
515.4247711834654
 20
662.3488179648184
 30
0.0
 10
514.9846257680055
 20
659.6318780340019
 30
0.0
 10
514.5320154490659
 20
655.3835348523329
 30
0.0
 10
514.2316224891969
 20
650.2534311952334
 30
0.0
 10
514.1078601272786
 20
646.831186684713
 30
0.0
 10
514.0459540217031
 20
645.1193752204722
 30
0.0
  0
SPLINE
  5
332
330
1F
100
AcDbEntity
  8
0
  6
Continuous
 62
     7
370
    25
100
AcDbSpline
210
0.0
220
0.0
230
1.0
 70
     8
 71
     3
 72
    14
 73
    10
 74
     0
 42
0.000000001
 43
0.00000001
 40
0.0
 40
0.0
 40
0.0
 40
0.0
 40
0.2740395161549536
 40
0.5489324530365103
 40
0.8233844913142261
 40
0.8924296972268682
 40
0.9611485215247774
 40
0.9957081659311977
 40
1.0
 40
1.0
 40
1.0
 40
1.0
 10
596.7658332465995
 20
645.2814998542613
 30
0.0
 10
596.6383458324982
 20
646.9903218526465
 30
0.0
 10
596.3829739797968
 20
650.4132875056945
 30
0.0
 10
596.1714083075838
 20
655.5454673577008
 30
0.0
 10
596.2780769553999
 20
659.3732167799423
 30
0.0
 10
596.5219984898448
 20
661.8972664639585
 30
0.0
 10
596.7366864785806
 20
662.9105580980379
 30
0.0
 10
596.9696516132379
 20
663.5202307997711
 30
0.0
 10
597.1170570439486
 20
663.6792989186338
 30
0.0
 10
597.1333405851234
 20
663.6968708103245
 30
0.0
  0
SPLINE
  5
333
330
1F
100
AcDbEntity
  8
0
  6
Continuous
 62
     7
370
    25
100
AcDbSpline
210
0.0
220
0.0
230
1.0
 70
     8
 71
     3
 72
    14
 73
    10
 74
     0
 42
0.000000001
 43
0.00000001
 40
0.0
 40
0.0
 40
0.0
 40
0.0
 40
0.0042920388186928
 40
0.0388514873818803
 40
0.1075702621937735
 40
0.1766154412522882
 40
0.4510675043348312
 40
0.7259604428607273
 40
1.0
 40
1.0
 40
1.0
 40
1.0
 10
593.2007751344551
 20
663.6968708103245
 30
0.0
 10
593.2200536679416
 20
663.6792990021315
 30
0.0
 10
593.3945627374378
 20
663.5202391909025
 30
0.0
 10
593.7314187599634
 20
662.9105491020639
 30
0.0
 10
594.1187787372475
 20
661.8972688456993
 30
0.0
 10
594.7928183482911
 20
659.3732127569663
 30
0.0
 10
595.5517608596311
 20
655.5454691734097
 30
0.0
 10
596.2147723822235
 20
650.413286659143
 30
0.0
 10
596.542699004999
 20
646.9903216527059
 30
0.0
 10
596.7064074157585
 20
645.2814998542613
 30
0.0
  0
ARC
  5
334
330
1F
100
AcDbEntity
  8
0
  6
Continuous
 62
     7
370
    25
100
AcDbCircle
 10
596.6623616962
 20
640.0172233189
 30
0.0
 40
5.264460795423978
100
AcDbArc
 50
89.5206226474
 51
104.2644166467
  0
LINE
  5
335
330
1F
100
AcDbEntity
  8
0
  6
Continuous
 62
     7
370
    25
100
AcDbLine
 10
595.3652135013
 20
645.1193752205
 30
0.0
 11
596.4923820375
 21
560.7771171694
 31
0.0
  0
LINE
  5
336
330
1F
100
AcDbEntity
  8
0
  6
Continuous
 62
     7
370
    25
100
AcDbLine
 10
458.0564520239
 20
557.7851502662
 30
0.0
 11
458.4565780043
 21
568.905152983
 31
0.0
  0
SPLINE
  5
337
330
1F
100
AcDbEntity
  8
0
  6
Continuous
 62
     7
370
    25
100
AcDbSpline
210
0.0
220
0.0
230
1.0
 70
     8
 71
     3
 72
    12
 73
     8
 74
     0
 42
0.000000001
 43
0.00000001
 40
0.0
 40
0.0
 40
0.0
 40
0.0
 40
0.2371986279016781
 40
0.4743892722698866
 40
0.7118850385412141
 40
0.9499674579708148
 40
1.0
 40
1.0
 40
1.0
 40
1.0
 10
458.4565780042518
 20
568.9051529830044
 30
0.0
 10
458.5546494678367
 20
570.0241722521051
 30
0.0
 10
458.7507890941578
 20
572.2621731268181
 30
0.0
 10
459.9302932567907
 20
575.2691929465185
 30
0.0
 10
461.6658054091754
 20
577.4703644319495
 30
0.0
 10
463.2535280283135
 20
578.6458639338058
 30
0.0
 10
464.2121504636166
 20
578.6865393550788
 30
0.0
 10
464.3786198376525
 20
578.6936028366631
 30
0.0
  0
SPLINE
  5
338
330
1F
100
AcDbEntity
  8
0
  6
Continuous
 62
     7
370
    25
100
AcDbSpline
210
0.0
220
0.0
230
1.0
 70
     8
 71
     3
 72
    11
 73
     7
 74
     0
 42
0.000000001
 43
0.00000001
 40
0.0
 40
0.0
 40
0.0
 40
0.0
 40
0.2514775090643666
 40
0.502946627904782
 40
0.7547392364693415
 40
1.0
 40
1.0
 40
1.0
 40
1.0
 10
624.4031435726989
 20
568.9051529830044
 30
0.0
 10
624.3054614213194
 20
570.0266843698903
 30
0.0
 10
624.1101003775996
 20
572.2697097252084
 30
0.0
 10
622.9247986344609
 20
575.2390337511256
 30
0.0
 10
621.2275749704014
 20
577.5615450902933
 30
0.0
 10
619.7619268931385
 20
578.2687761363211
 30
0.0
 10
619.0387329934944
 20
578.6177447503155
 30
0.0
  0
LINE
  5
339
330
1F
100
AcDbEntity
  8
0
  6
Continuous
 62
     7
370
    25
100
AcDbLine
 10
624.8032770037
 20
557.7851502662
 30
0.0
 11
624.4031435727
 21
568.905152983
 31
0.0
  0
ARC
  5
33A
330
1F
100
AcDbEntity
  8
0
  6
Continuous
 62
     7
370
    25
100
AcDbCircle
 10
594.619228981
 20
597.8608143049
 30
0.0
 40
37.13097488093814
100
AcDbArc
 50
269.6201646917
 51
272.8916380132
  0
SPLINE
  5
33B
330
1F
100
AcDbEntity
  8
0
  6
Continuous
 62
     7
370
    25
100
AcDbSpline
210
0.0
220
0.0
230
1.0
 70
     8
 71
     3
 72
     9
 73
     5
 74
     0
 42
0.000000001
 43
0.00000001
 40
0.0
 40
0.0
 40
0.0
 40
0.0
 40
0.5231767069132758
 40
0.9999999999999999
 40
0.9999999999999999
 40
0.9999999999999999
 40
0.9999999999999999
 10
612.4851575969566
 20
560.730655348832
 30
0.0
 10
612.5250956057043
 20
560.1669154290745
 30
0.0
 10
612.601433118862
 20
559.089382900756
 30
0.0
 10
613.0337535223736
 20
558.2062490548608
 30
0.0
 10
613.2398939608444
 20
557.7851502662247
 30
0.0
  0
SPLINE
  5
33C
330
1F
100
AcDbEntity
  8
0
  6
Continuous
 62
     7
370
    25
100
AcDbSpline
210
0.0
220
0.0
230
1.0
 70
     8
 71
     3
 72
    16
 73
    12
 74
     0
 42
0.000000001
 43
0.00000001
 40
0.0
 40
0.0
 40
0.0
 40
0.0
 40
0.2742392652530262
 40
0.5482577562528194
 40
0.8221006128365721
 40
0.9563124520644896
 40
0.9875092291244145
 40
0.994771025216671
 40
0.9985041953440612
 40
0.9997084266241261
 40
1.0
 40
1.0
 40
1.0
 40
1.0
 10
595.365213501345
 20
645.1193752204722
 30
0.0
 10
595.2555184556543
 20
646.831198636558
 30
0.0
 10
595.0362166734425
 20
650.2534673781927
 30
0.0
 10
594.6048154917399
 20
655.3833928593984
 30
0.0
 10
594.0636209443803
 20
659.6322961011413
 30
0.0
 10
593.5844968117611
 20
662.3483218799105
 30
0.0
 10
593.2347338283984
 20
663.3893503561645
 30
0.0
 10
593.0859972796699
 20
663.6051732176185
 30
0.0
 10
593.0291256854543
 20
663.6514356349251
 30
0.0
 10
593.0019231327008
 20
663.6638121242646
 30
0.0
 10
592.9939543550557
 20
663.6664343998784
 30
0.0
 10
592.9924010216106
 20
663.666945553357
 30
0.0
  0
LINE
  5
33D
330
1F
100
AcDbEntity
  8
0
  6
Continuous
 62
     7
370
    25
100
AcDbLine
 10
456.3250265001
 20
568.905152983
 30
0.0
 11
458.4565780043
 21
568.905152983
 31
0.0
  0
LINE
  5
33E
330
1F
100
AcDbEntity
  8
0
  6
Continuous
 62
     7
370
    25
100
AcDbLine
 10
626.5347025274
 20
568.905152983
 30
0.0
 11
624.4031435727
 21
568.905152983
 31
0.0
  0
SPLINE
  5
33F
330
1F
100
AcDbEntity
  8
0
  6
Continuous
 62
     7
370
    25
100
AcDbSpline
210
0.0
220
0.0
230
1.0
 70
     8
 71
     3
 72
     9
 73
     5
 74
     0
 42
0.000000001
 43
0.00000001
 40
0.0
 40
0.0
 40
0.0
 40
0.0
 40
0.5231771627674989
 40
1.0
 40
1.0
 40
1.0
 40
1.0
 10
456.030639159571
 20
560.730655348832
 30
0.0
 10
455.9767846755136
 20
560.1669156422059
 30
0.0
 10
455.8738473000125
 20
559.0893844601412
 30
0.0
 10
455.4197323900273
 20
558.2062492857418
 30
0.0
 10
455.2032000302185
 20
557.7851502662247
 30
0.0
  0
SPLINE
  5
340
330
1F
100
AcDbEntity
  8
0
  6
Continuous
 62
     7
370
    25
100
AcDbSpline
210
0.0
220
0.0
230
1.0
 70
     8
 71
     3
 72
    10
 73
     6
 74
     0
 42
0.000000001
 43
0.00000001
 40
0.0
 40
0.0
 40
0.0
 40
0.0
 40
0.1985964182580625
 40
0.7164070429208785
 40
1.0
 40
1.0
 40
1.0
 40
1.0
 10
627.6973730801452
 20
557.7851502662247
 30
0.0
 10
627.5898874182801
 20
557.9402249702567
 30
0.0
 10
627.2021488787407
 20
558.4996339018068
 30
0.0
 10
626.9227184668204
 20
559.5678931851232
 30
0.0
 10
626.8535567112599
 20
560.4267362591507
 30
0.0
 10
626.8290824173797
 20
560.730655348832
 30
0.0
  0
ARC
  5
341
330
1F
100
AcDbEntity
  8
0
  6
Continuous
 62
     7
370
    25
100
AcDbCircle
 10
445.2601446708
 20
636.5836114147
 30
0.0
 40
8.706790965308294
100
AcDbArc
 50
78.6249166074
 51
87.4087924436
  0
SPLINE
  5
342
330
1F
100
AcDbEntity
  8
0
  6
Continuous
 62
     7
370
    25
100
AcDbSpline
210
0.0
220
0.0
230
1.0
 70
     8
 71
     3
 72
    14
 73
    10
 74
     0
 42
0.000000001
 43
0.00000001
 40
0.0
 40
0.0
 40
0.0
 40
0.0
 40
0.0042922057718901
 40
0.0388514389506065
 40
0.1075703548301002
 40
0.1766154765376105
 40
0.4510675317394555
 40
0.7259604990947642
 40
1.0
 40
1.0
 40
1.0
 40
1.0
 10
447.2190833567489
 20
663.6968708103245
 30
0.0
 10
447.2267540537272
 20
663.6792990741247
 30
0.0
 10
447.2961863296247
 20
663.5202462997462
 30
0.0
 10
447.370740672927
 20
662.9105390059007
 30
0.0
 10
447.3949750188063
 20
661.8972737845345
 30
0.0
 10
447.2874925834535
 20
659.3732066577877
 30
0.0
 10
446.9724730947199
 20
655.5454708770919
 30
0.0
 10
446.3453974031977
 20
650.4132871060914
 30
0.0
 10
445.8611872576316
 20
646.9903216245445
 30
0.0
 10
445.6194586037506
 20
645.2814998542613
 30
0.0
  0
SPLINE
  5
343
330
1F
100
AcDbEntity
  8
0
  6
Continuous
 62
     7
370
    25
100
AcDbSpline
210
0.0
220
0.0
230
1.0
 70
     8
 71
     3
 72
    14
 73
    10
 74
     0
 42
0.000000001
 43
0.00000001
 40
0.0
 40
0.0
 40
0.0
 40
0.0
 40
0.2740395648554373
 40
0.5489325101298173
 40
0.8233845704220806
 40
0.8924297818730272
 40
0.961148491915387
 40
0.9957079811053843
 40
1.0
 40
1.0
 40
1.0
 40
1.0
 10
445.65377597798
 20
645.2814998542613
 30
0.0
 10
445.9164149067403
 20
646.9903217180906
 30
0.0
 10
446.4425106422167
 20
650.4132868493168
 30
0.0
 10
447.3302302854734
 20
655.5454683077297
 30
0.0
 10
448.1449936067402
 20
659.3732148968977
 30
0.0
 10
448.7824874925493
 20
661.8972672713799
 30
0.0
 10
449.1058154437604
 20
662.9105510536413
 30
0.0
 10
449.3602813417477
 20
663.5202382707316
 30
0.0
 10
449.4766908947502
 20
663.679298992478
 30
0.0
 10
449.4895509361137
 20
663.6968708103245
 30
0.0
  0
LINE
  5
344
330
1F
100
AcDbEntity
  8
0
  6
Continuous
 62
     7
370
    25
100
AcDbLine
 10
444.6313849567
 20
560.7771171694
 30
0.0
 11
446.9773939728
 21
645.1193752205
 31
0.0
  0
ARC
  5
345
330
1F
100
AcDbEntity
  8
0
  6
Continuous
 62
     7
370
    25
100
AcDbCircle
 10
446.9145713544
 20
616.5474579872
 30
0.0
 40
55.81705702615803
100
AcDbArc
 50
267.6556726659
 51
269.8270174002
  0
SPLINE
  5
346
330
1F
100
AcDbEntity
  8
0
  6
Continuous
 62
     7
370
    25
100
AcDbSpline
210
0.0
220
0.0
230
1.0
 70
     8
 71
     3
 72
    16
 73
    12
 74
     0
 42
0.000000001
 43
0.00000001
 40
0.0
 40
0.0
 40
0.0
 40
0.0
 40
0.0002916841314831
 40
0.0044812686673402
 40
0.0052170019790349
 40
0.012479068586976
 40
0.0436761763934347
 40
0.1778895934771275
 40
0.4517356988550345
 40
0.725757461401886
 40
0.9999999999999999
 40
0.9999999999999999
 40
0.9999999999999999
 40
0.9999999999999999
 10
449.6123067020286
 20
663.666945553357
 30
0.0
 10
449.6113748259988
 20
663.6664337935998
 30
0.0
 10
449.597058014066
 20
663.6585714085137
 30
0.0
 10
449.5808469194301
 20
663.6403315342503
 30
0.0
 10
449.5470513717036
 20
663.5899838218014
 30
0.0
 10
449.4531153701292
 20
663.3890764036659
 30
0.0
 10
449.1810271630639
 20
662.3488242772468
 30
0.0
 10
448.7180984960013
 20
659.6318709447171
 30
0.0
 10
448.1165024416129
 20
655.3835371668395
 30
0.0
 10
447.5173982657544
 20
650.2534312346573
 30
0.0
 10
447.1574437194756
 20
646.8311865837369
 30
0.0
 10
446.9773939727653
 20
645.1193752204722
 30
0.0
  0
LINE
  5
347
330
1F
100
AcDbEntity
  8
0
  6
Continuous
 62
     7
370
    25
100
AcDbLine
 10
447.1999726175
 20
660.9708337551
 30
0.0
 11
447.20385437
 21
661.2630119985
 31
0.0
  0
ARC
  5
348
330
1F
100
AcDbEntity
  8
0
  6
Continuous
 62
     7
370
    25
100
AcDbCircle
 10
649.2330534005
 20
633.8879378534
 30
0.0
 40
11.43465887537068
100
AcDbArc
 50
94.8591530665
 51
100.8182289934
  0
LINE
  5
349
330
1F
100
AcDbEntity
  8
0
  6
Continuous
 62
     7
370
    25
100
AcDbLine
 10
647.0868385314
 20
645.1193752205
 30
0.0
 11
649.8211271047
 21
560.7771171694
 31
0.0
  0
ARC
  5
34A
330
1F
100
AcDbEntity
  8
0
  6
Continuous
 62
     7
370
    25
100
AcDbCircle
 10
647.3706153728
 20
622.0387194638
 30
0.0
 40
61.31059389225616
100
AcDbArc
 50
270.5204901397
 51
272.2906545275
  0
SPLINE
  5
34B
330
1F
100
AcDbEntity
  8
0
  6
Continuous
 62
     7
370
    25
100
AcDbSpline
210
0.0
220
0.0
230
1.0
 70
     8
 71
     3
 72
    14
 73
    10
 74
     0
 42
0.000000001
 43
0.00000001
 40
0.0
 40
0.0
 40
0.0
 40
0.0
 40
0.2740395350480275
 40
0.5489324998059025
 40
0.8233845484047566
 40
0.8924297684826236
 40
0.9611485978935307
 40
0.995707997982121
 40
1.0
 40
1.0
 40
1.0
 40
1.0
 10
648.2822245835174
 20
645.2814998542613
 30
0.0
 10
648.0063631281896
 20
646.9903217831808
 30
0.0
 10
647.4537811138952
 20
650.4132873527305
 30
0.0
 10
646.6764680103182
 20
655.5454682522621
 30
0.0
 10
646.1757738647179
 20
659.3732140065548
 30
0.0
 10
645.8974776149881
 20
661.8972689616857
 30
0.0
 10
645.8206485018759
 20
662.9105486772894
 30
0.0
 10
645.8054538408039
 20
663.5202380714993
 30
0.0
 10
645.8273703122068
 20
663.6792989917153
 30
0.0
 10
645.829791474234
 20
663.6968708103245
 30
0.0
  0
SPLINE
  5
34C
330
1F
100
AcDbEntity
  8
0
  6
Continuous
 62
     7
370
    25
100
AcDbSpline
210
0.0
220
0.0
230
1.0
 70
     8
 71
     3
 72
    14
 73
    10
 74
     0
 42
0.000000001
 43
0.00000001
 40
0.0
 40
0.0
 40
0.0
 40
0.0
 40
0.004292200219876
 40
0.0388515052391951
 40
0.1075703428131519
 40
0.1766155197740789
 40
0.4510675837729569
 40
0.725960486584187
 40
1.0
 40
1.0
 40
1.0
 40
1.0
 10
644.6545070885528
 20
663.6968708103245
 30
0.0
 10
644.6627150669594
 20
663.6792990678867
 30
0.0
 10
644.7370108359655
 20
663.5202457599288
 30
0.0
 10
644.9224886567106
 20
662.9105413266177
 30
0.0
 10
645.1792570081327
 20
661.8972717593587
 30
0.0
 10
645.7318780272412
 20
659.3732096161784
 30
0.0
 10
646.4912917041621
 20
655.5454708103395
 30
0.0
 10
647.403508654595
 20
650.4132863966722
 30
0.0
 10
647.9777754094606
 20
646.9903215483941
 30
0.0
 10
648.2644623993743
 20
645.2814998542613
 30
0.0
  0
LWPOLYLINE
  5
34D
330
1F
100
AcDbEntity
  8
0
  6
Continuous
 62
     7
370
    25
100
AcDbPolyline
 90
        3
 70
   128
 43
0.0
 10
648.316750574
 20
645.2759286826
 10
648.3141130685
 20
645.2784134512
 10
648.2822245835
 20
645.2814998543
  0
SPLINE
  5
34E
330
1F
100
AcDbEntity
  8
0
  6
Continuous
 62
     7
370
    25
100
AcDbSpline
210
0.0
220
0.0
230
1.0
 70
     8
 71
     3
 72
    16
 73
    12
 74
     0
 42
0.000000001
 43
0.00000001
 40
0.0
 40
0.0
 40
0.0
 40
0.0
 40
0.2742393038313336
 40
0.548257777339592
 40
0.8221005986964585
 40
0.9563125077944773
 40
0.9875092412769242
 40
0.9947711567132344
 40
0.9985041442144047
 40
0.9997085335285512
 40
1.0
 40
1.0
 40
1.0
 40
1.0
 10
647.0868385313858
 20
645.1193752204722
 30
0.0
 10
646.8889723113493
 20
646.8311989854234
 30
0.0
 10
646.493399202418
 20
650.2534680747093
 30
0.0
 10
645.8697246977727
 20
655.3833875196793
 30
0.0
 10
645.2982233750013
 20
659.6323119629197
 30
0.0
 10
644.8929549373732
 20
662.3483045951101
 30
0.0
 10
644.6880287277172
 20
663.3893595646318
 30
0.0
 10
644.6227060290419
 20
663.6051683197672
 30
0.0
 10
644.6012523975005
 20
663.6514392124349
 30
0.0
 10
644.5919128789701
 20
663.6638108260739
 30
0.0
 10
644.5892768029632
 20
663.6664343596444
 30
0.0
 10
644.5887631653655
 20
663.666945553357
 30
0.0
  0
SPLINE
  5
34F
330
1F
100
AcDbEntity
  8
0
  6
Continuous
 62
     7
370
    25
100
AcDbSpline
210
0.0
220
0.0
230
1.0
 70
     8
 71
     3
 72
    12
 73
     8
 74
     0
 42
0.000000001
 43
0.00000001
 40
0.0
 40
0.0
 40
0.0
 40
0.0
 40
0.0070308355865436
 40
0.1080770782386525
 40
0.1258220108660528
 40
0.3009655781006107
 40
1.0
 40
1.0
 40
1.0
 40
1.0
 10
645.8873248576034
 20
663.666945553357
 30
0.0
 10
645.8869277967202
 20
663.666433767916
 30
0.0
 10
645.8808242291407
 20
663.6585666695513
 30
0.0
 10
645.8755177175515
 20
663.6403323933469
 30
0.0
 10
645.8664146000148
 20
663.5899830171992
 30
0.0
 10
645.8520939367048
 20
663.4006657088469
 30
0.0
 10
645.8598921402472
 20
663.1818903002367
 30
0.0
 10
645.8661279558052
 20
663.0069470470494
 30
0.0
  0
LINE
  5
350
330
1F
100
AcDbEntity
  8
0
  6
Continuous
 62
     7
370
    25
100
AcDbLine
 10
662.2042975305
 20
560.905155397
 30
0.0
 11
671.2552628397
 21
560.905155397
 31
0.0
  0
LINE
  5
351
330
1F
100
AcDbEntity
  8
0
  6
Continuous
 62
     7
370
    25
100
AcDbLine
 10
411.6060904144
 20
560.905155397
 30
0.0
 11
427.2536358713
 21
560.905155397
 31
0.0
  0
LINE
  5
352
330
1F
100
AcDbEntity
  8
0
  6
Continuous
 62
     7
370
    25
100
AcDbLine
 10
477.0298621534
 20
721.405152834
 30
0.0
 11
605.8298594235
 21
721.405152834
 31
0.0
  0
LINE
  5
353
330
1F
100
AcDbEntity
  8
0
  6
Continuous
 62
     8
370
    25
100
AcDbLine
 10
404.1515759109
 20
553.9974241024
 30
0.0
 11
678.7081531166
 21
553.9974241024
 31
0.0
  0
LINE
  5
354
330
1F
100
AcDbEntity
  8
0
  6
Continuous
 62
     8
370
    25
100
AcDbLine
 10
545.9882535889
 20
549.2770864134
 30
0.0
 11
536.8715378373
 21
549.2770864134
 31
0.0
  0
LINE
  5
355
330
1F
100
AcDbEntity
  8
0
  6
Continuous
 62
     8
370
    25
100
AcDbLine
 10
536.8718167684
 20
549.2664469843
 30
0.0
 11
421.0854417561
 21
549.2664469843
 31
0.0
  0
LINE
  5
356
330
1F
100
AcDbEntity
  8
0
  6
Continuous
 62
     8
370
    25
100
AcDbLine
 10
545.9879741921
 20
549.2664469843
 30
0.0
 11
661.7742798208
 21
549.2664469843
 31
0.0
  0
LINE
  5
357
330
1F
100
AcDbEntity
  8
0
  6
Continuous
 62
     8
370
    25
100
AcDbLine
 10
660.6449208139
 20
484.5651431447
 30
0.0
 11
422.2148082136
 21
484.5651431447
 31
0.0
  0
LINE
  5
358
330
1F
100
AcDbEntity
  8
0
  6
Continuous
 62
     8
370
    25
100
AcDbLine
 10
508.9753701269
 20
557.7851502662
 30
0.0
 11
512.8343797206
 21
645.2814998543
 31
0.0
  0
LINE
  5
359
330
1F
100
AcDbEntity
  8
0
  6
Continuous
 62
     8
370
    25
100
AcDbLine
 10
512.7680956303
 20
645.2814998543
 30
0.0
 11
508.9090860366
 21
557.7851502662
 31
0.0
  0
LINE
  5
35A
330
1F
100
AcDbEntity
  8
0
  6
Continuous
 62
     8
370
    25
100
AcDbLine
 10
514.0459540217
 20
645.1193752205
 30
0.0
 11
510.1940951227
 21
557.7851502662
 31
0.0
  0
LWPOLYLINE
  5
35B
330
1F
100
AcDbEntity
  8
0
  6
Continuous
 62
     8
370
    25
100
AcDbPolyline
 90
        8
 70
   128
 43
0.0
 10
512.7680956303
 20
645.2814998543
 10
512.5884770333
 20
645.2784134512
 10
512.424832481
 20
645.2692678636
 10
512.2831764548
 20
645.2543983673
 10
512.1687150477
 20
645.2343525802
 10
512.0856541126
 20
645.2098662471
 10
512.0370446621
 20
645.1818390256
 10
512.0242091744
 20
645.1575743472
  0
SPLINE
  5
35C
330
1F
100
AcDbEntity
  8
0
  6
Continuous
 62
     8
370
    25
100
AcDbSpline
210
0.0
220
0.0
230
1.0
 70
     8
 71
     3
 72
    11
 73
     7
 74
     0
 42
0.000000001
 43
0.00000001
 40
0.0
 40
0.0
 40
0.0
 40
0.0
 40
0.2447777734376816
 40
0.5412692344449633
 40
0.837226552690426
 40
1.0
 40
1.0
 40
1.0
 40
1.0
 10
513.0704215644706
 20
557.7851502662247
 30
0.0
 10
513.1534997133205
 20
557.9208284679831
 30
0.0
 10
513.3372077575417
 20
558.2208493210422
 30
0.0
 10
513.5404621777595
 20
559.0686531820119
 30
0.0
 10
513.6498058799722
 20
559.97841367134
 30
0.0
 10
513.661963928717
 20
560.5679348033749
 30
0.0
 10
513.6662780224193
 20
560.7771171694344
 30
0.0
  0
SPLINE
  5
35D
330
1F
100
AcDbEntity
  8
0
  6
Continuous
 62
     8
370
    25
100
AcDbSpline
210
0.0
220
0.0
230
1.0
 70
     8
 71
     3
 72
    10
 73
     6
 74
     0
 42
0.000000001
 43
0.00000001
 40
0.0
 40
0.0
 40
0.0
 40
0.0
 40
0.1964966197004894
 40
0.714873759549307
 40
1.0
 40
1.0
 40
1.0
 40
1.0
 10
594.9658921836723
 20
557.7851502662247
 30
0.0
 10
594.890735199546
 20
557.9385685684452
 30
0.0
 10
594.6173068022503
 20
558.4967192310837
 30
0.0
 10
594.4276289983832
 20
559.5643644424118
 30
0.0
 10
594.3873638161601
 20
560.425188608739
 30
0.0
 10
594.3730755626071
 20
560.730655348832
 30
0.0
  0
SPLINE
  5
35E
330
1F
100
AcDbEntity
  8
0
  6
Continuous
 62
     8
370
    25
100
AcDbSpline
210
0.0
220
0.0
230
1.0
 70
     8
 71
     3
 72
    10
 73
     6
 74
     0
 42
0.000000001
 43
0.00000001
 40
0.0
 40
0.0
 40
0.0
 40
0.0
 40
0.2851264709394535
 40
0.8035034468973148
 40
1.0
 40
1.0
 40
1.0
 40
1.0
 10
515.5688005416501
 20
560.730655348832
 30
0.0
 10
515.5618054540715
 20
560.42518867715
 30
0.0
 10
515.5420928789383
 20
559.5643653281284
 30
0.0
 10
515.4433208917582
 20
558.4967191886783
 30
0.0
 10
515.2988807420962
 20
557.938568557316
 30
0.0
 10
515.2591786264289
 20
557.7851502662247
 30
0.0
  0
LINE
  5
35F
330
1F
100
AcDbEntity
  8
0
  6
Continuous
 62
     8
370
    25
100
AcDbLine
 10
470.37456398
 20
560.7306553488
 30
0.0
 11
508.3005747675
 21
560.7306553488
 31
0.0
  0
LINE
  5
360
330
1F
100
AcDbEntity
  8
0
  6
Continuous
 62
     8
370
    25
100
AcDbLine
 10
645.8873248576
 20
663.6669455534
 30
0.0
 11
645.9706819533
 21
661.2736029988
 31
0.0
  0
LINE
  5
361
330
1F
100
AcDbEntity
  8
0
  6
Continuous
 62
     8
370
    25
100
AcDbLine
 10
604.4663137673
 20
560.7306553488
 30
0.0
 11
612.485157597
 21
560.7306553488
 31
0.0
  0
LWPOLYLINE
  5
362
330
1F
100
AcDbEntity
  8
0
  6
Continuous
 62
     8
370
    25
100
AcDbPolyline
 90
        4
 70
   128
 43
0.0
 10
597.3374641417
 20
663.6669455534
 10
597.4044374107
 20
660.537873066
 10
597.6782462477
 20
647.7457626229
 10
597.8882408618
 20
637.9345531082
  0
LWPOLYLINE
  5
363
330
1F
100
AcDbEntity
  8
0
  6
Continuous
 62
     8
370
    25
100
AcDbPolyline
 90
        3
 70
   128
 43
0.0
 10
510.4665181517
 20
609.8396467482
 10
510.709591481
 20
627.8892558389
 10
511.1914000391
 20
663.6669455534
  0
LINE
  5
364
330
1F
100
AcDbEntity
  8
0
  6
Continuous
 62
     8
370
    25
100
AcDbLine
 10
446.8651286243
 20
656.3180337166
 30
0.0
 11
447.1036813139
 21
663.6669455534
 31
0.0
  0
LINE
  5
365
330
1F
100
AcDbEntity
  8
0
  6
Continuous
 62
     8
370
    25
100
AcDbLine
 10
430.3358367561
 20
560.7306553488
 30
0.0
 11
433.0093285917
 21
560.7306553488
 31
0.0
  0
LINE
  5
366
330
1F
100
AcDbEntity
  8
0
  6
Continuous
 62
     8
370
    25
100
AcDbLine
 10
604.2208692907
 20
557.7851502662
 30
0.0
 11
596.7658332466
 21
645.2814998543
 31
0.0
  0
LINE
  5
367
330
1F
100
AcDbEntity
  8
0
  6
Continuous
 62
     8
370
    25
100
AcDbLine
 10
596.7064074158
 20
645.2814998543
 30
0.0
 11
604.1614434599
 21
557.7851502662
 31
0.0
  0
LINE
  5
368
330
1F
100
AcDbEntity
  8
0
  6
Continuous
 62
     8
370
    25
100
AcDbLine
 10
602.806436169
 20
557.7851502662
 30
0.0
 11
595.3652135013
 21
645.1193752205
 31
0.0
  0
ARC
  5
369
330
1F
100
AcDbEntity
  8
0
  6
Continuous
 62
     8
370
    25
100
AcDbCircle
 10
596.9109347525
 20
644.5937230679
 30
0.0
 40
0.7029163213856363
100
AcDbArc
 50
59.3450295177
 51
101.9130968903
  0
SPLINE
  5
36A
330
1F
100
AcDbEntity
  8
0
  6
Continuous
 62
     8
370
    25
100
AcDbSpline
210
0.0
220
0.0
230
1.0
 70
     8
 71
     3
 72
    11
 73
     7
 74
     0
 42
0.000000001
 43
0.00000001
 40
0.0
 40
0.0
 40
0.0
 40
0.0
 40
0.1627731362644785
 40
0.4587299074075564
 40
0.7552217611486389
 40
1.0
 40
1.0
 40
1.0
 40
1.0
 10
596.4923820375312
 20
560.7771171694344
 30
0.0
 10
596.5012950700578
 20
560.5679348272174
 30
0.0
 10
596.5264139236931
 20
559.9784137386724
 30
0.0
 10
596.7295016556646
 20
559.0686512493123
 30
0.0
 10
597.1025934081747
 20
558.220849310177
 30
0.0
 10
597.4374051996098
 20
557.9208284941168
 30
0.0
 10
597.5888169287553
 20
557.7851502662247
 30
0.0
  0
SPLINE
  5
36B
330
1F
100
AcDbEntity
  8
0
  6
Continuous
 62
     8
370
    25
100
AcDbSpline
210
0.0
220
0.0
230
1.0
 70
     8
 71
     3
 72
    16
 73
    12
 74
     0
 42
0.000000001
 43
0.00000001
 40
0.0
 40
0.0
 40
0.0
 40
0.0
 40
0.0576089903751538
 40
0.4134185174216135
 40
0.7689999125284148
 40
0.9432722349432402
 40
0.9837809383366877
 40
0.9932103138677856
 40
0.9980577915478986
 40
0.9996214169854668
 40
1.0
 40
1.0
 40
1.0
 40
1.0
 10
512.1404307811368
 20
649.4237954234427
 30
0.0
 10
512.1466168653596
 20
649.7007224781229
 30
0.0
 10
512.1910099670504
 20
651.6880298694572
 30
0.0
 10
512.1864432828304
 20
655.3833289215465
 30
0.0
 10
511.997464541425
 20
659.6323025694693
 30
0.0
 10
511.7245064762629
 20
662.3483240314165
 30
0.0
 10
511.4348638071298
 20
663.3893502740746
 30
0.0
 10
511.2898169716581
 20
663.605173306036
 30
0.0
 10
511.230853676021
 20
663.6514352414861
 30
0.0
 10
511.2017190475693
 20
663.6638120710412
 30
0.0
 10
511.193083344716
 20
663.6664343987798
 30
0.0
 10
511.1914000390876
 20
663.666945553357
 30
0.0
  0
SPLINE
  5
36C
330
1F
100
AcDbEntity
  8
0
  6
Continuous
 62
     8
370
    25
100
AcDbSpline
210
0.0
220
0.0
230
1.0
 70
     8
 71
     3
 72
    15
 73
    11
 74
     0
 42
0.000000001
 43
0.00000001
 40
0.0
 40
0.0
 40
0.0
 40
0.0
 40
0.0005541498501318
 40
0.0085136423012799
 40
0.0099117414368823
 40
0.0237081294930777
 40
0.0829772866035127
 40
0.337959913047737
 40
0.8576440407716001
 40
1.0
 40
1.0
 40
1.0
 40
1.0
 10
597.3374641417373
 20
663.666945553357
 30
0.0
 10
597.3359703838904
 20
663.6664337989404
 30
0.0
 10
597.3130211401243
 20
663.658571495905
 30
0.0
 10
597.2893054018173
 20
663.640326703491
 30
0.0
 10
597.242642182838
 20
663.5899927544673
 30
0.0
 10
597.1275701171551
 20
663.3890568621161
 30
0.0
 10
596.9019655820197
 20
662.3488535718029
 30
0.0
 10
596.7433863328605
 20
659.6338329859437
 30
0.0
 10
596.7104874101564
 20
656.6267714764805
 30
0.0
 10
596.7773412392618
 20
654.4527997509966
 30
0.0
 10
596.7917165635932
 20
653.9853388881033
 30
0.0
  0
SPLINE
  5
36D
330
1F
100
AcDbEntity
  8
0
  6
Continuous
 62
     8
370
    25
100
AcDbSpline
210
0.0
220
0.0
230
1.0
 70
     8
 71
     3
 72
    10
 73
     6
 74
     0
 42
0.000000001
 43
0.00000001
 40
0.0
 40
0.0
 40
0.0
 40
0.0
 40
0.1964965188072528
 40
0.71487390845366
 40
1.0
 40
1.0
 40
1.0
 40
1.0
 10
649.0652731536736
 20
557.7851502662247
 30
0.0
 10
648.9222611467001
 20
557.9385686123096
 30
0.0
 10
648.4019692198934
 20
558.4967198373795
 30
0.0
 10
648.0371294905106
 20
559.5643635907626
 30
0.0
 10
647.9562646685613
 20
560.4251885317361
 30
0.0
 10
647.9275694965232
 20
560.730655348832
 30
0.0
  0
SPLINE
  5
36E
330
1F
100
AcDbEntity
  8
0
  6
Continuous
 62
     8
370
    25
100
AcDbSpline
210
0.0
220
0.0
230
1.0
 70
     8
 71
     3
 72
     9
 73
     5
 74
     0
 42
0.000000001
 43
0.00000001
 40
0.0
 40
0.0
 40
0.0
 40
0.0
 40
0.52436885445167
 40
1.0
 40
1.0
 40
1.0
 40
1.0
 10
446.7460534452308
 20
560.730655348832
 30
0.0
 10
446.6885985896903
 20
560.1655725208157
 30
0.0
 10
446.5790290470815
 20
559.0879287530382
 30
0.0
 10
446.0329691379635
 20
558.2050668733987
 30
0.0
 10
445.7732460378517
 20
557.7851502662247
 30
0.0
  0
LINE
  5
36F
330
1F
100
AcDbEntity
  8
0
  6
Continuous
 62
     8
370
    25
100
AcDbLine
 10
432.741271603
 20
557.7851502662
 30
0.0
 11
445.653775978
 21
645.2814998543
 31
0.0
  0
LINE
  5
370
330
1F
100
AcDbEntity
  8
0
  6
Continuous
 62
     8
370
    25
100
AcDbLine
 10
446.9773939728
 20
645.1193752205
 30
0.0
 11
434.0888208627
 21
557.7851502662
 31
0.0
  0
LINE
  5
371
330
1F
100
AcDbEntity
  8
0
  6
Continuous
 62
     8
370
    25
100
AcDbLine
 10
445.6194586038
 20
645.2814998543
 30
0.0
 11
432.7069616794
 21
557.7851502662
 31
0.0
  0
SPLINE
  5
372
330
1F
100
AcDbEntity
  8
0
  6
Continuous
 62
     8
370
    25
100
AcDbSpline
210
0.0
220
0.0
230
1.0
 70
     8
 71
     3
 72
    11
 73
     7
 74
     0
 42
0.000000001
 43
0.00000001
 40
0.0
 40
0.0
 40
0.0
 40
0.0
 40
0.1243530240687033
 40
0.4163758778233173
 40
0.7081830735877092
 40
1.0
 40
1.0
 40
1.0
 40
1.0
 10
442.7422604440559
 20
557.7851502662247
 30
0.0
 10
442.8789073767269
 20
557.8352482869075
 30
0.0
 10
443.3364474081725
 20
558.0029933618275
 30
0.0
 10
443.9507887130198
 20
558.6544000536711
 30
0.0
 10
444.5013228465206
 20
559.6332202085437
 30
0.0
 10
444.5880304381063
 20
560.39581394428
 30
0.0
 10
444.6313849567283
 20
560.7771171694344
 30
0.0
  0
ARC
  5
373
330
1F
100
AcDbEntity
  8
0
  6
Continuous
 62
     8
370
    25
100
AcDbCircle
 10
445.5774193575
 20
645.1118113977
 30
0.0
 40
0.1748183929335041
100
AcDbArc
 50
76.0854928942
 51
122.3424479556
  0
SPLINE
  5
374
330
1F
100
AcDbEntity
  8
0
  6
Continuous
 62
     8
370
    25
100
AcDbSpline
210
0.0
220
0.0
230
1.0
 70
     8
 71
     3
 72
    13
 73
     9
 74
     0
 42
0.000000001
 43
0.00000001
 40
0.0
 40
0.0
 40
0.0
 40
0.0
 40
0.6791835210924979
 40
0.9082758309184636
 40
0.9616014413719366
 40
0.9890156988561547
 40
0.9978600802250567
 40
1.0
 40
1.0
 40
1.0
 40
1.0
 10
447.2038543700088
 20
661.2630119984692
 30
0.0
 10
447.2252329444254
 20
661.8352984059492
 30
0.0
 10
447.2538226287141
 20
662.6006201432035
 30
0.0
 10
447.2055561154459
 20
663.3893271818097
 30
0.0
 10
447.1492819823443
 20
663.6051730320222
 30
0.0
 10
447.1227439626641
 20
663.6514390061225
 30
0.0
 10
447.1087573950343
 20
663.663810291504
 30
0.0
 10
447.1045089749308
 20
663.6664343451961
 30
0.0
 10
447.1036813138832
 20
663.666945553357
 30
0.0
  0
LINE
  5
375
330
1F
100
AcDbEntity
  8
0
  6
Continuous
 62
     8
370
    25
100
AcDbLine
 10
648.2644623994
 20
645.2814998543
 30
0.0
 11
662.6664868473
 21
557.7851502662
 31
0.0
  0
LINE
  5
376
330
1F
100
AcDbEntity
  8
0
  6
Continuous
 62
     8
370
    25
100
AcDbLine
 10
661.4621749996
 20
557.7851502662
 30
0.0
 11
647.0868385314
 21
645.1193752205
 31
0.0
  0
SPLINE
  5
377
330
1F
100
AcDbEntity
  8
0
  6
Continuous
 62
     8
370
    25
100
AcDbSpline
210
0.0
220
0.0
230
1.0
 70
     8
 71
     3
 72
    11
 73
     7
 74
     0
 42
0.000000001
 43
0.00000001
 40
0.0
 40
0.0
 40
0.0
 40
0.0
 40
0.1627732311481812
 40
0.4587308151934136
 40
0.7552222055229459
 40
1.0
 40
1.0
 40
1.0
 40
1.0
 10
649.8211271046508
 20
560.7771171694344
 30
0.0
 10
649.8391634271186
 20
560.5679347091834
 30
0.0
 10
649.8899937562235
 20
559.9784124650266
 30
0.0
 10
650.2707769051176
 20
559.0686541380389
 30
0.0
 10
650.9639092404104
 20
558.220849081467
 30
0.0
 10
651.5822886767377
 20
557.920828409977
 30
0.0
 10
651.8619379876961
 20
557.7851502662247
 30
0.0
  0
LINE
  5
378
330
1F
100
AcDbEntity
  8
0
  6
Continuous
 62
     8
370
    25
100
AcDbLine
 10
662.6842490314
 20
557.7851502662
 30
0.0
 11
648.2822245835
 21
645.2814998543
 31
0.0
  0
LINE
  5
379
330
1F
100
AcDbEntity
  8
0
  6
Continuous
 62
     8
370
    25
100
AcDbLine
 10
432.7562919735
 20
630.0434867358
 30
0.0
 11
421.3760293006
 21
560.905155397
 31
0.0
  0
ENDSEC
  0
SECTION
  2
OBJECTS
  0
DICTIONARY
  5
C
330
0
100
AcDbDictionary
281
     1
  3
ACAD_GROUP
350
D
  3
ACAD_LAYOUT
350
1A
  3
ACAD_MLINESTYLE
350
17
  3
ACAD_PLOTSETTINGS
350
19
  3
ACAD_PLOTSTYLENAME
350
E
  3
ACAD_SCALELIST
350
47
  0
DICTIONARY
  5
D
102
{ACAD_REACTORS
330
C
102
}
330
C
100
AcDbDictionary
281
     1
  0
DICTIONARY
  5
1A
102
{ACAD_REACTORS
330
C
102
}
330
C
100
AcDbDictionary
281
     1
  3
Layout1
350
1E
  3
Layout2
350
26
  3
Model
350
22
  0
DICTIONARY
  5
17
102
{ACAD_REACTORS
330
C
102
}
330
C
100
AcDbDictionary
281
     1
  3
Standard
350
18
  0
DICTIONARY
  5
19
102
{ACAD_REACTORS
330
C
102
}
330
C
100
AcDbDictionary
281
     1
  0
ACDBDICTIONARYWDFLT
  5
E
102
{ACAD_REACTORS
330
C
102
}
330
C
100
AcDbDictionary
281
     1
  3
Normal
350
F
100
AcDbDictionaryWithDefault
340
F
  0
DICTIONARY
  5
47
102
{ACAD_REACTORS
330
C
102
}
330
C
100
AcDbDictionary
281
     1
  3
A0
350
48
  3
A1
350
49
  3
A2
350
4A
  3
A3
350
4B
  3
A4
350
4C
  3
A5
350
4D
  3
A6
350
4E
  3
A7
350
4F
  3
A8
350
50
  3
A9
350
51
  3
B0
350
52
  3
B1
350
53
  3
B2
350
54
  3
B3
350
55
  3
B4
350
56
  3
B5
350
57
  3
B6
350
58
  3
B7
350
59
  3
B8
350
5A
  3
B9
350
5B
  3
C0
350
5C
  3
C1
350
5D
  3
C2
350
5E
  3
C3
350
5F
  3
C4
350
60
  3
C5
350
61
  3
C6
350
62
  3
C7
350
63
  3
C8
350
64
  3
C9
350
65
  3
D0
350
66
  3
D1
350
67
  3
D2
350
68
  0
LAYOUT
  5
1E
102
{ACAD_REACTORS
330
1A
102
}
330
1A
100
AcDbPlotSettings
  1

  2
none_device
  4

  6

 40
0.0
 41
0.0
 42
0.0
 43
0.0
 44
0.0
 45
0.0
 46
0.0
 47
0.0
 48
0.0
 49
0.0
140
0.0
141
0.0
142
1.0
143
1.0
 70
   688
 72
     1
 73
     0
 74
     5
  7

 75
    16
147
1.0
148
0.0
149
0.0
100
AcDbLayout
  1
Layout1
 70
     1
 71
     1
 10
0.0
 20
0.0
 11
420.0
 21
297.0
 12
0.0
 22
0.0
 32
0.0
 14
1.0000000000E+20
 24
1.0000000000E+20
 34
1.0000000000E+20
 15
-1.0000000000E+20
 25
-1.0000000000E+20
 35
-1.0000000000E+20
146
0.0
 13
0.0
 23
0.0
 33
0.0
 16
1.0
 26
0.0
 36
0.0
 17
0.0
 27
1.0
 37
0.0
 76
     0
330
1B
  0
LAYOUT
  5
26
102
{ACAD_REACTORS
330
1A
102
}
330
1A
100
AcDbPlotSettings
  1

  2
none_device
  4

  6

 40
0.0
 41
0.0
 42
0.0
 43
0.0
 44
0.0
 45
0.0
 46
0.0
 47
0.0
 48
0.0
 49
0.0
140
0.0
141
0.0
142
1.0
143
1.0
 70
   688
 72
     1
 73
     0
 74
     5
  7

 75
    16
147
1.0
148
0.0
149
0.0
100
AcDbLayout
  1
Layout2
 70
     1
 71
     2
 10
0.0
 20
0.0
 11
0.0
 21
0.0
 12
0.0
 22
0.0
 32
0.0
 14
0.0
 24
0.0
 34
0.0
 15
0.0
 25
0.0
 35
0.0
146
0.0
 13
0.0
 23
0.0
 33
0.0
 16
1.0
 26
0.0
 36
0.0
 17
0.0
 27
1.0
 37
0.0
 76
     0
330
23
  0
LAYOUT
  5
22
102
{ACAD_REACTORS
330
1A
102
}
330
1A
100
AcDbPlotSettings
  1

  2
none_device
  4
Letter_(8.50_x_11.00_Inches)
  6

 40
6.35
 41
6.35
 42
6.35000508
 43
6.35000508
 44
215.9
 45
279.4
 46
0.0
 47
0.0
 48
0.0
 49
0.0
140
0.0
141
0.0
142
1.0
143
1.0
 70
  1712
 72
     1
 73
     0
 74
     0
  7

 75
     0
147
1.0
148
0.0
149
0.0
100
AcDbLayout
  1
Model
 70
     1
 71
     0
 10
0.0
 20
0.0
 11
1189.0
 21
841.0
 12
0.0
 22
0.0
 32
0.0
 14
0.0
 24
0.0
 34
0.0
 15
1189.0
 25
841.0
 35
0.0
146
0.0
 13
0.0
 23
0.0
 33
0.0
 16
1.0
 26
0.0
 36
0.0
 17
0.0
 27
1.0
 37
0.0
 76
     0
330
1F
331
29
  0
MLINESTYLE
  5
18
102
{ACAD_REACTORS
330
17
102
}
330
17
100
AcDbMlineStyle
  2
Standard
 70
     0
  3

 62
   256
 51
90.0
 52
90.0
 71
     2
 49
0.5
 62
   256
  6
BYLAYER
 49
-0.5
 62
   256
  6
BYLAYER
  0
ACDBPLACEHOLDER
  5
F
102
{ACAD_REACTORS
330
E
102
}
330
E
  0
SCALE
  5
48
102
{ACAD_REACTORS
330
47
102
}
330
47
100
AcDbScale
 70
     0
300
1:1
140
1.0
141
1.0
290
     1
  0
SCALE
  5
49
102
{ACAD_REACTORS
330
47
102
}
330
47
100
AcDbScale
 70
     0
300
1:2
140
1.0
141
2.0
290
     0
  0
SCALE
  5
4A
102
{ACAD_REACTORS
330
47
102
}
330
47
100
AcDbScale
 70
     0
300
1:4
140
1.0
141
4.0
290
     0
  0
SCALE
  5
4B
102
{ACAD_REACTORS
330
47
102
}
330
47
100
AcDbScale
 70
     0
300
1:5
140
1.0
141
5.0
290
     0
  0
SCALE
  5
4C
102
{ACAD_REACTORS
330
47
102
}
330
47
100
AcDbScale
 70
     0
300
1:8
140
1.0
141
8.0
290
     0
  0
SCALE
  5
4D
102
{ACAD_REACTORS
330
47
102
}
330
47
100
AcDbScale
 70
     0
300
1:10
140
1.0
141
10.0
290
     0
  0
SCALE
  5
4E
102
{ACAD_REACTORS
330
47
102
}
330
47
100
AcDbScale
 70
     0
300
1:16
140
1.0
141
16.0
290
     0
  0
SCALE
  5
4F
102
{ACAD_REACTORS
330
47
102
}
330
47
100
AcDbScale
 70
     0
300
1:20
140
1.0
141
20.0
290
     0
  0
SCALE
  5
50
102
{ACAD_REACTORS
330
47
102
}
330
47
100
AcDbScale
 70
     0
300
1:30
140
1.0
141
30.0
290
     0
  0
SCALE
  5
51
102
{ACAD_REACTORS
330
47
102
}
330
47
100
AcDbScale
 70
     0
300
1:40
140
1.0
141
40.0
290
     0
  0
SCALE
  5
52
102
{ACAD_REACTORS
330
47
102
}
330
47
100
AcDbScale
 70
     0
300
1:50
140
1.0
141
50.0
290
     0
  0
SCALE
  5
53
102
{ACAD_REACTORS
330
47
102
}
330
47
100
AcDbScale
 70
     0
300
1:100
140
1.0
141
100.0
290
     0
  0
SCALE
  5
54
102
{ACAD_REACTORS
330
47
102
}
330
47
100
AcDbScale
 70
     0
300
2:1
140
2.0
141
1.0
290
     0
  0
SCALE
  5
55
102
{ACAD_REACTORS
330
47
102
}
330
47
100
AcDbScale
 70
     0
300
4:1
140
4.0
141
1.0
290
     0
  0
SCALE
  5
56
102
{ACAD_REACTORS
330
47
102
}
330
47
100
AcDbScale
 70
     0
300
8:1
140
8.0
141
1.0
290
     0
  0
SCALE
  5
57
102
{ACAD_REACTORS
330
47
102
}
330
47
100
AcDbScale
 70
     0
300
10:1
140
10.0
141
1.0
290
     0
  0
SCALE
  5
58
102
{ACAD_REACTORS
330
47
102
}
330
47
100
AcDbScale
 70
     0
300
100:1
140
100.0
141
1.0
290
     0
  0
SCALE
  5
59
102
{ACAD_REACTORS
330
47
102
}
330
47
100
AcDbScale
 70
     0
300
1/128" = 1'-0"
140
0.0078125
141
12.0
290
     0
  0
SCALE
  5
5A
102
{ACAD_REACTORS
330
47
102
}
330
47
100
AcDbScale
 70
     0
300
1/64" = 1'-0"
140
0.015625
141
12.0
290
     0
  0
SCALE
  5
5B
102
{ACAD_REACTORS
330
47
102
}
330
47
100
AcDbScale
 70
     0
300
1/32" = 1'-0"
140
0.03125
141
12.0
290
     0
  0
SCALE
  5
5C
102
{ACAD_REACTORS
330
47
102
}
330
47
100
AcDbScale
 70
     0
300
1/16" = 1'-0"
140
0.0625
141
12.0
290
     0
  0
SCALE
  5
5D
102
{ACAD_REACTORS
330
47
102
}
330
47
100
AcDbScale
 70
     0
300
3/32" = 1'-0"
140
0.09375
141
12.0
290
     0
  0
SCALE
  5
5E
102
{ACAD_REACTORS
330
47
102
}
330
47
100
AcDbScale
 70
     0
300
1/8" = 1'-0"
140
0.125
141
12.0
290
     0
  0
SCALE
  5
5F
102
{ACAD_REACTORS
330
47
102
}
330
47
100
AcDbScale
 70
     0
300
3/16" = 1'-0"
140
0.1875
141
12.0
290
     0
  0
SCALE
  5
60
102
{ACAD_REACTORS
330
47
102
}
330
47
100
AcDbScale
 70
     0
300
1/4" = 1'-0"
140
0.25
141
12.0
290
     0
  0
SCALE
  5
61
102
{ACAD_REACTORS
330
47
102
}
330
47
100
AcDbScale
 70
     0
300
3/8" = 1'-0"
140
0.375
141
12.0
290
     0
  0
SCALE
  5
62
102
{ACAD_REACTORS
330
47
102
}
330
47
100
AcDbScale
 70
     0
300
1/2" = 1'-0"
140
0.5
141
12.0
290
     0
  0
SCALE
  5
63
102
{ACAD_REACTORS
330
47
102
}
330
47
100
AcDbScale
 70
     0
300
3/4" = 1'-0"
140
0.75
141
12.0
290
     0
  0
SCALE
  5
64
102
{ACAD_REACTORS
330
47
102
}
330
47
100
AcDbScale
 70
     0
300
1" = 1'-0"
140
1.0
141
12.0
290
     0
  0
SCALE
  5
65
102
{ACAD_REACTORS
330
47
102
}
330
47
100
AcDbScale
 70
     0
300
1-1/2" = 1'-0"
140
1.5
141
12.0
290
     0
  0
SCALE
  5
66
102
{ACAD_REACTORS
330
47
102
}
330
47
100
AcDbScale
 70
     0
300
3" = 1'-0"
140
3.0
141
12.0
290
     0
  0
SCALE
  5
67
102
{ACAD_REACTORS
330
47
102
}
330
47
100
AcDbScale
 70
     0
300
6" = 1'-0"
140
6.0
141
12.0
290
     0
  0
SCALE
  5
68
102
{ACAD_REACTORS
330
47
102
}
330
47
100
AcDbScale
 70
     0
300
1'-0" = 1'-0"
140
12.0
141
12.0
290
     0
  0
ENDSEC
  0
EOF
