  0
SECTION
  2
HEADER
  9
$ACADVER
  1
AC1015
  9
$ACADMAINTVER
 70
     6
  9
$DWGCODEPAGE
  3
ANSI_1254
  9
$INSBASE
 10
0.0
 20
0.0
 30
0.0
  9
$EXTMIN
 10
0.0
 20
0.0
 30
0.0
  9
$EXTMAX
 10
420.0
 20
297.0
 30
0.0
  9
$LIMMIN
 10
0.0
 20
0.0
  9
$LIMMAX
 10
420.0
 20
297.0
  9
$ORTHOMODE
 70
     0
  9
$REGENMODE
 70
     1
  9
$FILLMODE
 70
     1
  9
$QTEXTMODE
 70
     0
  9
$MIRRTEXT
 70
     1
  9
$LTSCALE
 40
1.0
  9
$ATTMODE
 70
     1
  9
$TEXTSIZE
 40
4.9388888889
  9
$TRACEWID
 40
1.0
  9
$TEXTSTYLE
  7
Standard
  9
$CLAYER
  8
0
  9
$CELTYPE
  6
ByLayer
  9
$CECOLOR
 62
   256
  9
$CELTSCALE
 40
1.0
  9
$DISPSILH
 70
     0
  9
$DIMSCALE
 40
1.0
  9
$DIMASZ
 40
3.65
  9
$DIMEXO
 40
0.5
  9
$DIMDLI
 40
3.75
  9
$DIMRND
 40
0.0
  9
$DIMDLE
 40
0.0
  9
$DIMEXE
 40
1.0
  9
$DIMTP
 40
0.0
  9
$DIMTM
 40
0.0
  9
$DIMTXT
 40
4.2333333333
  9
$DIMCEN
 40
2.5
  9
$DIMTSZ
 40
0.0
  9
$DIMTOL
 70
     0
  9
$DIMLIM
 70
     0
  9
$DIMTIH
 70
     1
  9
$DIMTOH
 70
     1
  9
$DIMSE1
 70
     0
  9
$DIMSE2
 70
     0
  9
$DIMTAD
 70
     1
  9
$DIMZIN
 70
     0
  9
$DIMBLK
  1

  9
$DIMASO
 70
     1
  9
$DIMSHO
 70
     1
  9
$DIMPOST
  1

  9
$DIMAPOST
  1

  9
$DIMALT
 70
     0
  9
$DIMALTD
 70
     3
  9
$DIMALTF
 40
0.0393700787
  9
$DIMLFAC
 40
1.0
  9
$DIMTOFL
 70
     1
  9
$DIMTVP
 40
0.0
  9
$DIMTIX
 70
     0
  9
$DIMSOXD
 70
     0
  9
$DIMSAH
 70
     0
  9
$DIMBLK1
  1

  9
$DIMBLK2
  1

  9
$DIMSTYLE
  2
ISO-25
  9
$DIMCLRD
 70
     0
  9
$DIMCLRE
 70
     0
  9
$DIMCLRT
 70
     0
  9
$DIMTFAC
 40
1.0
  9
$DIMGAP
 40
1.524
  9
$DIMJUST
 70
     0
  9
$DIMSD1
 70
     0
  9
$DIMSD2
 70
     0
  9
$DIMTOLJ
 70
     0
  9
$DIMTZIN
 70
     0
  9
$DIMALTZ
 70
     0
  9
$DIMALTTZ
 70
     0
  9
$DIMUPT
 70
     0
  9
$DIMDEC
 70
     2
  9
$DIMTDEC
 70
     2
  9
$DIMALTU
 70
     2
  9
$DIMALTTD
 70
     3
  9
$DIMTXSTY
  7
Standard
  9
$DIMAUNIT
 70
     0
  9
$DIMADEC
 70
     2
  9
$DIMALTRND
 40
0.0
  9
$DIMAZIN
 70
     0
  9
$DIMDSEP
 70
    44
  9
$DIMATFIT
 70
     3
  9
$DIMFRAC
 70
     0
  9
$DIMLDRBLK
  1

  9
$DIMLUNIT
 70
     2
  9
$DIMLWD
 70
    -2
  9
$DIMLWE
 70
    -2
  9
$DIMTMOVE
 70
     0
  9
$LUNITS
 70
     2
  9
$LUPREC
 70
     2
  9
$SKETCHINC
 40
1.0
  9
$FILLETRAD
 40
0.0
  9
$AUNITS
 70
     0
  9
$AUPREC
 70
     2
  9
$MENU
  1
.
  9
$ELEVATION
 40
0.0
  9
$PELEVATION
 40
0.0
  9
$THICKNESS
 40
0.0
  9
$LIMCHECK
 70
     0
  9
$CHAMFERA
 40
0.0
  9
$CHAMFERB
 40
0.0
  9
$CHAMFERC
 40
0.0
  9
$CHAMFERD
 40
0.0
  9
$SKPOLY
 70
     0
  9
$TDCREATE
 40
2460801.485303056
  9
$TDUCREATE
 40
2460801.360303056
  9
$TDUPDATE
 40
2460801.485303565
  9
$TDUUPDATE
 40
2460801.360303565
  9
$TDINDWG
 40
0.0000000116
  9
$TDUSRTIMER
 40
0.0000000116
  9
$USRTIMER
 70
     1
  9
$ANGBASE
 50
0.0
  9
$ANGDIR
 70
     0
  9
$PDMODE
 70
     0
  9
$PDSIZE
 40
-1.0
  9
$PLINEWID
 40
0.0
  9
$SPLFRAME
 70
     0
  9
$SPLINETYPE
 70
     6
  9
$SPLINESEGS
 70
     8
  9
$HANDSEED
  5
3C3
  9
$SURFTAB1
 70
     6
  9
$SURFTAB2
 70
     6
  9
$SURFTYPE
 70
     6
  9
$SURFU
 70
     6
  9
$SURFV
 70
     6
  9
$UCSBASE
  2

  9
$UCSNAME
  2

  9
$UCSORG
 10
0.0
 20
0.0
 30
0.0
  9
$UCSXDIR
 10
1.0
 20
0.0
 30
0.0
  9
$UCSYDIR
 10
0.0
 20
1.0
 30
0.0
  9
$UCSORTHOREF
  2

  9
$UCSORTHOVIEW
 70
     0
  9
$UCSORGTOP
 10
0.0
 20
0.0
 30
0.0
  9
$UCSORGBOTTOM
 10
0.0
 20
0.0
 30
0.0
  9
$UCSORGLEFT
 10
0.0
 20
0.0
 30
0.0
  9
$UCSORGRIGHT
 10
0.0
 20
0.0
 30
0.0
  9
$UCSORGFRONT
 10
0.0
 20
0.0
 30
0.0
  9
$UCSORGBACK
 10
0.0
 20
0.0
 30
0.0
  9
$PUCSBASE
  2

  9
$PUCSNAME
  2

  9
$PUCSORG
 10
0.0
 20
0.0
 30
0.0
  9
$PUCSXDIR
 10
1.0
 20
0.0
 30
0.0
  9
$PUCSYDIR
 10
0.0
 20
1.0
 30
0.0
  9
$PUCSORTHOREF
  2

  9
$PUCSORTHOVIEW
 70
     0
  9
$PUCSORGTOP
 10
0.0
 20
0.0
 30
0.0
  9
$PUCSORGBOTTOM
 10
0.0
 20
0.0
 30
0.0
  9
$PUCSORGLEFT
 10
0.0
 20
0.0
 30
0.0
  9
$PUCSORGRIGHT
 10
0.0
 20
0.0
 30
0.0
  9
$PUCSORGFRONT
 10
0.0
 20
0.0
 30
0.0
  9
$PUCSORGBACK
 10
0.0
 20
0.0
 30
0.0
  9
$USERI1
 70
     0
  9
$USERI2
 70
     0
  9
$USERI3
 70
     0
  9
$USERI4
 70
     0
  9
$USERI5
 70
     0
  9
$USERR1
 40
0.0
  9
$USERR2
 40
0.0
  9
$USERR3
 40
0.0
  9
$USERR4
 40
0.0
  9
$USERR5
 40
0.0
  9
$WORLDVIEW
 70
     1
  9
$SHADEDGE
 70
     3
  9
$SHADEDIF
 70
    70
  9
$TILEMODE
 70
     1
  9
$MAXACTVP
 70
    64
  9
$PINSBASE
 10
0.0
 20
0.0
 30
0.0
  9
$PLIMCHECK
 70
     0
  9
$PEXTMIN
 10
1.0000000000E+20
 20
1.0000000000E+20
 30
1.0000000000E+20
  9
$PEXTMAX
 10
-1.0000000000E+20
 20
-1.0000000000E+20
 30
-1.0000000000E+20
  9
$PLIMMIN
 10
0.0
 20
0.0
  9
$PLIMMAX
 10
420.0
 20
297.0
  9
$UNITMODE
 70
     0
  9
$VISRETAIN
 70
     1
  9
$PLINEGEN
 70
     0
  9
$PSLTSCALE
 70
     1
  9
$TREEDEPTH
 70
  3020
  9
$CMLSTYLE
  2
Standard
  9
$CMLJUST
 70
     0
  9
$CMLSCALE
 40
20.0
  9
$PROXYGRAPHICS
 70
     1
  9
$MEASUREMENT
 70
     1
  9
$CELWEIGHT
370
    -1
  9
$ENDCAPS
280
     0
  9
$JOINSTYLE
280
     0
  9
$LWDISPLAY
290
     1
  9
$INSUNITS
 70
     4
  9
$HYPERLINKBASE
  1

  9
$STYLESHEET
  1

  9
$XEDIT
290
     1
  9
$CEPSNTYPE
380
     0
  9
$PSTYLEMODE
290
     1
  9
$FINGERPRINTGUID
  2
{0023cc87-edfd-4e12-9fe5-3449d1f7540a}
  9
$VERSIONGUID
  2
{FAEB1C32-E019-11D5-929B-00C0DF256EC4}
  9
$EXTNAMES
290
     1
  9
$PSVPSCALE
 40
0.0
  9
$OLESTARTUP
290
     0
  0
ENDSEC
  0
SECTION
  2
CLASSES
  0
CLASS
  1
ACDBDICTIONARYWDFLT
  2
AcDbDictionaryWithDefault
  3
ObjectDBX Classes
 90
        0
280
     0
281
     0
  0
CLASS
  1
VISUALSTYLE
  2
AcDbVisualStyle
  3
ObjectDBX Classes
 90
     4095
280
     0
281
     0
  0
CLASS
  1
MATERIAL
  2
AcDbMaterial
  3
ObjectDBX Classes
 90
     1153
280
     0
281
     0
  0
CLASS
  1
SCALE
  2
AcDbScale
  3
ObjectDBX Classes
 90
     1153
280
     0
281
     0
  0
CLASS
  1
TABLESTYLE
  2
AcDbTableStyle
  3
ObjectDBX Classes
 90
     4095
280
     0
281
     0
  0
CLASS
  1
MLEADERSTYLE
  2
AcDbMLeaderStyle
  3
ACDB_MLEADERSTYLE_CLASS
 90
     4095
280
     0
281
     0
  0
CLASS
  1
SUN
  2
AcDbSun
  3
SCENEOE
 90
     1153
280
     0
281
     0
  0
CLASS
  1
ACDBPLACEHOLDER
  2
AcDbPlaceHolder
  3
ObjectDBX Classes
 90
        0
280
     0
281
     0
  0
CLASS
  1
LAYOUT
  2
AcDbLayout
  3
ObjectDBX Classes
 90
        0
280
     0
281
     0
  0
ENDSEC
  0
SECTION
  2
TABLES
  0
TABLE
  2
VPORT
  5
8
330
0
100
AcDbSymbolTable
 70
     1
  0
VPORT
  5
29
330
8
100
AcDbSymbolTableRecord
100
AcDbViewportTableRecord
  2
*Active
 70
     0
 10
0.0
 20
0.0
 11
1.0
 21
1.0
 12
210.0
 22
148.5
 13
0.0
 23
0.0
 14
10.0
 24
10.0
 15
10.0
 25
10.0
 16
0.0
 26
0.0
 36
1.0
 17
0.0
 27
0.0
 37
0.0
 40
297.0
 41
1.4141414141
 42
50.0
 43
0.0
 44
0.0
 50
0.0
 51
0.0
 71
     0
 72
  2000
 73
     1
 74
     3
 75
     0
 76
     0
 77
     0
 78
     0
281
     0
 65
     1
110
0.0
120
0.0
130
0.0
111
1.0
121
0.0
131
0.0
112
0.0
122
1.0
132
0.0
 79
     0
146
0.0
  0
ENDTAB
  0
TABLE
  2
LTYPE
  5
5
330
0
100
AcDbSymbolTable
 70
     6
  0
LTYPE
  5
14
330
5
100
AcDbSymbolTableRecord
100
AcDbLinetypeTableRecord
  2
ByBlock
 70
     0
  3

 72
    65
 73
     0
 40
0.0
  0
LTYPE
  5
15
330
5
100
AcDbSymbolTableRecord
100
AcDbLinetypeTableRecord
  2
ByLayer
 70
     0
  3

 72
    65
 73
     0
 40
0.0
  0
LTYPE
  5
16
330
5
100
AcDbSymbolTableRecord
100
AcDbLinetypeTableRecord
  2
Continuous
 70
     0
  3
Solid line
 72
    65
 73
     0
 40
0.0
  0
LTYPE
  5
5E
330
5
100
AcDbSymbolTableRecord
100
AcDbLinetypeTableRecord
  2
HIDDEN
 70
     0
  3
Hidden __ __ __ __ __ __ __ __ __ __ __ __ __ __
 72
    65
 73
     2
 40
1.905
 49
1.27
 74
     0
 49
-0.635
 74
     0
  0
LTYPE
  5
5F
330
5
100
AcDbSymbolTableRecord
100
AcDbLinetypeTableRecord
  2
PHANTOM
 70
     0
  3
Phantom ______  __  __  ______  __  __  ______
 72
    65
 73
     6
 40
12.7
 49
6.35
 74
     0
 49
-1.27
 74
     0
 49
1.27
 74
     0
 49
-1.27
 74
     0
 49
1.27
 74
     0
 49
-1.27
 74
     0
  0
LTYPE
  5
60
330
5
100
AcDbSymbolTableRecord
100
AcDbLinetypeTableRecord
  2
CENTER
 70
     0
  3
Center ____ _ ____ _ ____ _ ____ _ ____ _ ____
 72
    65
 73
     4
 40
10.16
 49
6.35
 74
     0
 49
-1.27
 74
     0
 49
1.27
 74
     0
 49
-1.27
 74
     0
  0
LTYPE
  5
61
330
5
100
AcDbSymbolTableRecord
100
AcDbLinetypeTableRecord
  2
CENTERX2
 70
     0
  3
Center (2x) ________  __  ________  __  _____
 72
    65
 73
     4
 40
20.32
 49
12.7
 74
     0
 49
-2.54
 74
     0
 49
2.54
 74
     0
 49
-2.54
 74
     0
  0
LTYPE
  5
62
330
5
100
AcDbSymbolTableRecord
100
AcDbLinetypeTableRecord
  2
DOT2
 70
     0
  3
Dot (.5x) ........................................
 72
    65
 73
     2
 40
0.635
 49
0.0
 74
     0
 49
-0.635
 74
     0
  0
ENDTAB
  0
TABLE
  2
LAYER
  5
2
330
0
100
AcDbSymbolTable
 70
     5
  0
LAYER
  5
10
330
2
100
AcDbSymbolTableRecord
100
AcDbLayerTableRecord
  2
0
 70
     0
 62
     7
  6
Continuous
370
    -3
390
F
  0
LAYER
  5
63
330
2
100
AcDbSymbolTableRecord
100
AcDbLayerTableRecord
  2
FORMAT
 70
     0
 62
     7
  6
Continuous
370
    -3
390
F
  0
LAYER
  5
64
330
2
100
AcDbSymbolTableRecord
100
AcDbLayerTableRecord
  2
SLD-0
 70
     0
 62
   179
  6
Continuous
370
    -3
390
F
  0
LAYER
  5
65
330
2
100
AcDbSymbolTableRecord
100
AcDbLayerTableRecord
  2
AAA_EKSEN
 70
     0
 62
     1
  6
CENTER
370
    -3
390
F
  0
LAYER
  5
66
330
2
100
AcDbSymbolTableRecord
100
AcDbLayerTableRecord
  2
03
 70
     0
 62
     3
  6
HIDDEN
370
    -3
390
F
  0
ENDTAB
  0
TABLE
  2
STYLE
  5
3
330
0
100
AcDbSymbolTable
 70
     1
  0
STYLE
  5
11
330
3
100
AcDbSymbolTableRecord
100
AcDbTextStyleTableRecord
  2
Standard
 70
     0
 40
0.0
 41
1.0
 50
0.0
 71
     0
 42
4.9388888889
  3
txt
  4

  0
ENDTAB
  0
TABLE
  2
VIEW
  5
6
330
0
100
AcDbSymbolTable
 70
     0
  0
ENDTAB
  0
TABLE
  2
UCS
  5
7
330
0
100
AcDbSymbolTable
 70
     0
  0
ENDTAB
  0
TABLE
  2
APPID
  5
9
330
0
100
AcDbSymbolTable
 70
     1
  0
APPID
  5
12
330
9
100
AcDbSymbolTableRecord
100
AcDbRegAppTableRecord
  2
ACAD
 70
     0
  0
ENDTAB
  0
TABLE
  2
DIMSTYLE
  5
A
330
0
100
AcDbSymbolTable
 70
     1
100
AcDbDimStyleTable
  0
DIMSTYLE
105
27
330
A
100
AcDbSymbolTableRecord
100
AcDbDimStyleTableRecord
  2
ISO-25
 70
     0
 41
2.5
 42
0.625
 43
3.75
 44
1.25
 73
     0
 74
     0
 77
     1
 78
     8
140
2.5
141
2.5
143
0.0393700787
147
0.625
171
     3
172
     1
178
     0
271
     2
272
     2
274
     3
278
    44
283
     0
284
     8
340
11
  0
ENDTAB
  0
TABLE
  2
BLOCK_RECORD
  5
1
330
0
100
AcDbSymbolTable
 70
     1
  0
BLOCK_RECORD
  5
1F
330
1
100
AcDbSymbolTableRecord
100
AcDbBlockTableRecord
  2
*Model_Space
340
22
  0
BLOCK_RECORD
  5
1B
330
1
100
AcDbSymbolTableRecord
100
AcDbBlockTableRecord
  2
*Paper_Space
340
1E
  0
BLOCK_RECORD
  5
23
330
1
100
AcDbSymbolTableRecord
100
AcDbBlockTableRecord
  2
*Paper_Space0
340
26
  0
ENDTAB
  0
ENDSEC
  0
SECTION
  2
BLOCKS
  0
BLOCK
  5
20
330
1F
100
AcDbEntity
  8
0
100
AcDbBlockBegin
  2
*Model_Space
 70
     0
 10
0.0
 20
0.0
 30
0.0
  3
*Model_Space
  1

  0
ENDBLK
  5
21
330
1F
100
AcDbEntity
  8
0
100
AcDbBlockEnd
  0
BLOCK
  5
1C
330
1B
100
AcDbEntity
 67
     1
  8
0
100
AcDbBlockBegin
  2
*Paper_Space
 70
     0
 10
0.0
 20
0.0
 30
0.0
  3
*Paper_Space
  1

  0
ENDBLK
  5
1D
330
1B
100
AcDbEntity
 67
     1
  8
0
100
AcDbBlockEnd
  0
BLOCK
  5
24
330
23
100
AcDbEntity
  8
0
100
AcDbBlockBegin
  2
*Paper_Space0
 70
     0
 10
0.0
 20
0.0
 30
0.0
  3
*Paper_Space0
  1

  0
ENDBLK
  5
25
330
23
100
AcDbEntity
  8
0
100
AcDbBlockEnd
  0
ENDSEC
  0
SECTION
  2
ENTITIES
  0
LINE
  5
67
330
1F
100
AcDbEntity
  8
0
  6
Continuous
 62
     7
370
    25
100
AcDbLine
 10
261.794142793
 20
155.0171620329
 30
0.0
 11
260.794142793
 21
155.0171620329
 31
0.0
  0
LINE
  5
68
330
1F
100
AcDbEntity
  8
0
  6
Continuous
 62
     7
370
    25
100
AcDbLine
 10
265.394142793
 20
154.9671620329
 30
0.0
 11
261.794142793
 21
154.9671620329
 31
0.0
  0
LINE
  5
69
330
1F
100
AcDbEntity
  8
0
  6
Continuous
 62
     7
370
    25
100
AcDbLine
 10
275.194142793
 20
153.1171620329
 30
0.0
 11
265.394142793
 21
153.1171620329
 31
0.0
  0
LINE
  5
6A
330
1F
100
AcDbEntity
  8
0
  6
Continuous
 62
     7
370
    25
100
AcDbLine
 10
81.794142793
 20
155.0171620329
 30
0.0
 11
80.794142793
 21
155.0171620329
 31
0.0
  0
LINE
  5
6B
330
1F
100
AcDbEntity
  8
0
  6
Continuous
 62
     7
370
    25
100
AcDbLine
 10
80.794142793
 20
154.9671620329
 30
0.0
 11
77.194142793
 21
154.9671620329
 31
0.0
  0
LINE
  5
6C
330
1F
100
AcDbEntity
  8
0
  6
Continuous
 62
     7
370
    25
100
AcDbLine
 10
77.194142793
 20
153.1171620329
 30
0.0
 11
67.394142793
 21
153.1171620329
 31
0.0
  0
LINE
  5
6D
330
1F
100
AcDbEntity
  8
0
  6
Continuous
 62
     7
370
    25
100
AcDbLine
 10
58.4346544459
 20
132.9171620329
 30
0.0
 11
61.794142793
 21
132.9171620329
 31
0.0
  0
LINE
  5
6E
330
1F
100
AcDbEntity
  8
0
  6
Continuous
 62
     7
370
    25
100
AcDbLine
 10
66.9346544459
 20
153.1171620329
 30
0.0
 11
58.4346544458
 21
153.1171620329
 31
0.0
  0
ARC
  5
6F
330
1F
100
AcDbEntity
  8
0
  6
Continuous
 62
     7
370
    25
100
AcDbCircle
 10
58.4346544459
 20
133.9171620329
 30
0.0
 40
1.0
100
AcDbArc
 50
180.0
 51
270.0
  0
ARC
  5
70
330
1F
100
AcDbEntity
  8
0
  6
Continuous
 62
     7
370
    25
100
AcDbCircle
 10
58.4346544459
 20
152.1171620329
 30
0.0
 40
1.0
100
AcDbArc
 50
90.0
 51
180.0
  0
LINE
  5
71
330
1F
100
AcDbEntity
  8
0
  6
Continuous
 62
     7
370
    25
100
AcDbLine
 10
67.394142793
 20
152.7171620329
 30
0.0
 11
66.9346544459
 21
152.7171620329
 31
0.0
  0
ARC
  5
72
330
1F
100
AcDbEntity
  8
0
  6
Continuous
 62
     7
370
    25
100
AcDbCircle
 10
50.9346544459
 20
142.7171620329
 30
0.0
 40
1.0
100
AcDbArc
 50
197.4576031237
 51
270.0
  0
ARC
  5
73
330
1F
100
AcDbEntity
  8
0
  6
Continuous
 62
     7
370
    25
100
AcDbCircle
 10
50.9346544459
 20
143.3171620329
 30
0.0
 40
1.0
100
AcDbArc
 50
90.0
 51
162.5423968763
  0
LINE
  5
74
330
1F
100
AcDbEntity
  8
0
  6
Continuous
 62
     7
370
    25
100
AcDbLine
 10
50.9346544459
 20
142.0171620329
 30
0.0
 11
51.9346544459
 21
142.0171620329
 31
0.0
  0
LINE
  5
75
330
1F
100
AcDbEntity
  8
0
  6
Continuous
 62
     7
370
    25
100
AcDbLine
 10
51.9346544459
 20
144.0171620329
 30
0.0
 11
50.9346544459
 21
144.0171620329
 31
0.0
  0
LINE
  5
76
330
1F
100
AcDbEntity
  8
0
  6
Continuous
 62
     7
370
    25
100
AcDbLine
 10
284.1536311401
 20
153.117162033
 30
0.0
 11
275.6536311401
 21
153.1171620329
 31
0.0
  0
LINE
  5
77
330
1F
100
AcDbEntity
  8
0
  6
Continuous
 62
     7
370
    25
100
AcDbLine
 10
280.794142793
 20
132.9171620329
 30
0.0
 11
284.1536311402
 21
132.9171620329
 31
0.0
  0
ARC
  5
78
330
1F
100
AcDbEntity
  8
0
  6
Continuous
 62
     7
370
    25
100
AcDbCircle
 10
284.1536311401
 20
152.1171620329
 30
0.0
 40
1.0
100
AcDbArc
 50
360.0
 51
90.0
  0
ARC
  5
79
330
1F
100
AcDbEntity
  8
0
  6
Continuous
 62
     7
370
    25
100
AcDbCircle
 10
284.1536311401
 20
133.9171620329
 30
0.0
 40
1.0
100
AcDbArc
 50
270.0
 51
0.0
  0
LINE
  5
7A
330
1F
100
AcDbEntity
  8
0
  6
Continuous
 62
     7
370
    25
100
AcDbLine
 10
275.6536311401
 20
152.7171620329
 30
0.0
 11
275.194142793
 21
152.7171620329
 31
0.0
  0
ARC
  5
7B
330
1F
100
AcDbEntity
  8
0
  6
Continuous
 62
     7
370
    25
100
AcDbCircle
 10
291.6536311401
 20
143.3171620329
 30
0.0
 40
1.000000000000029
100
AcDbArc
 50
17.4576031237
 51
90.0
  0
ARC
  5
7C
330
1F
100
AcDbEntity
  8
0
  6
Continuous
 62
     7
370
    25
100
AcDbCircle
 10
291.6536311401
 20
142.7171620329
 30
0.0
 40
1.00000000000002
100
AcDbArc
 50
270.0
 51
342.5423968763
  0
LINE
  5
7D
330
1F
100
AcDbEntity
  8
0
  6
Continuous
 62
     7
370
    25
100
AcDbLine
 10
291.6536311401
 20
144.0171620329
 30
0.0
 11
290.6536311401
 21
144.0171620329
 31
0.0
  0
LINE
  5
7E
330
1F
100
AcDbEntity
  8
0
  6
Continuous
 62
     7
370
    25
100
AcDbLine
 10
290.6536311401
 20
142.0171620329
 30
0.0
 11
291.6536311401
 21
142.0171620329
 31
0.0
  0
LINE
  5
7F
330
1F
100
AcDbEntity
  8
0
  6
Continuous
 62
     7
370
    25
100
AcDbLine
 10
280.794142793
 20
137.0171620329
 30
0.0
 11
270.494142793
 21
137.0171620329
 31
0.0
  0
ARC
  5
80
330
1F
100
AcDbEntity
  8
0
  6
Continuous
 62
     7
370
    25
100
AcDbCircle
 10
270.494142793
 20
137.2171620329
 30
0.0
 40
0.1999999999999886
100
AcDbArc
 50
180.0
 51
270.0
  0
ARC
  5
81
330
1F
100
AcDbEntity
  8
0
  6
Continuous
 62
     7
370
    25
100
AcDbCircle
 10
270.094142793
 20
141.3171620329
 30
0.0
 40
0.2000000000000455
100
AcDbArc
 50
0.0
 51
90.0
  0
LINE
  5
82
330
1F
100
AcDbEntity
  8
0
  6
Continuous
 62
     7
370
    25
100
AcDbLine
 10
270.094142793
 20
141.5171620329
 30
0.0
 11
260.794142793
 21
141.5171620329
 31
0.0
  0
LINE
  5
83
330
1F
100
AcDbEntity
  8
0
  6
Continuous
 62
     7
370
    25
100
AcDbLine
 10
72.094142793
 20
137.0171620329
 30
0.0
 11
61.794142793
 21
137.0171620329
 31
0.0
  0
ARC
  5
84
330
1F
100
AcDbEntity
  8
0
  6
Continuous
 62
     7
370
    25
100
AcDbCircle
 10
72.094142793
 20
137.2171620329
 30
0.0
 40
0.1999999999999886
100
AcDbArc
 50
270.0
 51
0.0
  0
ARC
  5
85
330
1F
100
AcDbEntity
  8
0
  6
Continuous
 62
     7
370
    25
100
AcDbCircle
 10
72.494142793
 20
141.3171620329
 30
0.0
 40
0.1999999999999886
100
AcDbArc
 50
90.0
 51
180.0
  0
LINE
  5
86
330
1F
100
AcDbEntity
  8
0
  6
Continuous
 62
     7
370
    25
100
AcDbLine
 10
81.794142793
 20
141.5171620329
 30
0.0
 11
72.494142793
 21
141.5171620329
 31
0.0
  0
LINE
  5
87
330
1F
100
AcDbEntity
  8
0
  6
Continuous
 62
     7
370
    25
100
AcDbLine
 10
256.794142793
 20
125.0171620329
 30
0.0
 11
85.794142793
 21
125.0171620329
 31
0.0
  0
LINE
  5
88
330
1F
100
AcDbEntity
  8
0
  6
Continuous
 62
     7
370
    25
100
AcDbLine
 10
85.794142793
 20
125.0171620329
 30
0.0
 11
85.794142793
 21
136.4124724966
 31
0.0
  0
LINE
  5
89
330
1F
100
AcDbEntity
  8
0
  6
Continuous
 62
     7
370
    25
100
AcDbLine
 10
256.794142793
 20
136.4124724966
 30
0.0
 11
85.794142793
 21
136.4124724966
 31
0.0
  0
LINE
  5
8A
330
1F
100
AcDbEntity
  8
0
  6
Continuous
 62
     7
370
    25
100
AcDbLine
 10
256.794142793
 20
136.4124724966
 30
0.0
 11
256.794142793
 21
125.0171620329
 31
0.0
  0
LINE
  5
8B
330
1F
100
AcDbEntity
  8
0
  6
Continuous
 62
     7
370
    25
100
AcDbLine
 10
85.794142793
 20
138.2109093179
 30
0.0
 11
256.794142793
 21
138.2109093179
 31
0.0
  0
LINE
  5
8C
330
1F
100
AcDbEntity
  8
0
  6
Continuous
 62
     7
370
    25
100
AcDbLine
 10
85.794142793
 20
136.4124724966
 30
0.0
 11
85.794142793
 21
138.2109093179
 31
0.0
  0
LINE
  5
8D
330
1F
100
AcDbEntity
  8
0
  6
Continuous
 62
     7
370
    25
100
AcDbLine
 10
256.794142793
 20
138.2109093179
 30
0.0
 11
256.794142793
 21
136.4124724966
 31
0.0
  0
LINE
  5
8E
330
1F
100
AcDbEntity
  8
0
  6
Continuous
 62
     7
370
    25
100
AcDbLine
 10
256.794142793
 20
160.5171620329
 30
0.0
 11
85.794142793
 21
160.5171620329
 31
0.0
  0
LINE
  5
8F
330
1F
100
AcDbEntity
  8
0
  6
Continuous
 62
     7
370
    25
100
AcDbLine
 10
85.794142793
 20
138.2109093179
 30
0.0
 11
85.794142793
 21
160.5171620329
 31
0.0
  0
LINE
  5
90
330
1F
100
AcDbEntity
  8
0
  6
Continuous
 62
     7
370
    25
100
AcDbLine
 10
256.794142793
 20
138.2109093179
 30
0.0
 11
256.794142793
 21
160.5171620329
 31
0.0
  0
LINE
  5
91
330
1F
100
AcDbEntity
  8
0
  6
Continuous
 62
     7
370
    25
100
AcDbLine
 10
85.794142793
 20
160.5171620329
 30
0.0
 11
85.794142793
 21
161.0171620329
 31
0.0
  0
LINE
  5
92
330
1F
100
AcDbEntity
  8
0
  6
Continuous
 62
     7
370
    25
100
AcDbLine
 10
256.794142793
 20
161.0171620329
 30
0.0
 11
256.794142793
 21
160.5171620329
 31
0.0
  0
LINE
  5
93
330
1F
100
AcDbEntity
  8
0
  6
Continuous
 62
     7
370
    25
100
AcDbLine
 10
25.794142793
 20
178.4171620329
 30
0.0
 11
316.794142793
 21
178.4171620329
 31
0.0
  0
LINE
  5
94
330
1F
100
AcDbEntity
  8
0
  6
Continuous
 62
     7
370
    25
100
AcDbLine
 10
316.794142793
 20
178.1171620329
 30
0.0
 11
25.794142793
 21
178.1171620329
 31
0.0
  0
LINE
  5
95
330
1F
100
AcDbEntity
  8
0
  6
Continuous
 62
     7
370
    25
100
AcDbLine
 10
25.794142793
 20
178.1171620329
 30
0.0
 11
25.794142793
 21
178.4171620329
 31
0.0
  0
LINE
  5
96
330
1F
100
AcDbEntity
  8
0
  6
Continuous
 62
     7
370
    25
100
AcDbLine
 10
316.794142793
 20
178.4171620329
 30
0.0
 11
316.794142793
 21
178.1171620329
 31
0.0
  0
LINE
  5
97
330
1F
100
AcDbEntity
  8
0
  6
Continuous
 62
     7
370
    25
100
AcDbLine
 10
25.794142793
 20
175.6171620329
 30
0.0
 11
316.794142793
 21
175.6171620329
 31
0.0
  0
LINE
  5
98
330
1F
100
AcDbEntity
  8
0
  6
Continuous
 62
     7
370
    25
100
AcDbLine
 10
316.794142793
 20
175.3171620329
 30
0.0
 11
25.794142793
 21
175.3171620329
 31
0.0
  0
LINE
  5
99
330
1F
100
AcDbEntity
  8
0
  6
Continuous
 62
     7
370
    25
100
AcDbLine
 10
25.794142793
 20
175.3171620329
 30
0.0
 11
25.794142793
 21
175.6171620329
 31
0.0
  0
LINE
  5
9A
330
1F
100
AcDbEntity
  8
0
  6
Continuous
 62
     7
370
    25
100
AcDbLine
 10
316.794142793
 20
175.6171620329
 30
0.0
 11
316.794142793
 21
175.3171620329
 31
0.0
  0
LINE
  5
9B
330
1F
100
AcDbEntity
  8
0
  6
Continuous
 62
     7
370
    25
100
AcDbLine
 10
316.794142793
 20
186.0171620329
 30
0.0
 11
25.794142793
 21
186.0171620329
 31
0.0
  0
LINE
  5
9C
330
1F
100
AcDbEntity
  8
0
  6
Continuous
 62
     7
370
    25
100
AcDbLine
 10
25.794142793
 20
186.0171620329
 30
0.0
 11
25.794142793
 21
186.3171620329
 31
0.0
  0
LINE
  5
9D
330
1F
100
AcDbEntity
  8
0
  6
Continuous
 62
     7
370
    25
100
AcDbLine
 10
25.794142793
 20
186.3171620329
 30
0.0
 11
316.794142793
 21
186.3171620329
 31
0.0
  0
LINE
  5
9E
330
1F
100
AcDbEntity
  8
0
  6
Continuous
 62
     7
370
    25
100
AcDbLine
 10
316.794142793
 20
186.3171620329
 30
0.0
 11
316.794142793
 21
186.0171620329
 31
0.0
  0
LINE
  5
9F
330
1F
100
AcDbEntity
  8
0
  6
Continuous
 62
     7
370
    25
100
AcDbLine
 10
25.794142793
 20
178.4171620329
 30
0.0
 11
25.794142793
 21
186.0171620329
 31
0.0
  0
LINE
  5
A0
330
1F
100
AcDbEntity
  8
0
  6
Continuous
 62
     7
370
    25
100
AcDbLine
 10
316.794142793
 20
178.4171620329
 30
0.0
 11
316.794142793
 21
186.0171620329
 31
0.0
  0
LINE
  5
A1
330
1F
100
AcDbEntity
  8
0
  6
Continuous
 62
     7
370
    25
100
AcDbLine
 10
25.794142793
 20
161.3171620329
 30
0.0
 11
316.794142793
 21
161.3171620329
 31
0.0
  0
LINE
  5
A2
330
1F
100
AcDbEntity
  8
0
  6
Continuous
 62
     7
370
    25
100
AcDbLine
 10
25.794142793
 20
161.3171620329
 30
0.0
 11
25.794142793
 21
175.3171620329
 31
0.0
  0
LINE
  5
A3
330
1F
100
AcDbEntity
  8
0
  6
Continuous
 62
     7
370
    25
100
AcDbLine
 10
316.794142793
 20
161.3171620329
 30
0.0
 11
316.794142793
 21
175.3171620329
 31
0.0
  0
LINE
  5
A4
330
1F
100
AcDbEntity
  8
0
  6
Continuous
 62
     7
370
    25
100
AcDbLine
 10
316.794142793
 20
161.0171620329
 30
0.0
 11
25.794142793
 21
161.0171620329
 31
0.0
  0
LINE
  5
A5
330
1F
100
AcDbEntity
  8
0
  6
Continuous
 62
     7
370
    25
100
AcDbLine
 10
25.794142793
 20
161.0171620329
 30
0.0
 11
25.794142793
 21
161.3171620329
 31
0.0
  0
LINE
  5
A6
330
1F
100
AcDbEntity
  8
0
  6
Continuous
 62
     7
370
    25
100
AcDbLine
 10
316.794142793
 20
161.3171620329
 30
0.0
 11
316.794142793
 21
161.0171620329
 31
0.0
  0
LINE
  5
A7
330
1F
100
AcDbEntity
  8
0
  6
Continuous
 62
     7
370
    25
100
AcDbLine
 10
316.794142793
 20
177.8171620329
 30
0.0
 11
25.794142793
 21
177.8171620329
 31
0.0
  0
LINE
  5
A8
330
1F
100
AcDbEntity
  8
0
  6
Continuous
 62
     7
370
    25
100
AcDbLine
 10
25.794142793
 20
177.8171620329
 30
0.0
 11
25.794142793
 21
178.1171620329
 31
0.0
  0
LINE
  5
A9
330
1F
100
AcDbEntity
  8
0
  6
Continuous
 62
     7
370
    25
100
AcDbLine
 10
316.794142793
 20
178.1171620329
 30
0.0
 11
316.794142793
 21
177.8171620329
 31
0.0
  0
LINE
  5
AA
330
1F
100
AcDbEntity
  8
0
  6
Continuous
 62
     7
370
    25
100
AcDbLine
 10
25.794142793
 20
175.9171620329
 30
0.0
 11
316.794142793
 21
175.9171620329
 31
0.0
  0
LINE
  5
AB
330
1F
100
AcDbEntity
  8
0
  6
Continuous
 62
     7
370
    25
100
AcDbLine
 10
25.794142793
 20
175.6171620329
 30
0.0
 11
25.794142793
 21
175.9171620329
 31
0.0
  0
LINE
  5
AC
330
1F
100
AcDbEntity
  8
0
  6
Continuous
 62
     7
370
    25
100
AcDbLine
 10
316.794142793
 20
175.9171620329
 30
0.0
 11
316.794142793
 21
175.6171620329
 31
0.0
  0
LINE
  5
AD
330
1F
100
AcDbEntity
  8
0
  6
Continuous
 62
     7
370
    25
100
AcDbLine
 10
25.794142793
 20
175.9171620329
 30
0.0
 11
25.794142793
 21
177.8171620329
 31
0.0
  0
LINE
  5
AE
330
1F
100
AcDbEntity
  8
0
  6
Continuous
 62
     7
370
    25
100
AcDbLine
 10
316.794142793
 20
175.9171620329
 30
0.0
 11
316.794142793
 21
177.8171620329
 31
0.0
  0
LINE
  5
AF
330
1F
100
AcDbEntity
  8
0
  6
Continuous
 62
     7
370
    25
100
AcDbLine
 10
260.794142793
 20
138.0753682693
 30
0.0
 11
260.794142793
 21
138.1050100614
 31
0.0
  0
LINE
  5
B0
330
1F
100
AcDbEntity
  8
0
  6
Continuous
 62
     7
370
    25
100
AcDbLine
 10
81.794142793
 20
138.1050100614
 30
0.0
 11
81.794142793
 21
138.0753682693
 31
0.0
  0
SPLINE
  5
B1
330
1F
100
AcDbEntity
  8
0
  6
Continuous
 62
     7
370
    25
100
AcDbSpline
210
0.0
220
0.0
230
1.0
 70
    24
 71
     3
 72
    16
 73
    12
 74
     0
 42
0.00000001
 43
0.00000001
 40
0.0
 40
0.0
 40
0.0
 40
0.0
 40
0.0967080945531894
 40
0.2108577972631077
 40
0.3169046858745156
 40
0.4151542896806173
 40
0.5183152283053537
 40
0.6298823076597874
 40
0.7487066608393053
 40
0.8729144394166881
 40
1.0
 40
1.0
 40
1.0
 40
1.0
 10
261.7941427930046
 20
141.5171620329101
 30
0.0
 10
261.7941427930045
 20
142.170884236306
 30
0.0
 10
261.7941427930045
 20
143.5962294927388
 30
0.0
 10
261.7941427930045
 20
145.7410816524072
 30
0.0
 10
261.7941427930048
 20
147.7975878679442
 30
0.0
 10
261.7941427930048
 20
149.6390219558191
 30
0.0
 10
261.7941427930047
 20
151.3142697230049
 30
0.0
 10
261.7941427930043
 20
152.8197639750649
 30
0.0
 10
261.7941427930048
 20
154.0290801804503
 30
0.0
 10
261.7941427930044
 20
154.8569252911355
 30
0.0
 10
261.7941427930045
 20
154.9633435558008
 30
0.0
 10
261.7941427930046
 20
155.01716203291
 30
0.0
  0
SPLINE
  5
B2
330
1F
100
AcDbEntity
  8
0
  6
Continuous
 62
     7
370
    25
100
AcDbSpline
210
0.0
220
0.0
230
1.0
 70
    24
 71
     3
 72
    16
 73
    12
 74
     0
 42
0.00000001
 43
0.00000001
 40
0.0
 40
0.0
 40
0.0
 40
0.0
 40
0.1270462489395416
 40
0.25121560606355
 40
0.3700032030559935
 40
0.4815357711311283
 40
0.5846647987657563
 40
0.68288401081528
 40
0.7888980957196021
 40
0.9030124882619087
 40
1.0
 40
1.0
 40
1.0
 40
1.0
 10
265.3941427930047
 20
154.9671620329099
 30
0.0
 10
265.3941427930044
 20
154.9135677994261
 30
0.0
 10
265.3941427930042
 20
154.807592944139
 30
0.0
 10
265.3941427930051
 20
153.9831971885017
 30
0.0
 10
265.3941427930041
 20
152.778919799147
 30
0.0
 10
265.3941427930047
 20
151.279698444874
 30
0.0
 10
265.3941427930043
 20
149.6114308596679
 30
0.0
 10
265.3941427930043
 20
147.7776694750865
 30
0.0
 10
265.3941427930049
 20
145.7297317850461
 30
0.0
 10
265.3941427930047
 20
143.5917319550256
 30
0.0
 10
265.3941427930046
 20
142.1702431327834
 30
0.0
 10
265.3941427930047
 20
141.5171620329101
 30
0.0
  0
SPLINE
  5
B3
330
1F
100
AcDbEntity
  8
0
  6
Continuous
 62
     7
370
    25
100
AcDbSpline
210
0.0
220
0.0
230
1.0
 70
    24
 71
     3
 72
    18
 73
    14
 74
     0
 42
0.00000001
 43
0.00000001
 40
0.0
 40
0.0
 40
0.0
 40
0.0
 40
0.019578794564103
 40
0.1174317200607256
 40
0.213792518633286
 40
0.3066137611196857
 40
0.4220189373710593
 40
0.526043757478132
 40
0.6300685775852022
 40
0.7157515195952805
 40
0.8070080105044071
 40
0.9023989443769052
 40
1.0
 40
1.0
 40
1.0
 40
1.0
 10
275.1941427930047
 20
137.0171620329101
 30
0.0
 10
275.1941427930047
 20
137.1266760750217
 30
0.0
 10
275.1941427930046
 20
137.7835307293704
 30
0.0
 10
275.1941427930049
 20
139.2520135103883
 30
0.0
 10
275.1941427930046
 20
141.300368101626
 30
0.0
 10
275.1941427930046
 20
143.5775679753417
 30
0.0
 10
275.1941427930048
 20
145.8886796402527
 30
0.0
 10
275.1941427930046
 20
148.11183692521
 30
0.0
 10
275.1941427930047
 20
149.8784134762404
 30
0.0
 10
275.1941427930045
 20
151.2675499663767
 30
0.0
 10
275.1941427930049
 20
152.2855653731785
 30
0.0
 10
275.1941427930047
 20
152.9822859371612
 30
0.0
 10
275.1941427930046
 20
153.071861398416
 30
0.0
 10
275.1941427930047
 20
153.11716203291
 30
0.0
  0
SPLINE
  5
B4
330
1F
100
AcDbEntity
  8
0
  6
Continuous
 62
     7
370
    25
100
AcDbSpline
210
0.0
220
0.0
230
1.0
 70
    24
 71
     3
 72
    16
 73
    12
 74
     0
 42
0.00000001
 43
0.00000001
 40
0.0
 40
0.0
 40
0.0
 40
0.0
 40
0.1270855605832998
 40
0.2512933391606882
 40
0.3701176923402107
 40
0.4816847716946485
 40
0.5848457103193883
 40
0.6830953141254935
 40
0.7891422027369058
 40
0.9032919054468285
 40
1.0
 40
1.0
 40
1.0
 40
1.0
 10
80.79414279300465
 20
155.0171620329099
 30
0.0
 10
80.79414279300487
 20
154.9633435558007
 30
0.0
 10
80.79414279300465
 20
154.8569252911353
 30
0.0
 10
80.79414279300443
 20
154.02908018045
 30
0.0
 10
80.79414279300487
 20
152.8197639750646
 30
0.0
 10
80.79414279300465
 20
151.3142697230045
 30
0.0
 10
80.79414279300443
 20
149.6390219558187
 30
0.0
 10
80.79414279300487
 20
147.7975878679437
 30
0.0
 10
80.79414279300443
 20
145.7410816524067
 30
0.0
 10
80.79414279300465
 20
143.5962294927384
 30
0.0
 10
80.79414279300465
 20
142.1708842363058
 30
0.0
 10
80.79414279300443
 20
141.5171620329101
 30
0.0
  0
SPLINE
  5
B5
330
1F
100
AcDbEntity
  8
0
  6
Continuous
 62
     7
370
    25
100
AcDbSpline
210
0.0
220
0.0
230
1.0
 70
    24
 71
     3
 72
    16
 73
    12
 74
     0
 42
0.00000001
 43
0.00000001
 40
0.0
 40
0.0
 40
0.0
 40
0.0
 40
0.0969875117380877
 40
0.211101904280389
 40
0.3171159891847063
 40
0.4153352012342258
 40
0.5184642288688506
 40
0.629996796943982
 40
0.7487843939364218
 40
0.8729537510604263
 40
1.0
 40
1.0
 40
1.0
 40
1.0
 10
77.1941427930046
 20
141.5171620329101
 30
0.0
 10
77.1941427930046
 20
142.1702431327834
 30
0.0
 10
77.1941427930046
 20
143.5917319550256
 30
0.0
 10
77.1941427930046
 20
145.7297317850461
 30
0.0
 10
77.1941427930046
 20
147.7776694750865
 30
0.0
 10
77.19414279300437
 20
149.6114308596679
 30
0.0
 10
77.1941427930046
 20
151.2796984448739
 30
0.0
 10
77.1941427930046
 20
152.778919799147
 30
0.0
 10
77.19414279300437
 20
153.9831971885017
 30
0.0
 10
77.19414279300481
 20
154.807592944139
 30
0.0
 10
77.1941427930046
 20
154.9135677994262
 30
0.0
 10
77.1941427930046
 20
154.96716203291
 30
0.0
  0
SPLINE
  5
B6
330
1F
100
AcDbEntity
  8
0
  6
Continuous
 62
     7
370
    25
100
AcDbSpline
210
0.0
220
0.0
230
1.0
 70
    24
 71
     3
 72
    18
 73
    14
 74
     0
 42
0.00000001
 43
0.00000001
 40
0.0
 40
0.0
 40
0.0
 40
0.0
 40
0.0976010556230871
 40
0.1929919894955794
 40
0.2842484804047015
 40
0.3699314224147769
 40
0.4739562425218445
 40
0.5779810626289102
 40
0.6933862388802786
 40
0.7862074813666753
 40
0.8825682799392339
 40
0.9804212054358546
 40
1.0
 40
1.0
 40
1.0
 40
1.0
 10
67.39414279300479
 20
153.11716203291
 30
0.0
 10
67.39414279300479
 20
153.0718613984162
 30
0.0
 10
67.39414279300479
 20
152.9822859371617
 30
0.0
 10
67.39414279300456
 20
152.2855653731793
 30
0.0
 10
67.39414279300479
 20
151.2675499663778
 30
0.0
 10
67.39414279300502
 20
149.8784134762416
 30
0.0
 10
67.39414279300456
 20
148.1118369252113
 30
0.0
 10
67.39414279300479
 20
145.8886796402541
 30
0.0
 10
67.39414279300456
 20
143.5775679753431
 30
0.0
 10
67.39414279300502
 20
141.3003681016272
 30
0.0
 10
67.39414279300412
 20
139.2520135103892
 30
0.0
 10
67.39414279300546
 20
137.7835307293709
 30
0.0
 10
67.39414279300456
 20
137.126676075022
 30
0.0
 10
67.39414279300479
 20
137.0171620329101
 30
0.0
  0
LINE
  5
B7
330
1F
100
AcDbEntity
  8
0
  6
Continuous
 62
     7
370
    25
100
AcDbLine
 10
66.9346544459
 20
137.0171620329
 30
0.0
 11
66.9346544459
 21
153.1171620329
 31
0.0
  0
LINE
  5
B8
330
1F
100
AcDbEntity
  8
0
  6
Continuous
 62
     7
370
    25
100
AcDbLine
 10
57.4346544459
 20
133.9171620329
 30
0.0
 11
57.4346544459
 21
152.1171620329
 31
0.0
  0
ARC
  5
B9
330
1F
100
AcDbEntity
  8
0
  6
Continuous
 62
     7
370
    25
100
AcDbCircle
 10
52.8268493929
 20
142.5880162555
 30
0.0
 40
0.9035734123755645
100
AcDbArc
 50
189.1023714991
 51
276.8522626555
  0
LINE
  5
BA
330
1F
100
AcDbEntity
  8
0
  6
Continuous
 62
     7
370
    25
100
AcDbLine
 10
51.9346544459
 20
142.4450719025
 30
0.0
 11
51.9346544459
 21
146.2159464915
 31
0.0
  0
ARC
  5
BB
330
1F
100
AcDbEntity
  8
0
  6
Continuous
 62
     7
370
    25
100
AcDbCircle
 10
52.8268493976
 20
146.073002135
 30
0.0
 40
0.9035734175202256
100
AcDbArc
 50
83.1477365075
 51
170.8976283248
  0
LINE
  5
BC
330
1F
100
AcDbEntity
  8
0
  6
Continuous
 62
     7
370
    25
100
AcDbLine
 10
52.9346544459
 20
146.9701214093
 30
0.0
 11
57.4346544459
 21
146.9701214093
 31
0.0
  0
LINE
  5
BD
330
1F
100
AcDbEntity
  8
0
  6
Continuous
 62
     7
370
    25
100
AcDbLine
 10
57.4346544459
 20
145.8011502867
 30
0.0
 11
55.2346544459
 21
145.8011502867
 31
0.0
  0
LWPOLYLINE
  5
BE
330
1F
100
AcDbEntity
  8
0
  6
Continuous
 62
     7
370
    25
100
AcDbPolyline
 90
       10
 70
   128
 43
0.0
 10
55.2346544459
 20
145.8011502867
 10
54.5677151664
 20
145.7124597768
 10
53.981218607
 20
145.4570856316
 10
53.5459049085
 20
145.0658297419
 10
53.3142793275
 20
144.5858833422
 10
53.3142793275
 20
144.0751350518
 10
53.5459049085
 20
143.5951886522
 10
53.981218607
 20
143.2039327624
 10
54.5677151664
 20
142.9485586172
 10
55.2346544459
 20
142.8598681073
  0
LINE
  5
BF
330
1F
100
AcDbEntity
  8
0
  6
Continuous
 62
     7
370
    25
100
AcDbLine
 10
55.2346544459
 20
142.8598681073
 30
0.0
 11
57.4346544459
 21
142.8598681073
 31
0.0
  0
LINE
  5
C0
330
1F
100
AcDbEntity
  8
0
  6
Continuous
 62
     7
370
    25
100
AcDbLine
 10
57.4346544459
 20
141.6908969847
 30
0.0
 11
52.9346544275
 21
141.6908969847
 31
0.0
  0
LINE
  5
C1
330
1F
100
AcDbEntity
  8
0
  6
Continuous
 62
     7
370
    25
100
AcDbLine
 10
52.9346544275
 20
141.6908969847
 30
0.0
 11
52.9346544275
 21
139.0642026565
 31
0.0
  0
ARC
  5
C2
330
1F
100
AcDbEntity
  8
0
  6
Continuous
 62
     7
370
    25
100
AcDbCircle
 10
52.8268493929
 20
139.9613219273
 30
0.0
 40
0.9035734123757699
100
AcDbArc
 50
189.1023714991
 51
276.8522626555
  0
LINE
  5
C3
330
1F
100
AcDbEntity
  8
0
  6
Continuous
 62
     7
370
    25
100
AcDbLine
 10
51.9346544459
 20
142.4450719025
 30
0.0
 11
51.9346544459
 21
139.8183775743
 31
0.0
  0
LINE
  5
C4
330
1F
100
AcDbEntity
  8
0
  6
Continuous
 62
     7
370
    25
100
AcDbLine
 10
52.9346544275
 20
139.0642026565
 30
0.0
 11
57.4346544459
 21
139.0642026565
 31
0.0
  0
LINE
  5
C5
330
1F
100
AcDbEntity
  8
0
  6
Continuous
 62
     7
370
    25
100
AcDbLine
 10
55.2346544459
 20
143.1744559585
 30
0.0
 11
55.2346544459
 21
145.8011502867
 31
0.0
  0
LWPOLYLINE
  5
C6
330
1F
100
AcDbEntity
  8
0
  6
Continuous
 62
     7
370
    25
100
AcDbPolyline
 90
        3
 70
   128
 43
0.0
 10
54.3572141195
 20
143.0171620329
 10
54.5677151664
 20
143.0857654486
 10
55.2346544459
 20
143.1744559585
  0
LINE
  5
C7
330
1F
100
AcDbEntity
  8
0
  6
Continuous
 62
     7
370
    25
100
AcDbLine
 10
49.9807152445
 20
143.6171620329
 30
0.0
 11
49.9807152445
 21
142.4171620329
 31
0.0
  0
LINE
  5
C8
330
1F
100
AcDbEntity
  8
0
  6
Continuous
 62
     7
370
    25
100
AcDbLine
 10
50.9346544459
 20
144.3171620329
 30
0.0
 11
50.9346544459
 21
141.7171620329
 31
0.0
  0
LINE
  5
C9
330
1F
100
AcDbEntity
  8
0
  6
Continuous
 62
     7
370
    25
100
AcDbLine
 10
55.2346544459
 20
143.1744559585
 30
0.0
 11
57.4346544459
 21
143.1744559585
 31
0.0
  0
LINE
  5
CA
330
1F
100
AcDbEntity
  8
0
  6
Continuous
 62
     7
370
    25
100
AcDbLine
 10
275.6536311401
 20
152.5695749131
 30
0.0
 11
275.6536311401
 21
137.0171620329
 31
0.0
  0
LINE
  5
CB
330
1F
100
AcDbEntity
  8
0
  6
Continuous
 62
     7
370
    25
100
AcDbLine
 10
275.6536311401
 20
153.1171620329
 30
0.0
 11
275.6536311401
 21
152.5695749131
 31
0.0
  0
LINE
  5
CC
330
1F
100
AcDbEntity
  8
0
  6
Continuous
 62
     7
370
    25
100
AcDbLine
 10
285.1536311401
 20
151.6237914597
 30
0.0
 11
285.1536311401
 21
133.9171620329
 31
0.0
  0
LINE
  5
CD
330
1F
100
AcDbEntity
  8
0
  6
Continuous
 62
     7
370
    25
100
AcDbLine
 10
285.1536311401
 20
152.1171620329
 30
0.0
 11
285.1536311401
 21
151.6237914597
 31
0.0
  0
LINE
  5
CE
330
1F
100
AcDbEntity
  8
0
  6
Continuous
 62
     7
370
    25
100
AcDbLine
 10
289.6536311585
 20
141.724848861
 30
0.0
 11
289.6536311585
 21
145.6507346206
 31
0.0
  0
ARC
  5
CF
330
1F
100
AcDbEntity
  8
0
  6
Continuous
 62
     7
370
    25
100
AcDbCircle
 10
289.8944526973
 20
144.2022844161
 30
0.0
 40
1.468333411912705
100
AcDbArc
 50
58.8664858244
 51
99.4397351529
  0
LINE
  5
D0
330
1F
100
AcDbEntity
  8
0
  6
Continuous
 62
     7
370
    25
100
AcDbLine
 10
290.6536311401
 20
141.533240373
 30
0.0
 11
290.6536311401
 21
145.4591261326
 31
0.0
  0
ARC
  5
D1
330
1F
100
AcDbEntity
  8
0
  6
Continuous
 62
     7
370
    25
100
AcDbCircle
 10
289.8944526973
 20
140.2763986564
 30
0.0
 40
1.468333411912714
100
AcDbArc
 50
58.8664858244
 51
99.4397351529
  0
LINE
  5
D2
330
1F
100
AcDbEntity
  8
0
  6
Continuous
 62
     7
370
    25
100
AcDbLine
 10
289.6536311585
 20
145.6507346206
 30
0.0
 11
285.1536311401
 21
145.6507346206
 31
0.0
  0
LINE
  5
D3
330
1F
100
AcDbEntity
  8
0
  6
Continuous
 62
     7
370
    25
100
AcDbLine
 10
285.1536311401
 20
141.724848861
 30
0.0
 11
289.6536311585
 21
141.724848861
 31
0.0
  0
ARC
  5
D4
330
1F
100
AcDbEntity
  8
0
  6
Continuous
 62
     7
370
    25
100
AcDbCircle
 10
289.8944526869
 20
141.8320396809
 30
0.0
 40
1.468333443867915
100
AcDbArc
 50
260.5602647382
 51
301.133513895
  0
LINE
  5
D5
330
1F
100
AcDbEntity
  8
0
  6
Continuous
 62
     7
370
    25
100
AcDbLine
 10
289.6536311401
 20
140.3835894453
 30
0.0
 11
285.1536311401
 21
140.3835894453
 31
0.0
  0
LINE
  5
D6
330
1F
100
AcDbEntity
  8
0
  6
Continuous
 62
     7
370
    25
100
AcDbLine
 10
285.1536311401
 20
140.6805826016
 30
0.0
 11
287.3536311401
 21
140.6805826016
 31
0.0
  0
LWPOLYLINE
  5
D7
330
1F
100
AcDbEntity
  8
0
  6
Continuous
 62
     7
370
    25
100
AcDbPolyline
 90
       10
 70
   128
 43
0.0
 10
287.3536311401
 20
140.6805826016
 10
288.0205704196
 20
140.7031156428
 10
288.607066979
 20
140.7679969491
 10
289.0423806775
 20
140.8674008774
 10
289.2740062585
 20
140.9893378469
 10
289.2740062585
 20
141.1191004594
 10
289.0423806775
 20
141.2410374289
 10
288.607066979
 20
141.3404413572
 10
288.0205704196
 20
141.4053226634
 10
287.3536311401
 20
141.4278557046
  0
LINE
  5
D8
330
1F
100
AcDbEntity
  8
0
  6
Continuous
 62
     7
370
    25
100
AcDbLine
 10
287.3536311401
 20
141.4278557046
 30
0.0
 11
285.1536311401
 21
141.4278557046
 31
0.0
  0
LINE
  5
D9
330
1F
100
AcDbEntity
  8
0
  6
Continuous
 62
     7
370
    25
100
AcDbLine
 10
290.6536311401
 20
141.533240373
 30
0.0
 11
290.6536311401
 21
140.5751979333
 31
0.0
  0
LINE
  5
DA
330
1F
100
AcDbEntity
  8
0
  6
Continuous
 62
     7
370
    25
100
AcDbLine
 10
292.6075703415
 20
142.4171620329
 30
0.0
 11
292.6075703415
 21
143.6171620329
 31
0.0
  0
LINE
  5
DB
330
1F
100
AcDbEntity
  8
0
  6
Continuous
 62
     7
370
    25
100
AcDbLine
 10
291.6536311401
 20
141.7171620329
 30
0.0
 11
291.6536311401
 21
144.3171620329
 31
0.0
  0
LINE
  5
DC
330
1F
100
AcDbEntity
  8
0
  6
Continuous
 62
     7
370
    25
100
AcDbLine
 10
317.094142793
 20
161.3171620329
 30
0.0
 11
317.094142793
 21
161.0171620329
 31
0.0
  0
ARC
  5
DD
330
1F
100
AcDbEntity
  8
0
  6
Continuous
 62
     7
370
    25
100
AcDbCircle
 10
317.094142793
 20
161.3171620329
 30
0.0
 40
0.2999999999999829
100
AcDbArc
 50
180.0
 51
270.0
  0
LINE
  5
DE
330
1F
100
AcDbEntity
  8
0
  6
Continuous
 62
     7
370
    25
100
AcDbLine
 10
317.094142793
 20
161.3171620329
 30
0.0
 11
316.794142793
 21
161.3171620329
 31
0.0
  0
ARC
  5
DF
330
1F
100
AcDbEntity
  8
0
  6
Continuous
 62
     7
370
    25
100
AcDbCircle
 10
317.094142793
 20
186.0171620329
 30
0.0
 40
0.3000000000000114
100
AcDbArc
 50
90.0
 51
180.0
  0
LINE
  5
E0
330
1F
100
AcDbEntity
  8
0
  6
Continuous
 62
     7
370
    25
100
AcDbLine
 10
317.094142793
 20
186.0171620329
 30
0.0
 11
317.094142793
 21
186.3171620329
 31
0.0
  0
LINE
  5
E1
330
1F
100
AcDbEntity
  8
0
  6
Continuous
 62
     7
370
    25
100
AcDbLine
 10
317.094142793
 20
186.0171620329
 30
0.0
 11
316.794142793
 21
186.0171620329
 31
0.0
  0
LINE
  5
E2
330
1F
100
AcDbEntity
  8
0
  6
Continuous
 62
     7
370
    25
100
AcDbLine
 10
320.994142793
 20
186.0171620329
 30
0.0
 11
317.094142793
 21
186.0171620329
 31
0.0
  0
LINE
  5
E3
330
1F
100
AcDbEntity
  8
0
  6
Continuous
 62
     7
370
    25
100
AcDbLine
 10
317.094142793
 20
186.3171620329
 30
0.0
 11
320.994142793
 21
186.3171620329
 31
0.0
  0
LINE
  5
E4
330
1F
100
AcDbEntity
  8
0
  6
Continuous
 62
     7
370
    25
100
AcDbLine
 10
320.994142793
 20
186.0171620329
 30
0.0
 11
320.994142793
 21
186.3171620329
 31
0.0
  0
ARC
  5
E5
330
1F
100
AcDbEntity
  8
0
  6
Continuous
 62
     7
370
    25
100
AcDbCircle
 10
320.994142793
 20
186.0171620329
 30
0.0
 40
0.3000000000000114
100
AcDbArc
 50
0.0
 51
90.0
  0
LINE
  5
E6
330
1F
100
AcDbEntity
  8
0
  6
Continuous
 62
     7
370
    25
100
AcDbLine
 10
321.294142793
 20
186.0171620329
 30
0.0
 11
320.994142793
 21
186.0171620329
 31
0.0
  0
LINE
  5
E7
330
1F
100
AcDbEntity
  8
0
  6
Continuous
 62
     7
370
    25
100
AcDbLine
 10
317.094142793
 20
178.4171620329
 30
0.0
 11
320.994142793
 21
178.4171620329
 31
0.0
  0
LINE
  5
E8
330
1F
100
AcDbEntity
  8
0
  6
Continuous
 62
     7
370
    25
100
AcDbLine
 10
317.094142793
 20
186.0171620329
 30
0.0
 11
317.094142793
 21
178.4171620329
 31
0.0
  0
LINE
  5
E9
330
1F
100
AcDbEntity
  8
0
  6
Continuous
 62
     7
370
    25
100
AcDbLine
 10
320.994142793
 20
178.4171620329
 30
0.0
 11
320.994142793
 21
186.0171620329
 31
0.0
  0
LINE
  5
EA
330
1F
100
AcDbEntity
  8
0
  6
Continuous
 62
     7
370
    25
100
AcDbLine
 10
320.994142793
 20
161.3171620329
 30
0.0
 11
320.994142793
 21
175.3171620329
 31
0.0
  0
LINE
  5
EB
330
1F
100
AcDbEntity
  8
0
  6
Continuous
 62
     7
370
    25
100
AcDbLine
 10
321.294142793
 20
175.3171620329
 30
0.0
 11
320.994142793
 21
175.3171620329
 31
0.0
  0
LINE
  5
EC
330
1F
100
AcDbEntity
  8
0
  6
Continuous
 62
     7
370
    25
100
AcDbLine
 10
321.294142793
 20
175.3171620329
 30
0.0
 11
321.294142793
 21
161.3171620329
 31
0.0
  0
LINE
  5
ED
330
1F
100
AcDbEntity
  8
0
  6
Continuous
 62
     7
370
    25
100
AcDbLine
 10
320.994142793
 20
161.3171620329
 30
0.0
 11
321.294142793
 21
161.3171620329
 31
0.0
  0
LINE
  5
EE
330
1F
100
AcDbEntity
  8
0
  6
Continuous
 62
     7
370
    25
100
AcDbLine
 10
317.094142793
 20
161.3171620329
 30
0.0
 11
320.994142793
 21
161.3171620329
 31
0.0
  0
LINE
  5
EF
330
1F
100
AcDbEntity
  8
0
  6
Continuous
 62
     7
370
    25
100
AcDbLine
 10
320.994142793
 20
161.3171620329
 30
0.0
 11
320.994142793
 21
161.0171620329
 31
0.0
  0
LINE
  5
F0
330
1F
100
AcDbEntity
  8
0
  6
Continuous
 62
     7
370
    25
100
AcDbLine
 10
320.994142793
 20
161.0171620329
 30
0.0
 11
317.094142793
 21
161.0171620329
 31
0.0
  0
LINE
  5
F1
330
1F
100
AcDbEntity
  8
0
  6
Continuous
 62
     7
370
    25
100
AcDbLine
 10
317.094142793
 20
178.4171620329
 30
0.0
 11
316.794142793
 21
178.4171620329
 31
0.0
  0
LINE
  5
F2
330
1F
100
AcDbEntity
  8
0
  6
Continuous
 62
     7
370
    25
100
AcDbLine
 10
321.294142793
 20
178.4171620329
 30
0.0
 11
320.994142793
 21
178.4171620329
 31
0.0
  0
LINE
  5
F3
330
1F
100
AcDbEntity
  8
0
  6
Continuous
 62
     7
370
    25
100
AcDbLine
 10
321.294142793
 20
186.0171620329
 30
0.0
 11
321.294142793
 21
178.4171620329
 31
0.0
  0
LINE
  5
F4
330
1F
100
AcDbEntity
  8
0
  6
Continuous
 62
     7
370
    25
100
AcDbLine
 10
320.994142793
 20
175.3171620329
 30
0.0
 11
317.094142793
 21
175.3171620329
 31
0.0
  0
LINE
  5
F5
330
1F
100
AcDbEntity
  8
0
  6
Continuous
 62
     7
370
    25
100
AcDbLine
 10
317.094142793
 20
175.3171620329
 30
0.0
 11
317.094142793
 21
161.3171620329
 31
0.0
  0
LINE
  5
F6
330
1F
100
AcDbEntity
  8
0
  6
Continuous
 62
     7
370
    25
100
AcDbLine
 10
316.794142793
 20
175.3171620329
 30
0.0
 11
317.094142793
 21
175.3171620329
 31
0.0
  0
ARC
  5
F7
330
1F
100
AcDbEntity
  8
0
  6
Continuous
 62
     7
370
    25
100
AcDbCircle
 10
320.994142793
 20
161.3171620329
 30
0.0
 40
0.2999999999999829
100
AcDbArc
 50
270.0
 51
0.0
  0
LINE
  5
F8
330
1F
100
AcDbEntity
  8
0
  6
Continuous
 62
     7
370
    25
100
AcDbLine
 10
317.094142793
 20
175.6171620329
 30
0.0
 11
320.994142793
 21
175.6171620329
 31
0.0
  0
LINE
  5
F9
330
1F
100
AcDbEntity
  8
0
  6
Continuous
 62
     7
370
    25
100
AcDbLine
 10
320.994142793
 20
175.6171620329
 30
0.0
 11
320.994142793
 21
175.3171620329
 31
0.0
  0
LINE
  5
FA
330
1F
100
AcDbEntity
  8
0
  6
Continuous
 62
     7
370
    25
100
AcDbLine
 10
317.094142793
 20
175.6171620329
 30
0.0
 11
317.094142793
 21
175.3171620329
 31
0.0
  0
ARC
  5
FB
330
1F
100
AcDbEntity
  8
0
  6
Continuous
 62
     7
370
    25
100
AcDbCircle
 10
317.094142793
 20
175.3171620329
 30
0.0
 40
0.2999999999999829
100
AcDbArc
 50
90.0
 51
180.0
  0
ARC
  5
FC
330
1F
100
AcDbEntity
  8
0
  6
Continuous
 62
     7
370
    25
100
AcDbCircle
 10
320.994142793
 20
178.4171620329
 30
0.0
 40
0.3000000000000114
100
AcDbArc
 50
270.0
 51
0.0
  0
LINE
  5
FD
330
1F
100
AcDbEntity
  8
0
  6
Continuous
 62
     7
370
    25
100
AcDbLine
 10
320.994142793
 20
178.4171620329
 30
0.0
 11
320.994142793
 21
178.1171620329
 31
0.0
  0
ARC
  5
FE
330
1F
100
AcDbEntity
  8
0
  6
Continuous
 62
     7
370
    25
100
AcDbCircle
 10
320.994142793
 20
175.3171620329
 30
0.0
 40
0.2999999999999829
100
AcDbArc
 50
0.0
 51
90.0
  0
LINE
  5
FF
330
1F
100
AcDbEntity
  8
0
  6
Continuous
 62
     7
370
    25
100
AcDbLine
 10
320.994142793
 20
178.1171620329
 30
0.0
 11
317.094142793
 21
178.1171620329
 31
0.0
  0
LINE
  5
100
330
1F
100
AcDbEntity
  8
0
  6
Continuous
 62
     7
370
    25
100
AcDbLine
 10
317.094142793
 20
178.4171620329
 30
0.0
 11
317.094142793
 21
178.1171620329
 31
0.0
  0
ARC
  5
101
330
1F
100
AcDbEntity
  8
0
  6
Continuous
 62
     7
370
    25
100
AcDbCircle
 10
317.094142793
 20
178.4171620329
 30
0.0
 40
0.3000000000000114
100
AcDbArc
 50
180.0
 51
270.0
  0
LINE
  5
102
330
1F
100
AcDbEntity
  8
0
  6
Continuous
 62
     7
370
    25
100
AcDbLine
 10
320.994142793
 20
175.9171620329
 30
0.0
 11
320.994142793
 21
175.6171620329
 31
0.0
  0
LINE
  5
103
330
1F
100
AcDbEntity
  8
0
  6
Continuous
 62
     7
370
    25
100
AcDbLine
 10
321.294142793
 20
175.9171620329
 30
0.0
 11
320.994142793
 21
175.9171620329
 31
0.0
  0
LINE
  5
104
330
1F
100
AcDbEntity
  8
0
  6
Continuous
 62
     7
370
    25
100
AcDbLine
 10
321.294142793
 20
175.3171620329
 30
0.0
 11
321.294142793
 21
175.9171620329
 31
0.0
  0
LINE
  5
105
330
1F
100
AcDbEntity
  8
0
  6
Continuous
 62
     7
370
    25
100
AcDbLine
 10
317.094142793
 20
175.9171620329
 30
0.0
 11
320.994142793
 21
175.9171620329
 31
0.0
  0
LINE
  5
106
330
1F
100
AcDbEntity
  8
0
  6
Continuous
 62
     7
370
    25
100
AcDbLine
 10
317.094142793
 20
175.9171620329
 30
0.0
 11
317.094142793
 21
175.6171620329
 31
0.0
  0
LINE
  5
107
330
1F
100
AcDbEntity
  8
0
  6
Continuous
 62
     7
370
    25
100
AcDbLine
 10
317.094142793
 20
175.9171620329
 30
0.0
 11
316.794142793
 21
175.9171620329
 31
0.0
  0
LINE
  5
108
330
1F
100
AcDbEntity
  8
0
  6
Continuous
 62
     7
370
    25
100
AcDbLine
 10
317.094142793
 20
178.1171620329
 30
0.0
 11
317.094142793
 21
177.8171620329
 31
0.0
  0
LINE
  5
109
330
1F
100
AcDbEntity
  8
0
  6
Continuous
 62
     7
370
    25
100
AcDbLine
 10
317.094142793
 20
177.8171620329
 30
0.0
 11
316.794142793
 21
177.8171620329
 31
0.0
  0
LINE
  5
10A
330
1F
100
AcDbEntity
  8
0
  6
Continuous
 62
     7
370
    25
100
AcDbLine
 10
320.994142793
 20
178.1171620329
 30
0.0
 11
320.994142793
 21
177.8171620329
 31
0.0
  0
LINE
  5
10B
330
1F
100
AcDbEntity
  8
0
  6
Continuous
 62
     7
370
    25
100
AcDbLine
 10
320.994142793
 20
177.8171620329
 30
0.0
 11
317.094142793
 21
177.8171620329
 31
0.0
  0
LINE
  5
10C
330
1F
100
AcDbEntity
  8
0
  6
Continuous
 62
     7
370
    25
100
AcDbLine
 10
321.294142793
 20
177.8171620329
 30
0.0
 11
320.994142793
 21
177.8171620329
 31
0.0
  0
LINE
  5
10D
330
1F
100
AcDbEntity
  8
0
  6
Continuous
 62
     7
370
    25
100
AcDbLine
 10
321.294142793
 20
177.8171620329
 30
0.0
 11
321.294142793
 21
178.4171620329
 31
0.0
  0
LINE
  5
10E
330
1F
100
AcDbEntity
  8
0
  6
Continuous
 62
     7
370
    25
100
AcDbLine
 10
317.094142793
 20
177.8171620329
 30
0.0
 11
317.094142793
 21
175.9171620329
 31
0.0
  0
LINE
  5
10F
330
1F
100
AcDbEntity
  8
0
  6
Continuous
 62
     7
370
    25
100
AcDbLine
 10
320.994142793
 20
175.9171620329
 30
0.0
 11
320.994142793
 21
177.8171620329
 31
0.0
  0
LINE
  5
110
330
1F
100
AcDbEntity
  8
0
  6
Continuous
 62
     7
370
    25
100
AcDbLine
 10
321.294142793
 20
177.8171620329
 30
0.0
 11
321.294142793
 21
175.9171620329
 31
0.0
  0
LINE
  5
111
330
1F
100
AcDbEntity
  8
0
  6
Continuous
 62
     7
370
    25
100
AcDbLine
 10
25.794142793
 20
178.4171620329
 30
0.0
 11
25.494142793
 21
178.4171620329
 31
0.0
  0
LINE
  5
112
330
1F
100
AcDbEntity
  8
0
  6
Continuous
 62
     7
370
    25
100
AcDbLine
 10
25.494142793
 20
178.4171620329
 30
0.0
 11
25.494142793
 21
186.0171620329
 31
0.0
  0
LINE
  5
113
330
1F
100
AcDbEntity
  8
0
  6
Continuous
 62
     7
370
    25
100
AcDbLine
 10
25.794142793
 20
186.0171620329
 30
0.0
 11
25.494142793
 21
186.0171620329
 31
0.0
  0
LINE
  5
114
330
1F
100
AcDbEntity
  8
0
  6
Continuous
 62
     7
370
    25
100
AcDbLine
 10
21.594142793
 20
178.4171620329
 30
0.0
 11
25.494142793
 21
178.4171620329
 31
0.0
  0
LINE
  5
115
330
1F
100
AcDbEntity
  8
0
  6
Continuous
 62
     7
370
    25
100
AcDbLine
 10
21.594142793
 20
186.0171620329
 30
0.0
 11
21.594142793
 21
178.4171620329
 31
0.0
  0
LINE
  5
116
330
1F
100
AcDbEntity
  8
0
  6
Continuous
 62
     7
370
    25
100
AcDbLine
 10
25.494142793
 20
186.0171620329
 30
0.0
 11
21.594142793
 21
186.0171620329
 31
0.0
  0
LINE
  5
117
330
1F
100
AcDbEntity
  8
0
  6
Continuous
 62
     7
370
    25
100
AcDbLine
 10
21.594142793
 20
178.4171620329
 30
0.0
 11
21.294142793
 21
178.4171620329
 31
0.0
  0
LINE
  5
118
330
1F
100
AcDbEntity
  8
0
  6
Continuous
 62
     7
370
    25
100
AcDbLine
 10
21.294142793
 20
178.4171620329
 30
0.0
 11
21.294142793
 21
186.0171620329
 31
0.0
  0
LINE
  5
119
330
1F
100
AcDbEntity
  8
0
  6
Continuous
 62
     7
370
    25
100
AcDbLine
 10
21.594142793
 20
186.0171620329
 30
0.0
 11
21.294142793
 21
186.0171620329
 31
0.0
  0
LINE
  5
11A
330
1F
100
AcDbEntity
  8
0
  6
Continuous
 62
     7
370
    25
100
AcDbLine
 10
21.594142793
 20
175.3171620329
 30
0.0
 11
21.594142793
 21
161.3171620329
 31
0.0
  0
LINE
  5
11B
330
1F
100
AcDbEntity
  8
0
  6
Continuous
 62
     7
370
    25
100
AcDbLine
 10
21.594142793
 20
161.3171620329
 30
0.0
 11
21.294142793
 21
161.3171620329
 31
0.0
  0
LINE
  5
11C
330
1F
100
AcDbEntity
  8
0
  6
Continuous
 62
     7
370
    25
100
AcDbLine
 10
21.294142793
 20
161.3171620329
 30
0.0
 11
21.294142793
 21
175.3171620329
 31
0.0
  0
LINE
  5
11D
330
1F
100
AcDbEntity
  8
0
  6
Continuous
 62
     7
370
    25
100
AcDbLine
 10
21.594142793
 20
175.3171620329
 30
0.0
 11
21.294142793
 21
175.3171620329
 31
0.0
  0
LINE
  5
11E
330
1F
100
AcDbEntity
  8
0
  6
Continuous
 62
     7
370
    25
100
AcDbLine
 10
25.794142793
 20
161.3171620329
 30
0.0
 11
25.494142793
 21
161.3171620329
 31
0.0
  0
LINE
  5
11F
330
1F
100
AcDbEntity
  8
0
  6
Continuous
 62
     7
370
    25
100
AcDbLine
 10
25.494142793
 20
161.3171620329
 30
0.0
 11
25.494142793
 21
175.3171620329
 31
0.0
  0
LINE
  5
120
330
1F
100
AcDbEntity
  8
0
  6
Continuous
 62
     7
370
    25
100
AcDbLine
 10
25.794142793
 20
175.3171620329
 30
0.0
 11
25.494142793
 21
175.3171620329
 31
0.0
  0
LINE
  5
121
330
1F
100
AcDbEntity
  8
0
  6
Continuous
 62
     7
370
    25
100
AcDbLine
 10
25.494142793
 20
175.3171620329
 30
0.0
 11
21.594142793
 21
175.3171620329
 31
0.0
  0
LINE
  5
122
330
1F
100
AcDbEntity
  8
0
  6
Continuous
 62
     7
370
    25
100
AcDbLine
 10
21.594142793
 20
161.3171620329
 30
0.0
 11
25.494142793
 21
161.3171620329
 31
0.0
  0
ARC
  5
123
330
1F
100
AcDbEntity
  8
0
  6
Continuous
 62
     7
370
    25
100
AcDbCircle
 10
21.594142793
 20
161.3171620329
 30
0.0
 40
0.300000000000189
100
AcDbArc
 50
180.0
 51
270.0
  0
LINE
  5
124
330
1F
100
AcDbEntity
  8
0
  6
Continuous
 62
     7
370
    25
100
AcDbLine
 10
21.594142793
 20
161.0171620329
 30
0.0
 11
21.594142793
 21
161.3171620329
 31
0.0
  0
LINE
  5
125
330
1F
100
AcDbEntity
  8
0
  6
Continuous
 62
     7
370
    25
100
AcDbLine
 10
25.494142793
 20
161.0171620329
 30
0.0
 11
21.594142793
 21
161.0171620329
 31
0.0
  0
LINE
  5
126
330
1F
100
AcDbEntity
  8
0
  6
Continuous
 62
     7
370
    25
100
AcDbLine
 10
25.494142793
 20
161.0171620329
 30
0.0
 11
25.494142793
 21
161.3171620329
 31
0.0
  0
LINE
  5
127
330
1F
100
AcDbEntity
  8
0
  6
Continuous
 62
     7
370
    25
100
AcDbLine
 10
21.594142793
 20
186.3171620329
 30
0.0
 11
21.594142793
 21
186.0171620329
 31
0.0
  0
ARC
  5
128
330
1F
100
AcDbEntity
  8
0
  6
Continuous
 62
     7
370
    25
100
AcDbCircle
 10
21.594142793
 20
186.0171620329
 30
0.0
 40
0.300000000000189
100
AcDbArc
 50
90.0
 51
180.0
  0
ARC
  5
129
330
1F
100
AcDbEntity
  8
0
  6
Continuous
 62
     7
370
    25
100
AcDbCircle
 10
25.494142793
 20
161.3171620329
 30
0.0
 40
0.300000000000189
100
AcDbArc
 50
270.0
 51
0.0
  0
LINE
  5
12A
330
1F
100
AcDbEntity
  8
0
  6
Continuous
 62
     7
370
    25
100
AcDbLine
 10
21.594142793
 20
186.3171620329
 30
0.0
 11
25.494142793
 21
186.3171620329
 31
0.0
  0
LINE
  5
12B
330
1F
100
AcDbEntity
  8
0
  6
Continuous
 62
     7
370
    25
100
AcDbLine
 10
25.494142793
 20
186.3171620329
 30
0.0
 11
25.494142793
 21
186.0171620329
 31
0.0
  0
ARC
  5
12C
330
1F
100
AcDbEntity
  8
0
  6
Continuous
 62
     7
370
    25
100
AcDbCircle
 10
25.494142793
 20
186.0171620329
 30
0.0
 40
0.300000000000189
100
AcDbArc
 50
0.0
 51
90.0
  0
LINE
  5
12D
330
1F
100
AcDbEntity
  8
0
  6
Continuous
 62
     7
370
    25
100
AcDbLine
 10
21.594142793
 20
175.3171620329
 30
0.0
 11
21.594142793
 21
175.6171620329
 31
0.0
  0
LINE
  5
12E
330
1F
100
AcDbEntity
  8
0
  6
Continuous
 62
     7
370
    25
100
AcDbLine
 10
21.594142793
 20
175.6171620329
 30
0.0
 11
25.494142793
 21
175.6171620329
 31
0.0
  0
LINE
  5
12F
330
1F
100
AcDbEntity
  8
0
  6
Continuous
 62
     7
370
    25
100
AcDbLine
 10
25.494142793
 20
175.3171620329
 30
0.0
 11
25.494142793
 21
175.6171620329
 31
0.0
  0
LINE
  5
130
330
1F
100
AcDbEntity
  8
0
  6
Continuous
 62
     7
370
    25
100
AcDbLine
 10
25.494142793
 20
178.1171620329
 30
0.0
 11
21.594142793
 21
178.1171620329
 31
0.0
  0
LINE
  5
131
330
1F
100
AcDbEntity
  8
0
  6
Continuous
 62
     7
370
    25
100
AcDbLine
 10
21.594142793
 20
178.1171620329
 30
0.0
 11
21.594142793
 21
178.4171620329
 31
0.0
  0
LINE
  5
132
330
1F
100
AcDbEntity
  8
0
  6
Continuous
 62
     7
370
    25
100
AcDbLine
 10
25.494142793
 20
178.1171620329
 30
0.0
 11
25.494142793
 21
178.4171620329
 31
0.0
  0
ARC
  5
133
330
1F
100
AcDbEntity
  8
0
  6
Continuous
 62
     7
370
    25
100
AcDbCircle
 10
21.594142793
 20
175.3171620329
 30
0.0
 40
0.300000000000189
100
AcDbArc
 50
90.0
 51
180.0
  0
ARC
  5
134
330
1F
100
AcDbEntity
  8
0
  6
Continuous
 62
     7
370
    25
100
AcDbCircle
 10
25.494142793
 20
175.3171620329
 30
0.0
 40
0.300000000000189
100
AcDbArc
 50
0.0
 51
90.0
  0
ARC
  5
135
330
1F
100
AcDbEntity
  8
0
  6
Continuous
 62
     7
370
    25
100
AcDbCircle
 10
25.494142793
 20
178.4171620329
 30
0.0
 40
0.300000000000189
100
AcDbArc
 50
270.0
 51
0.0
  0
ARC
  5
136
330
1F
100
AcDbEntity
  8
0
  6
Continuous
 62
     7
370
    25
100
AcDbCircle
 10
21.594142793
 20
178.4171620329
 30
0.0
 40
0.300000000000189
100
AcDbArc
 50
180.0
 51
270.0
  0
LINE
  5
137
330
1F
100
AcDbEntity
  8
0
  6
Continuous
 62
     7
370
    25
100
AcDbLine
 10
25.494142793
 20
175.6171620329
 30
0.0
 11
25.494142793
 21
175.9171620329
 31
0.0
  0
LINE
  5
138
330
1F
100
AcDbEntity
  8
0
  6
Continuous
 62
     7
370
    25
100
AcDbLine
 10
25.794142793
 20
175.9171620329
 30
0.0
 11
25.494142793
 21
175.9171620329
 31
0.0
  0
LINE
  5
139
330
1F
100
AcDbEntity
  8
0
  6
Continuous
 62
     7
370
    25
100
AcDbLine
 10
21.594142793
 20
175.6171620329
 30
0.0
 11
21.594142793
 21
175.9171620329
 31
0.0
  0
LINE
  5
13A
330
1F
100
AcDbEntity
  8
0
  6
Continuous
 62
     7
370
    25
100
AcDbLine
 10
21.594142793
 20
175.9171620329
 30
0.0
 11
25.494142793
 21
175.9171620329
 31
0.0
  0
LINE
  5
13B
330
1F
100
AcDbEntity
  8
0
  6
Continuous
 62
     7
370
    25
100
AcDbLine
 10
21.594142793
 20
175.9171620329
 30
0.0
 11
21.294142793
 21
175.9171620329
 31
0.0
  0
LINE
  5
13C
330
1F
100
AcDbEntity
  8
0
  6
Continuous
 62
     7
370
    25
100
AcDbLine
 10
21.294142793
 20
175.9171620329
 30
0.0
 11
21.294142793
 21
175.3171620329
 31
0.0
  0
LINE
  5
13D
330
1F
100
AcDbEntity
  8
0
  6
Continuous
 62
     7
370
    25
100
AcDbLine
 10
25.494142793
 20
177.8171620329
 30
0.0
 11
21.594142793
 21
177.8171620329
 31
0.0
  0
LINE
  5
13E
330
1F
100
AcDbEntity
  8
0
  6
Continuous
 62
     7
370
    25
100
AcDbLine
 10
21.594142793
 20
177.8171620329
 30
0.0
 11
21.594142793
 21
178.1171620329
 31
0.0
  0
LINE
  5
13F
330
1F
100
AcDbEntity
  8
0
  6
Continuous
 62
     7
370
    25
100
AcDbLine
 10
25.494142793
 20
177.8171620329
 30
0.0
 11
25.494142793
 21
178.1171620329
 31
0.0
  0
LINE
  5
140
330
1F
100
AcDbEntity
  8
0
  6
Continuous
 62
     7
370
    25
100
AcDbLine
 10
21.594142793
 20
177.8171620329
 30
0.0
 11
21.294142793
 21
177.8171620329
 31
0.0
  0
LINE
  5
141
330
1F
100
AcDbEntity
  8
0
  6
Continuous
 62
     7
370
    25
100
AcDbLine
 10
21.294142793
 20
178.4171620329
 30
0.0
 11
21.294142793
 21
177.8171620329
 31
0.0
  0
LINE
  5
142
330
1F
100
AcDbEntity
  8
0
  6
Continuous
 62
     7
370
    25
100
AcDbLine
 10
25.794142793
 20
177.8171620329
 30
0.0
 11
25.494142793
 21
177.8171620329
 31
0.0
  0
LINE
  5
143
330
1F
100
AcDbEntity
  8
0
  6
Continuous
 62
     7
370
    25
100
AcDbLine
 10
21.594142793
 20
177.8171620329
 30
0.0
 11
21.594142793
 21
175.9171620329
 31
0.0
  0
LINE
  5
144
330
1F
100
AcDbEntity
  8
0
  6
Continuous
 62
     7
370
    25
100
AcDbLine
 10
21.294142793
 20
175.9171620329
 30
0.0
 11
21.294142793
 21
177.8171620329
 31
0.0
  0
LINE
  5
145
330
1F
100
AcDbEntity
  8
0
  6
Continuous
 62
     7
370
    25
100
AcDbLine
 10
25.494142793
 20
175.9171620329
 30
0.0
 11
25.494142793
 21
177.8171620329
 31
0.0
  0
LINE
  5
146
330
1F
100
AcDbEntity
  8
0
  6
Continuous
 62
     7
370
    25
100
AcDbLine
 10
260.794142793
 20
125.0171620329
 30
0.0
 11
280.794142793
 21
125.0171620329
 31
0.0
  0
LINE
  5
147
330
1F
100
AcDbEntity
  8
0
  6
Continuous
 62
     7
370
    25
100
AcDbLine
 10
260.794142793
 20
125.0171620329
 30
0.0
 11
260.794142793
 21
127.9610472491
 31
0.0
  0
LINE
  5
148
330
1F
100
AcDbEntity
  8
0
  6
Continuous
 62
     7
370
    25
100
AcDbLine
 10
260.794142793
 20
127.9610472491
 30
0.0
 11
270.794142793
 21
127.9610472491
 31
0.0
  0
LINE
  5
149
330
1F
100
AcDbEntity
  8
0
  6
Continuous
 62
     7
370
    25
100
AcDbLine
 10
270.794142793
 20
128.0736289
 30
0.0
 11
270.794142793
 21
127.9610472491
 31
0.0
  0
LINE
  5
14A
330
1F
100
AcDbEntity
  8
0
  6
Continuous
 62
     7
370
    25
100
AcDbLine
 10
270.794142793
 20
128.0736289
 30
0.0
 11
260.794142793
 21
128.0736289
 31
0.0
  0
LINE
  5
14B
330
1F
100
AcDbEntity
  8
0
  6
Continuous
 62
     7
370
    25
100
AcDbLine
 10
260.794142793
 20
128.0736289
 30
0.0
 11
260.794142793
 21
128.3054286604
 31
0.0
  0
LINE
  5
14C
330
1F
100
AcDbEntity
  8
0
  6
Continuous
 62
     7
370
    25
100
AcDbLine
 10
268.794142793
 20
128.3054286604
 30
0.0
 11
260.794142793
 21
128.3054286604
 31
0.0
  0
LINE
  5
14D
330
1F
100
AcDbEntity
  8
0
  6
Continuous
 62
     7
370
    25
100
AcDbLine
 10
268.794142793
 20
128.3054286604
 30
0.0
 11
268.794142793
 21
128.4220218987
 31
0.0
  0
LINE
  5
14E
330
1F
100
AcDbEntity
  8
0
  6
Continuous
 62
     7
370
    25
100
AcDbLine
 10
260.794142793
 20
128.4220218987
 30
0.0
 11
268.794142793
 21
128.4220218987
 31
0.0
  0
LINE
  5
14F
330
1F
100
AcDbEntity
  8
0
  6
Continuous
 62
     7
370
    25
100
AcDbLine
 10
260.794142793
 20
128.4220218987
 30
0.0
 11
260.794142793
 21
128.6622901566
 31
0.0
  0
LINE
  5
150
330
1F
100
AcDbEntity
  8
0
  6
Continuous
 62
     7
370
    25
100
AcDbLine
 10
268.794142793
 20
128.6622901566
 30
0.0
 11
260.794142793
 21
128.6622901566
 31
0.0
  0
LINE
  5
151
330
1F
100
AcDbEntity
  8
0
  6
Continuous
 62
     7
370
    25
100
AcDbLine
 10
268.794142793
 20
128.6622901566
 30
0.0
 11
268.794142793
 21
128.782403056
 31
0.0
  0
LINE
  5
152
330
1F
100
AcDbEntity
  8
0
  6
Continuous
 62
     7
370
    25
100
AcDbLine
 10
260.794142793
 20
128.782403056
 30
0.0
 11
268.794142793
 21
128.782403056
 31
0.0
  0
LINE
  5
153
330
1F
100
AcDbEntity
  8
0
  6
Continuous
 62
     7
370
    25
100
AcDbLine
 10
260.794142793
 20
128.782403056
 30
0.0
 11
260.794142793
 21
128.9040824683
 31
0.0
  0
LINE
  5
154
330
1F
100
AcDbEntity
  8
0
  6
Continuous
 62
     7
370
    25
100
AcDbLine
 10
260.794142793
 20
128.9040824683
 30
0.0
 11
270.794142793
 21
128.9040824683
 31
0.0
  0
LINE
  5
155
330
1F
100
AcDbEntity
  8
0
  6
Continuous
 62
     7
370
    25
100
AcDbLine
 10
270.794142793
 20
129.0262407168
 30
0.0
 11
270.794142793
 21
128.9040824683
 31
0.0
  0
LINE
  5
156
330
1F
100
AcDbEntity
  8
0
  6
Continuous
 62
     7
370
    25
100
AcDbLine
 10
270.794142793
 20
129.0262407168
 30
0.0
 11
260.794142793
 21
129.0262407168
 31
0.0
  0
LINE
  5
157
330
1F
100
AcDbEntity
  8
0
  6
Continuous
 62
     7
370
    25
100
AcDbLine
 10
260.794142793
 20
129.0262407168
 30
0.0
 11
260.794142793
 21
129.2760331781
 31
0.0
  0
LINE
  5
158
330
1F
100
AcDbEntity
  8
0
  6
Continuous
 62
     7
370
    25
100
AcDbLine
 10
268.794142793
 20
129.2760331781
 30
0.0
 11
260.794142793
 21
129.2760331781
 31
0.0
  0
LINE
  5
159
330
1F
100
AcDbEntity
  8
0
  6
Continuous
 62
     7
370
    25
100
AcDbLine
 10
268.794142793
 20
129.2760331781
 30
0.0
 11
268.794142793
 21
129.4008387723
 31
0.0
  0
LINE
  5
15A
330
1F
100
AcDbEntity
  8
0
  6
Continuous
 62
     7
370
    25
100
AcDbLine
 10
260.794142793
 20
129.4008387723
 30
0.0
 11
268.794142793
 21
129.4008387723
 31
0.0
  0
LINE
  5
15B
330
1F
100
AcDbEntity
  8
0
  6
Continuous
 62
     7
370
    25
100
AcDbLine
 10
260.794142793
 20
129.4008387723
 30
0.0
 11
260.794142793
 21
129.656355003
 31
0.0
  0
LINE
  5
15C
330
1F
100
AcDbEntity
  8
0
  6
Continuous
 62
     7
370
    25
100
AcDbLine
 10
268.794142793
 20
129.656355003
 30
0.0
 11
260.794142793
 21
129.656355003
 31
0.0
  0
LINE
  5
15D
330
1F
100
AcDbEntity
  8
0
  6
Continuous
 62
     7
370
    25
100
AcDbLine
 10
268.794142793
 20
129.656355003
 30
0.0
 11
268.794142793
 21
129.7832774587
 31
0.0
  0
LINE
  5
15E
330
1F
100
AcDbEntity
  8
0
  6
Continuous
 62
     7
370
    25
100
AcDbLine
 10
260.794142793
 20
129.7832774587
 30
0.0
 11
268.794142793
 21
129.7832774587
 31
0.0
  0
LINE
  5
15F
330
1F
100
AcDbEntity
  8
0
  6
Continuous
 62
     7
370
    25
100
AcDbLine
 10
260.794142793
 20
129.7832774587
 30
0.0
 11
260.794142793
 21
129.9113225407
 31
0.0
  0
LINE
  5
160
330
1F
100
AcDbEntity
  8
0
  6
Continuous
 62
     7
370
    25
100
AcDbLine
 10
260.794142793
 20
129.9113225407
 30
0.0
 11
270.794142793
 21
129.9113225407
 31
0.0
  0
LINE
  5
161
330
1F
100
AcDbEntity
  8
0
  6
Continuous
 62
     7
370
    25
100
AcDbLine
 10
270.794142793
 20
130.0393456704
 30
0.0
 11
270.794142793
 21
129.9113225407
 31
0.0
  0
LINE
  5
162
330
1F
100
AcDbEntity
  8
0
  6
Continuous
 62
     7
370
    25
100
AcDbLine
 10
270.794142793
 20
130.0393456704
 30
0.0
 11
260.794142793
 21
130.0393456704
 31
0.0
  0
LINE
  5
163
330
1F
100
AcDbEntity
  8
0
  6
Continuous
 62
     7
370
    25
100
AcDbLine
 10
260.794142793
 20
130.0393456704
 30
0.0
 11
260.794142793
 21
130.2995410149
 31
0.0
  0
LINE
  5
164
330
1F
100
AcDbEntity
  8
0
  6
Continuous
 62
     7
370
    25
100
AcDbLine
 10
268.794142793
 20
130.2995410149
 30
0.0
 11
260.794142793
 21
130.2995410149
 31
0.0
  0
LINE
  5
165
330
1F
100
AcDbEntity
  8
0
  6
Continuous
 62
     7
370
    25
100
AcDbLine
 10
268.794142793
 20
130.2995410149
 30
0.0
 11
268.794142793
 21
130.4287668104
 31
0.0
  0
LINE
  5
166
330
1F
100
AcDbEntity
  8
0
  6
Continuous
 62
     7
370
    25
100
AcDbLine
 10
260.794142793
 20
130.4287668104
 30
0.0
 11
268.794142793
 21
130.4287668104
 31
0.0
  0
LINE
  5
167
330
1F
100
AcDbEntity
  8
0
  6
Continuous
 62
     7
370
    25
100
AcDbLine
 10
260.794142793
 20
130.4287668104
 30
0.0
 11
260.794142793
 21
130.6917672823
 31
0.0
  0
LINE
  5
168
330
1F
100
AcDbEntity
  8
0
  6
Continuous
 62
     7
370
    25
100
AcDbLine
 10
268.794142793
 20
130.6917672823
 30
0.0
 11
260.794142793
 21
130.6917672823
 31
0.0
  0
LINE
  5
169
330
1F
100
AcDbEntity
  8
0
  6
Continuous
 62
     7
370
    25
100
AcDbLine
 10
268.794142793
 20
130.6917672823
 30
0.0
 11
268.794142793
 21
130.8216428198
 31
0.0
  0
LINE
  5
16A
330
1F
100
AcDbEntity
  8
0
  6
Continuous
 62
     7
370
    25
100
AcDbLine
 10
260.794142793
 20
130.8216428198
 30
0.0
 11
268.794142793
 21
130.8216428198
 31
0.0
  0
LINE
  5
16B
330
1F
100
AcDbEntity
  8
0
  6
Continuous
 62
     7
370
    25
100
AcDbLine
 10
260.794142793
 20
130.8216428198
 30
0.0
 11
260.794142793
 21
130.9521629865
 31
0.0
  0
LINE
  5
16C
330
1F
100
AcDbEntity
  8
0
  6
Continuous
 62
     7
370
    25
100
AcDbLine
 10
260.794142793
 20
130.9521629865
 30
0.0
 11
270.794142793
 21
130.9521629865
 31
0.0
  0
LINE
  5
16D
330
1F
100
AcDbEntity
  8
0
  6
Continuous
 62
     7
370
    25
100
AcDbLine
 10
270.794142793
 20
131.0821610793
 30
0.0
 11
270.794142793
 21
130.9521629865
 31
0.0
  0
LINE
  5
16E
330
1F
100
AcDbEntity
  8
0
  6
Continuous
 62
     7
370
    25
100
AcDbLine
 10
270.794142793
 20
131.0821610793
 30
0.0
 11
260.794142793
 21
131.0821610793
 31
0.0
  0
LINE
  5
16F
330
1F
100
AcDbEntity
  8
0
  6
Continuous
 62
     7
370
    25
100
AcDbLine
 10
260.794142793
 20
131.0821610793
 30
0.0
 11
260.794142793
 21
131.3448534032
 31
0.0
  0
LINE
  5
170
330
1F
100
AcDbEntity
  8
0
  6
Continuous
 62
     7
370
    25
100
AcDbLine
 10
268.794142793
 20
131.3448534032
 30
0.0
 11
260.794142793
 21
131.3448534032
 31
0.0
  0
LINE
  5
171
330
1F
100
AcDbEntity
  8
0
  6
Continuous
 62
     7
370
    25
100
AcDbLine
 10
268.794142793
 20
131.3448534032
 30
0.0
 11
268.794142793
 21
131.4745729395
 31
0.0
  0
LINE
  5
172
330
1F
100
AcDbEntity
  8
0
  6
Continuous
 62
     7
370
    25
100
AcDbLine
 10
260.794142793
 20
131.4745729395
 30
0.0
 11
268.794142793
 21
131.4745729395
 31
0.0
  0
LINE
  5
173
330
1F
100
AcDbEntity
  8
0
  6
Continuous
 62
     7
370
    25
100
AcDbLine
 10
260.794142793
 20
131.4745729395
 30
0.0
 11
260.794142793
 21
131.7370665165
 31
0.0
  0
LINE
  5
174
330
1F
100
AcDbEntity
  8
0
  6
Continuous
 62
     7
370
    25
100
AcDbLine
 10
268.794142793
 20
131.7370665165
 30
0.0
 11
260.794142793
 21
131.7370665165
 31
0.0
  0
LINE
  5
175
330
1F
100
AcDbEntity
  8
0
  6
Continuous
 62
     7
370
    25
100
AcDbLine
 10
268.794142793
 20
131.7370665165
 30
0.0
 11
268.794142793
 21
131.8659489333
 31
0.0
  0
LINE
  5
176
330
1F
100
AcDbEntity
  8
0
  6
Continuous
 62
     7
370
    25
100
AcDbLine
 10
260.794142793
 20
131.8659489333
 30
0.0
 11
268.794142793
 21
131.8659489333
 31
0.0
  0
LINE
  5
177
330
1F
100
AcDbEntity
  8
0
  6
Continuous
 62
     7
370
    25
100
AcDbLine
 10
260.794142793
 20
131.8659489333
 30
0.0
 11
260.794142793
 21
131.9949783954
 31
0.0
  0
LINE
  5
178
330
1F
100
AcDbEntity
  8
0
  6
Continuous
 62
     7
370
    25
100
AcDbLine
 10
260.794142793
 20
131.9949783954
 30
0.0
 11
270.794142793
 21
131.9949783954
 31
0.0
  0
LINE
  5
179
330
1F
100
AcDbEntity
  8
0
  6
Continuous
 62
     7
370
    25
100
AcDbLine
 10
270.794142793
 20
132.1230015251
 30
0.0
 11
270.794142793
 21
131.9949783954
 31
0.0
  0
LINE
  5
17A
330
1F
100
AcDbEntity
  8
0
  6
Continuous
 62
     7
370
    25
100
AcDbLine
 10
270.794142793
 20
132.1230015251
 30
0.0
 11
260.794142793
 21
132.1230015251
 31
0.0
  0
LINE
  5
17B
330
1F
100
AcDbEntity
  8
0
  6
Continuous
 62
     7
370
    25
100
AcDbLine
 10
260.794142793
 20
132.1230015251
 30
0.0
 11
260.794142793
 21
132.3802090551
 31
0.0
  0
LINE
  5
17C
330
1F
100
AcDbEntity
  8
0
  6
Continuous
 62
     7
370
    25
100
AcDbLine
 10
268.794142793
 20
132.3802090551
 30
0.0
 11
260.794142793
 21
132.3802090551
 31
0.0
  0
LINE
  5
17D
330
1F
100
AcDbEntity
  8
0
  6
Continuous
 62
     7
370
    25
100
AcDbLine
 10
268.794142793
 20
132.3802090551
 30
0.0
 11
268.794142793
 21
132.5064808697
 31
0.0
  0
LINE
  5
17E
330
1F
100
AcDbEntity
  8
0
  6
Continuous
 62
     7
370
    25
100
AcDbLine
 10
260.794142793
 20
132.5064808697
 30
0.0
 11
268.794142793
 21
132.5064808697
 31
0.0
  0
LINE
  5
17F
330
1F
100
AcDbEntity
  8
0
  6
Continuous
 62
     7
370
    25
100
AcDbLine
 10
260.794142793
 20
132.5064808697
 30
0.0
 11
260.794142793
 21
132.7604918172
 31
0.0
  0
LINE
  5
180
330
1F
100
AcDbEntity
  8
0
  6
Continuous
 62
     7
370
    25
100
AcDbLine
 10
268.794142793
 20
132.7604918172
 30
0.0
 11
260.794142793
 21
132.7604918172
 31
0.0
  0
LINE
  5
181
330
1F
100
AcDbEntity
  8
0
  6
Continuous
 62
     7
370
    25
100
AcDbLine
 10
268.794142793
 20
132.7604918172
 30
0.0
 11
268.794142793
 21
132.8844650863
 31
0.0
  0
LINE
  5
182
330
1F
100
AcDbEntity
  8
0
  6
Continuous
 62
     7
370
    25
100
AcDbLine
 10
260.794142793
 20
132.8844650863
 30
0.0
 11
268.794142793
 21
132.8844650863
 31
0.0
  0
LINE
  5
183
330
1F
100
AcDbEntity
  8
0
  6
Continuous
 62
     7
370
    25
100
AcDbLine
 10
260.794142793
 20
132.8844650863
 30
0.0
 11
260.794142793
 21
133.008083349
 31
0.0
  0
LINE
  5
184
330
1F
100
AcDbEntity
  8
0
  6
Continuous
 62
     7
370
    25
100
AcDbLine
 10
260.794142793
 20
133.008083349
 30
0.0
 11
270.794142793
 21
133.008083349
 31
0.0
  0
LINE
  5
185
330
1F
100
AcDbEntity
  8
0
  6
Continuous
 62
     7
370
    25
100
AcDbLine
 10
270.794142793
 20
133.1302415976
 30
0.0
 11
270.794142793
 21
133.008083349
 31
0.0
  0
LINE
  5
186
330
1F
100
AcDbEntity
  8
0
  6
Continuous
 62
     7
370
    25
100
AcDbLine
 10
270.794142793
 20
133.1302415976
 30
0.0
 11
260.794142793
 21
133.1302415976
 31
0.0
  0
LINE
  5
187
330
1F
100
AcDbEntity
  8
0
  6
Continuous
 62
     7
370
    25
100
AcDbLine
 10
260.794142793
 20
133.1302415976
 30
0.0
 11
260.794142793
 21
133.3741492129
 31
0.0
  0
LINE
  5
188
330
1F
100
AcDbEntity
  8
0
  6
Continuous
 62
     7
370
    25
100
AcDbLine
 10
268.794142793
 20
133.3741492129
 30
0.0
 11
260.794142793
 21
133.3741492129
 31
0.0
  0
LINE
  5
189
330
1F
100
AcDbEntity
  8
0
  6
Continuous
 62
     7
370
    25
100
AcDbLine
 10
268.794142793
 20
133.3741492129
 30
0.0
 11
268.794142793
 21
133.4931366006
 31
0.0
  0
LINE
  5
18A
330
1F
100
AcDbEntity
  8
0
  6
Continuous
 62
     7
370
    25
100
AcDbLine
 10
260.794142793
 20
133.4931366006
 30
0.0
 11
268.794142793
 21
133.4931366006
 31
0.0
  0
LINE
  5
18B
330
1F
100
AcDbEntity
  8
0
  6
Continuous
 62
     7
370
    25
100
AcDbLine
 10
260.794142793
 20
133.4931366006
 30
0.0
 11
260.794142793
 21
133.7309469246
 31
0.0
  0
LINE
  5
18C
330
1F
100
AcDbEntity
  8
0
  6
Continuous
 62
     7
370
    25
100
AcDbLine
 10
268.794142793
 20
133.7309469246
 30
0.0
 11
260.794142793
 21
133.7309469246
 31
0.0
  0
LINE
  5
18D
330
1F
100
AcDbEntity
  8
0
  6
Continuous
 62
     7
370
    25
100
AcDbLine
 10
268.794142793
 20
133.7309469246
 30
0.0
 11
268.794142793
 21
133.8462441809
 31
0.0
  0
LINE
  5
18E
330
1F
100
AcDbEntity
  8
0
  6
Continuous
 62
     7
370
    25
100
AcDbLine
 10
260.794142793
 20
133.8462441809
 30
0.0
 11
268.794142793
 21
133.8462441809
 31
0.0
  0
LINE
  5
18F
330
1F
100
AcDbEntity
  8
0
  6
Continuous
 62
     7
370
    25
100
AcDbLine
 10
260.794142793
 20
133.8462441809
 30
0.0
 11
260.794142793
 21
133.9606951658
 31
0.0
  0
LINE
  5
190
330
1F
100
AcDbEntity
  8
0
  6
Continuous
 62
     7
370
    25
100
AcDbLine
 10
260.794142793
 20
133.9606951658
 30
0.0
 11
270.794142793
 21
133.9606951658
 31
0.0
  0
LINE
  5
191
330
1F
100
AcDbEntity
  8
0
  6
Continuous
 62
     7
370
    25
100
AcDbLine
 10
270.794142793
 20
134.0732768167
 30
0.0
 11
270.794142793
 21
133.9606951658
 31
0.0
  0
LINE
  5
192
330
1F
100
AcDbEntity
  8
0
  6
Continuous
 62
     7
370
    25
100
AcDbLine
 10
270.794142793
 20
134.0732768167
 30
0.0
 11
260.794142793
 21
134.0732768167
 31
0.0
  0
LINE
  5
193
330
1F
100
AcDbEntity
  8
0
  6
Continuous
 62
     7
370
    25
100
AcDbLine
 10
260.794142793
 20
134.0732768167
 30
0.0
 11
260.794142793
 21
134.296473508
 31
0.0
  0
LINE
  5
194
330
1F
100
AcDbEntity
  8
0
  6
Continuous
 62
     7
370
    25
100
AcDbLine
 10
268.794142793
 20
134.296473508
 30
0.0
 11
260.794142793
 21
134.296473508
 31
0.0
  0
LINE
  5
195
330
1F
100
AcDbEntity
  8
0
  6
Continuous
 62
     7
370
    25
100
AcDbLine
 10
268.794142793
 20
134.296473508
 30
0.0
 11
268.794142793
 21
134.4045610973
 31
0.0
  0
LINE
  5
196
330
1F
100
AcDbEntity
  8
0
  6
Continuous
 62
     7
370
    25
100
AcDbLine
 10
260.794142793
 20
134.4045610973
 30
0.0
 11
268.794142793
 21
134.4045610973
 31
0.0
  0
LINE
  5
197
330
1F
100
AcDbEntity
  8
0
  6
Continuous
 62
     7
370
    25
100
AcDbLine
 10
260.794142793
 20
134.4045610973
 30
0.0
 11
260.794142793
 21
134.6189450513
 31
0.0
  0
LINE
  5
198
330
1F
100
AcDbEntity
  8
0
  6
Continuous
 62
     7
370
    25
100
AcDbLine
 10
268.794142793
 20
134.6189450513
 30
0.0
 11
260.794142793
 21
134.6189450513
 31
0.0
  0
LINE
  5
199
330
1F
100
AcDbEntity
  8
0
  6
Continuous
 62
     7
370
    25
100
AcDbLine
 10
268.794142793
 20
134.6189450513
 30
0.0
 11
268.794142793
 21
134.7220630461
 31
0.0
  0
LINE
  5
19A
330
1F
100
AcDbEntity
  8
0
  6
Continuous
 62
     7
370
    25
100
AcDbLine
 10
260.794142793
 20
134.7220630461
 30
0.0
 11
268.794142793
 21
134.7220630461
 31
0.0
  0
LINE
  5
19B
330
1F
100
AcDbEntity
  8
0
  6
Continuous
 62
     7
370
    25
100
AcDbLine
 10
260.794142793
 20
134.7220630461
 30
0.0
 11
260.794142793
 21
136.4124724966
 31
0.0
  0
LINE
  5
19C
330
1F
100
AcDbEntity
  8
0
  6
Continuous
 62
     7
370
    25
100
AcDbLine
 10
270.094142793
 20
136.4124724966
 30
0.0
 11
260.794142793
 21
136.4124724966
 31
0.0
  0
SPLINE
  5
19D
330
1F
100
AcDbEntity
  8
0
  6
Continuous
 62
     7
370
    25
100
AcDbSpline
210
0.0
220
0.0
230
1.0
 70
     8
 71
     3
 72
    10
 73
     6
 74
     0
 42
0.00000001
 43
0.00000001
 40
0.0
 40
0.0
 40
0.0
 40
0.0
 40
0.309403938180812
 40
0.9937438551293354
 40
1.0
 40
1.0
 40
1.0
 40
1.0
 10
270.4941427930048
 20
136.7950103654369
 30
0.0
 10
270.4796624385134
 20
136.7606231680007
 30
0.0
 10
270.4331544225502
 20
136.6501783354358
 30
0.0
 10
270.2245194333084
 20
136.5155099413435
 30
0.0
 10
270.0953132781403
 20
136.4133975380948
 30
0.0
 10
270.0941427930047
 20
136.4124724966369
 30
0.0
  0
LINE
  5
19E
330
1F
100
AcDbEntity
  8
0
  6
Continuous
 62
     7
370
    25
100
AcDbLine
 10
280.794142793
 20
125.0171620329
 30
0.0
 11
280.794142793
 21
137.0171620329
 31
0.0
  0
LINE
  5
19F
330
1F
100
AcDbEntity
  8
0
  6
Continuous
 62
     7
370
    25
100
AcDbLine
 10
260.794142793
 20
130.9521629865
 30
0.0
 11
260.794142793
 21
131.0821610793
 31
0.0
  0
LINE
  5
1A0
330
1F
100
AcDbEntity
  8
0
  6
Continuous
 62
     7
370
    25
100
AcDbLine
 10
260.794142793
 20
130.8216428198
 30
0.0
 11
260.794142793
 21
130.6917672823
 31
0.0
  0
LINE
  5
1A1
330
1F
100
AcDbEntity
  8
0
  6
Continuous
 62
     7
370
    25
100
AcDbLine
 10
260.794142793
 20
131.4745729395
 30
0.0
 11
260.794142793
 21
131.3448534032
 31
0.0
  0
LINE
  5
1A2
330
1F
100
AcDbEntity
  8
0
  6
Continuous
 62
     7
370
    25
100
AcDbLine
 10
260.794142793
 20
130.4287668104
 30
0.0
 11
260.794142793
 21
130.2995410149
 31
0.0
  0
LINE
  5
1A3
330
1F
100
AcDbEntity
  8
0
  6
Continuous
 62
     7
370
    25
100
AcDbLine
 10
260.794142793
 20
131.8659489333
 30
0.0
 11
260.794142793
 21
131.7370665165
 31
0.0
  0
LINE
  5
1A4
330
1F
100
AcDbEntity
  8
0
  6
Continuous
 62
     7
370
    25
100
AcDbLine
 10
260.794142793
 20
131.9949783954
 30
0.0
 11
260.794142793
 21
132.1230015251
 31
0.0
  0
LINE
  5
1A5
330
1F
100
AcDbEntity
  8
0
  6
Continuous
 62
     7
370
    25
100
AcDbLine
 10
260.794142793
 20
129.9113225407
 30
0.0
 11
260.794142793
 21
130.0393456704
 31
0.0
  0
LINE
  5
1A6
330
1F
100
AcDbEntity
  8
0
  6
Continuous
 62
     7
370
    25
100
AcDbLine
 10
260.794142793
 20
129.7832774587
 30
0.0
 11
260.794142793
 21
129.656355003
 31
0.0
  0
LINE
  5
1A7
330
1F
100
AcDbEntity
  8
0
  6
Continuous
 62
     7
370
    25
100
AcDbLine
 10
260.794142793
 20
132.5064808697
 30
0.0
 11
260.794142793
 21
132.3802090551
 31
0.0
  0
LINE
  5
1A8
330
1F
100
AcDbEntity
  8
0
  6
Continuous
 62
     7
370
    25
100
AcDbLine
 10
260.794142793
 20
129.4008387723
 30
0.0
 11
260.794142793
 21
129.2760331781
 31
0.0
  0
LINE
  5
1A9
330
1F
100
AcDbEntity
  8
0
  6
Continuous
 62
     7
370
    25
100
AcDbLine
 10
260.794142793
 20
132.8844650863
 30
0.0
 11
260.794142793
 21
132.7604918172
 31
0.0
  0
LINE
  5
1AA
330
1F
100
AcDbEntity
  8
0
  6
Continuous
 62
     7
370
    25
100
AcDbLine
 10
260.794142793
 20
133.008083349
 30
0.0
 11
260.794142793
 21
133.1302415976
 31
0.0
  0
LINE
  5
1AB
330
1F
100
AcDbEntity
  8
0
  6
Continuous
 62
     7
370
    25
100
AcDbLine
 10
260.794142793
 20
128.9040824683
 30
0.0
 11
260.794142793
 21
129.0262407168
 31
0.0
  0
LINE
  5
1AC
330
1F
100
AcDbEntity
  8
0
  6
Continuous
 62
     7
370
    25
100
AcDbLine
 10
260.794142793
 20
128.782403056
 30
0.0
 11
260.794142793
 21
128.6622901566
 31
0.0
  0
LINE
  5
1AD
330
1F
100
AcDbEntity
  8
0
  6
Continuous
 62
     7
370
    25
100
AcDbLine
 10
260.794142793
 20
133.4931366006
 30
0.0
 11
260.794142793
 21
133.3741492129
 31
0.0
  0
LINE
  5
1AE
330
1F
100
AcDbEntity
  8
0
  6
Continuous
 62
     7
370
    25
100
AcDbLine
 10
260.794142793
 20
128.4220218987
 30
0.0
 11
260.794142793
 21
128.3054286604
 31
0.0
  0
LINE
  5
1AF
330
1F
100
AcDbEntity
  8
0
  6
Continuous
 62
     7
370
    25
100
AcDbLine
 10
260.794142793
 20
133.8462441809
 30
0.0
 11
260.794142793
 21
133.7309469246
 31
0.0
  0
LINE
  5
1B0
330
1F
100
AcDbEntity
  8
0
  6
Continuous
 62
     7
370
    25
100
AcDbLine
 10
260.794142793
 20
133.9606951658
 30
0.0
 11
260.794142793
 21
134.0732768167
 31
0.0
  0
LINE
  5
1B1
330
1F
100
AcDbEntity
  8
0
  6
Continuous
 62
     7
370
    25
100
AcDbLine
 10
260.794142793
 20
127.9610472491
 30
0.0
 11
260.794142793
 21
128.0736289
 31
0.0
  0
LINE
  5
1B2
330
1F
100
AcDbEntity
  8
0
  6
Continuous
 62
     7
370
    25
100
AcDbLine
 10
260.794142793
 20
134.4045610973
 30
0.0
 11
260.794142793
 21
134.296473508
 31
0.0
  0
LINE
  5
1B3
330
1F
100
AcDbEntity
  8
0
  6
Continuous
 62
     7
370
    25
100
AcDbLine
 10
260.794142793
 20
134.7220630461
 30
0.0
 11
260.794142793
 21
134.6189450513
 31
0.0
  0
ARC
  5
1B4
330
1F
100
AcDbEntity
  8
0
  6
Continuous
 62
     7
370
    25
100
AcDbCircle
 10
270.4905088088
 20
136.9913790166
 30
0.0
 40
0.1964022734385126
100
AcDbArc
 50
181.1009586277
 51
271.0601905861
  0
SPLINE
  5
1B5
330
1F
100
AcDbEntity
  8
0
  6
Continuous
 62
     7
370
    25
100
AcDbSpline
210
0.0
220
0.0
230
1.0
 70
     8
 71
     3
 72
    10
 73
     6
 74
     0
 42
0.00000001
 43
0.00000001
 40
0.0
 40
0.0
 40
0.0
 40
0.0
 40
0.2879804571332421
 40
0.9929350727165486
 40
1.0
 40
1.0
 40
1.0
 40
1.0
 10
270.2941427930048
 20
136.9876053098544
 30
0.0
 10
270.286392311847
 20
136.9275042730714
 30
0.0
 10
270.2596692326194
 20
136.7202803943314
 30
0.0
 10
270.15775720318
 20
136.5281499134705
 30
0.0
 10
270.0947677977166
 20
136.4136090147682
 30
0.0
 10
270.0941427930046
 20
136.4124724966369
 30
0.0
  0
LINE
  5
1B6
330
1F
100
AcDbEntity
  8
0
  6
Continuous
 62
     7
370
    25
100
AcDbLine
 10
260.794142793
 20
138.2109093179
 30
0.0
 11
270.094142793
 21
138.2109093179
 31
0.0
  0
LINE
  5
1B7
330
1F
100
AcDbEntity
  8
0
  6
Continuous
 62
     7
370
    25
100
AcDbLine
 10
270.094142793
 20
136.4124724966
 30
0.0
 11
270.094142793
 21
138.2109093179
 31
0.0
  0
LINE
  5
1B8
330
1F
100
AcDbEntity
  8
0
  6
Continuous
 62
     7
370
    25
100
AcDbLine
 10
260.794142793
 20
136.4124724966
 30
0.0
 11
260.794142793
 21
138.2109093179
 31
0.0
  0
LINE
  5
1B9
330
1F
100
AcDbEntity
  8
0
  6
Continuous
 62
     7
370
    25
100
AcDbLine
 10
270.294142793
 20
138.2109093179
 30
0.0
 11
270.294142793
 21
136.9876053099
 31
0.0
  0
LINE
  5
1BA
330
1F
100
AcDbEntity
  8
0
  6
Continuous
 62
     7
370
    25
100
AcDbLine
 10
270.294142793
 20
138.2109093179
 30
0.0
 11
270.094142793
 21
138.2109093179
 31
0.0
  0
LINE
  5
1BB
330
1F
100
AcDbEntity
  8
0
  6
Continuous
 62
     7
370
    25
100
AcDbLine
 10
270.094142793
 20
139.0171620329
 30
0.0
 11
270.294142793
 21
139.0171620329
 31
0.0
  0
LINE
  5
1BC
330
1F
100
AcDbEntity
  8
0
  6
Continuous
 62
     7
370
    25
100
AcDbLine
 10
270.294142793
 20
141.3171620329
 30
0.0
 11
270.294142793
 21
139.0171620329
 31
0.0
  0
LINE
  5
1BD
330
1F
100
AcDbEntity
  8
0
  6
Continuous
 62
     7
370
    25
100
AcDbLine
 10
260.794142793
 20
139.0171620329
 30
0.0
 11
270.094142793
 21
139.0171620329
 31
0.0
  0
LINE
  5
1BE
330
1F
100
AcDbEntity
  8
0
  6
Continuous
 62
     7
370
    25
100
AcDbLine
 10
260.794142793
 20
140.2045962416
 30
0.0
 11
260.794142793
 21
139.0171620329
 31
0.0
  0
LINE
  5
1BF
330
1F
100
AcDbEntity
  8
0
  6
Continuous
 62
     7
370
    25
100
AcDbLine
 10
270.094142793
 20
138.2109093179
 30
0.0
 11
270.094142793
 21
139.0171620329
 31
0.0
  0
LINE
  5
1C0
330
1F
100
AcDbEntity
  8
0
  6
Continuous
 62
     7
370
    25
100
AcDbLine
 10
270.294142793
 20
139.0171620329
 30
0.0
 11
270.294142793
 21
138.2109093179
 31
0.0
  0
LINE
  5
1C1
330
1F
100
AcDbEntity
  8
0
  6
Continuous
 62
     7
370
    25
100
AcDbLine
 10
260.794142793
 20
138.2109093179
 30
0.0
 11
260.794142793
 21
139.0171620329
 31
0.0
  0
LINE
  5
1C2
330
1F
100
AcDbEntity
  8
0
  6
Continuous
 62
     7
370
    25
100
AcDbLine
 10
260.494142793
 20
131.0671615989
 30
0.0
 11
260.494142793
 21
136.4124724966
 31
0.0
  0
ARC
  5
1C3
330
1F
100
AcDbEntity
  8
0
  6
Continuous
 62
     7
370
    25
100
AcDbCircle
 10
260.5084982618
 20
136.1267425886
 30
0.0
 40
0.2860903001079277
100
AcDbArc
 50
3.1988754662
 51
92.876201399
  0
ARC
  5
1C4
330
1F
100
AcDbEntity
  8
0
  6
Continuous
 62
     7
370
    25
100
AcDbCircle
 10
260.494142793
 20
125.3171620329
 30
0.0
 40
0.2999999999999972
100
AcDbArc
 50
270.0
 51
0.0
  0
LINE
  5
1C5
330
1F
100
AcDbEntity
  8
0
  6
Continuous
 62
     7
370
    25
100
AcDbLine
 10
260.494142793
 20
125.0171620329
 30
0.0
 11
260.494142793
 21
130.9671624669
 31
0.0
  0
SPLINE
  5
1C6
330
1F
100
AcDbEntity
  8
0
  6
Continuous
 62
     7
370
    25
100
AcDbSpline
210
0.0
220
0.0
230
1.0
 70
     8
 71
     3
 72
    19
 73
    15
 74
     0
 42
0.00000001
 43
0.00000001
 40
0.0
 40
0.0
 40
0.0
 40
0.0
 40
0.2556556382064996
 40
0.3835425571920383
 40
0.4311997731751557
 40
0.4623009862403691
 40
0.4879279346300247
 40
0.5136545589555059
 40
0.5373798181834999
 40
0.5708799966601528
 40
0.6220908089756634
 40
0.7149543724376799
 40
0.9065824040984973
 40
0.9999999999999999
 40
0.9999999999999999
 40
0.9999999999999999
 40
0.9999999999999999
 10
260.4941427930048
 20
130.9671624669398
 30
0.0
 10
260.527682171922
 20
130.9666064423632
 30
0.0
 10
260.577998993592
 20
130.9657722769622
 30
0.0
 10
260.6297866052677
 20
130.9764966347294
 30
0.0
 10
260.6497096407516
 20
130.9914050301054
 30
0.0
 10
260.6570510889262
 20
131.0022028002849
 30
0.0
 10
260.6601748376066
 20
131.0125223097739
 30
0.0
 10
260.6600147062388
 20
131.0225638288529
 30
0.0
 10
260.6567094191663
 20
131.0328332135583
 30
0.0
 10
260.6488702164692
 20
131.043895071866
 30
0.0
 10
260.6313746876189
 20
131.0561091313166
 30
0.0
 10
260.5921931112895
 20
131.066675486008
 30
0.0
 10
260.5435586405194
 20
131.0671273767609
 30
0.0
 10
260.5063403049109
 20
131.0671531516974
 30
0.0
 10
260.4941427930048
 20
131.0671615988805
 30
0.0
  0
LINE
  5
1C7
330
1F
100
AcDbEntity
  8
0
  6
Continuous
 62
     7
370
    25
100
AcDbLine
 10
256.794142793
 20
130.9671624669
 30
0.0
 11
260.494142793
 21
130.9671624669
 31
0.0
  0
LINE
  5
1C8
330
1F
100
AcDbEntity
  8
0
  6
Continuous
 62
     7
370
    25
100
AcDbLine
 10
260.494142793
 20
131.0671615989
 30
0.0
 11
256.794142793
 21
131.0671615989
 31
0.0
  0
LINE
  5
1C9
330
1F
100
AcDbEntity
  8
0
  6
Continuous
 62
     7
370
    25
100
AcDbLine
 10
256.794142793
 20
131.0671615989
 30
0.0
 11
256.794142793
 21
136.4124724966
 31
0.0
  0
LINE
  5
1CA
330
1F
100
AcDbEntity
  8
0
  6
Continuous
 62
     7
370
    25
100
AcDbLine
 10
260.494142793
 20
136.4124724966
 30
0.0
 11
256.794142793
 21
136.4124724966
 31
0.0
  0
LINE
  5
1CB
330
1F
100
AcDbEntity
  8
0
  6
Continuous
 62
     7
370
    25
100
AcDbLine
 10
260.494142793
 20
125.0171620329
 30
0.0
 11
256.794142793
 21
125.0171620329
 31
0.0
  0
LINE
  5
1CC
330
1F
100
AcDbEntity
  8
0
  6
Continuous
 62
     7
370
    25
100
AcDbLine
 10
256.794142793
 20
125.0171620329
 30
0.0
 11
256.794142793
 21
130.9671624669
 31
0.0
  0
LINE
  5
1CD
330
1F
100
AcDbEntity
  8
0
  6
Continuous
 62
     7
370
    25
100
AcDbLine
 10
256.794142793
 20
138.2109093179
 30
0.0
 11
260.494142793
 21
138.2109093179
 31
0.0
  0
LINE
  5
1CE
330
1F
100
AcDbEntity
  8
0
  6
Continuous
 62
     7
370
    25
100
AcDbLine
 10
260.494142793
 20
136.4124724966
 30
0.0
 11
260.494142793
 21
138.2109093179
 31
0.0
  0
LINE
  5
1CF
330
1F
100
AcDbEntity
  8
0
  6
Continuous
 62
     7
370
    25
100
AcDbLine
 10
256.794142793
 20
138.2109093179
 30
0.0
 11
256.794142793
 21
136.4124724966
 31
0.0
  0
LINE
  5
1D0
330
1F
100
AcDbEntity
  8
0
  6
Continuous
 62
     7
370
    25
100
AcDbLine
 10
260.794142793
 20
138.2109093179
 30
0.0
 11
260.494142793
 21
138.2109093179
 31
0.0
  0
LINE
  5
1D1
330
1F
100
AcDbEntity
  8
0
  6
Continuous
 62
     7
370
    25
100
AcDbLine
 10
260.494142793
 20
160.5171620329
 30
0.0
 11
256.794142793
 21
160.5171620329
 31
0.0
  0
LINE
  5
1D2
330
1F
100
AcDbEntity
  8
0
  6
Continuous
 62
     7
370
    25
100
AcDbLine
 10
260.494142793
 20
138.2109093179
 30
0.0
 11
260.494142793
 21
160.5171620329
 31
0.0
  0
LINE
  5
1D3
330
1F
100
AcDbEntity
  8
0
  6
Continuous
 62
     7
370
    25
100
AcDbLine
 10
256.794142793
 20
138.2109093179
 30
0.0
 11
256.794142793
 21
160.5171620329
 31
0.0
  0
LINE
  5
1D4
330
1F
100
AcDbEntity
  8
0
  6
Continuous
 62
     7
370
    25
100
AcDbLine
 10
260.494142793
 20
161.0171620329
 30
0.0
 11
260.494142793
 21
160.5171620329
 31
0.0
  0
LINE
  5
1D5
330
1F
100
AcDbEntity
  8
0
  6
Continuous
 62
     7
370
    25
100
AcDbLine
 10
256.794142793
 20
160.5171620329
 30
0.0
 11
256.794142793
 21
161.0171620329
 31
0.0
  0
LINE
  5
1D6
330
1F
100
AcDbEntity
  8
0
  6
Continuous
 62
     7
370
    25
100
AcDbLine
 10
260.794142793
 20
160.5171620329
 30
0.0
 11
260.494142793
 21
160.5171620329
 31
0.0
  0
ARC
  5
1D7
330
1F
100
AcDbEntity
  8
0
  6
Continuous
 62
     7
370
    25
100
AcDbCircle
 10
260.494142793
 20
160.7171620329
 30
0.0
 40
0.2999999999999829
100
AcDbArc
 50
0.0
 51
90.0
  0
LINE
  5
1D8
330
1F
100
AcDbEntity
  8
0
  6
Continuous
 62
     7
370
    25
100
AcDbLine
 10
260.794142793
 20
160.5171620329
 30
0.0
 11
260.794142793
 21
160.7171620329
 31
0.0
  0
LINE
  5
1D9
330
1F
100
AcDbEntity
  8
0
  6
Continuous
 62
     7
370
    25
100
AcDbLine
 10
260.794142793
 20
160.5171620329
 30
0.0
 11
260.794142793
 21
140.2045962416
 31
0.0
  0
LINE
  5
1DA
330
1F
100
AcDbEntity
  8
0
  6
Continuous
 62
     7
370
    25
100
AcDbLine
 10
73.794142793
 20
134.9234535346
 30
0.0
 11
81.794142793
 21
134.9234535346
 31
0.0
  0
LINE
  5
1DB
330
1F
100
AcDbEntity
  8
0
  6
Continuous
 62
     7
370
    25
100
AcDbLine
 10
73.794142793
 20
134.9234535346
 30
0.0
 11
73.794142793
 21
134.8238692179
 31
0.0
  0
LINE
  5
1DC
330
1F
100
AcDbEntity
  8
0
  6
Continuous
 62
     7
370
    25
100
AcDbLine
 10
81.794142793
 20
134.8238692179
 30
0.0
 11
73.794142793
 21
134.8238692179
 31
0.0
  0
LINE
  5
1DD
330
1F
100
AcDbEntity
  8
0
  6
Continuous
 62
     7
370
    25
100
AcDbLine
 10
81.794142793
 20
134.5116628061
 30
0.0
 11
81.794142793
 21
134.8238692179
 31
0.0
  0
LINE
  5
1DE
330
1F
100
AcDbEntity
  8
0
  6
Continuous
 62
     7
370
    25
100
AcDbLine
 10
73.794142793
 20
134.5116628061
 30
0.0
 11
81.794142793
 21
134.5116628061
 31
0.0
  0
LINE
  5
1DF
330
1F
100
AcDbEntity
  8
0
  6
Continuous
 62
     7
370
    25
100
AcDbLine
 10
73.794142793
 20
134.5116628061
 30
0.0
 11
73.794142793
 21
134.4051746025
 31
0.0
  0
LINE
  5
1E0
330
1F
100
AcDbEntity
  8
0
  6
Continuous
 62
     7
370
    25
100
AcDbLine
 10
81.794142793
 20
134.4051746025
 30
0.0
 11
73.794142793
 21
134.4051746025
 31
0.0
  0
LINE
  5
1E1
330
1F
100
AcDbEntity
  8
0
  6
Continuous
 62
     7
370
    25
100
AcDbLine
 10
81.794142793
 20
134.0732768167
 30
0.0
 11
81.794142793
 21
134.4051746025
 31
0.0
  0
LINE
  5
1E2
330
1F
100
AcDbEntity
  8
0
  6
Continuous
 62
     7
370
    25
100
AcDbLine
 10
71.794142793
 20
134.0732768167
 30
0.0
 11
81.794142793
 21
134.0732768167
 31
0.0
  0
LINE
  5
1E3
330
1F
100
AcDbEntity
  8
0
  6
Continuous
 62
     7
370
    25
100
AcDbLine
 10
71.794142793
 20
134.0732768167
 30
0.0
 11
71.794142793
 21
133.9606951658
 31
0.0
  0
LINE
  5
1E4
330
1F
100
AcDbEntity
  8
0
  6
Continuous
 62
     7
370
    25
100
AcDbLine
 10
81.794142793
 20
133.9606951658
 30
0.0
 11
71.794142793
 21
133.9606951658
 31
0.0
  0
LINE
  5
1E5
330
1F
100
AcDbEntity
  8
0
  6
Continuous
 62
     7
370
    25
100
AcDbLine
 10
81.794142793
 20
133.6116319484
 30
0.0
 11
81.794142793
 21
133.9606951658
 31
0.0
  0
LINE
  5
1E6
330
1F
100
AcDbEntity
  8
0
  6
Continuous
 62
     7
370
    25
100
AcDbLine
 10
73.794142793
 20
133.6116319484
 30
0.0
 11
81.794142793
 21
133.6116319484
 31
0.0
  0
LINE
  5
1E7
330
1F
100
AcDbEntity
  8
0
  6
Continuous
 62
     7
370
    25
100
AcDbLine
 10
73.794142793
 20
133.6116319484
 30
0.0
 11
73.794142793
 21
133.4938136646
 31
0.0
  0
LINE
  5
1E8
330
1F
100
AcDbEntity
  8
0
  6
Continuous
 62
     7
370
    25
100
AcDbLine
 10
81.794142793
 20
133.4938136646
 30
0.0
 11
73.794142793
 21
133.4938136646
 31
0.0
  0
LINE
  5
1E9
330
1F
100
AcDbEntity
  8
0
  6
Continuous
 62
     7
370
    25
100
AcDbLine
 10
81.794142793
 20
133.1302415976
 30
0.0
 11
81.794142793
 21
133.4938136646
 31
0.0
  0
LINE
  5
1EA
330
1F
100
AcDbEntity
  8
0
  6
Continuous
 62
     7
370
    25
100
AcDbLine
 10
71.794142793
 20
133.1302415976
 30
0.0
 11
81.794142793
 21
133.1302415976
 31
0.0
  0
LINE
  5
1EB
330
1F
100
AcDbEntity
  8
0
  6
Continuous
 62
     7
370
    25
100
AcDbLine
 10
71.794142793
 20
133.1302415976
 30
0.0
 11
71.794142793
 21
133.008083349
 31
0.0
  0
LINE
  5
1EC
330
1F
100
AcDbEntity
  8
0
  6
Continuous
 62
     7
370
    25
100
AcDbLine
 10
81.794142793
 20
133.008083349
 30
0.0
 11
71.794142793
 21
133.008083349
 31
0.0
  0
LINE
  5
1ED
330
1F
100
AcDbEntity
  8
0
  6
Continuous
 62
     7
370
    25
100
AcDbLine
 10
81.794142793
 20
132.6327694353
 30
0.0
 11
81.794142793
 21
133.008083349
 31
0.0
  0
LINE
  5
1EE
330
1F
100
AcDbEntity
  8
0
  6
Continuous
 62
     7
370
    25
100
AcDbLine
 10
73.794142793
 20
132.6327694353
 30
0.0
 11
81.794142793
 21
132.6327694353
 31
0.0
  0
LINE
  5
1EF
330
1F
100
AcDbEntity
  8
0
  6
Continuous
 62
     7
370
    25
100
AcDbLine
 10
73.794142793
 20
132.6327694353
 30
0.0
 11
73.794142793
 21
132.50720092
 31
0.0
  0
LINE
  5
1F0
330
1F
100
AcDbEntity
  8
0
  6
Continuous
 62
     7
370
    25
100
AcDbLine
 10
81.794142793
 20
132.50720092
 30
0.0
 11
73.794142793
 21
132.50720092
 31
0.0
  0
LINE
  5
1F1
330
1F
100
AcDbEntity
  8
0
  6
Continuous
 62
     7
370
    25
100
AcDbLine
 10
81.794142793
 20
132.1230015251
 30
0.0
 11
81.794142793
 21
132.50720092
 31
0.0
  0
LINE
  5
1F2
330
1F
100
AcDbEntity
  8
0
  6
Continuous
 62
     7
370
    25
100
AcDbLine
 10
71.794142793
 20
132.1230015251
 30
0.0
 11
81.794142793
 21
132.1230015251
 31
0.0
  0
LINE
  5
1F3
330
1F
100
AcDbEntity
  8
0
  6
Continuous
 62
     7
370
    25
100
AcDbLine
 10
71.794142793
 20
132.1230015251
 30
0.0
 11
71.794142793
 21
131.9949783954
 31
0.0
  0
LINE
  5
1F4
330
1F
100
AcDbEntity
  8
0
  6
Continuous
 62
     7
370
    25
100
AcDbLine
 10
81.794142793
 20
131.9949783954
 30
0.0
 11
71.794142793
 21
131.9949783954
 31
0.0
  0
LINE
  5
1F5
330
1F
100
AcDbEntity
  8
0
  6
Continuous
 62
     7
370
    25
100
AcDbLine
 10
81.794142793
 20
131.6048175088
 30
0.0
 11
81.794142793
 21
131.9949783954
 31
0.0
  0
LINE
  5
1F6
330
1F
100
AcDbEntity
  8
0
  6
Continuous
 62
     7
370
    25
100
AcDbLine
 10
73.794142793
 20
131.6048175088
 30
0.0
 11
81.794142793
 21
131.6048175088
 31
0.0
  0
LINE
  5
1F7
330
1F
100
AcDbEntity
  8
0
  6
Continuous
 62
     7
370
    25
100
AcDbLine
 10
73.794142793
 20
131.6048175088
 30
0.0
 11
73.794142793
 21
131.4753140979
 31
0.0
  0
LINE
  5
1F8
330
1F
100
AcDbEntity
  8
0
  6
Continuous
 62
     7
370
    25
100
AcDbLine
 10
81.794142793
 20
131.4753140979
 30
0.0
 11
73.794142793
 21
131.4753140979
 31
0.0
  0
LINE
  5
1F9
330
1F
100
AcDbEntity
  8
0
  6
Continuous
 62
     7
370
    25
100
AcDbLine
 10
81.794142793
 20
131.0821610793
 30
0.0
 11
81.794142793
 21
131.4753140979
 31
0.0
  0
LINE
  5
1FA
330
1F
100
AcDbEntity
  8
0
  6
Continuous
 62
     7
370
    25
100
AcDbLine
 10
71.794142793
 20
131.0821610793
 30
0.0
 11
81.794142793
 21
131.0821610793
 31
0.0
  0
LINE
  5
1FB
330
1F
100
AcDbEntity
  8
0
  6
Continuous
 62
     7
370
    25
100
AcDbLine
 10
81.794142793
 20
130.9521629865
 30
0.0
 11
71.794142793
 21
130.9521629865
 31
0.0
  0
LINE
  5
1FC
330
1F
100
AcDbEntity
  8
0
  6
Continuous
 62
     7
370
    25
100
AcDbLine
 10
81.794142793
 20
130.5590099679
 30
0.0
 11
81.794142793
 21
130.9521629865
 31
0.0
  0
LINE
  5
1FD
330
1F
100
AcDbEntity
  8
0
  6
Continuous
 62
     7
370
    25
100
AcDbLine
 10
73.794142793
 20
130.5590099679
 30
0.0
 11
81.794142793
 21
130.5590099679
 31
0.0
  0
LINE
  5
1FE
330
1F
100
AcDbEntity
  8
0
  6
Continuous
 62
     7
370
    25
100
AcDbLine
 10
73.794142793
 20
130.5590099679
 30
0.0
 11
73.794142793
 21
130.4295065571
 31
0.0
  0
LINE
  5
1FF
330
1F
100
AcDbEntity
  8
0
  6
Continuous
 62
     7
370
    25
100
AcDbLine
 10
81.794142793
 20
130.4295065571
 30
0.0
 11
73.794142793
 21
130.4295065571
 31
0.0
  0
LINE
  5
200
330
1F
100
AcDbEntity
  8
0
  6
Continuous
 62
     7
370
    25
100
AcDbLine
 10
81.794142793
 20
130.0393456704
 30
0.0
 11
81.794142793
 21
130.4295065571
 31
0.0
  0
LINE
  5
201
330
1F
100
AcDbEntity
  8
0
  6
Continuous
 62
     7
370
    25
100
AcDbLine
 10
71.794142793
 20
130.0393456704
 30
0.0
 11
81.794142793
 21
130.0393456704
 31
0.0
  0
LINE
  5
202
330
1F
100
AcDbEntity
  8
0
  6
Continuous
 62
     7
370
    25
100
AcDbLine
 10
71.794142793
 20
130.0393456704
 30
0.0
 11
71.794142793
 21
129.9113225407
 31
0.0
  0
LINE
  5
203
330
1F
100
AcDbEntity
  8
0
  6
Continuous
 62
     7
370
    25
100
AcDbLine
 10
81.794142793
 20
129.9113225407
 30
0.0
 11
71.794142793
 21
129.9113225407
 31
0.0
  0
LINE
  5
204
330
1F
100
AcDbEntity
  8
0
  6
Continuous
 62
     7
370
    25
100
AcDbLine
 10
81.794142793
 20
129.5271231458
 30
0.0
 11
81.794142793
 21
129.9113225407
 31
0.0
  0
LINE
  5
205
330
1F
100
AcDbEntity
  8
0
  6
Continuous
 62
     7
370
    25
100
AcDbLine
 10
73.794142793
 20
129.5271231458
 30
0.0
 11
81.794142793
 21
129.5271231458
 31
0.0
  0
LINE
  5
206
330
1F
100
AcDbEntity
  8
0
  6
Continuous
 62
     7
370
    25
100
AcDbLine
 10
73.794142793
 20
129.5271231458
 30
0.0
 11
73.794142793
 21
129.4015546305
 31
0.0
  0
LINE
  5
207
330
1F
100
AcDbEntity
  8
0
  6
Continuous
 62
     7
370
    25
100
AcDbLine
 10
81.794142793
 20
129.4015546305
 30
0.0
 11
73.794142793
 21
129.4015546305
 31
0.0
  0
LINE
  5
208
330
1F
100
AcDbEntity
  8
0
  6
Continuous
 62
     7
370
    25
100
AcDbLine
 10
81.794142793
 20
129.0262407168
 30
0.0
 11
81.794142793
 21
129.4015546305
 31
0.0
  0
LINE
  5
209
330
1F
100
AcDbEntity
  8
0
  6
Continuous
 62
     7
370
    25
100
AcDbLine
 10
71.794142793
 20
129.0262407168
 30
0.0
 11
81.794142793
 21
129.0262407168
 31
0.0
  0
LINE
  5
20A
330
1F
100
AcDbEntity
  8
0
  6
Continuous
 62
     7
370
    25
100
AcDbLine
 10
71.794142793
 20
129.0262407168
 30
0.0
 11
71.794142793
 21
128.9040824683
 31
0.0
  0
LINE
  5
20B
330
1F
100
AcDbEntity
  8
0
  6
Continuous
 62
     7
370
    25
100
AcDbLine
 10
81.794142793
 20
128.9040824683
 30
0.0
 11
71.794142793
 21
128.9040824683
 31
0.0
  0
LINE
  5
20C
330
1F
100
AcDbEntity
  8
0
  6
Continuous
 62
     7
370
    25
100
AcDbLine
 10
81.794142793
 20
128.5405104012
 30
0.0
 11
81.794142793
 21
128.9040824683
 31
0.0
  0
LINE
  5
20D
330
1F
100
AcDbEntity
  8
0
  6
Continuous
 62
     7
370
    25
100
AcDbLine
 10
73.794142793
 20
128.5405104012
 30
0.0
 11
81.794142793
 21
128.5405104012
 31
0.0
  0
LINE
  5
20E
330
1F
100
AcDbEntity
  8
0
  6
Continuous
 62
     7
370
    25
100
AcDbLine
 10
73.794142793
 20
128.5405104012
 30
0.0
 11
73.794142793
 21
128.4226921174
 31
0.0
  0
LINE
  5
20F
330
1F
100
AcDbEntity
  8
0
  6
Continuous
 62
     7
370
    25
100
AcDbLine
 10
81.794142793
 20
128.4226921174
 30
0.0
 11
73.794142793
 21
128.4226921174
 31
0.0
  0
LINE
  5
210
330
1F
100
AcDbEntity
  8
0
  6
Continuous
 62
     7
370
    25
100
AcDbLine
 10
81.794142793
 20
128.0736289
 30
0.0
 11
81.794142793
 21
128.4226921174
 31
0.0
  0
LINE
  5
211
330
1F
100
AcDbEntity
  8
0
  6
Continuous
 62
     7
370
    25
100
AcDbLine
 10
71.794142793
 20
128.0736289
 30
0.0
 11
81.794142793
 21
128.0736289
 31
0.0
  0
LINE
  5
212
330
1F
100
AcDbEntity
  8
0
  6
Continuous
 62
     7
370
    25
100
AcDbLine
 10
71.794142793
 20
128.0736289
 30
0.0
 11
71.794142793
 21
127.9610472491
 31
0.0
  0
LINE
  5
213
330
1F
100
AcDbEntity
  8
0
  6
Continuous
 62
     7
370
    25
100
AcDbLine
 10
81.794142793
 20
127.9610472491
 30
0.0
 11
71.794142793
 21
127.9610472491
 31
0.0
  0
LINE
  5
214
330
1F
100
AcDbEntity
  8
0
  6
Continuous
 62
     7
370
    25
100
AcDbLine
 10
81.794142793
 20
125.0171620329
 30
0.0
 11
81.794142793
 21
127.9610472491
 31
0.0
  0
LINE
  5
215
330
1F
100
AcDbEntity
  8
0
  6
Continuous
 62
     7
370
    25
100
AcDbLine
 10
61.794142793
 20
125.0171620329
 30
0.0
 11
81.794142793
 21
125.0171620329
 31
0.0
  0
SPLINE
  5
216
330
1F
100
AcDbEntity
  8
0
  6
Continuous
 62
     7
370
    25
100
AcDbSpline
210
0.0
220
0.0
230
1.0
 70
     8
 71
     3
 72
    10
 73
     6
 74
     0
 42
0.00000001
 43
0.00000001
 40
0.0
 40
0.0
 40
0.0
 40
0.0
 40
0.0062561448706105
 40
0.6905960618191487
 40
1.0
 40
1.0
 40
1.0
 40
1.0
 10
72.49414279300467
 20
136.4124724966369
 30
0.0
 10
72.49297230786941
 20
136.4133975380948
 30
0.0
 10
72.36376615270709
 20
136.5155099413433
 30
0.0
 10
72.15513116345792
 20
136.6501783354358
 30
0.0
 10
72.10862314749575
 20
136.7606231680007
 30
0.0
 10
72.09414279300472
 20
136.7950103654369
 30
0.0
  0
LINE
  5
217
330
1F
100
AcDbEntity
  8
0
  6
Continuous
 62
     7
370
    25
100
AcDbLine
 10
81.794142793
 20
136.4124724966
 30
0.0
 11
72.494142793
 21
136.4124724966
 31
0.0
  0
LINE
  5
218
330
1F
100
AcDbEntity
  8
0
  6
Continuous
 62
     7
370
    25
100
AcDbLine
 10
81.794142793
 20
134.9234535346
 30
0.0
 11
81.794142793
 21
136.4124724966
 31
0.0
  0
LINE
  5
219
330
1F
100
AcDbEntity
  8
0
  6
Continuous
 62
     7
370
    25
100
AcDbLine
 10
71.794142793
 20
131.0821610793
 30
0.0
 11
71.794142793
 21
130.9521629865
 31
0.0
  0
LINE
  5
21A
330
1F
100
AcDbEntity
  8
0
  6
Continuous
 62
     7
370
    25
100
AcDbLine
 10
61.794142793
 20
125.0171620329
 30
0.0
 11
61.794142793
 21
137.0171620329
 31
0.0
  0
LINE
  5
21B
330
1F
100
AcDbEntity
  8
0
  6
Continuous
 62
     7
370
    25
100
AcDbLine
 10
81.794142793
 20
131.0821610793
 30
0.0
 11
81.794142793
 21
130.9521629865
 31
0.0
  0
LINE
  5
21C
330
1F
100
AcDbEntity
  8
0
  6
Continuous
 62
     7
370
    25
100
AcDbLine
 10
81.794142793
 20
131.6048175088
 30
0.0
 11
81.794142793
 21
131.4753140979
 31
0.0
  0
LINE
  5
21D
330
1F
100
AcDbEntity
  8
0
  6
Continuous
 62
     7
370
    25
100
AcDbLine
 10
81.794142793
 20
130.5590099679
 30
0.0
 11
81.794142793
 21
130.4295065571
 31
0.0
  0
LINE
  5
21E
330
1F
100
AcDbEntity
  8
0
  6
Continuous
 62
     7
370
    25
100
AcDbLine
 10
81.794142793
 20
132.1230015251
 30
0.0
 11
81.794142793
 21
131.9949783954
 31
0.0
  0
LINE
  5
21F
330
1F
100
AcDbEntity
  8
0
  6
Continuous
 62
     7
370
    25
100
AcDbLine
 10
81.794142793
 20
130.0393456704
 30
0.0
 11
81.794142793
 21
129.9113225407
 31
0.0
  0
LINE
  5
220
330
1F
100
AcDbEntity
  8
0
  6
Continuous
 62
     7
370
    25
100
AcDbLine
 10
81.794142793
 20
132.6327694353
 30
0.0
 11
81.794142793
 21
132.50720092
 31
0.0
  0
LINE
  5
221
330
1F
100
AcDbEntity
  8
0
  6
Continuous
 62
     7
370
    25
100
AcDbLine
 10
81.794142793
 20
129.5271231458
 30
0.0
 11
81.794142793
 21
129.4015546305
 31
0.0
  0
LINE
  5
222
330
1F
100
AcDbEntity
  8
0
  6
Continuous
 62
     7
370
    25
100
AcDbLine
 10
81.794142793
 20
133.1302415976
 30
0.0
 11
81.794142793
 21
133.008083349
 31
0.0
  0
LINE
  5
223
330
1F
100
AcDbEntity
  8
0
  6
Continuous
 62
     7
370
    25
100
AcDbLine
 10
81.794142793
 20
129.0262407168
 30
0.0
 11
81.794142793
 21
128.9040824683
 31
0.0
  0
LINE
  5
224
330
1F
100
AcDbEntity
  8
0
  6
Continuous
 62
     7
370
    25
100
AcDbLine
 10
81.794142793
 20
133.6116319484
 30
0.0
 11
81.794142793
 21
133.4938136646
 31
0.0
  0
LINE
  5
225
330
1F
100
AcDbEntity
  8
0
  6
Continuous
 62
     7
370
    25
100
AcDbLine
 10
81.794142793
 20
128.5405104012
 30
0.0
 11
81.794142793
 21
128.4226921174
 31
0.0
  0
LINE
  5
226
330
1F
100
AcDbEntity
  8
0
  6
Continuous
 62
     7
370
    25
100
AcDbLine
 10
81.794142793
 20
134.0732768167
 30
0.0
 11
81.794142793
 21
133.9606951658
 31
0.0
  0
LINE
  5
227
330
1F
100
AcDbEntity
  8
0
  6
Continuous
 62
     7
370
    25
100
AcDbLine
 10
81.794142793
 20
128.0736289
 30
0.0
 11
81.794142793
 21
127.9610472491
 31
0.0
  0
LINE
  5
228
330
1F
100
AcDbEntity
  8
0
  6
Continuous
 62
     7
370
    25
100
AcDbLine
 10
81.794142793
 20
134.5116628061
 30
0.0
 11
81.794142793
 21
134.4051746025
 31
0.0
  0
LINE
  5
229
330
1F
100
AcDbEntity
  8
0
  6
Continuous
 62
     7
370
    25
100
AcDbLine
 10
81.794142793
 20
134.9234535346
 30
0.0
 11
81.794142793
 21
134.8238692179
 31
0.0
  0
LINE
  5
22A
330
1F
100
AcDbEntity
  8
0
  6
Continuous
 62
     7
370
    25
100
AcDbLine
 10
72.294142793
 20
136.9876053099
 30
0.0
 11
72.294142793
 21
138.2109093179
 31
0.0
  0
LINE
  5
22B
330
1F
100
AcDbEntity
  8
0
  6
Continuous
 62
     7
370
    25
100
AcDbLine
 10
72.294142793
 20
138.2109093179
 30
0.0
 11
72.494142793
 21
138.2109093179
 31
0.0
  0
LINE
  5
22C
330
1F
100
AcDbEntity
  8
0
  6
Continuous
 62
     7
370
    25
100
AcDbLine
 10
72.494142793
 20
138.2109093179
 30
0.0
 11
72.494142793
 21
136.4124724966
 31
0.0
  0
SPLINE
  5
22D
330
1F
100
AcDbEntity
  8
0
  6
Continuous
 62
     7
370
    25
100
AcDbSpline
210
0.0
220
0.0
230
1.0
 70
     8
 71
     3
 72
    10
 73
     6
 74
     0
 42
0.00000001
 43
0.00000001
 40
0.0
 40
0.0
 40
0.0
 40
0.0
 40
0.287980457133264
 40
0.9929350727165661
 40
1.0
 40
1.0
 40
1.0
 40
1.0
 10
72.2941427930047
 20
136.9876053098544
 30
0.0
 10
72.30189327416245
 20
136.9275042730714
 30
0.0
 10
72.32861635338946
 20
136.7202803943314
 30
0.0
 10
72.43052838283067
 20
136.5281499134707
 30
0.0
 10
72.49351778829269
 20
136.4136090147682
 30
0.0
 10
72.49414279300467
 20
136.4124724966369
 30
0.0
  0
ARC
  5
22E
330
1F
100
AcDbEntity
  8
0
  6
Continuous
 62
     7
370
    25
100
AcDbCircle
 10
72.0977767772
 20
136.9913790166
 30
0.0
 40
0.1964022734383168
100
AcDbArc
 50
268.9398094139
 51
358.8990413723
  0
LINE
  5
22F
330
1F
100
AcDbEntity
  8
0
  6
Continuous
 62
     7
370
    25
100
AcDbLine
 10
72.494142793
 20
138.2109093179
 30
0.0
 11
81.794142793
 21
138.2109093179
 31
0.0
  0
LINE
  5
230
330
1F
100
AcDbEntity
  8
0
  6
Continuous
 62
     7
370
    25
100
AcDbLine
 10
81.794142793
 20
138.2109093179
 30
0.0
 11
81.794142793
 21
136.4124724966
 31
0.0
  0
LINE
  5
231
330
1F
100
AcDbEntity
  8
0
  6
Continuous
 62
     7
370
    25
100
AcDbLine
 10
72.494142793
 20
139.0171620329
 30
0.0
 11
72.294142793
 21
139.0171620329
 31
0.0
  0
LINE
  5
232
330
1F
100
AcDbEntity
  8
0
  6
Continuous
 62
     7
370
    25
100
AcDbLine
 10
72.494142793
 20
139.0171620329
 30
0.0
 11
72.494142793
 21
138.2109093179
 31
0.0
  0
LINE
  5
233
330
1F
100
AcDbEntity
  8
0
  6
Continuous
 62
     7
370
    25
100
AcDbLine
 10
72.294142793
 20
138.2109093179
 30
0.0
 11
72.294142793
 21
139.0171620329
 31
0.0
  0
LINE
  5
234
330
1F
100
AcDbEntity
  8
0
  6
Continuous
 62
     7
370
    25
100
AcDbLine
 10
72.294142793
 20
139.0171620329
 30
0.0
 11
72.294142793
 21
141.3171620329
 31
0.0
  0
LINE
  5
235
330
1F
100
AcDbEntity
  8
0
  6
Continuous
 62
     7
370
    25
100
AcDbLine
 10
81.794142793
 20
139.0171620329
 30
0.0
 11
72.494142793
 21
139.0171620329
 31
0.0
  0
LINE
  5
236
330
1F
100
AcDbEntity
  8
0
  6
Continuous
 62
     7
370
    25
100
AcDbLine
 10
81.794142793
 20
139.99695793
 30
0.0
 11
81.794142793
 21
139.0171620329
 31
0.0
  0
LINE
  5
237
330
1F
100
AcDbEntity
  8
0
  6
Continuous
 62
     7
370
    25
100
AcDbLine
 10
81.794142793
 20
139.0171620329
 30
0.0
 11
81.794142793
 21
138.2109093179
 31
0.0
  0
SPLINE
  5
238
330
1F
100
AcDbEntity
  8
0
  6
Continuous
 62
     7
370
    25
100
AcDbSpline
210
0.0
220
0.0
230
1.0
 70
     8
 71
     3
 72
    14
 73
    10
 74
     0
 42
0.00000001
 43
0.00000001
 40
0.0
 40
0.0
 40
0.0
 40
0.0
 40
0.0109658445959303
 40
0.062351061953896
 40
0.2236176679350131
 40
0.4540957310504229
 40
0.6557571677746723
 40
0.8533267937610006
 40
0.9999999999999999
 40
0.9999999999999999
 40
0.9999999999999999
 40
0.9999999999999999
 10
81.79414279300454
 20
130.8696951404393
 30
0.0
 10
81.79414901957423
 20
130.8700558681064
 30
0.0
 10
81.79418442343298
 20
130.8721069415939
 30
0.0
 10
81.79554868133962
 20
130.8796399618023
 30
0.0
 10
81.80573755269002
 20
130.895574013328
 30
0.0
 10
81.83692707329068
 20
130.9189179543318
 30
0.0
 10
81.88649684576585
 20
130.9432940850571
 30
0.0
 10
81.93999130437221
 20
130.9629951020885
 30
0.0
 10
81.97796370770679
 20
130.9659173644855
 30
0.0
 10
81.99414279300474
 20
130.9671624669398
 30
0.0
  0
LINE
  5
239
330
1F
100
AcDbEntity
  8
0
  6
Continuous
 62
     7
370
    25
100
AcDbLine
 10
81.994142793
 20
130.9671624669
 30
0.0
 11
81.994142793
 21
125.0171620329
 31
0.0
  0
ARC
  5
23A
330
1F
100
AcDbEntity
  8
0
  6
Continuous
 62
     7
370
    25
100
AcDbCircle
 10
81.994142793
 20
125.2171620329
 30
0.0
 40
0.2000000000000028
100
AcDbArc
 50
180.0
 51
270.0
  0
LINE
  5
23B
330
1F
100
AcDbEntity
  8
0
  6
Continuous
 62
     7
370
    25
100
AcDbLine
 10
81.994142793
 20
136.4124724966
 30
0.0
 11
81.994142793
 21
131.0671615989
 31
0.0
  0
SPLINE
  5
23C
330
1F
100
AcDbEntity
  8
0
  6
Continuous
 62
     7
370
    25
100
AcDbSpline
210
0.0
220
0.0
230
1.0
 70
     8
 71
     3
 72
    14
 73
    10
 74
     0
 42
0.00000001
 43
0.00000001
 40
0.0
 40
0.0
 40
0.0
 40
0.0
 40
0.1466732062389984
 40
0.3442428322253269
 40
0.5459042689495802
 40
0.7763823320649865
 40
0.9376489380461073
 40
0.9890341554040698
 40
1.0
 40
1.0
 40
1.0
 40
1.0
 10
81.99414279300474
 20
131.0671615988805
 30
0.0
 10
81.97796370770702
 20
131.0684067013347
 30
0.0
 10
81.93999130437221
 20
131.0713289637318
 30
0.0
 10
81.88649684576541
 20
131.0910299807631
 30
0.0
 10
81.83692707329112
 20
131.1154061114884
 30
0.0
 10
81.80573755268935
 20
131.1387500524922
 30
0.0
 10
81.79554868134007
 20
131.154684104018
 30
0.0
 10
81.79418442343298
 20
131.1622171242263
 30
0.0
 10
81.79414901957423
 20
131.1642681977139
 30
0.0
 10
81.79414279300475
 20
131.164628925381
 30
0.0
  0
ARC
  5
23D
330
1F
100
AcDbEntity
  8
0
  6
Continuous
 62
     7
370
    25
100
AcDbCircle
 10
81.9845724805
 20
136.2219858913
 30
0.0
 40
0.1907268667384901
100
AcDbArc
 50
87.1237986009
 51
176.8011245338
  0
LINE
  5
23E
330
1F
100
AcDbEntity
  8
0
  6
Continuous
 62
     7
370
    25
100
AcDbLine
 10
81.994142793
 20
131.0671615989
 30
0.0
 11
81.994142793
 21
130.9671624669
 31
0.0
  0
LINE
  5
23F
330
1F
100
AcDbEntity
  8
0
  6
Continuous
 62
     7
370
    25
100
AcDbLine
 10
85.794142793
 20
136.4124724966
 30
0.0
 11
85.794142793
 21
131.0671615989
 31
0.0
  0
LINE
  5
240
330
1F
100
AcDbEntity
  8
0
  6
Continuous
 62
     7
370
    25
100
AcDbLine
 10
85.794142793
 20
131.0671615989
 30
0.0
 11
81.994142793
 21
131.0671615989
 31
0.0
  0
LINE
  5
241
330
1F
100
AcDbEntity
  8
0
  6
Continuous
 62
     7
370
    25
100
AcDbLine
 10
85.794142793
 20
136.4124724966
 30
0.0
 11
81.994142793
 21
136.4124724966
 31
0.0
  0
LINE
  5
242
330
1F
100
AcDbEntity
  8
0
  6
Continuous
 62
     7
370
    25
100
AcDbLine
 10
81.994142793
 20
130.9671624669
 30
0.0
 11
85.794142793
 21
130.9671624669
 31
0.0
  0
LINE
  5
243
330
1F
100
AcDbEntity
  8
0
  6
Continuous
 62
     7
370
    25
100
AcDbLine
 10
85.794142793
 20
130.9671624669
 30
0.0
 11
85.794142793
 21
125.0171620329
 31
0.0
  0
LINE
  5
244
330
1F
100
AcDbEntity
  8
0
  6
Continuous
 62
     7
370
    25
100
AcDbLine
 10
85.794142793
 20
125.0171620329
 30
0.0
 11
81.994142793
 21
125.0171620329
 31
0.0
  0
LINE
  5
245
330
1F
100
AcDbEntity
  8
0
  6
Continuous
 62
     7
370
    25
100
AcDbLine
 10
81.994142793
 20
138.2109093179
 30
0.0
 11
81.994142793
 21
136.4124724966
 31
0.0
  0
LINE
  5
246
330
1F
100
AcDbEntity
  8
0
  6
Continuous
 62
     7
370
    25
100
AcDbLine
 10
81.994142793
 20
138.2109093179
 30
0.0
 11
81.794142793
 21
138.2109093179
 31
0.0
  0
LINE
  5
247
330
1F
100
AcDbEntity
  8
0
  6
Continuous
 62
     7
370
    25
100
AcDbLine
 10
81.994142793
 20
138.2109093179
 30
0.0
 11
85.794142793
 21
138.2109093179
 31
0.0
  0
LINE
  5
248
330
1F
100
AcDbEntity
  8
0
  6
Continuous
 62
     7
370
    25
100
AcDbLine
 10
85.794142793
 20
138.2109093179
 30
0.0
 11
85.794142793
 21
136.4124724966
 31
0.0
  0
LINE
  5
249
330
1F
100
AcDbEntity
  8
0
  6
Continuous
 62
     7
370
    25
100
AcDbLine
 10
81.994142793
 20
160.5171620329
 30
0.0
 11
81.794142793
 21
160.5171620329
 31
0.0
  0
LINE
  5
24A
330
1F
100
AcDbEntity
  8
0
  6
Continuous
 62
     7
370
    25
100
AcDbLine
 10
81.994142793
 20
160.5171620329
 30
0.0
 11
81.994142793
 21
138.2109093179
 31
0.0
  0
LINE
  5
24B
330
1F
100
AcDbEntity
  8
0
  6
Continuous
 62
     7
370
    25
100
AcDbLine
 10
81.794142793
 20
139.99695793
 30
0.0
 11
81.794142793
 21
160.5171620329
 31
0.0
  0
LINE
  5
24C
330
1F
100
AcDbEntity
  8
0
  6
Continuous
 62
     7
370
    25
100
AcDbLine
 10
85.794142793
 20
160.5171620329
 30
0.0
 11
81.994142793
 21
160.5171620329
 31
0.0
  0
LINE
  5
24D
330
1F
100
AcDbEntity
  8
0
  6
Continuous
 62
     7
370
    25
100
AcDbLine
 10
85.794142793
 20
160.5171620329
 30
0.0
 11
85.794142793
 21
138.2109093179
 31
0.0
  0
LINE
  5
24E
330
1F
100
AcDbEntity
  8
0
  6
Continuous
 62
     7
370
    25
100
AcDbLine
 10
81.994142793
 20
160.5171620329
 30
0.0
 11
81.994142793
 21
161.0171620329
 31
0.0
  0
LINE
  5
24F
330
1F
100
AcDbEntity
  8
0
  6
Continuous
 62
     7
370
    25
100
AcDbLine
 10
85.794142793
 20
161.0171620329
 30
0.0
 11
85.794142793
 21
160.5171620329
 31
0.0
  0
ARC
  5
250
330
1F
100
AcDbEntity
  8
0
  6
Continuous
 62
     7
370
    25
100
AcDbCircle
 10
81.994142793
 20
160.8171620329
 30
0.0
 40
0.1999999999999886
100
AcDbArc
 50
90.0
 51
180.0
  0
LINE
  5
251
330
1F
100
AcDbEntity
  8
0
  6
Continuous
 62
     7
370
    25
100
AcDbLine
 10
81.794142793
 20
160.8171620329
 30
0.0
 11
81.794142793
 21
160.5171620329
 31
0.0
  0
LINE
  5
252
330
1F
100
AcDbEntity
  8
0
  6
Continuous
 62
     7
370
    25
100
AcDbLine
 10
58.4346544459
 20
153.1171620329
 30
0.0
 11
58.4346544459
 21
132.9171620329
 31
0.0
  0
LINE
  5
253
330
1F
100
AcDbEntity
  8
0
  6
Continuous
 62
     7
370
    25
100
AcDbLine
 10
284.1536311401
 20
152.5695749131
 30
0.0
 11
284.1536311401
 21
153.1171620329
 31
0.0
  0
LINE
  5
254
330
1F
100
AcDbEntity
  8
0
  6
Continuous
 62
     7
370
    25
100
AcDbLine
 10
284.1536311401
 20
132.9171620329
 30
0.0
 11
284.1536311401
 21
152.5695749131
 31
0.0
  0
LINE
  5
255
330
1F
100
AcDbEntity
  8
0
  6
Continuous
 62
     7
370
    25
100
AcDbLine
 10
287.3536311401
 20
141.4278557046
 30
0.0
 11
287.3536311401
 21
140.6805826016
 31
0.0
  0
LINE
  5
256
330
1F
100
AcDbEntity
  8
0
  6
Continuous
 62
     7
370
    25
100
AcDbLine
 10
270.494142793
 20
137.0171620329
 30
0.0
 11
270.494142793
 21
136.7950103654
 31
0.0
  0
LINE
  5
257
330
1F
100
AcDbEntity
  8
0
  6
Continuous
 62
     7
370
    25
100
AcDbLine
 10
270.094142793
 20
139.0171620329
 30
0.0
 11
270.094142793
 21
141.5171620329
 31
0.0
  0
LINE
  5
258
330
1F
100
AcDbEntity
  8
0
  6
Continuous
 62
     7
370
    25
100
AcDbLine
 10
72.094142793
 20
136.7950103654
 30
0.0
 11
72.094142793
 21
137.0171620329
 31
0.0
  0
LINE
  5
259
330
1F
100
AcDbEntity
  8
0
  6
Continuous
 62
     7
370
    25
100
AcDbLine
 10
72.494142793
 20
141.5171620329
 30
0.0
 11
72.494142793
 21
139.0171620329
 31
0.0
  0
LINE
  5
25A
330
1F
100
AcDbEntity
  8
0
  6
Continuous
 62
     7
370
    25
100
AcDbLine
 10
364.0737808056
 20
170.0003933524
 30
0.0
 11
364.3494874374
 21
170.4055849241
 31
0.0
  0
SPLINE
  5
25B
330
1F
100
AcDbEntity
  8
0
  6
Continuous
 62
     7
370
    25
100
AcDbSpline
210
0.0
220
0.0
230
1.0
 70
    11
 71
     3
 72
    23
 73
    19
 74
     0
 42
0.00000001
 43
0.00000001
 40
0.0
 40
0.0
 40
0.0
 40
0.0
 40
0.0624999999999999
 40
0.125
 40
0.1874999999999999
 40
0.2499999999999999
 40
0.3124999999999999
 40
0.3749999999999999
 40
0.4374999999999998
 40
0.4999999999999999
 40
0.5624999999999998
 40
0.6249999999999997
 40
0.6874999999999998
 40
0.7499999999999998
 40
0.8124999999999999
 40
0.875
 40
0.9374999999999999
 40
0.9999999999999999
 40
0.9999999999999999
 40
0.9999999999999999
 40
0.9999999999999999
 10
378.8316617531758
 20
139.0736905221328
 30
0.0
 10
378.8555723243015
 20
139.2166209121235
 30
0.0
 10
378.9033934665533
 20
139.502481692105
 30
0.0
 10
379.1762612605588
 20
139.8550813860108
 30
0.0
 10
379.551903094809
 20
140.0807333336633
 30
0.0
 10
379.9883558906951
 20
140.1443006314681
 30
0.0
 10
380.4150941169802
 20
140.0363156581041
 30
0.0
 10
380.7682439597202
 20
139.7731618928617
 30
0.0
 10
380.9937482557233
 20
139.3949172035456
 30
0.0
 10
381.0573560112916
 20
138.95916179916
 30
0.0
 10
380.9493568585232
 20
138.5322368619391
 30
0.0
 10
380.6862193531348
 20
138.1791364714414
 30
0.0
 10
380.3079238038072
 20
137.9536210774049
 30
0.0
 10
379.8723555796136
 20
137.8900082617281
 30
0.0
 10
379.4447327816359
 20
137.9980387529641
 30
0.0
 10
379.0942366539733
 20
138.2610559645906
 30
0.0
 10
378.8590020693533
 20
138.6398013504984
 30
0.0
 10
378.8407751919016
 20
138.9290607982547
 30
0.0
 10
378.8316617531758
 20
139.0736905221328
 30
0.0
  0
LINE
  5
25C
330
1F
100
AcDbEntity
  8
0
  6
Continuous
 62
     7
370
    25
100
AcDbLine
 10
379.9747129499
 20
139.8820431442
 30
0.0
 11
380.7014696419
 21
139.4110604368
 31
0.0
  0
LINE
  5
25D
330
1F
100
AcDbEntity
  8
0
  6
Continuous
 62
     7
370
    25
100
AcDbLine
 10
379.2034516146
 20
139.4881447403
 30
0.0
 11
379.9747129499
 21
139.8820431442
 31
0.0
  0
LINE
  5
25E
330
1F
100
AcDbEntity
  8
0
  6
Continuous
 62
     7
370
    25
100
AcDbLine
 10
379.1589469712
 20
138.623263629
 30
0.0
 11
379.2034516146
 21
139.4881447403
 31
0.0
  0
LINE
  5
25F
330
1F
100
AcDbEntity
  8
0
  6
Continuous
 62
     7
370
    25
100
AcDbLine
 10
379.8857036632
 20
138.1522809216
 30
0.0
 11
379.1589469712
 21
138.623263629
 31
0.0
  0
LINE
  5
260
330
1F
100
AcDbEntity
  8
0
  6
Continuous
 62
     7
370
    25
100
AcDbLine
 10
380.6569649985
 20
138.5461793255
 30
0.0
 11
379.8857036632
 21
138.1522809216
 31
0.0
  0
LINE
  5
261
330
1F
100
AcDbEntity
  8
0
  6
Continuous
 62
     7
370
    25
100
AcDbLine
 10
380.7014696419
 20
139.4110604368
 30
0.0
 11
380.6569649985
 21
138.5461793255
 31
0.0
  0
SPLINE
  5
262
330
1F
100
AcDbEntity
  8
0
  6
Continuous
 62
     7
370
    25
100
AcDbSpline
210
0.0
220
0.0
230
1.0
 70
    11
 71
     3
 72
    23
 73
    19
 74
     0
 42
0.00000001
 43
0.00000001
 40
0.0
 40
0.0
 40
0.0
 40
0.0
 40
0.0625
 40
0.125
 40
0.1875
 40
0.25
 40
0.3125000000000001
 40
0.3750000000000001
 40
0.4375000000000001
 40
0.5000000000000001
 40
0.5625000000000001
 40
0.6250000000000001
 40
0.6874999999999998
 40
0.75
 40
0.8125
 40
0.875
 40
0.9375
 40
1.0
 40
1.0
 40
1.0
 40
1.0
 10
384.8184930822364
 20
132.732895550412
 30
0.0
 10
384.9846079227068
 20
132.1981999520131
 30
0.0
 10
385.3168376036476
 20
131.1288087552155
 30
0.0
 10
384.9887434164681
 20
129.437735122707
 30
0.0
 10
384.0852745918016
 20
128.0058685885442
 30
0.0
 10
382.6900875198014
 20
127.0274191445326
 30
0.0
 10
381.0300262732376
 20
126.6577183766012
 30
0.0
 10
379.3539507230024
 20
126.951342472462
 30
0.0
 10
377.9180663111137
 20
127.8640479089234
 30
0.0
 10
376.9406902957323
 20
129.2567586250629
 30
0.0
 10
376.5707136910059
 20
130.9174886832746
 30
0.0
 10
376.8643677054163
 20
132.593365342779
 30
0.0
 10
377.7772293044744
 20
134.0293765059429
 30
0.0
 10
379.1692854516774
 20
135.0064444069541
 30
0.0
 10
380.8324776230384
 20
135.377526717886
 30
0.0
 10
382.4991603988821
 20
135.0797579930241
 30
0.0
 10
383.9694849835398
 20
134.1822495295667
 30
0.0
 10
384.5354903826709
 20
133.2160135434636
 30
0.0
 10
384.8184930822364
 20
132.732895550412
 30
0.0
  0
SPLINE
  5
263
330
1F
100
AcDbEntity
  8
0
  6
Continuous
 62
     7
370
    25
100
AcDbSpline
210
0.0
220
0.0
230
1.0
 70
    11
 71
     3
 72
    23
 73
    19
 74
     0
 42
0.00000001
 43
0.00000001
 40
0.0
 40
0.0
 40
0.0
 40
0.0
 40
0.0625000000000001
 40
0.1250000000000001
 40
0.1875000000000001
 40
0.2500000000000001
 40
0.3125000000000001
 40
0.3750000000000001
 40
0.4375
 40
0.4999999999999999
 40
0.5625000000000001
 40
0.6250000000000001
 40
0.6875
 40
0.75
 40
0.8125
 40
0.875
 40
0.9374999999999998
 40
0.9999999999999999
 40
0.9999999999999999
 40
0.9999999999999999
 40
0.9999999999999999
 10
384.3610478145072
 20
132.5310445483529
 30
0.0
 10
384.5076197325694
 20
132.0592543144716
 30
0.0
 10
384.8007635686936
 20
131.115673846709
 30
0.0
 10
384.511268697653
 20
129.6235500533191
 30
0.0
 10
383.7140903229472
 20
128.3601384055285
 30
0.0
 10
382.4830429064764
 20
127.4968006608123
 30
0.0
 10
381.0182829830377
 20
127.1705941008728
 30
0.0
 10
379.5393927916537
 20
127.4296741854559
 30
0.0
 10
378.2724359576343
 20
128.2350025117453
 30
0.0
 10
377.4100453558272
 20
129.463864908339
 30
0.0
 10
377.0835954104804
 20
130.9292149597023
 30
0.0
 10
377.3427018937836
 20
132.407929659265
 30
0.0
 10
378.1481680105996
 20
133.6749983326449
 30
0.0
 10
379.376452846367
 20
134.5371170688313
 30
0.0
 10
380.8439753505091
 20
134.8645426373006
 30
0.0
 10
382.3145777997829
 20
134.6018055271283
 30
0.0
 10
383.6119230215397
 20
133.809886294666
 30
0.0
 10
384.1113395501847
 20
132.9573251304573
 30
0.0
 10
384.3610478145072
 20
132.5310445483529
 30
0.0
  0
SPLINE
  5
264
330
1F
100
AcDbEntity
  8
0
  6
Continuous
 62
     7
370
    25
100
AcDbSpline
210
0.0
220
0.0
230
1.0
 70
    11
 71
     3
 72
    23
 73
    19
 74
     0
 42
0.00000001
 43
0.00000001
 40
0.0
 40
0.0
 40
0.0
 40
0.0
 40
0.0625
 40
0.125
 40
0.1874999999999999
 40
0.2499999999999999
 40
0.3125000000000001
 40
0.3749999999999999
 40
0.4374999999999998
 40
0.4999999999999999
 40
0.5625000000000001
 40
0.6250000000000001
 40
0.6875000000000001
 40
0.7500000000000001
 40
0.8125000000000002
 40
0.8750000000000001
 40
0.9375000000000002
 40
1.0
 40
1.0
 40
1.0
 40
1.0
 10
383.0436054434474
 20
131.9497136624229
 30
0.0
 10
382.8897851526247
 20
132.2123025009992
 30
0.0
 10
382.5821445709794
 20
132.7374801781517
 30
0.0
 10
381.7829799143772
 20
133.2253024253485
 30
0.0
 10
380.8770888056246
 20
133.3871484852146
 30
0.0
 10
379.973094943073
 20
133.1854543350375
 30
0.0
 10
379.2164714842403
 20
132.6543891935468
 30
0.0
 10
378.7203043562817
 20
131.8738748907447
 30
0.0
 10
378.5606947625669
 20
130.9629866358141
 30
0.0
 10
378.7617879289004
 20
130.0603310041743
 30
0.0
 10
379.2930205396137
 20
129.3033517678726
 30
0.0
 10
380.0734659493696
 20
128.8072695188783
 30
0.0
 10
380.9844623072622
 20
128.6476761867751
 30
0.0
 10
381.8867544201004
 20
128.8486194276979
 30
0.0
 10
382.6450796286464
 20
129.380435478443
 30
0.0
 10
383.1361415074651
 20
130.1586970534821
 30
0.0
 10
383.3144703480262
 20
131.0778453102102
 30
0.0
 10
383.1338937449737
 20
131.659090878352
 30
0.0
 10
383.0436054434474
 20
131.9497136624229
 30
0.0
  0
SPLINE
  5
265
330
1F
100
AcDbEntity
  8
0
  6
Continuous
 62
     7
370
    25
100
AcDbSpline
210
0.0
220
0.0
230
1.0
 70
     8
 71
     3
 72
     9
 73
     5
 74
     0
 42
0.00000001
 43
0.00000001
 40
0.0
 40
0.0
 40
0.0
 40
0.0
 40
0.5001542710313499
 40
1.0
 40
1.0
 40
1.0
 40
1.0
 10
382.2938329753914
 20
132.8809939903295
 30
0.0
 10
382.4492663708276
 20
132.5287386148965
 30
0.0
 10
382.7600372758038
 20
131.8244451681834
 30
0.0
 10
383.0708074199337
 20
131.1201698767108
 30
0.0
 10
383.2261445491681
 20
130.7681408802501
 30
0.0
  0
SPLINE
  5
266
330
1F
100
AcDbEntity
  8
0
  6
Continuous
 62
     7
370
    25
100
AcDbSpline
210
0.0
220
0.0
230
1.0
 70
     8
 71
     3
 72
     9
 73
     5
 74
     0
 42
0.00000001
 43
0.00000001
 40
0.0
 40
0.0
 40
0.0
 40
0.0
 40
0.5000250515112555
 40
1.0
 40
1.0
 40
1.0
 40
1.0
 10
379.9978984635171
 20
133.1300112206159
 30
0.0
 10
380.3805715655869
 20
133.0884802127449
 30
0.0
 10
381.1458794254896
 20
133.0054223584524
 30
0.0
 10
381.9111955606886
 20
132.9224664907024
 30
0.0
 10
382.2938344559623
 20
132.8809906349973
 30
0.0
  0
SPLINE
  5
267
330
1F
100
AcDbEntity
  8
0
  6
Continuous
 62
     7
370
    25
100
AcDbSpline
210
0.0
220
0.0
230
1.0
 70
     8
 71
     3
 72
     9
 73
     5
 74
     0
 42
0.00000001
 43
0.00000001
 40
0.0
 40
0.0
 40
0.0
 40
0.0
 40
0.5000250515112562
 40
1.0
 40
1.0
 40
1.0
 40
1.0
 10
378.6342723141095
 20
131.2661826185078
 30
0.0
 10
378.8615757730054
 20
131.5768217423098
 30
0.0
 10
379.316159914758
 20
132.1980688635552
 30
0.0
 10
379.7706598712219
 20
132.8193741446886
 30
0.0
 10
379.9978984635432
 20
133.1300112206191
 30
0.0
  0
SPLINE
  5
268
330
1F
100
AcDbEntity
  8
0
  6
Continuous
 62
     7
370
    25
100
AcDbSpline
210
0.0
220
0.0
230
1.0
 70
     8
 71
     3
 72
     9
 73
     5
 74
     0
 42
0.00000001
 43
0.00000001
 40
0.0
 40
0.0
 40
0.0
 40
0.0
 40
0.5001542710313573
 40
1.0
 40
1.0
 40
1.0
 40
1.0
 10
379.5665836376864
 20
129.1533300754908
 30
0.0
 10
379.4111502422503
 20
129.5055854509237
 30
0.0
 10
379.1003793372741
 20
130.2098788976368
 30
0.0
 10
378.7896091931441
 20
130.9141541891094
 30
0.0
 10
378.6342720639098
 20
131.2661831855702
 30
0.0
  0
SPLINE
  5
269
330
1F
100
AcDbEntity
  8
0
  6
Continuous
 62
     7
370
    25
100
AcDbSpline
210
0.0
220
0.0
230
1.0
 70
     8
 71
     3
 72
     9
 73
     5
 74
     0
 42
0.00000001
 43
0.00000001
 40
0.0
 40
0.0
 40
0.0
 40
0.0
 40
0.5000250515112565
 40
1.0
 40
1.0
 40
1.0
 40
1.0
 10
381.8625181495608
 20
128.9043128452043
 30
0.0
 10
381.479845047491
 20
128.9458438530754
 30
0.0
 10
380.7145371875882
 20
129.0289017073679
 30
0.0
 10
379.9492210523892
 20
129.1118575751178
 30
0.0
 10
379.5665821571155
 20
129.153333430823
 30
0.0
  0
SPLINE
  5
26A
330
1F
100
AcDbEntity
  8
0
  6
Continuous
 62
     7
370
    25
100
AcDbSpline
210
0.0
220
0.0
230
1.0
 70
     8
 71
     3
 72
     9
 73
     5
 74
     0
 42
0.00000001
 43
0.00000001
 40
0.0
 40
0.0
 40
0.0
 40
0.0
 40
0.5000250515112552
 40
1.0
 40
1.0
 40
1.0
 40
1.0
 10
383.2261442989684
 20
130.7681414473124
 30
0.0
 10
382.9988408400724
 20
130.4575023235105
 30
0.0
 10
382.5442566983199
 20
129.8362552022651
 30
0.0
 10
382.0897567418559
 20
129.2149499211316
 30
0.0
 10
381.8625181495347
 20
128.9043128452011
 30
0.0
  0
ARC
  5
26B
330
1F
100
AcDbEntity
  8
0
  6
Continuous
 62
     7
370
    25
100
AcDbCircle
 10
380.9302083065
 20
131.0171620329
 30
0.0
 40
1.999999999999969
100
AcDbArc
 50
143.8098135832
 51
203.8098135832
  0
ARC
  5
26C
330
1F
100
AcDbEntity
  8
0
  6
Continuous
 62
     7
370
    25
100
AcDbCircle
 10
380.9302083065
 20
131.0171620329
 30
0.0
 40
2.000000000000054
100
AcDbArc
 50
23.8098135832
 51
83.8098135832
  0
ARC
  5
26D
330
1F
100
AcDbEntity
  8
0
  6
Continuous
 62
     7
370
    25
100
AcDbCircle
 10
380.9302083065
 20
131.0171620329
 30
0.0
 40
1.999999999999998
100
AcDbArc
 50
203.8098135832
 51
263.8098135832
  0
ARC
  5
26E
330
1F
100
AcDbEntity
  8
0
  6
Continuous
 62
     7
370
    25
100
AcDbCircle
 10
380.9302083065
 20
131.0171620329
 30
0.0
 40
2.000000000000054
100
AcDbArc
 50
323.8098135832
 51
23.8098135832
  0
ARC
  5
26F
330
1F
100
AcDbEntity
  8
0
  6
Continuous
 62
     7
370
    25
100
AcDbCircle
 10
380.9302083065
 20
131.0171620329
 30
0.0
 40
2.000000000000004
100
AcDbArc
 50
83.8098135832
 51
143.8098135832
  0
ARC
  5
270
330
1F
100
AcDbEntity
  8
0
  6
Continuous
 62
     7
370
    25
100
AcDbCircle
 10
380.9302083065
 20
131.0171620329
 30
0.0
 40
2.000000000000015
100
AcDbArc
 50
263.8098135832
 51
323.8098135832
  0
LINE
  5
271
330
1F
100
AcDbEntity
  8
0
  6
Continuous
 62
     7
370
    25
100
AcDbLine
 10
359.9302083065
 20
132.9171620329
 30
0.0
 11
359.0919610301
 21
133.013954491
 31
0.0
  0
LINE
  5
272
330
1F
100
AcDbEntity
  8
0
  6
Continuous
 62
     7
370
    25
100
AcDbLine
 10
357.2635750194
 20
133.3192441451
 30
0.0
 11
356.0579482395
 21
133.7696416984
 31
0.0
  0
SPLINE
  5
273
330
1F
100
AcDbEntity
  8
0
  6
Continuous
 62
     7
370
    25
100
AcDbSpline
210
0.0
220
0.0
230
1.0
 70
     8
 71
     3
 72
     9
 73
     5
 74
     0
 42
0.00000001
 43
0.00000001
 40
0.0
 40
0.0
 40
0.0
 40
0.0
 40
0.2252074390502617
 40
1.0
 40
1.0
 40
1.0
 40
1.0
 10
350.1854146671503
 20
145.4801833136252
 30
0.0
 10
350.2070848383751
 20
145.6349399410729
 30
0.0
 10
350.3033079974156
 20
146.3221136334708
 30
0.0
 10
350.6401697546066
 20
146.9381700745188
 30
0.0
 10
350.9011677381466
 20
147.415486022168
 30
0.0
  0
LINE
  5
274
330
1F
100
AcDbEntity
  8
0
  6
Continuous
 62
     7
370
    25
100
AcDbLine
 10
361.3359505417
 20
133.03690713
 30
0.0
 11
359.9302083065
 21
132.9171620329
 31
0.0
  0
SPLINE
  5
275
330
1F
100
AcDbEntity
  8
0
  6
Continuous
 62
     7
370
    25
100
AcDbSpline
210
0.0
220
0.0
230
1.0
 70
    11
 71
     3
 72
    39
 73
    35
 74
     0
 42
0.00000001
 43
0.00000001
 40
0.0
 40
0.0
 40
0.0
 40
0.0
 40
0.0270610481927753
 40
0.0564534266132178
 40
0.0879304384681001
 40
0.121050819835968
 40
0.1551892217626271
 40
0.1895919249397051
 40
0.2234700326648789
 40
0.256103718756332
 40
0.2869250820699422
 40
0.3155586185976386
 40
0.3420868237741467
 40
0.3699411299496613
 40
0.4000651636088625
 40
0.4321487211907644
 40
0.4656858481304507
 40
0.5000000000000006
 40
0.5343141518695503
 40
0.5678512788092364
 40
0.5999348363911381
 40
0.630058870050339
 40
0.6579131762258533
 40
0.6844413814023615
 40
0.7130749179300581
 40
0.7438962812436685
 40
0.7765299673351216
 40
0.8104080750602951
 40
0.844810778237373
 40
0.878949180164032
 40
0.9120695615318997
 40
0.9435465733867818
 40
0.9729389518072245
 40
1.0
 40
1.0
 40
1.0
 40
1.0
 10
359.9302083065393
 20
131.0671620329099
 30
0.0
 10
360.6071652438514
 20
131.1006566248845
 30
0.0
 10
362.0193994821046
 20
131.1705313938331
 30
0.0
 10
364.1535289683924
 20
131.7653115339344
 30
0.0
 10
366.2785313710141
 20
132.7943419205866
 30
0.0
 10
368.2471377402348
 20
134.3127739747292
 30
0.0
 10
369.9021387397089
 20
136.2650975936122
 30
0.0
 10
371.1105633599281
 20
138.5438435552044
 30
0.0
 10
371.795679969487
 20
140.9903988742272
 30
0.0
 10
371.9524009243497
 20
143.4345855872311
 30
0.0
 10
371.6400234980171
 20
145.7288646647902
 30
0.0
 10
370.9562605014366
 20
147.7778992213028
 30
0.0
 10
369.9658897274044
 20
149.6112864034386
 30
0.0
 10
368.6545831680318
 20
151.280077376684
 30
0.0
 10
366.9566116554541
 20
152.7774008813273
 30
0.0
 10
364.8750808557286
 20
153.9893589834797
 30
0.0
 10
362.4879758722013
 20
154.7832590185208
 30
0.0
 10
359.9302083065393
 20
155.0601665580385
 30
0.0
 10
357.3724407408774
 20
154.7832590185208
 30
0.0
 10
354.9853357573501
 20
153.9893589834797
 30
0.0
 10
352.9038049576246
 20
152.7774008813273
 30
0.0
 10
351.205833445047
 20
151.280077376684
 30
0.0
 10
349.8945268856744
 20
149.6112864034386
 30
0.0
 10
348.9041561116421
 20
147.7778992213028
 30
0.0
 10
348.2203931150615
 20
145.7288646647902
 30
0.0
 10
347.908015688729
 20
143.4345855872311
 30
0.0
 10
348.0647366435916
 20
140.9903988742273
 30
0.0
 10
348.7498532531505
 20
138.5438435552044
 30
0.0
 10
349.9582778733696
 20
136.2650975936122
 30
0.0
 10
351.6132788728437
 20
134.3127739747292
 30
0.0
 10
353.5818852420643
 20
132.7943419205866
 30
0.0
 10
355.7068876446861
 20
131.7653115339344
 30
0.0
 10
357.8410171309739
 20
131.1705313938331
 30
0.0
 10
359.2532513692271
 20
131.1006566248845
 30
0.0
 10
359.9302083065393
 20
131.0671620329099
 30
0.0
  0
CIRCLE
  5
276
330
1F
100
AcDbEntity
  8
0
  6
Continuous
 62
     7
370
    25
100
AcDbCircle
 10
359.9302083065
 20
143.0171620329
 30
0.0
 40
0.5832611005111065
  0
CIRCLE
  5
277
330
1F
100
AcDbEntity
  8
0
  6
Continuous
 62
     7
370
    25
100
AcDbCircle
 10
359.9302083065
 20
143.0171620329
 30
0.0
 40
0.5999999999999909
  0
CIRCLE
  5
278
330
1F
100
AcDbEntity
  8
0
  6
Continuous
 62
     7
370
    25
100
AcDbCircle
 10
359.9302083065
 20
143.0171620329
 30
0.0
 40
1.300000000000035
  0
LINE
  5
279
330
1F
100
AcDbEntity
  8
0
  6
Continuous
 62
     7
370
    25
100
AcDbLine
 10
363.7369156793
 20
141.6908969847
 30
0.0
 11
360.7202160081
 21
139.0642026565
 31
0.0
  0
LINE
  5
27A
330
1F
100
AcDbEntity
  8
0
  6
Continuous
 62
     7
370
    25
100
AcDbLine
 10
360.0635424261
 20
139.8183775743
 30
0.0
 11
360.7202160081
 21
139.0642026565
 31
0.0
  0
LINE
  5
27B
330
1F
100
AcDbEntity
  8
0
  6
Continuous
 62
     7
370
    25
100
AcDbLine
 10
363.0802420973
 20
142.4450719025
 30
0.0
 11
360.0635424261
 21
139.8183775743
 31
0.0
  0
LINE
  5
27C
330
1F
100
AcDbEntity
  8
0
  6
Continuous
 62
     7
370
    25
100
AcDbLine
 10
363.7369156793
 20
141.6908969847
 30
0.0
 11
363.0802420973
 21
142.4450719025
 31
0.0
  0
LINE
  5
27D
330
1F
100
AcDbEntity
  8
0
  6
Continuous
 62
     7
370
    25
100
AcDbLine
 10
359.796874187
 20
146.2159464915
 30
0.0
 11
356.7801745158
 21
143.5892521633
 31
0.0
  0
LINE
  5
27E
330
1F
100
AcDbEntity
  8
0
  6
Continuous
 62
     7
370
    25
100
AcDbLine
 10
356.1235009338
 20
144.3434270811
 30
0.0
 11
356.7801745158
 21
143.5892521633
 31
0.0
  0
LINE
  5
27F
330
1F
100
AcDbEntity
  8
0
  6
Continuous
 62
     7
370
    25
100
AcDbLine
 10
356.1235009338
 20
144.3434270811
 30
0.0
 11
359.140200605
 21
146.9701214093
 31
0.0
  0
LINE
  5
280
330
1F
100
AcDbEntity
  8
0
  6
Continuous
 62
     7
370
    25
100
AcDbLine
 10
359.796874187
 20
146.2159464915
 30
0.0
 11
359.140200605
 21
146.9701214093
 31
0.0
  0
LINE
  5
281
330
1F
100
AcDbEntity
  8
0
  6
Continuous
 62
     7
370
    25
100
AcDbLine
 10
356.7801745158
 20
143.5892521633
 30
0.0
 11
360.0635424261
 21
139.8183775743
 31
0.0
  0
LINE
  5
282
330
1F
100
AcDbEntity
  8
0
  6
Continuous
 62
     7
370
    25
100
AcDbLine
 10
363.0802420973
 20
142.4450719025
 30
0.0
 11
359.796874187
 21
146.2159464915
 31
0.0
  0
CIRCLE
  5
283
330
1F
100
AcDbEntity
  8
0
  6
Continuous
 62
     7
370
    25
100
AcDbCircle
 10
359.9302083065
 20
143.0171620329
 30
0.0
 40
9.100000000002378
  0
CIRCLE
  5
284
330
1F
100
AcDbEntity
  8
0
  6
Continuous
 62
     7
370
    25
100
AcDbCircle
 10
359.9302083065
 20
143.0171620329
 30
0.0
 40
10.10000000000238
  0
SPLINE
  5
285
330
1F
100
AcDbEntity
  8
0
  6
Continuous
 62
     7
370
    25
100
AcDbSpline
210
0.0
220
0.0
230
1.0
 70
    11
 71
     3
 72
    23
 73
    19
 74
     0
 42
0.00000001
 43
0.00000001
 40
0.0
 40
0.0
 40
0.0
 40
0.0
 40
0.0625000000000001
 40
0.125
 40
0.1874999999999999
 40
0.25
 40
0.3125000000000001
 40
0.3749999999999999
 40
0.4375000000000001
 40
0.5
 40
0.5625
 40
0.625
 40
0.6874999999999999
 40
0.7499999999999999
 40
0.8125000000000002
 40
0.875
 40
0.9375000000000001
 40
1.0
 40
1.0
 40
1.0
 40
1.0
 10
378.6137268058312
 20
170.4039435650305
 30
0.0
 10
378.5614870264495
 20
170.2529985804368
 30
0.0
 10
378.4570074676864
 20
169.9511086112491
 30
0.0
 10
378.0956881892236
 20
169.6180237276557
 30
0.0
 10
377.6459919722801
 20
169.4417835551065
 30
0.0
 10
377.159978360031
 20
169.4528670618123
 30
0.0
 10
376.7160336195503
 20
169.6486093993531
 30
0.0
 10
376.3805665412221
 20
169.9994725116709
 30
0.0
 10
376.204964934311
 20
170.4519703937982
 30
0.0
 10
376.2158763731989
 20
170.9372335114572
 30
0.0
 10
376.4116684163733
 20
171.3813785651145
 30
0.0
 10
376.7625047739745
 20
171.7167948853266
 30
0.0
 10
377.2150599693348
 20
171.8923992115252
 30
0.0
 10
377.7001205887783
 20
171.8815276536029
 30
0.0
 10
378.1450183220646
 20
171.6855733672786
 30
0.0
 10
378.477626421976
 20
171.3353461013114
 30
0.0
 10
378.6637109497486
 20
170.8805167825655
 30
0.0
 10
378.630388187137
 20
170.5628013042088
 30
0.0
 10
378.6137268058312
 20
170.4039435650305
 30
0.0
  0
SPLINE
  5
286
330
1F
100
AcDbEntity
  8
0
  6
Continuous
 62
     7
370
    25
100
AcDbSpline
210
0.0
220
0.0
230
1.0
 70
    11
 71
     3
 72
    23
 73
    19
 74
     0
 42
0.00000001
 43
0.00000001
 40
0.0
 40
0.0
 40
0.0
 40
0.0
 40
0.0624999999999999
 40
0.125
 40
0.1874999999999999
 40
0.25
 40
0.3125000000000001
 40
0.375
 40
0.4374999999999999
 40
0.5
 40
0.5624999999999999
 40
0.6249999999999999
 40
0.6874999999999998
 40
0.7499999999999999
 40
0.8125
 40
0.875
 40
0.9374999999999997
 40
1.0
 40
1.0
 40
1.0
 40
1.0
 10
380.3586571243558
 20
170.0158652331128
 30
0.0
 10
380.2293971928342
 20
169.642373258164
 30
0.0
 10
379.970877329791
 20
168.8953893082664
 30
0.0
 10
379.0768439754316
 20
168.0712179630992
 30
0.0
 10
377.9641344101206
 20
167.6351366299707
 30
0.0
 10
376.7615625964271
 20
167.6625611967428
 30
0.0
 10
375.6630842446189
 20
168.1468978736185
 30
0.0
 10
374.833018496146
 20
169.0150589265273
 30
0.0
 10
374.3985172032022
 20
170.1347008153299
 30
0.0
 10
374.4255160125414
 20
171.3354156365079
 30
0.0
 10
374.9099756789641
 20
172.4343896348863
 30
0.0
 10
375.7780705311177
 20
173.2643297895937
 30
0.0
 10
376.897854233394
 20
173.6988378110294
 30
0.0
 10
378.0980680014324
 20
173.6719376814882
 30
0.0
 10
379.1989043988956
 20
173.1870765673816
 30
0.0
 10
380.0218960104033
 20
172.3204888261656
 30
0.0
 10
380.4823358055529
 20
171.1950781278228
 30
0.0
 10
380.3998833514216
 20
170.4089361980161
 30
0.0
 10
380.3586571243558
 20
170.0158652331128
 30
0.0
  0
SPLINE
  5
287
330
1F
100
AcDbEntity
  8
0
  6
Continuous
 62
     7
370
    25
100
AcDbSpline
210
0.0
220
0.0
230
1.0
 70
    24
 71
     3
 72
    11
 73
     7
 74
     0
 42
0.00000001
 43
0.00000001
 40
0.0
 40
0.0
 40
0.0
 40
0.0
 40
0.2486745532729975
 40
0.498257662408295
 40
0.7480167313574578
 40
1.0
 40
1.0
 40
1.0
 40
1.0
 10
377.1775571681956
 20
169.5404408005351
 30
0.0
 10
377.2645533531821
 20
169.5676392404586
 30
0.0
 10
377.4388635718967
 20
169.6221354923632
 30
0.0
 10
377.726611775888
 20
169.7120969342421
 30
0.0
 10
378.0157848000038
 20
169.8025038311091
 30
0.0
 10
378.1914366795713
 20
169.8574195391325
 30
0.0
 10
378.2796519475296
 20
169.8849991124927
 30
0.0
  0
SPLINE
  5
288
330
1F
100
AcDbEntity
  8
0
  6
Continuous
 62
     7
370
    25
100
AcDbSpline
210
0.0
220
0.0
230
1.0
 70
    24
 71
     3
 72
    11
 73
     7
 74
     0
 42
0.00000001
 43
0.00000001
 40
0.0
 40
0.0
 40
0.0
 40
0.0
 40
0.2486747685389765
 40
0.4982579447672023
 40
0.7480167397896897
 40
0.9999999999999999
 40
0.9999999999999999
 40
0.9999999999999999
 40
0.9999999999999999
 10
378.2796519475808
 20
169.8849991125925
 30
0.0
 10
378.2995955178621
 20
169.9739393177421
 30
0.0
 10
378.3395555121873
 20
170.1521446261669
 30
0.0
 10
378.4055207252694
 20
170.4463226244655
 30
0.0
 10
378.4718125445708
 20
170.7419571535523
 30
0.0
 10
378.5120800637386
 20
170.9215338975928
 30
0.0
 10
378.532303086016
 20
171.0117203448905
 30
0.0
  0
SPLINE
  5
289
330
1F
100
AcDbEntity
  8
0
  6
Continuous
 62
     7
370
    25
100
AcDbSpline
210
0.0
220
0.0
230
1.0
 70
    24
 71
     3
 72
    11
 73
     7
 74
     0
 42
0.00000001
 43
0.00000001
 40
0.0
 40
0.0
 40
0.0
 40
0.0
 40
0.2486745500102607
 40
0.4982576581286174
 40
0.7480167312295167
 40
1.0
 40
1.0
 40
1.0
 40
1.0
 10
378.5323030859306
 20
171.0117203449979
 30
0.0
 10
378.4652504544225
 20
171.073462030436
 30
0.0
 10
378.3309002077037
 20
171.1971709809259
 30
0.0
 10
378.1091172119405
 20
171.4013875142963
 30
0.0
 10
377.8862360293265
 20
171.6066152519337
 30
0.0
 10
377.7508516901861
 20
171.7312763889011
 30
0.0
 10
377.6828594450236
 20
171.7938832653002
 30
0.0
  0
SPLINE
  5
28A
330
1F
100
AcDbEntity
  8
0
  6
Continuous
 62
     7
370
    25
100
AcDbSpline
210
0.0
220
0.0
230
1.0
 70
    24
 71
     3
 72
    11
 73
     7
 74
     0
 42
0.00000001
 43
0.00000001
 40
0.0
 40
0.0
 40
0.0
 40
0.0
 40
0.2486745532729968
 40
0.4982576624082949
 40
0.7480167313574578
 40
1.0
 40
1.0
 40
1.0
 40
1.0
 10
377.6828594448823
 20
171.7938832652856
 30
0.0
 10
377.5958632598958
 20
171.7666848253622
 30
0.0
 10
377.4215530411811
 20
171.7121885734576
 30
0.0
 10
377.1338048371897
 20
171.6222271315787
 30
0.0
 10
376.8446318130741
 20
171.5318202347116
 30
0.0
 10
376.6689799335065
 20
171.4769045266883
 30
0.0
 10
376.5807646655483
 20
171.449324953328
 30
0.0
  0
SPLINE
  5
28B
330
1F
100
AcDbEntity
  8
0
  6
Continuous
 62
     7
370
    25
100
AcDbSpline
210
0.0
220
0.0
230
1.0
 70
    24
 71
     3
 72
    11
 73
     7
 74
     0
 42
0.00000001
 43
0.00000001
 40
0.0
 40
0.0
 40
0.0
 40
0.0
 40
0.2486747685389772
 40
0.4982579447672036
 40
0.7480167397896917
 40
1.0
 40
1.0
 40
1.0
 40
1.0
 10
376.580764665497
 20
171.4493249532282
 30
0.0
 10
376.5608210952158
 20
171.3603847480787
 30
0.0
 10
376.5208611008906
 20
171.1821794396538
 30
0.0
 10
376.4548958878084
 20
170.8880014413553
 30
0.0
 10
376.388604068507
 20
170.5923669122685
 30
0.0
 10
376.3483365493393
 20
170.4127901682279
 30
0.0
 10
376.3281135270619
 20
170.3226037209302
 30
0.0
  0
SPLINE
  5
28C
330
1F
100
AcDbEntity
  8
0
  6
Continuous
 62
     7
370
    25
100
AcDbSpline
210
0.0
220
0.0
230
1.0
 70
    24
 71
     3
 72
    11
 73
     7
 74
     0
 42
0.00000001
 43
0.00000001
 40
0.0
 40
0.0
 40
0.0
 40
0.0
 40
0.2486745500102606
 40
0.4982576581286171
 40
0.7480167312295168
 40
1.0
 40
1.0
 40
1.0
 40
1.0
 10
376.3281135271473
 20
170.3226037208228
 30
0.0
 10
376.3951661586553
 20
170.2608620353847
 30
0.0
 10
376.5295164053741
 20
170.1371530848949
 30
0.0
 10
376.7512994011373
 20
169.9329365515245
 30
0.0
 10
376.9741805837514
 20
169.7277088138871
 30
0.0
 10
377.1095649228918
 20
169.6030476769196
 30
0.0
 10
377.1775571680542
 20
169.5404408005205
 30
0.0
  0
SPLINE
  5
28D
330
1F
100
AcDbEntity
  8
0
  6
Continuous
 62
     7
370
    25
100
AcDbSpline
210
0.0
220
0.0
230
1.0
 70
    11
 71
     3
 72
    23
 73
    19
 74
     0
 42
0.00000001
 43
0.00000001
 40
0.0
 40
0.0
 40
0.0
 40
0.0
 40
0.0625000000000002
 40
0.1250000000000001
 40
0.1875000000000002
 40
0.2500000000000003
 40
0.3125000000000002
 40
0.3750000000000002
 40
0.4375000000000002
 40
0.5000000000000001
 40
0.5625000000000003
 40
0.6250000000000002
 40
0.6875000000000003
 40
0.7500000000000001
 40
0.8125000000000002
 40
0.8750000000000002
 40
0.9375000000000002
 40
1.0
 40
1.0
 40
1.0
 40
1.0
 10
378.3965964164185
 20
170.4522340889772
 30
0.0
 10
378.4102010713502
 20
170.5819475073953
 30
0.0
 10
378.4374103812135
 20
170.8413743442315
 30
0.0
 10
378.2854652488142
 20
171.2127598746846
 30
0.0
 10
378.0138780170166
 20
171.4987338292859
 30
0.0
 10
377.6506020058538
 20
171.6587379969411
 30
0.0
 10
377.2545314624011
 20
171.6676150396896
 30
0.0
 10
376.8850028406499
 20
171.5242273926159
 30
0.0
 10
376.5985315394393
 20
171.2503471415624
 30
0.0
 10
376.4386598495198
 20
170.8876857220976
 30
0.0
 10
376.4297502424378
 20
170.4914498311088
 30
0.0
 10
376.5731356691093
 20
170.1219680078039
 30
0.0
 10
376.8470573661053
 20
169.835474860344
 30
0.0
 10
377.209555222202
 20
169.6756437569751
 30
0.0
 10
377.6064039207209
 20
169.6665936499403
 30
0.0
 10
377.9735980772735
 20
169.8105004898727
 30
0.0
 10
378.2686290842121
 20
170.0824770337778
 30
0.0
 10
378.3539406390164
 20
170.328981737244
 30
0.0
 10
378.3965964164185
 20
170.4522340889772
 30
0.0
  0
LINE
  5
28E
330
1F
100
AcDbEntity
  8
0
  6
Continuous
 62
     7
370
    25
100
AcDbLine
 10
378.2371193278
 20
169.7877663007
 30
0.0
 11
378.3746731943
 21
169.9756320474
 31
0.0
  0
SPLINE
  5
28F
330
1F
100
AcDbEntity
  8
0
  6
Continuous
 62
     7
370
    25
100
AcDbSpline
210
0.0
220
0.0
230
1.0
 70
    11
 71
     3
 72
    23
 73
    19
 74
     0
 42
0.00000001
 43
0.00000001
 40
0.0
 40
0.0
 40
0.0
 40
0.0
 40
0.0624999999999998
 40
0.1249999999999997
 40
0.1874999999999998
 40
0.2499999999999998
 40
0.3124999999999996
 40
0.3749999999999998
 40
0.4374999999999999
 40
0.4999999999999999
 40
0.5624999999999997
 40
0.6249999999999996
 40
0.6874999999999997
 40
0.7499999999999997
 40
0.8124999999999994
 40
0.8749999999999997
 40
0.9374999999999993
 40
0.9999999999999999
 40
0.9999999999999999
 40
0.9999999999999999
 40
0.9999999999999999
 10
343.5500390931996
 20
170.2024266143691
 30
0.0
 10
343.4723816319463
 20
170.0628461657542
 30
0.0
 10
343.3170667094397
 20
169.7836852685243
 30
0.0
 10
342.9033970996524
 20
169.5184031270113
 30
0.0
 10
342.4299289939113
 20
169.4229293672686
 30
0.0
 10
341.9532236512406
 20
169.5182398686914
 30
0.0
 10
341.5500137291123
 20
169.7880986354636
 30
0.0
 10
341.2805698895589
 20
170.1918845955391
 30
0.0
 10
341.1862114982611
 20
170.6680009171151
 30
0.0
 10
341.2812222239448
 20
171.1439970461579
 30
0.0
 10
341.5511647252285
 20
171.5473956069628
 30
0.0
 10
341.9549155229972
 20
171.8167941054378
 30
0.0
 10
342.4310887592889
 20
171.9111452223726
 30
0.0
 10
342.9068923917761
 20
171.8162089352191
 30
0.0
 10
343.3110040240878
 20
171.5459759541776
 30
0.0
 10
343.5777427330907
 20
171.14331263691
 30
0.0
 10
343.6820199364071
 20
170.6630799583719
 30
0.0
 10
343.5940327076021
 20
170.3559777290367
 30
0.0
 10
343.5500390931996
 20
170.2024266143691
 30
0.0
  0
SPLINE
  5
290
330
1F
100
AcDbEntity
  8
0
  6
Continuous
 62
     7
370
    25
100
AcDbSpline
210
0.0
220
0.0
230
1.0
 70
    11
 71
     3
 72
    23
 73
    19
 74
     0
 42
0.00000001
 43
0.00000001
 40
0.0
 40
0.0
 40
0.0
 40
0.0
 40
0.0625000000000001
 40
0.125
 40
0.1875000000000002
 40
0.2500000000000002
 40
0.3125000000000001
 40
0.3750000000000001
 40
0.4375000000000001
 40
0.5
 40
0.5625000000000001
 40
0.625
 40
0.6874999999999999
 40
0.7500000000000002
 40
0.8125
 40
0.875
 40
0.9374999999999999
 40
1.0
 40
1.0
 40
1.0
 40
1.0
 10
345.2010709042193
 20
169.5172400943529
 30
0.0
 10
345.0089185206799
 20
169.1718680532895
 30
0.0
 10
344.6246137536011
 20
168.4811239711629
 30
0.0
 10
343.6010469226029
 20
167.8247209033896
 30
0.0
 10
342.4295171870214
 20
167.5884846138697
 30
0.0
 10
341.2499773673854
 20
167.8243169438113
 30
0.0
 10
340.2522915513254
 20
168.4920442222648
 30
0.0
 10
339.5855909514783
 20
169.4911553625986
 30
0.0
 10
339.3521144831236
 20
170.6692377330023
 30
0.0
 10
339.5872050604782
 20
171.8470227040141
 30
0.0
 10
340.2551395281147
 20
172.8451752797486
 30
0.0
 10
341.2541636643031
 20
173.511763689522
 30
0.0
 10
342.4323868621055
 20
173.7452221584965
 30
0.0
 10
343.6096955276678
 20
173.5103157687367
 30
0.0
 10
344.6096124978015
 20
172.8416625501014
 30
0.0
 10
345.2696196354277
 20
171.8453292303131
 30
0.0
 10
345.5276387985922
 20
170.6570615179092
 30
0.0
 10
345.3099268690103
 20
169.8971805688716
 30
0.0
 10
345.2010709042193
 20
169.5172400943529
 30
0.0
  0
SPLINE
  5
291
330
1F
100
AcDbEntity
  8
0
  6
Continuous
 62
     7
370
    25
100
AcDbSpline
210
0.0
220
0.0
230
1.0
 70
    24
 71
     3
 72
    11
 73
     7
 74
     0
 42
0.00000001
 43
0.00000001
 40
0.0
 40
0.0
 40
0.0
 40
0.0
 40
0.248674553272999
 40
0.4982576624082977
 40
0.7480167313574563
 40
1.0
 40
1.0
 40
1.0
 40
1.0
 10
341.9857424179504
 20
169.6014306375425
 30
0.0
 10
342.0761398949357
 20
169.6131091430621
 30
0.0
 10
342.2572651245881
 20
169.6365088226193
 30
0.0
 10
342.5562634272367
 20
169.6751365968038
 30
0.0
 10
342.8567422562372
 20
169.7139556410961
 30
0.0
 10
343.0392616016901
 20
169.737535427329
 30
0.0
 10
343.1309258241643
 20
169.7493775844756
 30
0.0
  0
SPLINE
  5
292
330
1F
100
AcDbEntity
  8
0
  6
Continuous
 62
     7
370
    25
100
AcDbSpline
210
0.0
220
0.0
230
1.0
 70
    24
 71
     3
 72
    11
 73
     7
 74
     0
 42
0.00000001
 43
0.00000001
 40
0.0
 40
0.0
 40
0.0
 40
0.0
 40
0.2486747685389739
 40
0.4982579447672025
 40
0.7480167397896885
 40
1.0
 40
1.0
 40
1.0
 40
1.0
 10
343.1309258242321
 20
169.749377584565
 30
0.0
 10
343.1660107114133
 20
169.8335034235153
 30
0.0
 10
343.2363086506937
 20
170.0020624126859
 30
0.0
 10
343.3523551772803
 20
170.2803164471347
 30
0.0
 10
343.4689762721209
 20
170.5599481698216
 30
0.0
 10
343.5398152115459
 20
170.7298043582908
 30
0.0
 10
343.5753917128975
 20
170.8151089798407
 30
0.0
  0
SPLINE
  5
293
330
1F
100
AcDbEntity
  8
0
  6
Continuous
 62
     7
370
    25
100
AcDbSpline
210
0.0
220
0.0
230
1.0
 70
    24
 71
     3
 72
    11
 73
     7
 74
     0
 42
0.00000001
 43
0.00000001
 40
0.0
 40
0.0
 40
0.0
 40
0.0
 40
0.2486745500102612
 40
0.4982576581286188
 40
0.7480167312295178
 40
1.0
 40
1.0
 40
1.0
 40
1.0
 10
343.5753917128321
 20
170.8151089799614
 30
0.0
 10
343.5200790926255
 20
170.887556237734
 30
0.0
 10
343.4092517618514
 20
171.0327154468053
 30
0.0
 10
343.2262999770067
 20
171.2723416852135
 30
0.0
 10
343.0424422830154
 20
171.5131544635691
 30
0.0
 10
342.9307619154537
 20
171.6594309615304
 30
0.0
 10
342.8746741952691
 20
171.732893428268
 30
0.0
  0
SPLINE
  5
294
330
1F
100
AcDbEntity
  8
0
  6
Continuous
 62
     7
370
    25
100
AcDbSpline
210
0.0
220
0.0
230
1.0
 70
    24
 71
     3
 72
    11
 73
     7
 74
     0
 42
0.00000001
 43
0.00000001
 40
0.0
 40
0.0
 40
0.0
 40
0.0
 40
0.248674553272999
 40
0.4982576624082977
 40
0.7480167313574563
 40
1.0
 40
1.0
 40
1.0
 40
1.0
 10
342.8746741951274
 20
171.7328934282782
 30
0.0
 10
342.7842767181422
 20
171.7212149227586
 30
0.0
 10
342.6031514884897
 20
171.6978152432014
 30
0.0
 10
342.3041531858412
 20
171.6591874690169
 30
0.0
 10
342.0036743568406
 20
171.6203684247246
 30
0.0
 10
341.8211550113877
 20
171.5967886384917
 30
0.0
 10
341.7294907889135
 20
171.5849464813451
 30
0.0
  0
SPLINE
  5
295
330
1F
100
AcDbEntity
  8
0
  6
Continuous
 62
     7
370
    25
100
AcDbSpline
210
0.0
220
0.0
230
1.0
 70
    24
 71
     3
 72
    11
 73
     7
 74
     0
 42
0.00000001
 43
0.00000001
 40
0.0
 40
0.0
 40
0.0
 40
0.0
 40
0.2486747685389739
 40
0.4982579447671999
 40
0.7480167397896885
 40
1.0
 40
1.0
 40
1.0
 40
1.0
 10
341.7294907888457
 20
171.5849464812557
 30
0.0
 10
341.6944059016645
 20
171.5008206423055
 30
0.0
 10
341.6241079623841
 20
171.3322616531349
 30
0.0
 10
341.5080614357975
 20
171.054007618686
 30
0.0
 10
341.3914403409569
 20
170.7743758959991
 30
0.0
 10
341.3206014015319
 20
170.60451970753
 30
0.0
 10
341.2850249001802
 20
170.5192150859799
 30
0.0
  0
SPLINE
  5
296
330
1F
100
AcDbEntity
  8
0
  6
Continuous
 62
     7
370
    25
100
AcDbSpline
210
0.0
220
0.0
230
1.0
 70
    24
 71
     3
 72
    11
 73
     7
 74
     0
 42
0.00000001
 43
0.00000001
 40
0.0
 40
0.0
 40
0.0
 40
0.0
 40
0.2486745500102605
 40
0.4982576581286172
 40
0.7480167312295155
 40
1.0
 40
1.0
 40
1.0
 40
1.0
 10
341.2850249002458
 20
170.5192150858593
 30
0.0
 10
341.3403375204524
 20
170.4467678280867
 30
0.0
 10
341.4511648512264
 20
170.3016086190155
 30
0.0
 10
341.6341166360711
 20
170.0619823806072
 30
0.0
 10
341.8179743300624
 20
169.8211696022516
 30
0.0
 10
341.9296546976241
 20
169.6748931042903
 30
0.0
 10
341.9857424178087
 20
169.6014306375527
 30
0.0
  0
SPLINE
  5
297
330
1F
100
AcDbEntity
  8
0
  6
Continuous
 62
     7
370
    25
100
AcDbSpline
210
0.0
220
0.0
230
1.0
 70
    11
 71
     3
 72
    23
 73
    19
 74
     0
 42
0.00000001
 43
0.00000001
 40
0.0
 40
0.0
 40
0.0
 40
0.0
 40
0.0624999999999995
 40
0.1249999999999998
 40
0.1874999999999995
 40
0.2499999999999999
 40
0.3125000000000001
 40
0.3749999999999999
 40
0.4375000000000001
 40
0.4999999999999997
 40
0.5624999999999998
 40
0.6250000000000001
 40
0.6874999999999999
 40
0.7500000000000002
 40
0.8125000000000004
 40
0.8750000000000003
 40
0.9375000000000004
 40
1.0
 40
1.0
 40
1.0
 40
1.0
 10
343.3445929637734
 20
170.2876877931864
 30
0.0
 10
343.3805154321544
 20
170.4130681497776
 30
0.0
 10
343.4523603689165
 20
170.66382886296
 30
0.0
 10
343.3672140450722
 20
171.0559572080533
 30
0.0
 10
343.1494116896556
 20
171.3847472035834
 30
0.0
 10
342.8194390895114
 20
171.6054027657331
 30
0.0
 10
342.4309272298759
 20
171.6829218743538
 30
0.0
 10
342.042113574601
 20
171.6058805795922
 30
0.0
 10
341.7124356096589
 20
171.3859064043669
 30
0.0
 10
341.4920172353388
 20
171.0565160543746
 30
0.0
 10
341.4144373448119
 20
170.6678470139407
 30
0.0
 10
341.4914845793689
 20
170.2790798317075
 30
0.0
 10
341.7114957773185
 20
169.9493731553973
 30
0.0
 10
342.0407320966182
 20
169.7290231535077
 30
0.0
 10
342.4299802370982
 20
169.6511984846269
 30
0.0
 10
342.81658504984
 20
169.7291564601685
 30
0.0
 10
343.1543621040694
 20
169.9457694725337
 30
0.0
 10
343.2811826772054
 20
170.1737150196355
 30
0.0
 10
343.3445929637734
 20
170.2876877931864
 30
0.0
  0
SPLINE
  5
298
330
1F
100
AcDbEntity
  8
0
  6
Continuous
 62
     7
370
    25
100
AcDbSpline
210
0.0
220
0.0
230
1.0
 70
    11
 71
     3
 72
    23
 73
    19
 74
     0
 42
0.00000001
 43
0.00000001
 40
0.0
 40
0.0
 40
0.0
 40
0.0
 40
0.0625000000000001
 40
0.1249999999999997
 40
0.1875000000000001
 40
0.2500000000000001
 40
0.3125000000000002
 40
0.3750000000000001
 40
0.4374999999999997
 40
0.5000000000000001
 40
0.5625000000000001
 40
0.6249999999999999
 40
0.6875000000000001
 40
0.7500000000000002
 40
0.8125000000000002
 40
0.8750000000000001
 40
0.9374999999999998
 40
1.0
 40
1.0
 40
1.0
 40
1.0
 10
341.287573216257
 20
144.2211783247518
 30
0.0
 10
341.4473012876501
 20
144.2217494052016
 30
0.0
 10
341.7667574304365
 20
144.2228915661013
 30
0.0
 10
342.2005235811672
 20
143.9919281769083
 30
0.0
 10
342.5154571544093
 20
143.6257258688892
 30
0.0
 10
342.6655891779365
 20
143.1633489112844
 30
0.0
 10
342.6275337241286
 20
142.6796612251253
 30
0.0
 10
342.4072263333874
 20
142.2471017057385
 30
0.0
 10
342.0381687267185
 20
141.9318450791002
 30
0.0
 10
341.576556965261
 20
141.7817986378138
 30
0.0
 10
341.0926637931626
 20
141.8198348160552
 30
0.0
 10
340.6601610213857
 20
142.0401337268214
 30
0.0
 10
340.3448828902471
 20
142.4092445289568
 30
0.0
 10
340.1948657193522
 20
142.8706519885229
 30
0.0
 10
340.2328063205277
 20
143.3553091727208
 30
0.0
 10
340.4534582691655
 20
143.7849601979912
 30
0.0
 10
340.8212524968805
 20
144.1108813030562
 30
0.0
 10
341.1321329764648
 20
144.1844126508533
 30
0.0
 10
341.287573216257
 20
144.2211783247518
 30
0.0
  0
SPLINE
  5
299
330
1F
100
AcDbEntity
  8
0
  6
Continuous
 62
     7
370
    25
100
AcDbSpline
210
0.0
220
0.0
230
1.0
 70
    11
 71
     3
 72
    23
 73
    19
 74
     0
 42
0.00000001
 43
0.00000001
 40
0.0
 40
0.0
 40
0.0
 40
0.0
 40
0.0624999999999999
 40
0.1249999999999999
 40
0.1875
 40
0.2499999999999999
 40
0.3124999999999999
 40
0.3750000000000001
 40
0.4374999999999999
 40
0.5
 40
0.5624999999999999
 40
0.6249999999999999
 40
0.6874999999999999
 40
0.7499999999999999
 40
0.8125
 40
0.8749999999999998
 40
0.9374999999999996
 40
1.0
 40
1.0
 40
1.0
 40
1.0
 10
341.077277987524
 20
145.9963297337823
 30
0.0
 10
341.4725024661639
 20
145.9977427914314
 30
0.0
 10
342.2629514234438
 20
146.0005689067295
 30
0.0
 10
343.3362442972568
 20
145.4290827284856
 30
0.0
 10
344.1155027970634
 20
144.5229670094314
 30
0.0
 10
344.4869832150521
 20
143.378880748259
 30
0.0
 10
344.3928203871947
 20
142.1820641090831
 30
0.0
 10
343.8477009671278
 20
141.1117568735468
 30
0.0
 10
342.9345202161704
 20
140.3316990238893
 30
0.0
 10
341.7923273244335
 20
139.9604303670277
 30
0.0
 10
340.595002239419
 20
140.0545455002275
 30
0.0
 10
339.524835417802
 20
140.5996439377978
 30
0.0
 10
338.7447243583056
 20
141.5129563133993
 30
0.0
 10
338.3735281268802
 20
142.654643689056
 30
0.0
 10
338.4674067681743
 20
143.8538592137475
 30
0.0
 10
339.0133787479311
 20
144.9169697927366
 30
0.0
 10
339.9234334466922
 20
145.7234153830676
 30
0.0
 10
340.6926631405801
 20
145.9053582835441
 30
0.0
 10
341.077277987524
 20
145.9963297337823
 30
0.0
  0
SPLINE
  5
29A
330
1F
100
AcDbEntity
  8
0
  6
Continuous
 62
     7
370
    25
100
AcDbSpline
210
0.0
220
0.0
230
1.0
 70
    24
 71
     3
 72
    11
 73
     7
 74
     0
 42
0.00000001
 43
0.00000001
 40
0.0
 40
0.0
 40
0.0
 40
0.0
 40
0.2486745532729984
 40
0.4982576624082932
 40
0.7480167313574566
 40
1.0
 40
1.0
 40
1.0
 40
1.0
 10
342.5771258332175
 20
143.1510034322936
 30
0.0
 10
342.5227090461221
 20
143.2241259638327
 30
0.0
 10
342.413676655083
 20
143.3706381869552
 30
0.0
 10
342.2336879261965
 20
143.6124979550007
 30
0.0
 10
342.0528079612936
 20
143.8555553210155
 30
0.0
 10
341.942936351006
 20
144.0031952446004
 30
0.0
 10
341.8877570180755
 20
144.0773424467393
 30
0.0
  0
SPLINE
  5
29B
330
1F
100
AcDbEntity
  8
0
  6
Continuous
 62
     7
370
    25
100
AcDbSpline
210
0.0
220
0.0
230
1.0
 70
    24
 71
     3
 72
    11
 73
     7
 74
     0
 42
0.00000001
 43
0.00000001
 40
0.0
 40
0.0
 40
0.0
 40
0.0
 40
0.2486747685389767
 40
0.4982579447672021
 40
0.748016739789689
 40
1.0
 40
1.0
 40
1.0
 40
1.0
 10
341.8877570179644
 20
144.0773424467547
 30
0.0
 10
341.7972225741423
 20
144.066777383128
 30
0.0
 10
341.6158229646265
 20
144.0456086617501
 30
0.0
 10
341.3163718736844
 20
144.0106637314528
 30
0.0
 10
341.0154381438772
 20
143.9755457822106
 30
0.0
 10
340.8326425159859
 20
143.9542141502062
 30
0.0
 10
340.7408394913284
 20
143.9435010474833
 30
0.0
  0
SPLINE
  5
29C
330
1F
100
AcDbEntity
  8
0
  6
Continuous
 62
     7
370
    25
100
AcDbSpline
210
0.0
220
0.0
230
1.0
 70
    24
 71
     3
 72
    11
 73
     7
 74
     0
 42
0.00000001
 43
0.00000001
 40
0.0
 40
0.0
 40
0.0
 40
0.0
 40
0.2486745500102586
 40
0.498257658128617
 40
0.7480167312295171
 40
1.0
 40
1.0
 40
1.0
 40
1.0
 10
340.7408394912553
 20
143.9435010473672
 30
0.0
 10
340.7047219153871
 20
143.8598134627068
 30
0.0
 10
340.6323548043634
 20
143.6921325321667
 30
0.0
 10
340.5128924656663
 20
143.4153278368587
 30
0.0
 10
340.3928385939299
 20
143.137152507722
 30
0.0
 10
340.3199144740216
 20
142.9681809388411
 30
0.0
 10
340.2832907797999
 20
142.8833206336552
 30
0.0
  0
SPLINE
  5
29D
330
1F
100
AcDbEntity
  8
0
  6
Continuous
 62
     7
370
    25
100
AcDbSpline
210
0.0
220
0.0
230
1.0
 70
    24
 71
     3
 72
    11
 73
     7
 74
     0
 42
0.00000001
 43
0.00000001
 40
0.0
 40
0.0
 40
0.0
 40
0.0
 40
0.2486745532729978
 40
0.4982576624082926
 40
0.7480167313574566
 40
1.0
 40
1.0
 40
1.0
 40
1.0
 10
340.2832907798604
 20
142.8833206335266
 30
0.0
 10
340.3377075669558
 20
142.8101981019875
 30
0.0
 10
340.4467399579949
 20
142.663685878865
 30
0.0
 10
340.6267286868813
 20
142.4218261108195
 30
0.0
 10
340.8076086517843
 20
142.1787687448047
 30
0.0
 10
340.9174802620719
 20
142.0311288212198
 30
0.0
 10
340.9726595950023
 20
141.9569816190809
 30
0.0
  0
SPLINE
  5
29E
330
1F
100
AcDbEntity
  8
0
  6
Continuous
 62
     7
370
    25
100
AcDbSpline
210
0.0
220
0.0
230
1.0
 70
    24
 71
     3
 72
    11
 73
     7
 74
     0
 42
0.00000001
 43
0.00000001
 40
0.0
 40
0.0
 40
0.0
 40
0.0
 40
0.2486747685389767
 40
0.4982579447672019
 40
0.7480167397896889
 40
0.9999999999999999
 40
0.9999999999999999
 40
0.9999999999999999
 40
0.9999999999999999
 10
340.9726595951134
 20
141.9569816190656
 30
0.0
 10
341.0631940389355
 20
141.9675466826922
 30
0.0
 10
341.2445936484514
 20
141.9887154040701
 30
0.0
 10
341.5440447393935
 20
142.0236603343674
 30
0.0
 10
341.8449784692007
 20
142.0587782836096
 30
0.0
 10
342.0277740970919
 20
142.080109915614
 30
0.0
 10
342.1195771217494
 20
142.0908230183369
 30
0.0
  0
SPLINE
  5
29F
330
1F
100
AcDbEntity
  8
0
  6
Continuous
 62
     7
370
    25
100
AcDbSpline
210
0.0
220
0.0
230
1.0
 70
    24
 71
     3
 72
    11
 73
     7
 74
     0
 42
0.00000001
 43
0.00000001
 40
0.0
 40
0.0
 40
0.0
 40
0.0
 40
0.2486745500102586
 40
0.4982576581286163
 40
0.748016731229517
 40
1.0
 40
1.0
 40
1.0
 40
1.0
 10
342.1195771218225
 20
142.090823018453
 30
0.0
 10
342.1556946976908
 20
142.1745106031134
 30
0.0
 10
342.2280618087145
 20
142.3421915336535
 30
0.0
 10
342.3475241474116
 20
142.6189962289615
 30
0.0
 10
342.4675780191479
 20
142.8971715580982
 30
0.0
 10
342.5405021390563
 20
143.0661431269791
 30
0.0
 10
342.5771258332779
 20
143.1510034321651
 30
0.0
  0
SPLINE
  5
2A0
330
1F
100
AcDbEntity
  8
0
  6
Continuous
 62
     7
370
    25
100
AcDbSpline
210
0.0
220
0.0
230
1.0
 70
    11
 71
     3
 72
    23
 73
    19
 74
     0
 42
0.00000001
 43
0.00000001
 40
0.0
 40
0.0
 40
0.0
 40
0.0
 40
0.0624999999999997
 40
0.1249999999999996
 40
0.1874999999999996
 40
0.2499999999999997
 40
0.3124999999999998
 40
0.375
 40
0.4374999999999993
 40
0.4999999999999999
 40
0.5624999999999997
 40
0.6249999999999996
 40
0.6874999999999997
 40
0.7499999999999997
 40
0.8124999999999999
 40
0.8750000000000001
 40
0.9374999999999993
 40
1.0
 40
1.0
 40
1.0
 40
1.0
 10
341.313741301264
 20
144.0002873741979
 30
0.0
 10
341.1868184017725
 20
143.9702667956193
 30
0.0
 10
340.9329726027896
 20
143.9102256384621
 30
0.0
 10
340.6326545521983
 20
143.6440985936528
 30
0.0
 10
340.4524837988786
 20
143.2932721025865
 30
0.0
 10
340.4215038472516
 20
142.8975309794382
 30
0.0
 10
340.543998603622
 20
142.5207741454715
 30
0.0
 10
340.8014352532558
 20
142.2193810615231
 30
0.0
 10
341.1545903043893
 20
142.0394985771248
 30
0.0
 10
341.5497075824441
 20
142.0084405831689
 30
0.0
 10
341.9266312367174
 20
142.1309592399332
 30
0.0
 10
342.2279808845333
 20
142.3883783303202
 30
0.0
 10
342.4078702931553
 20
142.7415797180472
 30
0.0
 10
342.4389440263483
 20
143.1365292089752
 30
0.0
 10
342.316355488412
 20
143.5140776751621
 30
0.0
 10
342.0592001834759
 20
143.81309586245
 30
0.0
 10
341.7050135351175
 20
144.0016863012705
 30
0.0
 10
341.4441653792152
 20
144.0007536832221
 30
0.0
 10
341.313741301264
 20
144.0002873741979
 30
0.0
  0
SPLINE
  5
2A1
330
1F
100
AcDbEntity
  8
0
  6
Continuous
 62
     7
370
    25
100
AcDbSpline
210
0.0
220
0.0
230
1.0
 70
    11
 71
     3
 72
    23
 73
    19
 74
     0
 42
0.00000001
 43
0.00000001
 40
0.0
 40
0.0
 40
0.0
 40
0.0
 40
0.0625
 40
0.125
 40
0.1875
 40
0.25
 40
0.3125000000000001
 40
0.375
 40
0.4375000000000001
 40
0.5
 40
0.5625
 40
0.625
 40
0.6874999999999999
 40
0.75
 40
0.8125000000000001
 40
0.875
 40
0.9374999999999999
 40
1.0
 40
1.0
 40
1.0
 40
1.0
 10
378.4802775758238
 20
144.2285633158355
 30
0.0
 10
378.638075714535
 20
144.2038018469145
 30
0.0
 10
378.9536719919575
 20
144.1542789090727
 30
0.0
 10
379.3453313397081
 20
143.8574622720948
 30
0.0
 10
379.5982187788534
 20
143.4459586523342
 30
0.0
 10
379.6731405687837
 20
142.9656266829568
 30
0.0
 10
379.5588764827976
 20
142.4940911975899
 30
0.0
 10
379.2727723660196
 20
142.1019336800156
 30
0.0
 10
378.8583983446829
 20
141.8491799893982
 30
0.0
 10
378.3788354614098
 20
141.7742213751806
 30
0.0
 10
377.9070940332022
 20
141.8884990097878
 30
0.0
 10
377.5149912008861
 20
142.1745857563684
 30
0.0
 10
377.2622247120769
 20
142.5890157098738
 30
0.0
 10
377.1872626053679
 20
143.0683722346695
 30
0.0
 10
377.3015670081327
 20
143.5408831646181
 30
0.0
 10
377.5875501745747
 20
143.9301143484476
 30
0.0
 10
378.0023676804769
 20
144.1935979294623
 30
0.0
 10
378.3209742773748
 20
144.2169081870444
 30
0.0
 10
378.4802775758238
 20
144.2285633158355
 30
0.0
  0
SPLINE
  5
2A2
330
1F
100
AcDbEntity
  8
0
  6
Continuous
 62
     7
370
    25
100
AcDbSpline
210
0.0
220
0.0
230
1.0
 70
     8
 71
     3
 72
    13
 73
     9
 74
     0
 42
0.00000001
 43
0.00000001
 40
0.0
 40
0.0
 40
0.0
 40
0.0
 40
0.1836256020883573
 40
0.3672512041767145
 40
0.5508768062650718
 40
0.7345024083534292
 40
0.9181280104417864
 40
1.0
 40
1.0
 40
1.0
 40
1.0
 10
378.554097618395
 20
146.01460284774
 30
0.0
 10
378.9446266469395
 20
145.9532771035402
 30
0.0
 10
379.7256847040283
 20
145.8306256151409
 30
0.0
 10
380.6935918378319
 20
145.0970498790019
 30
0.0
 10
381.3238799772864
 20
144.0755935893611
 30
0.0
 10
381.492245727234
 20
142.8992207998714
 30
0.0
 10
381.3135232994023
 20
141.9110419203509
 30
0.0
 10
380.9550032657313
 20
141.4700272537712
 30
0.0
 10
380.8444457715142
 20
141.3340307351086
 30
0.0
  0
ARC
  5
2A3
330
1F
100
AcDbEntity
  8
0
  6
Continuous
 62
     7
370
    25
100
AcDbCircle
 10
378.3924737947
 20
143.0514802518
 30
0.0
 40
2.967527216245821
100
AcDbArc
 50
86.8778896884
 51
257.6290448332
  0
SPLINE
  5
2A4
330
1F
100
AcDbEntity
  8
0
  6
Continuous
 62
     7
370
    25
100
AcDbSpline
210
0.0
220
0.0
230
1.0
 70
    24
 71
     3
 72
    11
 73
     7
 74
     0
 42
0.00000001
 43
0.00000001
 40
0.0
 40
0.0
 40
0.0
 40
0.0
 40
0.2486745532729979
 40
0.4982576624082952
 40
0.748016731357458
 40
1.0
 40
1.0
 40
1.0
 40
1.0
 10
379.5838388308061
 20
142.9674634748794
 30
0.0
 10
379.5417041671584
 20
143.0482889749135
 30
0.0
 10
379.4572808969074
 20
143.2102352785458
 30
0.0
 10
379.3179164662452
 20
143.4775733517627
 30
0.0
 10
379.1778619557051
 20
143.7462351818665
 30
0.0
 10
379.0927888819165
 20
143.9094279816449
 30
0.0
 10
379.0500637825964
 20
143.9913860944572
 30
0.0
  0
SPLINE
  5
2A5
330
1F
100
AcDbEntity
  8
0
  6
Continuous
 62
     7
370
    25
100
AcDbSpline
210
0.0
220
0.0
230
1.0
 70
    24
 71
     3
 72
    11
 73
     7
 74
     0
 42
0.00000001
 43
0.00000001
 40
0.0
 40
0.0
 40
0.0
 40
0.0
 40
0.2486747685389767
 40
0.4982579447672028
 40
0.7480167397896906
 40
1.0
 40
1.0
 40
1.0
 40
1.0
 10
379.0500637824891
 20
143.99138609449
 30
0.0
 10
378.9589994335192
 20
143.9953091588909
 30
0.0
 10
378.7765380779668
 20
144.0031696186273
 30
0.0
 10
378.475334276477
 20
144.0161455189044
 30
0.0
 10
378.1726391581215
 20
144.0291856653127
 30
0.0
 10
377.9887736131894
 20
144.0371066177164
 30
0.0
 10
377.8964332582817
 20
144.0410846526247
 30
0.0
  0
SPLINE
  5
2A6
330
1F
100
AcDbEntity
  8
0
  6
Continuous
 62
     7
370
    25
100
AcDbSpline
210
0.0
220
0.0
230
1.0
 70
    24
 71
     3
 72
    11
 73
     7
 74
     0
 42
0.00000001
 43
0.00000001
 40
0.0
 40
0.0
 40
0.0
 40
0.0
 40
0.2486745500102605
 40
0.4982576581286182
 40
0.7480167312295178
 40
1.0
 40
1.0
 40
1.0
 40
1.0
 10
377.8964332581911
 20
144.0410846525216
 30
0.0
 10
377.8475036543703
 20
143.9641822144405
 30
0.0
 10
377.7494656773761
 20
143.8100963672915
 30
0.0
 10
377.5876263300928
 20
143.5557341936445
 30
0.0
 10
377.4249856145959
 20
143.3001125131833
 30
0.0
 10
377.3261930403344
 20
143.1448406689059
 30
0.0
 10
377.2765777822324
 20
143.0668605910773
 30
0.0
  0
SPLINE
  5
2A7
330
1F
100
AcDbEntity
  8
0
  6
Continuous
 62
     7
370
    25
100
AcDbSpline
210
0.0
220
0.0
230
1.0
 70
    24
 71
     3
 72
    11
 73
     7
 74
     0
 42
0.00000001
 43
0.00000001
 40
0.0
 40
0.0
 40
0.0
 40
0.0
 40
0.2486745532729975
 40
0.4982576624082952
 40
0.748016731357458
 40
1.0
 40
1.0
 40
1.0
 40
1.0
 10
377.2765777822717
 20
143.0668605909408
 30
0.0
 10
377.3187124459195
 20
142.9860350909067
 30
0.0
 10
377.4031357161705
 20
142.8240887872745
 30
0.0
 10
377.5425001468327
 20
142.5567507140575
 30
0.0
 10
377.6825546573727
 20
142.2880888839537
 30
0.0
 10
377.7676277311613
 20
142.1248960841753
 30
0.0
 10
377.8103528304815
 20
142.042937971363
 30
0.0
  0
SPLINE
  5
2A8
330
1F
100
AcDbEntity
  8
0
  6
Continuous
 62
     7
370
    25
100
AcDbSpline
210
0.0
220
0.0
230
1.0
 70
    24
 71
     3
 72
    11
 73
     7
 74
     0
 42
0.00000001
 43
0.00000001
 40
0.0
 40
0.0
 40
0.0
 40
0.0
 40
0.2486747685389769
 40
0.4982579447672024
 40
0.7480167397896911
 40
1.0
 40
1.0
 40
1.0
 40
1.0
 10
377.8103528305888
 20
142.0429379713302
 30
0.0
 10
377.9014171795587
 20
142.0390149069293
 30
0.0
 10
378.0838785351111
 20
142.0311544471928
 30
0.0
 10
378.3850823366008
 20
142.0181785469158
 30
0.0
 10
378.6877774549564
 20
142.0051384005075
 30
0.0
 10
378.8716429998884
 20
141.9972174481038
 30
0.0
 10
378.9639833547961
 20
141.9932394131955
 30
0.0
  0
SPLINE
  5
2A9
330
1F
100
AcDbEntity
  8
0
  6
Continuous
 62
     7
370
    25
100
AcDbSpline
210
0.0
220
0.0
230
1.0
 70
    24
 71
     3
 72
    11
 73
     7
 74
     0
 42
0.00000001
 43
0.00000001
 40
0.0
 40
0.0
 40
0.0
 40
0.0
 40
0.2486745500102599
 40
0.4982576581286169
 40
0.7480167312295178
 40
1.0
 40
1.0
 40
1.0
 40
1.0
 10
378.9639833548868
 20
141.9932394132986
 30
0.0
 10
379.0129129587076
 20
142.0701418513797
 30
0.0
 10
379.1109509357017
 20
142.2242276985287
 30
0.0
 10
379.272790282985
 20
142.4785898721757
 30
0.0
 10
379.435430998482
 20
142.7342115526369
 30
0.0
 10
379.5342235727434
 20
142.8894833969143
 30
0.0
 10
379.5838388308455
 20
142.9674634747429
 30
0.0
  0
SPLINE
  5
2AA
330
1F
100
AcDbEntity
  8
0
  6
Continuous
 62
     7
370
    25
100
AcDbSpline
210
0.0
220
0.0
230
1.0
 70
    11
 71
     3
 72
    23
 73
    19
 74
     0
 42
0.00000001
 43
0.00000001
 40
0.0
 40
0.0
 40
0.0
 40
0.0
 40
0.0625
 40
0.125
 40
0.1875
 40
0.2500000000000001
 40
0.3125000000000001
 40
0.375
 40
0.4374999999999998
 40
0.4999999999999999
 40
0.5624999999999999
 40
0.6249999999999999
 40
0.6874999999999999
 40
0.7499999999999999
 40
0.8125
 40
0.875
 40
0.9375
 40
0.9999999999999999
 40
0.9999999999999999
 40
0.9999999999999999
 40
0.9999999999999999
 10
378.4710917794515
 20
144.0063175018039
 30
0.0
 10
378.3410145448516
 20
143.9968006434789
 30
0.0
 10
378.0808600756519
 20
143.9777669268289
 30
0.0
 10
377.7421457203516
 20
143.7626225078837
 30
0.0
 10
377.5086295295691
 20
143.4448003629218
 30
0.0
 10
377.4152956139566
 20
143.0589771208149
 30
0.0
 10
377.4765050404747
 20
142.6675641887544
 30
0.0
 10
377.6828985438353
 20
142.3291662848053
 30
0.0
 10
378.0030654995924
 20
142.095565516879
 30
0.0
 10
378.3882604141036
 20
142.0022534584907
 30
0.0
 10
378.7798418457517
 20
142.0634600332559
 30
0.0
 10
379.1181940789463
 20
142.2698430864037
 30
0.0
 10
379.351809030303
 20
142.5900546947649
 30
0.0
 10
379.445110025724
 20
142.9750814490721
 30
0.0
 10
379.3839335193975
 20
143.3672908689323
 30
0.0
 10
379.1774412554625
 20
143.7032993094822
 30
0.0
 10
378.8576364218112
 20
143.9456614432058
 30
0.0
 10
378.5999399935714
 20
143.9860988156045
 30
0.0
 10
378.4710917794515
 20
144.0063175018039
 30
0.0
  0
LINE
  5
2AB
330
1F
100
AcDbEntity
  8
0
  6
Continuous
 62
     7
370
    25
100
AcDbLine
 10
337.7302083065
 20
178.4171620329
 30
0.0
 11
337.4302083065
 21
178.4171620329
 31
0.0
  0
LINE
  5
2AC
330
1F
100
AcDbEntity
  8
0
  6
Continuous
 62
     7
370
    25
100
AcDbLine
 10
337.4302083065
 20
178.4171620329
 30
0.0
 11
337.4302083065
 21
186.0171620329
 31
0.0
  0
LINE
  5
2AD
330
1F
100
AcDbEntity
  8
0
  6
Continuous
 62
     7
370
    25
100
AcDbLine
 10
337.7302083065
 20
186.0171620329
 30
0.0
 11
337.4302083065
 21
186.0171620329
 31
0.0
  0
LINE
  5
2AE
330
1F
100
AcDbEntity
  8
0
  6
Continuous
 62
     7
370
    25
100
AcDbLine
 10
337.7302083065
 20
186.0171620329
 30
0.0
 11
337.7302083065
 21
178.4171620329
 31
0.0
  0
ARC
  5
2AF
330
1F
100
AcDbEntity
  8
0
  6
Continuous
 62
     7
370
    25
100
AcDbCircle
 10
379.9302083065
 20
175.9171620329
 30
0.0
 40
0.3000000000000114
100
AcDbArc
 50
180.0
 51
270.0
  0
LINE
  5
2B0
330
1F
100
AcDbEntity
  8
0
  6
Continuous
 62
     7
370
    25
100
AcDbLine
 10
379.9302083065
 20
175.6171620329
 30
0.0
 11
379.9302083065
 21
175.3171620329
 31
0.0
  0
ARC
  5
2B1
330
1F
100
AcDbEntity
  8
0
  6
Continuous
 62
     7
370
    25
100
AcDbCircle
 10
379.9302083065
 20
175.9171620329
 30
0.0
 40
0.5999999999999943
100
AcDbArc
 50
180.0
 51
270.0
  0
LINE
  5
2B2
330
1F
100
AcDbEntity
  8
0
  6
Continuous
 62
     7
370
    25
100
AcDbLine
 10
379.6302083065
 20
175.9171620329
 30
0.0
 11
379.3302083065
 21
175.9171620329
 31
0.0
  0
LINE
  5
2B3
330
1F
100
AcDbEntity
  8
0
  6
Continuous
 62
     7
370
    25
100
AcDbLine
 10
382.4302083065
 20
175.3171620329
 30
0.0
 11
382.1302083065
 21
175.3171620329
 31
0.0
  0
LINE
  5
2B4
330
1F
100
AcDbEntity
  8
0
  6
Continuous
 62
     7
370
    25
100
AcDbLine
 10
382.1302083065
 20
175.6171620329
 30
0.0
 11
382.1302083065
 21
175.3171620329
 31
0.0
  0
ARC
  5
2B5
330
1F
100
AcDbEntity
  8
0
  6
Continuous
 62
     7
370
    25
100
AcDbCircle
 10
382.1302083065
 20
175.3171620329
 30
0.0
 40
0.2999999999999829
100
AcDbArc
 50
0.0
 51
90.0
  0
LINE
  5
2B6
330
1F
100
AcDbEntity
  8
0
  6
Continuous
 62
     7
370
    25
100
AcDbLine
 10
337.7302083065
 20
178.4171620329
 30
0.0
 11
339.9302083065
 21
178.4171620329
 31
0.0
  0
LINE
  5
2B7
330
1F
100
AcDbEntity
  8
0
  6
Continuous
 62
     7
370
    25
100
AcDbLine
 10
339.9302083065
 20
178.4171620329
 30
0.0
 11
339.9302083065
 21
178.1171620329
 31
0.0
  0
LINE
  5
2B8
330
1F
100
AcDbEntity
  8
0
  6
Continuous
 62
     7
370
    25
100
AcDbLine
 10
339.9302083065
 20
178.1171620329
 30
0.0
 11
337.7302083065
 21
178.1171620329
 31
0.0
  0
LINE
  5
2B9
330
1F
100
AcDbEntity
  8
0
  6
Continuous
 62
     7
370
    25
100
AcDbLine
 10
337.7302083065
 20
178.4171620329
 30
0.0
 11
337.7302083065
 21
178.1171620329
 31
0.0
  0
LINE
  5
2BA
330
1F
100
AcDbEntity
  8
0
  6
Continuous
 62
     7
370
    25
100
AcDbLine
 10
379.6302083065
 20
177.8171620329
 30
0.0
 11
379.6302083065
 21
175.9171620329
 31
0.0
  0
LINE
  5
2BB
330
1F
100
AcDbEntity
  8
0
  6
Continuous
 62
     7
370
    25
100
AcDbLine
 10
379.3302083065
 20
175.9171620329
 30
0.0
 11
379.3302083065
 21
177.8171620329
 31
0.0
  0
LINE
  5
2BC
330
1F
100
AcDbEntity
  8
0
  6
Continuous
 62
     7
370
    25
100
AcDbLine
 10
379.6302083065
 20
177.8171620329
 30
0.0
 11
379.3302083065
 21
177.8171620329
 31
0.0
  0
CIRCLE
  5
2BD
330
1F
100
AcDbEntity
  8
0
  6
Continuous
 62
     7
370
    25
100
AcDbCircle
 10
342.4302083065
 20
170.6671620329
 30
0.0
 40
3.46999999999997
  0
CIRCLE
  5
2BE
330
1F
100
AcDbEntity
  8
0
  6
Continuous
 62
     7
370
    25
100
AcDbCircle
 10
377.4302083065
 20
170.6671620329
 30
0.0
 40
3.470000000000027
  0
SPLINE
  5
2BF
330
1F
100
AcDbEntity
  8
0
  6
Continuous
 62
     7
370
    25
100
AcDbSpline
210
0.0
220
0.0
230
1.0
 70
     8
 71
     3
 72
    10
 73
     6
 74
     0
 42
0.00000001
 43
0.00000001
 40
0.0
 40
0.0
 40
0.0
 40
0.0
 40
0.2799745442589708
 40
0.5478590769231928
 40
1.0
 40
1.0
 40
1.0
 40
1.0
 10
370.0575621650196
 20
170.9506980966082
 30
0.0
 10
369.9470370443655
 20
170.9428574244954
 30
0.0
 10
369.7307595583579
 20
170.9275146603967
 30
0.0
 10
369.3613198130811
 20
170.7603552281774
 30
0.0
 10
369.18100851976
 20
170.5357503394
 30
0.0
 10
369.0677818081857
 20
170.3947094068473
 30
0.0
  0
LINE
  5
2C0
330
1F
100
AcDbEntity
  8
0
  6
Continuous
 62
     7
370
    25
100
AcDbLine
 10
369.0677818082
 20
170.3947094068
 30
0.0
 11
369.0677818082
 21
170.8031300529
 31
0.0
  0
LINE
  5
2C1
330
1F
100
AcDbEntity
  8
0
  6
Continuous
 62
     7
370
    25
100
AcDbLine
 10
369.0677818082
 20
170.8031300529
 30
0.0
 11
368.0787777984
 21
170.8031300529
 31
0.0
  0
SPLINE
  5
2C2
330
1F
100
AcDbEntity
  8
0
  6
Continuous
 62
     7
370
    25
100
AcDbSpline
210
0.0
220
0.0
230
1.0
 70
     8
 71
     3
 72
     9
 73
     5
 74
     0
 42
0.00000001
 43
0.00000001
 40
0.0
 40
0.0
 40
0.0
 40
0.0
 40
0.547901601531873
 40
1.0
 40
1.0
 40
1.0
 40
1.0
 10
368.078777798383
 20
169.3304307889133
 30
0.0
 10
368.0024433541158
 20
169.5133159602443
 30
0.0
 10
367.8631219065168
 20
169.8471079601575
 30
0.0
 10
367.6232527311623
 20
170.1169913830403
 30
0.0
 10
367.5148082611426
 20
170.2390052462987
 30
0.0
  0
SPLINE
  5
2C3
330
1F
100
AcDbEntity
  8
0
  6
Continuous
 62
     7
370
    25
100
AcDbSpline
210
0.0
220
0.0
230
1.0
 70
     8
 71
     3
 72
     9
 73
     5
 74
     0
 42
0.00000001
 43
0.00000001
 40
0.0
 40
0.0
 40
0.0
 40
0.0
 40
0.5610087162818735
 40
1.0
 40
1.0
 40
1.0
 40
1.0
 10
367.5148082611426
 20
170.2390052462987
 30
0.0
 10
367.2474661820792
 20
170.4675242158338
 30
0.0
 10
366.7709279905957
 20
170.8748600787232
 30
0.0
 10
366.1510227810317
 20
170.9275622866818
 30
0.0
 10
365.8788897973017
 20
170.9506980966082
 30
0.0
  0
SPLINE
  5
2C4
330
1F
100
AcDbEntity
  8
0
  6
Continuous
 62
     7
370
    25
100
AcDbSpline
210
0.0
220
0.0
230
1.0
 70
     8
 71
     3
 72
     9
 73
     5
 74
     0
 42
0.00000001
 43
0.00000001
 40
0.0
 40
0.0
 40
0.0
 40
0.0
 40
0.562588374598623
 40
1.0
 40
1.0
 40
1.0
 40
1.0
 10
363.2381919519869
 20
170.2149695422171
 30
0.0
 10
362.9707326717626
 20
170.4511874225456
 30
0.0
 10
362.4953241985338
 20
170.8710643538758
 30
0.0
 10
361.8686323276879
 20
170.9264651460533
 30
0.0
 10
361.5945100178354
 20
170.9506980966082
 30
0.0
  0
SPLINE
  5
2C5
330
1F
100
AcDbEntity
  8
0
  6
Continuous
 62
     7
370
    25
100
AcDbSpline
210
0.0
220
0.0
230
1.0
 70
     8
 71
     3
 72
    10
 73
     6
 74
     0
 42
0.00000001
 43
0.00000001
 40
0.0
 40
0.0
 40
0.0
 40
0.0
 40
0.2953975422580338
 40
0.5677974872674674
 40
1.0
 40
1.0
 40
1.0
 40
1.0
 10
361.5945100178354
 20
170.9506980966082
 30
0.0
 10
361.4260583033979
 20
170.9405208331836
 30
0.0
 10
361.1022693529132
 20
170.9209586372506
 30
0.0
 10
360.5559475235395
 20
170.7098570399303
 30
0.0
 10
360.2864805034885
 20
170.4031210946706
 30
0.0
 10
360.1211896761787
 20
170.2149695422172
 30
0.0
  0
LINE
  5
2C6
330
1F
100
AcDbEntity
  8
0
  6
Continuous
 62
     7
370
    25
100
AcDbLine
 10
360.1211896762
 20
170.2149695422
 30
0.0
 11
360.1211896762
 21
170.8031300529
 31
0.0
  0
SPLINE
  5
2C7
330
1F
100
AcDbEntity
  8
0
  6
Continuous
 62
     7
370
    25
100
AcDbSpline
210
0.0
220
0.0
230
1.0
 70
     8
 71
     3
 72
     9
 73
     5
 74
     0
 42
0.00000001
 43
0.00000001
 40
0.0
 40
0.0
 40
0.0
 40
0.0
 40
0.5476216279963346
 40
1.0
 40
1.0
 40
1.0
 40
1.0
 10
359.1230713522314
 20
169.400643614402
 30
0.0
 10
359.0477316774499
 20
169.5686584828123
 30
0.0
 10
358.9101555282808
 20
169.8754667968394
 30
0.0
 10
358.6863956691068
 20
170.1257724034684
 30
0.0
 10
358.5851715482939
 20
170.2390052462986
 30
0.0
  0
SPLINE
  5
2C8
330
1F
100
AcDbEntity
  8
0
  6
Continuous
 62
     7
370
    25
100
AcDbSpline
210
0.0
220
0.0
230
1.0
 70
     8
 71
     3
 72
     9
 73
     5
 74
     0
 42
0.00000001
 43
0.00000001
 40
0.0
 40
0.0
 40
0.0
 40
0.0
 40
0.5612680514500418
 40
1.0
 40
1.0
 40
1.0
 40
1.0
 10
358.5851715482939
 20
170.2390052462986
 30
0.0
 10
358.3175328537615
 20
170.467524063594
 30
0.0
 10
357.8406863740073
 20
170.8746714447873
 30
0.0
 10
357.2206905594592
 20
170.9275142636998
 30
0.0
 10
356.9486785876497
 20
170.9506980966082
 30
0.0
  0
SPLINE
  5
2C9
330
1F
100
AcDbEntity
  8
0
  6
Continuous
 62
     7
370
    25
100
AcDbSpline
210
0.0
220
0.0
230
1.0
 70
     8
 71
     3
 72
     9
 73
     5
 74
     0
 42
0.00000001
 43
0.00000001
 40
0.0
 40
0.0
 40
0.0
 40
0.0
 40
0.5681164578763305
 40
1.0
 40
1.0
 40
1.0
 40
1.0
 10
354.6432384442263
 20
169.5847310224059
 30
0.0
 10
354.5980130650734
 20
169.7422984193294
 30
0.0
 10
354.5184072403772
 20
170.019648942693
 30
0.0
 10
354.3429629645939
 20
170.2475780785236
 30
0.0
 10
354.2671914693233
 20
170.3460169210593
 30
0.0
  0
SPLINE
  5
2CA
330
1F
100
AcDbEntity
  8
0
  6
Continuous
 62
     7
370
    25
100
AcDbSpline
210
0.0
220
0.0
230
1.0
 70
     8
 71
     3
 72
    10
 73
     6
 74
     0
 42
0.00000001
 43
0.00000001
 40
0.0
 40
0.0
 40
0.0
 40
0.0
 40
0.2867405318910018
 40
0.559731595453963
 40
1.0
 40
1.0
 40
1.0
 40
1.0
 10
354.2671914693233
 20
170.3460169210593
 30
0.0
 10
354.1653895153979
 20
170.4484092160932
 30
0.0
 10
353.9666671034835
 20
170.6482840028333
 30
0.0
 10
353.5172692303577
 20
170.8958474559723
 30
0.0
 10
353.1563589579479
 20
170.9297631850091
 30
0.0
 10
352.9335825393755
 20
170.9506980966082
 30
0.0
  0
SPLINE
  5
2CB
330
1F
100
AcDbEntity
  8
0
  6
Continuous
 62
     7
370
    25
100
AcDbSpline
210
0.0
220
0.0
230
1.0
 70
     8
 71
     3
 72
     9
 73
     5
 74
     0
 42
0.00000001
 43
0.00000001
 40
0.0
 40
0.0
 40
0.0
 40
0.0
 40
0.5574050725191246
 40
1.0
 40
1.0
 40
1.0
 40
1.0
 10
352.9335825393755
 20
170.9506980966082
 30
0.0
 10
352.8116948211196
 20
170.9442959625853
 30
0.0
 10
352.5930249089406
 20
170.9328103584198
 30
0.0
 10
352.3867948288385
 20
170.8602238111076
 30
0.0
 10
352.2955184414913
 20
170.8280973734639
 30
0.0
  0
SPLINE
  5
2CC
330
1F
100
AcDbEntity
  8
0
  6
Continuous
 62
     7
370
    25
100
AcDbSpline
210
0.0
220
0.0
230
1.0
 70
     8
 71
     3
 72
     9
 73
     5
 74
     0
 42
0.00000001
 43
0.00000001
 40
0.0
 40
0.0
 40
0.0
 40
0.0
 40
0.5917282659738052
 40
1.0
 40
1.0
 40
1.0
 40
1.0
 10
352.2955184414913
 20
170.8280973734639
 30
0.0
 10
352.1762211791931
 20
170.7770244286758
 30
0.0
 10
351.9746129932093
 20
170.6907129446299
 30
0.0
 10
351.8303291163594
 20
170.5272719665943
 30
0.0
 10
351.7714220877659
 20
170.4605436350807
 30
0.0
  0
LINE
  5
2CD
330
1F
100
AcDbEntity
  8
0
  6
Continuous
 62
     7
370
    25
100
AcDbLine
 10
351.7714220878
 20
170.4605436351
 30
0.0
 11
351.7714220878
 21
172.3171620329
 31
0.0
  0
LINE
  5
2CE
330
1F
100
AcDbEntity
  8
0
  6
Continuous
 62
     7
370
    25
100
AcDbLine
 10
351.7714220878
 20
172.3171620329
 30
0.0
 11
350.6832009274
 21
172.3171620329
 31
0.0
  0
LINE
  5
2CF
330
1F
100
AcDbEntity
  8
0
  6
Continuous
 62
     7
370
    25
100
AcDbLine
 10
350.6832009274
 20
172.3171620329
 30
0.0
 11
350.6832009274
 21
166.1264155379
 31
0.0
  0
LINE
  5
2D0
330
1F
100
AcDbEntity
  8
0
  6
Continuous
 62
     7
370
    25
100
AcDbLine
 10
350.6832009274
 20
166.1264155379
 30
0.0
 11
351.7714220878
 21
166.1264155379
 31
0.0
  0
LINE
  5
2D1
330
1F
100
AcDbEntity
  8
0
  6
Continuous
 62
     7
370
    25
100
AcDbLine
 10
351.7714220878
 20
166.1264155379
 30
0.0
 11
351.7714220878
 21
168.4721015114
 31
0.0
  0
SPLINE
  5
2D2
330
1F
100
AcDbEntity
  8
0
  6
Continuous
 62
     7
370
    25
100
AcDbSpline
210
0.0
220
0.0
230
1.0
 70
     8
 71
     3
 72
    10
 73
     6
 74
     0
 42
0.00000001
 43
0.00000001
 40
0.0
 40
0.0
 40
0.0
 40
0.0
 40
0.6629796386574074
 40
0.8498316486840313
 40
1.0
 40
1.0
 40
1.0
 40
1.0
 10
351.7714220877659
 20
168.4721015113779
 30
0.0
 10
351.7768965637324
 20
168.703929015781
 30
0.0
 10
351.7839139480758
 20
169.0010940247641
 30
0.0
 10
351.8647686372432
 20
169.3432460083635
 30
0.0
 10
351.9190653850486
 20
169.4479132767157
 30
0.0
 10
351.94325873962
 20
169.4945505512785
 30
0.0
  0
SPLINE
  5
2D3
330
1F
100
AcDbEntity
  8
0
  6
Continuous
 62
     7
370
    25
100
AcDbSpline
210
0.0
220
0.0
230
1.0
 70
     8
 71
     3
 72
    10
 73
     6
 74
     0
 42
0.00000001
 43
0.00000001
 40
0.0
 40
0.0
 40
0.0
 40
0.0
 40
0.2830800193880778
 40
0.5514309522938148
 40
1.0
 40
1.0
 40
1.0
 40
1.0
 10
351.94325873962
 20
169.4945505512785
 30
0.0
 10
351.993138126571
 20
169.5610813985014
 30
0.0
 10
352.0903015996611
 20
169.6906813911832
 30
0.0
 10
352.3432046289762
 20
169.8543186226882
 30
0.0
 10
352.5553111969062
 20
169.874465763148
 30
0.0
 10
352.6880239734526
 20
169.8870716101804
 30
0.0
  0
SPLINE
  5
2D4
330
1F
100
AcDbEntity
  8
0
  6
Continuous
 62
     7
370
    25
100
AcDbSpline
210
0.0
220
0.0
230
1.0
 70
     8
 71
     3
 72
    11
 73
     7
 74
     0
 42
0.00000001
 43
0.00000001
 40
0.0
 40
0.0
 40
0.0
 40
0.0
 40
0.3089124236173828
 40
0.5793204669916557
 40
0.784331816614213
 40
1.0
 40
1.0
 40
1.0
 40
1.0
 10
352.6880239734526
 20
169.8870716101804
 30
0.0
 10
352.7866681800349
 20
169.8817328590115
 30
0.0
 10
352.9716610888798
 20
169.871720805161
 30
0.0
 10
353.2053516658447
 20
169.7702996465309
 30
0.0
 10
353.3735095308489
 20
169.6232631012621
 30
0.0
 10
353.4394171990227
 20
169.5060039331265
 30
0.0
 10
353.4732058337218
 20
169.4458891193719
 30
0.0
  0
SPLINE
  5
2D5
330
1F
100
AcDbEntity
  8
0
  6
Continuous
 62
     7
370
    25
100
AcDbSpline
210
0.0
220
0.0
230
1.0
 70
     8
 71
     3
 72
     9
 73
     5
 74
     0
 42
0.00000001
 43
0.00000001
 40
0.0
 40
0.0
 40
0.0
 40
0.0
 40
0.4805293891412449
 40
1.0
 40
1.0
 40
1.0
 40
1.0
 10
353.4732058337218
 20
169.4458891193719
 30
0.0
 10
353.5173987262349
 20
169.2957742509223
 30
0.0
 10
353.6093658223413
 20
168.9833794799847
 30
0.0
 10
353.6106097032228
 20
168.6575634760025
 30
0.0
 10
353.6112558627842
 20
168.4883116373863
 30
0.0
  0
LINE
  5
2D6
330
1F
100
AcDbEntity
  8
0
  6
Continuous
 62
     7
370
    25
100
AcDbLine
 10
353.6112558628
 20
168.4883116374
 30
0.0
 11
353.6112558628
 21
166.1264155379
 31
0.0
  0
LINE
  5
2D7
330
1F
100
AcDbEntity
  8
0
  6
Continuous
 62
     7
370
    25
100
AcDbLine
 10
353.6112558628
 20
166.1264155379
 30
0.0
 11
354.700563909
 21
166.1264155379
 31
0.0
  0
LINE
  5
2D8
330
1F
100
AcDbEntity
  8
0
  6
Continuous
 62
     7
370
    25
100
AcDbLine
 10
354.700563909
 20
166.1264155379
 30
0.0
 11
354.700563909
 21
167.6368452676
 31
0.0
  0
SPLINE
  5
2D9
330
1F
100
AcDbEntity
  8
0
  6
Continuous
 62
     7
370
    25
100
AcDbSpline
210
0.0
220
0.0
230
1.0
 70
     8
 71
     3
 72
     9
 73
     5
 74
     0
 42
0.00000001
 43
0.00000001
 40
0.0
 40
0.0
 40
0.0
 40
0.0
 40
0.5496468549129085
 40
1.0
 40
1.0
 40
1.0
 40
1.0
 10
354.7005639089994
 20
167.6368452676055
 30
0.0
 10
354.7764218893876
 20
167.4717512898559
 30
0.0
 10
354.9144341052499
 20
167.1713875630849
 30
0.0
 10
355.1382873187601
 20
166.928898947344
 30
0.0
 10
355.2391003175024
 20
166.8196934365972
 30
0.0
  0
SPLINE
  5
2DA
330
1F
100
AcDbEntity
  8
0
  6
Continuous
 62
     7
370
    25
100
AcDbSpline
210
0.0
220
0.0
230
1.0
 70
     8
 71
     3
 72
     9
 73
     5
 74
     0
 42
0.00000001
 43
0.00000001
 40
0.0
 40
0.0
 40
0.0
 40
0.0
 40
0.5572824920420895
 40
1.0
 40
1.0
 40
1.0
 40
1.0
 10
355.2391003175024
 20
166.8196934365972
 30
0.0
 10
355.5177028984909
 20
166.5963889474526
 30
0.0
 10
356.0176335171036
 20
166.1956864449815
 30
0.0
 10
356.6521586338868
 20
166.1459287681654
 30
0.0
 10
356.9330740123257
 20
166.1239001734837
 30
0.0
  0
SPLINE
  5
2DB
330
1F
100
AcDbEntity
  8
0
  6
Continuous
 62
     7
370
    25
100
AcDbSpline
210
0.0
220
0.0
230
1.0
 70
     8
 71
     3
 72
     9
 73
     5
 74
     0
 42
0.00000001
 43
0.00000001
 40
0.0
 40
0.0
 40
0.0
 40
0.0
 40
0.5522050029538319
 40
1.0
 40
1.0
 40
1.0
 40
1.0
 10
356.9330740123257
 20
166.1239001734837
 30
0.0
 10
357.1959079988737
 20
166.1472794022557
 30
0.0
 10
357.6718797578076
 20
166.1896173540072
 30
0.0
 10
358.0815875250751
 20
166.4323731728916
 30
0.0
 10
358.2650526135084
 20
166.5410780140919
 30
0.0
  0
SPLINE
  5
2DC
330
1F
100
AcDbEntity
  8
0
  6
Continuous
 62
     7
370
    25
100
AcDbSpline
210
0.0
220
0.0
230
1.0
 70
     8
 71
     3
 72
     9
 73
     5
 74
     0
 42
0.00000001
 43
0.00000001
 40
0.0
 40
0.0
 40
0.0
 40
0.0
 40
0.5793668711043873
 40
1.0
 40
1.0
 40
1.0
 40
1.0
 10
358.2650526135084
 20
166.5410780140919
 30
0.0
 10
358.4767500947641
 20
166.7042531773517
 30
0.0
 10
358.8421446173265
 20
166.9858971086811
 30
0.0
 10
359.029410698511
 20
167.4043451491029
 30
0.0
 10
359.1081810161756
 20
167.5803582576258
 30
0.0
  0
LINE
  5
2DD
330
1F
100
AcDbEntity
  8
0
  6
Continuous
 62
     7
370
    25
100
AcDbLine
 10
359.1081810162
 20
167.5803582576
 30
0.0
 11
357.9049983874
 21
167.5803582576
 31
0.0
  0
SPLINE
  5
2DE
330
1F
100
AcDbEntity
  8
0
  6
Continuous
 62
     7
370
    25
100
AcDbSpline
210
0.0
220
0.0
230
1.0
 70
     8
 71
     3
 72
    10
 73
     6
 74
     0
 42
0.00000001
 43
0.00000001
 40
0.0
 40
0.0
 40
0.0
 40
0.0
 40
0.2598938472701214
 40
0.5269059897788215
 40
1.0
 40
1.0
 40
1.0
 40
1.0
 10
357.9049983874452
 20
167.5803582576258
 30
0.0
 10
357.8346980607322
 20
167.5130179338793
 30
0.0
 10
357.6921719347096
 20
167.3764928860247
 30
0.0
 10
357.3458165664407
 20
167.2184629757848
 30
0.0
 10
357.0683747029119
 20
167.1997988315176
 30
0.0
 10
356.8910270571237
 20
167.1878682526052
 30
0.0
  0
SPLINE
  5
2DF
330
1F
100
AcDbEntity
  8
0
  6
Continuous
 62
     7
370
    25
100
AcDbSpline
210
0.0
220
0.0
230
1.0
 70
     8
 71
     3
 72
     9
 73
     5
 74
     0
 42
0.00000001
 43
0.00000001
 40
0.0
 40
0.0
 40
0.0
 40
0.0
 40
0.5576524438861211
 40
1.0
 40
1.0
 40
1.0
 40
1.0
 10
356.8910270571237
 20
167.1878682526052
 30
0.0
 10
356.7419893116981
 20
167.2003966371723
 30
0.0
 10
356.474730112784
 20
167.2228629326301
 30
0.0
 10
356.2474935851975
 20
167.3632197385158
 30
0.0
 10
356.1469760625599
 20
167.4253062285833
 30
0.0
  0
SPLINE
  5
2E0
330
1F
100
AcDbEntity
  8
0
  6
Continuous
 62
     7
370
    25
100
AcDbSpline
210
0.0
220
0.0
230
1.0
 70
     8
 71
     3
 72
     9
 73
     5
 74
     0
 42
0.00000001
 43
0.00000001
 40
0.0
 40
0.0
 40
0.0
 40
0.0
 40
0.5561326310294744
 40
1.0
 40
1.0
 40
1.0
 40
1.0
 10
356.1469760625599
 20
167.4253062285833
 30
0.0
 10
356.0353177184513
 20
167.522641004887
 30
0.0
 10
355.8345412527694
 20
167.6976618018568
 30
0.0
 10
355.7391032019057
 20
167.9450957951657
 30
0.0
 10
355.6967413653692
 20
168.0549236707696
 30
0.0
  0
LINE
  5
2E1
330
1F
100
AcDbEntity
  8
0
  6
Continuous
 62
     7
370
    25
100
AcDbLine
 10
355.6967413654
 20
168.0549236708
 30
0.0
 11
359.1230713522
 21
168.0549236708
 31
0.0
  0
LINE
  5
2E2
330
1F
100
AcDbEntity
  8
0
  6
Continuous
 62
     7
370
    25
100
AcDbLine
 10
359.1230713522
 20
168.0549236708
 30
0.0
 11
359.1230713522
 21
164.9448153566
 31
0.0
  0
LINE
  5
2E3
330
1F
100
AcDbEntity
  8
0
  6
Continuous
 62
     7
370
    25
100
AcDbLine
 10
359.1230713522
 20
164.9448153566
 30
0.0
 11
360.2117583208
 21
164.9448153566
 31
0.0
  0
LINE
  5
2E4
330
1F
100
AcDbEntity
  8
0
  6
Continuous
 62
     7
370
    25
100
AcDbLine
 10
360.2117583208
 20
164.9448153566
 30
0.0
 11
360.2117583208
 21
166.7628958878
 31
0.0
  0
SPLINE
  5
2E5
330
1F
100
AcDbEntity
  8
0
  6
Continuous
 62
     7
370
    25
100
AcDbSpline
210
0.0
220
0.0
230
1.0
 70
     8
 71
     3
 72
    10
 73
     6
 74
     0
 42
0.00000001
 43
0.00000001
 40
0.0
 40
0.0
 40
0.0
 40
0.0
 40
0.2822318579969539
 40
0.5534183785460131
 40
1.0
 40
1.0
 40
1.0
 40
1.0
 10
360.2117583208216
 20
166.7628958878052
 30
0.0
 10
360.3130495445559
 20
166.6544838574996
 30
0.0
 10
360.5116678904712
 20
166.4419025760935
 30
0.0
 10
360.9794367221688
 20
166.1797097624269
 30
0.0
 10
361.3586011540964
 20
166.1453057145893
 30
0.0
 10
361.5945100178354
 20
166.1239001734837
 30
0.0
  0
SPLINE
  5
2E6
330
1F
100
AcDbEntity
  8
0
  6
Continuous
 62
     7
370
    25
100
AcDbSpline
210
0.0
220
0.0
230
1.0
 70
     8
 71
     3
 72
     9
 73
     5
 74
     0
 42
0.00000001
 43
0.00000001
 40
0.0
 40
0.0
 40
0.0
 40
0.0
 40
0.5554479917141483
 40
1.0
 40
1.0
 40
1.0
 40
1.0
 10
361.5945100178354
 20
166.1239001734837
 30
0.0
 10
361.942702020923
 20
166.1635454723996
 30
0.0
 10
362.5695689972766
 20
166.2349208297821
 30
0.0
 10
363.0271390232316
 20
166.662627819073
 30
0.0
 10
363.2305526972012
 20
166.8527658201202
 30
0.0
  0
SPLINE
  5
2E7
330
1F
100
AcDbEntity
  8
0
  6
Continuous
 62
     7
370
    25
100
AcDbSpline
210
0.0
220
0.0
230
1.0
 70
     8
 71
     3
 72
     9
 73
     5
 74
     0
 42
0.00000001
 43
0.00000001
 40
0.0
 40
0.0
 40
0.0
 40
0.0
 40
0.5657478182159914
 40
1.0
 40
1.0
 40
1.0
 40
1.0
 10
363.2305526972012
 20
166.8527658201202
 30
0.0
 10
363.3293875297171
 20
166.9725491860181
 30
0.0
 10
363.5040852118531
 20
167.1842749091073
 30
0.0
 10
363.6206506039517
 20
167.4323745968386
 30
0.0
 10
363.671269379791
 20
167.5401124275359
 30
0.0
  0
SPLINE
  5
2E8
330
1F
100
AcDbEntity
  8
0
  6
Continuous
 62
     7
370
    25
100
AcDbSpline
210
0.0
220
0.0
230
1.0
 70
     8
 71
     3
 72
     9
 73
     5
 74
     0
 42
0.00000001
 43
0.00000001
 40
0.0
 40
0.0
 40
0.0
 40
0.0
 40
0.5501101550967616
 40
1.0
 40
1.0
 40
1.0
 40
1.0
 10
363.671269379791
 20
167.5401124275359
 30
0.0
 10
363.7449127650958
 20
167.3956273188476
 30
0.0
 10
363.8787830174852
 20
167.1329797248166
 30
0.0
 10
364.0787772038201
 20
166.9169038006209
 30
0.0
 10
364.1687525572918
 20
166.8196934365972
 30
0.0
  0
SPLINE
  5
2E9
330
1F
100
AcDbEntity
  8
0
  6
Continuous
 62
     7
370
    25
100
AcDbSpline
210
0.0
220
0.0
230
1.0
 70
     8
 71
     3
 72
     9
 73
     5
 74
     0
 42
0.00000001
 43
0.00000001
 40
0.0
 40
0.0
 40
0.0
 40
0.0
 40
0.557595820014209
 40
0.9999999999999999
 40
0.9999999999999999
 40
0.9999999999999999
 40
0.9999999999999999
 10
364.1687525572918
 20
166.8196934365972
 30
0.0
 10
364.4477023360894
 20
166.5963885721569
 30
0.0
 10
364.9479746996636
 20
166.195910562055
 30
0.0
 10
365.5826013665289
 20
166.145986699125
 30
0.0
 10
365.8633628566806
 20
166.1239001734837
 30
0.0
  0
SPLINE
  5
2EA
330
1F
100
AcDbEntity
  8
0
  6
Continuous
 62
     7
370
    25
100
AcDbSpline
210
0.0
220
0.0
230
1.0
 70
     8
 71
     3
 72
     9
 73
     5
 74
     0
 42
0.00000001
 43
0.00000001
 40
0.0
 40
0.0
 40
0.0
 40
0.0
 40
0.5518985792746198
 40
1.0
 40
1.0
 40
1.0
 40
1.0
 10
365.8633628566806
 20
166.1239001734837
 30
0.0
 10
366.1260996732501
 20
166.1473308697089
 30
0.0
 10
366.6021596350548
 20
166.1897855835006
 30
0.0
 10
367.0120978449001
 20
166.432373861893
 30
0.0
 10
367.1957917391413
 20
166.5410780140919
 30
0.0
  0
SPLINE
  5
2EB
330
1F
100
AcDbEntity
  8
0
  6
Continuous
 62
     7
370
    25
100
AcDbSpline
210
0.0
220
0.0
230
1.0
 70
     8
 71
     3
 72
     9
 73
     5
 74
     0
 42
0.00000001
 43
0.00000001
 40
0.0
 40
0.0
 40
0.0
 40
0.0
 40
0.5793895154822796
 40
1.0
 40
1.0
 40
1.0
 40
1.0
 10
367.1957917391413
 20
166.5410780140919
 30
0.0
 10
367.4075266789282
 20
166.7042463520167
 30
0.0
 10
367.7729715724394
 20
166.9858674955905
 30
0.0
 10
367.9602334622899
 20
167.4043430513563
 30
0.0
 10
368.0389977765117
 20
167.5803582576258
 30
0.0
  0
LINE
  5
2EC
330
1F
100
AcDbEntity
  8
0
  6
Continuous
 62
     7
370
    25
100
AcDbLine
 10
368.0389977765
 20
167.5803582576
 30
0.0
 11
366.8363430638
 21
167.5803582576
 31
0.0
  0
SPLINE
  5
2ED
330
1F
100
AcDbEntity
  8
0
  6
Continuous
 62
     7
370
    25
100
AcDbSpline
210
0.0
220
0.0
230
1.0
 70
     8
 71
     3
 72
    10
 73
     6
 74
     0
 42
0.00000001
 43
0.00000001
 40
0.0
 40
0.0
 40
0.0
 40
0.0
 40
0.2606349371990265
 40
0.527692796314661
 40
1.0
 40
1.0
 40
1.0
 40
1.0
 10
366.8363430637624
 20
167.5803582576258
 30
0.0
 10
366.7656417972392
 20
167.5130445322822
 30
0.0
 10
366.6224969470684
 20
167.3767582448848
 30
0.0
 10
366.2762927389914
 20
167.2185233622286
 30
0.0
 10
365.9990817604752
 20
167.1998175473983
 30
0.0
 10
365.8219990868662
 20
167.1878682526053
 30
0.0
  0
SPLINE
  5
2EE
330
1F
100
AcDbEntity
  8
0
  6
Continuous
 62
     7
370
    25
100
AcDbSpline
210
0.0
220
0.0
230
1.0
 70
     8
 71
     3
 72
     9
 73
     5
 74
     0
 42
0.00000001
 43
0.00000001
 40
0.0
 40
0.0
 40
0.0
 40
0.0
 40
0.5576812422015612
 40
1.0
 40
1.0
 40
1.0
 40
1.0
 10
365.8219990868662
 20
167.1878682526053
 30
0.0
 10
365.6728296909942
 20
167.2003937735383
 30
0.0
 10
365.4053482256268
 20
167.2228537739566
 30
0.0
 10
365.177857339289
 20
167.3632197322665
 30
0.0
 10
365.0772338530336
 20
167.4253062285833
 30
0.0
  0
SPLINE
  5
2EF
330
1F
100
AcDbEntity
  8
0
  6
Continuous
 62
     7
370
    25
100
AcDbSpline
210
0.0
220
0.0
230
1.0
 70
     8
 71
     3
 72
     9
 73
     5
 74
     0
 42
0.00000001
 43
0.00000001
 40
0.0
 40
0.0
 40
0.0
 40
0.0
 40
0.5561664115004208
 40
1.0
 40
1.0
 40
1.0
 40
1.0
 10
365.0772338530336
 20
167.4253062285833
 30
0.0
 10
364.9655785452173
 20
167.5226355412224
 30
0.0
 10
364.7648197336325
 20
167.6976358839732
 30
0.0
 10
364.6695264292129
 20
167.945093617082
 30
0.0
 10
364.6272320599523
 20
168.0549236707697
 30
0.0
  0
LINE
  5
2F0
330
1F
100
AcDbEntity
  8
0
  6
Continuous
 62
     7
370
    25
100
AcDbLine
 10
364.62723206
 20
168.0549236708
 30
0.0
 11
368.0787777984
 21
168.0549236708
 31
0.0
  0
LINE
  5
2F1
330
1F
100
AcDbEntity
  8
0
  6
Continuous
 62
     7
370
    25
100
AcDbLine
 10
368.0787777984
 20
168.0549236708
 30
0.0
 11
368.0787777984
 21
166.1264155379
 31
0.0
  0
LINE
  5
2F2
330
1F
100
AcDbEntity
  8
0
  6
Continuous
 62
     7
370
    25
100
AcDbLine
 10
368.0787777984
 20
166.1264155379
 30
0.0
 11
369.1668436893
 21
166.1264155379
 31
0.0
  0
LINE
  5
2F3
330
1F
100
AcDbEntity
  8
0
  6
Continuous
 62
     7
370
    25
100
AcDbLine
 10
369.1668436893
 20
166.1264155379
 30
0.0
 11
369.1668436893
 21
168.7176445504
 31
0.0
  0
SPLINE
  5
2F4
330
1F
100
AcDbEntity
  8
0
  6
Continuous
 62
     7
370
    25
100
AcDbSpline
210
0.0
220
0.0
230
1.0
 70
     8
 71
     3
 72
     9
 73
     5
 74
     0
 42
0.00000001
 43
0.00000001
 40
0.0
 40
0.0
 40
0.0
 40
0.0
 40
0.652564441091357
 40
0.9999999999999999
 40
0.9999999999999999
 40
0.9999999999999999
 40
0.9999999999999999
 10
369.1668436893485
 20
168.7176445503603
 30
0.0
 10
369.1668492741713
 20
168.8341817441723
 30
0.0
 10
369.1668578324415
 20
169.0127651705342
 30
0.0
 10
369.196831033116
 20
169.1885534802762
 30
0.0
 10
369.2072447888446
 20
169.249628589921
 30
0.0
  0
SPLINE
  5
2F5
330
1F
100
AcDbEntity
  8
0
  6
Continuous
 62
     7
370
    25
100
AcDbSpline
210
0.0
220
0.0
230
1.0
 70
     8
 71
     3
 72
     9
 73
     5
 74
     0
 42
0.00000001
 43
0.00000001
 40
0.0
 40
0.0
 40
0.0
 40
0.0
 40
0.5612430383707987
 40
1.0
 40
1.0
 40
1.0
 40
1.0
 10
369.2072447888446
 20
169.249628589921
 30
0.0
 10
369.2363780180048
 20
169.3447925450126
 30
0.0
 10
369.2882864198349
 20
169.5143518064832
 30
0.0
 10
369.4199324349714
 20
169.6315813001035
 30
0.0
 10
369.4776930405833
 20
169.6830165565377
 30
0.0
  0
LINE
  5
2F6
330
1F
100
AcDbEntity
  8
0
  6
Continuous
 62
     7
370
    25
100
AcDbLine
 10
371.9399481935
 20
172.4935912426
 30
0.0
 11
371.3390189135
 21
172.4935912426
 31
0.0
  0
LINE
  5
2F7
330
1F
100
AcDbEntity
  8
0
  6
Continuous
 62
     7
370
    25
100
AcDbLine
 10
371.3390189135
 20
172.4935912426
 30
0.0
 11
371.3390189135
 21
173.0912980098
 31
0.0
  0
LINE
  5
2F8
330
1F
100
AcDbEntity
  8
0
  6
Continuous
 62
     7
370
    25
100
AcDbLine
 10
371.3390189135
 20
173.0912980098
 30
0.0
 11
371.0385542735
 21
173.0912980098
 31
0.0
  0
LINE
  5
2F9
330
1F
100
AcDbEntity
  8
0
  6
Continuous
 62
     7
370
    25
100
AcDbLine
 10
371.0385542735
 20
173.0912980098
 30
0.0
 11
371.0385542735
 21
172.1931266026
 31
0.0
  0
LINE
  5
2FA
330
1F
100
AcDbEntity
  8
0
  6
Continuous
 62
     7
370
    25
100
AcDbLine
 10
371.0385542735
 20
172.1931266026
 30
0.0
 11
371.9399481935
 21
172.1931266026
 31
0.0
  0
LINE
  5
2FB
330
1F
100
AcDbEntity
  8
0
  6
Continuous
 62
     7
370
    25
100
AcDbLine
 10
371.9399481935
 20
172.1931266026
 30
0.0
 11
371.9399481935
 21
172.4935912426
 31
0.0
  0
LINE
  5
2FC
330
1F
100
AcDbEntity
  8
0
  6
Continuous
 62
     7
370
    25
100
AcDbLine
 10
370.7421553283
 20
171.8705242264
 30
0.0
 11
370.7421553283
 21
171.2625841048
 31
0.0
  0
LINE
  5
2FD
330
1F
100
AcDbEntity
  8
0
  6
Continuous
 62
     7
370
    25
100
AcDbLine
 10
370.7421553283
 20
171.2625841048
 30
0.0
 11
371.0385542735
 21
171.2625841048
 31
0.0
  0
LINE
  5
2FE
330
1F
100
AcDbEntity
  8
0
  6
Continuous
 62
     7
370
    25
100
AcDbLine
 10
371.0385542735
 20
171.2625841048
 30
0.0
 11
371.0385542735
 21
172.1609733784
 31
0.0
  0
LINE
  5
2FF
330
1F
100
AcDbEntity
  8
0
  6
Continuous
 62
     7
370
    25
100
AcDbLine
 10
371.0385542735
 20
172.1609733784
 30
0.0
 11
370.1399170581
 21
172.1609733784
 31
0.0
  0
LINE
  5
300
330
1F
100
AcDbEntity
  8
0
  6
Continuous
 62
     7
370
    25
100
AcDbLine
 10
370.1399170581
 20
172.1609733784
 30
0.0
 11
370.1399170581
 21
171.8705242264
 31
0.0
  0
LINE
  5
301
330
1F
100
AcDbEntity
  8
0
  6
Continuous
 62
     7
370
    25
100
AcDbLine
 10
370.1399170581
 20
171.8705242264
 30
0.0
 11
370.7421553283
 21
171.8705242264
 31
0.0
  0
LINE
  5
302
330
1F
100
AcDbEntity
  8
0
  6
Continuous
 62
     7
370
    25
100
AcDbLine
 10
350.6832009274
 20
164.9532620123
 30
0.0
 11
358.927525062
 21
164.9532620123
 31
0.0
  0
LINE
  5
303
330
1F
100
AcDbEntity
  8
0
  6
Continuous
 62
     7
370
    25
100
AcDbLine
 10
358.927525062
 20
164.9532620123
 30
0.0
 11
358.927525062
 21
165.9532280422
 31
0.0
  0
LINE
  5
304
330
1F
100
AcDbEntity
  8
0
  6
Continuous
 62
     7
370
    25
100
AcDbLine
 10
358.927525062
 20
165.9532280422
 30
0.0
 11
350.6832009274
 21
165.9532280422
 31
0.0
  0
LINE
  5
305
330
1F
100
AcDbEntity
  8
0
  6
Continuous
 62
     7
370
    25
100
AcDbLine
 10
350.6832009274
 20
165.9532280422
 30
0.0
 11
350.6832009274
 21
164.9532620123
 31
0.0
  0
LINE
  5
306
330
1F
100
AcDbEntity
  8
0
  6
Continuous
 62
     7
370
    25
100
AcDbLine
 10
360.4119161124
 20
164.9532620123
 30
0.0
 11
369.1772156857
 21
164.9532620123
 31
0.0
  0
LINE
  5
307
330
1F
100
AcDbEntity
  8
0
  6
Continuous
 62
     7
370
    25
100
AcDbLine
 10
369.1772156857
 20
164.9532620123
 30
0.0
 11
369.1772156857
 21
165.9538491198
 31
0.0
  0
LINE
  5
308
330
1F
100
AcDbEntity
  8
0
  6
Continuous
 62
     7
370
    25
100
AcDbLine
 10
369.1772156857
 20
165.9538491198
 30
0.0
 11
360.4119161124
 21
165.9538491198
 31
0.0
  0
LINE
  5
309
330
1F
100
AcDbEntity
  8
0
  6
Continuous
 62
     7
370
    25
100
AcDbLine
 10
360.4119161124
 20
165.9538491198
 30
0.0
 11
360.4119161124
 21
164.9532620123
 31
0.0
  0
LINE
  5
30A
330
1F
100
AcDbEntity
  8
0
  6
Continuous
 62
     7
370
    25
100
AcDbLine
 10
379.9302083065
 20
178.4171620329
 30
0.0
 11
382.1302083065
 21
178.4171620329
 31
0.0
  0
ARC
  5
30B
330
1F
100
AcDbEntity
  8
0
  6
Continuous
 62
     7
370
    25
100
AcDbCircle
 10
379.9302083065
 20
177.8171620329
 30
0.0
 40
0.5999999999999943
100
AcDbArc
 50
90.0
 51
180.0
  0
LINE
  5
30C
330
1F
100
AcDbEntity
  8
0
  6
Continuous
 62
     7
370
    25
100
AcDbLine
 10
382.1302083065
 20
175.3171620329
 30
0.0
 11
379.9302083065
 21
175.3171620329
 31
0.0
  0
LINE
  5
30D
330
1F
100
AcDbEntity
  8
0
  6
Continuous
 62
     7
370
    25
100
AcDbLine
 10
382.1302083065
 20
161.3171620329
 30
0.0
 11
382.1302083065
 21
175.3171620329
 31
0.0
  0
LINE
  5
30E
330
1F
100
AcDbEntity
  8
0
  6
Continuous
 62
     7
370
    25
100
AcDbLine
 10
337.7302083065
 20
161.3171620329
 30
0.0
 11
382.1302083065
 21
161.3171620329
 31
0.0
  0
LINE
  5
30F
330
1F
100
AcDbEntity
  8
0
  6
Continuous
 62
     7
370
    25
100
AcDbLine
 10
337.7302083065
 20
175.3171620329
 30
0.0
 11
337.7302083065
 21
161.3171620329
 31
0.0
  0
LINE
  5
310
330
1F
100
AcDbEntity
  8
0
  6
Continuous
 62
     7
370
    25
100
AcDbLine
 10
339.9302083065
 20
175.3171620329
 30
0.0
 11
337.7302083065
 21
175.3171620329
 31
0.0
  0
ARC
  5
311
330
1F
100
AcDbEntity
  8
0
  6
Continuous
 62
     7
370
    25
100
AcDbCircle
 10
339.9302083065
 20
175.9171620329
 30
0.0
 40
0.5999999999999943
100
AcDbArc
 50
270.0
 51
0.0
  0
LINE
  5
312
330
1F
100
AcDbEntity
  8
0
  6
Continuous
 62
     7
370
    25
100
AcDbLine
 10
340.5302083065
 20
177.8171620329
 30
0.0
 11
340.5302083065
 21
175.9171620329
 31
0.0
  0
ARC
  5
313
330
1F
100
AcDbEntity
  8
0
  6
Continuous
 62
     7
370
    25
100
AcDbCircle
 10
339.9302083065
 20
177.8171620329
 30
0.0
 40
0.5999999999999943
100
AcDbArc
 50
0.0
 51
90.0
  0
LINE
  5
314
330
1F
100
AcDbEntity
  8
0
  6
Continuous
 62
     7
370
    25
100
AcDbLine
 10
382.1302083065
 20
186.0171620329
 30
0.0
 11
337.7302083065
 21
186.0171620329
 31
0.0
  0
LINE
  5
315
330
1F
100
AcDbEntity
  8
0
  6
Continuous
 62
     7
370
    25
100
AcDbLine
 10
382.1302083065
 20
178.4171620329
 30
0.0
 11
382.1302083065
 21
186.0171620329
 31
0.0
  0
SPLINE
  5
316
330
1F
100
AcDbEntity
  8
0
  6
Continuous
 62
     7
370
    25
100
AcDbSpline
210
0.0
220
0.0
230
1.0
 70
     8
 71
     3
 72
     9
 73
     5
 74
     0
 42
0.00000001
 43
0.00000001
 40
0.0
 40
0.0
 40
0.0
 40
0.0
 40
0.5401635735990487
 40
1.0
 40
1.0
 40
1.0
 40
1.0
 10
369.4776930405833
 20
169.6830165565377
 30
0.0
 10
369.5877350954508
 20
169.7513191915336
 30
0.0
 10
369.7914549689223
 20
169.8777672497408
 30
0.0
 10
370.0301118314915
 20
169.8901182917772
 30
0.0
 10
370.1398549503114
 20
169.8957977508095
 30
0.0
  0
LINE
  5
317
330
1F
100
AcDbEntity
  8
0
  6
Continuous
 62
     7
370
    25
100
AcDbLine
 10
370.1398549503
 20
169.8957977508
 30
0.0
 11
370.1398549503
 21
170.9506980966
 31
0.0
  0
LINE
  5
318
330
1F
100
AcDbEntity
  8
0
  6
Continuous
 62
     7
370
    25
100
AcDbLine
 10
370.1398549503
 20
170.9506980966
 30
0.0
 11
370.057562165
 21
170.9506980966
 31
0.0
  0
SPLINE
  5
319
330
1F
100
AcDbEntity
  8
0
  6
Continuous
 62
     7
370
    25
100
AcDbSpline
210
0.0
220
0.0
230
1.0
 70
     8
 71
     3
 72
     9
 73
     5
 74
     0
 42
0.00000001
 43
0.00000001
 40
0.0
 40
0.0
 40
0.0
 40
0.0
 40
0.5593963463516334
 40
0.9999999999999999
 40
0.9999999999999999
 40
0.9999999999999999
 40
0.9999999999999999
 10
365.8788897973017
 20
170.9506980966082
 30
0.0
 10
365.5166669156762
 20
170.912810878423
 30
0.0
 10
364.8691423403229
 20
170.8450821232528
 30
0.0
 10
364.38296435427
 20
170.4191767322872
 30
0.0
 10
364.1687525572917
 20
170.2315212609193
 30
0.0
  0
LINE
  5
31A
330
1F
100
AcDbEntity
  8
0
  6
Continuous
 62
     7
370
    25
100
AcDbLine
 10
368.0787777984
 20
170.8031300529
 30
0.0
 11
368.0787777984
 21
169.3304307889
 31
0.0
  0
SPLINE
  5
31B
330
1F
100
AcDbEntity
  8
0
  6
Continuous
 62
     7
370
    25
100
AcDbSpline
210
0.0
220
0.0
230
1.0
 70
     8
 71
     3
 72
     9
 73
     5
 74
     0
 42
0.00000001
 43
0.00000001
 40
0.0
 40
0.0
 40
0.0
 40
0.0
 40
0.5940817062834141
 40
1.0
 40
1.0
 40
1.0
 40
1.0
 10
354.6772424441865
 20
169.3291886336636
 30
0.0
 10
354.672554231011
 20
169.3800764520251
 30
0.0
 10
354.6646627017383
 20
169.4657343974276
 30
0.0
 10
354.6494240796877
 20
169.5503741844694
 30
0.0
 10
354.6432384442263
 20
169.5847310224059
 30
0.0
  0
SPLINE
  5
31C
330
1F
100
AcDbEntity
  8
0
  6
Continuous
 62
     7
370
    25
100
AcDbSpline
210
0.0
220
0.0
230
1.0
 70
     8
 71
     3
 72
     9
 73
     5
 74
     0
 42
0.00000001
 43
0.00000001
 40
0.0
 40
0.0
 40
0.0
 40
0.0
 40
0.5679872603211907
 40
1.0
 40
1.0
 40
1.0
 40
1.0
 10
364.1687525572917
 20
170.2315212609193
 30
0.0
 10
364.0594176765267
 20
170.1083676985457
 30
0.0
 10
363.8669223717849
 20
169.8915431833201
 30
0.0
 10
363.7383397153945
 20
169.6321849921484
 30
0.0
 10
363.6827903697321
 20
169.5201389494221
 30
0.0
  0
SPLINE
  5
31D
330
1F
100
AcDbEntity
  8
0
  6
Continuous
 62
     7
370
    25
100
AcDbSpline
210
0.0
220
0.0
230
1.0
 70
     8
 71
     3
 72
     9
 73
     5
 74
     0
 42
0.00000001
 43
0.00000001
 40
0.0
 40
0.0
 40
0.0
 40
0.0
 40
0.5543912818895632
 40
0.9999999999999999
 40
0.9999999999999999
 40
0.9999999999999999
 40
0.9999999999999999
 10
363.6827903697321
 20
169.5201389494221
 30
0.0
 10
363.6173442820293
 20
169.6594703250535
 30
0.0
 10
363.4992939269087
 20
169.9107934973019
 30
0.0
 10
363.3186766051876
 20
170.1212073119839
 30
0.0
 10
363.2381919519869
 20
170.2149695422171
 30
0.0
  0
LINE
  5
31E
330
1F
100
AcDbEntity
  8
0
  6
Continuous
 62
     7
370
    25
100
AcDbLine
 10
359.1230713522
 20
170.8031300529
 30
0.0
 11
359.1230713522
 21
169.4006436144
 31
0.0
  0
LINE
  5
31F
330
1F
100
AcDbEntity
  8
0
  6
Continuous
 62
     7
370
    25
100
AcDbLine
 10
360.1211896762
 20
170.8031300529
 30
0.0
 11
359.1230713522
 21
170.8031300529
 31
0.0
  0
SPLINE
  5
320
330
1F
100
AcDbEntity
  8
0
  6
Continuous
 62
     7
370
    25
100
AcDbSpline
210
0.0
220
0.0
230
1.0
 70
     8
 71
     3
 72
     9
 73
     5
 74
     0
 42
0.00000001
 43
0.00000001
 40
0.0
 40
0.0
 40
0.0
 40
0.0
 40
0.5595574587309892
 40
1.0
 40
1.0
 40
1.0
 40
1.0
 10
356.9486785876497
 20
170.9506980966082
 30
0.0
 10
356.5864039857444
 20
170.912859843111
 30
0.0
 10
355.9389734202993
 20
170.845238095055
 30
0.0
 10
355.4530997511001
 20
170.4191767864275
 30
0.0
 10
355.2391003175024
 20
170.2315212609192
 30
0.0
  0
SPLINE
  5
321
330
1F
100
AcDbEntity
  8
0
  6
Continuous
 62
     7
370
    25
100
AcDbSpline
210
0.0
220
0.0
230
1.0
 70
     8
 71
     3
 72
     9
 73
     5
 74
     0
 42
0.00000001
 43
0.00000001
 40
0.0
 40
0.0
 40
0.0
 40
0.0
 40
0.567219677851091
 40
1.0
 40
1.0
 40
1.0
 40
1.0
 10
355.2391003175024
 20
170.2315212609192
 30
0.0
 10
355.1051788451023
 20
170.0775811784877
 30
0.0
 10
354.8690772470276
 20
169.8061870635749
 30
0.0
 10
354.7351873548539
 20
169.4732690142846
 30
0.0
 10
354.6772424441865
 20
169.3291886336636
 30
0.0
  0
LINE
  5
322
330
1F
100
AcDbEntity
  8
0
  6
Continuous
 62
     7
370
    25
100
AcDbLine
 10
340.5302083065
 20
175.9171620329
 30
0.0
 11
340.2302083065
 21
175.9171620329
 31
0.0
  0
LINE
  5
323
330
1F
100
AcDbEntity
  8
0
  6
Continuous
 62
     7
370
    25
100
AcDbLine
 10
340.2302083065
 20
175.9171620329
 30
0.0
 11
340.2302083065
 21
177.8171620329
 31
0.0
  0
LINE
  5
324
330
1F
100
AcDbEntity
  8
0
  6
Continuous
 62
     7
370
    25
100
AcDbLine
 10
340.5302083065
 20
177.8171620329
 30
0.0
 11
340.2302083065
 21
177.8171620329
 31
0.0
  0
LINE
  5
325
330
1F
100
AcDbEntity
  8
0
  6
Continuous
 62
     7
370
    25
100
AcDbLine
 10
382.1302083065
 20
161.0171620329
 30
0.0
 11
382.1302083065
 21
161.3171620329
 31
0.0
  0
LINE
  5
326
330
1F
100
AcDbEntity
  8
0
  6
Continuous
 62
     7
370
    25
100
AcDbLine
 10
382.4302083065
 20
161.3171620329
 30
0.0
 11
382.1302083065
 21
161.3171620329
 31
0.0
  0
ARC
  5
327
330
1F
100
AcDbEntity
  8
0
  6
Continuous
 62
     7
370
    25
100
AcDbCircle
 10
382.1302083065
 20
161.3171620329
 30
0.0
 40
0.2999999999999829
100
AcDbArc
 50
270.0
 51
0.0
  0
ARC
  5
328
330
1F
100
AcDbEntity
  8
0
  6
Continuous
 62
     7
370
    25
100
AcDbCircle
 10
337.7302083065
 20
178.4171620329
 30
0.0
 40
0.3000000000000114
100
AcDbArc
 50
180.0
 51
270.0
  0
LINE
  5
329
330
1F
100
AcDbEntity
  8
0
  6
Continuous
 62
     7
370
    25
100
AcDbLine
 10
379.9302083065
 20
175.6171620329
 30
0.0
 11
382.1302083065
 21
175.6171620329
 31
0.0
  0
LINE
  5
32A
330
1F
100
AcDbEntity
  8
0
  6
Continuous
 62
     7
370
    25
100
AcDbLine
 10
382.1302083065
 20
161.0171620329
 30
0.0
 11
337.7302083065
 21
161.0171620329
 31
0.0
  0
LINE
  5
32B
330
1F
100
AcDbEntity
  8
0
  6
Continuous
 62
     7
370
    25
100
AcDbLine
 10
337.7302083065
 20
161.0171620329
 30
0.0
 11
337.7302083065
 21
161.3171620329
 31
0.0
  0
LINE
  5
32C
330
1F
100
AcDbEntity
  8
0
  6
Continuous
 62
     7
370
    25
100
AcDbLine
 10
337.7302083065
 20
175.3171620329
 30
0.0
 11
337.7302083065
 21
175.6171620329
 31
0.0
  0
LINE
  5
32D
330
1F
100
AcDbEntity
  8
0
  6
Continuous
 62
     7
370
    25
100
AcDbLine
 10
337.7302083065
 20
175.6171620329
 30
0.0
 11
339.9302083065
 21
175.6171620329
 31
0.0
  0
LINE
  5
32E
330
1F
100
AcDbEntity
  8
0
  6
Continuous
 62
     7
370
    25
100
AcDbLine
 10
339.9302083065
 20
175.3171620329
 30
0.0
 11
339.9302083065
 21
175.6171620329
 31
0.0
  0
LINE
  5
32F
330
1F
100
AcDbEntity
  8
0
  6
Continuous
 62
     7
370
    25
100
AcDbLine
 10
337.4302083065
 20
161.3171620329
 30
0.0
 11
337.7302083065
 21
161.3171620329
 31
0.0
  0
ARC
  5
330
330
1F
100
AcDbEntity
  8
0
  6
Continuous
 62
     7
370
    25
100
AcDbCircle
 10
337.7302083065
 20
161.3171620329
 30
0.0
 40
0.2999999999999829
100
AcDbArc
 50
180.0
 51
270.0
  0
LINE
  5
331
330
1F
100
AcDbEntity
  8
0
  6
Continuous
 62
     7
370
    25
100
AcDbLine
 10
337.7302083065
 20
175.3171620329
 30
0.0
 11
337.4302083065
 21
175.3171620329
 31
0.0
  0
ARC
  5
332
330
1F
100
AcDbEntity
  8
0
  6
Continuous
 62
     7
370
    25
100
AcDbCircle
 10
337.7302083065
 20
175.3171620329
 30
0.0
 40
0.3000000000000114
100
AcDbArc
 50
90.0
 51
180.0
  0
ARC
  5
333
330
1F
100
AcDbEntity
  8
0
  6
Continuous
 62
     7
370
    25
100
AcDbCircle
 10
339.9302083065
 20
177.8171620329
 30
0.0
 40
0.2999999999999829
100
AcDbArc
 50
0.0
 51
90.0
  0
LINE
  5
334
330
1F
100
AcDbEntity
  8
0
  6
Continuous
 62
     7
370
    25
100
AcDbLine
 10
382.4302083065
 20
175.3171620329
 30
0.0
 11
382.4302083065
 21
161.3171620329
 31
0.0
  0
ARC
  5
335
330
1F
100
AcDbEntity
  8
0
  6
Continuous
 62
     7
370
    25
100
AcDbCircle
 10
382.1302083065
 20
186.0171620329
 30
0.0
 40
0.3000000000000114
100
AcDbArc
 50
0.0
 51
90.0
  0
LINE
  5
336
330
1F
100
AcDbEntity
  8
0
  6
Continuous
 62
     7
370
    25
100
AcDbLine
 10
382.4302083065
 20
186.0171620329
 30
0.0
 11
382.1302083065
 21
186.0171620329
 31
0.0
  0
LINE
  5
337
330
1F
100
AcDbEntity
  8
0
  6
Continuous
 62
     7
370
    25
100
AcDbLine
 10
382.1302083065
 20
186.3171620329
 30
0.0
 11
382.1302083065
 21
186.0171620329
 31
0.0
  0
ARC
  5
338
330
1F
100
AcDbEntity
  8
0
  6
Continuous
 62
     7
370
    25
100
AcDbCircle
 10
337.7302083065
 20
186.0171620329
 30
0.0
 40
0.3000000000000114
100
AcDbArc
 50
90.0
 51
180.0
  0
LINE
  5
339
330
1F
100
AcDbEntity
  8
0
  6
Continuous
 62
     7
370
    25
100
AcDbLine
 10
337.7302083065
 20
186.0171620329
 30
0.0
 11
337.7302083065
 21
186.3171620329
 31
0.0
  0
SPLINE
  5
33A
330
1F
100
AcDbEntity
  8
0
  6
Continuous
 62
     7
370
    25
100
AcDbSpline
210
0.0
220
0.0
230
1.0
 70
     8
 71
     3
 72
    15
 73
    11
 74
     0
 42
0.00000001
 43
0.00000001
 40
0.0
 40
0.0
 40
0.0
 40
0.0
 40
0.1270967417357876
 40
0.2498927719508213
 40
0.3727455390254225
 40
0.50005315558143
 40
0.6272312236551925
 40
0.7500762253543366
 40
0.8728972787650099
 40
0.9999999999999999
 40
0.9999999999999999
 40
0.9999999999999999
 40
0.9999999999999999
 10
361.4595498499567
 20
169.8805192412382
 30
0.0
 10
361.2805344940963
 20
169.8597812079367
 30
0.0
 10
360.9285613208525
 20
169.8190068768582
 30
0.0
 10
360.4858648477161
 20
169.507962232226
 30
0.0
 10
360.1863766347067
 20
169.0680808137138
 30
0.0
 10
360.0795444138155
 20
168.5359391922566
 30
0.0
 10
360.1864631933577
 20
168.0038409393285
 30
0.0
 10
360.485931394123
 20
167.5641637070154
 30
0.0
 10
360.9285097361607
 20
167.2529128511275
 30
0.0
 10
361.2805262421045
 20
167.2120603635773
 30
0.0
 10
361.4595498499567
 20
167.1912841795418
 30
0.0
  0
SPLINE
  5
33B
330
1F
100
AcDbEntity
  8
0
  6
Continuous
 62
     7
370
    25
100
AcDbSpline
210
0.0
220
0.0
230
1.0
 70
     8
 71
     3
 72
    15
 73
    11
 74
     0
 42
0.00000001
 43
0.00000001
 40
0.0
 40
0.0
 40
0.0
 40
0.0
 40
0.1273016126698156
 40
0.2501037668766787
 40
0.3728526561414818
 40
0.4999468598495829
 40
0.6271705416842464
 40
0.7499271930627103
 40
0.8727043503099498
 40
1.0
 40
1.0
 40
1.0
 40
1.0
 10
361.4595498499567
 20
167.1912841795418
 30
0.0
 10
361.6389715757683
 20
167.2120150746437
 30
0.0
 10
361.9914733905048
 20
167.2527441341344
 30
0.0
 10
362.434608679979
 20
167.5640169864493
 30
0.0
 10
362.7339450439418
 20
168.0038902008831
 30
0.0
 10
362.840601869147
 20
168.5359392297032
 30
0.0
 10
362.7340315403378
 20
169.0680314748159
 30
0.0
 10
362.4346751961497
 20
169.5081089669255
 30
0.0
 10
361.9914217214973
 20
169.8191754243892
 30
0.0
 10
361.6389632965513
 20
169.859826465032
 30
0.0
 10
361.4595498499567
 20
169.8805192412382
 30
0.0
  0
ARC
  5
33C
330
1F
100
AcDbEntity
  8
0
  6
Continuous
 62
     7
370
    25
100
AcDbCircle
 10
339.9302083065
 20
175.9171620329
 30
0.0
 40
0.3000000000000114
100
AcDbArc
 50
270.0
 51
0.0
  0
LINE
  5
33D
330
1F
100
AcDbEntity
  8
0
  6
Continuous
 62
     7
370
    25
100
AcDbLine
 10
382.1302083065
 20
178.1171620329
 30
0.0
 11
382.1302083065
 21
178.4171620329
 31
0.0
  0
LINE
  5
33E
330
1F
100
AcDbEntity
  8
0
  6
Continuous
 62
     7
370
    25
100
AcDbLine
 10
382.4302083065
 20
178.4171620329
 30
0.0
 11
382.1302083065
 21
178.4171620329
 31
0.0
  0
ARC
  5
33F
330
1F
100
AcDbEntity
  8
0
  6
Continuous
 62
     7
370
    25
100
AcDbCircle
 10
382.1302083065
 20
178.4171620329
 30
0.0
 40
0.3000000000000114
100
AcDbArc
 50
270.0
 51
0.0
  0
LINE
  5
340
330
1F
100
AcDbEntity
  8
0
  6
Continuous
 62
     7
370
    25
100
AcDbLine
 10
337.4302083065
 20
161.3171620329
 30
0.0
 11
337.4302083065
 21
175.3171620329
 31
0.0
  0
LINE
  5
341
330
1F
100
AcDbEntity
  8
0
  6
Continuous
 62
     7
370
    25
100
AcDbLine
 10
337.7302083065
 20
186.3171620329
 30
0.0
 11
382.1302083065
 21
186.3171620329
 31
0.0
  0
SPLINE
  5
342
330
1F
100
AcDbEntity
  8
0
  6
Continuous
 62
     7
370
    25
100
AcDbSpline
210
0.0
220
0.0
230
1.0
 70
     8
 71
     3
 72
     9
 73
     5
 74
     0
 42
0.00000001
 43
0.00000001
 40
0.0
 40
0.0
 40
0.0
 40
0.0
 40
0.5527740500781059
 40
0.9999999999999999
 40
0.9999999999999999
 40
0.9999999999999999
 40
0.9999999999999999
 10
365.8711573808725
 20
169.8870716101804
 30
0.0
 10
365.7173469736972
 20
169.8736473598161
 30
0.0
 10
365.4390951144546
 20
169.8493621200107
 30
0.0
 10
365.2004297530565
 20
169.7061830461425
 30
0.0
 10
365.0936924100918
 20
169.6421496488229
 30
0.0
  0
SPLINE
  5
343
330
1F
100
AcDbEntity
  8
0
  6
Continuous
 62
     7
370
    25
100
AcDbSpline
210
0.0
220
0.0
230
1.0
 70
     8
 71
     3
 72
     9
 73
     5
 74
     0
 42
0.00000001
 43
0.00000001
 40
0.0
 40
0.0
 40
0.0
 40
0.0
 40
0.5614176908047745
 40
1.0
 40
1.0
 40
1.0
 40
1.0
 10
367.1063255072822
 20
169.0206062157595
 30
0.0
 10
367.0464554589003
 20
169.1611556802168
 30
0.0
 10
366.9398146291535
 20
169.4115030895687
 30
0.0
 10
366.7257849809083
 20
169.5772503547213
 30
0.0
 10
366.6319153635447
 20
169.6499441730147
 30
0.0
  0
SPLINE
  5
344
330
1F
100
AcDbEntity
  8
0
  6
Continuous
 62
     7
370
    25
100
AcDbSpline
210
0.0
220
0.0
230
1.0
 70
     8
 71
     3
 72
     9
 73
     5
 74
     0
 42
0.00000001
 43
0.00000001
 40
0.0
 40
0.0
 40
0.0
 40
0.0
 40
0.554148215190604
 40
0.9999999999999999
 40
0.9999999999999999
 40
0.9999999999999999
 40
0.9999999999999999
 10
366.6319153635447
 20
169.6499441730147
 30
0.0
 10
366.5008682549102
 20
169.7260930500784
 30
0.0
 10
366.2643843954623
 20
169.8635091329534
 30
0.0
 10
365.9924152913528
 20
169.8798057391993
 30
0.0
 10
365.8711573808725
 20
169.8870716101804
 30
0.0
  0
SPLINE
  5
345
330
1F
100
AcDbEntity
  8
0
  6
Continuous
 62
     7
370
    25
100
AcDbSpline
210
0.0
220
0.0
230
1.0
 70
     8
 71
     3
 72
     9
 73
     5
 74
     0
 42
0.00000001
 43
0.00000001
 40
0.0
 40
0.0
 40
0.0
 40
0.0
 40
0.5676021571045141
 40
1.0
 40
1.0
 40
1.0
 40
1.0
 10
365.0936924100918
 20
169.6421496488229
 30
0.0
 10
364.972040999
 20
169.5470126771529
 30
0.0
 10
364.7577158602226
 20
169.3794006085953
 30
0.0
 10
364.6556946535156
 20
169.1289154555945
 30
0.0
 10
364.611580903806
 20
169.0206062157595
 30
0.0
  0
LINE
  5
346
330
1F
100
AcDbEntity
  8
0
  6
Continuous
 62
     7
370
    25
100
AcDbLine
 10
364.6115809038
 20
169.0206062158
 30
0.0
 11
367.1063255073
 21
169.0206062158
 31
0.0
  0
LINE
  5
347
330
1F
100
AcDbEntity
  8
0
  6
Continuous
 62
     7
370
    25
100
AcDbLine
 10
382.1302083065
 20
178.1171620329
 30
0.0
 11
379.9302083065
 21
178.1171620329
 31
0.0
  0
LINE
  5
348
330
1F
100
AcDbEntity
  8
0
  6
Continuous
 62
     7
370
    25
100
AcDbLine
 10
379.9302083065
 20
178.1171620329
 30
0.0
 11
379.9302083065
 21
178.4171620329
 31
0.0
  0
SPLINE
  5
349
330
1F
100
AcDbEntity
  8
0
  6
Continuous
 62
     7
370
    25
100
AcDbSpline
210
0.0
220
0.0
230
1.0
 70
     8
 71
     3
 72
     9
 73
     5
 74
     0
 42
0.00000001
 43
0.00000001
 40
0.0
 40
0.0
 40
0.0
 40
0.0
 40
0.5532408058605979
 40
1.0
 40
1.0
 40
1.0
 40
1.0
 10
356.939781650674
 20
169.8870716101804
 30
0.0
 10
356.786017113565
 20
169.8736938417933
 30
0.0
 10
356.5080829202083
 20
169.8495131084754
 30
0.0
 10
356.2699049330051
 20
169.7061834787122
 30
0.0
 10
356.1634967273804
 20
169.6421496488229
 30
0.0
  0
SPLINE
  5
34A
330
1F
100
AcDbEntity
  8
0
  6
Continuous
 62
     7
370
    25
100
AcDbSpline
210
0.0
220
0.0
230
1.0
 70
     8
 71
     3
 72
     9
 73
     5
 74
     0
 42
0.00000001
 43
0.00000001
 40
0.0
 40
0.0
 40
0.0
 40
0.0
 40
0.5675791948092062
 40
0.9999999999999999
 40
0.9999999999999999
 40
0.9999999999999999
 40
0.9999999999999999
 10
356.1634967273804
 20
169.6421496488229
 30
0.0
 10
356.0417842893241
 20
169.5470087223745
 30
0.0
 10
355.8273429581946
 20
169.3793829050111
 30
0.0
 10
355.725002681417
 20
169.1289141265966
 30
0.0
 10
355.6807486165295
 20
169.0206062157595
 30
0.0
  0
SPLINE
  5
34B
330
1F
100
AcDbEntity
  8
0
  6
Continuous
 62
     7
370
    25
100
AcDbSpline
210
0.0
220
0.0
230
1.0
 70
     8
 71
     3
 72
     9
 73
     5
 74
     0
 42
0.00000001
 43
0.00000001
 40
0.0
 40
0.0
 40
0.0
 40
0.0
 40
0.5537891943145783
 40
1.0
 40
1.0
 40
1.0
 40
1.0
 10
357.7010986032085
 20
169.6499441730147
 30
0.0
 10
357.5700438799976
 20
169.726092658819
 30
0.0
 10
357.3333929583898
 20
169.863597121864
 30
0.0
 10
357.0612256462882
 20
169.8798288414889
 30
0.0
 10
356.939781650674
 20
169.8870716101804
 30
0.0
  0
LINE
  5
34C
330
1F
100
AcDbEntity
  8
0
  6
Continuous
 62
     7
370
    25
100
AcDbLine
 10
355.6807486165
 20
169.0206062158
 30
0.0
 11
358.1754155853
 21
169.0206062158
 31
0.0
  0
SPLINE
  5
34D
330
1F
100
AcDbEntity
  8
0
  6
Continuous
 62
     7
370
    25
100
AcDbSpline
210
0.0
220
0.0
230
1.0
 70
     8
 71
     3
 72
     9
 73
     5
 74
     0
 42
0.00000001
 43
0.00000001
 40
0.0
 40
0.0
 40
0.0
 40
0.0
 40
0.5610243882890866
 40
0.9999999999999999
 40
0.9999999999999999
 40
0.9999999999999999
 40
0.9999999999999999
 10
358.1754155853025
 20
169.0206062157595
 30
0.0
 10
358.1157850770625
 20
169.1611942185246
 30
0.0
 10
358.009496456666
 20
169.4117858250567
 30
0.0
 10
357.7951788192108
 20
169.577291304107
 30
0.0
 10
357.7010986032085
 20
169.6499441730147
 30
0.0
  0
LINE
  5
34E
330
1F
100
AcDbEntity
  8
0
  6
Continuous
 62
     7
370
    25
100
AcDbLine
 10
382.4302083065
 20
186.0171620329
 30
0.0
 11
382.4302083065
 21
178.4171620329
 31
0.0
  0
ARC
  5
34F
330
1F
100
AcDbEntity
  8
0
  6
Continuous
 62
     7
370
    25
100
AcDbCircle
 10
379.9302083065
 20
177.8171620329
 30
0.0
 40
0.2999999999999829
100
AcDbArc
 50
90.0
 51
180.0
  0
SPLINE
  5
350
330
1F
100
AcDbEntity
  8
0
  6
Continuous
 62
     7
370
    25
100
AcDbSpline
210
0.0
220
0.0
230
1.0
 70
     8
 71
     3
 72
    12
 73
     8
 74
     0
 42
0.00000001
 43
0.00000001
 40
0.0
 40
0.0
 40
0.0
 40
0.0
 40
0.1823319353004315
 40
0.3370962693487569
 40
0.5001720987790306
 40
0.7483951863263892
 40
1.0
 40
1.0
 40
1.0
 40
1.0
 10
357.5012761184043
 20
130.0171620329101
 30
0.0
 10
357.2598836529759
 20
130.0185214878914
 30
0.0
 10
356.8135959557014
 20
130.0210348556226
 30
0.0
 10
356.1543860381352
 20
130.099854905761
 30
0.0
 10
355.4312832529034
 20
130.313376850029
 30
0.0
 10
354.6733502487515
 20
130.7812012319559
 30
0.0
 10
354.2026730575003
 20
131.2471017683019
 30
0.0
 10
353.9657422124717
 20
131.4816281269774
 30
0.0
  0
LINE
  5
351
330
1F
100
AcDbEntity
  8
0
  6
Continuous
 62
     7
370
    25
100
AcDbLine
 10
357.5012761184
 20
130.0171620329
 30
0.0
 11
372.1552439191
 21
130.0171620329
 31
0.0
  0
ARC
  5
352
330
1F
100
AcDbEntity
  8
0
  6
Continuous
 62
     7
370
    25
100
AcDbCircle
 10
372.1552439191
 20
133.0171620329
 30
0.0
 40
3.000000000000015
100
AcDbArc
 50
270.0
 51
347.1604115931
  0
ARC
  5
353
330
1F
100
AcDbEntity
  8
0
  6
Continuous
 62
     7
370
    25
100
AcDbCircle
 10
380.9302083065
 20
131.0171620329
 30
0.0
 40
6.0
100
AcDbArc
 50
270.0
 51
167.1604115931
  0
LINE
  5
354
330
1F
100
AcDbEntity
  8
0
  6
Continuous
 62
     7
370
    25
100
AcDbLine
 10
380.9302083065
 20
125.0171620329
 30
0.0
 11
340.4302083065
 21
125.0171620329
 31
0.0
  0
LINE
  5
355
330
1F
100
AcDbEntity
  8
0
  6
Continuous
 62
     7
370
    25
100
AcDbLine
 10
340.4302083065
 20
133.0171620329
 30
0.0
 11
340.4302083065
 21
125.0171620329
 31
0.0
  0
CIRCLE
  5
356
330
1F
100
AcDbEntity
  8
0
  6
Continuous
 62
     7
370
    25
100
AcDbCircle
 10
380.9302083065
 20
131.0171620329
 30
0.0
 40
5.000000000000057
  0
SPLINE
  5
357
330
1F
100
AcDbEntity
  8
0
  6
Continuous
 62
     7
370
    25
100
AcDbSpline
210
0.0
220
0.0
230
1.0
 70
     8
 71
     3
 72
    12
 73
     8
 74
     0
 42
0.00000001
 43
0.00000001
 40
0.0
 40
0.0
 40
0.0
 40
0.0
 40
0.1822903406788977
 40
0.3370325288585143
 40
0.5001720724215828
 40
0.7483951730584992
 40
1.0
 40
1.0
 40
1.0
 40
1.0
 10
353.8946744006062
 20
131.5526959388428
 30
0.0
 10
353.7230569754369
 20
131.7223801740195
 30
0.0
 10
353.4057573610658
 20
132.0361055567032
 30
0.0
 10
352.8839375418136
 20
132.4465600305231
 30
0.0
 10
352.2215913792443
 20
132.8069195339674
 30
0.0
 10
351.3547729698983
 20
133.0120863253501
 30
0.0
 10
350.6925115583109
 20
133.0154625162008
 30
0.0
 10
350.3591404946735
 20
133.0171620329101
 30
0.0
  0
LINE
  5
358
330
1F
100
AcDbEntity
  8
0
  6
Continuous
 62
     7
370
    25
100
AcDbLine
 10
353.8946744006
 20
131.5526959388
 30
0.0
 11
353.9657422125
 21
131.481628127
 31
0.0
  0
LINE
  5
359
330
1F
100
AcDbEntity
  8
0
  6
Continuous
 62
     7
370
    25
100
AcDbLine
 10
340.4302083065
 20
133.0171620329
 30
0.0
 11
350.3591404947
 21
133.0171620329
 31
0.0
  0
LINE
  5
35A
330
1F
100
AcDbEntity
  8
0
  6
Continuous
 62
     7
370
    25
100
AcDbLine
 10
337.4302083065
 20
125.0171620329
 30
0.0
 11
337.4302083065
 21
133.0171620329
 31
0.0
  0
LINE
  5
35B
330
1F
100
AcDbEntity
  8
0
  6
Continuous
 62
     7
370
    25
100
AcDbLine
 10
340.4302083065
 20
125.0171620329
 30
0.0
 11
337.4302083065
 21
125.0171620329
 31
0.0
  0
LINE
  5
35C
330
1F
100
AcDbEntity
  8
0
  6
Continuous
 62
     7
370
    25
100
AcDbLine
 10
337.4302083065
 20
133.0171620329
 30
0.0
 11
340.4302083065
 21
133.0171620329
 31
0.0
  0
SPLINE
  5
35D
330
1F
100
AcDbEntity
  8
0
  6
Continuous
 62
     7
370
    25
100
AcDbSpline
210
0.0
220
0.0
230
1.0
 70
     8
 71
     3
 72
    11
 73
     7
 74
     0
 42
0.00000001
 43
0.00000001
 40
0.0
 40
0.0
 40
0.0
 40
0.0
 40
0.0071267221052719
 40
0.1000215931321724
 40
0.6490529784621877
 40
1.0
 40
1.0
 40
1.0
 40
1.0
 10
375.2437446586618
 20
132.9313540769255
 30
0.0
 10
375.2454102026678
 20
132.9362953364435
 30
0.0
 10
375.2687856566924
 20
133.0056445606418
 30
0.0
 10
375.4248129894462
 20
133.4541354166936
 30
0.0
 10
375.6980862994038
 20
134.1298232440519
 30
0.0
 10
376.010450846419
 20
134.7155472524485
 30
0.0
 10
376.1322575548604
 20
134.9439506170419
 30
0.0
  0
LINE
  5
35E
330
1F
100
AcDbEntity
  8
0
  6
Continuous
 62
     7
370
    25
100
AcDbLine
 10
376.2870301598
 20
134.8172800176
 30
0.0
 11
376.1322575549
 21
134.943950617
 31
0.0
  0
SPLINE
  5
35F
330
1F
100
AcDbEntity
  8
0
  6
Continuous
 62
     7
370
    25
100
AcDbSpline
210
0.0
220
0.0
230
1.0
 70
     8
 71
     3
 72
    10
 73
     6
 74
     0
 42
0.00000001
 43
0.00000001
 40
0.0
 40
0.0
 40
0.0
 40
0.0
 40
0.287980457133264
 40
0.9929350727165661
 40
1.0
 40
1.0
 40
1.0
 40
1.0
 10
382.601676845516
 20
136.9876053098544
 30
0.0
 10
382.6921687876362
 20
136.9275042730714
 30
0.0
 10
383.0041782344709
 20
136.7202803943314
 30
0.0
 10
383.3177503226974
 20
136.5281499134707
 30
0.0
 10
383.5528753074848
 20
136.4136090147682
 30
0.0
 10
383.5552083065389
 20
136.4124724966369
 30
0.0
  0
LINE
  5
360
330
1F
100
AcDbEntity
  8
0
  6
Continuous
 62
     7
370
    25
100
AcDbLine
 10
382.6016768455
 20
136.9876053099
 30
0.0
 11
382.5477585055
 21
136.7950103654
 31
0.0
  0
ARC
  5
361
330
1F
100
AcDbEntity
  8
0
  6
Continuous
 62
     7
370
    25
100
AcDbCircle
 10
380.9302083065
 20
131.0171620329
 30
0.0
 40
6.200000000000016
100
AcDbArc
 50
74.3600279354
 51
140.7020638718
  0
LINE
  5
362
330
1F
100
AcDbEntity
  8
0
  6
Continuous
 62
     7
370
    25
100
AcDbLine
 10
375.2437446587
 20
132.9313540769
 30
0.0
 11
377.5608484533
 21
139.8147420512
 31
0.0
  0
LINE
  5
363
330
1F
100
AcDbEntity
  8
0
  6
Continuous
 62
     7
370
    25
100
AcDbLine
 10
377.5608484533
 20
139.8147420512
 30
0.0
 11
377.7503972415
 21
139.7509356498
 31
0.0
  0
LINE
  5
364
330
1F
100
AcDbEntity
  8
0
  6
Continuous
 62
     7
370
    25
100
AcDbLine
 10
377.7503972415
 20
139.7509356498
 30
0.0
 11
376.1322575549
 21
134.943950617
 31
0.0
  0
ARC
  5
365
330
1F
100
AcDbEntity
  8
0
  6
Continuous
 62
     7
370
    25
100
AcDbCircle
 10
384.4302083065
 20
138.2109093179
 30
0.0
 40
2.199999999999954
100
AcDbArc
 50
180.0
 51
213.7828789087
  0
LINE
  5
366
330
1F
100
AcDbEntity
  8
0
  6
Continuous
 62
     7
370
    25
100
AcDbLine
 10
382.2302083065
 20
138.2109093179
 30
0.0
 11
382.4302083065
 21
138.2109093179
 31
0.0
  0
ARC
  5
367
330
1F
100
AcDbEntity
  8
0
  6
Continuous
 62
     7
370
    25
100
AcDbCircle
 10
384.4302083065
 20
138.2109093179
 30
0.0
 40
2.0
100
AcDbArc
 50
180.0
 51
244.0555202276
  0
ARC
  5
368
330
1F
100
AcDbEntity
  8
0
  6
Continuous
 62
     7
370
    25
100
AcDbCircle
 10
379.9302083065
 20
139.0171620329
 30
0.0
 40
2.5
100
AcDbArc
 50
0.0
 51
161.395605103
  0
LINE
  5
369
330
1F
100
AcDbEntity
  8
0
  6
Continuous
 62
     7
370
    25
100
AcDbLine
 10
382.4302083065
 20
139.0171620329
 30
0.0
 11
382.2302083065
 21
139.0171620329
 31
0.0
  0
ARC
  5
36A
330
1F
100
AcDbEntity
  8
0
  6
Continuous
 62
     7
370
    25
100
AcDbCircle
 10
379.9302083065
 20
139.0171620329
 30
0.0
 40
2.300000000000068
100
AcDbArc
 50
0.0
 51
161.395605103
  0
LINE
  5
36B
330
1F
100
AcDbEntity
  8
0
  6
Continuous
 62
     7
370
    25
100
AcDbLine
 10
382.2302083065
 20
138.2109093179
 30
0.0
 11
382.2302083065
 21
139.0171620329
 31
0.0
  0
LINE
  5
36C
330
1F
100
AcDbEntity
  8
0
  6
Continuous
 62
     7
370
    25
100
AcDbLine
 10
382.4302083065
 20
139.0171620329
 30
0.0
 11
382.4302083065
 21
138.2109093179
 31
0.0
  0
CIRCLE
  5
36D
330
1F
100
AcDbEntity
  8
0
  6
Continuous
 62
     7
370
    25
100
AcDbCircle
 10
379.9302083065
 20
139.0171620329
 30
0.0
 40
1.250000000000057
  0
LINE
  5
36E
330
1F
100
AcDbEntity
  8
0
  6
Continuous
 62
     7
370
    25
100
AcDbLine
 10
372.7869649801
 20
132.0208635625
 30
0.0
 11
372.7842335741
 21
132.0036181441
 31
0.0
  0
LINE
  5
36F
330
1F
100
AcDbEntity
  8
0
  6
Continuous
 62
     7
370
    25
100
AcDbLine
 10
372.7869649801
 20
132.0208635625
 30
0.0
 11
374.1697286569
 21
131.8018553114
 31
0.0
  0
LINE
  5
370
330
1F
100
AcDbEntity
  8
0
  6
Continuous
 62
     7
370
    25
100
AcDbLine
 10
374.1697286569
 20
131.8018553114
 30
0.0
 11
374.166997251
 21
131.784609893
 31
0.0
  0
LINE
  5
371
330
1F
100
AcDbEntity
  8
0
  6
Continuous
 62
     7
370
    25
100
AcDbLine
 10
372.7842335741
 20
132.0036181441
 30
0.0
 11
374.166997251
 21
131.784609893
 31
0.0
  0
LWPOLYLINE
  5
372
330
1F
100
AcDbEntity
  8
0
  6
Continuous
 62
     7
370
    25
100
AcDbPolyline
 90
        3
 70
   128
 43
0.0
 10
374.2844883729
 20
130.903795511
 10
374.2338411318
 20
130.9276110947
 10
374.1247404893
 20
130.943429935
  0
LINE
  5
373
330
1F
100
AcDbEntity
  8
0
  6
Continuous
 62
     7
370
    25
100
AcDbLine
 10
374.1247404893
 20
130.943429935
 30
0.0
 11
374.1238266833
 21
130.9608663909
 31
0.0
  0
LWPOLYLINE
  5
374
330
1F
100
AcDbEntity
  8
0
  6
Continuous
 62
     7
370
    25
100
AcDbPolyline
 90
        3
 70
   128
 43
0.0
 10
374.2970909985
 20
130.9165690003
 10
374.239669528
 20
130.9440699778
 10
374.1238266833
 20
130.9608663909
  0
LINE
  5
375
330
1F
100
AcDbEntity
  8
0
  6
Continuous
 62
     7
370
    25
100
AcDbLine
 10
374.2581265241
 20
132.3599774789
 30
0.0
 11
374.26085793
 21
132.3772228974
 31
0.0
  0
LINE
  5
376
330
1F
100
AcDbEntity
  8
0
  6
Continuous
 62
     7
370
    25
100
AcDbLine
 10
372.8753628472
 20
132.57898573
 30
0.0
 11
374.2581265241
 21
132.3599774789
 31
0.0
  0
LINE
  5
377
330
1F
100
AcDbEntity
  8
0
  6
Continuous
 62
     7
370
    25
100
AcDbLine
 10
372.8753628472
 20
132.57898573
 30
0.0
 11
372.8780942532
 21
132.5962311484
 31
0.0
  0
LINE
  5
378
330
1F
100
AcDbEntity
  8
0
  6
Continuous
 62
     7
370
    25
100
AcDbLine
 10
372.8780942532
 20
132.5962311484
 30
0.0
 11
374.26085793
 21
132.3772228974
 31
0.0
  0
LINE
  5
379
330
1F
100
AcDbEntity
  8
0
  6
Continuous
 62
     7
370
    25
100
AcDbLine
 10
375.0733663411
 20
134.4837498114
 30
0.0
 11
375.063856734
 21
134.4691063006
 31
0.0
  0
ARC
  5
37A
330
1F
100
AcDbEntity
  8
0
  6
Continuous
 62
     7
370
    25
100
AcDbCircle
 10
375.2272484445
 20
134.720707471
 30
0.0
 40
0.2825396152541593
100
AcDbArc
 50
237.0
 51
57.0
  0
LINE
  5
37B
330
1F
100
AcDbEntity
  8
0
  6
Continuous
 62
     7
370
    25
100
AcDbLine
 10
375.3811305479
 20
134.9576651306
 30
0.0
 11
375.390640155
 21
134.9723086414
 31
0.0
  0
ARC
  5
37C
330
1F
100
AcDbEntity
  8
0
  6
Continuous
 62
     7
370
    25
100
AcDbCircle
 10
375.2272484445
 20
134.720707471
 30
0.0
 40
0.3000000000000613
100
AcDbArc
 50
237.0
 51
57.0
  0
LINE
  5
37D
330
1F
100
AcDbEntity
  8
0
  6
Continuous
 62
     7
370
    25
100
AcDbLine
 10
374.6831145489
 20
133.7178375443
 30
0.0
 11
374.6893717912
 21
133.7341382178
 31
0.0
  0
LINE
  5
37E
330
1F
100
AcDbEntity
  8
0
  6
Continuous
 62
     7
370
    25
100
AcDbLine
 10
373.3761019518
 20
134.2195526737
 30
0.0
 11
374.6831145489
 21
133.7178375443
 31
0.0
  0
LINE
  5
37F
330
1F
100
AcDbEntity
  8
0
  6
Continuous
 62
     7
370
    25
100
AcDbLine
 10
373.3761019518
 20
134.2195526737
 30
0.0
 11
373.3823591941
 21
134.2358533471
 31
0.0
  0
LINE
  5
380
330
1F
100
AcDbEntity
  8
0
  6
Continuous
 62
     7
370
    25
100
AcDbLine
 10
373.3823591941
 20
134.2358533471
 30
0.0
 11
374.6893717912
 21
133.7341382178
 31
0.0
  0
LINE
  5
381
330
1F
100
AcDbEntity
  8
0
  6
Continuous
 62
     7
370
    25
100
AcDbLine
 10
374.2069917528
 20
135.7201597796
 30
0.0
 11
374.2165013599
 21
135.7348032904
 31
0.0
  0
ARC
  5
382
330
1F
100
AcDbEntity
  8
0
  6
Continuous
 62
     7
370
    25
100
AcDbCircle
 10
374.0531096494
 20
135.48320212
 30
0.0
 40
0.2825396152541522
100
AcDbArc
 50
57.0
 51
237.0
  0
LINE
  5
383
330
1F
100
AcDbEntity
  8
0
  6
Continuous
 62
     7
370
    25
100
AcDbLine
 10
373.899227546
 20
135.2462444604
 30
0.0
 11
373.8897179389
 21
135.2316009496
 31
0.0
  0
ARC
  5
384
330
1F
100
AcDbEntity
  8
0
  6
Continuous
 62
     7
370
    25
100
AcDbCircle
 10
374.0531096494
 20
135.48320212
 30
0.0
 40
0.3000000000000065
100
AcDbArc
 50
57.0
 51
237.0
  0
LINE
  5
385
330
1F
100
AcDbEntity
  8
0
  6
Continuous
 62
     7
370
    25
100
AcDbLine
 10
372.7266591406
 20
130.8701595962
 30
0.0
 11
372.7257453347
 21
130.8875960521
 31
0.0
  0
ARC
  5
386
330
1F
100
AcDbEntity
  8
0
  6
Continuous
 62
     7
370
    25
100
AcDbCircle
 10
372.7414461216
 20
130.5880071917
 30
0.0
 40
0.2825396152541251
100
AcDbArc
 50
93.0
 51
273.0
  0
LINE
  5
387
330
1F
100
AcDbEntity
  8
0
  6
Continuous
 62
     7
370
    25
100
AcDbLine
 10
372.7562331025
 20
130.3058547872
 30
0.0
 11
372.7571469084
 21
130.2884183313
 31
0.0
  0
ARC
  5
388
330
1F
100
AcDbEntity
  8
0
  6
Continuous
 62
     7
370
    25
100
AcDbCircle
 10
372.7414461216
 20
130.5880071917
 30
0.0
 40
0.3000000000000119
100
AcDbArc
 50
93.0
 51
273.0
  0
LINE
  5
389
330
1F
100
AcDbEntity
  8
0
  6
Continuous
 62
     7
370
    25
100
AcDbLine
 10
372.7562331025
 20
130.3058547872
 30
0.0
 11
373.5206956261
 21
130.3459185704
 31
0.0
  0
LINE
  5
38A
330
1F
100
AcDbEntity
  8
0
  6
Continuous
 62
     7
370
    25
100
AcDbLine
 10
372.7571469084
 20
130.2884183313
 30
0.0
 11
373.4818109627
 21
130.3263963651
 31
0.0
  0
ARC
  5
38B
330
1F
100
AcDbEntity
  8
0
  6
Continuous
 62
     7
370
    25
100
AcDbCircle
 10
372.8311639137
 20
132.2999246462
 30
0.0
 40
0.2825396152541464
100
AcDbArc
 50
81.0
 51
261.0
  0
ARC
  5
38C
330
1F
100
AcDbEntity
  8
0
  6
Continuous
 62
     7
370
    25
100
AcDbCircle
 10
372.8311639137
 20
132.2999246462
 30
0.0
 40
0.2999999999999976
100
AcDbArc
 50
81.0
 51
261.0
  0
ARC
  5
38D
330
1F
100
AcDbEntity
  8
0
  6
Continuous
 62
     7
370
    25
100
AcDbCircle
 10
373.2748488093
 20
133.9557792192
 30
0.0
 40
0.2825396152541367
100
AcDbArc
 50
69.0
 51
249.0
  0
LINE
  5
38E
330
1F
100
AcDbEntity
  8
0
  6
Continuous
 62
     7
370
    25
100
AcDbLine
 10
373.1735956667
 20
133.6920057647
 30
0.0
 11
373.1673384244
 21
133.6757050912
 31
0.0
  0
ARC
  5
38F
330
1F
100
AcDbEntity
  8
0
  6
Continuous
 62
     7
370
    25
100
AcDbCircle
 10
373.2748488093
 20
133.9557792192
 30
0.0
 40
0.3000000000000149
100
AcDbArc
 50
69.0
 51
249.0
  0
LINE
  5
390
330
1F
100
AcDbEntity
  8
0
  6
Continuous
 62
     7
370
    25
100
AcDbLine
 10
381.9302083065
 20
160.8171620329
 30
0.0
 11
337.9302083065
 21
160.8171620329
 31
0.0
  0
ARC
  5
391
330
1F
100
AcDbEntity
  8
0
  6
Continuous
 62
     7
370
    25
100
AcDbCircle
 10
381.9302083065
 20
160.5171620329
 30
0.0
 40
0.3000000000000682
100
AcDbArc
 50
0.0
 51
90.0
  0
ARC
  5
392
330
1F
100
AcDbEntity
  8
0
  6
Continuous
 62
     7
370
    25
100
AcDbCircle
 10
337.9302083065
 20
160.5171620329
 30
0.0
 40
0.3000000000000114
100
AcDbArc
 50
90.0
 51
180.0
  0
ARC
  5
393
330
1F
100
AcDbEntity
  8
0
  6
Continuous
 62
     7
370
    25
100
AcDbCircle
 10
378.4302083065
 20
143.0171620329
 30
0.0
 40
3.470000000000012
100
AcDbArc
 50
0.0
 51
254.662473841
  0
ARC
  5
394
330
1F
100
AcDbEntity
  8
0
  6
Continuous
 62
     7
370
    25
100
AcDbCircle
 10
378.4302083065
 20
143.0171620329
 30
0.0
 40
3.47
100
AcDbArc
 50
326.373455972
 51
0.0
  0
CIRCLE
  5
395
330
1F
100
AcDbEntity
  8
0
  6
Continuous
 62
     7
370
    25
100
AcDbCircle
 10
341.4302083065
 20
143.0171620329
 30
0.0
 40
3.470000000000027
  0
LINE
  5
396
330
1F
100
AcDbEntity
  8
0
  6
Continuous
 62
     7
370
    25
100
AcDbLine
 10
372.7257453347
 20
130.8875960521
 30
0.0
 11
374.1238266833
 21
130.9608663909
 31
0.0
  0
ARC
  5
397
330
1F
100
AcDbEntity
  8
0
  6
Continuous
 62
     7
370
    25
100
AcDbCircle
 10
374.2139275905
 20
132.0809163952
 30
0.0
 40
0.3000000000000257
100
AcDbArc
 50
261.0
 51
81.0
  0
LINE
  5
398
330
1F
100
AcDbEntity
  8
0
  6
Continuous
 62
     7
370
    25
100
AcDbLine
 10
373.1673384244
 20
133.6757050912
 30
0.0
 11
374.4743510215
 21
133.1739899619
 31
0.0
  0
ARC
  5
399
330
1F
100
AcDbEntity
  8
0
  6
Continuous
 62
     7
370
    25
100
AcDbCircle
 10
374.5818614064
 20
133.4540640898
 30
0.0
 40
0.3000000000000353
100
AcDbArc
 50
249.0
 51
69.0
  0
LINE
  5
39A
330
1F
100
AcDbEntity
  8
0
  6
Continuous
 62
     7
370
    25
100
AcDbLine
 10
376.7157693898
 20
138.0576524006
 30
0.0
 11
376.8827944269
 21
137.8004563978
 31
0.0
  0
ARC
  5
39B
330
1F
100
AcDbEntity
  8
0
  6
Continuous
 62
     7
370
    25
100
AcDbCircle
 10
376.4641682194
 20
137.8942606901
 30
0.0
 40
0.3000000000000458
100
AcDbArc
 50
33.0
 51
213.0
  0
LINE
  5
39C
330
1F
100
AcDbEntity
  8
0
  6
Continuous
 62
     7
370
    25
100
AcDbLine
 10
376.212567049
 20
137.7308689796
 30
0.0
 11
376.638556624
 21
137.0749025581
 31
0.0
  0
LINE
  5
39D
330
1F
100
AcDbEntity
  8
0
  6
Continuous
 62
     7
370
    25
100
AcDbLine
 10
374.2165013599
 20
135.7348032904
 30
0.0
 11
375.390640155
 21
134.9723086414
 31
0.0
  0
LINE
  5
39E
330
1F
100
AcDbEntity
  8
0
  6
Continuous
 62
     7
370
    25
100
AcDbLine
 10
373.8897179389
 20
135.2316009496
 30
0.0
 11
375.063856734
 21
134.4691063006
 31
0.0
  0
LINE
  5
39F
330
1F
100
AcDbEntity
  8
0
  6
Continuous
 62
     7
370
    25
100
AcDbLine
 10
375.3440647352
 20
137.027569673
 30
0.0
 11
376.3006238968
 21
136.0710105114
 31
0.0
  0
ARC
  5
3A0
330
1F
100
AcDbEntity
  8
0
  6
Continuous
 62
     7
370
    25
100
AcDbCircle
 10
375.1319327008
 20
136.8154376386
 30
0.0
 40
0.3000000000000547
100
AcDbArc
 50
45.0
 51
225.0
  0
LINE
  5
3A1
330
1F
100
AcDbEntity
  8
0
  6
Continuous
 62
     7
370
    25
100
AcDbLine
 10
374.9198006665
 20
136.6033056043
 30
0.0
 11
375.9097501601
 21
135.6133561106
 31
0.0
  0
LWPOLYLINE
  5
3A2
330
1F
100
AcDbEntity
  8
0
  6
Continuous
 62
     7
370
    25
100
AcDbPolyline
 90
        3
 70
   128
 43
0.0
 10
375.9097501601
 20
135.6133561106
 10
376.0070771648
 20
135.5483242852
 10
376.1170021144
 20
135.5255278396
  0
ARC
  5
3A3
330
1F
100
AcDbEntity
  8
0
  6
Continuous
 62
     7
370
    25
100
AcDbCircle
 10
374.2139275905
 20
132.0809163952
 30
0.0
 40
0.2825396152541272
100
AcDbArc
 50
261.0
 51
81.0
  0
LINE
  5
3A4
330
1F
100
AcDbEntity
  8
0
  6
Continuous
 62
     7
370
    25
100
AcDbLine
 10
376.701125879
 20
138.0481427935
 30
0.0
 11
376.8756869502
 21
137.7793423158
 31
0.0
  0
LINE
  5
3A5
330
1F
100
AcDbEntity
  8
0
  6
Continuous
 62
     7
370
    25
100
AcDbLine
 10
376.701125879
 20
138.0481427935
 30
0.0
 11
376.7157693898
 21
138.0576524006
 31
0.0
  0
LINE
  5
3A6
330
1F
100
AcDbEntity
  8
0
  6
Continuous
 62
     7
370
    25
100
AcDbLine
 10
374.2069917528
 20
135.7201597796
 30
0.0
 11
375.3811305479
 21
134.9576651306
 31
0.0
  0
LINE
  5
3A7
330
1F
100
AcDbEntity
  8
0
  6
Continuous
 62
     7
370
    25
100
AcDbLine
 10
373.1735956667
 20
133.6920057647
 30
0.0
 11
374.4806082638
 21
133.1902906353
 31
0.0
  0
LINE
  5
3A8
330
1F
100
AcDbEntity
  8
0
  6
Continuous
 62
     7
370
    25
100
AcDbLine
 10
374.4806082638
 20
133.1902906353
 30
0.0
 11
374.4743510215
 21
133.1739899619
 31
0.0
  0
ARC
  5
3A9
330
1F
100
AcDbEntity
  8
0
  6
Continuous
 62
     7
370
    25
100
AcDbCircle
 10
381.9302083065
 20
160.5171620329
 30
0.0
 40
0.5
100
AcDbArc
 50
0.0
 51
90.0
  0
LINE
  5
3AA
330
1F
100
AcDbEntity
  8
0
  6
Continuous
 62
     7
370
    25
100
AcDbLine
 10
382.4302083065
 20
160.5171620329
 30
0.0
 11
382.2302083065
 21
160.5171620329
 31
0.0
  0
LINE
  5
3AB
330
1F
100
AcDbEntity
  8
0
  6
Continuous
 62
     7
370
    25
100
AcDbLine
 10
381.9302083065
 20
160.8171620329
 30
0.0
 11
381.9302083065
 21
161.0171620329
 31
0.0
  0
LINE
  5
3AC
330
1F
100
AcDbEntity
  8
0
  6
Continuous
 62
     7
370
    25
100
AcDbLine
 10
337.4302083065
 20
133.0171620329
 30
0.0
 11
337.4302083065
 21
160.5171620329
 31
0.0
  0
LINE
  5
3AD
330
1F
100
AcDbEntity
  8
0
  6
Continuous
 62
     7
370
    25
100
AcDbLine
 10
337.6302083065
 20
160.5171620329
 30
0.0
 11
337.4302083065
 21
160.5171620329
 31
0.0
  0
LINE
  5
3AE
330
1F
100
AcDbEntity
  8
0
  6
Continuous
 62
     7
370
    25
100
AcDbLine
 10
372.7266591406
 20
130.8701595962
 30
0.0
 11
374.1247404893
 21
130.943429935
 31
0.0
  0
ARC
  5
3AF
330
1F
100
AcDbEntity
  8
0
  6
Continuous
 62
     7
370
    25
100
AcDbCircle
 10
376.4641682194
 20
137.8942606901
 30
0.0
 40
0.2825396152541522
100
AcDbArc
 50
33.0
 51
213.0
  0
LINE
  5
3B0
330
1F
100
AcDbEntity
  8
0
  6
Continuous
 62
     7
370
    25
100
AcDbLine
 10
376.2272105598
 20
137.7403785867
 30
0.0
 11
376.212567049
 21
137.7308689796
 31
0.0
  0
ARC
  5
3B1
330
1F
100
AcDbEntity
  8
0
  6
Continuous
 62
     7
370
    25
100
AcDbCircle
 10
374.5818614064
 20
133.4540640898
 30
0.0
 40
0.2825396152541306
100
AcDbArc
 50
249.0
 51
69.0
  0
LINE
  5
3B2
330
1F
100
AcDbEntity
  8
0
  6
Continuous
 62
     7
370
    25
100
AcDbLine
 10
373.899227546
 20
135.2462444604
 30
0.0
 11
375.0733663411
 21
134.4837498114
 31
0.0
  0
ARC
  5
3B3
330
1F
100
AcDbEntity
  8
0
  6
Continuous
 62
     7
370
    25
100
AcDbCircle
 10
337.9302083065
 20
160.5171620329
 30
0.0
 40
0.5
100
AcDbArc
 50
90.0
 51
180.0
  0
LINE
  5
3B4
330
1F
100
AcDbEntity
  8
0
  6
Continuous
 62
     7
370
    25
100
AcDbLine
 10
337.9302083065
 20
161.0171620329
 30
0.0
 11
337.9302083065
 21
160.8171620329
 31
0.0
  0
LINE
  5
3B5
330
1F
100
AcDbEntity
  8
0
  6
Continuous
 62
     7
370
    25
100
AcDbLine
 10
374.9321470229
 20
136.6156519607
 30
0.0
 11
374.9198006665
 21
136.6033056043
 31
0.0
  0
LINE
  5
3B6
330
1F
100
AcDbEntity
  8
0
  6
Continuous
 62
     7
370
    25
100
AcDbLine
 10
374.9321470229
 20
136.6156519607
 30
0.0
 11
375.9220965166
 21
135.6257024671
 31
0.0
  0
LINE
  5
3B7
330
1F
100
AcDbEntity
  8
0
  6
Continuous
 62
     7
370
    25
100
AcDbLine
 10
375.9220965166
 20
135.6257024671
 30
0.0
 11
375.9097501601
 21
135.6133561106
 31
0.0
  0
LINE
  5
3B8
330
1F
100
AcDbEntity
  8
0
  6
Continuous
 62
     7
370
    25
100
AcDbLine
 10
375.3317183787
 20
137.0152233165
 30
0.0
 11
375.3440647352
 21
137.027569673
 31
0.0
  0
ARC
  5
3B9
330
1F
100
AcDbEntity
  8
0
  6
Continuous
 62
     7
370
    25
100
AcDbCircle
 10
375.1319327008
 20
136.8154376386
 30
0.0
 40
0.2825396152541776
100
AcDbArc
 50
45.0
 51
225.0
  0
LINE
  5
3BA
330
1F
100
AcDbEntity
  8
0
  6
Continuous
 62
     7
370
    25
100
AcDbLine
 10
376.2272105598
 20
137.7403785867
 30
0.0
 11
376.6456641007
 21
137.0960166401
 31
0.0
  0
ARC
  5
3BB
330
1F
100
AcDbEntity
  8
0
  6
Continuous
 62
     7
370
    25
100
AcDbCircle
 10
376.1218821945
 20
135.825488145
 30
0.0
 40
0.2825396152541374
100
AcDbArc
 50
225.0
 51
270.1996852364
  0
LINE
  5
3BC
330
1F
100
AcDbEntity
  8
0
  6
Continuous
 62
     7
370
    25
100
AcDbLine
 10
375.3317183787
 20
137.0152233165
 30
0.0
 11
376.2944051445
 21
136.0525365507
 31
0.0
  0
LINE
  5
3BD
330
1F
100
AcDbEntity
  8
0
  6
Continuous
 62
     7
370
    25
100
AcDbLine
 10
382.4302083065
 20
160.5171620329
 30
0.0
 11
382.4302083065
 21
139.0171620329
 31
0.0
  0
LINE
  5
3BE
330
1F
100
AcDbEntity
  8
0
  6
Continuous
 62
     7
370
    25
100
AcDbLine
 10
366.9302029571
 20
169.3465038703
 30
0.0
 11
366.9302022487
 21
169.0206062158
 31
0.0
  0
LINE
  5
3BF
330
1F
100
AcDbEntity
  8
0
  6
Continuous
 62
     7
370
    25
100
AcDbLine
 10
360.1211896762
 20
170.4055849241
 30
0.0
 11
360.3247560041
 21
170.4055849241
 31
0.0
  0
LINE
  5
3C0
330
1F
100
AcDbEntity
  8
0
  6
Continuous
 62
     7
370
    25
100
AcDbLine
 10
382.2302083065
 20
139.99695793
 30
0.0
 11
382.2302083065
 21
160.5171620329
 31
0.0
  0
LINE
  5
3C1
330
1F
100
AcDbEntity
  8
0
  6
Continuous
 62
     7
370
    25
100
AcDbLine
 10
337.6302083065
 20
160.5171620329
 30
0.0
 11
337.6302083065
 21
133.0171620329
 31
0.0
  0
ENDSEC
  0
SECTION
  2
OBJECTS
  0
DICTIONARY
  5
C
330
0
100
AcDbDictionary
281
     1
  3
ACAD_GROUP
350
D
  3
ACAD_LAYOUT
350
1A
  3
ACAD_MLINESTYLE
350
17
  3
ACAD_PLOTSETTINGS
350
19
  3
ACAD_PLOTSTYLENAME
350
E
  3
ACAD_SCALELIST
350
47
  3
DWGPROPS
350
3C2
  0
DICTIONARY
  5
D
102
{ACAD_REACTORS
330
C
102
}
330
C
100
AcDbDictionary
281
     1
  0
DICTIONARY
  5
1A
102
{ACAD_REACTORS
330
C
102
}
330
C
100
AcDbDictionary
281
     1
  3
Layout1
350
1E
  3
Layout2
350
26
  3
Model
350
22
  0
DICTIONARY
  5
17
102
{ACAD_REACTORS
330
C
102
}
330
C
100
AcDbDictionary
281
     1
  3
Standard
350
18
  0
DICTIONARY
  5
19
102
{ACAD_REACTORS
330
C
102
}
330
C
100
AcDbDictionary
281
     1
  0
ACDBDICTIONARYWDFLT
  5
E
102
{ACAD_REACTORS
330
C
102
}
330
C
100
AcDbDictionary
281
     1
  3
Normal
350
F
100
AcDbDictionaryWithDefault
340
F
  0
DICTIONARY
  5
47
102
{ACAD_REACTORS
330
C
102
}
330
C
100
AcDbDictionary
281
     1
  3
A0
350
48
  3
A1
350
49
  3
A2
350
4A
  3
A3
350
4B
  3
A4
350
4C
  3
A5
350
4D
  3
A6
350
4E
  3
A7
350
4F
  3
A8
350
50
  3
A9
350
51
  3
B0
350
52
  3
B1
350
53
  3
B2
350
54
  3
B3
350
55
  3
B4
350
56
  3
B5
350
57
  3
B6
350
58
  0
XRECORD
  5
3C2
102
{ACAD_REACTORS
330
C
102
}
330
C
100
AcDbXrecord
280
     1
  1
DWGPROPS COOKIE
  2

  3

  4

  6

  7

  8
itutanc
  9

300
=
301
=
302
=
303
=
304
=
305
=
306
=
307
=
308
=
309
=
 40
0.0
 41
2460801.360303056
 42
2460801.360303565
  1

 90
        0
  0
LAYOUT
  5
1E
102
{ACAD_REACTORS
330
1A
102
}
330
1A
100
AcDbPlotSettings
  1

  2
none_device
  4

  6

 40
0.0
 41
0.0
 42
0.0
 43
0.0
 44
0.0
 45
0.0
 46
0.0
 47
0.0
 48
0.0
 49
0.0
140
0.0
141
0.0
142
1.0
143
1.0
 70
   688
 72
     1
 73
     0
 74
     5
  7

 75
    16
147
1.0
148
0.0
149
0.0
100
AcDbLayout
  1
Layout1
 70
     1
 71
     1
 10
0.0
 20
0.0
 11
420.0
 21
297.0
 12
0.0
 22
0.0
 32
0.0
 14
1.0000000000E+20
 24
1.0000000000E+20
 34
1.0000000000E+20
 15
-1.0000000000E+20
 25
-1.0000000000E+20
 35
-1.0000000000E+20
146
0.0
 13
0.0
 23
0.0
 33
0.0
 16
1.0
 26
0.0
 36
0.0
 17
0.0
 27
1.0
 37
0.0
 76
     0
330
1B
  0
LAYOUT
  5
26
102
{ACAD_REACTORS
330
1A
102
}
330
1A
100
AcDbPlotSettings
  1

  2
none_device
  4

  6

 40
0.0
 41
0.0
 42
0.0
 43
0.0
 44
0.0
 45
0.0
 46
0.0
 47
0.0
 48
0.0
 49
0.0
140
0.0
141
0.0
142
1.0
143
1.0
 70
   688
 72
     1
 73
     0
 74
     5
  7

 75
    16
147
1.0
148
0.0
149
0.0
100
AcDbLayout
  1
Layout2
 70
     1
 71
     2
 10
0.0
 20
0.0
 11
0.0
 21
0.0
 12
0.0
 22
0.0
 32
0.0
 14
0.0
 24
0.0
 34
0.0
 15
0.0
 25
0.0
 35
0.0
146
0.0
 13
0.0
 23
0.0
 33
0.0
 16
1.0
 26
0.0
 36
0.0
 17
0.0
 27
1.0
 37
0.0
 76
     0
330
23
  0
LAYOUT
  5
22
102
{ACAD_REACTORS
330
1A
102
}
330
1A
100
AcDbPlotSettings
  1

  2
none_device
  4
Letter_(8.50_x_11.00_Inches)
  6

 40
6.35
 41
6.35
 42
6.35000508
 43
6.35000508
 44
215.9
 45
279.4
 46
0.0
 47
0.0
 48
0.0
 49
0.0
140
0.0
141
0.0
142
1.0
143
1.0
 70
  1712
 72
     1
 73
     0
 74
     0
  7

 75
     0
147
1.0
148
0.0
149
0.0
100
AcDbLayout
  1
Model
 70
     1
 71
     0
 10
0.0
 20
0.0
 11
420.0
 21
297.0
 12
0.0
 22
0.0
 32
0.0
 14
0.0
 24
0.0
 34
0.0
 15
420.0
 25
297.0
 35
0.0
146
0.0
 13
0.0
 23
0.0
 33
0.0
 16
1.0
 26
0.0
 36
0.0
 17
0.0
 27
1.0
 37
0.0
 76
     0
330
1F
331
29
  0
MLINESTYLE
  5
18
102
{ACAD_REACTORS
330
17
102
}
330
17
100
AcDbMlineStyle
  2
Standard
 70
     0
  3

 62
   256
 51
90.0
 52
90.0
 71
     2
 49
0.5
 62
   256
  6
BYLAYER
 49
-0.5
 62
   256
  6
BYLAYER
  0
ACDBPLACEHOLDER
  5
F
102
{ACAD_REACTORS
330
E
102
}
330
E
  0
SCALE
  5
48
102
{ACAD_REACTORS
330
47
102
}
330
47
100
AcDbScale
 70
     0
300
1:1
140
1.0
141
1.0
290
     1
  0
SCALE
  5
49
102
{ACAD_REACTORS
330
47
102
}
330
47
100
AcDbScale
 70
     0
300
1:2
140
1.0
141
2.0
290
     0
  0
SCALE
  5
4A
102
{ACAD_REACTORS
330
47
102
}
330
47
100
AcDbScale
 70
     0
300
1:4
140
1.0
141
4.0
290
     0
  0
SCALE
  5
4B
102
{ACAD_REACTORS
330
47
102
}
330
47
100
AcDbScale
 70
     0
300
1:5
140
1.0
141
5.0
290
     0
  0
SCALE
  5
4C
102
{ACAD_REACTORS
330
47
102
}
330
47
100
AcDbScale
 70
     0
300
1:8
140
1.0
141
8.0
290
     0
  0
SCALE
  5
4D
102
{ACAD_REACTORS
330
47
102
}
330
47
100
AcDbScale
 70
     0
300
1:10
140
1.0
141
10.0
290
     0
  0
SCALE
  5
4E
102
{ACAD_REACTORS
330
47
102
}
330
47
100
AcDbScale
 70
     0
300
1:16
140
1.0
141
16.0
290
     0
  0
SCALE
  5
4F
102
{ACAD_REACTORS
330
47
102
}
330
47
100
AcDbScale
 70
     0
300
1:20
140
1.0
141
20.0
290
     0
  0
SCALE
  5
50
102
{ACAD_REACTORS
330
47
102
}
330
47
100
AcDbScale
 70
     0
300
1:30
140
1.0
141
30.0
290
     0
  0
SCALE
  5
51
102
{ACAD_REACTORS
330
47
102
}
330
47
100
AcDbScale
 70
     0
300
1:40
140
1.0
141
40.0
290
     0
  0
SCALE
  5
52
102
{ACAD_REACTORS
330
47
102
}
330
47
100
AcDbScale
 70
     0
300
1:50
140
1.0
141
50.0
290
     0
  0
SCALE
  5
53
102
{ACAD_REACTORS
330
47
102
}
330
47
100
AcDbScale
 70
     0
300
1:100
140
1.0
141
100.0
290
     0
  0
SCALE
  5
54
102
{ACAD_REACTORS
330
47
102
}
330
47
100
AcDbScale
 70
     0
300
2:1
140
2.0
141
1.0
290
     0
  0
SCALE
  5
55
102
{ACAD_REACTORS
330
47
102
}
330
47
100
AcDbScale
 70
     0
300
4:1
140
4.0
141
1.0
290
     0
  0
SCALE
  5
56
102
{ACAD_REACTORS
330
47
102
}
330
47
100
AcDbScale
 70
     0
300
8:1
140
8.0
141
1.0
290
     0
  0
SCALE
  5
57
102
{ACAD_REACTORS
330
47
102
}
330
47
100
AcDbScale
 70
     0
300
10:1
140
10.0
141
1.0
290
     0
  0
SCALE
  5
58
102
{ACAD_REACTORS
330
47
102
}
330
47
100
AcDbScale
 70
     0
300
100:1
140
100.0
141
1.0
290
     0
  0
ENDSEC
  0
EOF
