  0
SECTION
  2
HEADER
  9
$ACADVER
  1
AC1015
  9
$ACADMAINTVER
 70
     6
  9
$DWGCODEPAGE
  3
ANSI_1254
  9
$INSBASE
 10
0.0
 20
0.0
 30
0.0
  9
$EXTMIN
 10
0.0
 20
0.0
 30
0.0
  9
$EXTMAX
 10
1189.0
 20
841.0
 30
0.0
  9
$LIMMIN
 10
0.0
 20
0.0
  9
$LIMMAX
 10
1189.0
 20
841.0
  9
$ORTHOMODE
 70
     0
  9
$REGENMODE
 70
     1
  9
$FILLMODE
 70
     1
  9
$QTEXTMODE
 70
     0
  9
$MIRRTEXT
 70
     1
  9
$LTSCALE
 40
1.0
  9
$ATTMODE
 70
     1
  9
$TEXTSIZE
 40
4.9388888889
  9
$TRACEWID
 40
1.0
  9
$TEXTSTYLE
  7
Standard
  9
$CLAYER
  8
0
  9
$CELTYPE
  6
ByLayer
  9
$CECOLOR
 62
   256
  9
$CELTSCALE
 40
1.0
  9
$DISPSILH
 70
     0
  9
$DIMSCALE
 40
1.0
  9
$DIMASZ
 40
3.65
  9
$DIMEXO
 40
0.5
  9
$DIMDLI
 40
3.75
  9
$DIMRND
 40
0.0
  9
$DIMDLE
 40
0.0
  9
$DIMEXE
 40
1.0
  9
$DIMTP
 40
0.0
  9
$DIMTM
 40
0.0
  9
$DIMTXT
 40
4.2333333333
  9
$DIMCEN
 40
2.5
  9
$DIMTSZ
 40
0.0
  9
$DIMTOL
 70
     0
  9
$DIMLIM
 70
     0
  9
$DIMTIH
 70
     1
  9
$DIMTOH
 70
     1
  9
$DIMSE1
 70
     0
  9
$DIMSE2
 70
     0
  9
$DIMTAD
 70
     1
  9
$DIMZIN
 70
     0
  9
$DIMBLK
  1

  9
$DIMASO
 70
     1
  9
$DIMSHO
 70
     1
  9
$DIMPOST
  1

  9
$DIMAPOST
  1

  9
$DIMALT
 70
     0
  9
$DIMALTD
 70
     3
  9
$DIMALTF
 40
0.0393700787
  9
$DIMLFAC
 40
1.0
  9
$DIMTOFL
 70
     1
  9
$DIMTVP
 40
0.0
  9
$DIMTIX
 70
     0
  9
$DIMSOXD
 70
     0
  9
$DIMSAH
 70
     0
  9
$DIMBLK1
  1

  9
$DIMBLK2
  1

  9
$DIMSTYLE
  2
ISO-25
  9
$DIMCLRD
 70
     0
  9
$DIMCLRE
 70
     0
  9
$DIMCLRT
 70
     0
  9
$DIMTFAC
 40
1.0
  9
$DIMGAP
 40
1.524
  9
$DIMJUST
 70
     0
  9
$DIMSD1
 70
     0
  9
$DIMSD2
 70
     0
  9
$DIMTOLJ
 70
     0
  9
$DIMTZIN
 70
     0
  9
$DIMALTZ
 70
     0
  9
$DIMALTTZ
 70
     0
  9
$DIMUPT
 70
     0
  9
$DIMDEC
 70
     2
  9
$DIMTDEC
 70
     2
  9
$DIMALTU
 70
     2
  9
$DIMALTTD
 70
     3
  9
$DIMTXSTY
  7
Standard
  9
$DIMAUNIT
 70
     0
  9
$DIMADEC
 70
     2
  9
$DIMALTRND
 40
0.0
  9
$DIMAZIN
 70
     0
  9
$DIMDSEP
 70
    44
  9
$DIMATFIT
 70
     3
  9
$DIMFRAC
 70
     0
  9
$DIMLDRBLK
  1

  9
$DIMLUNIT
 70
     2
  9
$DIMLWD
 70
    -2
  9
$DIMLWE
 70
    -2
  9
$DIMTMOVE
 70
     0
  9
$LUNITS
 70
     2
  9
$LUPREC
 70
     2
  9
$SKETCHINC
 40
1.0
  9
$FILLETRAD
 40
10.0
  9
$AUNITS
 70
     0
  9
$AUPREC
 70
     2
  9
$MENU
  1
.
  9
$ELEVATION
 40
0.0
  9
$PELEVATION
 40
0.0
  9
$THICKNESS
 40
0.0
  9
$LIMCHECK
 70
     0
  9
$CHAMFERA
 40
0.0
  9
$CHAMFERB
 40
0.0
  9
$CHAMFERC
 40
0.0
  9
$CHAMFERD
 40
0.0
  9
$SKPOLY
 70
     0
  9
$TDCREATE
 40
2459101.788875197
  9
$TDUCREATE
 40
2459101.663875197
  9
$TDUPDATE
 40
2459101.788876053
  9
$TDUUPDATE
 40
2459101.663876053
  9
$TDINDWG
 40
0.0000000116
  9
$TDUSRTIMER
 40
0.0000000116
  9
$USRTIMER
 70
     1
  9
$ANGBASE
 50
0.0
  9
$ANGDIR
 70
     0
  9
$PDMODE
 70
     0
  9
$PDSIZE
 40
-1.0
  9
$PLINEWID
 40
0.0
  9
$SPLFRAME
 70
     0
  9
$SPLINETYPE
 70
     6
  9
$SPLINESEGS
 70
     8
  9
$HANDSEED
  5
1FD
  9
$SURFTAB1
 70
     6
  9
$SURFTAB2
 70
     6
  9
$SURFTYPE
 70
     6
  9
$SURFU
 70
     6
  9
$SURFV
 70
     6
  9
$UCSBASE
  2

  9
$UCSNAME
  2

  9
$UCSORG
 10
0.0
 20
0.0
 30
0.0
  9
$UCSXDIR
 10
1.0
 20
0.0
 30
0.0
  9
$UCSYDIR
 10
0.0
 20
1.0
 30
0.0
  9
$UCSORTHOREF
  2

  9
$UCSORTHOVIEW
 70
     0
  9
$UCSORGTOP
 10
0.0
 20
0.0
 30
0.0
  9
$UCSORGBOTTOM
 10
0.0
 20
0.0
 30
0.0
  9
$UCSORGLEFT
 10
0.0
 20
0.0
 30
0.0
  9
$UCSORGRIGHT
 10
0.0
 20
0.0
 30
0.0
  9
$UCSORGFRONT
 10
0.0
 20
0.0
 30
0.0
  9
$UCSORGBACK
 10
0.0
 20
0.0
 30
0.0
  9
$PUCSBASE
  2

  9
$PUCSNAME
  2

  9
$PUCSORG
 10
0.0
 20
0.0
 30
0.0
  9
$PUCSXDIR
 10
1.0
 20
0.0
 30
0.0
  9
$PUCSYDIR
 10
0.0
 20
1.0
 30
0.0
  9
$PUCSORTHOREF
  2

  9
$PUCSORTHOVIEW
 70
     0
  9
$PUCSORGTOP
 10
0.0
 20
0.0
 30
0.0
  9
$PUCSORGBOTTOM
 10
0.0
 20
0.0
 30
0.0
  9
$PUCSORGLEFT
 10
0.0
 20
0.0
 30
0.0
  9
$PUCSORGRIGHT
 10
0.0
 20
0.0
 30
0.0
  9
$PUCSORGFRONT
 10
0.0
 20
0.0
 30
0.0
  9
$PUCSORGBACK
 10
0.0
 20
0.0
 30
0.0
  9
$USERI1
 70
     0
  9
$USERI2
 70
     0
  9
$USERI3
 70
     0
  9
$USERI4
 70
     0
  9
$USERI5
 70
     0
  9
$USERR1
 40
0.0
  9
$USERR2
 40
0.0
  9
$USERR3
 40
0.0
  9
$USERR4
 40
0.0
  9
$USERR5
 40
0.0
  9
$WORLDVIEW
 70
     1
  9
$SHADEDGE
 70
     3
  9
$SHADEDIF
 70
    70
  9
$TILEMODE
 70
     1
  9
$MAXACTVP
 70
    64
  9
$PINSBASE
 10
0.0
 20
0.0
 30
0.0
  9
$PLIMCHECK
 70
     0
  9
$PEXTMIN
 10
1.0000000000E+20
 20
1.0000000000E+20
 30
1.0000000000E+20
  9
$PEXTMAX
 10
-1.0000000000E+20
 20
-1.0000000000E+20
 30
-1.0000000000E+20
  9
$PLIMMIN
 10
0.0
 20
0.0
  9
$PLIMMAX
 10
420.0
 20
297.0
  9
$UNITMODE
 70
     0
  9
$VISRETAIN
 70
     1
  9
$PLINEGEN
 70
     0
  9
$PSLTSCALE
 70
     1
  9
$TREEDEPTH
 70
  3020
  9
$CMLSTYLE
  2
Standard
  9
$CMLJUST
 70
     0
  9
$CMLSCALE
 40
20.0
  9
$PROXYGRAPHICS
 70
     1
  9
$MEASUREMENT
 70
     1
  9
$CELWEIGHT
370
    -1
  9
$ENDCAPS
280
     0
  9
$JOINSTYLE
280
     0
  9
$LWDISPLAY
290
     1
  9
$INSUNITS
 70
     4
  9
$HYPERLINKBASE
  1

  9
$STYLESHEET
  1

  9
$XEDIT
290
     1
  9
$CEPSNTYPE
380
     0
  9
$PSTYLEMODE
290
     1
  9
$FINGERPRINTGUID
  2
{4ceb87cd-1b1a-49e6-92f3-5a49b955e620}
  9
$VERSIONGUID
  2
{FAEB1C32-E019-11D5-929B-00C0DF256EC4}
  9
$EXTNAMES
290
     1
  9
$PSVPSCALE
 40
0.0
  9
$OLESTARTUP
290
     0
  0
ENDSEC
  0
SECTION
  2
CLASSES
  0
CLASS
  1
ACDBDICTIONARYWDFLT
  2
AcDbDictionaryWithDefault
  3
ObjectDBX Classes
 90
        0
280
     0
281
     0
  0
CLASS
  1
VISUALSTYLE
  2
AcDbVisualStyle
  3
ObjectDBX Classes
 90
     4095
280
     0
281
     0
  0
CLASS
  1
MATERIAL
  2
AcDbMaterial
  3
ObjectDBX Classes
 90
     1153
280
     0
281
     0
  0
CLASS
  1
SCALE
  2
AcDbScale
  3
ObjectDBX Classes
 90
     1153
280
     0
281
     0
  0
CLASS
  1
TABLESTYLE
  2
AcDbTableStyle
  3
ObjectDBX Classes
 90
     4095
280
     0
281
     0
  0
CLASS
  1
MLEADERSTYLE
  2
AcDbMLeaderStyle
  3
ACDB_MLEADERSTYLE_CLASS
 90
     4095
280
     0
281
     0
  0
CLASS
  1
SUN
  2
AcDbSun
  3
SCENEOE
 90
     1153
280
     0
281
     0
  0
CLASS
  1
ACDBPLACEHOLDER
  2
AcDbPlaceHolder
  3
ObjectDBX Classes
 90
        0
280
     0
281
     0
  0
CLASS
  1
LAYOUT
  2
AcDbLayout
  3
ObjectDBX Classes
 90
        0
280
     0
281
     0
  0
ENDSEC
  0
SECTION
  2
TABLES
  0
TABLE
  2
VPORT
  5
8
330
0
100
AcDbSymbolTable
 70
     1
  0
VPORT
  5
29
330
8
100
AcDbSymbolTableRecord
100
AcDbViewportTableRecord
  2
*Active
 70
     0
 10
0.0
 20
0.0
 11
1.0
 21
1.0
 12
594.5
 22
420.5
 13
0.0
 23
0.0
 14
10.0
 24
10.0
 15
10.0
 25
10.0
 16
0.0
 26
0.0
 36
1.0
 17
0.0
 27
0.0
 37
0.0
 40
841.0
 41
1.4137931034
 42
50.0
 43
0.0
 44
0.0
 50
0.0
 51
0.0
 71
     0
 72
  2000
 73
     1
 74
     3
 75
     0
 76
     0
 77
     0
 78
     0
281
     0
 65
     1
110
0.0
120
0.0
130
0.0
111
1.0
121
0.0
131
0.0
112
0.0
122
1.0
132
0.0
 79
     0
146
0.0
  0
ENDTAB
  0
TABLE
  2
LTYPE
  5
5
330
0
100
AcDbSymbolTable
 70
     6
  0
LTYPE
  5
14
330
5
100
AcDbSymbolTableRecord
100
AcDbLinetypeTableRecord
  2
ByBlock
 70
     0
  3

 72
    65
 73
     0
 40
0.0
  0
LTYPE
  5
15
330
5
100
AcDbSymbolTableRecord
100
AcDbLinetypeTableRecord
  2
ByLayer
 70
     0
  3

 72
    65
 73
     0
 40
0.0
  0
LTYPE
  5
16
330
5
100
AcDbSymbolTableRecord
100
AcDbLinetypeTableRecord
  2
Continuous
 70
     0
  3
Solid line
 72
    65
 73
     0
 40
0.0
  0
LTYPE
  5
6E
330
5
100
AcDbSymbolTableRecord
100
AcDbLinetypeTableRecord
  2
HIDDEN
 70
     0
  3
Hidden __ __ __ __ __ __ __ __ __ __ __ __ __ __
 72
    65
 73
     2
 40
1.905
 49
1.27
 74
     0
 49
-0.635
 74
     0
  0
LTYPE
  5
6F
330
5
100
AcDbSymbolTableRecord
100
AcDbLinetypeTableRecord
  2
PHANTOM
 70
     0
  3
Phantom ______  __  __  ______  __  __  ______
 72
    65
 73
     6
 40
12.7
 49
6.35
 74
     0
 49
-1.27
 74
     0
 49
1.27
 74
     0
 49
-1.27
 74
     0
 49
1.27
 74
     0
 49
-1.27
 74
     0
  0
LTYPE
  5
70
330
5
100
AcDbSymbolTableRecord
100
AcDbLinetypeTableRecord
  2
CENTER
 70
     0
  3
Center ____ _ ____ _ ____ _ ____ _ ____ _ ____
 72
    65
 73
     4
 40
10.16
 49
6.35
 74
     0
 49
-1.27
 74
     0
 49
1.27
 74
     0
 49
-1.27
 74
     0
  0
LTYPE
  5
71
330
5
100
AcDbSymbolTableRecord
100
AcDbLinetypeTableRecord
  2
CENTERX2
 70
     0
  3
Center (2x) ________  __  ________  __  _____
 72
    65
 73
     4
 40
20.32
 49
12.7
 74
     0
 49
-2.54
 74
     0
 49
2.54
 74
     0
 49
-2.54
 74
     0
  0
LTYPE
  5
72
330
5
100
AcDbSymbolTableRecord
100
AcDbLinetypeTableRecord
  2
DOT2
 70
     0
  3
Dot (.5x) ........................................
 72
    65
 73
     2
 40
0.635
 49
0.0
 74
     0
 49
-0.635
 74
     0
  0
ENDTAB
  0
TABLE
  2
LAYER
  5
2
330
0
100
AcDbSymbolTable
 70
     5
  0
LAYER
  5
10
330
2
100
AcDbSymbolTableRecord
100
AcDbLayerTableRecord
  2
0
 70
     0
 62
     7
  6
Continuous
370
    -3
390
F
  0
LAYER
  5
73
330
2
100
AcDbSymbolTableRecord
100
AcDbLayerTableRecord
  2
FORMAT
 70
     0
 62
     7
  6
Continuous
370
    -3
390
F
  0
LAYER
  5
74
330
2
100
AcDbSymbolTableRecord
100
AcDbLayerTableRecord
  2
SLD-0
 70
     0
 62
   179
  6
Continuous
370
    -3
390
F
  0
LAYER
  5
75
330
2
100
AcDbSymbolTableRecord
100
AcDbLayerTableRecord
  2
AAA_EKSEN
 70
     0
 62
     1
  6
CENTER
370
    -3
390
F
  0
LAYER
  5
76
330
2
100
AcDbSymbolTableRecord
100
AcDbLayerTableRecord
  2
03
 70
     0
 62
     3
  6
HIDDEN
370
    -3
390
F
  0
ENDTAB
  0
TABLE
  2
STYLE
  5
3
330
0
100
AcDbSymbolTable
 70
     1
  0
STYLE
  5
11
330
3
100
AcDbSymbolTableRecord
100
AcDbTextStyleTableRecord
  2
Standard
 70
     0
 40
0.0
 41
1.0
 50
0.0
 71
     0
 42
4.9388888889
  3
txt
  4

  0
ENDTAB
  0
TABLE
  2
VIEW
  5
6
330
0
100
AcDbSymbolTable
 70
     0
  0
ENDTAB
  0
TABLE
  2
UCS
  5
7
330
0
100
AcDbSymbolTable
 70
     0
  0
ENDTAB
  0
TABLE
  2
APPID
  5
9
330
0
100
AcDbSymbolTable
 70
     1
  0
APPID
  5
12
330
9
100
AcDbSymbolTableRecord
100
AcDbRegAppTableRecord
  2
ACAD
 70
     0
  0
ENDTAB
  0
TABLE
  2
DIMSTYLE
  5
A
330
0
100
AcDbSymbolTable
 70
     1
100
AcDbDimStyleTable
  0
DIMSTYLE
105
27
330
A
100
AcDbSymbolTableRecord
100
AcDbDimStyleTableRecord
  2
ISO-25
 70
     0
 41
2.5
 42
0.625
 43
3.75
 44
1.25
 73
     0
 74
     0
 77
     1
 78
     8
140
2.5
141
2.5
143
0.0393700787
147
0.625
171
     3
172
     1
178
     0
271
     2
272
     2
274
     3
278
    44
283
     0
284
     8
340
11
  0
ENDTAB
  0
TABLE
  2
BLOCK_RECORD
  5
1
330
0
100
AcDbSymbolTable
 70
     1
  0
BLOCK_RECORD
  5
1F
330
1
100
AcDbSymbolTableRecord
100
AcDbBlockTableRecord
  2
*Model_Space
340
22
  0
BLOCK_RECORD
  5
1B
330
1
100
AcDbSymbolTableRecord
100
AcDbBlockTableRecord
  2
*Paper_Space
340
1E
  0
BLOCK_RECORD
  5
23
330
1
100
AcDbSymbolTableRecord
100
AcDbBlockTableRecord
  2
*Paper_Space0
340
26
  0
ENDTAB
  0
ENDSEC
  0
SECTION
  2
BLOCKS
  0
BLOCK
  5
20
330
1F
100
AcDbEntity
  8
0
100
AcDbBlockBegin
  2
*Model_Space
 70
     0
 10
0.0
 20
0.0
 30
0.0
  3
*Model_Space
  1

  0
ENDBLK
  5
21
330
1F
100
AcDbEntity
  8
0
100
AcDbBlockEnd
  0
BLOCK
  5
1C
330
1B
100
AcDbEntity
 67
     1
  8
0
100
AcDbBlockBegin
  2
*Paper_Space
 70
     0
 10
0.0
 20
0.0
 30
0.0
  3
*Paper_Space
  1

  0
ENDBLK
  5
1D
330
1B
100
AcDbEntity
 67
     1
  8
0
100
AcDbBlockEnd
  0
BLOCK
  5
24
330
23
100
AcDbEntity
  8
0
100
AcDbBlockBegin
  2
*Paper_Space0
 70
     0
 10
0.0
 20
0.0
 30
0.0
  3
*Paper_Space0
  1

  0
ENDBLK
  5
25
330
23
100
AcDbEntity
  8
0
100
AcDbBlockEnd
  0
ENDSEC
  0
SECTION
  2
ENTITIES
  0
LINE
  5
77
330
1F
100
AcDbEntity
  8
0
  6
Continuous
 62
     7
370
    25
100
AcDbLine
 10
469.2832872894
 20
616.783358473
 30
0.0
 11
469.2832872894
 21
617.5333599929
 31
0.0
  0
LINE
  5
78
330
1F
100
AcDbEntity
  8
0
  6
Continuous
 62
     7
370
    25
100
AcDbLine
 10
469.2832872894
 20
757.5333568637
 30
0.0
 11
469.2832872894
 21
758.2833621089
 31
0.0
  0
LINE
  5
79
330
1F
100
AcDbEntity
  8
0
  6
Continuous
 62
     7
370
    25
100
AcDbLine
 10
632.6500222709
 20
758.2833621089
 30
0.0
 11
632.6500222709
 21
757.5333568637
 31
0.0
  0
LINE
  5
7A
330
1F
100
AcDbEntity
  8
0
  6
Continuous
 62
     7
370
    25
100
AcDbLine
 10
632.6500222709
 20
617.5333599929
 30
0.0
 11
632.6500222709
 21
616.783358473
 31
0.0
  0
LINE
  5
7B
330
1F
100
AcDbEntity
  8
0
  6
Continuous
 62
     7
370
    25
100
AcDbLine
 10
643.9666569855
 20
646.2938350995
 30
0.0
 11
645.9666535881
 21
646.2938350995
 31
0.0
  0
LINE
  5
7C
330
1F
100
AcDbEntity
  8
0
  6
Continuous
 62
     7
370
    25
100
AcDbLine
 10
645.9666535881
 20
658.7938355186
 30
0.0
 11
643.9666569855
 21
658.7938355186
 31
0.0
  0
LINE
  5
7D
330
1F
100
AcDbEntity
  8
0
  6
Continuous
 62
     7
370
    25
100
AcDbLine
 10
457.9666525748
 20
658.7938355186
 30
0.0
 11
455.9666559722
 21
658.7938355186
 31
0.0
  0
LINE
  5
7E
330
1F
100
AcDbEntity
  8
0
  6
Continuous
 62
     7
370
    25
100
AcDbLine
 10
455.9666559722
 20
646.2938350995
 30
0.0
 11
457.9666525748
 21
646.2938350995
 31
0.0
  0
LINE
  5
7F
330
1F
100
AcDbEntity
  8
0
  6
Continuous
 62
     7
370
    25
100
AcDbLine
 10
643.9666569855
 20
716.2938344662
 30
0.0
 11
645.9666535881
 21
716.2938344662
 31
0.0
  0
LINE
  5
80
330
1F
100
AcDbEntity
  8
0
  6
Continuous
 62
     7
370
    25
100
AcDbLine
 10
645.9666535881
 20
728.7938374464
 30
0.0
 11
643.9666569855
 21
728.7938374464
 31
0.0
  0
LINE
  5
81
330
1F
100
AcDbEntity
  8
0
  6
Continuous
 62
     7
370
    25
100
AcDbLine
 10
457.9666525748
 20
728.7938374464
 30
0.0
 11
455.9666559722
 21
728.7938374464
 31
0.0
  0
LINE
  5
82
330
1F
100
AcDbEntity
  8
0
  6
Continuous
 62
     7
370
    25
100
AcDbLine
 10
455.9666559722
 20
716.2938344662
 30
0.0
 11
457.9666525748
 21
716.2938344662
 31
0.0
  0
ARC
  5
83
330
1F
100
AcDbEntity
  8
0
  6
Continuous
 62
     7
370
    25
100
AcDbCircle
 10
645.2854558226
 20
721.3633961582
 30
0.0
 40
4.330736029719114
100
AcDbArc
 50
290.0
 51
336.8223913264
  0
ARC
  5
84
330
1F
100
AcDbEntity
  8
0
  6
Continuous
 62
     7
370
    25
100
AcDbCircle
 10
645.2854558226
 20
723.7242747788
 30
0.0
 40
4.330736029719159
100
AcDbArc
 50
23.1776086736
 51
70.0
  0
LINE
  5
85
330
1F
100
AcDbEntity
  8
0
  6
Continuous
 62
     7
370
    25
100
AcDbLine
 10
645.9666535881
 20
717.2938364927
 30
0.0
 11
646.7666522291
 21
717.2938364927
 31
0.0
  0
LINE
  5
86
330
1F
100
AcDbEntity
  8
0
  6
Continuous
 62
     7
370
    25
100
AcDbLine
 10
646.7666522291
 20
727.7938354199
 30
0.0
 11
645.9666535881
 21
727.7938354199
 31
0.0
  0
LINE
  5
87
330
1F
100
AcDbEntity
  8
0
  6
Continuous
 62
     7
370
    25
100
AcDbLine
 10
636.7166534688
 20
725.5438345854
 30
0.0
 11
635.9666556742
 21
725.5438345854
 31
0.0
  0
LINE
  5
88
330
1F
100
AcDbEntity
  8
0
  6
Continuous
 62
     7
370
    25
100
AcDbLine
 10
635.9666556742
 20
719.5438373272
 30
0.0
 11
636.7166534688
 21
719.5438373272
 31
0.0
  0
LINE
  5
89
330
1F
100
AcDbEntity
  8
0
  6
Continuous
 62
     7
370
    25
100
AcDbLine
 10
455.9666559722
 20
657.7938353547
 30
0.0
 11
455.1666573312
 21
657.7938353547
 31
0.0
  0
LINE
  5
8A
330
1F
100
AcDbEntity
  8
0
  6
Continuous
 62
     7
370
    25
100
AcDbLine
 10
455.1666573312
 20
647.2938352634
 30
0.0
 11
455.9666559722
 21
647.2938352634
 31
0.0
  0
ARC
  5
8B
330
1F
100
AcDbEntity
  8
0
  6
Continuous
 62
     7
370
    25
100
AcDbCircle
 10
456.6478537377
 20
653.7242747788
 30
0.0
 40
4.330736029719126
100
AcDbArc
 50
110.0
 51
156.8223913264
  0
ARC
  5
8C
330
1F
100
AcDbEntity
  8
0
  6
Continuous
 62
     7
370
    25
100
AcDbCircle
 10
456.6478537377
 20
651.3633961582
 30
0.0
 40
4.330736029719233
100
AcDbArc
 50
203.1776086736
 51
250.0
  0
LINE
  5
8D
330
1F
100
AcDbEntity
  8
0
  6
Continuous
 62
     7
370
    25
100
AcDbLine
 10
465.2166560915
 20
649.5438351665
 30
0.0
 11
465.9666538861
 21
649.5438351665
 31
0.0
  0
LINE
  5
8E
330
1F
100
AcDbEntity
  8
0
  6
Continuous
 62
     7
370
    25
100
AcDbLine
 10
465.9666538861
 20
655.5438356843
 30
0.0
 11
465.2166560915
 21
655.5438356843
 31
0.0
  0
LINE
  5
8F
330
1F
100
AcDbEntity
  8
0
  6
Continuous
 62
     7
370
    25
100
AcDbLine
 10
645.9666535881
 20
647.2938352634
 30
0.0
 11
646.7666522291
 21
647.2938352634
 31
0.0
  0
LINE
  5
90
330
1F
100
AcDbEntity
  8
0
  6
Continuous
 62
     7
370
    25
100
AcDbLine
 10
646.7666522291
 20
657.7938353547
 30
0.0
 11
645.9666535881
 21
657.7938353547
 31
0.0
  0
ARC
  5
91
330
1F
100
AcDbEntity
  8
0
  6
Continuous
 62
     7
370
    25
100
AcDbCircle
 10
645.2854558226
 20
651.3633961582
 30
0.0
 40
4.330736029719009
100
AcDbArc
 50
290.0
 51
336.8223913264
  0
ARC
  5
92
330
1F
100
AcDbEntity
  8
0
  6
Continuous
 62
     7
370
    25
100
AcDbCircle
 10
645.2854558226
 20
653.7242747788
 30
0.0
 40
4.330736029719106
100
AcDbArc
 50
23.1776086736
 51
70.0
  0
LINE
  5
93
330
1F
100
AcDbEntity
  8
0
  6
Continuous
 62
     7
370
    25
100
AcDbLine
 10
636.7166534688
 20
655.5438356843
 30
0.0
 11
635.9666556742
 21
655.5438356843
 31
0.0
  0
LINE
  5
94
330
1F
100
AcDbEntity
  8
0
  6
Continuous
 62
     7
370
    25
100
AcDbLine
 10
635.9666556742
 20
649.5438351665
 30
0.0
 11
636.7166534688
 21
649.5438351665
 31
0.0
  0
LINE
  5
95
330
1F
100
AcDbEntity
  8
0
  6
Continuous
 62
     7
370
    25
100
AcDbLine
 10
455.9666559722
 20
727.7938354199
 30
0.0
 11
455.1666573312
 21
727.7938354199
 31
0.0
  0
LINE
  5
96
330
1F
100
AcDbEntity
  8
0
  6
Continuous
 62
     7
370
    25
100
AcDbLine
 10
455.1666573312
 20
717.2938364927
 30
0.0
 11
455.9666559722
 21
717.2938364927
 31
0.0
  0
ARC
  5
97
330
1F
100
AcDbEntity
  8
0
  6
Continuous
 62
     7
370
    25
100
AcDbCircle
 10
456.6478537377
 20
723.7242747788
 30
0.0
 40
4.330736029719062
100
AcDbArc
 50
110.0
 51
156.8223913264
  0
ARC
  5
98
330
1F
100
AcDbEntity
  8
0
  6
Continuous
 62
     7
370
    25
100
AcDbCircle
 10
456.6478537377
 20
721.3633961582
 30
0.0
 40
4.330736029719062
100
AcDbArc
 50
203.1776086736
 51
250.0
  0
LINE
  5
99
330
1F
100
AcDbEntity
  8
0
  6
Continuous
 62
     7
370
    25
100
AcDbLine
 10
465.2166560915
 20
719.5438373272
 30
0.0
 11
465.9666538861
 21
719.5438373272
 31
0.0
  0
LINE
  5
9A
330
1F
100
AcDbEntity
  8
0
  6
Continuous
 62
     7
370
    25
100
AcDbLine
 10
465.9666538861
 20
725.5438345854
 30
0.0
 11
465.2166560915
 21
725.5438345854
 31
0.0
  0
LINE
  5
9B
330
1F
100
AcDbEntity
  8
0
  6
Continuous
 62
     7
370
    25
100
AcDbLine
 10
549.9866731621
 20
617.5333599929
 30
0.0
 11
549.9866731621
 21
616.8658252244
 31
0.0
  0
LINE
  5
9C
330
1F
100
AcDbEntity
  8
0
  6
Continuous
 62
     7
370
    25
100
AcDbLine
 10
552.5525310001
 20
616.8658252244
 30
0.0
 11
552.5525310001
 21
617.5333599929
 31
0.0
  0
LINE
  5
9D
330
1F
100
AcDbEntity
  8
0
  6
Continuous
 62
     7
370
    25
100
AcDbLine
 10
550.0525309977
 20
617.5333599929
 30
0.0
 11
550.0525309977
 21
616.8658252244
 31
0.0
  0
LINE
  5
9E
330
1F
100
AcDbEntity
  8
0
  6
Continuous
 62
     7
370
    25
100
AcDbLine
 10
555.3172830183
 20
616.783358473
 30
0.0
 11
555.234817664
 21
616.8658252244
 31
0.0
  0
LINE
  5
9F
330
1F
100
AcDbEntity
  8
0
  6
Continuous
 62
     7
370
    25
100
AcDbLine
 10
547.4031335831
 20
616.8658252244
 30
0.0
 11
547.3206682287
 21
616.783358473
 31
0.0
  0
CIRCLE
  5
A0
330
1F
100
AcDbEntity
  8
0
  6
Continuous
 62
     7
370
    25
100
AcDbCircle
 10
595.9666547802
 20
251.2833592479
 30
0.0
 40
8.649999999999977
  0
LINE
  5
A1
330
1F
100
AcDbEntity
  8
0
  6
Continuous
 62
     7
370
    25
100
AcDbLine
 10
457.9666525748
 20
211.2833711688
 30
0.0
 11
457.9666525748
 21
808.2833591287
 31
0.0
  0
LINE
  5
A2
330
1F
100
AcDbEntity
  8
0
  6
Continuous
 62
     7
370
    25
100
AcDbLine
 10
459.9666566279
 20
808.2833591287
 30
0.0
 11
459.9666566279
 21
211.2833711688
 31
0.0
  0
LINE
  5
A3
330
1F
100
AcDbEntity
  8
0
  6
Continuous
 62
     7
370
    25
100
AcDbLine
 10
459.9666566279
 20
211.2833711688
 30
0.0
 11
457.9666525748
 21
211.2833711688
 31
0.0
  0
LINE
  5
A4
330
1F
100
AcDbEntity
  8
0
  6
Continuous
 62
     7
370
    25
100
AcDbLine
 10
641.9666529324
 20
211.2833711688
 30
0.0
 11
641.9666529324
 21
808.2833591287
 31
0.0
  0
ARC
  5
A5
330
1F
100
AcDbEntity
  8
0
  6
Continuous
 62
     7
370
    25
100
AcDbCircle
 10
634.7166547802
 20
618.7833592479
 30
0.0
 40
2.0
100
AcDbArc
 50
270.0
 51
0.0
  0
LINE
  5
A6
330
1F
100
AcDbEntity
  8
0
  6
Continuous
 62
     7
370
    25
100
AcDbLine
 10
636.7166534688
 20
618.7833588008
 30
0.0
 11
636.7166534688
 21
756.2833580558
 31
0.0
  0
ARC
  5
A7
330
1F
100
AcDbEntity
  8
0
  6
Continuous
 62
     7
370
    25
100
AcDbCircle
 10
634.7166547802
 20
756.2833592479
 30
0.0
 40
2.0
100
AcDbArc
 50
0.0
 51
90.0
  0
ARC
  5
A8
330
1F
100
AcDbEntity
  8
0
  6
Continuous
 62
     7
370
    25
100
AcDbCircle
 10
467.2166547802
 20
756.2833592479
 30
0.0
 40
2.0
100
AcDbArc
 50
90.0
 51
180.0
  0
LINE
  5
A9
330
1F
100
AcDbEntity
  8
0
  6
Continuous
 62
     7
370
    25
100
AcDbLine
 10
465.2166560915
 20
756.2833580558
 30
0.0
 11
465.2166560915
 21
618.7833588008
 31
0.0
  0
CIRCLE
  5
AA
330
1F
100
AcDbEntity
  8
0
  6
Continuous
 62
     7
370
    25
100
AcDbCircle
 10
505.9666547802
 20
251.2833592479
 30
0.0
 40
8.649999999999977
  0
LINE
  5
AB
330
1F
100
AcDbEntity
  8
0
  6
Continuous
 62
     7
370
    25
100
AcDbLine
 10
459.9666566279
 20
211.2833711688
 30
0.0
 11
641.9666529324
 21
211.2833711688
 31
0.0
  0
LINE
  5
AC
330
1F
100
AcDbEntity
  8
0
  6
Continuous
 62
     7
370
    25
100
AcDbLine
 10
467.216652694
 20
616.783358473
 30
0.0
 11
634.7166568663
 21
616.783358473
 31
0.0
  0
ARC
  5
AD
330
1F
100
AcDbEntity
  8
0
  6
Continuous
 62
     7
370
    25
100
AcDbCircle
 10
467.2166547802
 20
618.7833592479
 30
0.0
 40
2.0
100
AcDbArc
 50
180.0
 51
270.0
  0
LINE
  5
AE
330
1F
100
AcDbEntity
  8
0
  6
Continuous
 62
     7
370
    25
100
AcDbLine
 10
634.7166568663
 20
758.2833621089
 30
0.0
 11
467.216652694
 21
758.2833621089
 31
0.0
  0
LINE
  5
AF
330
1F
100
AcDbEntity
  8
0
  6
Continuous
 62
     7
370
    25
100
AcDbLine
 10
643.9666569855
 20
808.2833591287
 30
0.0
 11
643.9666569855
 21
211.2833711688
 31
0.0
  0
LINE
  5
B0
330
1F
100
AcDbEntity
  8
0
  6
Continuous
 62
     7
370
    25
100
AcDbLine
 10
643.9666569855
 20
211.2833711688
 30
0.0
 11
641.9666529324
 21
211.2833711688
 31
0.0
  0
LINE
  5
B1
330
1F
100
AcDbEntity
  8
0
  6
Continuous
 62
     7
370
    25
100
AcDbLine
 10
532.966655555
 20
758.2833621089
 30
0.0
 11
532.966655555
 21
757.5333568637
 31
0.0
  0
LINE
  5
B2
330
1F
100
AcDbEntity
  8
0
  6
Continuous
 62
     7
370
    25
100
AcDbLine
 10
532.966655555
 20
617.5333599929
 30
0.0
 11
532.966655555
 21
616.783358473
 31
0.0
  0
LINE
  5
B3
330
1F
100
AcDbEntity
  8
0
  6
Continuous
 62
     7
370
    25
100
AcDbLine
 10
534.4666548696
 20
758.2833621089
 30
0.0
 11
534.4666548696
 21
757.5333568637
 31
0.0
  0
LINE
  5
B4
330
1F
100
AcDbEntity
  8
0
  6
Continuous
 62
     7
370
    25
100
AcDbLine
 10
534.4666548696
 20
617.5333599929
 30
0.0
 11
534.4666548696
 21
616.783358473
 31
0.0
  0
LINE
  5
B5
330
1F
100
AcDbEntity
  8
0
  6
Continuous
 62
     7
370
    25
100
AcDbLine
 10
568.9666540053
 20
758.2833621089
 30
0.0
 11
568.9666540053
 21
757.5333568637
 31
0.0
  0
LINE
  5
B6
330
1F
100
AcDbEntity
  8
0
  6
Continuous
 62
     7
370
    25
100
AcDbLine
 10
568.9666540053
 20
617.5333599929
 30
0.0
 11
568.9666540053
 21
616.783358473
 31
0.0
  0
LINE
  5
B7
330
1F
100
AcDbEntity
  8
0
  6
Continuous
 62
     7
370
    25
100
AcDbLine
 10
567.4666546907
 20
758.2833621089
 30
0.0
 11
567.4666546907
 21
757.5333568637
 31
0.0
  0
LINE
  5
B8
330
1F
100
AcDbEntity
  8
0
  6
Continuous
 62
     7
370
    25
100
AcDbLine
 10
567.4666546907
 20
617.5333599929
 30
0.0
 11
567.4666546907
 21
616.783358473
 31
0.0
  0
LINE
  5
B9
330
1F
100
AcDbEntity
  8
0
  6
Continuous
 62
     7
370
    25
100
AcDbLine
 10
497.966655406
 20
758.2833621089
 30
0.0
 11
497.966655406
 21
757.5333568637
 31
0.0
  0
LINE
  5
BA
330
1F
100
AcDbEntity
  8
0
  6
Continuous
 62
     7
370
    25
100
AcDbLine
 10
497.966655406
 20
617.5333599929
 30
0.0
 11
497.966655406
 21
616.783358473
 31
0.0
  0
LINE
  5
BB
330
1F
100
AcDbEntity
  8
0
  6
Continuous
 62
     7
370
    25
100
AcDbLine
 10
499.4666547205
 20
758.2833621089
 30
0.0
 11
499.4666547205
 21
757.5333568637
 31
0.0
  0
LINE
  5
BC
330
1F
100
AcDbEntity
  8
0
  6
Continuous
 62
     7
370
    25
100
AcDbLine
 10
499.4666547205
 20
617.5333599929
 30
0.0
 11
499.4666547205
 21
616.783358473
 31
0.0
  0
LINE
  5
BD
330
1F
100
AcDbEntity
  8
0
  6
Continuous
 62
     7
370
    25
100
AcDbLine
 10
602.4666548398
 20
758.2833621089
 30
0.0
 11
602.4666548398
 21
757.5333568637
 31
0.0
  0
LINE
  5
BE
330
1F
100
AcDbEntity
  8
0
  6
Continuous
 62
     7
370
    25
100
AcDbLine
 10
602.4666548398
 20
617.5333599929
 30
0.0
 11
602.4666548398
 21
616.783358473
 31
0.0
  0
LINE
  5
BF
330
1F
100
AcDbEntity
  8
0
  6
Continuous
 62
     7
370
    25
100
AcDbLine
 10
603.9666541543
 20
758.2833621089
 30
0.0
 11
603.9666541543
 21
757.5333568637
 31
0.0
  0
LINE
  5
C0
330
1F
100
AcDbEntity
  8
0
  6
Continuous
 62
     7
370
    25
100
AcDbLine
 10
603.9666541543
 20
617.5333599929
 30
0.0
 11
603.9666541543
 21
616.783358473
 31
0.0
  0
LINE
  5
C1
330
1F
100
AcDbEntity
  8
0
  6
Continuous
 62
     7
370
    25
100
AcDbLine
 10
645.9666535881
 20
649.2794997428
 30
0.0
 11
645.9666535881
 21
646.2938350995
 31
0.0
  0
LINE
  5
C2
330
1F
100
AcDbEntity
  8
0
  6
Continuous
 62
     7
370
    25
100
AcDbLine
 10
645.9666535881
 20
658.7938355186
 30
0.0
 11
645.9666535881
 21
649.2794997428
 31
0.0
  0
LINE
  5
C3
330
1F
100
AcDbEntity
  8
0
  6
Continuous
 62
     7
370
    25
100
AcDbLine
 10
455.9666559722
 20
646.2938350995
 30
0.0
 11
455.9666559722
 21
658.7938355186
 31
0.0
  0
LINE
  5
C4
330
1F
100
AcDbEntity
  8
0
  6
Continuous
 62
     7
370
    25
100
AcDbLine
 10
645.9666535881
 20
719.2795019035
 30
0.0
 11
645.9666535881
 21
716.2938344662
 31
0.0
  0
LINE
  5
C5
330
1F
100
AcDbEntity
  8
0
  6
Continuous
 62
     7
370
    25
100
AcDbLine
 10
645.9666535881
 20
728.7938374464
 30
0.0
 11
645.9666535881
 21
719.2795019035
 31
0.0
  0
LINE
  5
C6
330
1F
100
AcDbEntity
  8
0
  6
Continuous
 62
     7
370
    25
100
AcDbLine
 10
455.9666559722
 20
716.2938344662
 30
0.0
 11
455.9666559722
 21
728.7938374464
 31
0.0
  0
LINE
  5
C7
330
1F
100
AcDbEntity
  8
0
  6
Continuous
 62
     7
370
    25
100
AcDbLine
 10
646.7666522291
 20
723.5033478026
 30
0.0
 11
646.7666522291
 21
727.7938354199
 31
0.0
  0
LINE
  5
C8
330
1F
100
AcDbEntity
  8
0
  6
Continuous
 62
     7
370
    25
100
AcDbLine
 10
646.7666522291
 20
717.2938364927
 30
0.0
 11
646.7666522291
 21
723.5033478026
 31
0.0
  0
LINE
  5
C9
330
1F
100
AcDbEntity
  8
0
  6
Continuous
 62
     7
370
    25
100
AcDbLine
 10
649.2666572955
 20
723.071098644
 30
0.0
 11
649.2666572955
 21
725.4287752692
 31
0.0
  0
LINE
  5
CA
330
1F
100
AcDbEntity
  8
0
  6
Continuous
 62
     7
370
    25
100
AcDbLine
 10
649.2666572955
 20
719.6588929181
 30
0.0
 11
649.2666572955
 21
723.071098644
 31
0.0
  0
LINE
  5
CB
330
1F
100
AcDbEntity
  8
0
  6
Continuous
 62
     7
370
    25
100
AcDbLine
 10
455.1666573312
 20
652.8105515425
 30
0.0
 11
455.1666573312
 21
647.2938352634
 31
0.0
  0
LINE
  5
CC
330
1F
100
AcDbEntity
  8
0
  6
Continuous
 62
     7
370
    25
100
AcDbLine
 10
455.1666573312
 20
657.7938353547
 30
0.0
 11
455.1666573312
 21
652.8105515425
 31
0.0
  0
LINE
  5
CD
330
1F
100
AcDbEntity
  8
0
  6
Continuous
 62
     7
370
    25
100
AcDbLine
 10
452.6666522648
 20
652.6903988232
 30
0.0
 11
452.6666522648
 21
649.6588935514
 31
0.0
  0
LINE
  5
CE
330
1F
100
AcDbEntity
  8
0
  6
Continuous
 62
     7
370
    25
100
AcDbLine
 10
452.6666522648
 20
655.4287772995
 30
0.0
 11
452.6666522648
 21
652.6903988232
 31
0.0
  0
LINE
  5
CF
330
1F
100
AcDbEntity
  8
0
  6
Continuous
 62
     7
370
    25
100
AcDbLine
 10
646.7666522291
 20
653.5033493672
 30
0.0
 11
646.7666522291
 21
657.7938353547
 31
0.0
  0
LINE
  5
D0
330
1F
100
AcDbEntity
  8
0
  6
Continuous
 62
     7
370
    25
100
AcDbLine
 10
646.7666522291
 20
647.2938352634
 30
0.0
 11
646.7666522291
 21
653.5033493672
 31
0.0
  0
LINE
  5
D1
330
1F
100
AcDbEntity
  8
0
  6
Continuous
 62
     7
370
    25
100
AcDbLine
 10
649.2666572955
 20
653.0711002086
 30
0.0
 11
649.2666572955
 21
655.4287772995
 31
0.0
  0
LINE
  5
D2
330
1F
100
AcDbEntity
  8
0
  6
Continuous
 62
     7
370
    25
100
AcDbLine
 10
649.2666572955
 20
649.6588935514
 30
0.0
 11
649.2666572955
 21
653.0711002086
 31
0.0
  0
LINE
  5
D3
330
1F
100
AcDbEntity
  8
0
  6
Continuous
 62
     7
370
    25
100
AcDbLine
 10
455.1666573312
 20
722.8105518405
 30
0.0
 11
455.1666573312
 21
717.2938364927
 31
0.0
  0
LINE
  5
D4
330
1F
100
AcDbEntity
  8
0
  6
Continuous
 62
     7
370
    25
100
AcDbLine
 10
455.1666573312
 20
727.7938354199
 30
0.0
 11
455.1666573312
 21
722.8105518405
 31
0.0
  0
LINE
  5
D5
330
1F
100
AcDbEntity
  8
0
  6
Continuous
 62
     7
370
    25
100
AcDbLine
 10
452.6666522648
 20
722.6904000525
 30
0.0
 11
452.6666522648
 21
719.6588929181
 31
0.0
  0
LINE
  5
D6
330
1F
100
AcDbEntity
  8
0
  6
Continuous
 62
     7
370
    25
100
AcDbLine
 10
452.6666522648
 20
725.4287752692
 30
0.0
 11
452.6666522648
 21
722.6904000525
 31
0.0
  0
LINE
  5
D7
330
1F
100
AcDbEntity
  8
0
  6
Continuous
 62
     7
370
    25
100
AcDbLine
 10
465.9666538861
 20
741.5385919993
 30
0.0
 11
466.304753783
 21
741.5385919993
 31
0.0
  0
LINE
  5
D8
330
1F
100
AcDbEntity
  8
0
  6
Continuous
 62
     7
370
    25
100
AcDbLine
 10
466.304753783
 20
633.5386003737
 30
0.0
 11
465.9666538861
 21
633.5386003737
 31
0.0
  0
LINE
  5
D9
330
1F
100
AcDbEntity
  8
0
  6
Continuous
 62
     7
370
    25
100
AcDbLine
 10
465.9666538861
 20
633.5386003737
 30
0.0
 11
465.9666538861
 21
741.5385919993
 31
0.0
  0
LINE
  5
DA
330
1F
100
AcDbEntity
  8
0
  6
Continuous
 62
     7
370
    25
100
AcDbLine
 10
635.9666556742
 20
741.5385919993
 30
0.0
 11
635.9666556742
 21
633.5386003737
 31
0.0
  0
LINE
  5
DB
330
1F
100
AcDbEntity
  8
0
  6
Continuous
 62
     7
370
    25
100
AcDbLine
 10
635.9666556742
 20
633.5386003737
 30
0.0
 11
635.6317446258
 21
633.5386003737
 31
0.0
  0
LINE
  5
DC
330
1F
100
AcDbEntity
  8
0
  6
Continuous
 62
     7
370
    25
100
AcDbLine
 10
635.6317446258
 20
741.5385919993
 30
0.0
 11
635.9666556742
 21
741.5385919993
 31
0.0
  0
LINE
  5
DD
330
1F
100
AcDbEntity
  8
0
  6
Continuous
 62
     7
370
    25
100
AcDbLine
 10
466.304753783
 20
617.5333599929
 30
0.0
 11
466.304753783
 21
757.5333568637
 31
0.0
  0
LINE
  5
DE
330
1F
100
AcDbEntity
  8
0
  6
Continuous
 62
     7
370
    25
100
AcDbLine
 10
466.304753783
 20
757.5333568637
 30
0.0
 11
635.6317446258
 21
757.5333568637
 31
0.0
  0
LINE
  5
DF
330
1F
100
AcDbEntity
  8
0
  6
Continuous
 62
     7
370
    25
100
AcDbLine
 10
635.6317446258
 20
617.5333599929
 30
0.0
 11
635.6317446258
 21
757.5333568637
 31
0.0
  0
LINE
  5
E0
330
1F
100
AcDbEntity
  8
0
  6
Continuous
 62
     7
370
    25
100
AcDbLine
 10
635.6317446258
 20
617.5333599929
 30
0.0
 11
466.304753783
 21
617.5333599929
 31
0.0
  0
LINE
  5
E1
330
1F
100
AcDbEntity
  8
0
  6
Continuous
 62
     7
370
    25
100
AcDbLine
 10
543.3873491053
 20
747.6385984008
 30
0.0
 11
520.6666540977
 21
747.6385984008
 31
0.0
  0
LINE
  5
E2
330
1F
100
AcDbEntity
  8
0
  6
Continuous
 62
     7
370
    25
100
AcDbLine
 10
543.3873491053
 20
627.4385976975
 30
0.0
 11
543.3873491053
 21
747.6385984008
 31
0.0
  0
LINE
  5
E3
330
1F
100
AcDbEntity
  8
0
  6
Continuous
 62
     7
370
    25
100
AcDbLine
 10
520.6666540977
 20
627.4385976975
 30
0.0
 11
543.3873491053
 21
627.4385976975
 31
0.0
  0
ARC
  5
E4
330
1F
100
AcDbEntity
  8
0
  6
Continuous
 62
     7
370
    25
100
AcDbCircle
 10
520.6666547801
 20
627.7385973633
 30
0.0
 40
0.3000000000000682
100
AcDbArc
 50
180.0
 51
270.0
  0
LINE
  5
E5
330
1F
100
AcDbEntity
  8
0
  6
Continuous
 62
     7
370
    25
100
AcDbLine
 10
520.3666546073
 20
627.7385990505
 30
0.0
 11
520.3666546073
 21
747.3386007731
 31
0.0
  0
ARC
  5
E6
330
1F
100
AcDbEntity
  8
0
  6
Continuous
 62
     7
370
    25
100
AcDbCircle
 10
520.6666547801
 20
747.3385973633
 30
0.0
 40
0.2999999999999545
100
AcDbArc
 50
90.0
 51
180.0
  0
LINE
  5
E7
330
1F
100
AcDbEntity
  8
0
  6
Continuous
 62
     7
370
    25
100
AcDbLine
 10
558.545960455
 20
627.4385976975
 30
0.0
 11
581.2666554626
 21
627.4385976975
 31
0.0
  0
LINE
  5
E8
330
1F
100
AcDbEntity
  8
0
  6
Continuous
 62
     7
370
    25
100
AcDbLine
 10
558.545960455
 20
627.4385976975
 30
0.0
 11
558.545960455
 21
747.6385984008
 31
0.0
  0
LINE
  5
E9
330
1F
100
AcDbEntity
  8
0
  6
Continuous
 62
     7
370
    25
100
AcDbLine
 10
581.2666554626
 20
747.6385984008
 30
0.0
 11
558.545960455
 21
747.6385984008
 31
0.0
  0
LINE
  5
EA
330
1F
100
AcDbEntity
  8
0
  6
Continuous
 62
     7
370
    25
100
AcDbLine
 10
581.566654953
 20
627.7385990505
 30
0.0
 11
581.566654953
 21
747.3386007731
 31
0.0
  0
ARC
  5
EB
330
1F
100
AcDbEntity
  8
0
  6
Continuous
 62
     7
370
    25
100
AcDbCircle
 10
581.2666547801
 20
627.7385973633
 30
0.0
 40
0.3000000000000682
100
AcDbArc
 50
270.0
 51
0.0
  0
ARC
  5
EC
330
1F
100
AcDbEntity
  8
0
  6
Continuous
 62
     7
370
    25
100
AcDbCircle
 10
581.2666547801
 20
747.3385973633
 30
0.0
 40
0.2999999999999545
100
AcDbArc
 50
360.0
 51
90.0
  0
LINE
  5
ED
330
1F
100
AcDbEntity
  8
0
  6
Continuous
 62
     7
370
    25
100
AcDbLine
 10
581.591929185
 20
747.5511285846
 30
0.0
 11
581.591929185
 21
747.3386007731
 31
0.0
  0
LINE
  5
EE
330
1F
100
AcDbEntity
  8
0
  6
Continuous
 62
     7
370
    25
100
AcDbLine
 10
557.3472262982
 20
747.6385984008
 30
0.0
 11
557.3472262982
 21
747.8634643738
 31
0.0
  0
LINE
  5
EF
330
1F
100
AcDbEntity
  8
0
  6
Continuous
 62
     7
370
    25
100
AcDbLine
 10
520.3413803753
 20
747.5511285846
 30
0.0
 11
520.3413803753
 21
747.3386007731
 31
0.0
  0
LINE
  5
F0
330
1F
100
AcDbEntity
  8
0
  6
Continuous
 62
     7
370
    25
100
AcDbLine
 10
520.3413803753
 20
627.7385990505
 30
0.0
 11
520.3413803753
 21
627.5260675137
 31
0.0
  0
LINE
  5
F1
330
1F
100
AcDbEntity
  8
0
  6
Continuous
 62
     7
370
    25
100
AcDbLine
 10
544.5860832621
 20
627.4385976975
 30
0.0
 11
544.5860832621
 21
627.2137317245
 31
0.0
  0
LINE
  5
F2
330
1F
100
AcDbEntity
  8
0
  6
Continuous
 62
     7
370
    25
100
AcDbLine
 10
581.591929185
 20
627.7385990505
 30
0.0
 11
581.591929185
 21
627.5260675137
 31
0.0
  0
LINE
  5
F3
330
1F
100
AcDbEntity
  8
0
  6
Continuous
 62
     7
370
    25
100
AcDbLine
 10
557.3472262982
 20
627.2137317245
 30
0.0
 11
557.3472262982
 21
627.4385976975
 31
0.0
  0
LINE
  5
F4
330
1F
100
AcDbEntity
  8
0
  6
Continuous
 62
     7
370
    25
100
AcDbLine
 10
544.5860832621
 20
747.8634643738
 30
0.0
 11
544.5860832621
 21
747.6385984008
 31
0.0
  0
LINE
  5
F5
330
1F
100
AcDbEntity
  8
0
  6
Continuous
 62
     7
370
    25
100
AcDbLine
 10
556.0582120594
 20
627.4385976975
 30
0.0
 11
556.0582120594
 21
747.6385984008
 31
0.0
  0
LINE
  5
F6
330
1F
100
AcDbEntity
  8
0
  6
Continuous
 62
     7
370
    25
100
AcDbLine
 10
556.0582120594
 20
627.4385976975
 30
0.0
 11
558.545960455
 21
627.4385976975
 31
0.0
  0
LINE
  5
F7
330
1F
100
AcDbEntity
  8
0
  6
Continuous
 62
     7
370
    25
100
AcDbLine
 10
558.545960455
 20
747.6385984008
 30
0.0
 11
556.0582120594
 21
747.6385984008
 31
0.0
  0
LINE
  5
F8
330
1F
100
AcDbEntity
  8
0
  6
Continuous
 62
     7
370
    25
100
AcDbLine
 10
545.8750975009
 20
627.4385976975
 30
0.0
 11
545.8750975009
 21
747.6385984008
 31
0.0
  0
LINE
  5
F9
330
1F
100
AcDbEntity
  8
0
  6
Continuous
 62
     7
370
    25
100
AcDbLine
 10
543.3873491053
 20
627.4385976975
 30
0.0
 11
545.8750975009
 21
627.4385976975
 31
0.0
  0
LINE
  5
FA
330
1F
100
AcDbEntity
  8
0
  6
Continuous
 62
     7
370
    25
100
AcDbLine
 10
545.8750975009
 20
747.6385984008
 30
0.0
 11
543.3873491053
 21
747.6385984008
 31
0.0
  0
LINE
  5
FB
330
1F
100
AcDbEntity
  8
0
  6
Continuous
 62
     7
370
    25
100
AcDbLine
 10
545.8750975009
 20
627.4385976975
 30
0.0
 11
556.0582120594
 21
627.4385976975
 31
0.0
  0
LINE
  5
FC
330
1F
100
AcDbEntity
  8
0
  6
Continuous
 62
     7
370
    25
100
AcDbLine
 10
556.0582120594
 20
747.6385984008
 30
0.0
 11
545.8750975009
 21
747.6385984008
 31
0.0
  0
ELLIPSE
  5
FD
330
1F
100
AcDbEntity
  8
0
  6
Continuous
 62
     7
370
    25
100
AcDbEllipse
 10
519.7429035211
 20
755.9618644916
 30
0.0
 11
1.600000000000136
 21
0.0
 31
0.0
210
0.0
220
0.0
230
1.0
 40
0.0130952886
 41
4.400191206237571
 42
4.963804097155157
  0
LINE
  5
FE
330
1F
100
AcDbEntity
  8
0
  6
Continuous
 62
     7
370
    25
100
AcDbLine
 10
520.1409429934
 20
755.9415701215
 30
0.0
 11
520.1409429934
 21
619.1356222515
 31
0.0
  0
ELLIPSE
  5
FF
330
1F
100
AcDbEntity
  8
0
  6
Continuous
 62
     7
370
    25
100
AcDbEllipse
 10
519.7429035211
 20
619.115330235
 30
0.0
 11
1.600000000000023
 21
0.0
 31
0.0
210
0.0
220
0.0
230
1.0
 40
0.0130952886
 41
1.319381210023059
 42
1.882994100943803
  0
LINE
  5
100
330
1F
100
AcDbEntity
  8
0
  6
Continuous
 62
     7
370
    25
100
AcDbLine
 10
519.2514628794
 20
619.1352683489
 30
0.0
 11
519.2514628794
 21
755.9419277494
 31
0.0
  0
ARC
  5
101
330
1F
100
AcDbEntity
  8
0
  6
Continuous
 62
     7
370
    25
100
AcDbCircle
 10
520.3657964191
 20
756.1463463536
 30
0.0
 40
1.13292815459067
100
AcDbArc
 50
135.4366730894
 51
190.3950321526
  0
ELLIPSE
  5
102
330
1F
100
AcDbEntity
  8
0
  6
Continuous
 62
     7
370
    25
100
AcDbEllipse
 10
519.7429035211
 20
756.9612553186
 30
0.0
 11
0.6000000000001364
 21
0.0
 31
0.0
210
0.0
220
0.0
230
1.0
 40
0.0349207695
 41
4.400191206237551
 42
4.963804097157667
  0
ARC
  5
103
330
1F
100
AcDbEntity
  8
0
  6
Continuous
 62
     7
370
    25
100
AcDbCircle
 10
518.8640286496
 20
756.1543712164
 30
0.0
 40
1.29452483464966
100
AcDbArc
 50
350.5384619926
 51
37.418213787
  0
ELLIPSE
  5
104
330
1F
100
AcDbEntity
  8
0
  6
Continuous
 62
     7
370
    25
100
AcDbEllipse
 10
582.1904060392
 20
755.9618644916
 30
0.0
 11
1.599999999999909
 21
0.0
 31
0.0
210
0.0
220
0.0
230
1.0
 40
0.0130952886
 41
4.460973863614182
 42
5.024586754531981
  0
ARC
  5
105
330
1F
100
AcDbEntity
  8
0
  6
Continuous
 62
     7
370
    25
100
AcDbCircle
 10
583.0692809107
 20
756.1543712164
 30
0.0
 40
1.29452483464975
100
AcDbArc
 50
142.581786213
 51
189.4615380074
  0
ELLIPSE
  5
106
330
1F
100
AcDbEntity
  8
0
  6
Continuous
 62
     7
370
    25
100
AcDbEllipse
 10
582.1904060392
 20
756.9612553186
 30
0.0
 11
0.5999999999999089
 21
0.0
 31
0.0
210
0.0
220
0.0
230
1.0
 40
0.0349207695
 41
4.460973863611303
 42
5.024586754532016
  0
ARC
  5
107
330
1F
100
AcDbEntity
  8
0
  6
Continuous
 62
     7
370
    25
100
AcDbCircle
 10
581.5675131412
 20
756.1463463536
 30
0.0
 40
1.132928154590782
100
AcDbArc
 50
349.6049678475
 51
44.5633269106
  0
LINE
  5
108
330
1F
100
AcDbEntity
  8
0
  6
Continuous
 62
     7
370
    25
100
AcDbLine
 10
582.6818466809
 20
755.9419277494
 30
0.0
 11
582.6818466809
 21
619.1352683489
 31
0.0
  0
ELLIPSE
  5
109
330
1F
100
AcDbEntity
  8
0
  6
Continuous
 62
     7
370
    25
100
AcDbEllipse
 10
582.1904060392
 20
619.115330235
 30
0.0
 11
1.600000000000023
 21
0.0
 31
0.0
210
0.0
220
0.0
230
1.0
 40
0.0130952886
 41
1.258598552645923
 42
1.822211443566803
  0
LINE
  5
10A
330
1F
100
AcDbEntity
  8
0
  6
Continuous
 62
     7
370
    25
100
AcDbLine
 10
581.7923665669
 20
619.1356222515
 30
0.0
 11
581.7923665669
 21
755.9415701215
 31
0.0
  0
ARC
  5
10B
330
1F
100
AcDbEntity
  8
0
  6
Continuous
 62
     7
370
    25
100
AcDbCircle
 10
518.8640457817
 20
618.922819824
 30
0.0
 40
1.294508154596659
100
AcDbArc
 50
322.5815032585
 51
9.4617208375
  0
ELLIPSE
  5
10C
330
1F
100
AcDbEntity
  8
0
  6
Continuous
 62
     7
370
    25
100
AcDbEllipse
 10
519.7429035211
 20
618.115939408
 30
0.0
 11
0.6000000000000227
 21
0.0
 31
0.0
210
0.0
220
0.0
230
1.0
 40
0.0349207695
 41
1.319381210029955
 42
1.882994100935543
  0
ARC
  5
10D
330
1F
100
AcDbEntity
  8
0
  6
Continuous
 62
     7
370
    25
100
AcDbCircle
 10
520.3657954569
 20
618.9308494489
 30
0.0
 40
1.132927261544896
100
AcDbArc
 50
169.6049443573
 51
224.5633504007
  0
ARC
  5
10E
330
1F
100
AcDbEntity
  8
0
  6
Continuous
 62
     7
370
    25
100
AcDbCircle
 10
581.5675141034
 20
618.9308494489
 30
0.0
 40
1.132927261544798
100
AcDbArc
 50
315.4366495993
 51
10.3950556427
  0
ELLIPSE
  5
10F
330
1F
100
AcDbEntity
  8
0
  6
Continuous
 62
     7
370
    25
100
AcDbEllipse
 10
582.1904060392
 20
618.115939408
 30
0.0
 11
0.6000000000000227
 21
0.0
 31
0.0
210
0.0
220
0.0
230
1.0
 40
0.0349207695
 41
1.25859855265407
 42
1.822211443560022
  0
ARC
  5
110
330
1F
100
AcDbEntity
  8
0
  6
Continuous
 62
     7
370
    25
100
AcDbCircle
 10
583.0692637786
 20
618.922819824
 30
0.0
 40
1.294508154596569
100
AcDbArc
 50
170.5382791625
 51
217.4184967415
  0
LINE
  5
111
330
1F
100
AcDbEntity
  8
0
  6
Continuous
 62
     7
370
    25
100
AcDbLine
 10
581.7923665669
 20
755.9415701215
 30
0.0
 11
558.4713279892
 21
756.1507451717
 31
0.0
  0
ARC
  5
112
330
1F
100
AcDbEntity
  8
0
  6
Continuous
 62
     7
370
    25
100
AcDbCircle
 10
559.748255693
 20
756.363542941
 30
0.0
 40
1.294537466137094
100
AcDbArc
 50
142.582028604
 51
189.4612956164
  0
LINE
  5
113
330
1F
100
AcDbEntity
  8
0
  6
Continuous
 62
     7
370
    25
100
AcDbLine
 10
558.7201028753
 20
757.1501362507
 30
0.0
 11
582.041141453
 21
756.9409612004
 31
0.0
  0
LINE
  5
114
330
1F
100
AcDbEntity
  8
0
  6
Continuous
 62
     7
370
    25
100
AcDbLine
 10
543.4619815711
 20
756.1507451717
 30
0.0
 11
520.1409429934
 21
755.9415701215
 31
0.0
  0
LINE
  5
115
330
1F
100
AcDbEntity
  8
0
  6
Continuous
 62
     7
370
    25
100
AcDbLine
 10
519.8921681073
 20
756.9409612004
 30
0.0
 11
543.213206685
 21
757.1501362507
 31
0.0
  0
ARC
  5
116
330
1F
100
AcDbEntity
  8
0
  6
Continuous
 62
     7
370
    25
100
AcDbCircle
 10
542.1850538674
 20
756.363542941
 30
0.0
 40
1.294537466137094
100
AcDbArc
 50
350.5387043836
 51
37.417971396
  0
LINE
  5
117
330
1F
100
AcDbEntity
  8
0
  6
Continuous
 62
     7
370
    25
100
AcDbLine
 10
558.4713279892
 20
618.9264472012
 30
0.0
 11
581.7923665669
 21
619.1356222515
 31
0.0
  0
LINE
  5
118
330
1F
100
AcDbEntity
  8
0
  6
Continuous
 62
     7
370
    25
100
AcDbLine
 10
582.041141453
 20
618.1362348978
 30
0.0
 11
558.7201028753
 21
617.9270561223
 31
0.0
  0
ARC
  5
119
330
1F
100
AcDbEntity
  8
0
  6
Continuous
 62
     7
370
    25
100
AcDbCircle
 10
559.748255693
 20
618.7136494319
 30
0.0
 40
1.294537466137094
100
AcDbArc
 50
170.5387043836
 51
217.417971396
  0
LINE
  5
11A
330
1F
100
AcDbEntity
  8
0
  6
Continuous
 62
     7
370
    25
100
AcDbLine
 10
520.1409429934
 20
619.1356222515
 30
0.0
 11
543.4619815711
 21
618.9264472012
 31
0.0
  0
ARC
  5
11B
330
1F
100
AcDbEntity
  8
0
  6
Continuous
 62
     7
370
    25
100
AcDbCircle
 10
542.1850538674
 20
618.7136494319
 30
0.0
 40
1.294537466137094
100
AcDbArc
 50
322.582028604
 51
9.4612956164
  0
LINE
  5
11C
330
1F
100
AcDbEntity
  8
0
  6
Continuous
 62
     7
370
    25
100
AcDbLine
 10
543.213206685
 20
617.9270561223
 30
0.0
 11
519.8921681073
 21
618.1362348978
 31
0.0
  0
LINE
  5
11D
330
1F
100
AcDbEntity
  8
0
  6
Continuous
 62
     7
370
    25
100
AcDbLine
 10
543.4619815711
 20
747.8558200781
 30
0.0
 11
543.4619815711
 21
756.1507451717
 31
0.0
  0
LINE
  5
11E
330
1F
100
AcDbEntity
  8
0
  6
Continuous
 62
     7
370
    25
100
AcDbLine
 10
543.4619815711
 20
747.8558200781
 30
0.0
 11
520.537529948
 21
747.6501989548
 31
0.0
  0
ELLIPSE
  5
11F
330
1F
100
AcDbEntity
  8
0
  6
Continuous
 62
     7
370
    25
100
AcDbEllipse
 10
520.5378345291
 20
747.40004874
 30
0.0
 11
0.08686083686552593
 21
0.2349699732621957
 31
0.0
210
0.0
220
0.0
230
1.0
 40
0.9882750986
 41
0.3591729025742959
 42
1.928736980887507
  0
LINE
  5
120
330
1F
100
AcDbEntity
  8
0
  6
Continuous
 62
     7
370
    25
100
AcDbLine
 10
520.2899061766
 20
747.398130912
 30
0.0
 11
520.2899061766
 21
627.6790651862
 31
0.0
  0
ELLIPSE
  5
121
330
1F
100
AcDbEntity
  8
0
  6
Continuous
 62
     7
370
    25
100
AcDbEllipse
 10
520.5378345291
 20
627.6771459866
 30
0.0
 11
-0.08686083686563963
 21
0.2349699732621957
 31
0.0
210
0.0
220
0.0
230
1.0
 40
0.9882750986
 41
1.212855672700414
 42
2.782419751246724
  0
LINE
  5
122
330
1F
100
AcDbEntity
  8
0
  6
Continuous
 62
     7
370
    25
100
AcDbLine
 10
520.537529948
 20
627.4269971435
 30
0.0
 11
543.4619815711
 21
627.2213797454
 31
0.0
  0
LINE
  5
123
330
1F
100
AcDbEntity
  8
0
  6
Continuous
 62
     7
370
    25
100
AcDbLine
 10
543.4619815711
 20
618.9264472012
 30
0.0
 11
543.4619815711
 21
627.2213797454
 31
0.0
  0
LINE
  5
124
330
1F
100
AcDbEntity
  8
0
  6
Continuous
 62
     7
370
    25
100
AcDbLine
 10
558.4713279892
 20
627.2213797454
 30
0.0
 11
581.3957796123
 21
627.4269971435
 31
0.0
  0
ELLIPSE
  5
125
330
1F
100
AcDbEntity
  8
0
  6
Continuous
 62
     7
370
    25
100
AcDbEllipse
 10
581.3954750312
 20
627.6771459866
 30
0.0
 11
0.08686083686552593
 21
0.2349699732621957
 31
0.0
210
0.0
220
0.0
230
1.0
 40
0.9882750986
 41
3.500765550806898
 42
5.070329634478671
  0
LINE
  5
126
330
1F
100
AcDbEntity
  8
0
  6
Continuous
 62
     7
370
    25
100
AcDbLine
 10
581.6434033837
 20
627.6790651862
 30
0.0
 11
581.6434033837
 21
747.398130912
 31
0.0
  0
ELLIPSE
  5
127
330
1F
100
AcDbEntity
  8
0
  6
Continuous
 62
     7
370
    25
100
AcDbEllipse
 10
581.3954750312
 20
747.40004874
 30
0.0
 11
-0.08686083686541225
 21
0.2349699732621957
 31
0.0
210
0.0
220
0.0
230
1.0
 40
0.9882750986
 41
4.35444832629247
 42
5.924012409602113
  0
LINE
  5
128
330
1F
100
AcDbEntity
  8
0
  6
Continuous
 62
     7
370
    25
100
AcDbLine
 10
581.3957796123
 20
747.6501989548
 30
0.0
 11
558.4713279892
 21
747.8558200781
 31
0.0
  0
LINE
  5
129
330
1F
100
AcDbEntity
  8
0
  6
Continuous
 62
     7
370
    25
100
AcDbLine
 10
558.4713279892
 20
756.1507451717
 30
0.0
 11
558.4713279892
 21
747.8558200781
 31
0.0
  0
LINE
  5
12A
330
1F
100
AcDbEntity
  8
0
  6
Continuous
 62
     7
370
    25
100
AcDbLine
 10
558.4713279892
 20
627.2213797454
 30
0.0
 11
558.4713279892
 21
618.9264472012
 31
0.0
  0
ELLIPSE
  5
12B
330
1F
100
AcDbEntity
  8
0
  6
Continuous
 62
     7
370
    25
100
AcDbEllipse
 10
479.1816665482
 20
751.5732707793
 30
0.0
 11
130.456378068293
 21
0.0
 31
0.0
210
0.0
220
0.0
230
1.0
 40
0.0351884511
 41
1.25859855265247
 42
1.578595875564
  0
ARC
  5
12C
330
1F
100
AcDbEntity
  8
0
  6
Continuous
 62
     7
370
    25
100
AcDbCircle
 10
443.4553987146
 20
756.3924930602
 30
0.0
 40
34.70953363742588
100
AcDbArc
 50
359.6223018613
 51
1.2721256288
  0
ELLIPSE
  5
12D
330
1F
100
AcDbEntity
  8
0
  6
Continuous
 62
     7
370
    25
100
AcDbEllipse
 10
479.1816665482
 20
752.5726616064
 30
0.0
 11
131.456378068293
 21
0.0
 31
0.0
210
0.0
220
0.0
230
1.0
 40
0.0349207695
 41
1.258598552652432
 42
1.578595875564
  0
ELLIPSE
  5
12E
330
1F
100
AcDbEntity
  8
0
  6
Continuous
 62
     7
370
    25
100
AcDbEllipse
 10
622.7516430121
 20
751.5732707793
 30
0.0
 11
130.456378068293
 21
0.0
 31
0.0
210
0.0
220
0.0
230
1.0
 40
0.0351884511
 41
1.562996778025794
 42
1.882994100937321
  0
ELLIPSE
  5
12F
330
1F
100
AcDbEntity
  8
0
  6
Continuous
 62
     7
370
    25
100
AcDbEllipse
 10
622.7516430121
 20
752.5726616064
 30
0.0
 11
131.456378068293
 21
0.0
 31
0.0
210
0.0
220
0.0
230
1.0
 40
0.0349207695
 41
1.562996778025793
 42
1.882994100937358
  0
ARC
  5
130
330
1F
100
AcDbEntity
  8
0
  6
Continuous
 62
     7
370
    25
100
AcDbCircle
 10
658.4779108457
 20
756.3924930602
 30
0.0
 40
34.70953363742588
100
AcDbArc
 50
178.7278743712
 51
180.3776981387
  0
ELLIPSE
  5
131
330
1F
100
AcDbEntity
  8
0
  6
Continuous
 62
     7
370
    25
100
AcDbEllipse
 10
479.1816665482
 20
623.5039239473
 30
0.0
 11
130.456378068293
 21
-1.136868377216160E-13
 31
0.0
210
0.0
220
0.0
230
1.0
 40
0.0351884511
 41
4.704589431615536
 42
5.02458675452718
  0
ELLIPSE
  5
132
330
1F
100
AcDbEntity
  8
0
  6
Continuous
 62
     7
370
    25
100
AcDbEllipse
 10
479.1816665482
 20
622.5045331202
 30
0.0
 11
131.456378068293
 21
0.0
 31
0.0
210
0.0
220
0.0
230
1.0
 40
0.0349207695
 41
4.704589431615537
 42
5.024586754527186
  0
ARC
  5
133
330
1F
100
AcDbEntity
  8
0
  6
Continuous
 62
     7
370
    25
100
AcDbCircle
 10
443.4552086012
 20
618.6847007967
 30
0.0
 40
34.70972373691721
100
AcDbArc
 50
358.7278788894
 51
0.3776936205
  0
ELLIPSE
  5
134
330
1F
100
AcDbEntity
  8
0
  6
Continuous
 62
     7
370
    25
100
AcDbEllipse
 10
622.7516430121
 20
623.5039239473
 30
0.0
 11
130.456378068293
 21
-1.136868377216160E-13
 31
0.0
210
0.0
220
0.0
230
1.0
 40
0.0351884511
 41
4.400191206242284
 42
4.720188529153843
  0
ARC
  5
135
330
1F
100
AcDbEntity
  8
0
  6
Continuous
 62
     7
370
    25
100
AcDbCircle
 10
658.4781009591
 20
618.6847007967
 30
0.0
 40
34.70972373691733
100
AcDbArc
 50
179.6223063795
 51
181.2721211106
  0
ELLIPSE
  5
136
330
1F
100
AcDbEntity
  8
0
  6
Continuous
 62
     7
370
    25
100
AcDbEllipse
 10
622.7516430121
 20
622.5045331202
 30
0.0
 11
131.4563780682931
 21
0.0
 31
0.0
210
0.0
220
0.0
230
1.0
 40
0.0349207695
 41
4.400191206242274
 42
4.720188529153843
  0
LINE
  5
137
330
1F
100
AcDbEntity
  8
0
  6
Continuous
 62
     7
370
    25
100
AcDbLine
 10
478.1641781952
 20
640.5005849336
 30
0.0
 11
478.1641781952
 21
634.5766096745
 31
0.0
  0
LINE
  5
138
330
1F
100
AcDbEntity
  8
0
  6
Continuous
 62
     7
370
    25
100
AcDbLine
 10
478.1641781952
 20
644.576609451
 30
0.0
 11
478.1641781952
 21
640.5005849336
 31
0.0
  0
LINE
  5
139
330
1F
100
AcDbEntity
  8
0
  6
Continuous
 62
     7
370
    25
100
AcDbLine
 10
478.1641781952
 20
650.5005837788
 30
0.0
 11
478.1641781952
 21
644.5766113137
 31
0.0
  0
LINE
  5
13A
330
1F
100
AcDbEntity
  8
0
  6
Continuous
 62
     7
370
    25
100
AcDbLine
 10
478.1641781952
 20
654.5766101588
 30
0.0
 11
478.1641781952
 21
650.5005837788
 31
0.0
  0
LINE
  5
13B
330
1F
100
AcDbEntity
  8
0
  6
Continuous
 62
     7
370
    25
100
AcDbLine
 10
478.1641781952
 20
660.5005841955
 30
0.0
 11
478.1641781952
 21
654.5766106245
 31
0.0
  0
LINE
  5
13C
330
1F
100
AcDbEntity
  8
0
  6
Continuous
 62
     7
370
    25
100
AcDbLine
 10
478.1641781952
 20
664.5766101681
 30
0.0
 11
478.1641781952
 21
660.5005841955
 31
0.0
  0
LINE
  5
13D
330
1F
100
AcDbEntity
  8
0
  6
Continuous
 62
     7
370
    25
100
AcDbLine
 10
478.1641781952
 20
670.500584263
 30
0.0
 11
478.1641781952
 21
664.5766106338
 31
0.0
  0
LINE
  5
13E
330
1F
100
AcDbEntity
  8
0
  6
Continuous
 62
     7
370
    25
100
AcDbLine
 10
478.1641781952
 20
674.5766106431
 30
0.0
 11
478.1641781952
 21
670.500584263
 31
0.0
  0
LINE
  5
13F
330
1F
100
AcDbEntity
  8
0
  6
Continuous
 62
     7
370
    25
100
AcDbLine
 10
478.1641781952
 20
680.5005840395
 30
0.0
 11
478.1641781952
 21
674.5766106431
 31
0.0
  0
LINE
  5
140
330
1F
100
AcDbEntity
  8
0
  6
Continuous
 62
     7
370
    25
100
AcDbLine
 10
478.1641781952
 20
684.5766104196
 30
0.0
 11
478.1641781952
 21
680.5005840395
 31
0.0
  0
LINE
  5
141
330
1F
100
AcDbEntity
  8
0
  6
Continuous
 62
     7
370
    25
100
AcDbLine
 10
478.1641781952
 20
690.500583816
 30
0.0
 11
478.1641781952
 21
684.5766104196
 31
0.0
  0
LINE
  5
142
330
1F
100
AcDbEntity
  8
0
  6
Continuous
 62
     7
370
    25
100
AcDbLine
 10
478.1641781952
 20
694.5766064708
 30
0.0
 11
478.1641781952
 21
690.500583816
 31
0.0
  0
LINE
  5
143
330
1F
100
AcDbEntity
  8
0
  6
Continuous
 62
     7
370
    25
100
AcDbLine
 10
478.1564444926
 20
700.5005854551
 30
0.0
 11
478.1564444926
 21
694.5766064708
 31
0.0
  0
LINE
  5
144
330
1F
100
AcDbEntity
  8
0
  6
Continuous
 62
     7
370
    25
100
AcDbLine
 10
478.1641781952
 20
704.5766081099
 30
0.0
 11
478.1641781952
 21
700.5005854551
 31
0.0
  0
LINE
  5
145
330
1F
100
AcDbEntity
  8
0
  6
Continuous
 62
     7
370
    25
100
AcDbLine
 10
478.1564444926
 20
710.500583369
 30
0.0
 11
478.1564444926
 21
704.5766081099
 31
0.0
  0
LINE
  5
146
330
1F
100
AcDbEntity
  8
0
  6
Continuous
 62
     7
370
    25
100
AcDbLine
 10
478.1641781952
 20
714.576609749
 30
0.0
 11
478.1641781952
 21
710.500583369
 31
0.0
  0
LINE
  5
147
330
1F
100
AcDbEntity
  8
0
  6
Continuous
 62
     7
370
    25
100
AcDbLine
 10
478.1564444926
 20
720.5005850081
 30
0.0
 11
478.1564444926
 21
714.576609749
 31
0.0
  0
LINE
  5
148
330
1F
100
AcDbEntity
  8
0
  6
Continuous
 62
     7
370
    25
100
AcDbLine
 10
478.1641781952
 20
724.5766076629
 30
0.0
 11
478.1641781952
 21
720.5005850081
 31
0.0
  0
LINE
  5
149
330
1F
100
AcDbEntity
  8
0
  6
Continuous
 62
     7
370
    25
100
AcDbLine
 10
478.1564444926
 20
730.5005866472
 30
0.0
 11
478.1564444926
 21
724.5766076629
 31
0.0
  0
LINE
  5
14A
330
1F
100
AcDbEntity
  8
0
  6
Continuous
 62
     7
370
    25
100
AcDbLine
 10
478.1641781952
 20
734.5766130273
 30
0.0
 11
478.1641781952
 21
730.5005866472
 31
0.0
  0
LINE
  5
14B
330
1F
100
AcDbEntity
  8
0
  6
Continuous
 62
     7
370
    25
100
AcDbLine
 10
478.1564444926
 20
740.5005845611
 30
0.0
 11
478.1564444926
 21
734.5766130273
 31
0.0
  0
LINE
  5
14C
330
1F
100
AcDbEntity
  8
0
  6
Continuous
 62
     7
370
    25
100
AcDbLine
 10
478.1641781952
 20
756.1636868302
 30
0.0
 11
478.1641781952
 21
740.5005845611
 31
0.0
  0
LINE
  5
14D
330
1F
100
AcDbEntity
  8
0
  6
Continuous
 62
     7
370
    25
100
AcDbLine
 10
478.1641781952
 20
634.5766096745
 30
0.0
 11
478.1641781952
 21
618.9135055427
 31
0.0
  0
LINE
  5
14E
330
1F
100
AcDbEntity
  8
0
  6
Continuous
 62
     7
370
    25
100
AcDbLine
 10
623.7691313651
 20
740.5005845611
 30
0.0
 11
623.7691313651
 21
756.1636868302
 31
0.0
  0
LINE
  5
14F
330
1F
100
AcDbEntity
  8
0
  6
Continuous
 62
     7
370
    25
100
AcDbLine
 10
623.7768650677
 20
734.5766130273
 30
0.0
 11
623.7768650677
 21
740.5005845611
 31
0.0
  0
LINE
  5
150
330
1F
100
AcDbEntity
  8
0
  6
Continuous
 62
     7
370
    25
100
AcDbLine
 10
623.7691313651
 20
730.5005866472
 30
0.0
 11
623.7691313651
 21
734.5766130273
 31
0.0
  0
LINE
  5
151
330
1F
100
AcDbEntity
  8
0
  6
Continuous
 62
     7
370
    25
100
AcDbLine
 10
623.7768650677
 20
724.5766076629
 30
0.0
 11
623.7768650677
 21
730.5005866472
 31
0.0
  0
LINE
  5
152
330
1F
100
AcDbEntity
  8
0
  6
Continuous
 62
     7
370
    25
100
AcDbLine
 10
623.7691313651
 20
720.5005850081
 30
0.0
 11
623.7691313651
 21
724.5766076629
 31
0.0
  0
LINE
  5
153
330
1F
100
AcDbEntity
  8
0
  6
Continuous
 62
     7
370
    25
100
AcDbLine
 10
623.7768650677
 20
714.576609749
 30
0.0
 11
623.7768650677
 21
720.5005850081
 31
0.0
  0
LINE
  5
154
330
1F
100
AcDbEntity
  8
0
  6
Continuous
 62
     7
370
    25
100
AcDbLine
 10
623.7691313651
 20
710.500583369
 30
0.0
 11
623.7691313651
 21
714.576609749
 31
0.0
  0
LINE
  5
155
330
1F
100
AcDbEntity
  8
0
  6
Continuous
 62
     7
370
    25
100
AcDbLine
 10
623.7768650677
 20
704.5766081099
 30
0.0
 11
623.7768650677
 21
710.500583369
 31
0.0
  0
LINE
  5
156
330
1F
100
AcDbEntity
  8
0
  6
Continuous
 62
     7
370
    25
100
AcDbLine
 10
623.7691313651
 20
700.5005854551
 30
0.0
 11
623.7691313651
 21
704.5766081099
 31
0.0
  0
LINE
  5
157
330
1F
100
AcDbEntity
  8
0
  6
Continuous
 62
     7
370
    25
100
AcDbLine
 10
623.7768650677
 20
694.5766064708
 30
0.0
 11
623.7768650677
 21
700.5005854551
 31
0.0
  0
LINE
  5
158
330
1F
100
AcDbEntity
  8
0
  6
Continuous
 62
     7
370
    25
100
AcDbLine
 10
623.7691313651
 20
690.500583816
 30
0.0
 11
623.7691313651
 21
694.5766064708
 31
0.0
  0
LINE
  5
159
330
1F
100
AcDbEntity
  8
0
  6
Continuous
 62
     7
370
    25
100
AcDbLine
 10
623.7691313651
 20
684.5766104196
 30
0.0
 11
623.7691313651
 21
690.500583816
 31
0.0
  0
LINE
  5
15A
330
1F
100
AcDbEntity
  8
0
  6
Continuous
 62
     7
370
    25
100
AcDbLine
 10
623.7691313651
 20
680.5005840395
 30
0.0
 11
623.7691313651
 21
684.5766104196
 31
0.0
  0
LINE
  5
15B
330
1F
100
AcDbEntity
  8
0
  6
Continuous
 62
     7
370
    25
100
AcDbLine
 10
623.7691313651
 20
674.5766106431
 30
0.0
 11
623.7691313651
 21
680.5005840395
 31
0.0
  0
LINE
  5
15C
330
1F
100
AcDbEntity
  8
0
  6
Continuous
 62
     7
370
    25
100
AcDbLine
 10
623.7691313651
 20
670.500584263
 30
0.0
 11
623.7691313651
 21
674.5766106431
 31
0.0
  0
LINE
  5
15D
330
1F
100
AcDbEntity
  8
0
  6
Continuous
 62
     7
370
    25
100
AcDbLine
 10
623.7691313651
 20
664.5766106338
 30
0.0
 11
623.7691313651
 21
670.500584263
 31
0.0
  0
LINE
  5
15E
330
1F
100
AcDbEntity
  8
0
  6
Continuous
 62
     7
370
    25
100
AcDbLine
 10
623.7691313651
 20
660.5005841955
 30
0.0
 11
623.7691313651
 21
664.5766101681
 31
0.0
  0
LINE
  5
15F
330
1F
100
AcDbEntity
  8
0
  6
Continuous
 62
     7
370
    25
100
AcDbLine
 10
623.7691313651
 20
654.5766106245
 30
0.0
 11
623.7691313651
 21
660.5005841955
 31
0.0
  0
LINE
  5
160
330
1F
100
AcDbEntity
  8
0
  6
Continuous
 62
     7
370
    25
100
AcDbLine
 10
623.7691313651
 20
650.5005837788
 30
0.0
 11
623.7691313651
 21
654.5766101588
 31
0.0
  0
LINE
  5
161
330
1F
100
AcDbEntity
  8
0
  6
Continuous
 62
     7
370
    25
100
AcDbLine
 10
623.7691313651
 20
644.5766113137
 30
0.0
 11
623.7691313651
 21
650.5005837788
 31
0.0
  0
LINE
  5
162
330
1F
100
AcDbEntity
  8
0
  6
Continuous
 62
     7
370
    25
100
AcDbLine
 10
623.7691313651
 20
640.5005849336
 30
0.0
 11
623.7691313651
 21
644.576609451
 31
0.0
  0
LINE
  5
163
330
1F
100
AcDbEntity
  8
0
  6
Continuous
 62
     7
370
    25
100
AcDbLine
 10
623.7691313651
 20
634.5766096745
 30
0.0
 11
623.7691313651
 21
640.5005849336
 31
0.0
  0
LINE
  5
164
330
1F
100
AcDbEntity
  8
0
  6
Continuous
 62
     7
370
    25
100
AcDbLine
 10
623.7691313651
 20
618.9135055427
 30
0.0
 11
623.7691313651
 21
634.5766096745
 31
0.0
  0
ELLIPSE
  5
165
330
1F
100
AcDbEntity
  8
0
  6
Continuous
 62
     7
370
    25
100
AcDbEllipse
 10
623.8609281585
 20
757.5391419174
 30
0.0
 11
10.76933602837778
 21
0.0
 31
0.0
210
0.0
220
0.0
230
1.0
 40
0.0349207695
 41
4.704589431615558
 42
6.26780826666497
  0
ELLIPSE
  5
166
330
1F
100
AcDbEntity
  8
0
  6
Continuous
 62
     7
370
    25
100
AcDbEllipse
 10
556.0582121808
 20
756.7882320525
 30
0.0
 11
10.70000000000005
 21
0.0
 31
0.0
210
0.0
220
0.0
230
1.0
 40
0.0349207695
 41
1.319381210025846
 42
1.570796326794897
  0
LINE
  5
167
330
1F
100
AcDbEntity
  8
0
  6
Continuous
 62
     7
370
    25
100
AcDbLine
 10
545.8750975009
 20
757.1618858163
 30
0.0
 11
556.0582120594
 21
757.1618858163
 31
0.0
  0
ELLIPSE
  5
168
330
1F
100
AcDbEntity
  8
0
  6
Continuous
 62
     7
370
    25
100
AcDbEllipse
 10
545.8750973795
 20
756.7882320525
 30
0.0
 11
10.69999999999993
 21
0.0
 31
0.0
210
0.0
220
0.0
230
1.0
 40
0.0349207695
 41
1.570796326794897
 42
1.822211443563949
  0
ELLIPSE
  5
169
330
1F
100
AcDbEntity
  8
0
  6
Continuous
 62
     7
370
    25
100
AcDbEllipse
 10
478.0723814018
 20
757.5391419174
 30
0.0
 11
10.76933602837784
 21
0.0
 31
0.0
210
0.0
220
0.0
230
1.0
 40
0.0349207695
 41
3.156969694104005
 42
4.720188529153774
  0
LINE
  5
16A
330
1F
100
AcDbEntity
  8
0
  6
Continuous
 62
     7
370
    25
100
AcDbLine
 10
467.3043162253
 20
757.5333568637
 30
0.0
 11
634.628993335
 21
757.5333568637
 31
0.0
  0
ELLIPSE
  5
16B
330
1F
100
AcDbEntity
  8
0
  6
Continuous
 62
     7
370
    25
100
AcDbEllipse
 10
478.0723814018
 20
617.5380528092
 30
0.0
 11
10.76933602837778
 21
0.0
 31
0.0
210
0.0
220
0.0
230
1.0
 40
0.0349207695
 41
1.562996778025825
 42
3.126215613074765
  0
ELLIPSE
  5
16C
330
1F
100
AcDbEntity
  8
0
  6
Continuous
 62
     7
370
    25
100
AcDbEllipse
 10
545.8750973795
 20
618.2889626741
 30
0.0
 11
10.69999999999993
 21
0.0
 31
0.0
210
0.0
220
0.0
230
1.0
 40
0.0349207695
 41
4.460973863615962
 42
4.71238898038469
  0
LINE
  5
16D
330
1F
100
AcDbEntity
  8
0
  6
Continuous
 62
     7
370
    25
100
AcDbLine
 10
556.0582120594
 20
617.9153102819
 30
0.0
 11
545.8750975009
 21
617.9153102819
 31
0.0
  0
ELLIPSE
  5
16E
330
1F
100
AcDbEntity
  8
0
  6
Continuous
 62
     7
370
    25
100
AcDbEllipse
 10
556.0582121808
 20
618.2889626741
 30
0.0
 11
10.70000000000005
 21
0.0
 31
0.0
210
0.0
220
0.0
230
1.0
 40
0.0349207695
 41
4.71238898038469
 42
4.963804097153464
  0
ELLIPSE
  5
16F
330
1F
100
AcDbEntity
  8
0
  6
Continuous
 62
     7
370
    25
100
AcDbEllipse
 10
623.8609281585
 20
617.5380528092
 30
0.0
 11
10.76933602837789
 21
0.0
 31
0.0
210
0.0
220
0.0
230
1.0
 40
0.0349207695
 41
0.0153770405150231
 42
1.578595875564024
  0
LINE
  5
170
330
1F
100
AcDbEntity
  8
0
  6
Continuous
 62
     7
370
    25
100
AcDbLine
 10
634.628993335
 20
617.5438355093
 30
0.0
 11
467.3043162253
 21
617.5438355093
 31
0.0
  0
ELLIPSE
  5
171
330
1F
100
AcDbEntity
  8
0
  6
Continuous
 62
     7
370
    25
100
AcDbEllipse
 10
545.8750973795
 20
755.7888412255
 30
0.0
 11
9.699999999999932
 21
0.0
 31
0.0
210
0.0
220
0.0
230
1.0
 40
0.0385208488
 41
1.570796326794897
 42
1.822211443563495
  0
LINE
  5
172
330
1F
100
AcDbEntity
  8
0
  6
Continuous
 62
     7
370
    25
100
AcDbLine
 10
545.8750975009
 20
756.1624947373
 30
0.0
 11
545.8750975009
 21
757.1618858163
 31
0.0
  0
ELLIPSE
  5
173
330
1F
100
AcDbEntity
  8
0
  6
Continuous
 62
     7
370
    25
100
AcDbEllipse
 10
556.0582121808
 20
619.2883535012
 30
0.0
 11
9.699999999999932
 21
0.0
 31
0.0
210
0.0
220
0.0
230
1.0
 40
0.0385208488
 41
4.71238898038469
 42
4.963804097153324
  0
LINE
  5
174
330
1F
100
AcDbEntity
  8
0
  6
Continuous
 62
     7
370
    25
100
AcDbLine
 10
556.0582120594
 20
618.9147013609
 30
0.0
 11
556.0582120594
 21
617.9153102819
 31
0.0
  0
ELLIPSE
  5
175
330
1F
100
AcDbEntity
  8
0
  6
Continuous
 62
     7
370
    25
100
AcDbEllipse
 10
545.8750973795
 20
619.2883535012
 30
0.0
 11
9.699999999999932
 21
0.0
 31
0.0
210
0.0
220
0.0
230
1.0
 40
0.0385208488
 41
4.460973863616112
 42
4.71238898038469
  0
LINE
  5
176
330
1F
100
AcDbEntity
  8
0
  6
Continuous
 62
     7
370
    25
100
AcDbLine
 10
545.8750975009
 20
618.9147013609
 30
0.0
 11
545.8750975009
 21
617.9153102819
 31
0.0
  0
ELLIPSE
  5
177
330
1F
100
AcDbEntity
  8
0
  6
Continuous
 62
     7
370
    25
100
AcDbEllipse
 10
556.0582121808
 20
755.7888412255
 30
0.0
 11
9.700000000000045
 21
0.0
 31
0.0
210
0.0
220
0.0
230
1.0
 40
0.0385208488
 41
1.31938121002629
 42
1.570796326794897
  0
LINE
  5
178
330
1F
100
AcDbEntity
  8
0
  6
Continuous
 62
     7
370
    25
100
AcDbLine
 10
556.0582120594
 20
756.1624947373
 30
0.0
 11
556.0582120594
 21
757.1618858163
 31
0.0
  0
LINE
  5
179
330
1F
100
AcDbEntity
  8
0
  6
Continuous
 62
     7
370
    25
100
AcDbLine
 10
545.8750975009
 20
618.9147013609
 30
0.0
 11
545.8750975009
 21
627.2107291405
 31
0.0
  0
ELLIPSE
  5
17A
330
1F
100
AcDbEntity
  8
0
  6
Continuous
 62
     7
370
    25
100
AcDbEllipse
 10
545.8750973795
 20
627.5494600889
 30
0.0
 11
9.699999999999932
 21
0.0
 31
0.0
210
0.0
220
0.0
230
1.0
 40
0.0349207695
 41
4.460973863615893
 42
4.71238898038469
  0
LINE
  5
17B
330
1F
100
AcDbEntity
  8
0
  6
Continuous
 62
     7
370
    25
100
AcDbLine
 10
545.8750975009
 20
747.8664669578
 30
0.0
 11
545.8750975009
 21
756.1624947373
 31
0.0
  0
ELLIPSE
  5
17C
330
1F
100
AcDbEntity
  8
0
  6
Continuous
 62
     7
370
    25
100
AcDbEllipse
 10
545.8750973795
 20
747.5277346377
 30
0.0
 11
9.699999999999932
 21
0.0
 31
0.0
210
0.0
220
0.0
230
1.0
 40
0.0349207695
 41
1.570796326794897
 42
1.822211443563802
  0
LINE
  5
17D
330
1F
100
AcDbEntity
  8
0
  6
Continuous
 62
     7
370
    25
100
AcDbLine
 10
556.0582120594
 20
756.1624947373
 30
0.0
 11
556.0582120594
 21
747.8664669578
 31
0.0
  0
ELLIPSE
  5
17E
330
1F
100
AcDbEntity
  8
0
  6
Continuous
 62
     7
370
    25
100
AcDbEllipse
 10
556.0582121808
 20
747.5277346377
 30
0.0
 11
9.700000000000045
 21
0.0
 31
0.0
210
0.0
220
0.0
230
1.0
 40
0.0349207695
 41
1.319381210025983
 42
1.570796326794897
  0
LINE
  5
17F
330
1F
100
AcDbEntity
  8
0
  6
Continuous
 62
     7
370
    25
100
AcDbLine
 10
556.0582120594
 20
627.2107291405
 30
0.0
 11
556.0582120594
 21
618.9147013609
 31
0.0
  0
ELLIPSE
  5
180
330
1F
100
AcDbEntity
  8
0
  6
Continuous
 62
     7
370
    25
100
AcDbEllipse
 10
556.0582121808
 20
627.5494600889
 30
0.0
 11
9.699999999999932
 21
0.0
 31
0.0
210
0.0
220
0.0
230
1.0
 40
0.0349207695
 41
4.71238898038469
 42
4.963804097153549
  0
LINE
  5
181
330
1F
100
AcDbEntity
  8
0
  6
Continuous
 62
     7
370
    25
100
AcDbLine
 10
478.1487182405
 20
690.500583816
 30
0.0
 11
478.1487182405
 21
684.5766104196
 31
0.0
  0
ELLIPSE
  5
182
330
1F
100
AcDbEntity
  8
0
  6
Continuous
 62
     7
370
    25
100
AcDbEllipse
 10
478.0723814018
 20
756.5397510904
 30
0.0
 11
11.76933602837784
 21
-1.136868377216160E-13
 31
0.0
210
0.0
220
0.0
230
1.0
 40
0.0319536718
 41
3.158628719603188
 42
4.720188529153774
  0
LINE
  5
183
330
1F
100
AcDbEntity
  8
0
  6
Continuous
 62
     7
370
    25
100
AcDbLine
 10
478.1487182405
 20
680.5005840395
 30
0.0
 11
478.1487182405
 21
674.5766106431
 31
0.0
  0
LINE
  5
184
330
1F
100
AcDbEntity
  8
0
  6
Continuous
 62
     7
370
    25
100
AcDbLine
 10
478.1487182405
 20
664.5766101681
 30
0.0
 11
478.1487182405
 21
670.500584263
 31
0.0
  0
LINE
  5
185
330
1F
100
AcDbEntity
  8
0
  6
Continuous
 62
     7
370
    25
100
AcDbLine
 10
478.1487182405
 20
654.5766101588
 30
0.0
 11
478.1487182405
 21
660.5005841955
 31
0.0
  0
LINE
  5
186
330
1F
100
AcDbEntity
  8
0
  6
Continuous
 62
     7
370
    25
100
AcDbLine
 10
478.1487182405
 20
644.576609451
 30
0.0
 11
478.1487182405
 21
650.5005837788
 31
0.0
  0
LINE
  5
187
330
1F
100
AcDbEntity
  8
0
  6
Continuous
 62
     7
370
    25
100
AcDbLine
 10
478.1487182405
 20
634.5766096745
 30
0.0
 11
478.1487182405
 21
640.5005849336
 31
0.0
  0
ELLIPSE
  5
188
330
1F
100
AcDbEntity
  8
0
  6
Continuous
 62
     7
370
    25
100
AcDbEllipse
 10
478.0723814018
 20
618.5374436362
 30
0.0
 11
11.76933602837778
 21
0.0
 31
0.0
210
0.0
220
0.0
230
1.0
 40
0.0319536718
 41
1.562996778025818
 42
3.124556587577135
  0
LINE
  5
189
330
1F
100
AcDbEntity
  8
0
  6
Continuous
 62
     7
370
    25
100
AcDbLine
 10
466.304753783
 20
756.5333473866
 30
0.0
 11
466.304753783
 21
618.5438487117
 31
0.0
  0
LINE
  5
18A
330
1F
100
AcDbEntity
  8
0
  6
Continuous
 62
     7
370
    25
100
AcDbLine
 10
623.7845913198
 20
640.5005849336
 30
0.0
 11
623.7845913198
 21
634.5766096745
 31
0.0
  0
LINE
  5
18B
330
1F
100
AcDbEntity
  8
0
  6
Continuous
 62
     7
370
    25
100
AcDbLine
 10
623.7845913198
 20
650.5005837788
 30
0.0
 11
623.7845913198
 21
644.576609451
 31
0.0
  0
LINE
  5
18C
330
1F
100
AcDbEntity
  8
0
  6
Continuous
 62
     7
370
    25
100
AcDbLine
 10
623.7845913198
 20
660.5005841955
 30
0.0
 11
623.7845913198
 21
654.5766101588
 31
0.0
  0
LINE
  5
18D
330
1F
100
AcDbEntity
  8
0
  6
Continuous
 62
     7
370
    25
100
AcDbLine
 10
623.7845913198
 20
670.500584263
 30
0.0
 11
623.7845913198
 21
664.5766101681
 31
0.0
  0
LINE
  5
18E
330
1F
100
AcDbEntity
  8
0
  6
Continuous
 62
     7
370
    25
100
AcDbLine
 10
623.7845913198
 20
674.5766106431
 30
0.0
 11
623.7845913198
 21
680.5005840395
 31
0.0
  0
LINE
  5
18F
330
1F
100
AcDbEntity
  8
0
  6
Continuous
 62
     7
370
    25
100
AcDbLine
 10
623.7845913198
 20
684.5766104196
 30
0.0
 11
623.7845913198
 21
690.500583816
 31
0.0
  0
ELLIPSE
  5
190
330
1F
100
AcDbEntity
  8
0
  6
Continuous
 62
     7
370
    25
100
AcDbEllipse
 10
623.8609281585
 20
756.5397510904
 30
0.0
 11
11.76933602837778
 21
1.136868377216160E-13
 31
0.0
210
0.0
220
0.0
230
1.0
 40
0.0319536718
 41
4.704589431615546
 42
6.266149241167077
  0
LINE
  5
191
330
1F
100
AcDbEntity
  8
0
  6
Continuous
 62
     7
370
    25
100
AcDbLine
 10
635.6285557773
 20
618.5438487117
 30
0.0
 11
635.6285557773
 21
756.5333473866
 31
0.0
  0
ELLIPSE
  5
192
330
1F
100
AcDbEntity
  8
0
  6
Continuous
 62
     7
370
    25
100
AcDbEllipse
 10
623.8609281585
 20
618.5374436362
 30
0.0
 11
11.76933602837789
 21
0.0
 31
0.0
210
0.0
220
0.0
230
1.0
 40
0.0319536718
 41
0.0170360660126512
 42
1.57859587556403
  0
LINE
  5
193
330
1F
100
AcDbEntity
  8
0
  6
Continuous
 62
     7
370
    25
100
AcDbLine
 10
556.0582120594
 20
756.1624947373
 30
0.0
 11
545.8750975009
 21
756.1624947373
 31
0.0
  0
LINE
  5
194
330
1F
100
AcDbEntity
  8
0
  6
Continuous
 62
     7
370
    25
100
AcDbLine
 10
556.0582120594
 20
747.8664669578
 30
0.0
 11
545.8750975009
 21
747.8664669578
 31
0.0
  0
LINE
  5
195
330
1F
100
AcDbEntity
  8
0
  6
Continuous
 62
     7
370
    25
100
AcDbLine
 10
545.8750975009
 20
618.9147013609
 30
0.0
 11
556.0582120594
 21
618.9147013609
 31
0.0
  0
LINE
  5
196
330
1F
100
AcDbEntity
  8
0
  6
Continuous
 62
     7
370
    25
100
AcDbLine
 10
545.8750975009
 20
627.2107291405
 30
0.0
 11
556.0582120594
 21
627.2107291405
 31
0.0
  0
SPLINE
  5
197
330
1F
100
AcDbEntity
  8
0
  6
Continuous
 62
     7
370
    25
100
AcDbSpline
210
0.0
220
0.0
230
1.0
 70
     8
 71
     3
 72
    12
 73
     8
 74
     0
 42
0.000000001
 43
0.00000001
 40
0.0
 40
0.0
 40
0.0
 40
0.0
 40
0.2145991185564771
 40
0.4291977335255424
 40
0.6437833461673104
 40
0.858438389798666
 40
1.0
 40
1.0
 40
1.0
 40
1.0
 10
467.3043162252919
 20
617.5438355092579
 30
0.0
 10
467.191962494303
 20
617.5548803876947
 30
0.0
 10
466.9672552959792
 20
617.57697011865
 30
0.0
 10
466.6677777661781
 20
617.749273716887
 30
0.0
 10
466.4417497002142
 20
618.002869966782
 30
0.0
 10
466.3218569122644
 20
618.2840562950862
 30
0.0
 10
466.3096176886569
 20
618.4699671554412
 30
0.0
 10
466.3047537829891
 20
618.5438487116867
 30
0.0
  0
SPLINE
  5
198
330
1F
100
AcDbEntity
  8
0
  6
Continuous
 62
     7
370
    25
100
AcDbSpline
210
0.0
220
0.0
230
1.0
 70
     8
 71
     3
 72
    12
 73
     8
 74
     0
 42
0.000000001
 43
0.00000001
 40
0.0
 40
0.0
 40
0.0
 40
0.0
 40
0.2148389209228221
 40
0.4296829568335406
 40
0.6444263254564863
 40
0.8590537078892353
 40
1.0
 40
1.0
 40
1.0
 40
1.0
 10
635.628555777313
 20
618.5438487116867
 30
0.0
 10
635.6174998885741
 20
618.4313707026985
 30
0.0
 10
635.5953878478724
 20
618.2064120067919
 30
0.0
 10
635.4229327587825
 20
617.9066218711159
 30
0.0
 10
635.1691379042259
 20
617.6804999107517
 30
0.0
 10
634.8881229456956
 20
617.5608558005647
 30
0.0
 10
634.7025520239957
 20
617.5486670308712
 30
0.0
 10
634.6289933350103
 20
617.5438355092579
 30
0.0
  0
SPLINE
  5
199
330
1F
100
AcDbEntity
  8
0
  6
Continuous
 62
     7
370
    25
100
AcDbSpline
210
0.0
220
0.0
230
1.0
 70
     8
 71
     3
 72
    12
 73
     8
 74
     0
 42
0.000000001
 43
0.00000001
 40
0.0
 40
0.0
 40
0.0
 40
0.0
 40
0.2148413074699022
 40
0.4296853812972527
 40
0.6444256203043854
 40
0.8590539456789661
 40
1.0
 40
1.0
 40
1.0
 40
1.0
 10
466.3047537829892
 20
756.5333473865562
 30
0.0
 10
466.315809628292
 20
756.6458265046131
 30
0.0
 10
466.3379214612559
 20
756.8707861890397
 30
0.0
 10
466.5103743360189
 20
757.1705785868418
 30
0.0
 10
466.764175406388
 20
757.3966902967054
 30
0.0
 10
467.0451853758198
 20
757.5163426530614
 30
0.0
 10
467.2307573779943
 20
757.5285270808864
 30
0.0
 10
467.3043162252919
 20
757.5333568636947
 30
0.0
  0
SPLINE
  5
19A
330
1F
100
AcDbEntity
  8
0
  6
Continuous
 62
     7
370
    25
100
AcDbSpline
210
0.0
220
0.0
230
1.0
 70
     8
 71
     3
 72
    12
 73
     8
 74
     0
 42
0.000000001
 43
0.00000001
 40
0.0
 40
0.0
 40
0.0
 40
0.0
 40
0.214598705719239
 40
0.4291961529415458
 40
0.6437835320813908
 40
0.8584407661269448
 40
0.9999999999999999
 40
0.9999999999999999
 40
0.9999999999999999
 40
0.9999999999999999
 10
634.6289933350103
 20
757.5333568636947
 30
0.0
 10
634.7413469026644
 20
757.5223131875256
 30
0.0
 10
634.9660533790844
 20
757.5002258999522
 30
0.0
 10
635.26553408755
 20
757.3279264829093
 30
0.0
 10
635.4915597516231
 20
757.0743253974795
 30
0.0
 10
635.6114518243388
 20
756.7931384007309
 30
0.0
 10
635.6236916940109
 20
756.6072276840503
 30
0.0
 10
635.628555777313
 20
756.5333473865562
 30
0.0
  0
LINE
  5
19B
330
1F
100
AcDbEntity
  8
0
  6
Continuous
 62
     7
370
    25
100
AcDbLine
 10
547.5357448373
 20
616.8658252244
 30
0.0
 11
555.234817664
 21
616.8658252244
 31
0.0
  0
LINE
  5
19C
330
1F
100
AcDbEntity
  8
0
  6
Continuous
 62
     7
370
    25
100
AcDbLine
 10
547.4040609475
 20
616.8658252244
 30
0.0
 11
547.5357448373
 21
616.8658252244
 31
0.0
  0
LINE
  5
19D
330
1F
100
AcDbEntity
  8
0
  6
Continuous
 62
     7
370
    25
100
AcDbLine
 10
547.4031335831
 20
616.8658252244
 30
0.0
 11
547.4040609475
 21
616.8658252244
 31
0.0
  0
CIRCLE
  5
19E
330
1F
100
AcDbEntity
  8
0
  6
Continuous
 62
     7
370
    25
100
AcDbCircle
 10
595.9666547801
 20
251.2833592479
 30
0.0
 40
7.999999999999951
  0
LINE
  5
19F
330
1F
100
AcDbEntity
  8
0
  6
Continuous
 62
     7
370
    25
100
AcDbLine
 10
595.9579729166
 20
247.2419294898
 30
0.0
 11
599.4623050716
 21
249.2551061694
 31
0.0
  0
LINE
  5
1A0
330
1F
100
AcDbEntity
  8
0
  6
Continuous
 62
     7
370
    25
100
AcDbLine
 10
599.4623050716
 20
249.2551061694
 30
0.0
 11
599.4709887233
 21
253.2965693061
 31
0.0
  0
LINE
  5
1A1
330
1F
100
AcDbEntity
  8
0
  6
Continuous
 62
     7
370
    25
100
AcDbLine
 10
599.4709887233
 20
253.2965693061
 30
0.0
 11
595.9753364947
 21
255.3247961585
 31
0.0
  0
LINE
  5
1A2
330
1F
100
AcDbEntity
  8
0
  6
Continuous
 62
     7
370
    25
100
AcDbLine
 10
595.9753364947
 20
255.3247961585
 30
0.0
 11
592.4710043397
 21
253.3115896766
 31
0.0
  0
LINE
  5
1A3
330
1F
100
AcDbEntity
  8
0
  6
Continuous
 62
     7
370
    25
100
AcDbLine
 10
592.4710043397
 20
253.3115896766
 30
0.0
 11
592.462320688
 21
249.2701563422
 31
0.0
  0
LINE
  5
1A4
330
1F
100
AcDbEntity
  8
0
  6
Continuous
 62
     7
370
    25
100
AcDbLine
 10
592.462320688
 20
249.2701563422
 30
0.0
 11
595.9579729166
 21
247.2419294898
 31
0.0
  0
LINE
  5
1A5
330
1F
100
AcDbEntity
  8
0
  6
Continuous
 62
     7
370
    25
100
AcDbLine
 10
505.9579730656
 20
247.2419294898
 30
0.0
 11
509.4623052206
 21
249.2551061694
 31
0.0
  0
LINE
  5
1A6
330
1F
100
AcDbEntity
  8
0
  6
Continuous
 62
     7
370
    25
100
AcDbLine
 10
502.462320837
 20
249.2701563422
 30
0.0
 11
505.9579730656
 21
247.2419294898
 31
0.0
  0
LINE
  5
1A7
330
1F
100
AcDbEntity
  8
0
  6
Continuous
 62
     7
370
    25
100
AcDbLine
 10
502.4710044887
 20
253.3115896766
 30
0.0
 11
502.462320837
 21
249.2701563422
 31
0.0
  0
CIRCLE
  5
1A8
330
1F
100
AcDbEntity
  8
0
  6
Continuous
 62
     7
370
    25
100
AcDbCircle
 10
505.9666547801
 20
251.2833592479
 30
0.0
 40
8.000000000000007
  0
LINE
  5
1A9
330
1F
100
AcDbEntity
  8
0
  6
Continuous
 62
     7
370
    25
100
AcDbLine
 10
505.9753366437
 20
255.3247961585
 30
0.0
 11
502.4710044887
 21
253.3115896766
 31
0.0
  0
LINE
  5
1AA
330
1F
100
AcDbEntity
  8
0
  6
Continuous
 62
     7
370
    25
100
AcDbLine
 10
509.4623052206
 20
249.2551061694
 30
0.0
 11
509.4709888723
 21
253.2965693061
 31
0.0
  0
LINE
  5
1AB
330
1F
100
AcDbEntity
  8
0
  6
Continuous
 62
     7
370
    25
100
AcDbLine
 10
509.4709888723
 20
253.2965693061
 30
0.0
 11
505.9753366437
 21
255.3247961585
 31
0.0
  0
LINE
  5
1AC
330
1F
100
AcDbEntity
  8
0
  6
Continuous
 62
     7
370
    25
100
AcDbLine
 10
458.9666546013
 20
811.2833652083
 30
0.0
 11
458.9666546013
 21
808.2833591287
 31
0.0
  0
LINE
  5
1AD
330
1F
100
AcDbEntity
  8
0
  6
Continuous
 62
     7
370
    25
100
AcDbLine
 10
458.9666546013
 20
811.2833652083
 30
0.0
 11
642.966654959
 21
811.2833652083
 31
0.0
  0
LINE
  5
1AE
330
1F
100
AcDbEntity
  8
0
  6
Continuous
 62
     7
370
    25
100
AcDbLine
 10
642.966654959
 20
808.2833591287
 30
0.0
 11
642.966654959
 21
811.2833652083
 31
0.0
  0
LINE
  5
1AF
330
1F
100
AcDbEntity
  8
0
  6
Continuous
 62
     7
370
    25
100
AcDbLine
 10
458.9666546013
 20
808.2833591287
 30
0.0
 11
642.966654959
 21
808.2833591287
 31
0.0
  0
LINE
  5
1B0
330
1F
100
AcDbEntity
  8
0
  6
Continuous
 62
     7
370
    25
100
AcDbLine
 10
458.9666546013
 20
808.2833591287
 30
0.0
 11
456.9666579988
 21
808.2833591287
 31
0.0
  0
LINE
  5
1B1
330
1F
100
AcDbEntity
  8
0
  6
Continuous
 62
     7
370
    25
100
AcDbLine
 10
456.9666579988
 20
808.2833591287
 30
0.0
 11
456.9666579988
 21
811.2833652083
 31
0.0
  0
LINE
  5
1B2
330
1F
100
AcDbEntity
  8
0
  6
Continuous
 62
     7
370
    25
100
AcDbLine
 10
456.9666579988
 20
811.2833652083
 30
0.0
 11
458.9666546013
 21
811.2833652083
 31
0.0
  0
LINE
  5
1B3
330
1F
100
AcDbEntity
  8
0
  6
Continuous
 62
     7
370
    25
100
AcDbLine
 10
644.9666515615
 20
811.2833652083
 30
0.0
 11
644.9666515615
 21
808.2833591287
 31
0.0
  0
LINE
  5
1B4
330
1F
100
AcDbEntity
  8
0
  6
Continuous
 62
     7
370
    25
100
AcDbLine
 10
644.9666515615
 20
808.2833591287
 30
0.0
 11
642.966654959
 21
808.2833591287
 31
0.0
  0
LINE
  5
1B5
330
1F
100
AcDbEntity
  8
0
  6
Continuous
 62
     7
370
    25
100
AcDbLine
 10
642.966654959
 20
811.2833652083
 30
0.0
 11
644.9666515615
 21
811.2833652083
 31
0.0
  0
LINE
  5
1B6
330
1F
100
AcDbEntity
  8
0
  6
Continuous
 62
     8
370
    25
100
AcDbLine
 10
469.2715898778
 20
616.783358473
 30
0.0
 11
469.2715898778
 21
617.5333599929
 31
0.0
  0
LINE
  5
1B7
330
1F
100
AcDbEntity
  8
0
  6
Continuous
 62
     8
370
    25
100
AcDbLine
 10
469.2715898778
 20
757.5333568637
 30
0.0
 11
469.2715898778
 21
758.2833621089
 31
0.0
  0
LINE
  5
1B8
330
1F
100
AcDbEntity
  8
0
  6
Continuous
 62
     8
370
    25
100
AcDbLine
 10
632.6617196825
 20
758.2833621089
 30
0.0
 11
632.6617196825
 21
757.5333568637
 31
0.0
  0
LINE
  5
1B9
330
1F
100
AcDbEntity
  8
0
  6
Continuous
 62
     8
370
    25
100
AcDbLine
 10
632.6617196825
 20
617.5333599929
 30
0.0
 11
632.6617196825
 21
616.783358473
 31
0.0
  0
LINE
  5
1BA
330
1F
100
AcDbEntity
  8
0
  6
Continuous
 62
     8
370
    25
100
AcDbLine
 10
581.3361470279
 20
747.6194578592
 30
0.0
 11
581.4849667873
 21
747.6251277511
 31
0.0
  0
LINE
  5
1BB
330
1F
100
AcDbEntity
  8
0
  6
Continuous
 62
     8
370
    25
100
AcDbLine
 10
520.6309620913
 20
627.4484287386
 30
0.0
 11
520.4815425601
 21
627.4427327697
 31
0.0
  0
LINE
  5
1BC
330
1F
100
AcDbEntity
  8
0
  6
Continuous
 62
     8
370
    25
100
AcDbLine
 10
581.3027348992
 20
627.4485330467
 30
0.0
 11
581.4513125148
 21
627.4428743307
 31
0.0
  0
LINE
  5
1BD
330
1F
100
AcDbEntity
  8
0
  6
Continuous
 62
     8
370
    25
100
AcDbLine
 10
520.5975499626
 20
747.6195621674
 30
0.0
 11
520.4500396427
 21
747.6251873557
 31
0.0
  0
LINE
  5
1BE
330
1F
100
AcDbEntity
  8
0
  6
Continuous
 62
     8
370
    25
100
AcDbLine
 10
547.4532992736
 20
616.783358473
 30
0.0
 11
547.5357448373
 21
616.8658252244
 31
0.0
  0
LINE
  5
1BF
330
1F
100
AcDbEntity
  8
0
  6
Continuous
 62
     8
370
    25
100
AcDbLine
 10
547.4040609475
 20
616.8658252244
 30
0.0
 11
547.3216153838
 21
616.783358473
 31
0.0
  0
LINE
  5
1C0
330
1F
100
AcDbEntity
  8
0
  6
Continuous
 62
     7
370
    25
100
AcDbLine
 10
644.9666515615
 20
114.7953568496
 30
0.0
 11
645.9666535881
 21
114.7953568496
 31
0.0
  0
LINE
  5
1C1
330
1F
100
AcDbEntity
  8
0
  6
Continuous
 62
     7
370
    25
100
AcDbLine
 10
645.9666535881
 20
127.2953570359
 30
0.0
 11
644.9666515615
 21
127.2953570359
 31
0.0
  0
LINE
  5
1C2
330
1F
100
AcDbEntity
  8
0
  6
Continuous
 62
     7
370
    25
100
AcDbLine
 10
456.9666579988
 20
127.2953570359
 30
0.0
 11
455.9666559722
 21
127.2953570359
 31
0.0
  0
LINE
  5
1C3
330
1F
100
AcDbEntity
  8
0
  6
Continuous
 62
     7
370
    25
100
AcDbLine
 10
455.9666559722
 20
114.7953568496
 30
0.0
 11
456.9666579988
 21
114.7953568496
 31
0.0
  0
LINE
  5
1C4
330
1F
100
AcDbEntity
  8
0
  6
Continuous
 62
     7
370
    25
100
AcDbLine
 10
645.9666535881
 20
115.7953570135
 30
0.0
 11
646.7666522291
 21
115.7953570135
 31
0.0
  0
LINE
  5
1C5
330
1F
100
AcDbEntity
  8
0
  6
Continuous
 62
     7
370
    25
100
AcDbLine
 10
646.7666522291
 20
126.295356872
 30
0.0
 11
645.9666535881
 21
126.295356872
 31
0.0
  0
ARC
  5
1C6
330
1F
100
AcDbEntity
  8
0
  6
Continuous
 62
     7
370
    25
100
AcDbCircle
 10
645.2854558226
 20
119.8649176324
 30
0.0
 40
4.330736029719131
100
AcDbArc
 50
290.0
 51
336.8223913264
  0
ARC
  5
1C7
330
1F
100
AcDbEntity
  8
0
  6
Continuous
 62
     7
370
    25
100
AcDbCircle
 10
645.2854558226
 20
122.225796253
 30
0.0
 40
4.330736029719131
100
AcDbArc
 50
23.1776086736
 51
70.0
  0
ARC
  5
1C8
330
1F
100
AcDbEntity
  8
0
  6
Continuous
 62
     7
370
    25
100
AcDbCircle
 10
456.6478537377
 20
122.225796253
 30
0.0
 40
4.330736029719084
100
AcDbArc
 50
110.0
 51
156.8223913264
  0
ARC
  5
1C9
330
1F
100
AcDbEntity
  8
0
  6
Continuous
 62
     7
370
    25
100
AcDbCircle
 10
456.6478537377
 20
119.8649176324
 30
0.0
 40
4.330736029719092
100
AcDbArc
 50
203.1776086736
 51
250.0
  0
LINE
  5
1CA
330
1F
100
AcDbEntity
  8
0
  6
Continuous
 62
     7
370
    25
100
AcDbLine
 10
455.9666559722
 20
126.295356872
 30
0.0
 11
455.1666573312
 21
126.295356872
 31
0.0
  0
LINE
  5
1CB
330
1F
100
AcDbEntity
  8
0
  6
Continuous
 62
     7
370
    25
100
AcDbLine
 10
455.1666573312
 20
115.7953570135
 30
0.0
 11
455.9666559722
 21
115.7953570135
 31
0.0
  0
LINE
  5
1CC
330
1F
100
AcDbEntity
  8
0
  6
Continuous
 62
     7
370
    25
100
AcDbLine
 10
645.9666535881
 20
127.2953570359
 30
0.0
 11
645.9666535881
 21
114.7953568496
 31
0.0
  0
LINE
  5
1CD
330
1F
100
AcDbEntity
  8
0
  6
Continuous
 62
     7
370
    25
100
AcDbLine
 10
455.9666559722
 20
122.0271608098
 30
0.0
 11
455.9666559722
 21
127.2953570359
 31
0.0
  0
LINE
  5
1CE
330
1F
100
AcDbEntity
  8
0
  6
Continuous
 62
     7
370
    25
100
AcDbLine
 10
455.9666559722
 20
114.7953568496
 30
0.0
 11
455.9666559722
 21
122.0271608098
 31
0.0
  0
LINE
  5
1CF
330
1F
100
AcDbEntity
  8
0
  6
Continuous
 62
     7
370
    25
100
AcDbLine
 10
646.7666522291
 20
115.7953570135
 30
0.0
 11
646.7666522291
 21
126.295356872
 31
0.0
  0
LINE
  5
1D0
330
1F
100
AcDbEntity
  8
0
  6
Continuous
 62
     7
370
    25
100
AcDbLine
 10
649.2666572955
 20
118.1604148358
 30
0.0
 11
649.2666572955
 21
123.9302990496
 31
0.0
  0
LINE
  5
1D1
330
1F
100
AcDbEntity
  8
0
  6
Continuous
 62
     7
370
    25
100
AcDbLine
 10
455.1666573312
 20
115.8021361105
 30
0.0
 11
455.1666573312
 21
115.7953570135
 31
0.0
  0
LINE
  5
1D2
330
1F
100
AcDbEntity
  8
0
  6
Continuous
 62
     7
370
    25
100
AcDbLine
 10
455.1666573312
 20
126.295356872
 30
0.0
 11
455.1666573312
 21
115.8021361105
 31
0.0
  0
LINE
  5
1D3
330
1F
100
AcDbEntity
  8
0
  6
Continuous
 62
     7
370
    25
100
AcDbLine
 10
452.6666522648
 20
118.164140359
 30
0.0
 11
452.6666522648
 21
118.1604148358
 31
0.0
  0
LINE
  5
1D4
330
1F
100
AcDbEntity
  8
0
  6
Continuous
 62
     7
370
    25
100
AcDbLine
 10
452.6666522648
 20
123.9302990496
 30
0.0
 11
452.6666522648
 21
118.164140359
 31
0.0
  0
LWPOLYLINE
  5
1D5
330
1F
100
AcDbEntity
  8
0
  6
Continuous
 62
     7
370
    25
100
AcDbPolyline
 90
        9
 70
   128
 43
0.0
 10
478.1641781952
 20
49.1656794682
 10
478.1639770296
 20
49.1840526
 10
478.163507643
 20
49.2384939924
 10
478.1627700355
 20
49.3269994393
 10
478.16180146
 20
49.4463279382
 10
478.1606242683
 20
49.592091097
 10
478.1592980649
 20
49.7589244977
 10
478.1578675535
 20
49.9407037631
 10
478.1563774374
 20
50.1307457224
  0
ARC
  5
1D6
330
1F
100
AcDbEntity
  8
0
  6
Continuous
 62
     7
370
    25
100
AcDbCircle
 10
478.0723814018
 20
60.9346566171
 30
0.0
 40
11.76933602837782
100
AcDbArc
 50
184.3334414477
 51
270.4468812266
  0
ARC
  5
1D7
330
1F
100
AcDbEntity
  8
0
  6
Continuous
 62
     7
370
    25
100
AcDbCircle
 10
623.8609281585
 20
60.9346566171
 30
0.0
 40
11.7693360283779
100
AcDbArc
 50
269.5531187734
 51
355.6665585523
  0
LWPOLYLINE
  5
1D8
330
1F
100
AcDbEntity
  8
0
  6
Continuous
 62
     7
370
    25
100
AcDbPolyline
 90
        9
 70
   128
 43
0.0
 10
623.7691313651
 20
49.1656794682
 10
623.7693325307
 20
49.1840526
 10
623.7698019173
 20
49.2384939924
 10
623.7705395248
 20
49.3269994393
 10
623.7715081003
 20
49.4463279382
 10
623.772685292
 20
49.592091097
 10
623.7740114954
 20
49.7589244977
 10
623.7754420068
 20
49.9407037631
 10
623.7769321229
 20
50.1307457224
  0
ARC
  5
1D9
330
1F
100
AcDbEntity
  8
0
  6
Continuous
 62
     7
370
    25
100
AcDbCircle
 10
622.7516430121
 20
-81.3216309925
 30
0.0
 40
131.456378068293
100
AcDbArc
 50
89.5531187734
 51
107.8876148317
  0
ARC
  5
1DA
330
1F
100
AcDbEntity
  8
0
  6
Continuous
 62
     7
370
    25
100
AcDbCircle
 10
582.1904060392
 20
44.3512501065
 30
0.0
 40
0.599999999999965
100
AcDbArc
 50
255.5949749034
 51
287.8876148317
  0
LINE
  5
1DB
330
1F
100
AcDbEntity
  8
0
  6
Continuous
 62
     7
370
    25
100
AcDbLine
 10
558.7201028753
 20
49.7601165906
 30
0.0
 11
582.041141453
 21
43.770110561
 31
0.0
  0
ARC
  5
1DC
330
1F
100
AcDbEntity
  8
0
  6
Continuous
 62
     7
370
    25
100
AcDbCircle
 10
556.0582121808
 20
39.3965120345
 30
0.0
 40
10.70000000000029
100
AcDbArc
 50
75.5949749034
 51
90.0
  0
LINE
  5
1DD
330
1F
100
AcDbEntity
  8
0
  6
Continuous
 62
     7
370
    25
100
AcDbLine
 10
545.8750975009
 20
50.0965103045
 30
0.0
 11
556.0582120594
 21
50.0965103045
 31
0.0
  0
ARC
  5
1DE
330
1F
100
AcDbEntity
  8
0
  6
Continuous
 62
     7
370
    25
100
AcDbCircle
 10
545.8750973795
 20
39.3965120345
 30
0.0
 40
10.70000000000007
100
AcDbArc
 50
90.0
 51
104.4050250966
  0
LINE
  5
1DF
330
1F
100
AcDbEntity
  8
0
  6
Continuous
 62
     7
370
    25
100
AcDbLine
 10
519.8921681073
 20
43.770110561
 30
0.0
 11
543.213206685
 21
49.7601165906
 31
0.0
  0
ARC
  5
1E0
330
1F
100
AcDbEntity
  8
0
  6
Continuous
 62
     7
370
    25
100
AcDbCircle
 10
519.7429035211
 20
44.3512501065
 30
0.0
 40
0.5999999999999718
100
AcDbArc
 50
252.1123851683
 51
284.4050250966
  0
ARC
  5
1E1
330
1F
100
AcDbEntity
  8
0
  6
Continuous
 62
     7
370
    25
100
AcDbCircle
 10
479.1816665482
 20
-81.3216309925
 30
0.0
 40
131.456378068293
100
AcDbArc
 50
72.1123851683
 51
90.4468812266
  0
ARC
  5
1E2
330
1F
100
AcDbEntity
  8
0
  6
Continuous
 62
     7
370
    25
100
AcDbCircle
 10
479.1816665482
 20
-81.2867314958
 30
0.0
 40
130.4563780682934
100
AcDbArc
 50
72.1123851683
 51
90.4468812266
  0
ARC
  5
1E3
330
1F
100
AcDbEntity
  8
0
  6
Continuous
 62
     7
370
    25
100
AcDbCircle
 10
498.276431107
 20
50.4008014499
 30
0.0
 40
22.28817982172793
100
AcDbArc
 50
340.2342700345
 51
342.7199072161
  0
ARC
  5
1E4
330
1F
100
AcDbEntity
  8
0
  6
Continuous
 62
     7
370
    25
100
AcDbCircle
 10
622.7516430121
 20
-81.2867314958
 30
0.0
 40
130.4563780682934
100
AcDbArc
 50
89.5531187734
 51
107.8876148317
  0
ARC
  5
1E5
330
1F
100
AcDbEntity
  8
0
  6
Continuous
 62
     7
370
    25
100
AcDbCircle
 10
603.6568784533
 20
50.4008014499
 30
0.0
 40
22.28817982172793
100
AcDbArc
 50
197.2800927839
 51
199.7657299655
  0
ARC
  5
1E6
330
1F
100
AcDbEntity
  8
0
  6
Continuous
 62
     7
370
    25
100
AcDbCircle
 10
556.0582121808
 20
39.4314115312
 30
0.0
 40
9.700000000000147
100
AcDbArc
 50
75.5949749034
 51
90.0
  0
LINE
  5
1E7
330
1F
100
AcDbEntity
  8
0
  6
Continuous
 62
     7
370
    25
100
AcDbLine
 10
556.0582120594
 20
49.1314142481
 30
0.0
 11
556.0582120594
 21
50.0965103045
 31
0.0
  0
ARC
  5
1E8
330
1F
100
AcDbEntity
  8
0
  6
Continuous
 62
     7
370
    25
100
AcDbCircle
 10
532.0384331484
 20
56.3694913768
 30
0.0
 40
27.48809441336831
100
AcDbArc
 50
344.0730803441
 51
346.0871940591
  0
ARC
  5
1E9
330
1F
100
AcDbEntity
  8
0
  6
Continuous
 62
     7
370
    25
100
AcDbCircle
 10
545.8750973795
 20
39.4314115312
 30
0.0
 40
9.700000000000063
100
AcDbArc
 50
90.0
 51
104.4050250966
  0
ARC
  5
1EA
330
1F
100
AcDbEntity
  8
0
  6
Continuous
 62
     7
370
    25
100
AcDbCircle
 10
569.8948764119
 20
56.3694913768
 30
0.0
 40
27.48809441336831
100
AcDbArc
 50
193.9128059409
 51
195.9269196559
  0
LINE
  5
1EB
330
1F
100
AcDbEntity
  8
0
  6
Continuous
 62
     7
370
    25
100
AcDbLine
 10
545.8750975009
 20
49.1314142481
 30
0.0
 11
545.8750975009
 21
50.0965103045
 31
0.0
  0
LINE
  5
1EC
330
1F
100
AcDbEntity
  8
0
  6
Continuous
 62
     7
370
    25
100
AcDbLine
 10
556.0582120594
 20
49.1314142481
 30
0.0
 11
545.8750975009
 21
49.1314142481
 31
0.0
  0
LINE
  5
1ED
330
1F
100
AcDbEntity
  8
0
  6
Continuous
 62
     7
370
    25
100
AcDbLine
 10
581.7923665669
 20
42.8364485041
 30
0.0
 11
558.4713279892
 21
48.8264545337
 31
0.0
  0
ARC
  5
1EE
330
1F
100
AcDbEntity
  8
0
  6
Continuous
 62
     7
370
    25
100
AcDbCircle
 10
555.3546960618
 20
50.3807578262
 30
0.0
 40
27.49303593426845
100
AcDbArc
 50
344.0732613684
 51
346.0870130349
  0
LINE
  5
1EF
330
1F
100
AcDbEntity
  8
0
  6
Continuous
 62
     7
370
    25
100
AcDbLine
 10
543.4619815711
 20
48.8264545337
 30
0.0
 11
520.1409429934
 21
42.8364485041
 31
0.0
  0
ARC
  5
1F0
330
1F
100
AcDbEntity
  8
0
  6
Continuous
 62
     7
370
    25
100
AcDbCircle
 10
546.5786134985
 20
50.3807578262
 30
0.0
 40
27.49303593426845
100
AcDbArc
 50
193.9129869651
 51
195.9267386317
  0
ARC
  5
1F1
330
1F
100
AcDbEntity
  8
0
  6
Continuous
 62
     7
370
    25
100
AcDbCircle
 10
519.7429035211
 20
44.3861496032
 30
0.0
 40
1.599999999999977
100
AcDbArc
 50
252.1123851683
 51
284.4050250966
  0
ARC
  5
1F2
330
1F
100
AcDbEntity
  8
0
  6
Continuous
 62
     7
370
    25
100
AcDbCircle
 10
582.1904060392
 20
44.3861496032
 30
0.0
 40
1.599999999999921
100
AcDbArc
 50
255.5949749034
 51
287.8876148317
  0
ARC
  5
1F3
330
1F
100
AcDbEntity
  8
0
  6
Continuous
 62
     7
370
    25
100
AcDbCircle
 10
458.9666547802
 20
62.0453569427
 30
0.0
 40
2.0
100
AcDbArc
 50
180.0
 51
270.0
  0
LINE
  5
1F4
330
1F
100
AcDbEntity
  8
0
  6
Continuous
 62
     7
370
    25
100
AcDbLine
 10
456.9666579988
 20
180.0453573004
 30
0.0
 11
456.9666579988
 21
62.0453565851
 31
0.0
  0
LINE
  5
1F5
330
1F
100
AcDbEntity
  8
0
  6
Continuous
 62
     7
370
    25
100
AcDbLine
 10
642.966654959
 20
182.0453576282
 30
0.0
 11
458.9666546013
 21
182.0453576282
 31
0.0
  0
LINE
  5
1F6
330
1F
100
AcDbEntity
  8
0
  6
Continuous
 62
     7
370
    25
100
AcDbLine
 10
644.9666515615
 20
62.0453565851
 30
0.0
 11
644.9666515615
 21
180.0453573004
 31
0.0
  0
ARC
  5
1F7
330
1F
100
AcDbEntity
  8
0
  6
Continuous
 62
     7
370
    25
100
AcDbCircle
 10
642.9666547802
 20
62.0453569427
 30
0.0
 40
2.0
100
AcDbArc
 50
270.0
 51
0.0
  0
LINE
  5
1F8
330
1F
100
AcDbEntity
  8
0
  6
Continuous
 62
     7
370
    25
100
AcDbLine
 10
458.9666546013
 20
60.0453562573
 30
0.0
 11
642.966654959
 21
60.0453562573
 31
0.0
  0
ARC
  5
1F9
330
1F
100
AcDbEntity
  8
0
  6
Continuous
 62
     7
370
    25
100
AcDbCircle
 10
642.9666547802
 20
180.0453569427
 30
0.0
 40
2.0
100
AcDbArc
 50
0.0
 51
90.0
  0
ARC
  5
1FA
330
1F
100
AcDbEntity
  8
0
  6
Continuous
 62
     7
370
    25
100
AcDbCircle
 10
458.9666547802
 20
180.0453569427
 30
0.0
 40
2.0
100
AcDbArc
 50
90.0
 51
180.0
  0
ARC
  5
1FB
330
1F
100
AcDbEntity
  8
0
  6
Continuous
 62
     8
370
    25
100
AcDbCircle
 10
478.0723814018
 20
60.8997571204
 30
0.0
 40
10.76933602837782
100
AcDbArc
 50
184.5504220923
 51
270.4468812266
  0
ARC
  5
1FC
330
1F
100
AcDbEntity
  8
0
  6
Continuous
 62
     8
370
    25
100
AcDbCircle
 10
623.8609281585
 20
60.8997571204
 30
0.0
 40
10.76933602837786
100
AcDbArc
 50
269.5531187734
 51
355.4495779077
  0
ENDSEC
  0
SECTION
  2
OBJECTS
  0
DICTIONARY
  5
C
330
0
100
AcDbDictionary
281
     1
  3
ACAD_GROUP
350
D
  3
ACAD_LAYOUT
350
1A
  3
ACAD_MLINESTYLE
350
17
  3
ACAD_PLOTSETTINGS
350
19
  3
ACAD_PLOTSTYLENAME
350
E
  3
ACAD_SCALELIST
350
47
  0
DICTIONARY
  5
D
102
{ACAD_REACTORS
330
C
102
}
330
C
100
AcDbDictionary
281
     1
  0
DICTIONARY
  5
1A
102
{ACAD_REACTORS
330
C
102
}
330
C
100
AcDbDictionary
281
     1
  3
Layout1
350
1E
  3
Layout2
350
26
  3
Model
350
22
  0
DICTIONARY
  5
17
102
{ACAD_REACTORS
330
C
102
}
330
C
100
AcDbDictionary
281
     1
  3
Standard
350
18
  0
DICTIONARY
  5
19
102
{ACAD_REACTORS
330
C
102
}
330
C
100
AcDbDictionary
281
     1
  0
ACDBDICTIONARYWDFLT
  5
E
102
{ACAD_REACTORS
330
C
102
}
330
C
100
AcDbDictionary
281
     1
  3
Normal
350
F
100
AcDbDictionaryWithDefault
340
F
  0
DICTIONARY
  5
47
102
{ACAD_REACTORS
330
C
102
}
330
C
100
AcDbDictionary
281
     1
  3
A0
350
48
  3
A1
350
49
  3
A2
350
4A
  3
A3
350
4B
  3
A4
350
4C
  3
A5
350
4D
  3
A6
350
4E
  3
A7
350
4F
  3
A8
350
50
  3
A9
350
51
  3
B0
350
52
  3
B1
350
53
  3
B2
350
54
  3
B3
350
55
  3
B4
350
56
  3
B5
350
57
  3
B6
350
58
  3
B7
350
59
  3
B8
350
5A
  3
B9
350
5B
  3
C0
350
5C
  3
C1
350
5D
  3
C2
350
5E
  3
C3
350
5F
  3
C4
350
60
  3
C5
350
61
  3
C6
350
62
  3
C7
350
63
  3
C8
350
64
  3
C9
350
65
  3
D0
350
66
  3
D1
350
67
  3
D2
350
68
  0
LAYOUT
  5
1E
102
{ACAD_REACTORS
330
1A
102
}
330
1A
100
AcDbPlotSettings
  1

  2
none_device
  4

  6

 40
0.0
 41
0.0
 42
0.0
 43
0.0
 44
0.0
 45
0.0
 46
0.0
 47
0.0
 48
0.0
 49
0.0
140
0.0
141
0.0
142
1.0
143
1.0
 70
   688
 72
     1
 73
     0
 74
     5
  7

 75
    16
147
1.0
148
0.0
149
0.0
100
AcDbLayout
  1
Layout1
 70
     1
 71
     1
 10
0.0
 20
0.0
 11
420.0
 21
297.0
 12
0.0
 22
0.0
 32
0.0
 14
1.0000000000E+20
 24
1.0000000000E+20
 34
1.0000000000E+20
 15
-1.0000000000E+20
 25
-1.0000000000E+20
 35
-1.0000000000E+20
146
0.0
 13
0.0
 23
0.0
 33
0.0
 16
1.0
 26
0.0
 36
0.0
 17
0.0
 27
1.0
 37
0.0
 76
     0
330
1B
  0
LAYOUT
  5
26
102
{ACAD_REACTORS
330
1A
102
}
330
1A
100
AcDbPlotSettings
  1

  2
none_device
  4

  6

 40
0.0
 41
0.0
 42
0.0
 43
0.0
 44
0.0
 45
0.0
 46
0.0
 47
0.0
 48
0.0
 49
0.0
140
0.0
141
0.0
142
1.0
143
1.0
 70
   688
 72
     1
 73
     0
 74
     5
  7

 75
    16
147
1.0
148
0.0
149
0.0
100
AcDbLayout
  1
Layout2
 70
     1
 71
     2
 10
0.0
 20
0.0
 11
0.0
 21
0.0
 12
0.0
 22
0.0
 32
0.0
 14
0.0
 24
0.0
 34
0.0
 15
0.0
 25
0.0
 35
0.0
146
0.0
 13
0.0
 23
0.0
 33
0.0
 16
1.0
 26
0.0
 36
0.0
 17
0.0
 27
1.0
 37
0.0
 76
     0
330
23
  0
LAYOUT
  5
22
102
{ACAD_REACTORS
330
1A
102
}
330
1A
100
AcDbPlotSettings
  1

  2
none_device
  4
Letter_(8.50_x_11.00_Inches)
  6

 40
6.35
 41
6.35
 42
6.35000508
 43
6.35000508
 44
215.9
 45
279.4
 46
0.0
 47
0.0
 48
0.0
 49
0.0
140
0.0
141
0.0
142
1.0
143
1.0
 70
  1712
 72
     1
 73
     0
 74
     0
  7

 75
     0
147
1.0
148
0.0
149
0.0
100
AcDbLayout
  1
Model
 70
     1
 71
     0
 10
0.0
 20
0.0
 11
1189.0
 21
841.0
 12
0.0
 22
0.0
 32
0.0
 14
0.0
 24
0.0
 34
0.0
 15
1189.0
 25
841.0
 35
0.0
146
0.0
 13
0.0
 23
0.0
 33
0.0
 16
1.0
 26
0.0
 36
0.0
 17
0.0
 27
1.0
 37
0.0
 76
     0
330
1F
331
29
  0
MLINESTYLE
  5
18
102
{ACAD_REACTORS
330
17
102
}
330
17
100
AcDbMlineStyle
  2
Standard
 70
     0
  3

 62
   256
 51
90.0
 52
90.0
 71
     2
 49
0.5
 62
   256
  6
BYLAYER
 49
-0.5
 62
   256
  6
BYLAYER
  0
ACDBPLACEHOLDER
  5
F
102
{ACAD_REACTORS
330
E
102
}
330
E
  0
SCALE
  5
48
102
{ACAD_REACTORS
330
47
102
}
330
47
100
AcDbScale
 70
     0
300
1:1
140
1.0
141
1.0
290
     1
  0
SCALE
  5
49
102
{ACAD_REACTORS
330
47
102
}
330
47
100
AcDbScale
 70
     0
300
1:2
140
1.0
141
2.0
290
     0
  0
SCALE
  5
4A
102
{ACAD_REACTORS
330
47
102
}
330
47
100
AcDbScale
 70
     0
300
1:4
140
1.0
141
4.0
290
     0
  0
SCALE
  5
4B
102
{ACAD_REACTORS
330
47
102
}
330
47
100
AcDbScale
 70
     0
300
1:5
140
1.0
141
5.0
290
     0
  0
SCALE
  5
4C
102
{ACAD_REACTORS
330
47
102
}
330
47
100
AcDbScale
 70
     0
300
1:8
140
1.0
141
8.0
290
     0
  0
SCALE
  5
4D
102
{ACAD_REACTORS
330
47
102
}
330
47
100
AcDbScale
 70
     0
300
1:10
140
1.0
141
10.0
290
     0
  0
SCALE
  5
4E
102
{ACAD_REACTORS
330
47
102
}
330
47
100
AcDbScale
 70
     0
300
1:16
140
1.0
141
16.0
290
     0
  0
SCALE
  5
4F
102
{ACAD_REACTORS
330
47
102
}
330
47
100
AcDbScale
 70
     0
300
1:20
140
1.0
141
20.0
290
     0
  0
SCALE
  5
50
102
{ACAD_REACTORS
330
47
102
}
330
47
100
AcDbScale
 70
     0
300
1:30
140
1.0
141
30.0
290
     0
  0
SCALE
  5
51
102
{ACAD_REACTORS
330
47
102
}
330
47
100
AcDbScale
 70
     0
300
1:40
140
1.0
141
40.0
290
     0
  0
SCALE
  5
52
102
{ACAD_REACTORS
330
47
102
}
330
47
100
AcDbScale
 70
     0
300
1:50
140
1.0
141
50.0
290
     0
  0
SCALE
  5
53
102
{ACAD_REACTORS
330
47
102
}
330
47
100
AcDbScale
 70
     0
300
1:100
140
1.0
141
100.0
290
     0
  0
SCALE
  5
54
102
{ACAD_REACTORS
330
47
102
}
330
47
100
AcDbScale
 70
     0
300
2:1
140
2.0
141
1.0
290
     0
  0
SCALE
  5
55
102
{ACAD_REACTORS
330
47
102
}
330
47
100
AcDbScale
 70
     0
300
4:1
140
4.0
141
1.0
290
     0
  0
SCALE
  5
56
102
{ACAD_REACTORS
330
47
102
}
330
47
100
AcDbScale
 70
     0
300
8:1
140
8.0
141
1.0
290
     0
  0
SCALE
  5
57
102
{ACAD_REACTORS
330
47
102
}
330
47
100
AcDbScale
 70
     0
300
10:1
140
10.0
141
1.0
290
     0
  0
SCALE
  5
58
102
{ACAD_REACTORS
330
47
102
}
330
47
100
AcDbScale
 70
     0
300
100:1
140
100.0
141
1.0
290
     0
  0
SCALE
  5
59
102
{ACAD_REACTORS
330
47
102
}
330
47
100
AcDbScale
 70
     0
300
1/128" = 1'-0"
140
0.0078125
141
12.0
290
     0
  0
SCALE
  5
5A
102
{ACAD_REACTORS
330
47
102
}
330
47
100
AcDbScale
 70
     0
300
1/64" = 1'-0"
140
0.015625
141
12.0
290
     0
  0
SCALE
  5
5B
102
{ACAD_REACTORS
330
47
102
}
330
47
100
AcDbScale
 70
     0
300
1/32" = 1'-0"
140
0.03125
141
12.0
290
     0
  0
SCALE
  5
5C
102
{ACAD_REACTORS
330
47
102
}
330
47
100
AcDbScale
 70
     0
300
1/16" = 1'-0"
140
0.0625
141
12.0
290
     0
  0
SCALE
  5
5D
102
{ACAD_REACTORS
330
47
102
}
330
47
100
AcDbScale
 70
     0
300
3/32" = 1'-0"
140
0.09375
141
12.0
290
     0
  0
SCALE
  5
5E
102
{ACAD_REACTORS
330
47
102
}
330
47
100
AcDbScale
 70
     0
300
1/8" = 1'-0"
140
0.125
141
12.0
290
     0
  0
SCALE
  5
5F
102
{ACAD_REACTORS
330
47
102
}
330
47
100
AcDbScale
 70
     0
300
3/16" = 1'-0"
140
0.1875
141
12.0
290
     0
  0
SCALE
  5
60
102
{ACAD_REACTORS
330
47
102
}
330
47
100
AcDbScale
 70
     0
300
1/4" = 1'-0"
140
0.25
141
12.0
290
     0
  0
SCALE
  5
61
102
{ACAD_REACTORS
330
47
102
}
330
47
100
AcDbScale
 70
     0
300
3/8" = 1'-0"
140
0.375
141
12.0
290
     0
  0
SCALE
  5
62
102
{ACAD_REACTORS
330
47
102
}
330
47
100
AcDbScale
 70
     0
300
1/2" = 1'-0"
140
0.5
141
12.0
290
     0
  0
SCALE
  5
63
102
{ACAD_REACTORS
330
47
102
}
330
47
100
AcDbScale
 70
     0
300
3/4" = 1'-0"
140
0.75
141
12.0
290
     0
  0
SCALE
  5
64
102
{ACAD_REACTORS
330
47
102
}
330
47
100
AcDbScale
 70
     0
300
1" = 1'-0"
140
1.0
141
12.0
290
     0
  0
SCALE
  5
65
102
{ACAD_REACTORS
330
47
102
}
330
47
100
AcDbScale
 70
     0
300
1-1/2" = 1'-0"
140
1.5
141
12.0
290
     0
  0
SCALE
  5
66
102
{ACAD_REACTORS
330
47
102
}
330
47
100
AcDbScale
 70
     0
300
3" = 1'-0"
140
3.0
141
12.0
290
     0
  0
SCALE
  5
67
102
{ACAD_REACTORS
330
47
102
}
330
47
100
AcDbScale
 70
     0
300
6" = 1'-0"
140
6.0
141
12.0
290
     0
  0
SCALE
  5
68
102
{ACAD_REACTORS
330
47
102
}
330
47
100
AcDbScale
 70
     0
300
1'-0" = 1'-0"
140
12.0
141
12.0
290
     0
  0
ENDSEC
  0
EOF
