  0
SECTION
  2
HEADER
  9
$ACADVER
  1
AC1015
  9
$ACADMAINTVER
 70
     6
  9
$DWGCODEPAGE
  3
ANSI_1254
  9
$INSBASE
 10
0.0
 20
0.0
 30
0.0
  9
$EXTMIN
 10
0.0
 20
0.0
 30
0.0
  9
$EXTMAX
 10
420.0
 20
297.0
 30
0.0
  9
$LIMMIN
 10
0.0
 20
0.0
  9
$LIMMAX
 10
420.0
 20
297.0
  9
$ORTHOMODE
 70
     0
  9
$REGENMODE
 70
     1
  9
$FILLMODE
 70
     1
  9
$QTEXTMODE
 70
     0
  9
$MIRRTEXT
 70
     1
  9
$LTSCALE
 40
1.0
  9
$ATTMODE
 70
     1
  9
$TEXTSIZE
 40
3.5
  9
$TRACEWID
 40
1.0
  9
$TEXTSTYLE
  7
Standard
  9
$CLAYER
  8
0
  9
$CELTYPE
  6
ByLayer
  9
$CECOLOR
 62
   256
  9
$CELTSCALE
 40
1.0
  9
$DISPSILH
 70
     0
  9
$DIMSCALE
 40
1.0
  9
$DIMASZ
 40
3.302
  9
$DIMEXO
 40
1.0
  9
$DIMDLI
 40
3.75
  9
$DIMRND
 40
0.0
  9
$DIMDLE
 40
0.0
  9
$DIMEXE
 40
1.0
  9
$DIMTP
 40
0.0
  9
$DIMTM
 40
0.0
  9
$DIMTXT
 40
5.6444444444
  9
$DIMCEN
 40
2.5
  9
$DIMTSZ
 40
0.0
  9
$DIMTOL
 70
     0
  9
$DIMLIM
 70
     0
  9
$DIMTIH
 70
     1
  9
$DIMTOH
 70
     1
  9
$DIMSE1
 70
     0
  9
$DIMSE2
 70
     0
  9
$DIMTAD
 70
     1
  9
$DIMZIN
 70
     0
  9
$DIMBLK
  1

  9
$DIMASO
 70
     1
  9
$DIMSHO
 70
     1
  9
$DIMPOST
  1

  9
$DIMAPOST
  1

  9
$DIMALT
 70
     0
  9
$DIMALTD
 70
     3
  9
$DIMALTF
 40
0.0393700787
  9
$DIMLFAC
 40
10.0
  9
$DIMTOFL
 70
     1
  9
$DIMTVP
 40
0.0
  9
$DIMTIX
 70
     0
  9
$DIMSOXD
 70
     0
  9
$DIMSAH
 70
     0
  9
$DIMBLK1
  1

  9
$DIMBLK2
  1

  9
$DIMSTYLE
  2
ISO-25
  9
$DIMCLRD
 70
     0
  9
$DIMCLRE
 70
     0
  9
$DIMCLRT
 70
     0
  9
$DIMTFAC
 40
1.0
  9
$DIMGAP
 40
1.524
  9
$DIMJUST
 70
     0
  9
$DIMSD1
 70
     0
  9
$DIMSD2
 70
     0
  9
$DIMTOLJ
 70
     0
  9
$DIMTZIN
 70
     0
  9
$DIMALTZ
 70
     0
  9
$DIMALTTZ
 70
     0
  9
$DIMUPT
 70
     0
  9
$DIMDEC
 70
     2
  9
$DIMTDEC
 70
     2
  9
$DIMALTU
 70
     2
  9
$DIMALTTD
 70
     3
  9
$DIMTXSTY
  7
Standard
  9
$DIMAUNIT
 70
     0
  9
$DIMADEC
 70
     2
  9
$DIMALTRND
 40
0.0
  9
$DIMAZIN
 70
     0
  9
$DIMDSEP
 70
    44
  9
$DIMATFIT
 70
     3
  9
$DIMFRAC
 70
     0
  9
$DIMLDRBLK
  1

  9
$DIMLUNIT
 70
     2
  9
$DIMLWD
 70
    -2
  9
$DIMLWE
 70
    -2
  9
$DIMTMOVE
 70
     0
  9
$LUNITS
 70
     2
  9
$LUPREC
 70
     2
  9
$SKETCHINC
 40
1.0
  9
$FILLETRAD
 40
10.0
  9
$AUNITS
 70
     0
  9
$AUPREC
 70
     2
  9
$MENU
  1
.
  9
$ELEVATION
 40
0.0
  9
$PELEVATION
 40
0.0
  9
$THICKNESS
 40
0.0
  9
$LIMCHECK
 70
     0
  9
$CHAMFERA
 40
0.0
  9
$CHAMFERB
 40
0.0
  9
$CHAMFERC
 40
0.0
  9
$CHAMFERD
 40
0.0
  9
$SKPOLY
 70
     0
  9
$TDCREATE
 40
2459748.593197118
  9
$TDUCREATE
 40
2459748.468197118
  9
$TDUPDATE
 40
2459748.593197396
  9
$TDUUPDATE
 40
2459748.468197396
  9
$TDINDWG
 40
0.0000000116
  9
$TDUSRTIMER
 40
0.0000000116
  9
$USRTIMER
 70
     1
  9
$ANGBASE
 50
0.0
  9
$ANGDIR
 70
     0
  9
$PDMODE
 70
     0
  9
$PDSIZE
 40
-1.0
  9
$PLINEWID
 40
0.0
  9
$SPLFRAME
 70
     0
  9
$SPLINETYPE
 70
     6
  9
$SPLINESEGS
 70
     8
  9
$HANDSEED
  5
334
  9
$SURFTAB1
 70
     6
  9
$SURFTAB2
 70
     6
  9
$SURFTYPE
 70
     6
  9
$SURFU
 70
     6
  9
$SURFV
 70
     6
  9
$UCSBASE
  2

  9
$UCSNAME
  2

  9
$UCSORG
 10
0.0
 20
0.0
 30
0.0
  9
$UCSXDIR
 10
1.0
 20
0.0
 30
0.0
  9
$UCSYDIR
 10
0.0
 20
1.0
 30
0.0
  9
$UCSORTHOREF
  2

  9
$UCSORTHOVIEW
 70
     0
  9
$UCSORGTOP
 10
0.0
 20
0.0
 30
0.0
  9
$UCSORGBOTTOM
 10
0.0
 20
0.0
 30
0.0
  9
$UCSORGLEFT
 10
0.0
 20
0.0
 30
0.0
  9
$UCSORGRIGHT
 10
0.0
 20
0.0
 30
0.0
  9
$UCSORGFRONT
 10
0.0
 20
0.0
 30
0.0
  9
$UCSORGBACK
 10
0.0
 20
0.0
 30
0.0
  9
$PUCSBASE
  2

  9
$PUCSNAME
  2

  9
$PUCSORG
 10
0.0
 20
0.0
 30
0.0
  9
$PUCSXDIR
 10
1.0
 20
0.0
 30
0.0
  9
$PUCSYDIR
 10
0.0
 20
1.0
 30
0.0
  9
$PUCSORTHOREF
  2

  9
$PUCSORTHOVIEW
 70
     0
  9
$PUCSORGTOP
 10
0.0
 20
0.0
 30
0.0
  9
$PUCSORGBOTTOM
 10
0.0
 20
0.0
 30
0.0
  9
$PUCSORGLEFT
 10
0.0
 20
0.0
 30
0.0
  9
$PUCSORGRIGHT
 10
0.0
 20
0.0
 30
0.0
  9
$PUCSORGFRONT
 10
0.0
 20
0.0
 30
0.0
  9
$PUCSORGBACK
 10
0.0
 20
0.0
 30
0.0
  9
$USERI1
 70
     0
  9
$USERI2
 70
     0
  9
$USERI3
 70
     0
  9
$USERI4
 70
     0
  9
$USERI5
 70
     0
  9
$USERR1
 40
0.0
  9
$USERR2
 40
0.0
  9
$USERR3
 40
0.0
  9
$USERR4
 40
0.0
  9
$USERR5
 40
0.0
  9
$WORLDVIEW
 70
     1
  9
$SHADEDGE
 70
     3
  9
$SHADEDIF
 70
    70
  9
$TILEMODE
 70
     1
  9
$MAXACTVP
 70
    64
  9
$PINSBASE
 10
0.0
 20
0.0
 30
0.0
  9
$PLIMCHECK
 70
     0
  9
$PEXTMIN
 10
1.0000000000E+20
 20
1.0000000000E+20
 30
1.0000000000E+20
  9
$PEXTMAX
 10
-1.0000000000E+20
 20
-1.0000000000E+20
 30
-1.0000000000E+20
  9
$PLIMMIN
 10
0.0
 20
0.0
  9
$PLIMMAX
 10
420.0
 20
297.0
  9
$UNITMODE
 70
     0
  9
$VISRETAIN
 70
     1
  9
$PLINEGEN
 70
     0
  9
$PSLTSCALE
 70
     1
  9
$TREEDEPTH
 70
  3020
  9
$CMLSTYLE
  2
Standard
  9
$CMLJUST
 70
     0
  9
$CMLSCALE
 40
20.0
  9
$PROXYGRAPHICS
 70
     1
  9
$MEASUREMENT
 70
     1
  9
$CELWEIGHT
370
    -1
  9
$ENDCAPS
280
     0
  9
$JOINSTYLE
280
     0
  9
$LWDISPLAY
290
     1
  9
$INSUNITS
 70
     4
  9
$HYPERLINKBASE
  1

  9
$STYLESHEET
  1

  9
$XEDIT
290
     1
  9
$CEPSNTYPE
380
     0
  9
$PSTYLEMODE
290
     1
  9
$FINGERPRINTGUID
  2
{c0b004ca-1650-4a7d-b1e5-5e50946a5b28}
  9
$VERSIONGUID
  2
{FAEB1C32-E019-11D5-929B-00C0DF256EC4}
  9
$EXTNAMES
290
     1
  9
$PSVPSCALE
 40
0.0
  9
$OLESTARTUP
290
     0
  0
ENDSEC
  0
SECTION
  2
CLASSES
  0
CLASS
  1
ACDBDICTIONARYWDFLT
  2
AcDbDictionaryWithDefault
  3
ObjectDBX Classes
 90
        0
280
     0
281
     0
  0
CLASS
  1
VISUALSTYLE
  2
AcDbVisualStyle
  3
ObjectDBX Classes
 90
     4095
280
     0
281
     0
  0
CLASS
  1
MATERIAL
  2
AcDbMaterial
  3
ObjectDBX Classes
 90
     1153
280
     0
281
     0
  0
CLASS
  1
SCALE
  2
AcDbScale
  3
ObjectDBX Classes
 90
     1153
280
     0
281
     0
  0
CLASS
  1
TABLESTYLE
  2
AcDbTableStyle
  3
ObjectDBX Classes
 90
     4095
280
     0
281
     0
  0
CLASS
  1
MLEADERSTYLE
  2
AcDbMLeaderStyle
  3
ACDB_MLEADERSTYLE_CLASS
 90
     4095
280
     0
281
     0
  0
CLASS
  1
SUN
  2
AcDbSun
  3
SCENEOE
 90
     1153
280
     0
281
     0
  0
CLASS
  1
ACDBPLACEHOLDER
  2
AcDbPlaceHolder
  3
ObjectDBX Classes
 90
        0
280
     0
281
     0
  0
CLASS
  1
LAYOUT
  2
AcDbLayout
  3
ObjectDBX Classes
 90
        0
280
     0
281
     0
  0
ENDSEC
  0
SECTION
  2
TABLES
  0
TABLE
  2
VPORT
  5
8
330
0
100
AcDbSymbolTable
 70
     1
  0
VPORT
  5
29
330
8
100
AcDbSymbolTableRecord
100
AcDbViewportTableRecord
  2
*Active
 70
     0
 10
0.0
 20
0.0
 11
1.0
 21
1.0
 12
210.0
 22
148.5
 13
0.0
 23
0.0
 14
10.0
 24
10.0
 15
10.0
 25
10.0
 16
0.0
 26
0.0
 36
1.0
 17
0.0
 27
0.0
 37
0.0
 40
297.0
 41
1.4141414141
 42
50.0
 43
0.0
 44
0.0
 50
0.0
 51
0.0
 71
     0
 72
  2000
 73
     1
 74
     3
 75
     0
 76
     0
 77
     0
 78
     0
281
     0
 65
     1
110
0.0
120
0.0
130
0.0
111
1.0
121
0.0
131
0.0
112
0.0
122
1.0
132
0.0
 79
     0
146
0.0
  0
ENDTAB
  0
TABLE
  2
LTYPE
  5
5
330
0
100
AcDbSymbolTable
 70
     6
  0
LTYPE
  5
14
330
5
100
AcDbSymbolTableRecord
100
AcDbLinetypeTableRecord
  2
ByBlock
 70
     0
  3

 72
    65
 73
     0
 40
0.0
  0
LTYPE
  5
15
330
5
100
AcDbSymbolTableRecord
100
AcDbLinetypeTableRecord
  2
ByLayer
 70
     0
  3

 72
    65
 73
     0
 40
0.0
  0
LTYPE
  5
16
330
5
100
AcDbSymbolTableRecord
100
AcDbLinetypeTableRecord
  2
Continuous
 70
     0
  3
Solid line
 72
    65
 73
     0
 40
0.0
  0
LTYPE
  5
6E
330
5
100
AcDbSymbolTableRecord
100
AcDbLinetypeTableRecord
  2
HIDDEN
 70
     0
  3
Hidden __ __ __ __ __ __ __ __ __ __ __ __ __ __
 72
    65
 73
     2
 40
1.905
 49
1.27
 74
     0
 49
-0.635
 74
     0
  0
LTYPE
  5
6F
330
5
100
AcDbSymbolTableRecord
100
AcDbLinetypeTableRecord
  2
PHANTOM
 70
     0
  3
Phantom ______  __  __  ______  __  __  ______
 72
    65
 73
     6
 40
12.7
 49
6.35
 74
     0
 49
-1.27
 74
     0
 49
1.27
 74
     0
 49
-1.27
 74
     0
 49
1.27
 74
     0
 49
-1.27
 74
     0
  0
LTYPE
  5
70
330
5
100
AcDbSymbolTableRecord
100
AcDbLinetypeTableRecord
  2
CENTER
 70
     0
  3
Center ____ _ ____ _ ____ _ ____ _ ____ _ ____
 72
    65
 73
     4
 40
10.16
 49
6.35
 74
     0
 49
-1.27
 74
     0
 49
1.27
 74
     0
 49
-1.27
 74
     0
  0
LTYPE
  5
71
330
5
100
AcDbSymbolTableRecord
100
AcDbLinetypeTableRecord
  2
CENTERX2
 70
     0
  3
Center (2x) ________  __  ________  __  _____
 72
    65
 73
     4
 40
20.32
 49
12.7
 74
     0
 49
-2.54
 74
     0
 49
2.54
 74
     0
 49
-2.54
 74
     0
  0
LTYPE
  5
72
330
5
100
AcDbSymbolTableRecord
100
AcDbLinetypeTableRecord
  2
DOT2
 70
     0
  3
Dot (.5x) ........................................
 72
    65
 73
     2
 40
0.635
 49
0.0
 74
     0
 49
-0.635
 74
     0
  0
ENDTAB
  0
TABLE
  2
LAYER
  5
2
330
0
100
AcDbSymbolTable
 70
     5
  0
LAYER
  5
10
330
2
100
AcDbSymbolTableRecord
100
AcDbLayerTableRecord
  2
0
 70
     0
 62
     7
  6
Continuous
370
    -3
390
F
  0
LAYER
  5
73
330
2
100
AcDbSymbolTableRecord
100
AcDbLayerTableRecord
  2
FORMAT
 70
     0
 62
     7
  6
Continuous
370
    -3
390
F
  0
LAYER
  5
74
330
2
100
AcDbSymbolTableRecord
100
AcDbLayerTableRecord
  2
SLD-0
 70
     0
 62
   179
  6
Continuous
370
    -3
390
F
  0
LAYER
  5
75
330
2
100
AcDbSymbolTableRecord
100
AcDbLayerTableRecord
  2
AAA_EKSEN
 70
     0
 62
     1
  6
CENTER
370
    -3
390
F
  0
LAYER
  5
76
330
2
100
AcDbSymbolTableRecord
100
AcDbLayerTableRecord
  2
03
 70
     0
 62
     3
  6
HIDDEN
370
    -3
390
F
  0
ENDTAB
  0
TABLE
  2
STYLE
  5
3
330
0
100
AcDbSymbolTable
 70
     1
  0
STYLE
  5
11
330
3
100
AcDbSymbolTableRecord
100
AcDbTextStyleTableRecord
  2
Standard
 70
     0
 40
0.0
 41
1.0
 50
0.0
 71
     0
 42
3.5
  3
txt
  4

  0
ENDTAB
  0
TABLE
  2
VIEW
  5
6
330
0
100
AcDbSymbolTable
 70
     0
  0
ENDTAB
  0
TABLE
  2
UCS
  5
7
330
0
100
AcDbSymbolTable
 70
     0
  0
ENDTAB
  0
TABLE
  2
APPID
  5
9
330
0
100
AcDbSymbolTable
 70
     1
  0
APPID
  5
12
330
9
100
AcDbSymbolTableRecord
100
AcDbRegAppTableRecord
  2
ACAD
 70
     0
  0
ENDTAB
  0
TABLE
  2
DIMSTYLE
  5
A
330
0
100
AcDbSymbolTable
 70
     1
100
AcDbDimStyleTable
  0
DIMSTYLE
105
27
330
A
100
AcDbSymbolTableRecord
100
AcDbDimStyleTableRecord
  2
ISO-25
 70
     0
 41
2.5
 42
0.625
 43
3.75
 44
1.25
 73
     0
 74
     0
 77
     1
 78
     8
140
2.5
141
2.5
143
0.0393700787
147
0.625
171
     3
172
     1
178
     0
271
     2
272
     2
274
     3
278
    44
283
     0
284
     8
340
11
  0
ENDTAB
  0
TABLE
  2
BLOCK_RECORD
  5
1
330
0
100
AcDbSymbolTable
 70
     1
  0
BLOCK_RECORD
  5
1F
330
1
100
AcDbSymbolTableRecord
100
AcDbBlockTableRecord
  2
*Model_Space
340
22
  0
BLOCK_RECORD
  5
1B
330
1
100
AcDbSymbolTableRecord
100
AcDbBlockTableRecord
  2
*Paper_Space
340
1E
  0
BLOCK_RECORD
  5
23
330
1
100
AcDbSymbolTableRecord
100
AcDbBlockTableRecord
  2
*Paper_Space0
340
26
  0
ENDTAB
  0
ENDSEC
  0
SECTION
  2
BLOCKS
  0
BLOCK
  5
20
330
1F
100
AcDbEntity
  8
0
100
AcDbBlockBegin
  2
*Model_Space
 70
     0
 10
0.0
 20
0.0
 30
0.0
  3
*Model_Space
  1

  0
ENDBLK
  5
21
330
1F
100
AcDbEntity
  8
0
100
AcDbBlockEnd
  0
BLOCK
  5
1C
330
1B
100
AcDbEntity
 67
     1
  8
0
100
AcDbBlockBegin
  2
*Paper_Space
 70
     0
 10
0.0
 20
0.0
 30
0.0
  3
*Paper_Space
  1

  0
ENDBLK
  5
1D
330
1B
100
AcDbEntity
 67
     1
  8
0
100
AcDbBlockEnd
  0
BLOCK
  5
24
330
23
100
AcDbEntity
  8
0
100
AcDbBlockBegin
  2
*Paper_Space0
 70
     0
 10
0.0
 20
0.0
 30
0.0
  3
*Paper_Space0
  1

  0
ENDBLK
  5
25
330
23
100
AcDbEntity
  8
0
100
AcDbBlockEnd
  0
ENDSEC
  0
SECTION
  2
ENTITIES
  0
LINE
  5
77
330
1F
100
AcDbEntity
  8
0
  6
Continuous
 62
     7
370
    25
100
AcDbLine
 10
199.8467535567
 20
99.6601911342
 30
0.0
 11
199.8467535567
 21
123.5601911342
 31
0.0
  0
LINE
  5
78
330
1F
100
AcDbEntity
  8
0
  6
Continuous
 62
     7
370
    25
100
AcDbLine
 10
198.2467535567
 20
123.5601911342
 30
0.0
 11
198.2467535567
 21
99.6601911342
 31
0.0
  0
LINE
  5
79
330
1F
100
AcDbEntity
  8
0
  6
Continuous
 62
     7
370
    25
100
AcDbLine
 10
198.2467535567
 20
99.6601911342
 30
0.0
 11
198.3467535567
 21
99.5601911342
 31
0.0
  0
LINE
  5
7A
330
1F
100
AcDbEntity
  8
0
  6
Continuous
 62
     7
370
    25
100
AcDbLine
 10
199.7467535567
 20
99.5601911342
 30
0.0
 11
199.8467535567
 21
99.6601911342
 31
0.0
  0
LINE
  5
7B
330
1F
100
AcDbEntity
  8
0
  6
Continuous
 62
     7
370
    25
100
AcDbLine
 10
219.8467535567
 20
99.6601911342
 30
0.0
 11
219.8467535567
 21
123.5601911342
 31
0.0
  0
LINE
  5
7C
330
1F
100
AcDbEntity
  8
0
  6
Continuous
 62
     7
370
    25
100
AcDbLine
 10
218.2467535567
 20
123.5601911342
 30
0.0
 11
218.2467535567
 21
99.6601911342
 31
0.0
  0
LINE
  5
7D
330
1F
100
AcDbEntity
  8
0
  6
Continuous
 62
     7
370
    25
100
AcDbLine
 10
218.2467535567
 20
99.6601911342
 30
0.0
 11
218.3467535567
 21
99.5601911342
 31
0.0
  0
LINE
  5
7E
330
1F
100
AcDbEntity
  8
0
  6
Continuous
 62
     7
370
    25
100
AcDbLine
 10
219.7467535567
 20
99.5601911342
 30
0.0
 11
219.8467535567
 21
99.6601911342
 31
0.0
  0
LINE
  5
7F
330
1F
100
AcDbEntity
  8
0
  6
Continuous
 62
     7
370
    25
100
AcDbLine
 10
227.9745847731
 20
154.0601911342
 30
0.0
 11
227.6467535567
 21
154.0601911342
 31
0.0
  0
LINE
  5
80
330
1F
100
AcDbEntity
  8
0
  6
Continuous
 62
     7
370
    25
100
AcDbLine
 10
227.6467535567
 20
153.0601911342
 30
0.0
 11
227.9745847731
 21
153.0601911342
 31
0.0
  0
LINE
  5
81
330
1F
100
AcDbEntity
  8
0
  6
Continuous
 62
     7
370
    25
100
AcDbLine
 10
227.9745847731
 20
153.0601911342
 30
0.0
 11
228.0467535567
 21
153.1851911342
 31
0.0
  0
LINE
  5
82
330
1F
100
AcDbEntity
  8
0
  6
Continuous
 62
     7
370
    25
100
AcDbLine
 10
228.0467535567
 20
153.9351911342
 30
0.0
 11
227.9745847731
 21
154.0601911342
 31
0.0
  0
LINE
  5
83
330
1F
100
AcDbEntity
  8
0
  6
Continuous
 62
     7
370
    25
100
AcDbLine
 10
190.1189223404
 20
154.0601911342
 30
0.0
 11
190.0467535567
 21
153.9351911342
 31
0.0
  0
LINE
  5
84
330
1F
100
AcDbEntity
  8
0
  6
Continuous
 62
     7
370
    25
100
AcDbLine
 10
190.0467535567
 20
153.1851911342
 30
0.0
 11
190.1189223404
 21
153.0601911342
 31
0.0
  0
LINE
  5
85
330
1F
100
AcDbEntity
  8
0
  6
Continuous
 62
     7
370
    25
100
AcDbLine
 10
190.1189223404
 20
153.0601911342
 30
0.0
 11
190.4467535567
 21
153.0601911342
 31
0.0
  0
LINE
  5
86
330
1F
100
AcDbEntity
  8
0
  6
Continuous
 62
     7
370
    25
100
AcDbLine
 10
190.4467535567
 20
154.0601911342
 30
0.0
 11
190.1189223404
 21
154.0601911342
 31
0.0
  0
CIRCLE
  5
87
330
1F
100
AcDbEntity
  8
0
  6
Continuous
 62
     7
370
    25
100
AcDbCircle
 10
200.0467535567
 20
131.5601911342
 30
0.0
 40
1.730000000000018
  0
LINE
  5
88
330
1F
100
AcDbEntity
  8
0
  6
Continuous
 62
     7
370
    25
100
AcDbLine
 10
227.6467535567
 20
242.9601911342
 30
0.0
 11
227.6467535567
 21
123.5601911342
 31
0.0
  0
LINE
  5
89
330
1F
100
AcDbEntity
  8
0
  6
Continuous
 62
     7
370
    25
100
AcDbLine
 10
227.6467535567
 20
123.5601911342
 30
0.0
 11
227.2467535567
 21
123.5601911342
 31
0.0
  0
LINE
  5
8A
330
1F
100
AcDbEntity
  8
0
  6
Continuous
 62
     7
370
    25
100
AcDbLine
 10
190.4467535567
 20
123.5601911342
 30
0.0
 11
190.4467535567
 21
242.9601911342
 31
0.0
  0
LINE
  5
8B
330
1F
100
AcDbEntity
  8
0
  6
Continuous
 62
     7
370
    25
100
AcDbLine
 10
190.8467535567
 20
123.5601911342
 30
0.0
 11
190.4467535567
 21
123.5601911342
 31
0.0
  0
CIRCLE
  5
8C
330
1F
100
AcDbEntity
  8
0
  6
Continuous
 62
     7
370
    25
100
AcDbCircle
 10
218.0467535567
 20
131.5601911342
 30
0.0
 40
1.730000000000018
  0
LINE
  5
8D
330
1F
100
AcDbEntity
  8
0
  6
Continuous
 62
     7
370
    25
100
AcDbLine
 10
190.8467535567
 20
123.5601911342
 30
0.0
 11
227.2467535567
 21
123.5601911342
 31
0.0
  0
LINE
  5
8E
330
1F
100
AcDbEntity
  8
0
  6
Continuous
 62
     7
370
    25
100
AcDbLine
 10
198.2467535567
 20
99.6601911342
 30
0.0
 11
199.8467535567
 21
99.6601911342
 31
0.0
  0
LINE
  5
8F
330
1F
100
AcDbEntity
  8
0
  6
Continuous
 62
     7
370
    25
100
AcDbLine
 10
199.7467535567
 20
99.5601911342
 30
0.0
 11
198.3467535567
 21
99.5601911342
 31
0.0
  0
LINE
  5
90
330
1F
100
AcDbEntity
  8
0
  6
Continuous
 62
     7
370
    25
100
AcDbLine
 10
218.2467535567
 20
99.6601911342
 30
0.0
 11
219.8467535567
 21
99.6601911342
 31
0.0
  0
LINE
  5
91
330
1F
100
AcDbEntity
  8
0
  6
Continuous
 62
     7
370
    25
100
AcDbLine
 10
219.7467535567
 20
99.5601911342
 30
0.0
 11
218.3467535567
 21
99.5601911342
 31
0.0
  0
LINE
  5
92
330
1F
100
AcDbEntity
  8
0
  6
Continuous
 62
     7
370
    25
100
AcDbLine
 10
227.9745847731
 20
153.0601911342
 30
0.0
 11
227.9745847731
 21
154.0601911342
 31
0.0
  0
LINE
  5
93
330
1F
100
AcDbEntity
  8
0
  6
Continuous
 62
     7
370
    25
100
AcDbLine
 10
228.0467535567
 20
153.9351911342
 30
0.0
 11
228.0467535567
 21
153.1851911342
 31
0.0
  0
LINE
  5
94
330
1F
100
AcDbEntity
  8
0
  6
Continuous
 62
     7
370
    25
100
AcDbLine
 10
190.1189223404
 20
154.0601911342
 30
0.0
 11
190.1189223404
 21
153.0601911342
 31
0.0
  0
LINE
  5
95
330
1F
100
AcDbEntity
  8
0
  6
Continuous
 62
     7
370
    25
100
AcDbLine
 10
190.0467535567
 20
153.4169976397
 30
0.0
 11
190.0467535567
 21
153.9351911342
 31
0.0
  0
LINE
  5
96
330
1F
100
AcDbEntity
  8
0
  6
Continuous
 62
     7
370
    25
100
AcDbLine
 10
190.0467535567
 20
153.1851911342
 30
0.0
 11
190.0467535567
 21
153.4169976397
 31
0.0
  0
ARC
  5
97
330
1F
100
AcDbEntity
  8
0
  6
Continuous
 62
     7
370
    25
100
AcDbCircle
 10
223.3791747246
 20
225.4682676835
 30
0.0
 40
0.1220000000000648
100
AcDbArc
 50
91.6179756379
 51
208.3820243622
  0
ARC
  5
98
330
1F
100
AcDbEntity
  8
0
  6
Continuous
 62
     7
370
    25
100
AcDbCircle
 10
223.3737535567
 20
225.6601911342
 30
0.0
 40
0.0700000000000428
100
AcDbArc
 50
271.6179756378
 51
88.3820243622
  0
ARC
  5
99
330
1F
100
AcDbEntity
  8
0
  6
Continuous
 62
     7
370
    25
100
AcDbCircle
 10
223.2102535567
 20
225.9433814413
 30
0.0
 40
0.0700000000000816
100
AcDbArc
 50
331.6179756378
 51
148.3820243622
  0
ARC
  5
9A
330
1F
100
AcDbEntity
  8
0
  6
Continuous
 62
     7
370
    25
100
AcDbCircle
 10
222.7197535567
 20
225.6601911342
 30
0.0
 40
0.0700000000000152
100
AcDbArc
 50
91.6179756378
 51
268.3820243622
  0
ARC
  5
9B
330
1F
100
AcDbEntity
  8
0
  6
Continuous
 62
     7
370
    25
100
AcDbCircle
 10
223.0467535567
 20
225.2763442328
 30
0.0
 40
0.1219999999999865
100
AcDbArc
 50
31.6179756378
 51
148.3820243622
  0
ARC
  5
9C
330
1F
100
AcDbEntity
  8
0
  6
Continuous
 62
     7
370
    25
100
AcDbCircle
 10
223.3791747246
 20
225.8521145849
 30
0.0
 40
0.1220000000000483
100
AcDbArc
 50
151.6179756378
 51
268.3820243621
  0
ARC
  5
9D
330
1F
100
AcDbEntity
  8
0
  6
Continuous
 62
     7
370
    25
100
AcDbCircle
 10
222.7143323889
 20
225.8521145849
 30
0.0
 40
0.1220000000000648
100
AcDbArc
 50
271.6179756378
 51
28.3820243622
  0
ARC
  5
9E
330
1F
100
AcDbEntity
  8
0
  6
Continuous
 62
     7
370
    25
100
AcDbCircle
 10
223.2102535567
 20
225.3770008272
 30
0.0
 40
0.0700000000000181
100
AcDbArc
 50
211.6179756378
 51
28.3820243622
  0
ARC
  5
9F
330
1F
100
AcDbEntity
  8
0
  6
Continuous
 62
     7
370
    25
100
AcDbCircle
 10
222.8832535567
 20
225.9433814413
 30
0.0
 40
0.0700000000000181
100
AcDbArc
 50
31.6179756378
 51
208.3820243622
  0
ARC
  5
A0
330
1F
100
AcDbEntity
  8
0
  6
Continuous
 62
     7
370
    25
100
AcDbCircle
 10
222.8832535567
 20
225.3770008272
 30
0.0
 40
0.0700000000000566
100
AcDbArc
 50
151.6179756378
 51
328.3820243622
  0
ARC
  5
A1
330
1F
100
AcDbEntity
  8
0
  6
Continuous
 62
     7
370
    25
100
AcDbCircle
 10
223.0467535567
 20
226.0440380357
 30
0.0
 40
0.1219999999999921
100
AcDbArc
 50
211.6179756378
 51
328.3820243622
  0
ARC
  5
A2
330
1F
100
AcDbEntity
  8
0
  6
Continuous
 62
     7
370
    25
100
AcDbCircle
 10
222.7143323889
 20
225.4682676835
 30
0.0
 40
0.1220000000000262
100
AcDbArc
 50
331.6179756378
 51
88.3820243622
  0
ARC
  5
A3
330
1F
100
AcDbEntity
  8
0
  6
Continuous
 62
     7
370
    25
100
AcDbCircle
 10
195.3791747246
 20
225.4682676835
 30
0.0
 40
0.1220000000001033
100
AcDbArc
 50
91.6179756379
 51
208.3820243622
  0
ARC
  5
A4
330
1F
100
AcDbEntity
  8
0
  6
Continuous
 62
     7
370
    25
100
AcDbCircle
 10
195.3737535567
 20
225.6601911342
 30
0.0
 40
0.0700000000000428
100
AcDbArc
 50
271.6179756378
 51
88.3820243622
  0
ARC
  5
A5
330
1F
100
AcDbEntity
  8
0
  6
Continuous
 62
     7
370
    25
100
AcDbCircle
 10
195.3791747246
 20
225.8521145849
 30
0.0
 40
0.1220000000000198
100
AcDbArc
 50
151.6179756378
 51
268.3820243621
  0
ARC
  5
A6
330
1F
100
AcDbEntity
  8
0
  6
Continuous
 62
     7
370
    25
100
AcDbCircle
 10
195.2102535567
 20
225.9433814413
 30
0.0
 40
0.0700000000000816
100
AcDbArc
 50
331.6179756378
 51
148.3820243622
  0
ARC
  5
A7
330
1F
100
AcDbEntity
  8
0
  6
Continuous
 62
     7
370
    25
100
AcDbCircle
 10
195.0467535567
 20
226.0440380357
 30
0.0
 40
0.1220000000000014
100
AcDbArc
 50
211.6179756378
 51
328.3820243622
  0
ARC
  5
A8
330
1F
100
AcDbEntity
  8
0
  6
Continuous
 62
     7
370
    25
100
AcDbCircle
 10
194.8832535567
 20
225.9433814413
 30
0.0
 40
0.0699999999999931
100
AcDbArc
 50
31.6179756378
 51
208.3820243622
  0
ARC
  5
A9
330
1F
100
AcDbEntity
  8
0
  6
Continuous
 62
     7
370
    25
100
AcDbCircle
 10
194.7197535567
 20
225.6601911342
 30
0.0
 40
0.0700000000000144
100
AcDbArc
 50
91.6179756378
 51
268.3820243622
  0
ARC
  5
AA
330
1F
100
AcDbEntity
  8
0
  6
Continuous
 62
     7
370
    25
100
AcDbCircle
 10
194.7143323889
 20
225.4682676835
 30
0.0
 40
0.1220000000000262
100
AcDbArc
 50
331.6179756378
 51
88.3820243621
  0
ARC
  5
AB
330
1F
100
AcDbEntity
  8
0
  6
Continuous
 62
     7
370
    25
100
AcDbCircle
 10
195.2102535567
 20
225.3770008272
 30
0.0
 40
0.0699999999999796
100
AcDbArc
 50
211.6179756378
 51
28.3820243622
  0
ARC
  5
AC
330
1F
100
AcDbEntity
  8
0
  6
Continuous
 62
     7
370
    25
100
AcDbCircle
 10
194.8832535567
 20
225.3770008272
 30
0.0
 40
0.0700000000000566
100
AcDbArc
 50
151.6179756378
 51
328.3820243622
  0
ARC
  5
AD
330
1F
100
AcDbEntity
  8
0
  6
Continuous
 62
     7
370
    25
100
AcDbCircle
 10
195.0467535567
 20
225.2763442328
 30
0.0
 40
0.1220000000000163
100
AcDbArc
 50
31.6179756378
 51
148.3820243622
  0
ARC
  5
AE
330
1F
100
AcDbEntity
  8
0
  6
Continuous
 62
     7
370
    25
100
AcDbCircle
 10
194.7143323889
 20
225.8521145849
 30
0.0
 40
0.1220000000000762
100
AcDbArc
 50
271.6179756379
 51
28.3820243621
  0
CIRCLE
  5
AF
330
1F
100
AcDbEntity
  8
0
  6
Continuous
 62
     7
370
    25
100
AcDbCircle
 10
195.0467535567
 20
197.4670557176
 30
0.0
 40
0.896000000000015
  0
CIRCLE
  5
B0
330
1F
100
AcDbEntity
  8
0
  6
Continuous
 62
     7
370
    25
100
AcDbCircle
 10
195.0467535567
 20
197.4670557176
 30
0.0
 40
0.4576514032180228
  0
ELLIPSE
  5
B1
330
1F
100
AcDbEntity
  8
0
  6
Continuous
 62
     7
370
    25
100
AcDbEllipse
 10
193.5380717227
 20
196.0583738836
 30
0.0
 11
-0.2121966567508764
 21
-0.2121966567508764
 31
0.0
210
0.0
220
0.0
230
1.0
 40
0.9996954599
 41
5.497939437029803
 42
7.068431177329384
  0
ELLIPSE
  5
B2
330
1F
100
AcDbEntity
  8
0
  6
Continuous
 62
     7
370
    25
100
AcDbEllipse
 10
193.5380717227
 20
198.8757375517
 30
0.0
 11
-0.2121966567508764
 21
0.2121966567508764
 31
0.0
210
0.0
220
0.0
230
1.0
 40
0.9996954599
 41
5.497939437029769
 42
7.068431177329417
  0
LINE
  5
B3
330
1F
100
AcDbEntity
  8
0
  6
Continuous
 62
     7
370
    25
100
AcDbLine
 10
194.2567535567
 20
195.7583281852
 30
0.0
 11
195.0467535567
 21
195.7583281815
 31
0.0
  0
LINE
  5
B4
330
1F
100
AcDbEntity
  8
0
  6
Continuous
 62
     7
370
    25
100
AcDbLine
 10
194.2567535567
 20
195.7583281852
 30
0.0
 11
193.5379803328
 21
195.7583281852
 31
0.0
  0
LINE
  5
B5
330
1F
100
AcDbEntity
  8
0
  6
Continuous
 62
     7
370
    25
100
AcDbLine
 10
193.2380260243
 20
196.0582824937
 30
0.0
 11
193.2380260243
 21
198.8758289416
 31
0.0
  0
LINE
  5
B6
330
1F
100
AcDbEntity
  8
0
  6
Continuous
 62
     7
370
    25
100
AcDbLine
 10
193.5379803328
 20
199.1757832501
 30
0.0
 11
194.2567535567
 21
199.1757832501
 31
0.0
  0
LINE
  5
B7
330
1F
100
AcDbEntity
  8
0
  6
Continuous
 62
     7
370
    25
100
AcDbLine
 10
195.0467535567
 20
199.1757832538
 30
0.0
 11
194.2567535567
 21
199.1757832501
 31
0.0
  0
CIRCLE
  5
B8
330
1F
100
AcDbEntity
  8
0
  6
Continuous
 62
     7
370
    25
100
AcDbCircle
 10
195.0467535567
 20
225.6601911342
 30
0.0
 40
0.8959999999999866
  0
CIRCLE
  5
B9
330
1F
100
AcDbEntity
  8
0
  6
Continuous
 62
     7
370
    25
100
AcDbCircle
 10
195.0467535567
 20
225.6601911342
 30
0.0
 40
0.4576514032180228
  0
ELLIPSE
  5
BA
330
1F
100
AcDbEntity
  8
0
  6
Continuous
 62
     7
370
    25
100
AcDbEllipse
 10
193.5380717227
 20
227.0688729683
 30
0.0
 11
-0.2121966567508764
 21
0.2121966567508764
 31
0.0
210
0.0
220
0.0
230
1.0
 40
0.9996954599
 41
5.497939437029769
 42
7.068431177329417
  0
ELLIPSE
  5
BB
330
1F
100
AcDbEntity
  8
0
  6
Continuous
 62
     7
370
    25
100
AcDbEllipse
 10
193.5380717227
 20
224.2515093002
 30
0.0
 11
-0.2121966567508764
 21
-0.212196656750848
 31
0.0
210
0.0
220
0.0
230
1.0
 40
0.9996954599
 41
5.497939437029842
 42
7.068431177329383
  0
LINE
  5
BC
330
1F
100
AcDbEntity
  8
0
  6
Continuous
 62
     7
370
    25
100
AcDbLine
 10
194.2567535567
 20
223.9514636018
 30
0.0
 11
195.0467535567
 21
223.9514635981
 31
0.0
  0
LINE
  5
BD
330
1F
100
AcDbEntity
  8
0
  6
Continuous
 62
     7
370
    25
100
AcDbLine
 10
194.2567535567
 20
223.9514636018
 30
0.0
 11
193.5379803328
 21
223.9514636018
 31
0.0
  0
LINE
  5
BE
330
1F
100
AcDbEntity
  8
0
  6
Continuous
 62
     7
370
    25
100
AcDbLine
 10
193.5379803328
 20
227.3689186667
 30
0.0
 11
194.2567535567
 21
227.3689186667
 31
0.0
  0
LINE
  5
BF
330
1F
100
AcDbEntity
  8
0
  6
Continuous
 62
     7
370
    25
100
AcDbLine
 10
195.0467535567
 20
227.3689186703
 30
0.0
 11
194.2567535567
 21
227.3689186667
 31
0.0
  0
LINE
  5
C0
330
1F
100
AcDbEntity
  8
0
  6
Continuous
 62
     7
370
    25
100
AcDbLine
 10
193.2380260243
 20
224.2514179103
 30
0.0
 11
193.2380260243
 21
227.0689643581
 31
0.0
  0
CIRCLE
  5
C1
330
1F
100
AcDbEntity
  8
0
  6
Continuous
 62
     7
370
    25
100
AcDbCircle
 10
223.0467535567
 20
225.6601911342
 30
0.0
 40
0.896000000000015
  0
CIRCLE
  5
C2
330
1F
100
AcDbEntity
  8
0
  6
Continuous
 62
     7
370
    25
100
AcDbCircle
 10
223.0467535567
 20
225.6601911342
 30
0.0
 40
0.4576514032180228
  0
ELLIPSE
  5
C3
330
1F
100
AcDbEntity
  8
0
  6
Continuous
 62
     7
370
    25
100
AcDbEllipse
 10
224.5554353908
 20
224.2515093002
 30
0.0
 11
0.2121966567508764
 21
-0.212196656750848
 31
0.0
210
0.0
220
0.0
230
1.0
 40
0.9996954599
 41
5.497939437029641
 42
7.068431177329411
  0
ELLIPSE
  5
C4
330
1F
100
AcDbEntity
  8
0
  6
Continuous
 62
     7
370
    25
100
AcDbEllipse
 10
224.5554353908
 20
227.0688729683
 30
0.0
 11
0.2121966567508764
 21
0.2121966567508764
 31
0.0
210
0.0
220
0.0
230
1.0
 40
0.9996954599
 41
5.497939437029769
 42
7.068431177329511
  0
LINE
  5
C5
330
1F
100
AcDbEntity
  8
0
  6
Continuous
 62
     7
370
    25
100
AcDbLine
 10
224.5555267807
 20
223.9514636018
 30
0.0
 11
223.8367535567
 21
223.9514636018
 31
0.0
  0
LINE
  5
C6
330
1F
100
AcDbEntity
  8
0
  6
Continuous
 62
     7
370
    25
100
AcDbLine
 10
223.0467535567
 20
223.9514635981
 30
0.0
 11
223.8367535567
 21
223.9514636018
 31
0.0
  0
LINE
  5
C7
330
1F
100
AcDbEntity
  8
0
  6
Continuous
 62
     7
370
    25
100
AcDbLine
 10
223.8367535567
 20
227.3689186667
 30
0.0
 11
223.0467535567
 21
227.3689186703
 31
0.0
  0
LINE
  5
C8
330
1F
100
AcDbEntity
  8
0
  6
Continuous
 62
     7
370
    25
100
AcDbLine
 10
223.8367535567
 20
227.3689186667
 30
0.0
 11
224.5555267807
 21
227.3689186667
 31
0.0
  0
ARC
  5
C9
330
1F
100
AcDbEntity
  8
0
  6
Continuous
 62
     7
370
    25
100
AcDbCircle
 10
223.0467535567
 20
225.6601911342
 30
0.0
 40
1.71047303895696
100
AcDbArc
 50
86.338755382
 51
271.826719063
  0
LINE
  5
CA
330
1F
100
AcDbEntity
  8
0
  6
Continuous
 62
     7
370
    25
100
AcDbLine
 10
224.8554810892
 20
227.0689643581
 30
0.0
 11
224.8554810892
 21
224.2514179103
 31
0.0
  0
CIRCLE
  5
CB
330
1F
100
AcDbEntity
  8
0
  6
Continuous
 62
     7
370
    25
100
AcDbCircle
 10
223.0467535567
 20
197.4670557176
 30
0.0
 40
0.896000000000015
  0
CIRCLE
  5
CC
330
1F
100
AcDbEntity
  8
0
  6
Continuous
 62
     7
370
    25
100
AcDbCircle
 10
223.0467535567
 20
197.4670557176
 30
0.0
 40
0.4576514032180228
  0
ELLIPSE
  5
CD
330
1F
100
AcDbEntity
  8
0
  6
Continuous
 62
     7
370
    25
100
AcDbEllipse
 10
224.5554353908
 20
196.0583738836
 30
0.0
 11
0.2121966567508764
 21
-0.2121966567508764
 31
0.0
210
0.0
220
0.0
230
1.0
 40
0.9996954599
 41
5.497939437029708
 42
7.068431177329384
  0
ELLIPSE
  5
CE
330
1F
100
AcDbEntity
  8
0
  6
Continuous
 62
     7
370
    25
100
AcDbEllipse
 10
224.5554353908
 20
198.8757375517
 30
0.0
 11
0.2121966567508764
 21
0.2121966567508764
 31
0.0
210
0.0
220
0.0
230
1.0
 40
0.9996954599
 41
5.497939437029769
 42
7.068431177329511
  0
ARC
  5
CF
330
1F
100
AcDbEntity
  8
0
  6
Continuous
 62
     7
370
    25
100
AcDbCircle
 10
223.0467535567
 20
197.4670557176
 30
0.0
 40
1.710473038956935
100
AcDbArc
 50
86.338755382
 51
271.826719063
  0
LINE
  5
D0
330
1F
100
AcDbEntity
  8
0
  6
Continuous
 62
     7
370
    25
100
AcDbLine
 10
223.8367535567
 20
199.1757832501
 30
0.0
 11
223.0467535567
 21
199.1757832538
 31
0.0
  0
LINE
  5
D1
330
1F
100
AcDbEntity
  8
0
  6
Continuous
 62
     7
370
    25
100
AcDbLine
 10
223.8367535567
 20
199.1757832501
 30
0.0
 11
224.5555267807
 21
199.1757832501
 31
0.0
  0
LINE
  5
D2
330
1F
100
AcDbEntity
  8
0
  6
Continuous
 62
     7
370
    25
100
AcDbLine
 10
224.5555267807
 20
195.7583281852
 30
0.0
 11
223.8367535567
 21
195.7583281852
 31
0.0
  0
LINE
  5
D3
330
1F
100
AcDbEntity
  8
0
  6
Continuous
 62
     7
370
    25
100
AcDbLine
 10
223.0467535567
 20
195.7583281815
 30
0.0
 11
223.8367535567
 21
195.7583281852
 31
0.0
  0
LINE
  5
D4
330
1F
100
AcDbEntity
  8
0
  6
Continuous
 62
     7
370
    25
100
AcDbLine
 10
224.8554810892
 20
198.8758289416
 30
0.0
 11
224.8554810892
 21
196.0582824937
 31
0.0
  0
LINE
  5
D5
330
1F
100
AcDbEntity
  8
0
  6
Continuous
 62
     7
370
    25
100
AcDbLine
 10
194.4640066759
 20
212.706956618
 30
0.0
 11
223.6295004376
 21
212.706956618
 31
0.0
  0
LINE
  5
D6
330
1F
100
AcDbEntity
  8
0
  6
Continuous
 62
     7
370
    25
100
AcDbLine
 10
223.6295004376
 20
212.606956618
 30
0.0
 11
194.4640066759
 21
212.606956618
 31
0.0
  0
LINE
  5
D7
330
1F
100
AcDbEntity
  8
0
  6
Continuous
 62
     7
370
    25
100
AcDbLine
 10
194.3640066759
 20
223.9514636013
 30
0.0
 11
194.3640066759
 21
212.806956618
 31
0.0
  0
LINE
  5
D8
330
1F
100
AcDbEntity
  8
0
  6
Continuous
 62
     7
370
    25
100
AcDbLine
 10
194.3640066759
 20
238.5134256505
 30
0.0
 11
194.3640066759
 21
227.3689186672
 31
0.0
  0
ARC
  5
D9
330
1F
100
AcDbEntity
  8
0
  6
Continuous
 62
     7
370
    25
100
AcDbCircle
 10
194.4640066759
 20
238.5134256505
 30
0.0
 40
0.1000000000000227
100
AcDbArc
 50
90.0
 51
180.0
  0
LINE
  5
DA
330
1F
100
AcDbEntity
  8
0
  6
Continuous
 62
     7
370
    25
100
AcDbLine
 10
221.6632262676
 20
238.6134256505
 30
0.0
 11
194.4640066759
 21
238.6134256505
 31
0.0
  0
ARC
  5
DB
330
1F
100
AcDbEntity
  8
0
  6
Continuous
 62
     7
370
    25
100
AcDbCircle
 10
221.6632262676
 20
238.5534256505
 30
0.0
 40
0.0600000000000109
100
AcDbArc
 50
45.0
 51
90.0
  0
LINE
  5
DC
330
1F
100
AcDbEntity
  8
0
  6
Continuous
 62
     7
370
    25
100
AcDbLine
 10
223.7119268444
 20
236.5895778874
 30
0.0
 11
221.7056526745
 21
238.5958520573
 31
0.0
  0
ARC
  5
DD
330
1F
100
AcDbEntity
  8
0
  6
Continuous
 62
     7
370
    25
100
AcDbCircle
 10
223.6695004376
 20
236.5471514805
 30
0.0
 40
0.0600000000000109
100
AcDbArc
 50
0.0
 51
45.0
  0
LINE
  5
DE
330
1F
100
AcDbEntity
  8
0
  6
Continuous
 62
     7
370
    25
100
AcDbLine
 10
223.7295004376
 20
227.3689186672
 30
0.0
 11
223.7295004376
 21
236.5471514805
 31
0.0
  0
LINE
  5
DF
330
1F
100
AcDbEntity
  8
0
  6
Continuous
 62
     7
370
    25
100
AcDbLine
 10
223.7295004376
 20
212.806956618
 30
0.0
 11
223.7295004376
 21
223.9514636013
 31
0.0
  0
ARC
  5
E0
330
1F
100
AcDbEntity
  8
0
  6
Continuous
 62
     7
370
    25
100
AcDbCircle
 10
223.6295004376
 20
212.806956618
 30
0.0
 40
0.1000000000000227
100
AcDbArc
 50
270.0
 51
0.0
  0
ARC
  5
E1
330
1F
100
AcDbEntity
  8
0
  6
Continuous
 62
     7
370
    25
100
AcDbCircle
 10
194.4640066759
 20
212.806956618
 30
0.0
 40
0.1000000000000227
100
AcDbArc
 50
180.0
 51
270.0
  0
LINE
  5
E2
330
1F
100
AcDbEntity
  8
0
  6
Continuous
 62
     7
370
    25
100
AcDbLine
 10
194.4640066759
 20
238.7134256505
 30
0.0
 11
221.6632262676
 21
238.7134256505
 31
0.0
  0
ARC
  5
E3
330
1F
100
AcDbEntity
  8
0
  6
Continuous
 62
     7
370
    25
100
AcDbCircle
 10
223.6695004376
 20
236.5471514805
 30
0.0
 40
0.1599999999999966
100
AcDbArc
 50
0.0
 51
45.0
  0
ARC
  5
E4
330
1F
100
AcDbEntity
  8
0
  6
Continuous
 62
     7
370
    25
100
AcDbCircle
 10
194.4640066759
 20
212.806956618
 30
0.0
 40
0.2000000000000171
100
AcDbArc
 50
180.0
 51
270.0
  0
LINE
  5
E5
330
1F
100
AcDbEntity
  8
0
  6
Continuous
 62
     7
370
    25
100
AcDbLine
 10
223.8295004376
 20
236.5471514805
 30
0.0
 11
223.8295004376
 21
227.3689186667
 31
0.0
  0
LINE
  5
E6
330
1F
100
AcDbEntity
  8
0
  6
Continuous
 62
     7
370
    25
100
AcDbLine
 10
194.2640066759
 20
227.3689186667
 30
0.0
 11
194.2640066759
 21
238.5134256505
 31
0.0
  0
ARC
  5
E7
330
1F
100
AcDbEntity
  8
0
  6
Continuous
 62
     7
370
    25
100
AcDbCircle
 10
223.6295004376
 20
212.806956618
 30
0.0
 40
0.2000000000000171
100
AcDbArc
 50
270.0
 51
0.0
  0
ARC
  5
E8
330
1F
100
AcDbEntity
  8
0
  6
Continuous
 62
     7
370
    25
100
AcDbCircle
 10
194.4640066759
 20
238.5134256505
 30
0.0
 40
0.1999999999999886
100
AcDbArc
 50
90.0
 51
180.0
  0
LINE
  5
E9
330
1F
100
AcDbEntity
  8
0
  6
Continuous
 62
     7
370
    25
100
AcDbLine
 10
221.7763633526
 20
238.6665627355
 30
0.0
 11
223.7826375226
 21
236.6602885655
 31
0.0
  0
LINE
  5
EA
330
1F
100
AcDbEntity
  8
0
  6
Continuous
 62
     7
370
    25
100
AcDbLine
 10
194.2640066759
 20
212.806956618
 30
0.0
 11
194.2640066759
 21
223.9514636017
 31
0.0
  0
ARC
  5
EB
330
1F
100
AcDbEntity
  8
0
  6
Continuous
 62
     7
370
    25
100
AcDbCircle
 10
221.6632262676
 20
238.5534256505
 30
0.0
 40
0.1599999999999966
100
AcDbArc
 50
45.0
 51
90.0
  0
LINE
  5
EC
330
1F
100
AcDbEntity
  8
0
  6
Continuous
 62
     7
370
    25
100
AcDbLine
 10
223.8295004376
 20
223.9514636017
 30
0.0
 11
223.8295004376
 21
212.806956618
 31
0.0
  0
LINE
  5
ED
330
1F
100
AcDbEntity
  8
0
  6
Continuous
 62
     7
370
    25
100
AcDbLine
 10
194.2640066759
 20
199.1757832501
 30
0.0
 11
194.2640066759
 21
210.3202902339
 31
0.0
  0
LINE
  5
EE
330
1F
100
AcDbEntity
  8
0
  6
Continuous
 62
     7
370
    25
100
AcDbLine
 10
194.3640066759
 20
210.3202902339
 30
0.0
 11
194.3640066759
 21
199.1757832506
 31
0.0
  0
ARC
  5
EF
330
1F
100
AcDbEntity
  8
0
  6
Continuous
 62
     7
370
    25
100
AcDbCircle
 10
223.6695004376
 20
208.3540160639
 30
0.0
 40
0.1599999999999966
100
AcDbArc
 50
0.0
 51
45.0
  0
ARC
  5
F0
330
1F
100
AcDbEntity
  8
0
  6
Continuous
 62
     7
370
    25
100
AcDbCircle
 10
223.6695004376
 20
208.3540160639
 30
0.0
 40
0.0600000000000109
100
AcDbArc
 50
0.0
 51
45.0
  0
LINE
  5
F1
330
1F
100
AcDbEntity
  8
0
  6
Continuous
 62
     7
370
    25
100
AcDbLine
 10
223.8295004376
 20
208.3540160639
 30
0.0
 11
223.8295004376
 21
199.1757832501
 31
0.0
  0
LINE
  5
F2
330
1F
100
AcDbEntity
  8
0
  6
Continuous
 62
     7
370
    25
100
AcDbLine
 10
223.7295004376
 20
199.1757832506
 30
0.0
 11
223.7295004376
 21
208.3540160639
 31
0.0
  0
LINE
  5
F3
330
1F
100
AcDbEntity
  8
0
  6
Continuous
 62
     7
370
    25
100
AcDbLine
 10
194.4640066759
 20
184.5138212014
 30
0.0
 11
223.6295004376
 21
184.5138212014
 31
0.0
  0
LINE
  5
F4
330
1F
100
AcDbEntity
  8
0
  6
Continuous
 62
     7
370
    25
100
AcDbLine
 10
223.6295004376
 20
184.4138212014
 30
0.0
 11
194.4640066759
 21
184.4138212014
 31
0.0
  0
ARC
  5
F5
330
1F
100
AcDbEntity
  8
0
  6
Continuous
 62
     7
370
    25
100
AcDbCircle
 10
223.6295004376
 20
184.6138212014
 30
0.0
 40
0.1000000000000227
100
AcDbArc
 50
270.0
 51
0.0
  0
ARC
  5
F6
330
1F
100
AcDbEntity
  8
0
  6
Continuous
 62
     7
370
    25
100
AcDbCircle
 10
223.6295004376
 20
184.6138212014
 30
0.0
 40
0.2000000000000171
100
AcDbArc
 50
270.0
 51
0.0
  0
LINE
  5
F7
330
1F
100
AcDbEntity
  8
0
  6
Continuous
 62
     7
370
    25
100
AcDbLine
 10
223.7295004376
 20
184.6138212014
 30
0.0
 11
223.7295004376
 21
195.7583281847
 31
0.0
  0
LINE
  5
F8
330
1F
100
AcDbEntity
  8
0
  6
Continuous
 62
     7
370
    25
100
AcDbLine
 10
223.8295004376
 20
195.7583281851
 30
0.0
 11
223.8295004376
 21
184.6138212014
 31
0.0
  0
ARC
  5
F9
330
1F
100
AcDbEntity
  8
0
  6
Continuous
 62
     7
370
    25
100
AcDbCircle
 10
194.4640066759
 20
210.3202902339
 30
0.0
 40
0.1999999999999886
100
AcDbArc
 50
90.0
 51
180.0
  0
ARC
  5
FA
330
1F
100
AcDbEntity
  8
0
  6
Continuous
 62
     7
370
    25
100
AcDbCircle
 10
194.4640066759
 20
210.3202902339
 30
0.0
 40
0.0999999999999943
100
AcDbArc
 50
90.0
 51
180.0
  0
LINE
  5
FB
330
1F
100
AcDbEntity
  8
0
  6
Continuous
 62
     7
370
    25
100
AcDbLine
 10
194.4640066759
 20
210.5202902339
 30
0.0
 11
221.6632262676
 21
210.5202902339
 31
0.0
  0
LINE
  5
FC
330
1F
100
AcDbEntity
  8
0
  6
Continuous
 62
     7
370
    25
100
AcDbLine
 10
221.6632262676
 20
210.4202902339
 30
0.0
 11
194.4640066759
 21
210.4202902339
 31
0.0
  0
ARC
  5
FD
330
1F
100
AcDbEntity
  8
0
  6
Continuous
 62
     7
370
    25
100
AcDbCircle
 10
221.6632262676
 20
210.3602902339
 30
0.0
 40
0.1600000000000158
100
AcDbArc
 50
45.0
 51
90.0
  0
ARC
  5
FE
330
1F
100
AcDbEntity
  8
0
  6
Continuous
 62
     7
370
    25
100
AcDbCircle
 10
221.6632262676
 20
210.3602902339
 30
0.0
 40
0.0600000000000023
100
AcDbArc
 50
45.0
 51
90.0
  0
LINE
  5
FF
330
1F
100
AcDbEntity
  8
0
  6
Continuous
 62
     7
370
    25
100
AcDbLine
 10
221.7763633526
 20
210.4734273189
 30
0.0
 11
223.7826375226
 21
208.4671531489
 31
0.0
  0
LINE
  5
100
330
1F
100
AcDbEntity
  8
0
  6
Continuous
 62
     7
370
    25
100
AcDbLine
 10
223.7119268444
 20
208.3964424708
 30
0.0
 11
221.7056526745
 21
210.4027166408
 31
0.0
  0
LINE
  5
101
330
1F
100
AcDbEntity
  8
0
  6
Continuous
 62
     7
370
    25
100
AcDbLine
 10
194.3640066759
 20
195.7583281847
 30
0.0
 11
194.3640066759
 21
184.6138212014
 31
0.0
  0
LINE
  5
102
330
1F
100
AcDbEntity
  8
0
  6
Continuous
 62
     7
370
    25
100
AcDbLine
 10
194.2640066759
 20
184.6138212014
 30
0.0
 11
194.2640066759
 21
195.7583281851
 31
0.0
  0
ARC
  5
103
330
1F
100
AcDbEntity
  8
0
  6
Continuous
 62
     7
370
    25
100
AcDbCircle
 10
194.4640066759
 20
184.6138212014
 30
0.0
 40
0.1000000000000227
100
AcDbArc
 50
180.0
 51
270.0
  0
ARC
  5
104
330
1F
100
AcDbEntity
  8
0
  6
Continuous
 62
     7
370
    25
100
AcDbCircle
 10
194.4640066759
 20
184.6138212014
 30
0.0
 40
0.1999999999999886
100
AcDbArc
 50
180.0
 51
270.0
  0
LINE
  5
105
330
1F
100
AcDbEntity
  8
0
  6
Continuous
 62
     7
370
    25
100
AcDbLine
 10
223.7254819051
 20
238.5353620117
 30
0.0
 11
223.7268787359
 21
238.5367588425
 31
0.0
  0
LINE
  5
106
330
1F
100
AcDbEntity
  8
0
  6
Continuous
 62
     7
370
    25
100
AcDbLine
 10
223.7254819051
 20
238.5353620117
 30
0.0
 11
223.7254819051
 21
238.8753620117
 31
0.0
  0
LINE
  5
107
330
1F
100
AcDbEntity
  8
0
  6
Continuous
 62
     7
370
    25
100
AcDbLine
 10
223.7254819051
 20
238.8753620117
 30
0.0
 11
223.7268787359
 21
238.8767588425
 31
0.0
  0
LINE
  5
108
330
1F
100
AcDbEntity
  8
0
  6
Continuous
 62
     7
370
    25
100
AcDbLine
 10
223.7268787359
 20
238.5367588425
 30
0.0
 11
223.7268787359
 21
238.8767588425
 31
0.0
  0
LINE
  5
109
330
1F
100
AcDbEntity
  8
0
  6
Continuous
 62
     7
370
    25
100
AcDbLine
 10
223.4082755667
 20
237.8581556733
 30
0.0
 11
223.5654819051
 21
237.8581556733
 31
0.0
  0
LINE
  5
10A
330
1F
100
AcDbEntity
  8
0
  6
Continuous
 62
     7
370
    25
100
AcDbLine
 10
223.4082755667
 20
238.1981556733
 30
0.0
 11
223.4082755667
 21
237.8581556733
 31
0.0
  0
LINE
  5
10B
330
1F
100
AcDbEntity
  8
0
  6
Continuous
 62
     7
370
    25
100
AcDbLine
 10
223.0682755667
 20
238.1981556733
 30
0.0
 11
223.4082755667
 21
238.1981556733
 31
0.0
  0
LINE
  5
10C
330
1F
100
AcDbEntity
  8
0
  6
Continuous
 62
     7
370
    25
100
AcDbLine
 10
223.0682755667
 20
238.3553620117
 30
0.0
 11
223.0682755667
 21
238.1981556733
 31
0.0
  0
LINE
  5
10D
330
1F
100
AcDbEntity
  8
0
  6
Continuous
 62
     7
370
    25
100
AcDbLine
 10
223.5654819051
 20
238.3553620117
 30
0.0
 11
223.0682755667
 21
238.3553620117
 31
0.0
  0
LINE
  5
10E
330
1F
100
AcDbEntity
  8
0
  6
Continuous
 62
     7
370
    25
100
AcDbLine
 10
223.5654819051
 20
237.8581556733
 30
0.0
 11
223.5654819051
 21
238.3553620117
 31
0.0
  0
LINE
  5
10F
330
1F
100
AcDbEntity
  8
0
  6
Continuous
 62
     7
370
    25
100
AcDbLine
 10
223.5654819051
 20
237.8581556733
 30
0.0
 11
223.5668787359
 21
237.8567588425
 31
0.0
  0
LINE
  5
110
330
1F
100
AcDbEntity
  8
0
  6
Continuous
 62
     7
370
    25
100
AcDbLine
 10
223.5654819051
 20
238.3553620117
 30
0.0
 11
223.5668787359
 21
238.3567588425
 31
0.0
  0
LINE
  5
111
330
1F
100
AcDbEntity
  8
0
  6
Continuous
 62
     7
370
    25
100
AcDbLine
 10
223.5668787359
 20
237.8567588425
 30
0.0
 11
223.5668787359
 21
238.3567588425
 31
0.0
  0
LINE
  5
112
330
1F
100
AcDbEntity
  8
0
  6
Continuous
 62
     7
370
    25
100
AcDbLine
 10
223.0682755667
 20
238.1981556733
 30
0.0
 11
223.0668787359
 21
238.1967588425
 31
0.0
  0
LINE
  5
113
330
1F
100
AcDbEntity
  8
0
  6
Continuous
 62
     7
370
    25
100
AcDbLine
 10
223.4082755667
 20
238.1981556733
 30
0.0
 11
223.4068787359
 21
238.1967588425
 31
0.0
  0
LINE
  5
114
330
1F
100
AcDbEntity
  8
0
  6
Continuous
 62
     7
370
    25
100
AcDbLine
 10
223.0668787359
 20
238.1967588425
 30
0.0
 11
223.4068787359
 21
238.1967588425
 31
0.0
  0
LINE
  5
115
330
1F
100
AcDbEntity
  8
0
  6
Continuous
 62
     7
370
    25
100
AcDbLine
 10
223.5682755667
 20
238.3781556733
 30
0.0
 11
223.5668787359
 21
238.3767588425
 31
0.0
  0
LINE
  5
116
330
1F
100
AcDbEntity
  8
0
  6
Continuous
 62
     7
370
    25
100
AcDbLine
 10
223.5682755667
 20
238.3781556733
 30
0.0
 11
224.0654819051
 21
238.3781556733
 31
0.0
  0
LINE
  5
117
330
1F
100
AcDbEntity
  8
0
  6
Continuous
 62
     7
370
    25
100
AcDbLine
 10
224.0654819051
 20
238.3781556733
 30
0.0
 11
224.0668787359
 21
238.3767588425
 31
0.0
  0
LINE
  5
118
330
1F
100
AcDbEntity
  8
0
  6
Continuous
 62
     7
370
    25
100
AcDbLine
 10
223.5668787359
 20
238.3767588425
 30
0.0
 11
224.0668787359
 21
238.3767588425
 31
0.0
  0
LINE
  5
119
330
1F
100
AcDbEntity
  8
0
  6
Continuous
 62
     7
370
    25
100
AcDbLine
 10
224.0654819051
 20
238.3781556733
 30
0.0
 11
224.0654819051
 21
238.5353620117
 31
0.0
  0
LINE
  5
11A
330
1F
100
AcDbEntity
  8
0
  6
Continuous
 62
     7
370
    25
100
AcDbLine
 10
224.0654819051
 20
238.5353620117
 30
0.0
 11
224.0668787359
 21
238.5367588425
 31
0.0
  0
LINE
  5
11B
330
1F
100
AcDbEntity
  8
0
  6
Continuous
 62
     7
370
    25
100
AcDbLine
 10
224.0668787359
 20
238.3767588425
 30
0.0
 11
224.0668787359
 21
238.5367588425
 31
0.0
  0
LINE
  5
11C
330
1F
100
AcDbEntity
  8
0
  6
Continuous
 62
     7
370
    25
100
AcDbLine
 10
224.0654819051
 20
238.5353620117
 30
0.0
 11
223.7254819051
 21
238.5353620117
 31
0.0
  0
LINE
  5
11D
330
1F
100
AcDbEntity
  8
0
  6
Continuous
 62
     7
370
    25
100
AcDbLine
 10
224.0668787359
 20
238.5367588425
 30
0.0
 11
223.7268787359
 21
238.5367588425
 31
0.0
  0
LINE
  5
11E
330
1F
100
AcDbEntity
  8
0
  6
Continuous
 62
     7
370
    25
100
AcDbLine
 10
223.4082755667
 20
237.8581556733
 30
0.0
 11
223.4068787359
 21
237.8567588425
 31
0.0
  0
LINE
  5
11F
330
1F
100
AcDbEntity
  8
0
  6
Continuous
 62
     7
370
    25
100
AcDbLine
 10
223.4068787359
 20
237.8567588425
 30
0.0
 11
223.5668787359
 21
237.8567588425
 31
0.0
  0
LINE
  5
120
330
1F
100
AcDbEntity
  8
0
  6
Continuous
 62
     7
370
    25
100
AcDbLine
 10
223.5682755667
 20
238.8753620117
 30
0.0
 11
223.5668787359
 21
238.8767588425
 31
0.0
  0
LINE
  5
121
330
1F
100
AcDbEntity
  8
0
  6
Continuous
 62
     7
370
    25
100
AcDbLine
 10
223.5682755667
 20
238.8753620117
 30
0.0
 11
223.5682755667
 21
238.3781556733
 31
0.0
  0
LINE
  5
122
330
1F
100
AcDbEntity
  8
0
  6
Continuous
 62
     7
370
    25
100
AcDbLine
 10
223.5668787359
 20
238.8767588425
 30
0.0
 11
223.5668787359
 21
238.3767588425
 31
0.0
  0
LINE
  5
123
330
1F
100
AcDbEntity
  8
0
  6
Continuous
 62
     7
370
    25
100
AcDbLine
 10
223.7254819051
 20
238.8753620117
 30
0.0
 11
223.5682755667
 21
238.8753620117
 31
0.0
  0
LINE
  5
124
330
1F
100
AcDbEntity
  8
0
  6
Continuous
 62
     7
370
    25
100
AcDbLine
 10
223.7268787359
 20
238.8767588425
 30
0.0
 11
223.5668787359
 21
238.8767588425
 31
0.0
  0
LINE
  5
125
330
1F
100
AcDbEntity
  8
0
  6
Continuous
 62
     7
370
    25
100
AcDbLine
 10
223.0682755667
 20
238.3553620117
 30
0.0
 11
223.0668787359
 21
238.3567588425
 31
0.0
  0
LINE
  5
126
330
1F
100
AcDbEntity
  8
0
  6
Continuous
 62
     7
370
    25
100
AcDbLine
 10
223.5668787359
 20
238.3567588425
 30
0.0
 11
223.0668787359
 21
238.3567588425
 31
0.0
  0
LINE
  5
127
330
1F
100
AcDbEntity
  8
0
  6
Continuous
 62
     7
370
    25
100
AcDbLine
 10
223.4068787359
 20
238.1967588425
 30
0.0
 11
223.4068787359
 21
237.8567588425
 31
0.0
  0
LINE
  5
128
330
1F
100
AcDbEntity
  8
0
  6
Continuous
 62
     7
370
    25
100
AcDbLine
 10
223.0668787359
 20
238.3567588425
 30
0.0
 11
223.0668787359
 21
238.1967588425
 31
0.0
  0
LINE
  5
129
330
1F
100
AcDbEntity
  8
0
  6
Continuous
 62
     7
370
    25
100
AcDbLine
 10
221.8494081438
 20
238.8013418507
 30
0.0
 11
223.9174166378
 21
236.7333333567
 31
0.0
  0
LINE
  5
12A
330
1F
100
AcDbEntity
  8
0
  6
Continuous
 62
     7
370
    25
100
AcDbLine
 10
223.7295004376
 20
212.4604974585
 30
0.0
 11
194.3640066759
 21
212.4604974585
 31
0.0
  0
ARC
  5
12B
330
1F
100
AcDbEntity
  8
0
  6
Continuous
 62
     7
370
    25
100
AcDbCircle
 10
194.3640066759
 20
238.6134256505
 30
0.0
 40
0.2464591595069408
100
AcDbArc
 50
90.0
 51
180.0
  0
ARC
  5
12C
330
1F
100
AcDbEntity
  8
0
  6
Continuous
 62
     7
370
    25
100
AcDbCircle
 10
194.3640066759
 20
212.706956618
 30
0.0
 40
0.2464591595069408
100
AcDbArc
 50
180.0
 51
270.0
  0
ARC
  5
12D
330
1F
100
AcDbEntity
  8
0
  6
Continuous
 62
     7
370
    25
100
AcDbCircle
 10
223.7295004376
 20
212.706956618
 30
0.0
 40
0.2464591595069123
100
AcDbArc
 50
270.0
 51
0.0
  0
LINE
  5
12E
330
1F
100
AcDbEntity
  8
0
  6
Continuous
 62
     7
370
    25
100
AcDbLine
 10
194.1175475164
 20
212.706956618
 30
0.0
 11
194.1175475164
 21
223.9514636018
 31
0.0
  0
LINE
  5
12F
330
1F
100
AcDbEntity
  8
0
  6
Continuous
 62
     7
370
    25
100
AcDbLine
 10
223.9759595971
 20
223.9514636018
 30
0.0
 11
223.9759595971
 21
212.706956618
 31
0.0
  0
LINE
  5
130
330
1F
100
AcDbEntity
  8
0
  6
Continuous
 62
     7
370
    25
100
AcDbLine
 10
194.1175475164
 20
238.6134256505
 30
0.0
 11
194.1175475164
 21
227.3689186667
 31
0.0
  0
ELLIPSE
  5
131
330
1F
100
AcDbEntity
  8
0
  6
Continuous
 62
     7
370
    25
100
AcDbEllipse
 10
221.7079719758
 20
238.6597629011
 30
0.0
 11
-0.07659134042160076
 21
-0.1849078528062194
 31
0.0
210
0.0
220
0.0
230
1.0
 40
0.9992864213
 41
2.749145886418969
 42
3.5340394207602
  0
ELLIPSE
  5
132
330
1F
100
AcDbEntity
  8
0
  6
Continuous
 62
     7
370
    25
100
AcDbEllipse
 10
223.7758376882
 20
236.5918971887
 30
0.0
 11
0.184907852806191
 21
0.07659134042162917
 31
0.0
210
0.0
220
0.0
230
1.0
 40
0.9992864213
 41
5.890738540009076
 42
6.675632074349968
  0
LINE
  5
133
330
1F
100
AcDbEntity
  8
0
  6
Continuous
 62
     7
370
    25
100
AcDbLine
 10
221.7080729376
 20
238.85988481
 30
0.0
 11
194.3640066759
 21
238.85988481
 31
0.0
  0
LINE
  5
134
330
1F
100
AcDbEntity
  8
0
  6
Continuous
 62
     7
370
    25
100
AcDbLine
 10
223.9759595971
 20
227.3689186667
 30
0.0
 11
223.9759595971
 21
236.5919981506
 31
0.0
  0
ELLIPSE
  5
135
330
1F
100
AcDbEntity
  8
0
  6
Continuous
 62
     7
370
    25
100
AcDbEllipse
 10
193.6201553712
 20
236.1705947975
 30
0.0
 11
-0.03539842722997832
 21
-0.0353984272299499
 31
0.0
210
0.0
220
0.0
230
1.0
 40
0.998782766
 41
2.35680347777819
 42
3.926381829402214
  0
LINE
  5
136
330
1F
100
AcDbEntity
  8
0
  6
Continuous
 62
     7
370
    25
100
AcDbLine
 10
224.8668787359
 20
218.2705948161
 30
0.0
 11
224.8668787359
 21
233.0497874524
 31
0.0
  0
ELLIPSE
  5
137
330
1F
100
AcDbEntity
  8
0
  6
Continuous
 62
     7
370
    25
100
AcDbEllipse
 10
224.4733517423
 20
236.1705947975
 30
0.0
 11
-0.0353984272299499
 21
0.03539842722997832
 31
0.0
210
0.0
220
0.0
230
1.0
 40
0.998782766
 41
5.498396131368198
 42
7.067974482991224
  0
LINE
  5
138
330
1F
100
AcDbEntity
  8
0
  6
Continuous
 62
     7
370
    25
100
AcDbLine
 10
224.8169083481
 20
218.2206252747
 30
0.0
 11
224.4732908064
 21
218.2206252747
 31
0.0
  0
ELLIPSE
  5
139
330
1F
100
AcDbEntity
  8
0
  6
Continuous
 62
     7
370
    25
100
AcDbEllipse
 10
193.6201553712
 20
218.1705947975
 30
0.0
 11
-0.03539842722997832
 21
-0.03539842722997832
 31
0.0
210
0.0
220
0.0
230
1.0
 40
0.998782766
 41
2.356803477777588
 42
3.926381829402012
  0
ELLIPSE
  5
13A
330
1F
100
AcDbEntity
  8
0
  6
Continuous
 62
     7
370
    25
100
AcDbEllipse
 10
224.8168482587
 20
215.0497265165
 30
0.0
 11
-0.0353984272299499
 21
-0.03539842722997832
 31
0.0
210
0.0
220
0.0
230
1.0
 40
0.998782766
 41
2.356803477777388
 42
3.926398746811279
  0
LINE
  5
13B
330
1F
100
AcDbEntity
  8
0
  6
Continuous
 62
     7
370
    25
100
AcDbLine
 10
193.2266283776
 20
215.0497874524
 30
0.0
 11
193.2266283776
 21
212.680131349
 31
0.0
  0
ELLIPSE
  5
13C
330
1F
100
AcDbEntity
  8
0
  6
Continuous
 62
     7
370
    25
100
AcDbEllipse
 10
193.2766588548
 20
218.2706557519
 30
0.0
 11
0.03539842722997832
 21
0.03539842722997832
 31
0.0
210
0.0
220
0.0
230
1.0
 40
0.998782766
 41
2.356803477777019
 42
3.926398746828356
  0
LINE
  5
13D
330
1F
100
AcDbEntity
  8
0
  6
Continuous
 62
     7
370
    25
100
AcDbLine
 10
193.6202163071
 20
218.2206252747
 30
0.0
 11
193.2765987654
 21
218.2206252747
 31
0.0
  0
LINE
  5
13E
330
1F
100
AcDbEntity
  8
0
  6
Continuous
 62
     7
370
    25
100
AcDbLine
 10
193.2765987653
 20
215.0997569937
 30
0.0
 11
193.6202163071
 21
215.0997569937
 31
0.0
  0
ELLIPSE
  5
13F
330
1F
100
AcDbEntity
  8
0
  6
Continuous
 62
     7
370
    25
100
AcDbEllipse
 10
193.6201553712
 20
215.1497874709
 30
0.0
 11
0.0353984272299499
 21
-0.03539842722997832
 31
0.0
210
0.0
220
0.0
230
1.0
 40
0.998782766
 41
5.498396131368564
 42
7.067974482991992
  0
ELLIPSE
  5
140
330
1F
100
AcDbEntity
  8
0
  6
Continuous
 62
     7
370
    25
100
AcDbEllipse
 10
224.4733517423
 20
218.1705947975
 30
0.0
 11
-0.0353984272299499
 21
0.03539842722992148
 31
0.0
210
0.0
220
0.0
230
1.0
 40
0.998782766
 41
5.498396131367797
 42
7.067974482991155
  0
LINE
  5
141
330
1F
100
AcDbEntity
  8
0
  6
Continuous
 62
     7
370
    25
100
AcDbLine
 10
224.4732908064
 20
215.0997569937
 30
0.0
 11
224.8169083481
 21
215.0997569937
 31
0.0
  0
LINE
  5
142
330
1F
100
AcDbEntity
  8
0
  6
Continuous
 62
     7
370
    25
100
AcDbLine
 10
193.6701858485
 20
236.1706557334
 30
0.0
 11
193.6701858485
 21
233.1497265351
 31
0.0
  0
ELLIPSE
  5
143
330
1F
100
AcDbEntity
  8
0
  6
Continuous
 62
     7
370
    25
100
AcDbEllipse
 10
224.8168482587
 20
218.2706557519
 30
0.0
 11
-0.0353984272299499
 21
0.03539842722992148
 31
0.0
210
0.0
220
0.0
230
1.0
 40
0.998782766
 41
2.356786560018011
 42
3.926381829399268
  0
LINE
  5
144
330
1F
100
AcDbEntity
  8
0
  6
Continuous
 62
     7
370
    25
100
AcDbLine
 10
193.2266283776
 20
233.0497874524
 30
0.0
 11
193.2266283776
 21
218.2705948161
 31
0.0
  0
LINE
  5
145
330
1F
100
AcDbEntity
  8
0
  6
Continuous
 62
     7
370
    25
100
AcDbLine
 10
224.423321265
 20
215.1497265351
 30
0.0
 11
224.423321265
 21
218.1706557334
 31
0.0
  0
ELLIPSE
  5
146
330
1F
100
AcDbEntity
  8
0
  6
Continuous
 62
     7
370
    25
100
AcDbEllipse
 10
193.6201553712
 20
233.1497874709
 30
0.0
 11
-0.03539842722997832
 21
0.03539842722997832
 31
0.0
210
0.0
220
0.0
230
1.0
 40
0.998782766
 41
2.356803477777221
 42
3.926381829401811
  0
ELLIPSE
  5
147
330
1F
100
AcDbEntity
  8
0
  6
Continuous
 62
     7
370
    25
100
AcDbEllipse
 10
224.8168482587
 20
233.0497265165
 30
0.0
 11
-0.0353984272299499
 21
-0.0353984272299499
 31
0.0
210
0.0
220
0.0
230
1.0
 40
0.998782766
 41
2.356803477778191
 42
3.926398746530643
  0
ELLIPSE
  5
148
330
1F
100
AcDbEntity
  8
0
  6
Continuous
 62
     7
370
    25
100
AcDbEllipse
 10
193.2766588548
 20
233.0497265165
 30
0.0
 11
0.03539842722997832
 21
-0.0353984272299499
 31
0.0
210
0.0
220
0.0
230
1.0
 40
0.998782766
 41
2.356786559703623
 42
3.926381829400641
  0
ELLIPSE
  5
149
330
1F
100
AcDbEntity
  8
0
  6
Continuous
 62
     7
370
    25
100
AcDbEllipse
 10
193.2766588548
 20
236.2706557519
 30
0.0
 11
0.0353984272299499
 21
0.0353984272299499
 31
0.0
210
0.0
220
0.0
230
1.0
 40
0.998782766
 41
2.356803477777421
 42
3.92639874628827
  0
LINE
  5
14A
330
1F
100
AcDbEntity
  8
0
  6
Continuous
 62
     7
370
    25
100
AcDbLine
 10
193.6202163071
 20
236.2206252747
 30
0.0
 11
193.2765987653
 21
236.2206252747
 31
0.0
  0
LINE
  5
14B
330
1F
100
AcDbEntity
  8
0
  6
Continuous
 62
     7
370
    25
100
AcDbLine
 10
193.2765987654
 20
233.0997569937
 30
0.0
 11
193.6202163071
 21
233.0997569937
 31
0.0
  0
ELLIPSE
  5
14C
330
1F
100
AcDbEntity
  8
0
  6
Continuous
 62
     7
370
    25
100
AcDbEllipse
 10
224.4733517423
 20
233.1497874709
 30
0.0
 11
0.03539842722997832
 21
0.03539842722992147
 31
0.0
210
0.0
220
0.0
230
1.0
 40
0.998782766
 41
2.356803477779561
 42
3.926381829402213
  0
ELLIPSE
  5
14D
330
1F
100
AcDbEntity
  8
0
  6
Continuous
 62
     7
370
    25
100
AcDbEllipse
 10
224.4733517423
 20
215.1497874709
 30
0.0
 11
0.0353984272299499
 21
0.03539842722997832
 31
0.0
210
0.0
220
0.0
230
1.0
 40
0.998782766
 41
2.356803477776818
 42
3.926381829400842
  0
LINE
  5
14E
330
1F
100
AcDbEntity
  8
0
  6
Continuous
 62
     7
370
    25
100
AcDbLine
 10
193.2266283776
 20
238.6402509195
 30
0.0
 11
193.2266283776
 21
236.2705948161
 31
0.0
  0
ELLIPSE
  5
14F
330
1F
100
AcDbEntity
  8
0
  6
Continuous
 62
     7
370
    25
100
AcDbEllipse
 10
193.2766588548
 20
215.0497265165
 30
0.0
 11
0.03539842722997832
 21
-0.0353984272299499
 31
0.0
210
0.0
220
0.0
230
1.0
 40
0.998782766
 41
2.35678656052147
 42
3.926381829400843
  0
LINE
  5
150
330
1F
100
AcDbEntity
  8
0
  6
Continuous
 62
     7
370
    25
100
AcDbLine
 10
193.6701858485
 20
218.1706557334
 30
0.0
 11
193.6701858485
 21
215.1497265351
 31
0.0
  0
LINE
  5
151
330
1F
100
AcDbEntity
  8
0
  6
Continuous
 62
     7
370
    25
100
AcDbLine
 10
223.8303708128
 20
239.6767588425
 30
0.0
 11
194.2631363007
 21
239.6767588425
 31
0.0
  0
ARC
  5
152
330
1F
100
AcDbEntity
  8
0
  6
Continuous
 62
     7
370
    25
100
AcDbCircle
 10
194.2631363007
 20
212.680131349
 30
0.0
 40
1.036507923050863
100
AcDbArc
 50
180.0
 51
270.0
  0
ARC
  5
153
330
1F
100
AcDbEntity
  8
0
  6
Continuous
 62
     7
370
    25
100
AcDbCircle
 10
223.8303708128
 20
212.680131349
 30
0.0
 40
1.036507923050863
100
AcDbArc
 50
270.0
 51
0.0
  0
LINE
  5
154
330
1F
100
AcDbEntity
  8
0
  6
Continuous
 62
     7
370
    25
100
AcDbLine
 10
224.423321265
 20
233.1497265351
 30
0.0
 11
224.423321265
 21
236.1706557334
 31
0.0
  0
LINE
  5
155
330
1F
100
AcDbEntity
  8
0
  6
Continuous
 62
     7
370
    25
100
AcDbLine
 10
194.2631363007
 20
211.6436234259
 30
0.0
 11
223.8303708128
 21
211.6436234259
 31
0.0
  0
ARC
  5
156
330
1F
100
AcDbEntity
  8
0
  6
Continuous
 62
     7
370
    25
100
AcDbCircle
 10
223.8303708128
 20
238.6402509195
 30
0.0
 40
1.036507923050834
100
AcDbArc
 50
0.0
 51
90.0
  0
ARC
  5
157
330
1F
100
AcDbEntity
  8
0
  6
Continuous
 62
     7
370
    25
100
AcDbCircle
 10
194.2631363007
 20
238.6402509195
 30
0.0
 40
1.036507923050834
100
AcDbArc
 50
90.0
 51
180.0
  0
ELLIPSE
  5
158
330
1F
100
AcDbEntity
  8
0
  6
Continuous
 62
     7
370
    25
100
AcDbEllipse
 10
224.8168482587
 20
236.2706557519
 30
0.0
 11
-0.03539842722997832
 21
0.0353984272299499
 31
0.0
210
0.0
220
0.0
230
1.0
 40
0.998782766
 41
2.356786560556324
 42
3.926381829400641
  0
LINE
  5
159
330
1F
100
AcDbEntity
  8
0
  6
Continuous
 62
     7
370
    25
100
AcDbLine
 10
224.8668787359
 20
212.680131349
 30
0.0
 11
224.8668787359
 21
215.0497874524
 31
0.0
  0
LINE
  5
15A
330
1F
100
AcDbEntity
  8
0
  6
Continuous
 62
     7
370
    25
100
AcDbLine
 10
224.8668787359
 20
236.2705948161
 30
0.0
 11
224.8668787359
 21
238.6402509195
 31
0.0
  0
LINE
  5
15B
330
1F
100
AcDbEntity
  8
0
  6
Continuous
 62
     7
370
    25
100
AcDbLine
 10
224.4732908064
 20
233.0997569937
 30
0.0
 11
224.8169083482
 21
233.0997569937
 31
0.0
  0
LINE
  5
15C
330
1F
100
AcDbEntity
  8
0
  6
Continuous
 62
     7
370
    25
100
AcDbLine
 10
224.8169083481
 20
236.2206252747
 30
0.0
 11
224.4732908064
 21
236.2206252747
 31
0.0
  0
LINE
  5
15D
330
1F
100
AcDbEntity
  8
0
  6
Continuous
 62
     7
370
    25
100
AcDbLine
 10
223.4082755667
 20
209.6650202567
 30
0.0
 11
223.4068787359
 21
209.6636234259
 31
0.0
  0
LINE
  5
15E
330
1F
100
AcDbEntity
  8
0
  6
Continuous
 62
     7
370
    25
100
AcDbLine
 10
223.4082755667
 20
209.6650202567
 30
0.0
 11
223.5654819051
 21
209.6650202567
 31
0.0
  0
LINE
  5
15F
330
1F
100
AcDbEntity
  8
0
  6
Continuous
 62
     7
370
    25
100
AcDbLine
 10
223.5654819051
 20
209.6650202567
 30
0.0
 11
223.5668787359
 21
209.6636234259
 31
0.0
  0
LINE
  5
160
330
1F
100
AcDbEntity
  8
0
  6
Continuous
 62
     7
370
    25
100
AcDbLine
 10
223.4068787359
 20
209.6636234259
 30
0.0
 11
223.5668787359
 21
209.6636234259
 31
0.0
  0
LINE
  5
161
330
1F
100
AcDbEntity
  8
0
  6
Continuous
 62
     7
370
    25
100
AcDbLine
 10
223.4082755667
 20
210.0050202567
 30
0.0
 11
223.4082755667
 21
209.6650202567
 31
0.0
  0
LINE
  5
162
330
1F
100
AcDbEntity
  8
0
  6
Continuous
 62
     7
370
    25
100
AcDbLine
 10
223.0682755667
 20
210.0050202567
 30
0.0
 11
223.4082755667
 21
210.0050202567
 31
0.0
  0
LINE
  5
163
330
1F
100
AcDbEntity
  8
0
  6
Continuous
 62
     7
370
    25
100
AcDbLine
 10
223.0682755667
 20
210.1622265952
 30
0.0
 11
223.0682755667
 21
210.0050202567
 31
0.0
  0
LINE
  5
164
330
1F
100
AcDbEntity
  8
0
  6
Continuous
 62
     7
370
    25
100
AcDbLine
 10
223.5654819051
 20
210.1622265952
 30
0.0
 11
223.0682755667
 21
210.1622265952
 31
0.0
  0
LINE
  5
165
330
1F
100
AcDbEntity
  8
0
  6
Continuous
 62
     7
370
    25
100
AcDbLine
 10
223.5654819051
 20
209.6650202567
 30
0.0
 11
223.5654819051
 21
210.1622265952
 31
0.0
  0
LINE
  5
166
330
1F
100
AcDbEntity
  8
0
  6
Continuous
 62
     7
370
    25
100
AcDbLine
 10
223.4082755667
 20
210.0050202567
 30
0.0
 11
223.4068787359
 21
210.0036234259
 31
0.0
  0
LINE
  5
167
330
1F
100
AcDbEntity
  8
0
  6
Continuous
 62
     7
370
    25
100
AcDbLine
 10
223.4068787359
 20
210.0036234259
 30
0.0
 11
223.4068787359
 21
209.6636234259
 31
0.0
  0
LINE
  5
168
330
1F
100
AcDbEntity
  8
0
  6
Continuous
 62
     7
370
    25
100
AcDbLine
 10
223.0682755667
 20
210.1622265952
 30
0.0
 11
223.0668787359
 21
210.1636234259
 31
0.0
  0
LINE
  5
169
330
1F
100
AcDbEntity
  8
0
  6
Continuous
 62
     7
370
    25
100
AcDbLine
 10
223.0682755667
 20
210.0050202567
 30
0.0
 11
223.0668787359
 21
210.0036234259
 31
0.0
  0
LINE
  5
16A
330
1F
100
AcDbEntity
  8
0
  6
Continuous
 62
     7
370
    25
100
AcDbLine
 10
223.0668787359
 20
210.1636234259
 30
0.0
 11
223.0668787359
 21
210.0036234259
 31
0.0
  0
LINE
  5
16B
330
1F
100
AcDbEntity
  8
0
  6
Continuous
 62
     7
370
    25
100
AcDbLine
 10
223.0668787359
 20
210.0036234259
 30
0.0
 11
223.4068787359
 21
210.0036234259
 31
0.0
  0
LINE
  5
16C
330
1F
100
AcDbEntity
  8
0
  6
Continuous
 62
     7
370
    25
100
AcDbLine
 10
223.7254819051
 20
210.3422265952
 30
0.0
 11
223.7268787359
 21
210.3436234259
 31
0.0
  0
LINE
  5
16D
330
1F
100
AcDbEntity
  8
0
  6
Continuous
 62
     7
370
    25
100
AcDbLine
 10
223.7254819051
 20
210.3422265952
 30
0.0
 11
223.7254819051
 21
210.6822265952
 31
0.0
  0
LINE
  5
16E
330
1F
100
AcDbEntity
  8
0
  6
Continuous
 62
     7
370
    25
100
AcDbLine
 10
223.7254819051
 20
210.6822265952
 30
0.0
 11
223.7268787359
 21
210.6836234259
 31
0.0
  0
LINE
  5
16F
330
1F
100
AcDbEntity
  8
0
  6
Continuous
 62
     7
370
    25
100
AcDbLine
 10
223.7268787359
 20
210.3436234259
 30
0.0
 11
223.7268787359
 21
210.6836234259
 31
0.0
  0
LINE
  5
170
330
1F
100
AcDbEntity
  8
0
  6
Continuous
 62
     7
370
    25
100
AcDbLine
 10
223.7254819051
 20
210.6822265952
 30
0.0
 11
223.5682755667
 21
210.6822265952
 31
0.0
  0
LINE
  5
171
330
1F
100
AcDbEntity
  8
0
  6
Continuous
 62
     7
370
    25
100
AcDbLine
 10
223.5682755667
 20
210.6822265952
 30
0.0
 11
223.5668787359
 21
210.6836234259
 31
0.0
  0
LINE
  5
172
330
1F
100
AcDbEntity
  8
0
  6
Continuous
 62
     7
370
    25
100
AcDbLine
 10
223.7268787359
 20
210.6836234259
 30
0.0
 11
223.5668787359
 21
210.6836234259
 31
0.0
  0
LINE
  5
173
330
1F
100
AcDbEntity
  8
0
  6
Continuous
 62
     7
370
    25
100
AcDbLine
 10
224.0654819051
 20
210.3422265952
 30
0.0
 11
224.0668787359
 21
210.3436234259
 31
0.0
  0
LINE
  5
174
330
1F
100
AcDbEntity
  8
0
  6
Continuous
 62
     7
370
    25
100
AcDbLine
 10
224.0654819051
 20
210.3422265952
 30
0.0
 11
223.7254819051
 21
210.3422265952
 31
0.0
  0
LINE
  5
175
330
1F
100
AcDbEntity
  8
0
  6
Continuous
 62
     7
370
    25
100
AcDbLine
 10
224.0668787359
 20
210.3436234259
 30
0.0
 11
223.7268787359
 21
210.3436234259
 31
0.0
  0
LINE
  5
176
330
1F
100
AcDbEntity
  8
0
  6
Continuous
 62
     7
370
    25
100
AcDbLine
 10
223.5682755667
 20
210.1850202567
 30
0.0
 11
223.5668787359
 21
210.1836234259
 31
0.0
  0
LINE
  5
177
330
1F
100
AcDbEntity
  8
0
  6
Continuous
 62
     7
370
    25
100
AcDbLine
 10
223.5682755667
 20
210.1850202567
 30
0.0
 11
224.0654819051
 21
210.1850202567
 31
0.0
  0
LINE
  5
178
330
1F
100
AcDbEntity
  8
0
  6
Continuous
 62
     7
370
    25
100
AcDbLine
 10
224.0654819051
 20
210.1850202567
 30
0.0
 11
224.0668787359
 21
210.1836234259
 31
0.0
  0
LINE
  5
179
330
1F
100
AcDbEntity
  8
0
  6
Continuous
 62
     7
370
    25
100
AcDbLine
 10
223.5668787359
 20
210.1836234259
 30
0.0
 11
224.0668787359
 21
210.1836234259
 31
0.0
  0
LINE
  5
17A
330
1F
100
AcDbEntity
  8
0
  6
Continuous
 62
     7
370
    25
100
AcDbLine
 10
223.5654819051
 20
210.1622265952
 30
0.0
 11
223.5668787359
 21
210.1636234259
 31
0.0
  0
LINE
  5
17B
330
1F
100
AcDbEntity
  8
0
  6
Continuous
 62
     7
370
    25
100
AcDbLine
 10
223.5668787359
 20
209.6636234259
 30
0.0
 11
223.5668787359
 21
210.1636234259
 31
0.0
  0
LINE
  5
17C
330
1F
100
AcDbEntity
  8
0
  6
Continuous
 62
     7
370
    25
100
AcDbLine
 10
223.5682755667
 20
210.6822265952
 30
0.0
 11
223.5682755667
 21
210.1850202567
 31
0.0
  0
LINE
  5
17D
330
1F
100
AcDbEntity
  8
0
  6
Continuous
 62
     7
370
    25
100
AcDbLine
 10
223.5668787359
 20
210.6836234259
 30
0.0
 11
223.5668787359
 21
210.1836234259
 31
0.0
  0
LINE
  5
17E
330
1F
100
AcDbEntity
  8
0
  6
Continuous
 62
     7
370
    25
100
AcDbLine
 10
224.0654819051
 20
210.1850202567
 30
0.0
 11
224.0654819051
 21
210.3422265952
 31
0.0
  0
LINE
  5
17F
330
1F
100
AcDbEntity
  8
0
  6
Continuous
 62
     7
370
    25
100
AcDbLine
 10
224.0668787359
 20
210.1836234259
 30
0.0
 11
224.0668787359
 21
210.3436234259
 31
0.0
  0
LINE
  5
180
330
1F
100
AcDbEntity
  8
0
  6
Continuous
 62
     7
370
    25
100
AcDbLine
 10
223.5668787359
 20
210.1636234259
 30
0.0
 11
223.0668787359
 21
210.1636234259
 31
0.0
  0
ARC
  5
181
330
1F
100
AcDbEntity
  8
0
  6
Continuous
 62
     7
370
    25
100
AcDbCircle
 10
194.3640066759
 20
210.4202902339
 30
0.0
 40
0.2464591595069123
100
AcDbArc
 50
90.0
 51
180.0
  0
LINE
  5
182
330
1F
100
AcDbEntity
  8
0
  6
Continuous
 62
     7
370
    25
100
AcDbLine
 10
221.7080729376
 20
210.6667493934
 30
0.0
 11
194.3640066759
 21
210.6667493934
 31
0.0
  0
ARC
  5
183
330
1F
100
AcDbEntity
  8
0
  6
Continuous
 62
     7
370
    25
100
AcDbCircle
 10
194.3640066759
 20
184.5138212014
 30
0.0
 40
0.2464591595069408
100
AcDbArc
 50
180.0
 51
270.0
  0
LINE
  5
184
330
1F
100
AcDbEntity
  8
0
  6
Continuous
 62
     7
370
    25
100
AcDbLine
 10
223.9759595971
 20
195.7583281852
 30
0.0
 11
223.9759595971
 21
184.5138212014
 31
0.0
  0
ARC
  5
185
330
1F
100
AcDbEntity
  8
0
  6
Continuous
 62
     7
370
    25
100
AcDbCircle
 10
223.7295004376
 20
184.5138212014
 30
0.0
 40
0.2464591595069123
100
AcDbArc
 50
270.0
 51
0.0
  0
LINE
  5
186
330
1F
100
AcDbEntity
  8
0
  6
Continuous
 62
     7
370
    25
100
AcDbLine
 10
223.9759595971
 20
199.1757832501
 30
0.0
 11
223.9759595971
 21
208.398862734
 31
0.0
  0
LINE
  5
187
330
1F
100
AcDbEntity
  8
0
  6
Continuous
 62
     7
370
    25
100
AcDbLine
 10
194.1175475164
 20
210.4202902339
 30
0.0
 11
194.1175475164
 21
199.1757832501
 31
0.0
  0
LINE
  5
188
330
1F
100
AcDbEntity
  8
0
  6
Continuous
 62
     7
370
    25
100
AcDbLine
 10
194.1175475164
 20
184.5138212014
 30
0.0
 11
194.1175475164
 21
195.7583281852
 31
0.0
  0
LINE
  5
189
330
1F
100
AcDbEntity
  8
0
  6
Continuous
 62
     7
370
    25
100
AcDbLine
 10
224.8169083481
 20
190.0274898581
 30
0.0
 11
224.4732908064
 21
190.0274898581
 31
0.0
  0
LINE
  5
18A
330
1F
100
AcDbEntity
  8
0
  6
Continuous
 62
     7
370
    25
100
AcDbLine
 10
224.4732908064
 20
186.9066215771
 30
0.0
 11
224.8169083481
 21
186.9066215771
 31
0.0
  0
ELLIPSE
  5
18B
330
1F
100
AcDbEntity
  8
0
  6
Continuous
 62
     7
370
    25
100
AcDbEllipse
 10
224.8168482587
 20
186.8565910999
 30
0.0
 11
-0.0353984272299499
 21
-0.03539842722997832
 31
0.0
210
0.0
220
0.0
230
1.0
 40
0.998782766
 41
2.356803477777387
 42
3.926398746811279
  0
LINE
  5
18C
330
1F
100
AcDbEntity
  8
0
  6
Continuous
 62
     7
370
    25
100
AcDbLine
 10
194.2631363007
 20
183.4504880094
 30
0.0
 11
223.8303708128
 21
183.4504880094
 31
0.0
  0
ELLIPSE
  5
18D
330
1F
100
AcDbEntity
  8
0
  6
Continuous
 62
     7
370
    25
100
AcDbEllipse
 10
193.2766588548
 20
186.8565910999
 30
0.0
 11
0.03539842722997832
 21
-0.03539842722997832
 31
0.0
210
0.0
220
0.0
230
1.0
 40
0.998782766
 41
2.356786560521103
 42
3.926381829402581
  0
LINE
  5
18E
330
1F
100
AcDbEntity
  8
0
  6
Continuous
 62
     7
370
    25
100
AcDbLine
 10
193.6701858485
 20
189.9775203168
 30
0.0
 11
193.6701858485
 21
186.9565911185
 31
0.0
  0
ELLIPSE
  5
18F
330
1F
100
AcDbEntity
  8
0
  6
Continuous
 62
     7
370
    25
100
AcDbEllipse
 10
193.2766588548
 20
190.0775203354
 30
0.0
 11
0.03539842722997832
 21
0.03539842722997832
 31
0.0
210
0.0
220
0.0
230
1.0
 40
0.998782766
 41
2.356803477777588
 42
3.926398746828356
  0
ELLIPSE
  5
190
330
1F
100
AcDbEntity
  8
0
  6
Continuous
 62
     7
370
    25
100
AcDbEllipse
 10
193.2766588548
 20
204.8565910999
 30
0.0
 11
0.03539842722997832
 21
-0.0353984272299499
 31
0.0
210
0.0
220
0.0
230
1.0
 40
0.998782766
 41
2.356786559703991
 42
3.92638182940141
  0
LINE
  5
191
330
1F
100
AcDbEntity
  8
0
  6
Continuous
 62
     7
370
    25
100
AcDbLine
 10
193.2765987654
 20
204.9066215771
 30
0.0
 11
193.6202163071
 21
204.9066215771
 31
0.0
  0
LINE
  5
192
330
1F
100
AcDbEntity
  8
0
  6
Continuous
 62
     7
370
    25
100
AcDbLine
 10
193.6701858485
 20
207.9775203168
 30
0.0
 11
193.6701858485
 21
204.9565911185
 31
0.0
  0
LINE
  5
193
330
1F
100
AcDbEntity
  8
0
  6
Continuous
 62
     7
370
    25
100
AcDbLine
 10
193.6202163071
 20
208.0274898581
 30
0.0
 11
193.2765987653
 21
208.0274898581
 31
0.0
  0
ELLIPSE
  5
194
330
1F
100
AcDbEntity
  8
0
  6
Continuous
 62
     7
370
    25
100
AcDbEllipse
 10
193.2766588548
 20
208.0775203354
 30
0.0
 11
0.03539842722997832
 21
0.03539842722997832
 31
0.0
210
0.0
220
0.0
230
1.0
 40
0.998782766
 41
2.356803477777588
 42
3.92639874628924
  0
ELLIPSE
  5
195
330
1F
100
AcDbEntity
  8
0
  6
Continuous
 62
     7
370
    25
100
AcDbEllipse
 10
224.8168482587
 20
208.0775203354
 30
0.0
 11
-0.0353984272299499
 21
0.03539842722997832
 31
0.0
210
0.0
220
0.0
230
1.0
 40
0.998782766
 41
2.356786560556559
 42
3.926381829402012
  0
LINE
  5
196
330
1F
100
AcDbEntity
  8
0
  6
Continuous
 62
     7
370
    25
100
AcDbLine
 10
224.8169083481
 20
208.0274898581
 30
0.0
 11
224.4732908064
 21
208.0274898581
 31
0.0
  0
ELLIPSE
  5
197
330
1F
100
AcDbEntity
  8
0
  6
Continuous
 62
     7
370
    25
100
AcDbEllipse
 10
224.4733517423
 20
207.9774593809
 30
0.0
 11
-0.03539842722997832
 21
0.0353984272299499
 31
0.0
210
0.0
220
0.0
230
1.0
 40
0.998782766
 41
5.498396131367762
 42
7.067974482991191
  0
LINE
  5
198
330
1F
100
AcDbEntity
  8
0
  6
Continuous
 62
     7
370
    25
100
AcDbLine
 10
224.423321265
 20
204.9565911185
 30
0.0
 11
224.423321265
 21
207.9775203168
 31
0.0
  0
ELLIPSE
  5
199
330
1F
100
AcDbEntity
  8
0
  6
Continuous
 62
     7
370
    25
100
AcDbEllipse
 10
224.4733517423
 20
204.9566520544
 30
0.0
 11
0.0353984272299499
 21
0.0353984272299499
 31
0.0
210
0.0
220
0.0
230
1.0
 40
0.998782766
 41
2.356803477777988
 42
3.926381829401043
  0
ELLIPSE
  5
19A
330
1F
100
AcDbEntity
  8
0
  6
Continuous
 62
     7
370
    25
100
AcDbEllipse
 10
224.8168482587
 20
190.0775203354
 30
0.0
 11
-0.03539842722992148
 21
0.0353984272299499
 31
0.0
210
0.0
220
0.0
230
1.0
 40
0.998782766
 41
2.35678656001878
 42
3.926381829401244
  0
LINE
  5
19B
330
1F
100
AcDbEntity
  8
0
  6
Continuous
 62
     7
370
    25
100
AcDbLine
 10
223.7295004376
 20
184.2673620419
 30
0.0
 11
194.3640066759
 21
184.2673620419
 31
0.0
  0
ELLIPSE
  5
19C
330
1F
100
AcDbEntity
  8
0
  6
Continuous
 62
     7
370
    25
100
AcDbEllipse
 10
223.7758376882
 20
208.3987617721
 30
0.0
 11
0.1849078528062194
 21
0.0765913404216292
 31
0.0
210
0.0
220
0.0
230
1.0
 40
0.9992864213
 41
5.890738540009103
 42
6.67563207434995
  0
LINE
  5
19D
330
1F
100
AcDbEntity
  8
0
  6
Continuous
 62
     7
370
    25
100
AcDbLine
 10
221.8494081438
 20
210.6082064342
 30
0.0
 11
223.9174166378
 21
208.5401979401
 31
0.0
  0
ELLIPSE
  5
19E
330
1F
100
AcDbEntity
  8
0
  6
Continuous
 62
     7
370
    25
100
AcDbEllipse
 10
221.7079719758
 20
210.4666274845
 30
0.0
 11
-0.0765913404216292
 21
-0.1849078528062194
 31
0.0
210
0.0
220
0.0
230
1.0
 40
0.9992864213
 41
2.749145886419329
 42
3.534039420760303
  0
LINE
  5
19F
330
1F
100
AcDbEntity
  8
0
  6
Continuous
 62
     7
370
    25
100
AcDbLine
 10
224.8668787359
 20
190.0774593995
 30
0.0
 11
224.8668787359
 21
204.8566520358
 31
0.0
  0
ELLIPSE
  5
1A0
330
1F
100
AcDbEntity
  8
0
  6
Continuous
 62
     7
370
    25
100
AcDbEllipse
 10
224.8168482587
 20
204.8565910999
 30
0.0
 11
-0.0353984272299499
 21
-0.03539842722992148
 31
0.0
210
0.0
220
0.0
230
1.0
 40
0.998782766
 41
2.35680347777916
 42
3.926398746531047
  0
LINE
  5
1A1
330
1F
100
AcDbEntity
  8
0
  6
Continuous
 62
     7
370
    25
100
AcDbLine
 10
224.4732908064
 20
204.9066215771
 30
0.0
 11
224.8169083482
 21
204.9066215771
 31
0.0
  0
ELLIPSE
  5
1A2
330
1F
100
AcDbEntity
  8
0
  6
Continuous
 62
     7
370
    25
100
AcDbEllipse
 10
224.4733517423
 20
186.9566520544
 30
0.0
 11
0.0353984272299499
 21
0.03539842722997832
 31
0.0
210
0.0
220
0.0
230
1.0
 40
0.998782766
 41
2.356803477776818
 42
3.926381829400842
  0
ELLIPSE
  5
1A3
330
1F
100
AcDbEntity
  8
0
  6
Continuous
 62
     7
370
    25
100
AcDbEllipse
 10
224.4733517423
 20
189.9774593809
 30
0.0
 11
-0.03539842722997832
 21
0.03539842722997832
 31
0.0
210
0.0
220
0.0
230
1.0
 40
0.998782766
 41
5.498396131368531
 42
7.067974482992361
  0
LINE
  5
1A4
330
1F
100
AcDbEntity
  8
0
  6
Continuous
 62
     7
370
    25
100
AcDbLine
 10
193.2266283776
 20
204.8566520358
 30
0.0
 11
193.2266283776
 21
190.0774593995
 31
0.0
  0
ELLIPSE
  5
1A5
330
1F
100
AcDbEntity
  8
0
  6
Continuous
 62
     7
370
    25
100
AcDbEllipse
 10
193.6201553712
 20
186.9566520544
 30
0.0
 11
0.03539842722997832
 21
-0.0353984272299499
 31
0.0
210
0.0
220
0.0
230
1.0
 40
0.998782766
 41
5.498396131367761
 42
7.067974482991189
  0
LINE
  5
1A6
330
1F
100
AcDbEntity
  8
0
  6
Continuous
 62
     7
370
    25
100
AcDbLine
 10
224.423321265
 20
186.9565911185
 30
0.0
 11
224.423321265
 21
189.9775203168
 31
0.0
  0
ELLIPSE
  5
1A7
330
1F
100
AcDbEntity
  8
0
  6
Continuous
 62
     7
370
    25
100
AcDbEllipse
 10
193.6201553712
 20
204.9566520544
 30
0.0
 11
-0.0353984272299499
 21
0.0353984272299499
 31
0.0
210
0.0
220
0.0
230
1.0
 40
0.998782766
 41
2.35680347777819
 42
3.926381829400841
  0
LINE
  5
1A8
330
1F
100
AcDbEntity
  8
0
  6
Continuous
 62
     7
370
    25
100
AcDbLine
 10
193.2765987653
 20
186.9066215771
 30
0.0
 11
193.6202163071
 21
186.9066215771
 31
0.0
  0
ARC
  5
1A9
330
1F
100
AcDbEntity
  8
0
  6
Continuous
 62
     7
370
    25
100
AcDbCircle
 10
223.8303708128
 20
184.4869959324
 30
0.0
 40
1.036507923050863
100
AcDbArc
 50
270.0
 51
0.0
  0
ARC
  5
1AA
330
1F
100
AcDbEntity
  8
0
  6
Continuous
 62
     7
370
    25
100
AcDbCircle
 10
194.2631363007
 20
184.4869959324
 30
0.0
 40
1.036507923050863
100
AcDbArc
 50
180.0
 51
270.0
  0
LINE
  5
1AB
330
1F
100
AcDbEntity
  8
0
  6
Continuous
 62
     7
370
    25
100
AcDbLine
 10
193.2266283776
 20
210.4471155029
 30
0.0
 11
193.2266283776
 21
208.0774593995
 31
0.0
  0
LINE
  5
1AC
330
1F
100
AcDbEntity
  8
0
  6
Continuous
 62
     7
370
    25
100
AcDbLine
 10
224.8668787359
 20
184.4869959324
 30
0.0
 11
224.8668787359
 21
186.8566520358
 31
0.0
  0
ARC
  5
1AD
330
1F
100
AcDbEntity
  8
0
  6
Continuous
 62
     7
370
    25
100
AcDbCircle
 10
194.2631363007
 20
210.4471155029
 30
0.0
 40
1.036507923050863
100
AcDbArc
 50
90.0
 51
180.0
  0
ARC
  5
1AE
330
1F
100
AcDbEntity
  8
0
  6
Continuous
 62
     7
370
    25
100
AcDbCircle
 10
223.8303708128
 20
210.4471155029
 30
0.0
 40
1.036507923050806
100
AcDbArc
 50
0.0
 51
90.0
  0
LINE
  5
1AF
330
1F
100
AcDbEntity
  8
0
  6
Continuous
 62
     7
370
    25
100
AcDbLine
 10
223.8303708128
 20
211.4836234259
 30
0.0
 11
194.2631363007
 21
211.4836234259
 31
0.0
  0
ELLIPSE
  5
1B0
330
1F
100
AcDbEntity
  8
0
  6
Continuous
 62
     7
370
    25
100
AcDbEllipse
 10
193.6201553712
 20
207.9774593809
 30
0.0
 11
-0.03539842722997832
 21
-0.03539842722992147
 31
0.0
210
0.0
220
0.0
230
1.0
 40
0.998782766
 41
2.356803477779561
 42
3.926381829402214
  0
LINE
  5
1B1
330
1F
100
AcDbEntity
  8
0
  6
Continuous
 62
     7
370
    25
100
AcDbLine
 10
193.2266283776
 20
186.8566520358
 30
0.0
 11
193.2266283776
 21
184.4869959324
 31
0.0
  0
LINE
  5
1B2
330
1F
100
AcDbEntity
  8
0
  6
Continuous
 62
     7
370
    25
100
AcDbLine
 10
224.8668787359
 20
208.0774593995
 30
0.0
 11
224.8668787359
 21
210.4471155029
 31
0.0
  0
LINE
  5
1B3
330
1F
100
AcDbEntity
  8
0
  6
Continuous
 62
     7
370
    25
100
AcDbLine
 10
193.6202163071
 20
190.0274898581
 30
0.0
 11
193.2765987654
 21
190.0274898581
 31
0.0
  0
ELLIPSE
  5
1B4
330
1F
100
AcDbEntity
  8
0
  6
Continuous
 62
     7
370
    25
100
AcDbEllipse
 10
193.6201553712
 20
189.9774593809
 30
0.0
 11
-0.03539842722997832
 21
-0.03539842722997832
 31
0.0
210
0.0
220
0.0
230
1.0
 40
0.998782766
 41
2.356803477777588
 42
3.926381829402012
  0
CIRCLE
  5
1B5
330
1F
100
AcDbEntity
  8
0
  6
Continuous
 62
     7
370
    25
100
AcDbCircle
 10
195.0467535567
 20
197.4670557176
 30
0.0
 40
0.4499999999999886
  0
CIRCLE
  5
1B6
330
1F
100
AcDbEntity
  8
0
  6
Continuous
 62
     7
370
    25
100
AcDbCircle
 10
223.0467535567
 20
197.4670557176
 30
0.0
 40
0.4500000000000171
  0
CIRCLE
  5
1B7
330
1F
100
AcDbEntity
  8
0
  6
Continuous
 62
     7
370
    25
100
AcDbCircle
 10
218.0467535567
 20
131.5601911342
 30
0.0
 40
1.600000000000026
  0
LINE
  5
1B8
330
1F
100
AcDbEntity
  8
0
  6
Continuous
 62
     7
370
    25
100
AcDbLine
 10
217.9184715985
 20
132.3582369177
 30
0.0
 11
217.2914846557
 21
131.8481185913
 31
0.0
  0
LINE
  5
1B9
330
1F
100
AcDbEntity
  8
0
  6
Continuous
 62
     7
370
    25
100
AcDbLine
 10
217.2914846557
 20
131.8481185913
 30
0.0
 11
217.419766614
 21
131.0500728078
 31
0.0
  0
LINE
  5
1BA
330
1F
100
AcDbEntity
  8
0
  6
Continuous
 62
     7
370
    25
100
AcDbLine
 10
217.419766614
 20
131.0500728078
 30
0.0
 11
218.175035515
 21
130.7621453507
 31
0.0
  0
LINE
  5
1BB
330
1F
100
AcDbEntity
  8
0
  6
Continuous
 62
     7
370
    25
100
AcDbLine
 10
218.175035515
 20
130.7621453507
 30
0.0
 11
218.8020224577
 21
131.2722636772
 31
0.0
  0
LINE
  5
1BC
330
1F
100
AcDbEntity
  8
0
  6
Continuous
 62
     7
370
    25
100
AcDbLine
 10
218.8020224577
 20
131.2722636772
 30
0.0
 11
218.6737404995
 21
132.0703094607
 31
0.0
  0
LINE
  5
1BD
330
1F
100
AcDbEntity
  8
0
  6
Continuous
 62
     7
370
    25
100
AcDbLine
 10
218.6737404995
 20
132.0703094607
 30
0.0
 11
217.9184715985
 21
132.3582369177
 31
0.0
  0
LINE
  5
1BE
330
1F
100
AcDbEntity
  8
0
  6
Continuous
 62
     7
370
    25
100
AcDbLine
 10
199.2914846557
 20
131.8481185913
 30
0.0
 11
199.419766614
 21
131.0500728078
 31
0.0
  0
LINE
  5
1BF
330
1F
100
AcDbEntity
  8
0
  6
Continuous
 62
     7
370
    25
100
AcDbLine
 10
199.419766614
 20
131.0500728078
 30
0.0
 11
200.175035515
 21
130.7621453507
 31
0.0
  0
LINE
  5
1C0
330
1F
100
AcDbEntity
  8
0
  6
Continuous
 62
     7
370
    25
100
AcDbLine
 10
200.175035515
 20
130.7621453507
 30
0.0
 11
200.8020224577
 21
131.2722636772
 31
0.0
  0
LINE
  5
1C1
330
1F
100
AcDbEntity
  8
0
  6
Continuous
 62
     7
370
    25
100
AcDbLine
 10
200.8020224577
 20
131.2722636772
 30
0.0
 11
200.6737404995
 21
132.0703094607
 31
0.0
  0
CIRCLE
  5
1C2
330
1F
100
AcDbEntity
  8
0
  6
Continuous
 62
     7
370
    25
100
AcDbCircle
 10
200.0467535567
 20
131.5601911342
 30
0.0
 40
1.600000000000026
  0
LINE
  5
1C3
330
1F
100
AcDbEntity
  8
0
  6
Continuous
 62
     7
370
    25
100
AcDbLine
 10
199.9184715985
 20
132.3582369177
 30
0.0
 11
199.2914846557
 21
131.8481185913
 31
0.0
  0
LINE
  5
1C4
330
1F
100
AcDbEntity
  8
0
  6
Continuous
 62
     7
370
    25
100
AcDbLine
 10
200.6737404995
 20
132.0703094607
 30
0.0
 11
199.9184715985
 21
132.3582369177
 31
0.0
  0
LINE
  5
1C5
330
1F
100
AcDbEntity
  8
0
  6
Continuous
 62
     7
370
    25
100
AcDbLine
 10
190.6467535567
 20
242.9601911342
 30
0.0
 11
190.2467535567
 21
242.9601911342
 31
0.0
  0
LINE
  5
1C6
330
1F
100
AcDbEntity
  8
0
  6
Continuous
 62
     7
370
    25
100
AcDbLine
 10
190.2467535567
 20
242.9601911342
 30
0.0
 11
190.2467535567
 21
243.5601911342
 31
0.0
  0
LINE
  5
1C7
330
1F
100
AcDbEntity
  8
0
  6
Continuous
 62
     7
370
    25
100
AcDbLine
 10
190.2467535567
 20
243.5601911342
 30
0.0
 11
190.6467535567
 21
243.5601911342
 31
0.0
  0
LINE
  5
1C8
330
1F
100
AcDbEntity
  8
0
  6
Continuous
 62
     7
370
    25
100
AcDbLine
 10
190.6467535567
 20
242.9601911342
 30
0.0
 11
227.4467535567
 21
242.9601911342
 31
0.0
  0
LINE
  5
1C9
330
1F
100
AcDbEntity
  8
0
  6
Continuous
 62
     7
370
    25
100
AcDbLine
 10
190.6467535567
 20
243.5601911342
 30
0.0
 11
227.4467535567
 21
243.5601911342
 31
0.0
  0
LINE
  5
1CA
330
1F
100
AcDbEntity
  8
0
  6
Continuous
 62
     7
370
    25
100
AcDbLine
 10
227.8467535567
 20
243.5601911342
 30
0.0
 11
227.8467535567
 21
242.9601911342
 31
0.0
  0
LINE
  5
1CB
330
1F
100
AcDbEntity
  8
0
  6
Continuous
 62
     7
370
    25
100
AcDbLine
 10
227.8467535567
 20
242.9601911342
 30
0.0
 11
227.4467535567
 21
242.9601911342
 31
0.0
  0
LINE
  5
1CC
330
1F
100
AcDbEntity
  8
0
  6
Continuous
 62
     7
370
    25
100
AcDbLine
 10
227.4467535567
 20
243.5601911342
 30
0.0
 11
227.8467535567
 21
243.5601911342
 31
0.0
  0
LINE
  5
1CD
330
1F
100
AcDbEntity
  8
0
  6
Continuous
 62
     7
370
    25
100
AcDbLine
 10
227.9745847731
 20
67.1452969303
 30
0.0
 11
227.6467535567
 21
67.1452969303
 31
0.0
  0
LINE
  5
1CE
330
1F
100
AcDbEntity
  8
0
  6
Continuous
 62
     7
370
    25
100
AcDbLine
 10
226.4467535567
 20
67.1452969303
 30
0.0
 11
225.0967535567
 21
67.1452969303
 31
0.0
  0
LINE
  5
1CF
330
1F
100
AcDbEntity
  8
0
  6
Continuous
 62
     7
370
    25
100
AcDbLine
 10
225.0967535567
 20
66.1452969303
 30
0.0
 11
226.4467535567
 21
66.1452969303
 31
0.0
  0
LINE
  5
1D0
330
1F
100
AcDbEntity
  8
0
  6
Continuous
 62
     7
370
    25
100
AcDbLine
 10
227.6467535567
 20
66.1452969303
 30
0.0
 11
227.9745847731
 21
66.1452969303
 31
0.0
  0
LINE
  5
1D1
330
1F
100
AcDbEntity
  8
0
  6
Continuous
 62
     7
370
    25
100
AcDbLine
 10
225.0967535567
 20
67.1452969303
 30
0.0
 11
224.8467535567
 21
66.8952969303
 31
0.0
  0
LINE
  5
1D2
330
1F
100
AcDbEntity
  8
0
  6
Continuous
 62
     7
370
    25
100
AcDbLine
 10
224.8467535567
 20
66.3952969303
 30
0.0
 11
225.0967535567
 21
66.1452969303
 31
0.0
  0
LINE
  5
1D3
330
1F
100
AcDbEntity
  8
0
  6
Continuous
 62
     7
370
    25
100
AcDbLine
 10
227.9745847731
 20
66.1452969303
 30
0.0
 11
228.0467535567
 21
66.2702969303
 31
0.0
  0
LINE
  5
1D4
330
1F
100
AcDbEntity
  8
0
  6
Continuous
 62
     7
370
    25
100
AcDbLine
 10
228.0467535567
 20
67.0202969303
 30
0.0
 11
227.9745847731
 21
67.1452969303
 31
0.0
  0
LINE
  5
1D5
330
1F
100
AcDbEntity
  8
0
  6
Continuous
 62
     7
370
    25
100
AcDbLine
 10
190.1189223404
 20
67.1452969303
 30
0.0
 11
190.0467535567
 21
67.0202969303
 31
0.0
  0
LINE
  5
1D6
330
1F
100
AcDbEntity
  8
0
  6
Continuous
 62
     7
370
    25
100
AcDbLine
 10
190.0467535567
 20
66.2702969303
 30
0.0
 11
190.1189223404
 21
66.1452969303
 31
0.0
  0
LINE
  5
1D7
330
1F
100
AcDbEntity
  8
0
  6
Continuous
 62
     7
370
    25
100
AcDbLine
 10
190.1189223404
 20
66.1452969303
 30
0.0
 11
190.4467535567
 21
66.1452969303
 31
0.0
  0
LINE
  5
1D8
330
1F
100
AcDbEntity
  8
0
  6
Continuous
 62
     7
370
    25
100
AcDbLine
 10
191.6467535567
 20
66.1452969303
 30
0.0
 11
192.9967535567
 21
66.1452969303
 31
0.0
  0
LINE
  5
1D9
330
1F
100
AcDbEntity
  8
0
  6
Continuous
 62
     7
370
    25
100
AcDbLine
 10
192.9967535567
 20
67.1452969303
 30
0.0
 11
191.6467535567
 21
67.1452969303
 31
0.0
  0
LINE
  5
1DA
330
1F
100
AcDbEntity
  8
0
  6
Continuous
 62
     7
370
    25
100
AcDbLine
 10
190.4467535567
 20
67.1452969303
 30
0.0
 11
190.1189223404
 21
67.1452969303
 31
0.0
  0
LINE
  5
1DB
330
1F
100
AcDbEntity
  8
0
  6
Continuous
 62
     7
370
    25
100
AcDbLine
 10
192.9967535567
 20
66.1452969303
 30
0.0
 11
193.2467535567
 21
66.3952969303
 31
0.0
  0
LINE
  5
1DC
330
1F
100
AcDbEntity
  8
0
  6
Continuous
 62
     7
370
    25
100
AcDbLine
 10
193.2467535567
 20
66.8952969303
 30
0.0
 11
192.9967535567
 21
67.1452969303
 31
0.0
  0
LINE
  5
1DD
330
1F
100
AcDbEntity
  8
0
  6
Continuous
 62
     7
370
    25
100
AcDbLine
 10
196.7554810892
 20
80.3852969303
 30
0.0
 11
196.7518986864
 21
80.5905326523
 31
0.0
  0
ARC
  5
1DE
330
1F
100
AcDbEntity
  8
0
  6
Continuous
 62
     7
370
    25
100
AcDbCircle
 10
196.4519443778
 20
80.5852969303
 30
0.0
 40
0.3000000000000114
100
AcDbArc
 50
1.0
 51
90.0
  0
LINE
  5
1DF
330
1F
100
AcDbEntity
  8
0
  6
Continuous
 62
     7
370
    25
100
AcDbLine
 10
221.3416084271
 20
80.6905326523
 30
0.0
 11
221.3362805178
 21
80.3852969303
 31
0.0
  0
ARC
  5
1E0
330
1F
100
AcDbEntity
  8
0
  6
Continuous
 62
     7
370
    25
100
AcDbCircle
 10
221.6415627357
 20
80.6852969303
 30
0.0
 40
0.3000000000000267
100
AcDbArc
 50
90.0
 51
179.0
  0
LINE
  5
1E1
330
1F
100
AcDbEntity
  8
0
  6
Continuous
 62
     7
370
    25
100
AcDbLine
 10
223.8957171834
 20
80.4259231405
 30
0.0
 11
223.9550909732
 21
80.4852969303
 31
0.0
  0
LWPOLYLINE
  5
1E2
330
1F
100
AcDbEntity
  8
0
  6
Continuous
 62
     7
370
    25
100
AcDbPolyline
 90
        3
 70
   128
 43
0.0
 10
203.2467535567
 20
74.7452969303
 10
203.2662625889
 20
74.7472184023
 10
203.2821659877
 20
74.7517770943
  0
LINE
  5
1E3
330
1F
100
AcDbEntity
  8
0
  6
Continuous
 62
     7
370
    25
100
AcDbLine
 10
214.7499729881
 20
74.438321283
 30
0.0
 11
214.7897973306
 21
75.0078359137
 31
0.0
  0
LINE
  5
1E4
330
1F
100
AcDbEntity
  8
0
  6
Continuous
 62
     7
370
    25
100
AcDbLine
 10
203.3037097829
 20
75.0078359137
 30
0.0
 11
203.3435341253
 21
74.438321283
 31
0.0
  0
ARC
  5
1E5
330
1F
100
AcDbEntity
  8
0
  6
Continuous
 62
     7
370
    25
100
AcDbCircle
 10
214.6502165831
 20
74.4452969303
 30
0.0
 40
0.0999999999999943
100
AcDbArc
 50
270.0
 51
356.0
  0
ARC
  5
1E6
330
1F
100
AcDbEntity
  8
0
  6
Continuous
 62
     7
370
    25
100
AcDbCircle
 10
203.4432905304
 20
74.4452969303
 30
0.0
 40
0.1000000000000165
100
AcDbArc
 50
184.0
 51
270.0
  0
LINE
  5
1E7
330
1F
100
AcDbEntity
  8
0
  6
Continuous
 62
     7
370
    25
100
AcDbLine
 10
214.7894221602
 20
74.438321283
 30
0.0
 11
214.830013838
 21
75.0188093196
 31
0.0
  0
LINE
  5
1E8
330
1F
100
AcDbEntity
  8
0
  6
Continuous
 62
     7
370
    25
100
AcDbLine
 10
203.2634932755
 20
75.0188093196
 30
0.0
 11
203.3040849533
 21
74.438321283
 31
0.0
  0
ARC
  5
1E9
330
1F
100
AcDbEntity
  8
0
  6
Continuous
 62
     7
370
    25
100
AcDbCircle
 10
214.6896657552
 20
74.4452969303
 30
0.0
 40
0.1000000000000165
100
AcDbArc
 50
270.0
 51
356.0
  0
ARC
  5
1EA
330
1F
100
AcDbEntity
  8
0
  6
Continuous
 62
     7
370
    25
100
AcDbCircle
 10
203.4038413583
 20
74.4452969303
 30
0.0
 40
0.0999999999999943
100
AcDbArc
 50
184.0
 51
270.0
  0
LINE
  5
1EB
330
1F
100
AcDbEntity
  8
0
  6
Continuous
 62
     7
370
    25
100
AcDbLine
 10
218.9886556561
 20
74.9431845377
 30
0.0
 11
218.9921636318
 21
75.0436398159
 31
0.0
  0
LINE
  5
1EC
330
1F
100
AcDbEntity
  8
0
  6
Continuous
 62
     7
370
    25
100
AcDbLine
 10
199.1013434817
 20
75.0436398159
 30
0.0
 11
199.1048514574
 21
74.9431845377
 31
0.0
  0
LINE
  5
1ED
330
1F
100
AcDbEntity
  8
0
  6
Continuous
 62
     7
370
    25
100
AcDbLine
 10
216.8299535567
 20
78.1452969303
 30
0.0
 11
217.0299535567
 21
77.9452969303
 31
0.0
  0
LINE
  5
1EE
330
1F
100
AcDbEntity
  8
0
  6
Continuous
 62
     7
370
    25
100
AcDbLine
 10
219.0635535567
 20
77.9452969303
 30
0.0
 11
219.2635535567
 21
78.1452969303
 31
0.0
  0
LINE
  5
1EF
330
1F
100
AcDbEntity
  8
0
  6
Continuous
 62
     7
370
    25
100
AcDbLine
 10
217.2467535567
 20
77.3452969303
 30
0.0
 11
217.2467535567
 21
77.0452969303
 31
0.0
  0
LINE
  5
1F0
330
1F
100
AcDbEntity
  8
0
  6
Continuous
 62
     7
370
    25
100
AcDbLine
 10
218.8467535567
 20
74.9198935996
 30
0.0
 11
218.8467535567
 21
75.0227933691
 31
0.0
  0
LINE
  5
1F1
330
1F
100
AcDbEntity
  8
0
  6
Continuous
 62
     7
370
    25
100
AcDbLine
 10
218.8467535567
 20
77.0452969303
 30
0.0
 11
218.8467535567
 21
77.3452969303
 31
0.0
  0
LINE
  5
1F2
330
1F
100
AcDbEntity
  8
0
  6
Continuous
 62
     7
370
    25
100
AcDbLine
 10
201.2635535567
 20
55.1452969303
 30
0.0
 11
201.0635535567
 21
55.3452969303
 31
0.0
  0
LINE
  5
1F3
330
1F
100
AcDbEntity
  8
0
  6
Continuous
 62
     7
370
    25
100
AcDbLine
 10
199.0299535567
 20
55.3452969303
 30
0.0
 11
198.8299535567
 21
55.1452969303
 31
0.0
  0
LINE
  5
1F4
330
1F
100
AcDbEntity
  8
0
  6
Continuous
 62
     7
370
    25
100
AcDbLine
 10
200.8467535567
 20
55.9452969303
 30
0.0
 11
200.8467535567
 21
56.2452969303
 31
0.0
  0
LINE
  5
1F5
330
1F
100
AcDbEntity
  8
0
  6
Continuous
 62
     7
370
    25
100
AcDbLine
 10
199.2467535567
 20
58.3707002611
 30
0.0
 11
199.2467535567
 21
58.2678004916
 31
0.0
  0
LINE
  5
1F6
330
1F
100
AcDbEntity
  8
0
  6
Continuous
 62
     7
370
    25
100
AcDbLine
 10
199.2467535567
 20
56.2452969303
 30
0.0
 11
199.2467535567
 21
55.9452969303
 31
0.0
  0
LINE
  5
1F7
330
1F
100
AcDbEntity
  8
0
  6
Continuous
 62
     7
370
    25
100
AcDbLine
 10
198.8299535567
 20
78.1452969303
 30
0.0
 11
199.0299535567
 21
77.9452969303
 31
0.0
  0
LINE
  5
1F8
330
1F
100
AcDbEntity
  8
0
  6
Continuous
 62
     7
370
    25
100
AcDbLine
 10
201.0635535567
 20
77.9452969303
 30
0.0
 11
201.2635535567
 21
78.1452969303
 31
0.0
  0
LINE
  5
1F9
330
1F
100
AcDbEntity
  8
0
  6
Continuous
 62
     7
370
    25
100
AcDbLine
 10
199.2467535567
 20
77.3452969303
 30
0.0
 11
199.2467535567
 21
77.0452969303
 31
0.0
  0
LINE
  5
1FA
330
1F
100
AcDbEntity
  8
0
  6
Continuous
 62
     7
370
    25
100
AcDbLine
 10
199.2467535567
 20
75.0227933691
 30
0.0
 11
199.2467535567
 21
74.9198935996
 31
0.0
  0
LINE
  5
1FB
330
1F
100
AcDbEntity
  8
0
  6
Continuous
 62
     7
370
    25
100
AcDbLine
 10
200.8467535567
 20
77.0452969303
 30
0.0
 11
200.8467535567
 21
77.3452969303
 31
0.0
  0
LINE
  5
1FC
330
1F
100
AcDbEntity
  8
0
  6
Continuous
 62
     7
370
    25
100
AcDbLine
 10
219.2635535567
 20
55.1452969303
 30
0.0
 11
219.0635535567
 21
55.3452969303
 31
0.0
  0
LINE
  5
1FD
330
1F
100
AcDbEntity
  8
0
  6
Continuous
 62
     7
370
    25
100
AcDbLine
 10
217.0299535567
 20
55.3452969303
 30
0.0
 11
216.8299535567
 21
55.1452969303
 31
0.0
  0
LINE
  5
1FE
330
1F
100
AcDbEntity
  8
0
  6
Continuous
 62
     7
370
    25
100
AcDbLine
 10
218.8467535567
 20
55.9452969303
 30
0.0
 11
218.8467535567
 21
56.2452969303
 31
0.0
  0
LINE
  5
1FF
330
1F
100
AcDbEntity
  8
0
  6
Continuous
 62
     7
370
    25
100
AcDbLine
 10
218.8467535567
 20
58.2678004916
 30
0.0
 11
218.8467535567
 21
58.3707002611
 31
0.0
  0
LINE
  5
200
330
1F
100
AcDbEntity
  8
0
  6
Continuous
 62
     7
370
    25
100
AcDbLine
 10
217.2467535567
 20
56.2452969303
 30
0.0
 11
217.2467535567
 21
55.9452969303
 31
0.0
  0
SPLINE
  5
201
330
1F
100
AcDbEntity
  8
0
  6
Continuous
 62
     7
370
    25
100
AcDbSpline
210
0.0
220
0.0
230
1.0
 70
     8
 71
     3
 72
    10
 73
     6
 74
     0
 42
0.00000001
 43
0.00000001
 40
0.0
 40
0.0
 40
0.0
 40
0.0
 40
0.2668662827517982
 40
0.5260683677893173
 40
0.9999999999999999
 40
0.9999999999999999
 40
0.9999999999999999
 40
0.9999999999999999
 10
208.2652435698155
 20
66.6011866699424
 30
0.0
 10
208.2608037431369
 20
66.60611968704234
 30
0.0
 10
208.2520515982424
 20
66.6158440487237
 30
0.0
 10
208.2403193364616
 20
66.63815349788665
 30
0.0
 10
208.2384419628784
 20
66.65639169093129
 30
0.0
 10
208.2372283415353
 20
66.66818170466935
 30
0.0
  0
SPLINE
  5
202
330
1F
100
AcDbEntity
  8
0
  6
Continuous
 62
     7
370
    25
100
AcDbSpline
210
0.0
220
0.0
230
1.0
 70
     8
 71
     3
 72
    10
 73
     6
 74
     0
 42
0.00000001
 43
0.00000001
 40
0.0
 40
0.0
 40
0.0
 40
0.0
 40
0.261129618984158
 40
0.5184645663115711
 40
1.0
 40
1.0
 40
1.0
 40
1.0
 10
208.2652435698155
 20
66.6011866699424
 30
0.0
 10
208.2703283789155
 20
66.59681807992597
 30
0.0
 10
208.2804241059154
 20
66.5881443831731
 30
0.0
 10
208.3037766605119
 20
66.57657552463044
 30
0.0
 10
208.3228712299689
 20
66.57508638099395
 30
0.0
 10
208.3353155125126
 20
66.5741158786633
 30
0.0
  0
SPLINE
  5
203
330
1F
100
AcDbEntity
  8
0
  6
Continuous
 62
     7
370
    25
100
AcDbSpline
210
0.0
220
0.0
230
1.0
 70
     8
 71
     3
 72
    16
 73
    12
 74
     0
 42
0.00000001
 43
0.00000001
 40
0.0
 40
0.0
 40
0.0
 40
0.0
 40
0.1300130428736948
 40
0.2577915722355384
 40
0.3777451947742456
 40
0.4858013072822941
 40
0.580588172347364
 40
0.6645200332335932
 40
0.7440692321748839
 40
0.8279182294062297
 40
1.0
 40
1.0
 40
1.0
 40
1.0
 10
210.5391347014578
 20
66.5741158735584
 30
0.0
 10
210.5458797508865
 20
66.57434700567882
 30
0.0
 10
210.5592539236512
 20
66.57480529748861
 30
0.0
 10
210.5789661867601
 20
66.58128201909716
 30
0.0
 10
210.5967492743874
 20
66.59140838573568
 30
0.0
 10
210.6114799219994
 20
66.60426057389557
 30
0.0
 10
210.6226124441138
 20
66.61822080991841
 30
0.0
 10
210.6302002570713
 20
66.63200688124233
 30
0.0
 10
210.6345893401018
 20
66.64454161906121
 30
0.0
 10
210.6372748611778
 20
66.65851817102268
 30
0.0
 10
210.6368489917836
 20
66.66651616822132
 30
0.0
 10
210.6365626473162
 20
66.671893831606
 30
0.0
  0
LINE
  5
204
330
1F
100
AcDbEntity
  8
0
  6
Continuous
 62
     7
370
    25
100
AcDbLine
 10
208.3064361543
 20
66.5740677112
 30
0.0
 11
210.5677591668
 21
66.5740677112
 31
0.0
  0
LINE
  5
205
330
1F
100
AcDbEntity
  8
0
  6
Continuous
 62
     7
370
    25
100
AcDbLine
 10
194.4167535567
 20
78.1452969303
 30
0.0
 11
194.4167535567
 21
77.9452969303
 31
0.0
  0
LINE
  5
206
330
1F
100
AcDbEntity
  8
0
  6
Continuous
 62
     7
370
    25
100
AcDbLine
 10
194.4167535567
 20
77.3452969303
 30
0.0
 11
194.4167535567
 21
77.0452969303
 31
0.0
  0
LINE
  5
207
330
1F
100
AcDbEntity
  8
0
  6
Continuous
 62
     7
370
    25
100
AcDbLine
 10
195.6767535567
 20
77.0452969303
 30
0.0
 11
195.6767535567
 21
77.3452969303
 31
0.0
  0
LINE
  5
208
330
1F
100
AcDbEntity
  8
0
  6
Continuous
 62
     7
370
    25
100
AcDbLine
 10
195.6767535567
 20
77.9452969303
 30
0.0
 11
195.6767535567
 21
78.1452969303
 31
0.0
  0
LINE
  5
209
330
1F
100
AcDbEntity
  8
0
  6
Continuous
 62
     7
370
    25
100
AcDbLine
 10
222.4167535567
 20
78.1452969303
 30
0.0
 11
222.4167535567
 21
77.9452969303
 31
0.0
  0
LINE
  5
20A
330
1F
100
AcDbEntity
  8
0
  6
Continuous
 62
     7
370
    25
100
AcDbLine
 10
222.4167535567
 20
77.3452969303
 30
0.0
 11
222.4167535567
 21
77.0452969303
 31
0.0
  0
LINE
  5
20B
330
1F
100
AcDbEntity
  8
0
  6
Continuous
 62
     7
370
    25
100
AcDbLine
 10
223.6767535567
 20
77.0452969303
 30
0.0
 11
223.6767535567
 21
77.3452969303
 31
0.0
  0
LINE
  5
20C
330
1F
100
AcDbEntity
  8
0
  6
Continuous
 62
     7
370
    25
100
AcDbLine
 10
223.6767535567
 20
77.9452969303
 30
0.0
 11
223.6767535567
 21
78.1452969303
 31
0.0
  0
LINE
  5
20D
330
1F
100
AcDbEntity
  8
0
  6
Continuous
 62
     7
370
    25
100
AcDbLine
 10
194.2467535567
 20
55.9452969303
 30
0.0
 11
194.2467535567
 21
55.3452969303
 31
0.0
  0
LINE
  5
20E
330
1F
100
AcDbEntity
  8
0
  6
Continuous
 62
     7
370
    25
100
AcDbLine
 10
194.2467535567
 20
55.3452969303
 30
0.0
 11
194.0467535567
 21
55.3452969303
 31
0.0
  0
LINE
  5
20F
330
1F
100
AcDbEntity
  8
0
  6
Continuous
 62
     7
370
    25
100
AcDbLine
 10
194.0467535567
 20
55.3452969303
 30
0.0
 11
194.0467535567
 21
55.9452969303
 31
0.0
  0
LINE
  5
210
330
1F
100
AcDbEntity
  8
0
  6
Continuous
 62
     7
370
    25
100
AcDbLine
 10
194.0467535567
 20
55.9452969303
 30
0.0
 11
194.2467535567
 21
55.9452969303
 31
0.0
  0
LINE
  5
211
330
1F
100
AcDbEntity
  8
0
  6
Continuous
 62
     7
370
    25
100
AcDbLine
 10
224.0467535567
 20
55.9452969303
 30
0.0
 11
224.0467535567
 21
55.3452969303
 31
0.0
  0
LINE
  5
212
330
1F
100
AcDbEntity
  8
0
  6
Continuous
 62
     7
370
    25
100
AcDbLine
 10
224.0467535567
 20
55.3452969303
 30
0.0
 11
223.8467535567
 21
55.3452969303
 31
0.0
  0
LINE
  5
213
330
1F
100
AcDbEntity
  8
0
  6
Continuous
 62
     7
370
    25
100
AcDbLine
 10
223.8467535567
 20
55.3452969303
 30
0.0
 11
223.8467535567
 21
55.9452969303
 31
0.0
  0
LINE
  5
214
330
1F
100
AcDbEntity
  8
0
  6
Continuous
 62
     7
370
    25
100
AcDbLine
 10
223.8467535567
 20
55.9452969303
 30
0.0
 11
224.0467535567
 21
55.9452969303
 31
0.0
  0
LINE
  5
215
330
1F
100
AcDbEntity
  8
0
  6
Continuous
 62
     7
370
    25
100
AcDbLine
 10
194.2467535567
 20
55.3452969303
 30
0.0
 11
198.4467535567
 21
55.3452969303
 31
0.0
  0
LINE
  5
216
330
1F
100
AcDbEntity
  8
0
  6
Continuous
 62
     7
370
    25
100
AcDbLine
 10
198.7467535567
 20
55.3452969303
 30
0.0
 11
205.4467535567
 21
55.3452969303
 31
0.0
  0
LINE
  5
217
330
1F
100
AcDbEntity
  8
0
  6
Continuous
 62
     7
370
    25
100
AcDbLine
 10
205.7467535567
 20
55.3452969303
 30
0.0
 11
212.3467535567
 21
55.3452969303
 31
0.0
  0
LINE
  5
218
330
1F
100
AcDbEntity
  8
0
  6
Continuous
 62
     7
370
    25
100
AcDbLine
 10
212.6467535567
 20
55.3452969303
 30
0.0
 11
219.3467535567
 21
55.3452969303
 31
0.0
  0
LINE
  5
219
330
1F
100
AcDbEntity
  8
0
  6
Continuous
 62
     7
370
    25
100
AcDbLine
 10
219.6467535567
 20
55.3452969303
 30
0.0
 11
223.8467535567
 21
55.3452969303
 31
0.0
  0
LINE
  5
21A
330
1F
100
AcDbEntity
  8
0
  6
Continuous
 62
     7
370
    25
100
AcDbLine
 10
194.2467535567
 20
55.9452969303
 30
0.0
 11
223.8467535567
 21
55.9452969303
 31
0.0
  0
LINE
  5
21B
330
1F
100
AcDbEntity
  8
0
  6
Continuous
 62
     7
370
    25
100
AcDbLine
 10
194.2467535567
 20
77.9452969303
 30
0.0
 11
194.2467535567
 21
77.3452969303
 31
0.0
  0
LINE
  5
21C
330
1F
100
AcDbEntity
  8
0
  6
Continuous
 62
     7
370
    25
100
AcDbLine
 10
194.2467535567
 20
77.3452969303
 30
0.0
 11
194.0467535567
 21
77.3452969303
 31
0.0
  0
LINE
  5
21D
330
1F
100
AcDbEntity
  8
0
  6
Continuous
 62
     7
370
    25
100
AcDbLine
 10
194.0467535567
 20
77.3452969303
 30
0.0
 11
194.0467535567
 21
77.9452969303
 31
0.0
  0
LINE
  5
21E
330
1F
100
AcDbEntity
  8
0
  6
Continuous
 62
     7
370
    25
100
AcDbLine
 10
194.0467535567
 20
77.9452969303
 30
0.0
 11
194.2467535567
 21
77.9452969303
 31
0.0
  0
LINE
  5
21F
330
1F
100
AcDbEntity
  8
0
  6
Continuous
 62
     7
370
    25
100
AcDbLine
 10
223.8467535567
 20
77.3452969303
 30
0.0
 11
223.8467535567
 21
77.9452969303
 31
0.0
  0
LINE
  5
220
330
1F
100
AcDbEntity
  8
0
  6
Continuous
 62
     7
370
    25
100
AcDbLine
 10
194.2467535567
 20
77.3452969303
 30
0.0
 11
223.8467535567
 21
77.3452969303
 31
0.0
  0
LINE
  5
221
330
1F
100
AcDbEntity
  8
0
  6
Continuous
 62
     7
370
    25
100
AcDbLine
 10
194.2467535567
 20
77.9452969303
 30
0.0
 11
198.4467535567
 21
77.9452969303
 31
0.0
  0
LINE
  5
222
330
1F
100
AcDbEntity
  8
0
  6
Continuous
 62
     7
370
    25
100
AcDbLine
 10
198.7467535567
 20
77.9452969303
 30
0.0
 11
205.4467535567
 21
77.9452969303
 31
0.0
  0
LINE
  5
223
330
1F
100
AcDbEntity
  8
0
  6
Continuous
 62
     7
370
    25
100
AcDbLine
 10
205.7467535567
 20
77.9452969303
 30
0.0
 11
212.3467535567
 21
77.9452969303
 31
0.0
  0
LINE
  5
224
330
1F
100
AcDbEntity
  8
0
  6
Continuous
 62
     7
370
    25
100
AcDbLine
 10
212.6467535567
 20
77.9452969303
 30
0.0
 11
219.3467535567
 21
77.9452969303
 31
0.0
  0
LINE
  5
225
330
1F
100
AcDbEntity
  8
0
  6
Continuous
 62
     7
370
    25
100
AcDbLine
 10
219.6467535567
 20
77.9452969303
 30
0.0
 11
223.8467535567
 21
77.9452969303
 31
0.0
  0
LINE
  5
226
330
1F
100
AcDbEntity
  8
0
  6
Continuous
 62
     7
370
    25
100
AcDbLine
 10
224.0467535567
 20
77.9452969303
 30
0.0
 11
224.0467535567
 21
77.3452969303
 31
0.0
  0
LINE
  5
227
330
1F
100
AcDbEntity
  8
0
  6
Continuous
 62
     7
370
    25
100
AcDbLine
 10
224.0467535567
 20
77.3452969303
 30
0.0
 11
223.8467535567
 21
77.3452969303
 31
0.0
  0
LINE
  5
228
330
1F
100
AcDbEntity
  8
0
  6
Continuous
 62
     7
370
    25
100
AcDbLine
 10
223.8467535567
 20
77.9452969303
 30
0.0
 11
224.0467535567
 21
77.9452969303
 31
0.0
  0
ARC
  5
229
330
1F
100
AcDbEntity
  8
0
  6
Continuous
 62
     7
370
    25
100
AcDbCircle
 10
191.5180777022
 20
59.0904660006
 30
0.0
 40
0.5713241454425225
100
AcDbArc
 50
81.6319897273
 51
180.0
  0
LINE
  5
22A
330
1F
100
AcDbEntity
  8
0
  6
Continuous
 62
     7
370
    25
100
AcDbLine
 10
191.2467535567
 20
58.6452969303
 30
0.0
 11
190.9467535567
 21
58.6452969303
 31
0.0
  0
LINE
  5
22B
330
1F
100
AcDbEntity
  8
0
  6
Continuous
 62
     7
370
    25
100
AcDbLine
 10
190.9467535567
 20
55.1452969303
 30
0.0
 11
190.9467535567
 21
58.4452969303
 31
0.0
  0
LINE
  5
22C
330
1F
100
AcDbEntity
  8
0
  6
Continuous
 62
     7
370
    25
100
AcDbLine
 10
198.4467535567
 20
55.1452969303
 30
0.0
 11
190.9467535567
 21
55.1452969303
 31
0.0
  0
LINE
  5
22D
330
1F
100
AcDbEntity
  8
0
  6
Continuous
 62
     7
370
    25
100
AcDbLine
 10
198.7467535567
 20
55.3452969303
 30
0.0
 11
198.4467535567
 21
55.3452969303
 31
0.0
  0
LINE
  5
22E
330
1F
100
AcDbEntity
  8
0
  6
Continuous
 62
     7
370
    25
100
AcDbLine
 10
205.7467535567
 20
55.3452969303
 30
0.0
 11
205.4467535567
 21
55.3452969303
 31
0.0
  0
LINE
  5
22F
330
1F
100
AcDbEntity
  8
0
  6
Continuous
 62
     7
370
    25
100
AcDbLine
 10
212.3467535567
 20
55.1452969303
 30
0.0
 11
205.7467535567
 21
55.1452969303
 31
0.0
  0
LINE
  5
230
330
1F
100
AcDbEntity
  8
0
  6
Continuous
 62
     7
370
    25
100
AcDbLine
 10
212.6467535567
 20
55.3452969303
 30
0.0
 11
212.3467535567
 21
55.3452969303
 31
0.0
  0
LINE
  5
231
330
1F
100
AcDbEntity
  8
0
  6
Continuous
 62
     7
370
    25
100
AcDbLine
 10
226.8467535567
 20
58.4452969303
 30
0.0
 11
227.1467535567
 21
58.4452969303
 31
0.0
  0
LINE
  5
232
330
1F
100
AcDbEntity
  8
0
  6
Continuous
 62
     7
370
    25
100
AcDbLine
 10
226.8467535567
 20
58.6452969303
 30
0.0
 11
226.8467535567
 21
58.4452969303
 31
0.0
  0
LINE
  5
233
330
1F
100
AcDbEntity
  8
0
  6
Continuous
 62
     7
370
    25
100
AcDbLine
 10
227.1467535567
 20
58.6452969303
 30
0.0
 11
226.8467535567
 21
58.6452969303
 31
0.0
  0
LINE
  5
234
330
1F
100
AcDbEntity
  8
0
  6
Continuous
 62
     7
370
    25
100
AcDbLine
 10
227.1467535567
 20
68.8577324956
 30
0.0
 11
226.4467535567
 21
67.6452969303
 31
0.0
  0
LINE
  5
235
330
1F
100
AcDbEntity
  8
0
  6
Continuous
 62
     7
370
    25
100
AcDbLine
 10
227.1467535567
 20
75.5961035918
 30
0.0
 11
227.1467535567
 21
68.8577324956
 31
0.0
  0
ARC
  5
236
330
1F
100
AcDbEntity
  8
0
  6
Continuous
 62
     7
370
    25
100
AcDbCircle
 10
191.5467535567
 20
75.5961035918
 30
0.0
 40
0.6000000000000227
100
AcDbArc
 50
75.5224878141
 51
180.0
  0
LINE
  5
237
330
1F
100
AcDbEntity
  8
0
  6
Continuous
 62
     7
370
    25
100
AcDbLine
 10
190.9467535567
 20
68.8577324956
 30
0.0
 11
190.9467535567
 21
75.5961035918
 31
0.0
  0
ARC
  5
238
330
1F
100
AcDbEntity
  8
0
  6
Continuous
 62
     7
370
    25
100
AcDbCircle
 10
191.7467535567
 20
60.6450614218
 30
0.0
 40
0.5099999999999871
100
AcDbArc
 50
27.1383304428
 51
332.8616695572
  0
ARC
  5
239
330
1F
100
AcDbEntity
  8
0
  6
Continuous
 62
     7
370
    25
100
AcDbCircle
 10
227.2467535567
 20
55.0452969303
 30
0.0
 40
0.4000000000000341
100
AcDbArc
 50
270.0
 51
0.0
  0
ARC
  5
23A
330
1F
100
AcDbEntity
  8
0
  6
Continuous
 62
     7
370
    25
100
AcDbCircle
 10
190.8467535567
 20
55.0452969303
 30
0.0
 40
0.3999999999999986
100
AcDbArc
 50
180.0
 51
270.0
  0
LINE
  5
23B
330
1F
100
AcDbEntity
  8
0
  6
Continuous
 62
     7
370
    25
100
AcDbLine
 10
219.6467535567
 20
55.3452969303
 30
0.0
 11
219.3467535567
 21
55.3452969303
 31
0.0
  0
LINE
  5
23C
330
1F
100
AcDbEntity
  8
0
  6
Continuous
 62
     7
370
    25
100
AcDbLine
 10
219.3467535567
 20
55.1452969303
 30
0.0
 11
212.6467535567
 21
55.1452969303
 31
0.0
  0
ARC
  5
23D
330
1F
100
AcDbEntity
  8
0
  6
Continuous
 62
     7
370
    25
100
AcDbCircle
 10
225.759854384
 20
76.2886120232
 30
0.0
 40
0.0600000000000012
100
AcDbArc
 50
139.6378061281
 51
245.6949388505
  0
ARC
  5
23E
330
1F
100
AcDbEntity
  8
0
  6
Continuous
 62
     7
370
    25
100
AcDbCircle
 10
225.363632169
 20
76.6253730012
 30
0.0
 40
0.0600000000000168
100
AcDbArc
 50
213.5806734057
 51
319.6378061281
  0
ARC
  5
23F
330
1F
100
AcDbEntity
  8
0
  6
Continuous
 62
     7
370
    25
100
AcDbCircle
 10
191.9467535567
 20
77.1452969303
 30
0.0
 40
1.000000000000004
100
AcDbArc
 50
255.5224878141
 51
294.3050611494
  0
LINE
  5
240
330
1F
100
AcDbEntity
  8
0
  6
Continuous
 62
     7
370
    25
100
AcDbLine
 10
227.1467535567
 20
64.432861365
 30
0.0
 11
227.1467535567
 21
62.199656843
 31
0.0
  0
LINE
  5
241
330
1F
100
AcDbEntity
  8
0
  6
Continuous
 62
     7
370
    25
100
AcDbLine
 10
198.7467535567
 20
55.1452969303
 30
0.0
 11
198.7467535567
 21
55.3452969303
 31
0.0
  0
LINE
  5
242
330
1F
100
AcDbEntity
  8
0
  6
Continuous
 62
     7
370
    25
100
AcDbLine
 10
205.4467535567
 20
55.3452969303
 30
0.0
 11
205.4467535567
 21
55.1452969303
 31
0.0
  0
ARC
  5
243
330
1F
100
AcDbEntity
  8
0
  6
Continuous
 62
     7
370
    25
100
AcDbCircle
 10
191.9467535567
 20
77.1452969303
 30
0.0
 40
0.5100000000000122
100
AcDbArc
 50
337.5005243147
 51
283.2238634291
  0
LINE
  5
244
330
1F
100
AcDbEntity
  8
0
  6
Continuous
 62
     7
370
    25
100
AcDbLine
 10
205.7467535567
 20
55.1452969303
 30
0.0
 11
205.7467535567
 21
55.3452969303
 31
0.0
  0
LINE
  5
245
330
1F
100
AcDbEntity
  8
0
  6
Continuous
 62
     7
370
    25
100
AcDbLine
 10
212.6467535567
 20
55.1452969303
 30
0.0
 11
212.6467535567
 21
55.3452969303
 31
0.0
  0
LINE
  5
246
330
1F
100
AcDbEntity
  8
0
  6
Continuous
 62
     7
370
    25
100
AcDbLine
 10
191.6467535567
 20
65.6452969303
 30
0.0
 11
191.6467535567
 21
67.6452969303
 31
0.0
  0
LINE
  5
247
330
1F
100
AcDbEntity
  8
0
  6
Continuous
 62
     7
370
    25
100
AcDbLine
 10
227.1467535567
 20
55.1452969303
 30
0.0
 11
219.6467535567
 21
55.1452969303
 31
0.0
  0
LINE
  5
248
330
1F
100
AcDbEntity
  8
0
  6
Continuous
 62
     7
370
    25
100
AcDbLine
 10
191.6467535567
 20
67.6452969303
 30
0.0
 11
190.9467535567
 21
68.8577324956
 31
0.0
  0
LINE
  5
249
330
1F
100
AcDbEntity
  8
0
  6
Continuous
 62
     7
370
    25
100
AcDbLine
 10
212.3467535567
 20
78.1452969303
 30
0.0
 11
212.3467535567
 21
77.9452969303
 31
0.0
  0
LINE
  5
24A
330
1F
100
AcDbEntity
  8
0
  6
Continuous
 62
     7
370
    25
100
AcDbLine
 10
205.4467535567
 20
78.1452969303
 30
0.0
 11
205.4467535567
 21
77.9452969303
 31
0.0
  0
LINE
  5
24B
330
1F
100
AcDbEntity
  8
0
  6
Continuous
 62
     7
370
    25
100
AcDbLine
 10
205.7467535567
 20
77.9452969303
 30
0.0
 11
205.7467535567
 21
78.1452969303
 31
0.0
  0
LINE
  5
24C
330
1F
100
AcDbEntity
  8
0
  6
Continuous
 62
     7
370
    25
100
AcDbLine
 10
191.2467535567
 20
58.4452969303
 30
0.0
 11
191.2467535567
 21
58.6452969303
 31
0.0
  0
LINE
  5
24D
330
1F
100
AcDbEntity
  8
0
  6
Continuous
 62
     7
370
    25
100
AcDbLine
 10
190.9467535567
 20
58.4452969303
 30
0.0
 11
191.2467535567
 21
58.4452969303
 31
0.0
  0
ARC
  5
24E
330
1F
100
AcDbEntity
  8
0
  6
Continuous
 62
     7
370
    25
100
AcDbCircle
 10
226.1467535567
 20
77.1452969303
 30
0.0
 40
0.5100000000000188
100
AcDbArc
 50
256.7761365709
 51
202.4994756853
  0
ARC
  5
24F
330
1F
100
AcDbEntity
  8
0
  6
Continuous
 62
     7
370
    25
100
AcDbCircle
 10
226.1467535567
 20
77.1452969303
 30
0.0
 40
1.000000000000012
100
AcDbArc
 50
245.6949388506
 51
284.4775121859
  0
ARC
  5
250
330
1F
100
AcDbEntity
  8
0
  6
Continuous
 62
     7
370
    25
100
AcDbCircle
 10
226.5467535567
 20
75.5961035918
 30
0.0
 40
0.6000000000000512
100
AcDbArc
 50
0.0
 51
104.4775121859
  0
ARC
  5
251
330
1F
100
AcDbEntity
  8
0
  6
Continuous
 62
     7
370
    25
100
AcDbCircle
 10
224.3137232788
 20
77.3052969303
 30
0.0
 40
0.8400000000000034
100
AcDbArc
 50
355.0114580244
 51
90.0
  0
LINE
  5
252
330
1F
100
AcDbEntity
  8
0
  6
Continuous
 62
     7
370
    25
100
AcDbLine
 10
212.6467535567
 20
78.1452969303
 30
0.0
 11
219.3467535567
 21
78.1452969303
 31
0.0
  0
ARC
  5
253
330
1F
100
AcDbEntity
  8
0
  6
Continuous
 62
     7
370
    25
100
AcDbCircle
 10
191.9467535567
 20
77.1452969303
 30
0.0
 40
0.9999999999999987
100
AcDbArc
 50
326.4193265943
 51
4.9885419756
  0
ARC
  5
254
330
1F
100
AcDbEntity
  8
0
  6
Continuous
 62
     7
370
    25
100
AcDbCircle
 10
193.7797838347
 20
77.3052969303
 30
0.0
 40
0.8400000000000131
100
AcDbArc
 50
90.0
 51
184.9885419756
  0
ARC
  5
255
330
1F
100
AcDbEntity
  8
0
  6
Continuous
 62
     7
370
    25
100
AcDbCircle
 10
192.7298749445
 20
76.6253730012
 30
0.0
 40
0.0600000000000012
100
AcDbArc
 50
220.3621938719
 51
326.4193265943
  0
ARC
  5
256
330
1F
100
AcDbEntity
  8
0
  6
Continuous
 62
     7
370
    25
100
AcDbCircle
 10
192.3336527295
 20
76.2886120232
 30
0.0
 40
0.0600000000000012
100
AcDbArc
 50
294.3050611495
 51
40.3621938719
  0
LINE
  5
257
330
1F
100
AcDbEntity
  8
0
  6
Continuous
 62
     7
370
    25
100
AcDbLine
 10
190.9467535567
 20
64.432861365
 30
0.0
 11
191.6467535567
 21
65.6452969303
 31
0.0
  0
ARC
  5
258
330
1F
100
AcDbEntity
  8
0
  6
Continuous
 62
     7
370
    25
100
AcDbCircle
 10
192.0771446714
 20
76.5904112149
 30
0.0
 40
0.059999999999992
100
AcDbArc
 50
40.3621938719
 51
103.2238634291
  0
LINE
  5
259
330
1F
100
AcDbEntity
  8
0
  6
Continuous
 62
     7
370
    25
100
AcDbLine
 10
226.4467535567
 20
65.6452969303
 30
0.0
 11
227.1467535567
 21
64.432861365
 31
0.0
  0
LINE
  5
25A
330
1F
100
AcDbEntity
  8
0
  6
Continuous
 62
     7
370
    25
100
AcDbLine
 10
226.4467535567
 20
67.6452969303
 30
0.0
 11
226.4467535567
 21
65.6452969303
 31
0.0
  0
LINE
  5
25B
330
1F
100
AcDbEntity
  8
0
  6
Continuous
 62
     7
370
    25
100
AcDbLine
 10
227.6467535567
 20
78.2452969303
 30
0.0
 11
227.6467535567
 21
55.0452969303
 31
0.0
  0
LINE
  5
25C
330
1F
100
AcDbEntity
  8
0
  6
Continuous
 62
     7
370
    25
100
AcDbLine
 10
227.2467535567
 20
54.6452969303
 30
0.0
 11
190.8467535567
 21
54.6452969303
 31
0.0
  0
ARC
  5
25D
330
1F
100
AcDbEntity
  8
0
  6
Continuous
 62
     7
370
    25
100
AcDbCircle
 10
191.5180777022
 20
62.199656843
 30
0.0
 40
0.5713241454425225
100
AcDbArc
 50
180.0
 51
278.3680102727
  0
ARC
  5
25E
330
1F
100
AcDbEntity
  8
0
  6
Continuous
 62
     7
370
    25
100
AcDbCircle
 10
225.4434263735
 20
60.9050614218
 30
0.0
 40
0.0600000000000094
100
AcDbArc
 50
163.9428672775
 51
270.0
  0
ARC
  5
25F
330
1F
100
AcDbEntity
  8
0
  6
Continuous
 62
     7
370
    25
100
AcDbCircle
 10
191.7467535567
 20
60.6450614218
 30
0.0
 40
1.000000000000003
100
AcDbArc
 50
16.0571327225
 51
98.3680102727
  0
ARC
  5
260
330
1F
100
AcDbEntity
  8
0
  6
Continuous
 62
     7
370
    25
100
AcDbCircle
 10
226.3467535567
 20
60.6450614218
 30
0.0
 40
0.5099999999999871
100
AcDbArc
 50
207.1383304428
 51
152.8616695572
  0
ARC
  5
261
330
1F
100
AcDbEntity
  8
0
  6
Continuous
 62
     7
370
    25
100
AcDbCircle
 10
226.3467535567
 20
60.6450614218
 30
0.0
 40
1.000000000000008
100
AcDbArc
 50
196.0571327225
 51
278.3680102727
  0
ARC
  5
262
330
1F
100
AcDbEntity
  8
0
  6
Continuous
 62
     7
370
    25
100
AcDbCircle
 10
226.5754294113
 20
59.0904660006
 30
0.0
 40
0.5713241454425315
100
AcDbArc
 50
0.0
 51
98.3680102727
  0
ARC
  5
263
330
1F
100
AcDbEntity
  8
0
  6
Continuous
 62
     7
370
    25
100
AcDbCircle
 10
226.5754294113
 20
62.199656843
 30
0.0
 40
0.5713241454425315
100
AcDbArc
 50
261.6319897273
 51
0.0
  0
LINE
  5
264
330
1F
100
AcDbEntity
  8
0
  6
Continuous
 62
     7
370
    25
100
AcDbLine
 10
227.1467535567
 20
58.4452969303
 30
0.0
 11
227.1467535567
 21
55.1452969303
 31
0.0
  0
LINE
  5
265
330
1F
100
AcDbEntity
  8
0
  6
Continuous
 62
     7
370
    25
100
AcDbLine
 10
225.665858175
 20
76.888315157
 30
0.0
 11
225.4093501169
 21
76.5865159653
 31
0.0
  0
LINE
  5
266
330
1F
100
AcDbEntity
  8
0
  6
Continuous
 62
     7
370
    25
100
AcDbLine
 10
225.7141364361
 20
76.3274690591
 30
0.0
 11
225.9706444942
 21
76.6292682508
 31
0.0
  0
LINE
  5
267
330
1F
100
AcDbEntity
  8
0
  6
Continuous
 62
     7
370
    25
100
AcDbLine
 10
190.9467535567
 20
62.199656843
 30
0.0
 11
190.9467535567
 21
64.432861365
 31
0.0
  0
LINE
  5
268
330
1F
100
AcDbEntity
  8
0
  6
Continuous
 62
     7
370
    25
100
AcDbLine
 10
225.4434263735
 20
60.4450614218
 30
0.0
 11
225.8395060826
 21
60.4450614218
 31
0.0
  0
LINE
  5
269
330
1F
100
AcDbEntity
  8
0
  6
Continuous
 62
     7
370
    25
100
AcDbLine
 10
190.8467535567
 20
78.6452969303
 30
0.0
 11
227.2467535567
 21
78.6452969303
 31
0.0
  0
LINE
  5
26A
330
1F
100
AcDbEntity
  8
0
  6
Continuous
 62
     7
370
    25
100
AcDbLine
 10
205.4467535567
 20
77.9452969303
 30
0.0
 11
205.7467535567
 21
77.9452969303
 31
0.0
  0
LINE
  5
26B
330
1F
100
AcDbEntity
  8
0
  6
Continuous
 62
     7
370
    25
100
AcDbLine
 10
198.4467535567
 20
78.1452969303
 30
0.0
 11
198.4467535567
 21
77.9452969303
 31
0.0
  0
LINE
  5
26C
330
1F
100
AcDbEntity
  8
0
  6
Continuous
 62
     7
370
    25
100
AcDbLine
 10
190.4467535567
 20
55.0452969303
 30
0.0
 11
190.4467535567
 21
78.2452969303
 31
0.0
  0
LINE
  5
26D
330
1F
100
AcDbEntity
  8
0
  6
Continuous
 62
     7
370
    25
100
AcDbLine
 10
198.4467535567
 20
55.3452969303
 30
0.0
 11
198.4467535567
 21
55.1452969303
 31
0.0
  0
LINE
  5
26E
330
1F
100
AcDbEntity
  8
0
  6
Continuous
 62
     7
370
    25
100
AcDbLine
 10
190.9467535567
 20
58.6452969303
 30
0.0
 11
190.9467535567
 21
59.0904660006
 31
0.0
  0
LINE
  5
26F
330
1F
100
AcDbEntity
  8
0
  6
Continuous
 62
     7
370
    25
100
AcDbLine
 10
205.7467535567
 20
78.1452969303
 30
0.0
 11
212.3467535567
 21
78.1452969303
 31
0.0
  0
ARC
  5
270
330
1F
100
AcDbEntity
  8
0
  6
Continuous
 62
     7
370
    25
100
AcDbCircle
 10
226.1467535567
 20
77.1452969303
 30
0.0
 40
1.000000000000024
100
AcDbArc
 50
175.0114580244
 51
213.5806734057
  0
LINE
  5
271
330
1F
100
AcDbEntity
  8
0
  6
Continuous
 62
     7
370
    25
100
AcDbLine
 10
193.7797838347
 20
78.1452969303
 30
0.0
 11
198.4467535567
 21
78.1452969303
 31
0.0
  0
ARC
  5
272
330
1F
100
AcDbEntity
  8
0
  6
Continuous
 62
     7
370
    25
100
AcDbCircle
 10
227.2467535567
 20
78.2452969303
 30
0.0
 40
0.4000000000000341
100
AcDbArc
 50
0.0
 51
90.0
  0
LINE
  5
273
330
1F
100
AcDbEntity
  8
0
  6
Continuous
 62
     7
370
    25
100
AcDbLine
 10
212.3467535567
 20
55.3452969303
 30
0.0
 11
212.3467535567
 21
55.1452969303
 31
0.0
  0
LINE
  5
274
330
1F
100
AcDbEntity
  8
0
  6
Continuous
 62
     7
370
    25
100
AcDbLine
 10
219.6467535567
 20
78.1452969303
 30
0.0
 11
224.3137232788
 21
78.1452969303
 31
0.0
  0
LINE
  5
275
330
1F
100
AcDbEntity
  8
0
  6
Continuous
 62
     7
370
    25
100
AcDbLine
 10
219.6467535567
 20
55.1452969303
 30
0.0
 11
219.6467535567
 21
55.3452969303
 31
0.0
  0
LINE
  5
276
330
1F
100
AcDbEntity
  8
0
  6
Continuous
 62
     7
370
    25
100
AcDbLine
 10
219.3467535567
 20
55.3452969303
 30
0.0
 11
219.3467535567
 21
55.1452969303
 31
0.0
  0
LINE
  5
277
330
1F
100
AcDbEntity
  8
0
  6
Continuous
 62
     7
370
    25
100
AcDbLine
 10
227.1467535567
 20
59.0904660006
 30
0.0
 11
227.1467535567
 21
58.6452969303
 31
0.0
  0
ARC
  5
278
330
1F
100
AcDbEntity
  8
0
  6
Continuous
 62
     7
370
    25
100
AcDbCircle
 10
225.6201402271
 20
76.9271721929
 30
0.0
 40
0.0600000000000049
100
AcDbArc
 50
319.6378061281
 51
22.4994756853
  0
LINE
  5
279
330
1F
100
AcDbEntity
  8
0
  6
Continuous
 62
     7
370
    25
100
AcDbLine
 10
192.65008074
 20
60.8450614218
 30
0.0
 11
192.2540010309
 21
60.8450614218
 31
0.0
  0
LINE
  5
27A
330
1F
100
AcDbEntity
  8
0
  6
Continuous
 62
     7
370
    25
100
AcDbLine
 10
192.1228626192
 20
76.6292682508
 30
0.0
 11
192.3793706774
 21
76.3274690591
 31
0.0
  0
LINE
  5
27B
330
1F
100
AcDbEntity
  8
0
  6
Continuous
 62
     7
370
    25
100
AcDbLine
 10
205.4467535567
 20
55.1452969303
 30
0.0
 11
198.7467535567
 21
55.1452969303
 31
0.0
  0
LINE
  5
27C
330
1F
100
AcDbEntity
  8
0
  6
Continuous
 62
     7
370
    25
100
AcDbLine
 10
198.4467535567
 20
77.9452969303
 30
0.0
 11
198.7467535567
 21
77.9452969303
 31
0.0
  0
ARC
  5
27D
330
1F
100
AcDbEntity
  8
0
  6
Continuous
 62
     7
370
    25
100
AcDbCircle
 10
191.7467535567
 20
60.6450614218
 30
0.0
 40
1.000000000000003
100
AcDbArc
 50
261.6319897273
 51
343.9428672775
  0
ARC
  5
27E
330
1F
100
AcDbEntity
  8
0
  6
Continuous
 62
     7
370
    25
100
AcDbCircle
 10
226.3467535567
 20
60.6450614218
 30
0.0
 40
1.000000000000008
100
AcDbArc
 50
81.6319897273
 51
163.9428672775
  0
ARC
  5
27F
330
1F
100
AcDbEntity
  8
0
  6
Continuous
 62
     7
370
    25
100
AcDbCircle
 10
192.65008074
 20
60.3850614218
 30
0.0
 40
0.0600000000000094
100
AcDbArc
 50
343.9428672776
 51
90.0
  0
LINE
  5
280
330
1F
100
AcDbEntity
  8
0
  6
Continuous
 62
     7
370
    25
100
AcDbLine
 10
219.6467535567
 20
77.9452969303
 30
0.0
 11
219.6467535567
 21
78.1452969303
 31
0.0
  0
LINE
  5
281
330
1F
100
AcDbEntity
  8
0
  6
Continuous
 62
     7
370
    25
100
AcDbLine
 10
219.3467535567
 20
77.9452969303
 30
0.0
 11
219.6467535567
 21
77.9452969303
 31
0.0
  0
LINE
  5
282
330
1F
100
AcDbEntity
  8
0
  6
Continuous
 62
     7
370
    25
100
AcDbLine
 10
219.3467535567
 20
78.1452969303
 30
0.0
 11
219.3467535567
 21
77.9452969303
 31
0.0
  0
LINE
  5
283
330
1F
100
AcDbEntity
  8
0
  6
Continuous
 62
     7
370
    25
100
AcDbLine
 10
212.6467535567
 20
77.9452969303
 30
0.0
 11
212.6467535567
 21
78.1452969303
 31
0.0
  0
LINE
  5
284
330
1F
100
AcDbEntity
  8
0
  6
Continuous
 62
     7
370
    25
100
AcDbLine
 10
212.3467535567
 20
77.9452969303
 30
0.0
 11
212.6467535567
 21
77.9452969303
 31
0.0
  0
LINE
  5
285
330
1F
100
AcDbEntity
  8
0
  6
Continuous
 62
     7
370
    25
100
AcDbLine
 10
225.8395060826
 20
60.8450614218
 30
0.0
 11
225.4434263735
 21
60.8450614218
 31
0.0
  0
ARC
  5
286
330
1F
100
AcDbEntity
  8
0
  6
Continuous
 62
     7
370
    25
100
AcDbCircle
 10
226.0163624421
 20
76.5904112149
 30
0.0
 40
0.0600000000000012
100
AcDbArc
 50
76.7761365709
 51
139.6378061281
  0
LINE
  5
287
330
1F
100
AcDbEntity
  8
0
  6
Continuous
 62
     7
370
    25
100
AcDbLine
 10
192.2540010309
 20
60.4450614218
 30
0.0
 11
192.65008074
 21
60.4450614218
 31
0.0
  0
ARC
  5
288
330
1F
100
AcDbEntity
  8
0
  6
Continuous
 62
     7
370
    25
100
AcDbCircle
 10
190.8467535567
 20
78.2452969303
 30
0.0
 40
0.4000000000000057
100
AcDbArc
 50
90.0
 51
180.0
  0
ARC
  5
289
330
1F
100
AcDbEntity
  8
0
  6
Continuous
 62
     7
370
    25
100
AcDbCircle
 10
192.65008074
 20
60.9050614218
 30
0.0
 40
0.0600000000000094
100
AcDbArc
 50
270.0
 51
16.0571327225
  0
LINE
  5
28A
330
1F
100
AcDbEntity
  8
0
  6
Continuous
 62
     7
370
    25
100
AcDbLine
 10
198.7467535567
 20
77.9452969303
 30
0.0
 11
198.7467535567
 21
78.1452969303
 31
0.0
  0
ARC
  5
28B
330
1F
100
AcDbEntity
  8
0
  6
Continuous
 62
     7
370
    25
100
AcDbCircle
 10
225.8395060826
 20
60.9050614218
 30
0.0
 40
0.0600000000000094
100
AcDbArc
 50
270.0
 51
332.8616695572
  0
LINE
  5
28C
330
1F
100
AcDbEntity
  8
0
  6
Continuous
 62
     7
370
    25
100
AcDbLine
 10
198.7467535567
 20
78.1452969303
 30
0.0
 11
205.4467535567
 21
78.1452969303
 31
0.0
  0
ARC
  5
28D
330
1F
100
AcDbEntity
  8
0
  6
Continuous
 62
     7
370
    25
100
AcDbCircle
 10
225.8395060826
 20
60.3850614218
 30
0.0
 40
0.0600000000000094
100
AcDbArc
 50
27.1383304428
 51
90.0
  0
ARC
  5
28E
330
1F
100
AcDbEntity
  8
0
  6
Continuous
 62
     7
370
    25
100
AcDbCircle
 10
192.2540010309
 20
60.9050614218
 30
0.0
 40
0.0600000000000332
100
AcDbArc
 50
207.1383304428
 51
270.0
  0
ARC
  5
28F
330
1F
100
AcDbEntity
  8
0
  6
Continuous
 62
     7
370
    25
100
AcDbCircle
 10
192.2540010309
 20
60.3850614218
 30
0.0
 40
0.06000000000003
100
AcDbArc
 50
90.0
 51
152.8616695572
  0
ARC
  5
290
330
1F
100
AcDbEntity
  8
0
  6
Continuous
 62
     7
370
    25
100
AcDbCircle
 10
225.4434263735
 20
60.3850614218
 30
0.0
 40
0.0600000000000094
100
AcDbArc
 50
90.0
 51
196.0571327225
  0
ARC
  5
291
330
1F
100
AcDbEntity
  8
0
  6
Continuous
 62
     7
370
    25
100
AcDbCircle
 10
192.4733668864
 20
76.9271721929
 30
0.0
 40
0.0600000000000049
100
AcDbArc
 50
157.5005243147
 51
220.3621938719
  0
LINE
  5
292
330
1F
100
AcDbEntity
  8
0
  6
Continuous
 62
     7
370
    25
100
AcDbLine
 10
192.6841569966
 20
76.5865159653
 30
0.0
 11
192.4276489385
 21
76.888315157
 31
0.0
  0
CIRCLE
  5
293
330
1F
100
AcDbEntity
  8
0
  6
Continuous
 62
     7
370
    25
100
AcDbCircle
 10
199.0467535567
 20
59.1452969303
 30
0.0
 40
0.7999999999999885
  0
CIRCLE
  5
294
330
1F
100
AcDbEntity
  8
0
  6
Continuous
 62
     7
370
    25
100
AcDbCircle
 10
199.0467535567
 20
59.1452969303
 30
0.0
 40
0.6999999999999863
  0
CIRCLE
  5
295
330
1F
100
AcDbEntity
  8
0
  6
Continuous
 62
     7
370
    25
100
AcDbCircle
 10
199.0467535567
 20
74.1452969303
 30
0.0
 40
0.8000000000000226
  0
CIRCLE
  5
296
330
1F
100
AcDbEntity
  8
0
  6
Continuous
 62
     7
370
    25
100
AcDbCircle
 10
199.0467535567
 20
74.1452969303
 30
0.0
 40
0.7000000000000064
  0
CIRCLE
  5
297
330
1F
100
AcDbEntity
  8
0
  6
Continuous
 62
     7
370
    25
100
AcDbCircle
 10
219.0467535567
 20
74.1452969303
 30
0.0
 40
0.6999999999999924
  0
CIRCLE
  5
298
330
1F
100
AcDbEntity
  8
0
  6
Continuous
 62
     7
370
    25
100
AcDbCircle
 10
219.0467535567
 20
74.1452969303
 30
0.0
 40
0.7999999999999947
  0
CIRCLE
  5
299
330
1F
100
AcDbEntity
  8
0
  6
Continuous
 62
     7
370
    25
100
AcDbCircle
 10
219.0467535567
 20
59.1452969303
 30
0.0
 40
0.8000000000000165
  0
CIRCLE
  5
29A
330
1F
100
AcDbEntity
  8
0
  6
Continuous
 62
     7
370
    25
100
AcDbCircle
 10
219.0467535567
 20
59.1452969303
 30
0.0
 40
0.7000000000000064
  0
LINE
  5
29B
330
1F
100
AcDbEntity
  8
0
  6
Continuous
 62
     7
370
    25
100
AcDbLine
 10
227.9745847731
 20
66.6452969303
 30
0.0
 11
227.9745847731
 21
67.1452969303
 31
0.0
  0
LINE
  5
29C
330
1F
100
AcDbEntity
  8
0
  6
Continuous
 62
     7
370
    25
100
AcDbLine
 10
227.9745847731
 20
66.1452969303
 30
0.0
 11
227.9745847731
 21
66.6452969303
 31
0.0
  0
LINE
  5
29D
330
1F
100
AcDbEntity
  8
0
  6
Continuous
 62
     7
370
    25
100
AcDbLine
 10
225.0967535567
 20
66.6452969303
 30
0.0
 11
225.0967535567
 21
66.1452969303
 31
0.0
  0
LINE
  5
29E
330
1F
100
AcDbEntity
  8
0
  6
Continuous
 62
     7
370
    25
100
AcDbLine
 10
225.0967535567
 20
67.1452969303
 30
0.0
 11
225.0967535567
 21
66.6452969303
 31
0.0
  0
LINE
  5
29F
330
1F
100
AcDbEntity
  8
0
  6
Continuous
 62
     7
370
    25
100
AcDbLine
 10
224.8467535567
 20
66.6452969303
 30
0.0
 11
224.8467535567
 21
66.8952969303
 31
0.0
  0
LINE
  5
2A0
330
1F
100
AcDbEntity
  8
0
  6
Continuous
 62
     7
370
    25
100
AcDbLine
 10
224.8467535567
 20
66.3952969303
 30
0.0
 11
224.8467535567
 21
66.6452969303
 31
0.0
  0
LINE
  5
2A1
330
1F
100
AcDbEntity
  8
0
  6
Continuous
 62
     7
370
    25
100
AcDbLine
 10
228.0467535567
 20
67.0202969303
 30
0.0
 11
228.0467535567
 21
66.2702969303
 31
0.0
  0
LINE
  5
2A2
330
1F
100
AcDbEntity
  8
0
  6
Continuous
 62
     7
370
    25
100
AcDbLine
 10
190.1189223404
 20
67.1452969303
 30
0.0
 11
190.1189223404
 21
66.1452969303
 31
0.0
  0
LINE
  5
2A3
330
1F
100
AcDbEntity
  8
0
  6
Continuous
 62
     7
370
    25
100
AcDbLine
 10
190.0467535567
 20
66.9918811526
 30
0.0
 11
190.0467535567
 21
67.0202969303
 31
0.0
  0
LINE
  5
2A4
330
1F
100
AcDbEntity
  8
0
  6
Continuous
 62
     7
370
    25
100
AcDbLine
 10
190.0467535567
 20
66.2702969303
 30
0.0
 11
190.0467535567
 21
66.9918811526
 31
0.0
  0
LINE
  5
2A5
330
1F
100
AcDbEntity
  8
0
  6
Continuous
 62
     7
370
    25
100
AcDbLine
 10
192.9967535567
 20
66.1452969303
 30
0.0
 11
192.9967535567
 21
67.1452969303
 31
0.0
  0
LINE
  5
2A6
330
1F
100
AcDbEntity
  8
0
  6
Continuous
 62
     7
370
    25
100
AcDbLine
 10
193.2467535567
 20
66.8952969303
 30
0.0
 11
193.2467535567
 21
66.3952969303
 31
0.0
  0
LINE
  5
2A7
330
1F
100
AcDbEntity
  8
0
  6
Continuous
 62
     7
370
    25
100
AcDbLine
 10
195.0467535567
 20
80.5905326523
 30
0.0
 11
195.0467535567
 21
80.3852967208
 31
0.0
  0
LINE
  5
2A8
330
1F
100
AcDbEntity
  8
0
  6
Continuous
 62
     7
370
    25
100
AcDbLine
 10
193.5415627357
 20
80.5905326523
 30
0.0
 11
193.5379803328
 21
80.3852969303
 31
0.0
  0
LINE
  5
2A9
330
1F
100
AcDbEntity
  8
0
  6
Continuous
 62
     7
370
    25
100
AcDbLine
 10
195.0467535567
 20
80.5905326523
 30
0.0
 11
193.5415627357
 21
80.5905326523
 31
0.0
  0
LINE
  5
2AA
330
1F
100
AcDbEntity
  8
0
  6
Continuous
 62
     7
370
    25
100
AcDbLine
 10
193.2380260243
 20
80.3852969303
 30
0.0
 11
193.2416084271
 21
80.5905326523
 31
0.0
  0
ARC
  5
2AB
330
1F
100
AcDbEntity
  8
0
  6
Continuous
 62
     7
370
    25
100
AcDbCircle
 10
193.3915855814
 20
76.2922700914
 30
0.0
 40
4.300878304313665
100
AcDbArc
 50
88.0016173803
 51
91.9983826197
  0
LINE
  5
2AC
330
1F
100
AcDbEntity
  8
0
  6
Continuous
 62
     7
370
    25
100
AcDbLine
 10
195.0467535567
 20
80.5905326523
 30
0.0
 11
195.0467535567
 21
80.8852969303
 31
0.0
  0
LINE
  5
2AD
330
1F
100
AcDbEntity
  8
0
  6
Continuous
 62
     7
370
    25
100
AcDbLine
 10
195.0467535567
 20
80.8852969303
 30
0.0
 11
196.4519443778
 21
80.8852969303
 31
0.0
  0
LINE
  5
2AE
330
1F
100
AcDbEntity
  8
0
  6
Continuous
 62
     7
370
    25
100
AcDbLine
 10
193.5415627357
 20
80.5905326523
 30
0.0
 11
193.5415627357
 21
80.8852969303
 31
0.0
  0
LINE
  5
2AF
330
1F
100
AcDbEntity
  8
0
  6
Continuous
 62
     7
370
    25
100
AcDbLine
 10
193.5415627357
 20
80.8852969303
 30
0.0
 11
195.0467535567
 21
80.8852969303
 31
0.0
  0
ARC
  5
2B0
330
1F
100
AcDbEntity
  8
0
  6
Continuous
 62
     7
370
    25
100
AcDbCircle
 10
193.5415627357
 20
80.5852969303
 30
0.0
 40
0.3000000000000114
100
AcDbArc
 50
90.0
 51
179.0
  0
LINE
  5
2B1
330
1F
100
AcDbEntity
  8
0
  6
Continuous
 62
     7
370
    25
100
AcDbLine
 10
223.8967535567
 20
80.4852969303
 30
0.0
 11
223.8950080503
 21
80.3852969303
 31
0.0
  0
SPLINE
  5
2B2
330
1F
100
AcDbEntity
  8
0
  6
Continuous
 62
     7
370
    25
100
AcDbSpline
210
0.0
220
0.0
230
1.0
 70
     8
 71
     3
 72
    11
 73
     7
 74
     0
 42
0.00000001
 43
0.00000001
 40
0.0
 40
0.0
 40
0.0
 40
0.0
 40
0.1626324197228047
 40
0.3666605467181831
 40
0.7586464711437333
 40
1.0
 40
1.0
 40
1.0
 40
1.0
 10
223.0467535567457
 20
80.4852967207985
 30
0.0
 10
223.0551455045099
 20
80.48419098385544
 30
0.0
 10
223.0740654477814
 20
80.48169806077921
 30
0.0
 10
223.1067344244477
 20
80.4582543041077
 30
0.0
 10
223.133625228707
 20
80.42432073025893
 30
0.0
 10
223.1498114705837
 20
80.39606474488032
 30
0.0
 10
223.1559797371832
 20
80.38529693032667
 30
0.0
  0
LINE
  5
2B3
330
1F
100
AcDbEntity
  8
0
  6
Continuous
 62
     7
370
    25
100
AcDbLine
 10
223.0467535567
 20
80.4852967208
 30
0.0
 11
223.8367535567
 21
80.4852969303
 31
0.0
  0
LINE
  5
2B4
330
1F
100
AcDbEntity
  8
0
  6
Continuous
 62
     7
370
    25
100
AcDbLine
 10
223.0467535567
 20
80.6905326523
 30
0.0
 11
223.0467535567
 21
80.4852967208
 31
0.0
  0
LINE
  5
2B5
330
1F
100
AcDbEntity
  8
0
  6
Continuous
 62
     7
370
    25
100
AcDbLine
 10
224.5519443778
 20
80.6905326523
 30
0.0
 11
223.0467535567
 21
80.6905326523
 31
0.0
  0
LINE
  5
2B6
330
1F
100
AcDbEntity
  8
0
  6
Continuous
 62
     7
370
    25
100
AcDbLine
 10
224.5555267807
 20
80.4852969303
 30
0.0
 11
224.5519443778
 21
80.6905326523
 31
0.0
  0
LINE
  5
2B7
330
1F
100
AcDbEntity
  8
0
  6
Continuous
 62
     7
370
    25
100
AcDbLine
 10
224.5555267807
 20
80.4852969303
 30
0.0
 11
223.8367535567
 21
80.4852969303
 31
0.0
  0
ARC
  5
2B8
330
1F
100
AcDbEntity
  8
0
  6
Continuous
 62
     7
370
    25
100
AcDbCircle
 10
224.7019215321
 20
76.3922700914
 30
0.0
 40
4.300878304324474
100
AcDbArc
 50
88.0016173803
 51
91.9983826197
  0
LINE
  5
2B9
330
1F
100
AcDbEntity
  8
0
  6
Continuous
 62
     7
370
    25
100
AcDbLine
 10
224.8518986864
 20
80.6905326523
 30
0.0
 11
224.8554810892
 21
80.4852969303
 31
0.0
  0
LINE
  5
2BA
330
1F
100
AcDbEntity
  8
0
  6
Continuous
 62
     7
370
    25
100
AcDbLine
 10
224.8554810892
 20
80.4852969303
 30
0.0
 11
224.5555267807
 21
80.4852969303
 31
0.0
  0
LINE
  5
2BB
330
1F
100
AcDbEntity
  8
0
  6
Continuous
 62
     7
370
    25
100
AcDbLine
 10
221.6415627357
 20
80.9852969303
 30
0.0
 11
223.0467535567
 21
80.9852969303
 31
0.0
  0
LINE
  5
2BC
330
1F
100
AcDbEntity
  8
0
  6
Continuous
 62
     7
370
    25
100
AcDbLine
 10
223.0467535567
 20
80.6905326523
 30
0.0
 11
223.0467535567
 21
80.9852969303
 31
0.0
  0
LINE
  5
2BD
330
1F
100
AcDbEntity
  8
0
  6
Continuous
 62
     7
370
    25
100
AcDbLine
 10
223.0467535567
 20
80.9852969303
 30
0.0
 11
224.5519443778
 21
80.9852969303
 31
0.0
  0
LINE
  5
2BE
330
1F
100
AcDbEntity
  8
0
  6
Continuous
 62
     7
370
    25
100
AcDbLine
 10
224.5519443778
 20
80.9852969303
 30
0.0
 11
224.5519443778
 21
80.6905326523
 31
0.0
  0
ARC
  5
2BF
330
1F
100
AcDbEntity
  8
0
  6
Continuous
 62
     7
370
    25
100
AcDbCircle
 10
224.5519443778
 20
80.6852969303
 30
0.0
 40
0.2999999999999983
100
AcDbArc
 50
1.0
 51
90.0
  0
LINE
  5
2C0
330
1F
100
AcDbEntity
  8
0
  6
Continuous
 62
     7
370
    25
100
AcDbLine
 10
203.2467535567
 20
74.7452969303
 30
0.0
 11
202.3759331635
 21
74.7452969303
 31
0.0
  0
LINE
  5
2C1
330
1F
100
AcDbEntity
  8
0
  6
Continuous
 62
     7
370
    25
100
AcDbLine
 10
203.2658366901
 20
74.9852969303
 30
0.0
 11
203.0613500245
 21
74.9852969303
 31
0.0
  0
LINE
  5
2C2
330
1F
100
AcDbEntity
  8
0
  6
Continuous
 62
     7
370
    25
100
AcDbLine
 10
203.0613500245
 20
74.9852969303
 30
0.0
 11
203.0613500245
 21
75.0451785576
 31
0.0
  0
LINE
  5
2C3
330
1F
100
AcDbEntity
  8
0
  6
Continuous
 62
     7
370
    25
100
AcDbLine
 10
224.8668787359
 20
80.3852969303
 30
0.0
 11
224.8078016996
 21
78.6935519555
 31
0.0
  0
LINE
  5
2C4
330
1F
100
AcDbEntity
  8
0
  6
Continuous
 62
     7
370
    25
100
AcDbLine
 10
223.8303708128
 20
78.6935519555
 30
0.0
 11
224.8078016996
 21
78.6935519555
 31
0.0
  0
LINE
  5
2C5
330
1F
100
AcDbEntity
  8
0
  6
Continuous
 62
     7
370
    25
100
AcDbLine
 10
223.8303708128
 20
78.6935519555
 30
0.0
 11
223.8303708128
 21
80.3852969303
 31
0.0
  0
LINE
  5
2C6
330
1F
100
AcDbEntity
  8
0
  6
Continuous
 62
     7
370
    25
100
AcDbLine
 10
223.8303708128
 20
80.3852969303
 30
0.0
 11
224.8668787359
 21
80.3852969303
 31
0.0
  0
LINE
  5
2C7
330
1F
100
AcDbEntity
  8
0
  6
Continuous
 62
     7
370
    25
100
AcDbLine
 10
194.2631363007
 20
78.6935519555
 30
0.0
 11
223.8303708128
 21
78.6935519555
 31
0.0
  0
LINE
  5
2C8
330
1F
100
AcDbEntity
  8
0
  6
Continuous
 62
     7
370
    25
100
AcDbLine
 10
194.2631363007
 20
80.3852969303
 30
0.0
 11
194.2631363007
 21
78.6935519555
 31
0.0
  0
LINE
  5
2C9
330
1F
100
AcDbEntity
  8
0
  6
Continuous
 62
     7
370
    25
100
AcDbLine
 10
194.2631363007
 20
80.3852969303
 30
0.0
 11
223.8303708128
 21
80.3852969303
 31
0.0
  0
LINE
  5
2CA
330
1F
100
AcDbEntity
  8
0
  6
Continuous
 62
     7
370
    25
100
AcDbLine
 10
193.2857054139
 20
78.6935519555
 30
0.0
 11
194.2631363007
 21
78.6935519555
 31
0.0
  0
LINE
  5
2CB
330
1F
100
AcDbEntity
  8
0
  6
Continuous
 62
     7
370
    25
100
AcDbLine
 10
193.2857054139
 20
78.6935519555
 30
0.0
 11
193.2266283776
 21
80.3852969303
 31
0.0
  0
LINE
  5
2CC
330
1F
100
AcDbEntity
  8
0
  6
Continuous
 62
     7
370
    25
100
AcDbLine
 10
193.2266283776
 20
80.3852969303
 30
0.0
 11
194.2631363007
 21
80.3852969303
 31
0.0
  0
ARC
  5
2CD
330
1F
100
AcDbEntity
  8
0
  6
Continuous
 62
     7
370
    25
100
AcDbCircle
 10
224.7578321582
 20
78.6952969303
 30
0.0
 40
0.050000000000021
100
AcDbArc
 50
270.0
 51
358.0
  0
LINE
  5
2CE
330
1F
100
AcDbEntity
  8
0
  6
Continuous
 62
     7
370
    25
100
AcDbLine
 10
223.8303708128
 20
78.6935519555
 30
0.0
 11
223.8303708128
 21
78.6452969303
 31
0.0
  0
LINE
  5
2CF
330
1F
100
AcDbEntity
  8
0
  6
Continuous
 62
     7
370
    25
100
AcDbLine
 10
194.2631363007
 20
78.6935519555
 30
0.0
 11
194.2631363007
 21
78.6452969303
 31
0.0
  0
ARC
  5
2D0
330
1F
100
AcDbEntity
  8
0
  6
Continuous
 62
     7
370
    25
100
AcDbCircle
 10
193.3356749553
 20
78.6952969303
 30
0.0
 40
0.0499999999999972
100
AcDbArc
 50
182.0
 51
270.0
  0
LINE
  5
2D1
330
1F
100
AcDbEntity
  8
0
  6
Continuous
 62
     7
370
    25
100
AcDbLine
 10
220.630527388
 20
78.1452969303
 30
0.0
 11
220.602419221
 21
77.9452969303
 31
0.0
  0
LINE
  5
2D2
330
1F
100
AcDbEntity
  8
0
  6
Continuous
 62
     7
370
    25
100
AcDbLine
 10
220.5180947202
 20
77.3452969303
 30
0.0
 11
220.4759324698
 21
77.0452969303
 31
0.0
  0
LINE
  5
2D3
330
1F
100
AcDbEntity
  8
0
  6
Continuous
 62
     7
370
    25
100
AcDbLine
 10
197.5465919954
 20
77.0452969303
 30
0.0
 11
197.5142084498
 21
77.3452969303
 31
0.0
  0
LINE
  5
2D4
330
1F
100
AcDbEntity
  8
0
  6
Continuous
 62
     7
370
    25
100
AcDbLine
 10
197.4494413585
 20
77.9452969303
 30
0.0
 11
197.427852328
 21
78.1452969303
 31
0.0
  0
LINE
  5
2D5
330
1F
100
AcDbEntity
  8
0
  6
Continuous
 62
     7
370
    25
100
AcDbLine
 10
214.2781780567
 20
74.3452969303
 30
0.0
 11
214.169257118
 21
74.3452969303
 31
0.0
  0
LINE
  5
2D6
330
1F
100
AcDbEntity
  8
0
  6
Continuous
 62
     7
370
    25
100
AcDbLine
 10
214.6502165831
 20
74.3452969303
 30
0.0
 11
214.2781780567
 21
74.3452969303
 31
0.0
  0
LINE
  5
2D7
330
1F
100
AcDbEntity
  8
0
  6
Continuous
 62
     7
370
    25
100
AcDbLine
 10
203.9242499955
 20
74.3452969303
 30
0.0
 11
203.4432905304
 21
74.3452969303
 31
0.0
  0
LINE
  5
2D8
330
1F
100
AcDbEntity
  8
0
  6
Continuous
 62
     7
370
    25
100
AcDbLine
 10
214.6896657552
 20
74.3452969303
 30
0.0
 11
214.6502165831
 21
74.3452969303
 31
0.0
  0
LINE
  5
2D9
330
1F
100
AcDbEntity
  8
0
  6
Continuous
 62
     7
370
    25
100
AcDbLine
 10
203.4432905304
 20
74.3452969303
 30
0.0
 11
203.4038413583
 21
74.3452969303
 31
0.0
  0
LINE
  5
2DA
330
1F
100
AcDbEntity
  8
0
  6
Continuous
 62
     7
370
    25
100
AcDbLine
 10
223.8957062529
 20
80.4252969303
 30
0.0
 11
224.0654819051
 21
80.4252969303
 31
0.0
  0
LINE
  5
2DB
330
1F
100
AcDbEntity
  8
0
  6
Continuous
 62
     7
370
    25
100
AcDbLine
 10
224.0654819051
 20
80.4252969303
 30
0.0
 11
224.0668787359
 21
80.3852969303
 31
0.0
  0
LINE
  5
2DC
330
1F
100
AcDbEntity
  8
0
  6
Continuous
 62
     7
370
    25
100
AcDbLine
 10
209.7491159939
 20
68.1934206356
 30
0.0
 11
208.8372250255
 21
68.1934206356
 31
0.0
  0
LWPOLYLINE
  5
2DD
330
1F
100
AcDbEntity
  8
0
  6
Continuous
 62
     7
370
    25
100
AcDbPolyline
 90
        3
 70
   128
 43
0.0
 10
208.8372250255
 20
68.1934206356
 10
208.5780310732
 20
68.2306870999
 10
208.503396018
 20
68.2561236079
  0
LINE
  5
2DE
330
1F
100
AcDbEntity
  8
0
  6
Continuous
 62
     7
370
    25
100
AcDbLine
 10
208.7872250255
 20
67.9134206356
 30
0.0
 11
210.0872250255
 21
67.9134206356
 31
0.0
  0
ARC
  5
2DF
330
1F
100
AcDbEntity
  8
0
  6
Continuous
 62
     7
370
    25
100
AcDbCircle
 10
208.7872250255
 20
69.1134206356
 30
0.0
 40
1.200000000000017
100
AcDbArc
 50
238.2451765175
 51
270.0
  0
LINE
  5
2E0
330
1F
100
AcDbEntity
  8
0
  6
Continuous
 62
     7
370
    25
100
AcDbLine
 10
210.0872250255
 20
67.9134206356
 30
0.0
 11
210.1753106671
 21
67.9166579525
 31
0.0
  0
LINE
  5
2E1
330
1F
100
AcDbEntity
  8
0
  6
Continuous
 62
     7
370
    25
100
AcDbLine
 10
209.1372250255
 20
67.6740677112
 30
0.0
 11
209.1372250255
 21
67.9134206356
 31
0.0
  0
LINE
  5
2E2
330
1F
100
AcDbEntity
  8
0
  6
Continuous
 62
     7
370
    25
100
AcDbLine
 10
209.7372250255
 20
67.6740677112
 30
0.0
 11
209.7372250255
 21
67.9134206356
 31
0.0
  0
LINE
  5
2E3
330
1F
100
AcDbEntity
  8
0
  6
Continuous
 62
     7
370
    25
100
AcDbLine
 10
210.0672250255
 20
67.7634206356
 30
0.0
 11
210.3080630343
 21
67.7850769099
 31
0.0
  0
LINE
  5
2E4
330
1F
100
AcDbEntity
  8
0
  6
Continuous
 62
     7
370
    25
100
AcDbLine
 10
209.7372250255
 20
67.7634206356
 30
0.0
 11
210.0672250255
 21
67.7634206356
 31
0.0
  0
ARC
  5
2E5
330
1F
100
AcDbEntity
  8
0
  6
Continuous
 62
     7
370
    25
100
AcDbCircle
 10
208.8072250255
 20
69.1134206356
 30
0.0
 40
1.350000000000037
100
AcDbArc
 50
234.9168761192
 51
270.0
  0
LINE
  5
2E6
330
1F
100
AcDbEntity
  8
0
  6
Continuous
 62
     7
370
    25
100
AcDbLine
 10
208.8072250255
 20
67.7634206356
 30
0.0
 11
209.1372250255
 21
67.7634206356
 31
0.0
  0
LINE
  5
2E7
330
1F
100
AcDbEntity
  8
0
  6
Continuous
 62
     7
370
    25
100
AcDbLine
 10
218.1775265694
 20
73.911963597
 30
0.0
 11
218.2815375379
 21
73.911963597
 31
0.0
  0
LINE
  5
2E8
330
1F
100
AcDbEntity
  8
0
  6
Continuous
 62
     7
370
    25
100
AcDbLine
 10
218.2984220794
 20
73.6452969303
 30
0.0
 11
218.4222537569
 21
73.6452969303
 31
0.0
  0
LINE
  5
2E9
330
1F
100
AcDbEntity
  8
0
  6
Continuous
 62
     7
370
    25
100
AcDbLine
 10
199.9159805441
 20
59.3786302637
 30
0.0
 11
199.8119695756
 21
59.3786302637
 31
0.0
  0
LINE
  5
2EA
330
1F
100
AcDbEntity
  8
0
  6
Continuous
 62
     7
370
    25
100
AcDbLine
 10
199.7950850341
 20
59.6452969303
 30
0.0
 11
199.6712533566
 21
59.6452969303
 31
0.0
  0
LINE
  5
2EB
330
1F
100
AcDbEntity
  8
0
  6
Continuous
 62
     7
370
    25
100
AcDbLine
 10
199.8119695756
 20
73.911963597
 30
0.0
 11
199.9159805441
 21
73.911963597
 31
0.0
  0
LINE
  5
2EC
330
1F
100
AcDbEntity
  8
0
  6
Continuous
 62
     7
370
    25
100
AcDbLine
 10
199.6712533566
 20
73.6452969303
 30
0.0
 11
199.7950850341
 21
73.6452969303
 31
0.0
  0
LINE
  5
2ED
330
1F
100
AcDbEntity
  8
0
  6
Continuous
 62
     7
370
    25
100
AcDbLine
 10
218.2815375379
 20
59.3786302637
 30
0.0
 11
218.1775265694
 21
59.3786302637
 31
0.0
  0
LINE
  5
2EE
330
1F
100
AcDbEntity
  8
0
  6
Continuous
 62
     7
370
    25
100
AcDbLine
 10
218.4222537569
 20
59.6452969303
 30
0.0
 11
218.2984220794
 21
59.6452969303
 31
0.0
  0
LINE
  5
2EF
330
1F
100
AcDbEntity
  8
0
  6
Continuous
 62
     7
370
    25
100
AcDbLine
 10
194.0467535567
 20
76.3052969303
 30
0.0
 11
194.0467535567
 21
77.0452969303
 31
0.0
  0
LINE
  5
2F0
330
1F
100
AcDbEntity
  8
0
  6
Continuous
 62
     7
370
    25
100
AcDbLine
 10
224.0467535567
 20
77.0452969303
 30
0.0
 11
194.0467535567
 21
77.0452969303
 31
0.0
  0
LINE
  5
2F1
330
1F
100
AcDbEntity
  8
0
  6
Continuous
 62
     7
370
    25
100
AcDbLine
 10
224.0467535567
 20
77.0452969303
 30
0.0
 11
224.0467535567
 21
76.3052969303
 31
0.0
  0
LINE
  5
2F2
330
1F
100
AcDbEntity
  8
0
  6
Continuous
 62
     7
370
    25
100
AcDbLine
 10
224.0467535567
 20
76.3052969303
 30
0.0
 11
194.0467535567
 21
76.3052969303
 31
0.0
  0
LINE
  5
2F3
330
1F
100
AcDbEntity
  8
0
  6
Continuous
 62
     7
370
    25
100
AcDbLine
 10
224.0467535567
 20
76.3052969303
 30
0.0
 11
224.0467535567
 21
56.9852969303
 31
0.0
  0
LINE
  5
2F4
330
1F
100
AcDbEntity
  8
0
  6
Continuous
 62
     7
370
    25
100
AcDbLine
 10
194.0467535567
 20
56.9852969303
 30
0.0
 11
224.0467535567
 21
56.9852969303
 31
0.0
  0
CIRCLE
  5
2F5
330
1F
100
AcDbEntity
  8
0
  6
Continuous
 62
     7
370
    25
100
AcDbCircle
 10
209.0467535567
 20
66.6452969303
 30
0.0
 40
1.699999999999989
  0
CIRCLE
  5
2F6
330
1F
100
AcDbEntity
  8
0
  6
Continuous
 62
     7
370
    25
100
AcDbCircle
 10
199.0467535567
 20
74.1452969303
 30
0.0
 40
0.8999999999999915
  0
CIRCLE
  5
2F7
330
1F
100
AcDbEntity
  8
0
  6
Continuous
 62
     7
370
    25
100
AcDbCircle
 10
219.0467535567
 20
74.1452969303
 30
0.0
 40
0.8999999999999915
  0
CIRCLE
  5
2F8
330
1F
100
AcDbEntity
  8
0
  6
Continuous
 62
     7
370
    25
100
AcDbCircle
 10
219.0467535567
 20
59.1452969303
 30
0.0
 40
0.8999999999999986
  0
CIRCLE
  5
2F9
330
1F
100
AcDbEntity
  8
0
  6
Continuous
 62
     7
370
    25
100
AcDbCircle
 10
199.0467535567
 20
59.1452969303
 30
0.0
 40
0.8999999999999986
  0
CIRCLE
  5
2FA
330
1F
100
AcDbEntity
  8
0
  6
Continuous
 62
     7
370
    25
100
AcDbCircle
 10
219.0467535567
 20
66.6452969303
 30
0.0
 40
2.0
  0
CIRCLE
  5
2FB
330
1F
100
AcDbEntity
  8
0
  6
Continuous
 62
     7
370
    25
100
AcDbCircle
 10
199.0467535567
 20
66.6452969303
 30
0.0
 40
2.0
  0
CIRCLE
  5
2FC
330
1F
100
AcDbEntity
  8
0
  6
Continuous
 62
     7
370
    25
100
AcDbCircle
 10
215.0467535567
 20
59.1452969303
 30
0.0
 40
0.9000000000000057
  0
CIRCLE
  5
2FD
330
1F
100
AcDbEntity
  8
0
  6
Continuous
 62
     7
370
    25
100
AcDbCircle
 10
203.0467535567
 20
59.1452969303
 30
0.0
 40
0.8999999999999773
  0
CIRCLE
  5
2FE
330
1F
100
AcDbEntity
  8
0
  6
Continuous
 62
     7
370
    25
100
AcDbCircle
 10
203.0467535567
 20
74.1452969303
 30
0.0
 40
0.9000000000000057
  0
CIRCLE
  5
2FF
330
1F
100
AcDbEntity
  8
0
  6
Continuous
 62
     7
370
    25
100
AcDbCircle
 10
215.0467535567
 20
74.1452969303
 30
0.0
 40
0.9000000000000057
  0
LINE
  5
300
330
1F
100
AcDbEntity
  8
0
  6
Continuous
 62
     7
370
    25
100
AcDbLine
 10
194.0467535567
 20
56.9852969303
 30
0.0
 11
194.0467535567
 21
76.3052969303
 31
0.0
  0
LINE
  5
301
330
1F
100
AcDbEntity
  8
0
  6
Continuous
 62
     7
370
    25
100
AcDbLine
 10
224.0467535567
 20
56.9852969303
 30
0.0
 11
224.0467535567
 21
56.2452969303
 31
0.0
  0
LINE
  5
302
330
1F
100
AcDbEntity
  8
0
  6
Continuous
 62
     7
370
    25
100
AcDbLine
 10
194.0467535567
 20
56.2452969303
 30
0.0
 11
224.0467535567
 21
56.2452969303
 31
0.0
  0
LINE
  5
303
330
1F
100
AcDbEntity
  8
0
  6
Continuous
 62
     7
370
    25
100
AcDbLine
 10
194.0467535567
 20
56.2452969303
 30
0.0
 11
194.0467535567
 21
56.9852969303
 31
0.0
  0
SPLINE
  5
304
330
1F
100
AcDbEntity
  8
0
  6
Continuous
 62
     7
370
    25
100
AcDbSpline
210
0.0
220
0.0
230
1.0
 70
    24
 71
     3
 72
    14
 73
    10
 74
     0
 42
0.00000001
 43
0.00000001
 40
0.0
 40
0.0
 40
0.0
 40
0.0
 40
0.0971323521662751
 40
0.1955737582042928
 40
0.378472161569822
 40
0.5338626150461315
 40
0.7000787319948286
 40
0.863388546334343
 40
1.0
 40
1.0
 40
1.0
 40
1.0
 10
208.2372250255097
 20
66.84101157526386
 30
0.0
 10
208.2372250255097
 20
66.8331684257617
 30
0.0
 10
208.2372250255097
 20
66.81737642453773
 30
0.0
 10
208.2372250255097
 20
66.7849259096192
 30
0.0
 10
208.2372250255097
 20
66.74822748040226
 30
0.0
 10
208.2372250255097
 20
66.71265726402613
 30
0.0
 10
208.2372250255097
 20
66.68742376841868
 30
0.0
 10
208.2372250255097
 20
66.67002672263972
 30
0.0
 10
208.2372250255097
 20
66.66868771594243
 30
0.0
 10
208.2372250255097
 20
66.6680778103742
 30
0.0
  0
ARC
  5
305
330
1F
100
AcDbEntity
  8
0
  6
Continuous
 62
     7
370
    25
100
AcDbCircle
 10
208.3029265622
 20
66.7994541173
 30
0.0
 40
0.0777413297387651
100
AcDbArc
 50
86.8145052107
 51
147.685877735
  0
ARC
  5
306
330
1F
100
AcDbEntity
  8
0
  6
Continuous
 62
     7
370
    25
100
AcDbCircle
 10
210.5715234887
 20
66.79945412
 30
0.0
 40
0.0777413270675717
100
AcDbArc
 50
32.314121605
 51
93.1854949939
  0
SPLINE
  5
307
330
1F
100
AcDbEntity
  8
0
  6
Continuous
 62
     7
370
    25
100
AcDbSpline
210
0.0
220
0.0
230
1.0
 70
    24
 71
     3
 72
    14
 73
    10
 74
     0
 42
0.00000001
 43
0.00000001
 40
0.0
 40
0.0
 40
0.0
 40
0.0
 40
0.1121795861399315
 40
0.2258710183365747
 40
0.4371030822376819
 40
0.6165658088857597
 40
0.8085312544404083
 40
0.9971401683983395
 40
1.0
 40
1.0
 40
1.0
 40
1.0
 10
210.6372250255097
 20
66.84101157510587
 30
0.0
 10
210.6372250255097
 20
66.83316893454258
 30
0.0
 10
210.6372250255097
 20
66.81737795802509
 30
0.0
 10
210.6372250255097
 20
66.78491744831275
 30
0.0
 10
210.6372250255097
 20
66.74828648818334
 30
0.0
 10
210.6372250255097
 20
66.71247147764963
 30
0.0
 10
210.6372250255097
 20
66.68816870023909
 30
0.0
 10
210.6372250255097
 20
66.67344309043575
 30
0.0
 10
210.6372250255097
 20
66.67190482579981
 30
0.0
 10
210.6372250255097
 20
66.67188184984201
 30
0.0
  0
LINE
  5
308
330
1F
100
AcDbEntity
  8
0
  6
Continuous
 62
     7
370
    25
100
AcDbLine
 10
210.5672035013
 20
66.8770753262
 30
0.0
 11
208.3072465495
 21
66.8770753262
 31
0.0
  0
LINE
  5
309
330
1F
100
AcDbEntity
  8
0
  6
Continuous
 62
     7
370
    25
100
AcDbLine
 10
208.3072465495
 20
66.8770753262
 30
0.0
 11
208.2772250259
 21
67.5285791336
 31
0.0
  0
LINE
  5
30A
330
1F
100
AcDbEntity
  8
0
  6
Continuous
 62
     7
370
    25
100
AcDbLine
 10
208.2372250255
 20
67.5079776102
 30
0.0
 11
208.2372250255
 21
66.8410115753
 31
0.0
  0
LWPOLYLINE
  5
30B
330
1F
100
AcDbEntity
  8
0
  6
Continuous
 62
     7
370
    25
100
AcDbPolyline
 90
        9
 70
   128
 43
0.0
 10
208.2772250259
 20
67.5285791336
 10
208.269421413
 20
67.5281832794
 10
208.2619176885
 20
67.527010933
 10
208.2550022164
 20
67.525107147
 10
208.2489407545
 20
67.522545083
 10
208.2439662412
 20
67.5194231996
 10
208.2402698443
 20
67.5158614689
 10
208.2379936143
 20
67.5119967664
 10
208.2372250251
 20
67.5079776104
  0
LINE
  5
30C
330
1F
100
AcDbEntity
  8
0
  6
Continuous
 62
     7
370
    25
100
AcDbLine
 10
210.6372250255
 20
67.1589898397
 30
0.0
 11
210.6372250255
 21
66.8410115751
 31
0.0
  0
LINE
  5
30D
330
1F
100
AcDbEntity
  8
0
  6
Continuous
 62
     7
370
    25
100
AcDbLine
 10
208.2772250255
 20
67.6740677112
 30
0.0
 11
208.2772250255
 21
67.5285791336
 31
0.0
  0
ARC
  5
30E
330
1F
100
AcDbEntity
  8
0
  6
Continuous
 62
     7
370
    25
100
AcDbCircle
 10
208.2772250255
 20
67.6340677112
 30
0.0
 40
0.040000000000021
100
AcDbArc
 50
90.0000005968
 51
179.9999902896
  0
SPLINE
  5
30F
330
1F
100
AcDbEntity
  8
0
  6
Continuous
 62
     7
370
    25
100
AcDbSpline
210
0.0
220
0.0
230
1.0
 70
    24
 71
     3
 72
    11
 73
     7
 74
     0
 42
0.00000001
 43
0.00000001
 40
0.0
 40
0.0
 40
0.0
 40
0.0
 40
0.2498907345344804
 40
0.4999926880819302
 40
0.7498908563950857
 40
0.9999999999999999
 40
0.9999999999999999
 40
0.9999999999999999
 40
0.9999999999999999
 10
208.2372250255097
 20
67.63406771117687
 30
0.0
 10
208.2372250255097
 20
67.63248627009872
 30
0.0
 10
208.2372250255097
 20
67.62932205123651
 30
0.0
 10
208.2372250255097
 20
67.60246520190546
 30
0.0
 10
208.2372250255097
 20
67.56302268058167
 30
0.0
 10
208.2372250255097
 20
67.52633112760866
 30
0.0
 10
208.2372250255097
 20
67.50797761022427
 30
0.0
  0
LINE
  5
310
330
1F
100
AcDbEntity
  8
0
  6
Continuous
 62
     7
370
    25
100
AcDbLine
 10
208.2772250255
 20
67.6740677112
 30
0.0
 11
210.4001310652
 21
67.6740677112
 31
0.0
  0
LINE
  5
311
330
1F
100
AcDbEntity
  8
0
  6
Continuous
 62
     7
370
    25
100
AcDbLine
 10
208.2772250255
 20
67.6740677112
 30
0.0
 11
208.2772250255
 21
67.8140677112
 31
0.0
  0
LINE
  5
312
330
1F
100
AcDbEntity
  8
0
  6
Continuous
 62
     7
370
    25
100
AcDbLine
 10
208.2772250255
 20
67.8140677112
 30
0.0
 11
208.2372250255
 21
67.8140677112
 31
0.0
  0
SPLINE
  5
313
330
1F
100
AcDbEntity
  8
0
  6
Continuous
 62
     7
370
    25
100
AcDbSpline
210
0.0
220
0.0
230
1.0
 70
    24
 71
     3
 72
    13
 73
     9
 74
     0
 42
0.00000001
 43
0.00000001
 40
0.0
 40
0.0
 40
0.0
 40
0.0
 40
0.2394429541664121
 40
0.3695312149819064
 40
0.499999828729671
 40
0.6300882605712609
 40
0.760557045833573
 40
1.0
 40
1.0
 40
1.0
 40
1.0
 10
208.2372250255098
 20
67.81406771117688
 30
0.0
 10
208.2372250255098
 20
67.79143202212838
 30
0.0
 10
208.2372250255098
 20
67.75649846684726
 30
0.0
 10
208.2372250255098
 20
67.71454856940021
 30
0.0
 10
208.2372250255098
 20
67.68591703985315
 30
0.0
 10
208.2372250255098
 20
67.66264041974185
 30
0.0
 10
208.2372250255098
 20
67.64022081853003
 30
0.0
 10
208.2372250255098
 20
67.63648554469391
 30
0.0
 10
208.2372250255098
 20
67.63406771117687
 30
0.0
  0
LINE
  5
314
330
1F
100
AcDbEntity
  8
0
  6
Continuous
 62
     7
370
    25
100
AcDbLine
 10
208.2372250255
 20
67.8896559524
 30
0.0
 11
208.2372250255
 21
67.8140677112
 31
0.0
  0
LINE
  5
315
330
1F
100
AcDbEntity
  8
0
  6
Continuous
 62
     7
370
    25
100
AcDbLine
 10
227.4467535567
 20
54.4452969303
 30
0.0
 11
190.6467535567
 21
54.4452969303
 31
0.0
  0
ARC
  5
316
330
1F
100
AcDbEntity
  8
0
  6
Continuous
 62
     7
370
    25
100
AcDbCircle
 10
190.6467535567
 20
78.4452969303
 30
0.0
 40
0.4000000000000057
100
AcDbArc
 50
90.0
 51
180.0
  0
ARC
  5
317
330
1F
100
AcDbEntity
  8
0
  6
Continuous
 62
     7
370
    25
100
AcDbCircle
 10
190.6467535567
 20
54.8452969303
 30
0.0
 40
0.4000000000000057
100
AcDbArc
 50
180.0
 51
270.0
  0
LINE
  5
318
330
1F
100
AcDbEntity
  8
0
  6
Continuous
 62
     7
370
    25
100
AcDbLine
 10
190.2467535567
 20
54.8452969303
 30
0.0
 11
190.2467535567
 21
66.1452969303
 31
0.0
  0
LINE
  5
319
330
1F
100
AcDbEntity
  8
0
  6
Continuous
 62
     7
370
    25
100
AcDbLine
 10
190.2467535567
 20
67.1452969303
 30
0.0
 11
190.2467535567
 21
78.4452969303
 31
0.0
  0
ARC
  5
31A
330
1F
100
AcDbEntity
  8
0
  6
Continuous
 62
     7
370
    25
100
AcDbCircle
 10
227.4467535567
 20
78.4452969303
 30
0.0
 40
0.4000000000000057
100
AcDbArc
 50
0.0
 51
90.0
  0
LINE
  5
31B
330
1F
100
AcDbEntity
  8
0
  6
Continuous
 62
     7
370
    25
100
AcDbLine
 10
190.6467535567
 20
78.8452969303
 30
0.0
 11
193.2804063626
 21
78.8452969303
 31
0.0
  0
LINE
  5
31C
330
1F
100
AcDbEntity
  8
0
  6
Continuous
 62
     7
370
    25
100
AcDbLine
 10
224.8131007509
 20
78.8452969303
 30
0.0
 11
227.4467535567
 21
78.8452969303
 31
0.0
  0
LINE
  5
31D
330
1F
100
AcDbEntity
  8
0
  6
Continuous
 62
     7
370
    25
100
AcDbLine
 10
227.8467535567
 20
78.4452969303
 30
0.0
 11
227.8467535567
 21
67.1452969303
 31
0.0
  0
LINE
  5
31E
330
1F
100
AcDbEntity
  8
0
  6
Continuous
 62
     7
370
    25
100
AcDbLine
 10
227.8467535567
 20
66.1452969303
 30
0.0
 11
227.8467535567
 21
54.8452969303
 31
0.0
  0
ARC
  5
31F
330
1F
100
AcDbEntity
  8
0
  6
Continuous
 62
     7
370
    25
100
AcDbCircle
 10
227.4467535567
 20
54.8452969303
 30
0.0
 40
0.4000000000000057
100
AcDbArc
 50
270.0
 51
0.0
  0
LINE
  5
320
330
1F
100
AcDbEntity
  8
0
  6
Continuous
 62
     8
370
    25
100
AcDbLine
 10
196.7518986864
 20
80.5905326523
 30
0.0
 11
195.0467535567
 21
80.5905326523
 31
0.0
  0
LINE
  5
321
330
1F
100
AcDbEntity
  8
0
  6
Continuous
 62
     8
370
    25
100
AcDbLine
 10
223.0467535567
 20
80.6905326523
 30
0.0
 11
221.3416084271
 21
80.6905326523
 31
0.0
  0
LINE
  5
322
330
1F
100
AcDbEntity
  8
0
  6
Continuous
 62
     8
370
    25
100
AcDbLine
 10
202.4810681318
 20
74.8452969303
 30
0.0
 11
203.2756264437
 21
74.8452969303
 31
0.0
  0
LINE
  5
323
330
1F
100
AcDbEntity
  8
0
  6
Continuous
 62
     8
370
    25
100
AcDbLine
 10
220.1392413264
 20
77.0452969303
 30
0.0
 11
220.1814035768
 21
77.3452969303
 31
0.0
  0
LINE
  5
324
330
1F
100
AcDbEntity
  8
0
  6
Continuous
 62
     8
370
    25
100
AcDbLine
 10
220.2657280776
 20
77.9452969303
 30
0.0
 11
220.2938362446
 21
78.1452969303
 31
0.0
  0
LINE
  5
325
330
1F
100
AcDbEntity
  8
0
  6
Continuous
 62
     8
370
    25
100
AcDbLine
 10
197.7647196166
 20
78.1452969303
 30
0.0
 11
197.7863086471
 21
77.9452969303
 31
0.0
  0
LINE
  5
326
330
1F
100
AcDbEntity
  8
0
  6
Continuous
 62
     8
370
    25
100
AcDbLine
 10
197.8510757384
 20
77.3452969303
 30
0.0
 11
197.883459284
 21
77.0452969303
 31
0.0
  0
LINE
  5
327
330
1F
100
AcDbEntity
  8
0
  6
Continuous
 62
     8
370
    25
100
AcDbLine
 10
214.1957913198
 20
74.438321283
 30
0.0
 11
214.7499729881
 21
74.438321283
 31
0.0
  0
LINE
  5
328
330
1F
100
AcDbEntity
  8
0
  6
Continuous
 62
     8
370
    25
100
AcDbLine
 10
203.8153290568
 20
74.438321283
 30
0.0
 11
203.8977157937
 21
74.438321283
 31
0.0
  0
LINE
  5
329
330
1F
100
AcDbEntity
  8
0
  6
Continuous
 62
     8
370
    25
100
AcDbLine
 10
203.3435341253
 20
74.438321283
 30
0.0
 11
203.8153290568
 21
74.438321283
 31
0.0
  0
LINE
  5
32A
330
1F
100
AcDbEntity
  8
0
  6
Continuous
 62
     8
370
    25
100
AcDbLine
 10
214.7499729881
 20
74.438321283
 30
0.0
 11
214.7894221602
 21
74.438321283
 31
0.0
  0
LINE
  5
32B
330
1F
100
AcDbEntity
  8
0
  6
Continuous
 62
     8
370
    25
100
AcDbLine
 10
203.3040849533
 20
74.438321283
 30
0.0
 11
203.3435341253
 21
74.438321283
 31
0.0
  0
LINE
  5
32C
330
1F
100
AcDbEntity
  8
0
  6
Continuous
 62
     8
370
    25
100
AcDbLine
 10
208.8372250255
 20
68.1934206356
 30
0.0
 11
208.8372250255
 21
68.3323351026
 31
0.0
  0
SPLINE
  5
32D
330
1F
100
AcDbEntity
  8
0
  6
Continuous
 62
     8
370
    25
100
AcDbSpline
210
0.0
220
0.0
230
1.0
 70
     8
 71
     3
 72
    14
 73
    10
 74
     0
 42
0.00000001
 43
0.00000001
 40
0.0
 40
0.0
 40
0.0
 40
0.0
 40
0.1673470109810911
 40
0.3284220085163725
 40
0.49257167349697
 40
0.6460707825226993
 40
0.742729927577032
 40
0.852967851102664
 40
1.0
 40
1.0
 40
1.0
 40
1.0
 10
208.3278254008976
 20
66.5791423715958
 30
0.0
 10
208.3304130479894
 20
66.5761989828547
 30
0.0
 10
208.3354913595185
 20
66.57042252089981
 30
0.0
 10
208.3380326469229
 20
66.59934683631565
 30
0.0
 10
208.3351707478992
 20
66.65028816504542
 30
0.0
 10
208.3284284181019
 20
66.70924787649763
 30
0.0
 10
208.3216543929722
 20
66.76443475859098
 30
0.0
 10
208.3143967548431
 20
66.82000272696031
 30
0.0
 10
208.3098468568674
 20
66.85631979611092
 30
0.0
 10
208.3072465494537
 20
66.87707532615987
 30
0.0
  0
SPLINE
  5
32E
330
1F
100
AcDbEntity
  8
0
  6
Continuous
 62
     8
370
    25
100
AcDbSpline
210
0.0
220
0.0
230
1.0
 70
     8
 71
     3
 72
    16
 73
    12
 74
     0
 42
0.00000001
 43
0.00000001
 40
0.0
 40
0.0
 40
0.0
 40
0.0
 40
0.0775969538649584
 40
0.1617511209145193
 40
0.2410178667624378
 40
0.3844721786833693
 40
0.5333956358314674
 40
0.6782962747651775
 40
0.7644253880575639
 40
0.8652568771356414
 40
1.0
 40
1.0
 40
1.0
 40
1.0
 10
210.5517890805572
 20
66.59634616632586
 30
0.0
 10
210.5500929726404
 20
66.58998648046226
 30
0.0
 10
210.5465574297737
 20
66.57672969310316
 30
0.0
 10
210.5425901877071
 20
66.57306936842356
 30
0.0
 10
210.5386251369725
 20
66.57645303933843
 30
0.0
 10
210.5362343054614
 20
66.59943242707769
 30
0.0
 10
210.5393578763679
 20
66.65039255473455
 30
0.0
 10
210.5459720656198
 20
66.70945877547005
 30
0.0
 10
210.5528740871882
 20
66.76491906827354
 30
0.0
 10
210.5600515306053
 20
66.82003348544069
 30
0.0
 10
210.5646011985067
 20
66.85632018799063
 30
0.0
 10
210.5672035012589
 20
66.87707532615987
 30
0.0
  0
LINE
  5
32F
330
1F
100
AcDbEntity
  8
0
  6
Continuous
 62
     8
370
    25
100
AcDbLine
 10
210.588945105
 20
67.348894741
 30
0.0
 11
210.5672035013
 21
66.8770753262
 31
0.0
  0
LINE
  5
330
330
1F
100
AcDbEntity
  8
0
  6
Continuous
 62
     8
370
    25
100
AcDbLine
 10
210.4992729367
 20
67.5285791336
 30
0.0
 11
208.2772250259
 21
67.5285791336
 31
0.0
  0
LINE
  5
331
330
1F
100
AcDbEntity
  8
0
  6
Continuous
 62
     8
370
    25
100
AcDbLine
 10
208.4409164428
 20
67.8140677112
 30
0.0
 11
208.2772250255
 21
67.8140677112
 31
0.0
  0
LINE
  5
332
330
1F
100
AcDbEntity
  8
0
  6
Continuous
 62
     8
370
    25
100
AcDbLine
 10
208.2772250255
 20
67.8140677112
 30
0.0
 11
208.2772250255
 21
67.87180878
 31
0.0
  0
ENDSEC
  0
SECTION
  2
OBJECTS
  0
DICTIONARY
  5
C
330
0
100
AcDbDictionary
281
     1
  3
ACAD_GROUP
350
D
  3
ACAD_LAYOUT
350
1A
  3
ACAD_MLINESTYLE
350
17
  3
ACAD_PLOTSETTINGS
350
19
  3
ACAD_PLOTSTYLENAME
350
E
  3
ACAD_SCALELIST
350
47
  3
DWGPROPS
350
333
  0
DICTIONARY
  5
D
102
{ACAD_REACTORS
330
C
102
}
330
C
100
AcDbDictionary
281
     1
  0
DICTIONARY
  5
1A
102
{ACAD_REACTORS
330
C
102
}
330
C
100
AcDbDictionary
281
     1
  3
Layout1
350
1E
  3
Layout2
350
26
  3
Model
350
22
  0
DICTIONARY
  5
17
102
{ACAD_REACTORS
330
C
102
}
330
C
100
AcDbDictionary
281
     1
  3
Standard
350
18
  0
DICTIONARY
  5
19
102
{ACAD_REACTORS
330
C
102
}
330
C
100
AcDbDictionary
281
     1
  0
ACDBDICTIONARYWDFLT
  5
E
102
{ACAD_REACTORS
330
C
102
}
330
C
100
AcDbDictionary
281
     1
  3
Normal
350
F
100
AcDbDictionaryWithDefault
340
F
  0
DICTIONARY
  5
47
102
{ACAD_REACTORS
330
C
102
}
330
C
100
AcDbDictionary
281
     1
  3
A0
350
48
  3
A1
350
49
  3
A2
350
4A
  3
A3
350
4B
  3
A4
350
4C
  3
A5
350
4D
  3
A6
350
4E
  3
A7
350
4F
  3
A8
350
50
  3
A9
350
51
  3
B0
350
52
  3
B1
350
53
  3
B2
350
54
  3
B3
350
55
  3
B4
350
56
  3
B5
350
57
  3
B6
350
58
  3
B7
350
59
  3
B8
350
5A
  3
B9
350
5B
  3
C0
350
5C
  3
C1
350
5D
  3
C2
350
5E
  3
C3
350
5F
  3
C4
350
60
  3
C5
350
61
  3
C6
350
62
  3
C7
350
63
  3
C8
350
64
  3
C9
350
65
  3
D0
350
66
  3
D1
350
67
  3
D2
350
68
  0
XRECORD
  5
333
102
{ACAD_REACTORS
330
C
102
}
330
C
100
AcDbXrecord
280
     1
  1
DWGPROPS COOKIE
  2

  3

  4

  6

  7

  8
eakin
  9

300
=
301
=
302
=
303
=
304
=
305
=
306
=
307
=
308
=
309
=
 40
0.0
 41
2459748.468197118
 42
2459748.468197396
  1

 90
        0
  0
LAYOUT
  5
1E
102
{ACAD_REACTORS
330
1A
102
}
330
1A
100
AcDbPlotSettings
  1

  2
none_device
  4

  6

 40
0.0
 41
0.0
 42
0.0
 43
0.0
 44
0.0
 45
0.0
 46
0.0
 47
0.0
 48
0.0
 49
0.0
140
0.0
141
0.0
142
1.0
143
1.0
 70
   688
 72
     1
 73
     0
 74
     5
  7

 75
    16
147
1.0
148
0.0
149
0.0
100
AcDbLayout
  1
Layout1
 70
     1
 71
     1
 10
0.0
 20
0.0
 11
420.0
 21
297.0
 12
0.0
 22
0.0
 32
0.0
 14
1.0000000000E+20
 24
1.0000000000E+20
 34
1.0000000000E+20
 15
-1.0000000000E+20
 25
-1.0000000000E+20
 35
-1.0000000000E+20
146
0.0
 13
0.0
 23
0.0
 33
0.0
 16
1.0
 26
0.0
 36
0.0
 17
0.0
 27
1.0
 37
0.0
 76
     0
330
1B
  0
LAYOUT
  5
26
102
{ACAD_REACTORS
330
1A
102
}
330
1A
100
AcDbPlotSettings
  1

  2
none_device
  4

  6

 40
0.0
 41
0.0
 42
0.0
 43
0.0
 44
0.0
 45
0.0
 46
0.0
 47
0.0
 48
0.0
 49
0.0
140
0.0
141
0.0
142
1.0
143
1.0
 70
   688
 72
     1
 73
     0
 74
     5
  7

 75
    16
147
1.0
148
0.0
149
0.0
100
AcDbLayout
  1
Layout2
 70
     1
 71
     2
 10
0.0
 20
0.0
 11
0.0
 21
0.0
 12
0.0
 22
0.0
 32
0.0
 14
0.0
 24
0.0
 34
0.0
 15
0.0
 25
0.0
 35
0.0
146
0.0
 13
0.0
 23
0.0
 33
0.0
 16
1.0
 26
0.0
 36
0.0
 17
0.0
 27
1.0
 37
0.0
 76
     0
330
23
  0
LAYOUT
  5
22
102
{ACAD_REACTORS
330
1A
102
}
330
1A
100
AcDbPlotSettings
  1

  2
none_device
  4
Letter_(8.50_x_11.00_Inches)
  6

 40
6.35
 41
6.35
 42
6.35000508
 43
6.35000508
 44
215.9
 45
279.4
 46
0.0
 47
0.0
 48
0.0
 49
0.0
140
0.0
141
0.0
142
1.0
143
1.0
 70
  1712
 72
     1
 73
     0
 74
     0
  7

 75
     0
147
1.0
148
0.0
149
0.0
100
AcDbLayout
  1
Model
 70
     1
 71
     0
 10
0.0
 20
0.0
 11
420.0
 21
297.0
 12
0.0
 22
0.0
 32
0.0
 14
0.0
 24
0.0
 34
0.0
 15
420.0
 25
297.0
 35
0.0
146
0.0
 13
0.0
 23
0.0
 33
0.0
 16
1.0
 26
0.0
 36
0.0
 17
0.0
 27
1.0
 37
0.0
 76
     0
330
1F
331
29
  0
MLINESTYLE
  5
18
102
{ACAD_REACTORS
330
17
102
}
330
17
100
AcDbMlineStyle
  2
Standard
 70
     0
  3

 62
   256
 51
90.0
 52
90.0
 71
     2
 49
0.5
 62
   256
  6
BYLAYER
 49
-0.5
 62
   256
  6
BYLAYER
  0
ACDBPLACEHOLDER
  5
F
102
{ACAD_REACTORS
330
E
102
}
330
E
  0
SCALE
  5
48
102
{ACAD_REACTORS
330
47
102
}
330
47
100
AcDbScale
 70
     0
300
1:1
140
1.0
141
1.0
290
     1
  0
SCALE
  5
49
102
{ACAD_REACTORS
330
47
102
}
330
47
100
AcDbScale
 70
     0
300
1:2
140
1.0
141
2.0
290
     0
  0
SCALE
  5
4A
102
{ACAD_REACTORS
330
47
102
}
330
47
100
AcDbScale
 70
     0
300
1:4
140
1.0
141
4.0
290
     0
  0
SCALE
  5
4B
102
{ACAD_REACTORS
330
47
102
}
330
47
100
AcDbScale
 70
     0
300
1:5
140
1.0
141
5.0
290
     0
  0
SCALE
  5
4C
102
{ACAD_REACTORS
330
47
102
}
330
47
100
AcDbScale
 70
     0
300
1:8
140
1.0
141
8.0
290
     0
  0
SCALE
  5
4D
102
{ACAD_REACTORS
330
47
102
}
330
47
100
AcDbScale
 70
     0
300
1:10
140
1.0
141
10.0
290
     0
  0
SCALE
  5
4E
102
{ACAD_REACTORS
330
47
102
}
330
47
100
AcDbScale
 70
     0
300
1:16
140
1.0
141
16.0
290
     0
  0
SCALE
  5
4F
102
{ACAD_REACTORS
330
47
102
}
330
47
100
AcDbScale
 70
     0
300
1:20
140
1.0
141
20.0
290
     0
  0
SCALE
  5
50
102
{ACAD_REACTORS
330
47
102
}
330
47
100
AcDbScale
 70
     0
300
1:30
140
1.0
141
30.0
290
     0
  0
SCALE
  5
51
102
{ACAD_REACTORS
330
47
102
}
330
47
100
AcDbScale
 70
     0
300
1:40
140
1.0
141
40.0
290
     0
  0
SCALE
  5
52
102
{ACAD_REACTORS
330
47
102
}
330
47
100
AcDbScale
 70
     0
300
1:50
140
1.0
141
50.0
290
     0
  0
SCALE
  5
53
102
{ACAD_REACTORS
330
47
102
}
330
47
100
AcDbScale
 70
     0
300
1:100
140
1.0
141
100.0
290
     0
  0
SCALE
  5
54
102
{ACAD_REACTORS
330
47
102
}
330
47
100
AcDbScale
 70
     0
300
2:1
140
2.0
141
1.0
290
     0
  0
SCALE
  5
55
102
{ACAD_REACTORS
330
47
102
}
330
47
100
AcDbScale
 70
     0
300
4:1
140
4.0
141
1.0
290
     0
  0
SCALE
  5
56
102
{ACAD_REACTORS
330
47
102
}
330
47
100
AcDbScale
 70
     0
300
8:1
140
8.0
141
1.0
290
     0
  0
SCALE
  5
57
102
{ACAD_REACTORS
330
47
102
}
330
47
100
AcDbScale
 70
     0
300
10:1
140
10.0
141
1.0
290
     0
  0
SCALE
  5
58
102
{ACAD_REACTORS
330
47
102
}
330
47
100
AcDbScale
 70
     0
300
100:1
140
100.0
141
1.0
290
     0
  0
SCALE
  5
59
102
{ACAD_REACTORS
330
47
102
}
330
47
100
AcDbScale
 70
     0
300
1/128" = 1'-0"
140
0.0078125
141
12.0
290
     0
  0
SCALE
  5
5A
102
{ACAD_REACTORS
330
47
102
}
330
47
100
AcDbScale
 70
     0
300
1/64" = 1'-0"
140
0.015625
141
12.0
290
     0
  0
SCALE
  5
5B
102
{ACAD_REACTORS
330
47
102
}
330
47
100
AcDbScale
 70
     0
300
1/32" = 1'-0"
140
0.03125
141
12.0
290
     0
  0
SCALE
  5
5C
102
{ACAD_REACTORS
330
47
102
}
330
47
100
AcDbScale
 70
     0
300
1/16" = 1'-0"
140
0.0625
141
12.0
290
     0
  0
SCALE
  5
5D
102
{ACAD_REACTORS
330
47
102
}
330
47
100
AcDbScale
 70
     0
300
3/32" = 1'-0"
140
0.09375
141
12.0
290
     0
  0
SCALE
  5
5E
102
{ACAD_REACTORS
330
47
102
}
330
47
100
AcDbScale
 70
     0
300
1/8" = 1'-0"
140
0.125
141
12.0
290
     0
  0
SCALE
  5
5F
102
{ACAD_REACTORS
330
47
102
}
330
47
100
AcDbScale
 70
     0
300
3/16" = 1'-0"
140
0.1875
141
12.0
290
     0
  0
SCALE
  5
60
102
{ACAD_REACTORS
330
47
102
}
330
47
100
AcDbScale
 70
     0
300
1/4" = 1'-0"
140
0.25
141
12.0
290
     0
  0
SCALE
  5
61
102
{ACAD_REACTORS
330
47
102
}
330
47
100
AcDbScale
 70
     0
300
3/8" = 1'-0"
140
0.375
141
12.0
290
     0
  0
SCALE
  5
62
102
{ACAD_REACTORS
330
47
102
}
330
47
100
AcDbScale
 70
     0
300
1/2" = 1'-0"
140
0.5
141
12.0
290
     0
  0
SCALE
  5
63
102
{ACAD_REACTORS
330
47
102
}
330
47
100
AcDbScale
 70
     0
300
3/4" = 1'-0"
140
0.75
141
12.0
290
     0
  0
SCALE
  5
64
102
{ACAD_REACTORS
330
47
102
}
330
47
100
AcDbScale
 70
     0
300
1" = 1'-0"
140
1.0
141
12.0
290
     0
  0
SCALE
  5
65
102
{ACAD_REACTORS
330
47
102
}
330
47
100
AcDbScale
 70
     0
300
1-1/2" = 1'-0"
140
1.5
141
12.0
290
     0
  0
SCALE
  5
66
102
{ACAD_REACTORS
330
47
102
}
330
47
100
AcDbScale
 70
     0
300
3" = 1'-0"
140
3.0
141
12.0
290
     0
  0
SCALE
  5
67
102
{ACAD_REACTORS
330
47
102
}
330
47
100
AcDbScale
 70
     0
300
6" = 1'-0"
140
6.0
141
12.0
290
     0
  0
SCALE
  5
68
102
{ACAD_REACTORS
330
47
102
}
330
47
100
AcDbScale
 70
     0
300
1'-0" = 1'-0"
140
12.0
141
12.0
290
     0
  0
ENDSEC
  0
EOF
