  0
SECTION
  2
HEADER
  9
$ACADVER
  1
AC1015
  9
$ACADMAINTVER
 70
     6
  9
$DWGCODEPAGE
  3
ANSI_1254
  9
$INSBASE
 10
0.0
 20
0.0
 30
0.0
  9
$EXTMIN
 10
0.0
 20
0.0
 30
0.0
  9
$EXTMAX
 10
1189.0
 20
841.0
 30
0.0
  9
$LIMMIN
 10
0.0
 20
0.0
  9
$LIMMAX
 10
1189.0
 20
841.0
  9
$ORTHOMODE
 70
     0
  9
$REGENMODE
 70
     1
  9
$FILLMODE
 70
     1
  9
$QTEXTMODE
 70
     0
  9
$MIRRTEXT
 70
     1
  9
$LTSCALE
 40
1.0
  9
$ATTMODE
 70
     1
  9
$TEXTSIZE
 40
4.9388888889
  9
$TRACEWID
 40
1.0
  9
$TEXTSTYLE
  7
Standard
  9
$CLAYER
  8
0
  9
$CELTYPE
  6
ByLayer
  9
$CECOLOR
 62
   256
  9
$CELTSCALE
 40
1.0
  9
$DISPSILH
 70
     0
  9
$DIMSCALE
 40
1.0
  9
$DIMASZ
 40
3.65
  9
$DIMEXO
 40
0.5
  9
$DIMDLI
 40
3.75
  9
$DIMRND
 40
0.0
  9
$DIMDLE
 40
0.0
  9
$DIMEXE
 40
1.0
  9
$DIMTP
 40
0.0
  9
$DIMTM
 40
0.0
  9
$DIMTXT
 40
4.2333333333
  9
$DIMCEN
 40
2.5
  9
$DIMTSZ
 40
0.0
  9
$DIMTOL
 70
     0
  9
$DIMLIM
 70
     0
  9
$DIMTIH
 70
     1
  9
$DIMTOH
 70
     1
  9
$DIMSE1
 70
     0
  9
$DIMSE2
 70
     0
  9
$DIMTAD
 70
     1
  9
$DIMZIN
 70
     0
  9
$DIMBLK
  1

  9
$DIMASO
 70
     1
  9
$DIMSHO
 70
     1
  9
$DIMPOST
  1

  9
$DIMAPOST
  1

  9
$DIMALT
 70
     0
  9
$DIMALTD
 70
     3
  9
$DIMALTF
 40
0.0393700787
  9
$DIMLFAC
 40
1.0
  9
$DIMTOFL
 70
     1
  9
$DIMTVP
 40
0.0
  9
$DIMTIX
 70
     0
  9
$DIMSOXD
 70
     0
  9
$DIMSAH
 70
     0
  9
$DIMBLK1
  1

  9
$DIMBLK2
  1

  9
$DIMSTYLE
  2
ISO-25
  9
$DIMCLRD
 70
     0
  9
$DIMCLRE
 70
     0
  9
$DIMCLRT
 70
     0
  9
$DIMTFAC
 40
1.0
  9
$DIMGAP
 40
1.524
  9
$DIMJUST
 70
     0
  9
$DIMSD1
 70
     0
  9
$DIMSD2
 70
     0
  9
$DIMTOLJ
 70
     0
  9
$DIMTZIN
 70
     0
  9
$DIMALTZ
 70
     0
  9
$DIMALTTZ
 70
     0
  9
$DIMUPT
 70
     0
  9
$DIMDEC
 70
     2
  9
$DIMTDEC
 70
     2
  9
$DIMALTU
 70
     2
  9
$DIMALTTD
 70
     3
  9
$DIMTXSTY
  7
Standard
  9
$DIMAUNIT
 70
     0
  9
$DIMADEC
 70
     2
  9
$DIMALTRND
 40
0.0
  9
$DIMAZIN
 70
     0
  9
$DIMDSEP
 70
    44
  9
$DIMATFIT
 70
     3
  9
$DIMFRAC
 70
     0
  9
$DIMLDRBLK
  1

  9
$DIMLUNIT
 70
     2
  9
$DIMLWD
 70
    -2
  9
$DIMLWE
 70
    -2
  9
$DIMTMOVE
 70
     0
  9
$LUNITS
 70
     2
  9
$LUPREC
 70
     2
  9
$SKETCHINC
 40
1.0
  9
$FILLETRAD
 40
10.0
  9
$AUNITS
 70
     0
  9
$AUPREC
 70
     2
  9
$MENU
  1
.
  9
$ELEVATION
 40
0.0
  9
$PELEVATION
 40
0.0
  9
$THICKNESS
 40
0.0
  9
$LIMCHECK
 70
     0
  9
$CHAMFERA
 40
0.0
  9
$CHAMFERB
 40
0.0
  9
$CHAMFERC
 40
0.0
  9
$CHAMFERD
 40
0.0
  9
$SKPOLY
 70
     0
  9
$TDCREATE
 40
2459076.475470729
  9
$TDUCREATE
 40
2459076.350470729
  9
$TDUPDATE
 40
2459076.475472593
  9
$TDUUPDATE
 40
2459076.350472593
  9
$TDINDWG
 40
0.0000000116
  9
$TDUSRTIMER
 40
0.0000000116
  9
$USRTIMER
 70
     1
  9
$ANGBASE
 50
0.0
  9
$ANGDIR
 70
     0
  9
$PDMODE
 70
     0
  9
$PDSIZE
 40
-1.0
  9
$PLINEWID
 40
0.0
  9
$SPLFRAME
 70
     0
  9
$SPLINETYPE
 70
     6
  9
$SPLINESEGS
 70
     8
  9
$HANDSEED
  5
5F8
  9
$SURFTAB1
 70
     6
  9
$SURFTAB2
 70
     6
  9
$SURFTYPE
 70
     6
  9
$SURFU
 70
     6
  9
$SURFV
 70
     6
  9
$UCSBASE
  2

  9
$UCSNAME
  2

  9
$UCSORG
 10
0.0
 20
0.0
 30
0.0
  9
$UCSXDIR
 10
1.0
 20
0.0
 30
0.0
  9
$UCSYDIR
 10
0.0
 20
1.0
 30
0.0
  9
$UCSORTHOREF
  2

  9
$UCSORTHOVIEW
 70
     0
  9
$UCSORGTOP
 10
0.0
 20
0.0
 30
0.0
  9
$UCSORGBOTTOM
 10
0.0
 20
0.0
 30
0.0
  9
$UCSORGLEFT
 10
0.0
 20
0.0
 30
0.0
  9
$UCSORGRIGHT
 10
0.0
 20
0.0
 30
0.0
  9
$UCSORGFRONT
 10
0.0
 20
0.0
 30
0.0
  9
$UCSORGBACK
 10
0.0
 20
0.0
 30
0.0
  9
$PUCSBASE
  2

  9
$PUCSNAME
  2

  9
$PUCSORG
 10
0.0
 20
0.0
 30
0.0
  9
$PUCSXDIR
 10
1.0
 20
0.0
 30
0.0
  9
$PUCSYDIR
 10
0.0
 20
1.0
 30
0.0
  9
$PUCSORTHOREF
  2

  9
$PUCSORTHOVIEW
 70
     0
  9
$PUCSORGTOP
 10
0.0
 20
0.0
 30
0.0
  9
$PUCSORGBOTTOM
 10
0.0
 20
0.0
 30
0.0
  9
$PUCSORGLEFT
 10
0.0
 20
0.0
 30
0.0
  9
$PUCSORGRIGHT
 10
0.0
 20
0.0
 30
0.0
  9
$PUCSORGFRONT
 10
0.0
 20
0.0
 30
0.0
  9
$PUCSORGBACK
 10
0.0
 20
0.0
 30
0.0
  9
$USERI1
 70
     0
  9
$USERI2
 70
     0
  9
$USERI3
 70
     0
  9
$USERI4
 70
     0
  9
$USERI5
 70
     0
  9
$USERR1
 40
0.0
  9
$USERR2
 40
0.0
  9
$USERR3
 40
0.0
  9
$USERR4
 40
0.0
  9
$USERR5
 40
0.0
  9
$WORLDVIEW
 70
     1
  9
$SHADEDGE
 70
     3
  9
$SHADEDIF
 70
    70
  9
$TILEMODE
 70
     1
  9
$MAXACTVP
 70
    64
  9
$PINSBASE
 10
0.0
 20
0.0
 30
0.0
  9
$PLIMCHECK
 70
     0
  9
$PEXTMIN
 10
1.0000000000E+20
 20
1.0000000000E+20
 30
1.0000000000E+20
  9
$PEXTMAX
 10
-1.0000000000E+20
 20
-1.0000000000E+20
 30
-1.0000000000E+20
  9
$PLIMMIN
 10
0.0
 20
0.0
  9
$PLIMMAX
 10
420.0
 20
297.0
  9
$UNITMODE
 70
     0
  9
$VISRETAIN
 70
     1
  9
$PLINEGEN
 70
     0
  9
$PSLTSCALE
 70
     1
  9
$TREEDEPTH
 70
  3020
  9
$CMLSTYLE
  2
Standard
  9
$CMLJUST
 70
     0
  9
$CMLSCALE
 40
20.0
  9
$PROXYGRAPHICS
 70
     1
  9
$MEASUREMENT
 70
     1
  9
$CELWEIGHT
370
    -1
  9
$ENDCAPS
280
     0
  9
$JOINSTYLE
280
     0
  9
$LWDISPLAY
290
     1
  9
$INSUNITS
 70
     4
  9
$HYPERLINKBASE
  1

  9
$STYLESHEET
  1

  9
$XEDIT
290
     1
  9
$CEPSNTYPE
380
     0
  9
$PSTYLEMODE
290
     1
  9
$FINGERPRINTGUID
  2
{4fbf9ad3-e7e5-45fb-bdfb-3397d4eeb7ad}
  9
$VERSIONGUID
  2
{FAEB1C32-E019-11D5-929B-00C0DF256EC4}
  9
$EXTNAMES
290
     1
  9
$PSVPSCALE
 40
0.0
  9
$OLESTARTUP
290
     0
  0
ENDSEC
  0
SECTION
  2
CLASSES
  0
CLASS
  1
ACDBDICTIONARYWDFLT
  2
AcDbDictionaryWithDefault
  3
ObjectDBX Classes
 90
        0
280
     0
281
     0
  0
CLASS
  1
VISUALSTYLE
  2
AcDbVisualStyle
  3
ObjectDBX Classes
 90
     4095
280
     0
281
     0
  0
CLASS
  1
MATERIAL
  2
AcDbMaterial
  3
ObjectDBX Classes
 90
     1153
280
     0
281
     0
  0
CLASS
  1
SCALE
  2
AcDbScale
  3
ObjectDBX Classes
 90
     1153
280
     0
281
     0
  0
CLASS
  1
TABLESTYLE
  2
AcDbTableStyle
  3
ObjectDBX Classes
 90
     4095
280
     0
281
     0
  0
CLASS
  1
MLEADERSTYLE
  2
AcDbMLeaderStyle
  3
ACDB_MLEADERSTYLE_CLASS
 90
     4095
280
     0
281
     0
  0
CLASS
  1
SUN
  2
AcDbSun
  3
SCENEOE
 90
     1153
280
     0
281
     0
  0
CLASS
  1
ACDBPLACEHOLDER
  2
AcDbPlaceHolder
  3
ObjectDBX Classes
 90
        0
280
     0
281
     0
  0
CLASS
  1
LAYOUT
  2
AcDbLayout
  3
ObjectDBX Classes
 90
        0
280
     0
281
     0
  0
ENDSEC
  0
SECTION
  2
TABLES
  0
TABLE
  2
VPORT
  5
8
330
0
100
AcDbSymbolTable
 70
     1
  0
VPORT
  5
29
330
8
100
AcDbSymbolTableRecord
100
AcDbViewportTableRecord
  2
*Active
 70
     0
 10
0.0
 20
0.0
 11
1.0
 21
1.0
 12
594.5
 22
420.5
 13
0.0
 23
0.0
 14
10.0
 24
10.0
 15
10.0
 25
10.0
 16
0.0
 26
0.0
 36
1.0
 17
0.0
 27
0.0
 37
0.0
 40
841.0
 41
1.4137931034
 42
50.0
 43
0.0
 44
0.0
 50
0.0
 51
0.0
 71
     0
 72
  2000
 73
     1
 74
     3
 75
     0
 76
     0
 77
     0
 78
     0
281
     0
 65
     1
110
0.0
120
0.0
130
0.0
111
1.0
121
0.0
131
0.0
112
0.0
122
1.0
132
0.0
 79
     0
146
0.0
  0
ENDTAB
  0
TABLE
  2
LTYPE
  5
5
330
0
100
AcDbSymbolTable
 70
     6
  0
LTYPE
  5
14
330
5
100
AcDbSymbolTableRecord
100
AcDbLinetypeTableRecord
  2
ByBlock
 70
     0
  3

 72
    65
 73
     0
 40
0.0
  0
LTYPE
  5
15
330
5
100
AcDbSymbolTableRecord
100
AcDbLinetypeTableRecord
  2
ByLayer
 70
     0
  3

 72
    65
 73
     0
 40
0.0
  0
LTYPE
  5
16
330
5
100
AcDbSymbolTableRecord
100
AcDbLinetypeTableRecord
  2
Continuous
 70
     0
  3
Solid line
 72
    65
 73
     0
 40
0.0
  0
LTYPE
  5
6E
330
5
100
AcDbSymbolTableRecord
100
AcDbLinetypeTableRecord
  2
HIDDEN
 70
     0
  3
Hidden __ __ __ __ __ __ __ __ __ __ __ __ __ __
 72
    65
 73
     2
 40
1.905
 49
1.27
 74
     0
 49
-0.635
 74
     0
  0
LTYPE
  5
6F
330
5
100
AcDbSymbolTableRecord
100
AcDbLinetypeTableRecord
  2
PHANTOM
 70
     0
  3
Phantom ______  __  __  ______  __  __  ______
 72
    65
 73
     6
 40
12.7
 49
6.35
 74
     0
 49
-1.27
 74
     0
 49
1.27
 74
     0
 49
-1.27
 74
     0
 49
1.27
 74
     0
 49
-1.27
 74
     0
  0
LTYPE
  5
70
330
5
100
AcDbSymbolTableRecord
100
AcDbLinetypeTableRecord
  2
CENTER
 70
     0
  3
Center ____ _ ____ _ ____ _ ____ _ ____ _ ____
 72
    65
 73
     4
 40
10.16
 49
6.35
 74
     0
 49
-1.27
 74
     0
 49
1.27
 74
     0
 49
-1.27
 74
     0
  0
LTYPE
  5
71
330
5
100
AcDbSymbolTableRecord
100
AcDbLinetypeTableRecord
  2
CENTERX2
 70
     0
  3
Center (2x) ________  __  ________  __  _____
 72
    65
 73
     4
 40
20.32
 49
12.7
 74
     0
 49
-2.54
 74
     0
 49
2.54
 74
     0
 49
-2.54
 74
     0
  0
LTYPE
  5
72
330
5
100
AcDbSymbolTableRecord
100
AcDbLinetypeTableRecord
  2
DOT2
 70
     0
  3
Dot (.5x) ........................................
 72
    65
 73
     2
 40
0.635
 49
0.0
 74
     0
 49
-0.635
 74
     0
  0
ENDTAB
  0
TABLE
  2
LAYER
  5
2
330
0
100
AcDbSymbolTable
 70
     5
  0
LAYER
  5
10
330
2
100
AcDbSymbolTableRecord
100
AcDbLayerTableRecord
  2
0
 70
     0
 62
     7
  6
Continuous
370
    -3
390
F
  0
LAYER
  5
73
330
2
100
AcDbSymbolTableRecord
100
AcDbLayerTableRecord
  2
FORMAT
 70
     0
 62
     7
  6
Continuous
370
    -3
390
F
  0
LAYER
  5
74
330
2
100
AcDbSymbolTableRecord
100
AcDbLayerTableRecord
  2
SLD-0
 70
     0
 62
   179
  6
Continuous
370
    -3
390
F
  0
LAYER
  5
75
330
2
100
AcDbSymbolTableRecord
100
AcDbLayerTableRecord
  2
AAA_EKSEN
 70
     0
 62
     1
  6
CENTER
370
    -3
390
F
  0
LAYER
  5
76
330
2
100
AcDbSymbolTableRecord
100
AcDbLayerTableRecord
  2
03
 70
     0
 62
     3
  6
HIDDEN
370
    -3
390
F
  0
ENDTAB
  0
TABLE
  2
STYLE
  5
3
330
0
100
AcDbSymbolTable
 70
     1
  0
STYLE
  5
11
330
3
100
AcDbSymbolTableRecord
100
AcDbTextStyleTableRecord
  2
Standard
 70
     0
 40
0.0
 41
1.0
 50
0.0
 71
     0
 42
4.9388888889
  3
txt
  4

  0
ENDTAB
  0
TABLE
  2
VIEW
  5
6
330
0
100
AcDbSymbolTable
 70
     0
  0
ENDTAB
  0
TABLE
  2
UCS
  5
7
330
0
100
AcDbSymbolTable
 70
     0
  0
ENDTAB
  0
TABLE
  2
APPID
  5
9
330
0
100
AcDbSymbolTable
 70
     1
  0
APPID
  5
12
330
9
100
AcDbSymbolTableRecord
100
AcDbRegAppTableRecord
  2
ACAD
 70
     0
  0
ENDTAB
  0
TABLE
  2
DIMSTYLE
  5
A
330
0
100
AcDbSymbolTable
 70
     1
100
AcDbDimStyleTable
  0
DIMSTYLE
105
27
330
A
100
AcDbSymbolTableRecord
100
AcDbDimStyleTableRecord
  2
ISO-25
 70
     0
 41
2.5
 42
0.625
 43
3.75
 44
1.25
 73
     0
 74
     0
 77
     1
 78
     8
140
2.5
141
2.5
143
0.0393700787
147
0.625
171
     3
172
     1
178
     0
271
     2
272
     2
274
     3
278
    44
283
     0
284
     8
340
11
  0
ENDTAB
  0
TABLE
  2
BLOCK_RECORD
  5
1
330
0
100
AcDbSymbolTable
 70
     1
  0
BLOCK_RECORD
  5
1F
330
1
100
AcDbSymbolTableRecord
100
AcDbBlockTableRecord
  2
*Model_Space
340
22
  0
BLOCK_RECORD
  5
1B
330
1
100
AcDbSymbolTableRecord
100
AcDbBlockTableRecord
  2
*Paper_Space
340
1E
  0
BLOCK_RECORD
  5
23
330
1
100
AcDbSymbolTableRecord
100
AcDbBlockTableRecord
  2
*Paper_Space0
340
26
  0
ENDTAB
  0
ENDSEC
  0
SECTION
  2
BLOCKS
  0
BLOCK
  5
20
330
1F
100
AcDbEntity
  8
0
100
AcDbBlockBegin
  2
*Model_Space
 70
     0
 10
0.0
 20
0.0
 30
0.0
  3
*Model_Space
  1

  0
ENDBLK
  5
21
330
1F
100
AcDbEntity
  8
0
100
AcDbBlockEnd
  0
BLOCK
  5
1C
330
1B
100
AcDbEntity
 67
     1
  8
0
100
AcDbBlockBegin
  2
*Paper_Space
 70
     0
 10
0.0
 20
0.0
 30
0.0
  3
*Paper_Space
  1

  0
ENDBLK
  5
1D
330
1B
100
AcDbEntity
 67
     1
  8
0
100
AcDbBlockEnd
  0
BLOCK
  5
24
330
23
100
AcDbEntity
  8
0
100
AcDbBlockBegin
  2
*Paper_Space0
 70
     0
 10
0.0
 20
0.0
 30
0.0
  3
*Paper_Space0
  1

  0
ENDBLK
  5
25
330
23
100
AcDbEntity
  8
0
100
AcDbBlockEnd
  0
ENDSEC
  0
SECTION
  2
ENTITIES
  0
LWPOLYLINE
  5
77
330
1F
100
AcDbEntity
  8
0
  6
Continuous
 62
     7
370
    25
100
AcDbPolyline
 90
        3
 70
   128
 43
0.0
 10
162.7882311175
 20
543.4559958381
 10
162.7318726456
 20
543.523241239
 10
162.6957560788
 20
543.5559958381
  0
LWPOLYLINE
  5
78
330
1F
100
AcDbEntity
  8
0
  6
Continuous
 62
     7
370
    25
100
AcDbPolyline
 90
        3
 70
   128
 43
0.0
 10
162.6957560788
 20
710.4582080845
 10
162.7318726456
 20
710.4909626836
 10
162.7882311175
 20
710.5582080845
  0
LINE
  5
79
330
1F
100
AcDbEntity
  8
0
  6
Continuous
 62
     7
370
    25
100
AcDbLine
 10
160.2483271858
 20
712.6445160742
 30
0.0
 11
160.2577641854
 21
712.6445160742
 31
0.0
  0
LINE
  5
7A
330
1F
100
AcDbEntity
  8
0
  6
Continuous
 62
     7
370
    25
100
AcDbLine
 10
160.4595628426
 20
714.8445160742
 30
0.0
 11
160.5591613143
 21
714.8445160742
 31
0.0
  0
LINE
  5
7B
330
1F
100
AcDbEntity
  8
0
  6
Continuous
 62
     7
370
    25
100
AcDbLine
 10
160.2577641854
 20
712.3445160742
 30
0.0
 11
160.2483271858
 21
712.3445160742
 31
0.0
  0
LINE
  5
7C
330
1F
100
AcDbEntity
  8
0
  6
Continuous
 62
     7
370
    25
100
AcDbLine
 10
163.0538670565
 20
714.8445160742
 30
0.0
 11
163.7566613143
 21
714.8445160742
 31
0.0
  0
ELLIPSE
  5
7D
330
1F
100
AcDbEntity
  8
0
  6
Continuous
 62
     7
370
    25
100
AcDbEllipse
 10
139.3330689576
 20
548.0067971891
 30
0.0
 11
-0.3539842722996412
 21
0.353984272299499
 31
0.0
210
0.0
220
0.0
230
1.0
 40
0.998782766
 41
5.498396131367495
 42
7.067974482991517
  0
LINE
  5
7E
330
1F
100
AcDbEntity
  8
0
  6
Continuous
 62
     7
370
    25
100
AcDbLine
 10
138.8327641854
 20
548.0074065478
 30
0.0
 11
138.8327641854
 21
547.9617551993
 31
0.0
  0
LINE
  5
7F
330
1F
100
AcDbEntity
  8
0
  6
Continuous
 62
     7
370
    25
100
AcDbLine
 10
138.8327641854
 20
539.0523312708
 30
0.0
 11
138.8327641854
 21
539.0067973748
 31
0.0
  0
ELLIPSE
  5
80
330
1F
100
AcDbEntity
  8
0
  6
Continuous
 62
     7
370
    25
100
AcDbEllipse
 10
139.3330689576
 20
539.0074067334
 30
0.0
 11
0.3539842722996127
 21
0.3539842722996127
 31
0.0
210
0.0
220
0.0
230
1.0
 40
0.998782766
 41
2.356803477777929
 42
3.926381829401614
  0
LINE
  5
81
330
1F
100
AcDbEntity
  8
0
  6
Continuous
 62
     7
370
    25
100
AcDbLine
 10
139.3324595989
 20
538.5071019613
 30
0.0
 11
140.0977641854
 21
538.5071019613
 31
0.0
  0
LINE
  5
82
330
1F
100
AcDbEntity
  8
0
  6
Continuous
 62
     7
370
    25
100
AcDbLine
 10
141.7952641854
 20
538.5071019613
 30
0.0
 11
143.2952641854
 21
538.5071019613
 31
0.0
  0
LINE
  5
83
330
1F
100
AcDbEntity
  8
0
  6
Continuous
 62
     7
370
    25
100
AcDbLine
 10
144.9227641854
 20
538.5071019613
 30
0.0
 11
145.7580687719
 21
538.5071019613
 31
0.0
  0
ELLIPSE
  5
84
330
1F
100
AcDbEntity
  8
0
  6
Continuous
 62
     7
370
    25
100
AcDbEllipse
 10
145.7574594133
 20
539.0074067334
 30
0.0
 11
0.3539842722996127
 21
-0.3539842722996127
 31
0.0
210
0.0
220
0.0
230
1.0
 40
0.998782766
 41
5.49839613136768
 42
7.06797448299145
  0
ELLIPSE
  5
85
330
1F
100
AcDbEntity
  8
0
  6
Continuous
 62
     7
370
    25
100
AcDbEllipse
 10
145.7574594133
 20
548.0067971891
 30
0.0
 11
-0.3539842722996411
 21
-0.3539842722996127
 31
0.0
210
0.0
220
0.0
230
1.0
 40
0.998782766
 41
2.356803477777642
 42
3.926381829401812
  0
LINE
  5
86
330
1F
100
AcDbEntity
  8
0
  6
Continuous
 62
     7
370
    25
100
AcDbLine
 10
139.3324595989
 20
548.5071019613
 30
0.0
 11
140.0977641762
 21
548.5071019613
 31
0.0
  0
LINE
  5
87
330
1F
100
AcDbEntity
  8
0
  6
Continuous
 62
     7
370
    25
100
AcDbLine
 10
141.79526509
 20
548.5071019613
 30
0.0
 11
143.2952632808
 21
548.5071019613
 31
0.0
  0
LINE
  5
88
330
1F
100
AcDbEntity
  8
0
  6
Continuous
 62
     7
370
    25
100
AcDbLine
 10
144.9227674481
 20
548.5071019613
 30
0.0
 11
145.7580687719
 21
548.5071019613
 31
0.0
  0
ELLIPSE
  5
89
330
1F
100
AcDbEntity
  8
0
  6
Continuous
 62
     7
370
    25
100
AcDbEllipse
 10
160.1830689576
 20
548.0067971891
 30
0.0
 11
-0.3539842722996127
 21
0.3539842722996127
 31
0.0
210
0.0
220
0.0
230
1.0
 40
0.998782766
 41
5.498396131367676
 42
7.067974482991737
  0
LINE
  5
8A
330
1F
100
AcDbEntity
  8
0
  6
Continuous
 62
     7
370
    25
100
AcDbLine
 10
159.6827641854
 20
548.0074065478
 30
0.0
 11
159.6827641854
 21
547.9713773767
 31
0.0
  0
LINE
  5
8B
330
1F
100
AcDbEntity
  8
0
  6
Continuous
 62
     7
370
    25
100
AcDbLine
 10
159.6827641854
 20
539.0427090934
 30
0.0
 11
159.6827641854
 21
539.0067973748
 31
0.0
  0
ELLIPSE
  5
8C
330
1F
100
AcDbEntity
  8
0
  6
Continuous
 62
     7
370
    25
100
AcDbEllipse
 10
160.1830689576
 20
539.0074067334
 30
0.0
 11
0.3539842722996411
 21
0.3539842722996127
 31
0.0
210
0.0
220
0.0
230
1.0
 40
0.998782766
 41
2.356803477777949
 42
3.926381829401675
  0
LINE
  5
8D
330
1F
100
AcDbEntity
  8
0
  6
Continuous
 62
     7
370
    25
100
AcDbLine
 10
160.1824595989
 20
538.5071019613
 30
0.0
 11
160.9577641854
 21
538.5071019613
 31
0.0
  0
LINE
  5
8E
330
1F
100
AcDbEntity
  8
0
  6
Continuous
 62
     7
370
    25
100
AcDbLine
 10
162.6552641854
 20
538.5071019613
 30
0.0
 11
164.1552641854
 21
538.5071019613
 31
0.0
  0
LINE
  5
8F
330
1F
100
AcDbEntity
  8
0
  6
Continuous
 62
     7
370
    25
100
AcDbLine
 10
165.7827641854
 20
538.5071019613
 30
0.0
 11
166.6080687719
 21
538.5071019613
 31
0.0
  0
ELLIPSE
  5
90
330
1F
100
AcDbEntity
  8
0
  6
Continuous
 62
     7
370
    25
100
AcDbEllipse
 10
166.6074594133
 20
539.0074067334
 30
0.0
 11
0.3539842722996127
 21
-0.353984272299499
 31
0.0
210
0.0
220
0.0
230
1.0
 40
0.998782766
 41
5.498396131367596
 42
7.067974482991951
  0
ELLIPSE
  5
91
330
1F
100
AcDbEntity
  8
0
  6
Continuous
 62
     7
370
    25
100
AcDbEllipse
 10
166.6074594133
 20
548.0067971891
 30
0.0
 11
-0.3539842722996411
 21
-0.3539842722996127
 31
0.0
210
0.0
220
0.0
230
1.0
 40
0.998782766
 41
2.356803477777662
 42
3.926381829401791
  0
LINE
  5
92
330
1F
100
AcDbEntity
  8
0
  6
Continuous
 62
     7
370
    25
100
AcDbLine
 10
160.1824595989
 20
548.5071019613
 30
0.0
 11
160.9577641762
 21
548.5071019613
 31
0.0
  0
LINE
  5
93
330
1F
100
AcDbEntity
  8
0
  6
Continuous
 62
     7
370
    25
100
AcDbLine
 10
162.65526509
 20
548.5071019613
 30
0.0
 11
164.1552632808
 21
548.5071019613
 31
0.0
  0
LINE
  5
94
330
1F
100
AcDbEntity
  8
0
  6
Continuous
 62
     7
370
    25
100
AcDbLine
 10
165.7827674481
 20
548.5071019613
 30
0.0
 11
166.6080687719
 21
548.5071019613
 31
0.0
  0
ELLIPSE
  5
95
330
1F
100
AcDbEntity
  8
0
  6
Continuous
 62
     7
370
    25
100
AcDbEllipse
 10
191.4580689576
 20
548.0067971891
 30
0.0
 11
-0.3539842722996127
 21
0.3539842722996127
 31
0.0
210
0.0
220
0.0
230
1.0
 40
0.998782766
 41
5.498396131367542
 42
7.067974482991757
  0
LINE
  5
96
330
1F
100
AcDbEntity
  8
0
  6
Continuous
 62
     7
370
    25
100
AcDbLine
 10
190.9577641854
 20
548.0074065478
 30
0.0
 11
190.9577641854
 21
547.9865039616
 31
0.0
  0
LINE
  5
97
330
1F
100
AcDbEntity
  8
0
  6
Continuous
 62
     7
370
    25
100
AcDbLine
 10
190.9577641854
 20
539.0275825085
 30
0.0
 11
190.9577641854
 21
539.0067973748
 31
0.0
  0
ELLIPSE
  5
98
330
1F
100
AcDbEntity
  8
0
  6
Continuous
 62
     7
370
    25
100
AcDbEllipse
 10
191.4580689576
 20
539.0074067334
 30
0.0
 11
0.3539842722996127
 21
0.3539842722996127
 31
0.0
210
0.0
220
0.0
230
1.0
 40
0.998782766
 41
2.356803477777702
 42
3.926381829401728
  0
LINE
  5
99
330
1F
100
AcDbEntity
  8
0
  6
Continuous
 62
     7
370
    25
100
AcDbLine
 10
191.4574595989
 20
538.5071019613
 30
0.0
 11
192.2477641854
 21
538.5071019613
 31
0.0
  0
LINE
  5
9A
330
1F
100
AcDbEntity
  8
0
  6
Continuous
 62
     7
370
    25
100
AcDbLine
 10
193.9102641854
 20
538.5071019613
 30
0.0
 11
195.4102641854
 21
538.5071019613
 31
0.0
  0
LINE
  5
9B
330
1F
100
AcDbEntity
  8
0
  6
Continuous
 62
     7
370
    25
100
AcDbLine
 10
197.0727641854
 20
538.5071019613
 30
0.0
 11
197.8830687719
 21
538.5071019613
 31
0.0
  0
ELLIPSE
  5
9C
330
1F
100
AcDbEntity
  8
0
  6
Continuous
 62
     7
370
    25
100
AcDbEllipse
 10
197.8824594133
 20
539.0074067334
 30
0.0
 11
0.3539842722996127
 21
-0.353984272299499
 31
0.0
210
0.0
220
0.0
230
1.0
 40
0.998782766
 41
5.49839613136777
 42
7.067974482991209
  0
LINE
  5
9D
330
1F
100
AcDbEntity
  8
0
  6
Continuous
 62
     7
370
    25
100
AcDbLine
 10
198.3827641854
 20
548.0074065478
 30
0.0
 11
198.3827641854
 21
548.0059909275
 31
0.0
  0
ELLIPSE
  5
9E
330
1F
100
AcDbEntity
  8
0
  6
Continuous
 62
     7
370
    25
100
AcDbEllipse
 10
197.8824594133
 20
548.0067971891
 30
0.0
 11
-0.3539842722996411
 21
-0.3539842722996127
 31
0.0
210
0.0
220
0.0
230
1.0
 40
0.998782766
 41
2.356803477777642
 42
3.926381829401699
  0
LINE
  5
9F
330
1F
100
AcDbEntity
  8
0
  6
Continuous
 62
     7
370
    25
100
AcDbLine
 10
191.4574595989
 20
548.5071019613
 30
0.0
 11
192.2477641762
 21
548.5071019613
 31
0.0
  0
LINE
  5
A0
330
1F
100
AcDbEntity
  8
0
  6
Continuous
 62
     7
370
    25
100
AcDbLine
 10
193.91026509
 20
548.5071019613
 30
0.0
 11
195.4102632808
 21
548.5071019613
 31
0.0
  0
LINE
  5
A1
330
1F
100
AcDbEntity
  8
0
  6
Continuous
 62
     7
370
    25
100
AcDbLine
 10
197.0727674481
 20
548.5071019613
 30
0.0
 11
197.8830687719
 21
548.5071019613
 31
0.0
  0
ELLIPSE
  5
A2
330
1F
100
AcDbEntity
  8
0
  6
Continuous
 62
     7
370
    25
100
AcDbEllipse
 10
212.3080689576
 20
548.0067971891
 30
0.0
 11
-0.3539842722996127
 21
0.3539842722996127
 31
0.0
210
0.0
220
0.0
230
1.0
 40
0.998782766
 41
5.498396131367769
 42
7.067974482991757
  0
LINE
  5
A3
330
1F
100
AcDbEntity
  8
0
  6
Continuous
 62
     7
370
    25
100
AcDbLine
 10
211.8077641854
 20
548.0074065478
 30
0.0
 11
211.8077641854
 21
547.9970825575
 31
0.0
  0
LINE
  5
A4
330
1F
100
AcDbEntity
  8
0
  6
Continuous
 62
     7
370
    25
100
AcDbLine
 10
211.8077641854
 20
539.0170039126
 30
0.0
 11
211.8077641854
 21
539.0067973748
 31
0.0
  0
ELLIPSE
  5
A5
330
1F
100
AcDbEntity
  8
0
  6
Continuous
 62
     7
370
    25
100
AcDbEllipse
 10
212.3080689576
 20
539.0074067334
 30
0.0
 11
0.3539842722996411
 21
0.3539842722996127
 31
0.0
210
0.0
220
0.0
230
1.0
 40
0.998782766
 41
2.356803477777722
 42
3.926381829401675
  0
LINE
  5
A6
330
1F
100
AcDbEntity
  8
0
  6
Continuous
 62
     7
370
    25
100
AcDbLine
 10
212.3074595989
 20
538.5071019613
 30
0.0
 11
213.1077641854
 21
538.5071019613
 31
0.0
  0
LINE
  5
A7
330
1F
100
AcDbEntity
  8
0
  6
Continuous
 62
     7
370
    25
100
AcDbLine
 10
214.7702641854
 20
538.5071019613
 30
0.0
 11
216.2702641854
 21
538.5071019613
 31
0.0
  0
LINE
  5
A8
330
1F
100
AcDbEntity
  8
0
  6
Continuous
 62
     7
370
    25
100
AcDbLine
 10
217.9327641854
 20
538.5071019613
 30
0.0
 11
218.7330687719
 21
538.5071019613
 31
0.0
  0
ELLIPSE
  5
A9
330
1F
100
AcDbEntity
  8
0
  6
Continuous
 62
     7
370
    25
100
AcDbEllipse
 10
218.7324594133
 20
539.0074067334
 30
0.0
 11
0.3539842722996412
 21
-0.353984272299499
 31
0.0
210
0.0
220
0.0
230
1.0
 40
0.998782766
 41
5.498396131367633
 42
7.067974482991437
  0
LINE
  5
AA
330
1F
100
AcDbEntity
  8
0
  6
Continuous
 62
     7
370
    25
100
AcDbLine
 10
219.2327641854
 20
548.0074065478
 30
0.0
 11
219.2327641854
 21
547.9949877635
 31
0.0
  0
LINE
  5
AB
330
1F
100
AcDbEntity
  8
0
  6
Continuous
 62
     7
370
    25
100
AcDbLine
 10
219.2327641854
 20
539.0170039126
 30
0.0
 11
219.2327641854
 21
539.0067973748
 31
0.0
  0
ELLIPSE
  5
AC
330
1F
100
AcDbEntity
  8
0
  6
Continuous
 62
     7
370
    25
100
AcDbEllipse
 10
218.7324594133
 20
548.0067971891
 30
0.0
 11
-0.3539842722996127
 21
-0.353984272299499
 31
0.0
210
0.0
220
0.0
230
1.0
 40
0.998782766
 41
2.356803477777842
 42
3.926381829401795
  0
LINE
  5
AD
330
1F
100
AcDbEntity
  8
0
  6
Continuous
 62
     7
370
    25
100
AcDbLine
 10
212.3074595989
 20
548.5071019613
 30
0.0
 11
213.1077641762
 21
548.5071019613
 31
0.0
  0
LINE
  5
AE
330
1F
100
AcDbEntity
  8
0
  6
Continuous
 62
     7
370
    25
100
AcDbLine
 10
214.77026509
 20
548.5071019613
 30
0.0
 11
216.2702632808
 21
548.5071019613
 31
0.0
  0
LINE
  5
AF
330
1F
100
AcDbEntity
  8
0
  6
Continuous
 62
     7
370
    25
100
AcDbLine
 10
217.9327674481
 20
548.5071019613
 30
0.0
 11
218.7330687719
 21
548.5071019613
 31
0.0
  0
LINE
  5
B0
330
1F
100
AcDbEntity
  8
0
  6
Continuous
 62
     7
370
    25
100
AcDbLine
 10
135.8327641854
 20
492.0071019613
 30
0.0
 11
135.8327641854
 21
492.3553445699
 31
0.0
  0
LINE
  5
B1
330
1F
100
AcDbEntity
  8
0
  6
Continuous
 62
     7
370
    25
100
AcDbLine
 10
178.9327641854
 20
551.5071019613
 30
0.0
 11
179.1327641854
 21
551.5071019613
 31
0.0
  0
LINE
  5
B2
330
1F
100
AcDbEntity
  8
0
  6
Continuous
 62
     7
370
    25
100
AcDbLine
 10
179.1327641854
 20
492.0071019613
 30
0.0
 11
178.9327641854
 21
492.0071019613
 31
0.0
  0
LINE
  5
B3
330
1F
100
AcDbEntity
  8
0
  6
Continuous
 62
     7
370
    25
100
AcDbLine
 10
136.3301061728
 20
492.0071019613
 30
0.0
 11
135.8327641854
 21
492.0071019613
 31
0.0
  0
LINE
  5
B4
330
1F
100
AcDbEntity
  8
0
  6
Continuous
 62
     7
370
    25
100
AcDbLine
 10
161.1913414274
 20
543.5559958381
 30
0.0
 11
161.1913414274
 21
543.4559958381
 31
0.0
  0
LINE
  5
B5
330
1F
100
AcDbEntity
  8
0
  6
Continuous
 62
     7
370
    25
100
AcDbLine
 10
144.7491869434
 20
543.5559958381
 30
0.0
 11
144.7491869434
 21
543.4559958381
 31
0.0
  0
LINE
  5
B6
330
1F
100
AcDbEntity
  8
0
  6
Continuous
 62
     7
370
    25
100
AcDbLine
 10
140.3413414274
 20
543.5559958381
 30
0.0
 11
140.3413414274
 21
543.4559958381
 31
0.0
  0
LINE
  5
B7
330
1F
100
AcDbEntity
  8
0
  6
Continuous
 62
     7
370
    25
100
AcDbLine
 10
165.5991869434
 20
543.5559958381
 30
0.0
 11
165.5991869434
 21
543.4559958381
 31
0.0
  0
LINE
  5
B8
330
1F
100
AcDbEntity
  8
0
  6
Continuous
 62
     7
370
    25
100
AcDbLine
 10
217.7241869434
 20
543.5559958381
 30
0.0
 11
217.7241869434
 21
543.4559958381
 31
0.0
  0
LINE
  5
B9
330
1F
100
AcDbEntity
  8
0
  6
Continuous
 62
     7
370
    25
100
AcDbLine
 10
196.8741869434
 20
543.5559958381
 30
0.0
 11
196.8741869434
 21
543.4559958381
 31
0.0
  0
LINE
  5
BA
330
1F
100
AcDbEntity
  8
0
  6
Continuous
 62
     7
370
    25
100
AcDbLine
 10
192.4663414274
 20
543.5559958381
 30
0.0
 11
192.4663414274
 21
543.4559958381
 31
0.0
  0
LINE
  5
BB
330
1F
100
AcDbEntity
  8
0
  6
Continuous
 62
     7
370
    25
100
AcDbLine
 10
213.3163414274
 20
543.5559958381
 30
0.0
 11
213.3163414274
 21
543.4559958381
 31
0.0
  0
ELLIPSE
  5
BC
330
1F
100
AcDbEntity
  8
0
  6
Continuous
 62
     7
370
    25
100
AcDbEllipse
 10
218.7324594133
 20
706.0074067334
 30
0.0
 11
0.3539842722996127
 21
-0.3539842722996127
 31
0.0
210
0.0
220
0.0
230
1.0
 40
0.998782766
 41
5.498396131367873
 42
7.067974482991369
  0
LINE
  5
BD
330
1F
100
AcDbEntity
  8
0
  6
Continuous
 62
     7
370
    25
100
AcDbLine
 10
219.2327641854
 20
706.0067973748
 30
0.0
 11
219.2327641854
 21
706.0192161591
 31
0.0
  0
LINE
  5
BE
330
1F
100
AcDbEntity
  8
0
  6
Continuous
 62
     7
370
    25
100
AcDbLine
 10
219.2327641854
 20
714.9972000099
 30
0.0
 11
219.2327641854
 21
715.0074065478
 31
0.0
  0
ELLIPSE
  5
BF
330
1F
100
AcDbEntity
  8
0
  6
Continuous
 62
     7
370
    25
100
AcDbEllipse
 10
218.7324594133
 20
715.0067971891
 30
0.0
 11
-0.3539842722996695
 21
-0.3539842722996127
 31
-7.105427357601002E-15
210
-1.003636024764818E-14
220
-1.003636024764657E-14
230
1.0
 40
0.998782766
 41
2.356803477777989
 42
3.926381829401715
  0
LINE
  5
C0
330
1F
100
AcDbEntity
  8
0
  6
Continuous
 62
     7
370
    25
100
AcDbLine
 10
218.7330687719
 20
715.5071019613
 30
0.0
 11
217.9327641854
 21
715.5071019613
 31
0.0
  0
LINE
  5
C1
330
1F
100
AcDbEntity
  8
0
  6
Continuous
 62
     7
370
    25
100
AcDbLine
 10
216.2702641854
 20
715.5071019613
 30
0.0
 11
214.7702641854
 21
715.5071019613
 31
0.0
  0
LINE
  5
C2
330
1F
100
AcDbEntity
  8
0
  6
Continuous
 62
     7
370
    25
100
AcDbLine
 10
213.1077641854
 20
715.5071019613
 30
0.0
 11
212.3074595989
 21
715.5071019613
 31
0.0
  0
ELLIPSE
  5
C3
330
1F
100
AcDbEntity
  8
0
  6
Continuous
 62
     7
370
    25
100
AcDbEllipse
 10
212.3080689576
 20
715.0067971891
 30
0.0
 11
-0.3539842722996411
 21
0.3539842722996127
 31
0.0
210
0.0
220
0.0
230
1.0
 40
0.998782766
 41
5.49839613136787
 42
7.067974482991123
  0
LINE
  5
C4
330
1F
100
AcDbEntity
  8
0
  6
Continuous
 62
     7
370
    25
100
AcDbLine
 10
211.8077641854
 20
706.0067973748
 30
0.0
 11
211.8077641854
 21
706.0171213651
 31
0.0
  0
LINE
  5
C5
330
1F
100
AcDbEntity
  8
0
  6
Continuous
 62
     7
370
    25
100
AcDbLine
 10
211.8077641854
 20
714.9972000099
 30
0.0
 11
211.8077641854
 21
715.0074065478
 31
0.0
  0
ELLIPSE
  5
C6
330
1F
100
AcDbEntity
  8
0
  6
Continuous
 62
     7
370
    25
100
AcDbEllipse
 10
212.3080689576
 20
706.0074067334
 30
0.0
 11
0.3539842722996127
 21
0.353984272299499
 31
7.105427357601002E-15
210
-1.003636024765140E-14
220
-1.003636024764818E-14
230
1.0
 40
0.998782766
 41
2.35680347777823
 42
3.926381829401578
  0
LINE
  5
C7
330
1F
100
AcDbEntity
  8
0
  6
Continuous
 62
     7
370
    25
100
AcDbLine
 10
218.7330687719
 20
705.5071019613
 30
0.0
 11
217.9327674481
 21
705.5071019613
 31
0.0
  0
LINE
  5
C8
330
1F
100
AcDbEntity
  8
0
  6
Continuous
 62
     7
370
    25
100
AcDbLine
 10
216.2702632808
 20
705.5071019613
 30
0.0
 11
214.77026509
 21
705.5071019613
 31
0.0
  0
LINE
  5
C9
330
1F
100
AcDbEntity
  8
0
  6
Continuous
 62
     7
370
    25
100
AcDbLine
 10
213.1077641762
 20
705.5071019613
 30
0.0
 11
212.3074595989
 21
705.5071019613
 31
0.0
  0
ELLIPSE
  5
CA
330
1F
100
AcDbEntity
  8
0
  6
Continuous
 62
     7
370
    25
100
AcDbEllipse
 10
197.8824594133
 20
706.0074067334
 30
0.0
 11
0.3539842722996411
 21
-0.3539842722996127
 31
0.0
210
0.0
220
0.0
230
1.0
 40
0.998782766
 41
5.49839613136785
 42
7.067974482991371
  0
LINE
  5
CB
330
1F
100
AcDbEntity
  8
0
  6
Continuous
 62
     7
370
    25
100
AcDbLine
 10
198.3827641854
 20
706.0067973748
 30
0.0
 11
198.3827641854
 21
706.008212995
 31
0.0
  0
ELLIPSE
  5
CC
330
1F
100
AcDbEntity
  8
0
  6
Continuous
 62
     7
370
    25
100
AcDbEllipse
 10
197.8824594133
 20
715.0067971891
 30
0.0
 11
-0.3539842722996127
 21
-0.3539842722996127
 31
-7.105427357601002E-15
210
-1.003636024764818E-14
220
-1.003636024764818E-14
230
1.0
 40
0.998782766
 41
2.356803477778157
 42
3.926381829401558
  0
LINE
  5
CD
330
1F
100
AcDbEntity
  8
0
  6
Continuous
 62
     7
370
    25
100
AcDbLine
 10
197.8830687719
 20
715.5071019613
 30
0.0
 11
197.0727641854
 21
715.5071019613
 31
0.0
  0
LINE
  5
CE
330
1F
100
AcDbEntity
  8
0
  6
Continuous
 62
     7
370
    25
100
AcDbLine
 10
195.4102641854
 20
715.5071019613
 30
0.0
 11
193.9102641854
 21
715.5071019613
 31
0.0
  0
LINE
  5
CF
330
1F
100
AcDbEntity
  8
0
  6
Continuous
 62
     7
370
    25
100
AcDbLine
 10
192.2477641854
 20
715.5071019613
 30
0.0
 11
191.4574595989
 21
715.5071019613
 31
0.0
  0
ELLIPSE
  5
D0
330
1F
100
AcDbEntity
  8
0
  6
Continuous
 62
     7
370
    25
100
AcDbEllipse
 10
191.4580689576
 20
715.0067971891
 30
0.0
 11
-0.3539842722996127
 21
0.3539842722996127
 31
0.0
210
0.0
220
0.0
230
1.0
 40
0.998782766
 41
5.498396131367643
 42
7.067974482991429
  0
LINE
  5
D1
330
1F
100
AcDbEntity
  8
0
  6
Continuous
 62
     7
370
    25
100
AcDbLine
 10
190.9577641854
 20
706.0067973748
 30
0.0
 11
190.9577641854
 21
706.0276999609
 31
0.0
  0
LINE
  5
D2
330
1F
100
AcDbEntity
  8
0
  6
Continuous
 62
     7
370
    25
100
AcDbLine
 10
190.9577641854
 20
714.9866214141
 30
0.0
 11
190.9577641854
 21
715.0074065478
 31
0.0
  0
ELLIPSE
  5
D3
330
1F
100
AcDbEntity
  8
0
  6
Continuous
 62
     7
370
    25
100
AcDbEllipse
 10
191.4580689576
 20
706.0074067334
 30
0.0
 11
0.3539842722996411
 21
0.3539842722996127
 31
7.105427357601002E-15
210
-1.003636024764818E-14
220
-1.003636024764737E-14
230
1.0
 40
0.998782766
 41
2.356803477778197
 42
3.926381829401825
  0
LINE
  5
D4
330
1F
100
AcDbEntity
  8
0
  6
Continuous
 62
     7
370
    25
100
AcDbLine
 10
197.8830687719
 20
705.5071019613
 30
0.0
 11
197.0727674481
 21
705.5071019613
 31
0.0
  0
LINE
  5
D5
330
1F
100
AcDbEntity
  8
0
  6
Continuous
 62
     7
370
    25
100
AcDbLine
 10
195.4102632808
 20
705.5071019613
 30
0.0
 11
193.91026509
 21
705.5071019613
 31
0.0
  0
LINE
  5
D6
330
1F
100
AcDbEntity
  8
0
  6
Continuous
 62
     7
370
    25
100
AcDbLine
 10
192.2477641762
 20
705.5071019613
 30
0.0
 11
191.4574595989
 21
705.5071019613
 31
0.0
  0
ELLIPSE
  5
D7
330
1F
100
AcDbEntity
  8
0
  6
Continuous
 62
     7
370
    25
100
AcDbEllipse
 10
166.6074594133
 20
706.0074067334
 30
0.0
 11
0.3539842722996411
 21
-0.3539842722996127
 31
0.0
210
0.0
220
0.0
230
1.0
 40
0.998782766
 41
5.498396131367906
 42
7.067974482990689
  0
ELLIPSE
  5
D8
330
1F
100
AcDbEntity
  8
0
  6
Continuous
 62
     7
370
    25
100
AcDbEllipse
 10
166.6074594133
 20
715.0067971891
 30
0.0
 11
-0.3539842722996127
 21
-0.353984272299499
 31
-7.105427357601002E-15
210
-1.003636024765140E-14
220
-1.003636024764818E-14
230
1.0
 40
0.998782766
 41
2.356803477778023
 42
3.926381829401614
  0
LINE
  5
D9
330
1F
100
AcDbEntity
  8
0
  6
Continuous
 62
     7
370
    25
100
AcDbLine
 10
166.6080687719
 20
715.5071019613
 30
0.0
 11
165.7827641854
 21
715.5071019613
 31
0.0
  0
LINE
  5
DA
330
1F
100
AcDbEntity
  8
0
  6
Continuous
 62
     7
370
    25
100
AcDbLine
 10
164.1552641854
 20
715.5071019613
 30
0.0
 11
162.6552641854
 21
715.5071019613
 31
0.0
  0
LINE
  5
DB
330
1F
100
AcDbEntity
  8
0
  6
Continuous
 62
     7
370
    25
100
AcDbLine
 10
160.9577641854
 20
715.5071019613
 30
0.0
 11
160.1824595989
 21
715.5071019613
 31
0.0
  0
ELLIPSE
  5
DC
330
1F
100
AcDbEntity
  8
0
  6
Continuous
 62
     7
370
    25
100
AcDbEllipse
 10
160.1830689576
 20
715.0067971891
 30
0.0
 11
-0.3539842722996411
 21
0.3539842722996127
 31
0.0
210
0.0
220
0.0
230
1.0
 40
0.998782766
 41
5.498396131367812
 42
7.067974482991122
  0
LINE
  5
DD
330
1F
100
AcDbEntity
  8
0
  6
Continuous
 62
     7
370
    25
100
AcDbLine
 10
159.6827641854
 20
706.0067973748
 30
0.0
 11
159.6827641854
 21
706.0428265459
 31
0.0
  0
LINE
  5
DE
330
1F
100
AcDbEntity
  8
0
  6
Continuous
 62
     7
370
    25
100
AcDbLine
 10
159.6827641854
 20
714.9714948291
 30
0.0
 11
159.6827641854
 21
715.0074065478
 31
0.0
  0
ELLIPSE
  5
DF
330
1F
100
AcDbEntity
  8
0
  6
Continuous
 62
     7
370
    25
100
AcDbEllipse
 10
160.1830689576
 20
706.0074067334
 30
0.0
 11
0.3539842722996412
 21
0.353984272299499
 31
7.105427357601002E-15
210
-1.003636024765140E-14
220
-1.003636024764737E-14
230
1.0
 40
0.998782766
 41
2.356803477778497
 42
3.926381829401902
  0
LINE
  5
E0
330
1F
100
AcDbEntity
  8
0
  6
Continuous
 62
     7
370
    25
100
AcDbLine
 10
166.6080687719
 20
705.5071019613
 30
0.0
 11
165.7827674481
 21
705.5071019613
 31
0.0
  0
LINE
  5
E1
330
1F
100
AcDbEntity
  8
0
  6
Continuous
 62
     7
370
    25
100
AcDbLine
 10
164.1552632808
 20
705.5071019613
 30
0.0
 11
162.65526509
 21
705.5071019613
 31
0.0
  0
LINE
  5
E2
330
1F
100
AcDbEntity
  8
0
  6
Continuous
 62
     7
370
    25
100
AcDbLine
 10
160.9577641762
 20
705.5071019613
 30
0.0
 11
160.1824595989
 21
705.5071019613
 31
0.0
  0
ELLIPSE
  5
E3
330
1F
100
AcDbEntity
  8
0
  6
Continuous
 62
     7
370
    25
100
AcDbEllipse
 10
145.7574594133
 20
706.0074067334
 30
0.0
 11
0.3539842722996411
 21
-0.3539842722996127
 31
0.0
210
0.0
220
0.0
230
1.0
 40
0.998782766
 41
5.49839613136787
 42
7.067974482991123
  0
ELLIPSE
  5
E4
330
1F
100
AcDbEntity
  8
0
  6
Continuous
 62
     7
370
    25
100
AcDbEllipse
 10
145.7574594133
 20
715.0067971891
 30
0.0
 11
-0.3539842722996127
 21
-0.353984272299499
 31
0.0
210
0.0
220
0.0
230
1.0
 40
0.998782766
 41
2.356803477778457
 42
3.926381829401691
  0
LINE
  5
E5
330
1F
100
AcDbEntity
  8
0
  6
Continuous
 62
     7
370
    25
100
AcDbLine
 10
145.7580687719
 20
715.5071019613
 30
0.0
 11
144.9227641854
 21
715.5071019613
 31
0.0
  0
LINE
  5
E6
330
1F
100
AcDbEntity
  8
0
  6
Continuous
 62
     7
370
    25
100
AcDbLine
 10
143.2952641854
 20
715.5071019613
 30
0.0
 11
141.7952641854
 21
715.5071019613
 31
0.0
  0
LINE
  5
E7
330
1F
100
AcDbEntity
  8
0
  6
Continuous
 62
     7
370
    25
100
AcDbLine
 10
140.0977641854
 20
715.5071019613
 30
0.0
 11
139.3324595989
 21
715.5071019613
 31
0.0
  0
ELLIPSE
  5
E8
330
1F
100
AcDbEntity
  8
0
  6
Continuous
 62
     7
370
    25
100
AcDbEllipse
 10
139.3330689576
 20
715.0067971891
 30
0.0
 11
-0.3539842722996127
 21
0.3539842722996127
 31
0.0
210
0.0
220
0.0
230
1.0
 40
0.998782766
 41
5.498396131367874
 42
7.067974482991143
  0
LINE
  5
E9
330
1F
100
AcDbEntity
  8
0
  6
Continuous
 62
     7
370
    25
100
AcDbLine
 10
138.8327641854
 20
706.0067973748
 30
0.0
 11
138.8327641854
 21
706.0524487233
 31
0.0
  0
LINE
  5
EA
330
1F
100
AcDbEntity
  8
0
  6
Continuous
 62
     7
370
    25
100
AcDbLine
 10
138.8327641854
 20
714.9618726517
 30
0.0
 11
138.8327641854
 21
715.0074065478
 31
0.0
  0
ELLIPSE
  5
EB
330
1F
100
AcDbEntity
  8
0
  6
Continuous
 62
     7
370
    25
100
AcDbEllipse
 10
139.3330689576
 20
706.0074067334
 30
0.0
 11
0.3539842722996412
 21
0.353984272299499
 31
7.105427357601002E-15
210
-1.003636024765140E-14
220
-1.003636024764737E-14
230
1.0
 40
0.998782766
 41
2.356803477778497
 42
3.926381829401731
  0
LINE
  5
EC
330
1F
100
AcDbEntity
  8
0
  6
Continuous
 62
     7
370
    25
100
AcDbLine
 10
145.7580687719
 20
705.5071019613
 30
0.0
 11
144.9227674481
 21
705.5071019613
 31
0.0
  0
LINE
  5
ED
330
1F
100
AcDbEntity
  8
0
  6
Continuous
 62
     7
370
    25
100
AcDbLine
 10
143.2952632808
 20
705.5071019613
 30
0.0
 11
141.79526509
 21
705.5071019613
 31
0.0
  0
LINE
  5
EE
330
1F
100
AcDbEntity
  8
0
  6
Continuous
 62
     7
370
    25
100
AcDbLine
 10
140.0977641762
 20
705.5071019613
 30
0.0
 11
139.3324595989
 21
705.5071019613
 31
0.0
  0
LINE
  5
EF
330
1F
100
AcDbEntity
  8
0
  6
Continuous
 62
     7
370
    25
100
AcDbLine
 10
135.8327641854
 20
762.0071019613
 30
0.0
 11
135.8327641854
 21
761.6588593526
 31
0.0
  0
LINE
  5
F0
330
1F
100
AcDbEntity
  8
0
  6
Continuous
 62
     7
370
    25
100
AcDbLine
 10
135.8327641854
 20
762.0071019613
 30
0.0
 11
136.3301061728
 21
762.0071019613
 31
0.0
  0
LINE
  5
F1
330
1F
100
AcDbEntity
  8
0
  6
Continuous
 62
     7
370
    25
100
AcDbLine
 10
217.7241869434
 20
710.4582080845
 30
0.0
 11
217.7241869434
 21
710.5582080845
 31
0.0
  0
LINE
  5
F2
330
1F
100
AcDbEntity
  8
0
  6
Continuous
 62
     7
370
    25
100
AcDbLine
 10
192.4663414274
 20
710.4582080845
 30
0.0
 11
192.4663414274
 21
710.5582080845
 31
0.0
  0
LINE
  5
F3
330
1F
100
AcDbEntity
  8
0
  6
Continuous
 62
     7
370
    25
100
AcDbLine
 10
213.3163414274
 20
710.4582080845
 30
0.0
 11
213.3163414274
 21
710.5582080845
 31
0.0
  0
LINE
  5
F4
330
1F
100
AcDbEntity
  8
0
  6
Continuous
 62
     7
370
    25
100
AcDbLine
 10
196.8741869434
 20
710.4582080845
 30
0.0
 11
196.8741869434
 21
710.5582080845
 31
0.0
  0
LINE
  5
F5
330
1F
100
AcDbEntity
  8
0
  6
Continuous
 62
     7
370
    25
100
AcDbLine
 10
166.3076303888
 20
710.5582080845
 30
0.0
 11
166.3076303888
 21
710.4582080845
 31
0.0
  0
ELLIPSE
  5
F6
330
1F
100
AcDbEntity
  8
0
  6
Continuous
 62
     7
370
    25
100
AcDbEllipse
 10
158.378319255
 20
706.3442916959
 30
0.0
 11
8.000000000000028
 21
0.0
 31
0.0
210
0.0
220
0.0
230
1.0
 40
0.0349207695
 41
5.322949699090683
 42
5.458859788168704
  0
ELLIPSE
  5
F7
330
1F
100
AcDbEntity
  8
0
  6
Continuous
 62
     7
370
    25
100
AcDbEllipse
 10
158.378319255
 20
714.6699122267
 30
0.0
 11
8.000000000000028
 21
0.0
 31
0.0
210
0.0
220
0.0
230
1.0
 40
0.0349207695
 41
0.8246202013239197
 42
0.959981245425016
  0
SPLINE
  5
F8
330
1F
100
AcDbEntity
  8
0
  6
Continuous
 62
     7
370
    25
100
AcDbSpline
210
0.0
220
0.0
230
1.0
 70
     8
 71
     3
 72
     9
 73
     5
 74
     0
 42
0.000000001
 43
0.00000001
 40
0.0
 40
0.0
 40
0.0
 40
0.0
 40
0.0122576951452169
 40
1.0
 40
1.0
 40
1.0
 40
1.0
 10
160.257764185402
 20
706.4771504791281
 30
0.0
 10
160.2576261479987
 20
706.477515046827
 30
0.0
 10
160.246364862603
 20
706.50725699217
 30
0.0
 10
160.247352074654
 20
706.5400094182849
 30
0.0
 10
160.2483271857606
 20
706.5723603751452
 30
0.0
  0
LINE
  5
F9
330
1F
100
AcDbEntity
  8
0
  6
Continuous
 62
     7
370
    25
100
AcDbLine
 10
160.2483271858
 20
706.5723603751
 30
0.0
 11
160.2483271858
 21
714.4418435474
 31
0.0
  0
LINE
  5
FA
330
1F
100
AcDbEntity
  8
0
  6
Continuous
 62
     7
370
    25
100
AcDbLine
 10
160.2483271858
 20
714.4418435474
 30
0.0
 11
160.2577641854
 21
714.4987221525
 31
0.0
  0
LINE
  5
FB
330
1F
100
AcDbEntity
  8
0
  6
Continuous
 62
     7
370
    25
100
AcDbLine
 10
144.7491869434
 20
710.4582080845
 30
0.0
 11
144.7491869434
 21
710.5582080845
 31
0.0
  0
LINE
  5
FC
330
1F
100
AcDbEntity
  8
0
  6
Continuous
 62
     7
370
    25
100
AcDbLine
 10
140.3413414274
 20
710.4582080845
 30
0.0
 11
140.3413414274
 21
710.5582080845
 31
0.0
  0
LINE
  5
FD
330
1F
100
AcDbEntity
  8
0
  6
Continuous
 62
     7
370
    25
100
AcDbLine
 10
166.2142933759
 20
710.4582080845
 30
0.0
 11
166.2142933759
 21
710.5582080845
 31
0.0
  0
LINE
  5
FE
330
1F
100
AcDbEntity
  8
0
  6
Continuous
 62
     7
370
    25
100
AcDbLine
 10
165.5991869434
 20
710.4582080845
 30
0.0
 11
165.5991869434
 21
710.5582080845
 31
0.0
  0
LINE
  5
FF
330
1F
100
AcDbEntity
  8
0
  6
Continuous
 62
     7
370
    25
100
AcDbLine
 10
222.2327641854
 20
551.5071019613
 30
0.0
 11
222.2327641854
 21
702.5071019613
 31
0.0
  0
LINE
  5
100
330
1F
100
AcDbEntity
  8
0
  6
Continuous
 62
     7
370
    25
100
AcDbLine
 10
135.8327641854
 20
551.5071019613
 30
0.0
 11
135.8327641854
 21
702.5071019613
 31
0.0
  0
CIRCLE
  5
101
330
1F
100
AcDbEntity
  8
0
  6
Continuous
 62
     7
370
    25
100
AcDbCircle
 10
179.0327641854
 20
567.5071019613
 30
0.0
 40
4.750000000000044
  0
CIRCLE
  5
102
330
1F
100
AcDbEntity
  8
0
  6
Continuous
 62
     7
370
    25
100
AcDbCircle
 10
179.0327641854
 20
567.5071019613
 30
0.0
 40
2.166856000000018
  0
LINE
  5
103
330
1F
100
AcDbEntity
  8
0
  6
Continuous
 62
     7
370
    25
100
AcDbLine
 10
177.3474421985
 20
567.1074898987
 30
0.0
 11
178.5361773898
 21
565.8477642758
 31
0.0
  0
LINE
  5
104
330
1F
100
AcDbEntity
  8
0
  6
Continuous
 62
     7
370
    25
100
AcDbLine
 10
178.5361773898
 20
565.8477642758
 30
0.0
 11
180.2214993767
 21
566.2473763384
 31
0.0
  0
LINE
  5
105
330
1F
100
AcDbEntity
  8
0
  6
Continuous
 62
     7
370
    25
100
AcDbLine
 10
180.2214993767
 20
566.2473763384
 30
0.0
 11
180.7180861723
 21
567.9067140239
 31
0.0
  0
LINE
  5
106
330
1F
100
AcDbEntity
  8
0
  6
Continuous
 62
     7
370
    25
100
AcDbLine
 10
180.7180861723
 20
567.9067140239
 30
0.0
 11
179.529350981
 21
569.1664396468
 31
0.0
  0
LINE
  5
107
330
1F
100
AcDbEntity
  8
0
  6
Continuous
 62
     7
370
    25
100
AcDbLine
 10
179.529350981
 20
569.1664396468
 30
0.0
 11
177.8440289941
 21
568.7668275842
 31
0.0
  0
LINE
  5
108
330
1F
100
AcDbEntity
  8
0
  6
Continuous
 62
     7
370
    25
100
AcDbLine
 10
177.8440289941
 20
568.7668275842
 30
0.0
 11
177.3474421985
 21
567.1074898987
 31
0.0
  0
CIRCLE
  5
109
330
1F
100
AcDbEntity
  8
0
  6
Continuous
 62
     7
370
    25
100
AcDbCircle
 10
126.8327641854
 20
625.1933111461
 30
0.0
 40
4.750000000000024
  0
CIRCLE
  5
10A
330
1F
100
AcDbEntity
  8
0
  6
Continuous
 62
     7
370
    25
100
AcDbCircle
 10
126.8327641854
 20
625.1933111461
 30
0.0
 40
2.166856000000018
  0
LINE
  5
10B
330
1F
100
AcDbEntity
  8
0
  6
Continuous
 62
     7
370
    25
100
AcDbLine
 10
125.1573942295
 20
625.6327830005
 30
0.0
 11
125.6144854173
 21
623.9621341307
 31
0.0
  0
LINE
  5
10C
330
1F
100
AcDbEntity
  8
0
  6
Continuous
 62
     7
370
    25
100
AcDbLine
 10
125.6144854173
 20
623.9621341307
 30
0.0
 11
127.2898553732
 21
623.5226622763
 31
0.0
  0
LINE
  5
10D
330
1F
100
AcDbEntity
  8
0
  6
Continuous
 62
     7
370
    25
100
AcDbLine
 10
127.2898553732
 20
623.5226622763
 30
0.0
 11
128.5081341413
 21
624.7538392916
 31
0.0
  0
LINE
  5
10E
330
1F
100
AcDbEntity
  8
0
  6
Continuous
 62
     7
370
    25
100
AcDbLine
 10
128.5081341413
 20
624.7538392916
 30
0.0
 11
128.0510429535
 21
626.4244881614
 31
0.0
  0
LINE
  5
10F
330
1F
100
AcDbEntity
  8
0
  6
Continuous
 62
     7
370
    25
100
AcDbLine
 10
128.0510429535
 20
626.4244881614
 30
0.0
 11
126.3756729976
 21
626.8639600159
 31
0.0
  0
LINE
  5
110
330
1F
100
AcDbEntity
  8
0
  6
Continuous
 62
     7
370
    25
100
AcDbLine
 10
126.3756729976
 20
626.8639600159
 30
0.0
 11
125.1573942295
 21
625.6327830005
 31
0.0
  0
CIRCLE
  5
111
330
1F
100
AcDbEntity
  8
0
  6
Continuous
 62
     7
370
    25
100
AcDbCircle
 10
179.0327641854
 20
686.5071019613
 30
0.0
 40
4.750000000000087
  0
CIRCLE
  5
112
330
1F
100
AcDbEntity
  8
0
  6
Continuous
 62
     7
370
    25
100
AcDbCircle
 10
179.0327641854
 20
686.5071019613
 30
0.0
 40
2.166856000000077
  0
LINE
  5
113
330
1F
100
AcDbEntity
  8
0
  6
Continuous
 62
     7
370
    25
100
AcDbLine
 10
178.7348732995
 20
684.8008601789
 30
0.0
 11
180.361467471
 21
685.3959999953
 31
0.0
  0
LINE
  5
114
330
1F
100
AcDbEntity
  8
0
  6
Continuous
 62
     7
370
    25
100
AcDbLine
 10
180.361467471
 20
685.3959999953
 30
0.0
 11
180.6593583569
 21
687.1022417777
 31
0.0
  0
LINE
  5
115
330
1F
100
AcDbEntity
  8
0
  6
Continuous
 62
     7
370
    25
100
AcDbLine
 10
180.6593583569
 20
687.1022417777
 30
0.0
 11
179.3306550714
 21
688.2133437437
 31
0.0
  0
LINE
  5
116
330
1F
100
AcDbEntity
  8
0
  6
Continuous
 62
     7
370
    25
100
AcDbLine
 10
179.3306550714
 20
688.2133437437
 30
0.0
 11
177.7040608998
 21
687.6182039273
 31
0.0
  0
LINE
  5
117
330
1F
100
AcDbEntity
  8
0
  6
Continuous
 62
     7
370
    25
100
AcDbLine
 10
177.7040608998
 20
687.6182039273
 30
0.0
 11
177.4061700139
 21
685.9119621449
 31
0.0
  0
LINE
  5
118
330
1F
100
AcDbEntity
  8
0
  6
Continuous
 62
     7
370
    25
100
AcDbLine
 10
177.4061700139
 20
685.9119621449
 30
0.0
 11
178.7348732995
 21
684.8008601789
 31
0.0
  0
LINE
  5
119
330
1F
100
AcDbEntity
  8
0
  6
Continuous
 62
     7
370
    25
100
AcDbLine
 10
97.6327641854
 20
581.9933111461
 30
0.0
 11
97.6327641854
 21
668.3933111461
 31
0.0
  0
LINE
  5
11A
330
1F
100
AcDbEntity
  8
0
  6
Continuous
 62
     7
370
    25
100
AcDbLine
 10
97.6327641854
 20
672.1933111461
 30
0.0
 11
97.6327641854
 21
668.3933111461
 31
0.0
  0
LINE
  5
11B
330
1F
100
AcDbEntity
  8
0
  6
Continuous
 62
     7
370
    25
100
AcDbLine
 10
97.6327641854
 20
672.1933111461
 30
0.0
 11
134.8327641854
 21
672.1933111461
 31
0.0
  0
LINE
  5
11C
330
1F
100
AcDbEntity
  8
0
  6
Continuous
 62
     7
370
    25
100
AcDbLine
 10
134.8327641854
 20
672.1933111461
 30
0.0
 11
134.8327641854
 21
578.1933111461
 31
0.0
  0
LINE
  5
11D
330
1F
100
AcDbEntity
  8
0
  6
Continuous
 62
     7
370
    25
100
AcDbLine
 10
134.8327641854
 20
578.1933111461
 30
0.0
 11
97.6327641854
 21
578.1933111461
 31
0.0
  0
LINE
  5
11E
330
1F
100
AcDbEntity
  8
0
  6
Continuous
 62
     7
370
    25
100
AcDbLine
 10
97.6327641854
 20
581.9933111461
 30
0.0
 11
97.6327641854
 21
578.1933111461
 31
0.0
  0
LINE
  5
11F
330
1F
100
AcDbEntity
  8
0
  6
Continuous
 62
     7
370
    25
100
AcDbLine
 10
93.8327641854
 20
668.3933111461
 30
0.0
 11
93.8327641854
 21
581.9933111461
 31
0.0
  0
LINE
  5
120
330
1F
100
AcDbEntity
  8
0
  6
Continuous
 62
     7
370
    25
100
AcDbLine
 10
97.6327641854
 20
668.3933111461
 30
0.0
 11
93.8327641854
 21
668.3933111461
 31
0.0
  0
LINE
  5
121
330
1F
100
AcDbEntity
  8
0
  6
Continuous
 62
     7
370
    25
100
AcDbLine
 10
93.8327641854
 20
581.9933111461
 30
0.0
 11
97.6327641854
 21
581.9933111461
 31
0.0
  0
ARC
  5
122
330
1F
100
AcDbEntity
  8
0
  6
Continuous
 62
     7
370
    25
100
AcDbCircle
 10
97.6327641854
 20
581.9933111461
 30
0.0
 40
0.8000000000000682
100
AcDbArc
 50
180.0
 51
270.0
  0
ARC
  5
123
330
1F
100
AcDbEntity
  8
0
  6
Continuous
 62
     7
370
    25
100
AcDbCircle
 10
97.6327641854
 20
581.9933111461
 30
0.0
 40
3.800000000000068
100
AcDbArc
 50
180.0
 51
270.0
  0
ARC
  5
124
330
1F
100
AcDbEntity
  8
0
  6
Continuous
 62
     7
370
    25
100
AcDbCircle
 10
97.6327641854
 20
668.3933111461
 30
0.0
 40
3.800000000000068
100
AcDbArc
 50
90.0
 51
180.0
  0
ARC
  5
125
330
1F
100
AcDbEntity
  8
0
  6
Continuous
 62
     7
370
    25
100
AcDbCircle
 10
97.6327641854
 20
668.3933111461
 30
0.0
 40
0.8000000000000682
100
AcDbArc
 50
90.0
 51
180.0
  0
ARC
  5
126
330
1F
100
AcDbEntity
  8
0
  6
Continuous
 62
     7
370
    25
100
AcDbCircle
 10
133.8327641854
 20
658.1933111461
 30
0.0
 40
2.00000000000001
100
AcDbArc
 50
0.0
 51
60.0
  0
ARC
  5
127
330
1F
100
AcDbEntity
  8
0
  6
Continuous
 62
     7
370
    25
100
AcDbCircle
 10
133.8327641854
 20
592.1933111461
 30
0.0
 40
2.0
100
AcDbArc
 50
300.0
 51
0.0
  0
LINE
  5
128
330
1F
100
AcDbEntity
  8
0
  6
Continuous
 62
     7
370
    25
100
AcDbLine
 10
135.8327641854
 20
582.1933111461
 30
0.0
 11
134.8327641854
 21
582.1933111461
 31
0.0
  0
LINE
  5
129
330
1F
100
AcDbEntity
  8
0
  6
Continuous
 62
     7
370
    25
100
AcDbLine
 10
134.8327641854
 20
585.1933111461
 30
0.0
 11
135.8327641854
 21
585.1933111461
 31
0.0
  0
LINE
  5
12A
330
1F
100
AcDbEntity
  8
0
  6
Continuous
 62
     7
370
    25
100
AcDbLine
 10
135.8327641854
 20
665.1933111461
 30
0.0
 11
134.8327641854
 21
665.1933111461
 31
0.0
  0
LINE
  5
12B
330
1F
100
AcDbEntity
  8
0
  6
Continuous
 62
     7
370
    25
100
AcDbLine
 10
134.8327641854
 20
668.1933111461
 30
0.0
 11
135.8327641854
 21
668.1933111461
 31
0.0
  0
ARC
  5
12C
330
1F
100
AcDbEntity
  8
0
  6
Continuous
 62
     7
370
    25
100
AcDbCircle
 10
212.3577641854
 20
548.5069845088
 30
0.0
 40
0.7499999999998809
100
AcDbArc
 50
273.8225537293
 51
266.1774462707
  0
LINE
  5
12D
330
1F
100
AcDbEntity
  8
0
  6
Continuous
 62
     7
370
    25
100
AcDbLine
 10
212.3077641854
 20
547.7586530315
 30
0.0
 11
212.3077641854
 21
539.2554334386
 31
0.0
  0
ARC
  5
12E
330
1F
100
AcDbEntity
  8
0
  6
Continuous
 62
     7
370
    25
100
AcDbCircle
 10
212.3577641854
 20
538.5071019613
 30
0.0
 40
0.7499999999999943
100
AcDbArc
 50
93.8225537293
 51
86.1774462707
  0
LINE
  5
12F
330
1F
100
AcDbEntity
  8
0
  6
Continuous
 62
     7
370
    25
100
AcDbLine
 10
212.4077641854
 20
539.2554334386
 30
0.0
 11
212.4077641854
 21
543.4559958381
 31
0.0
  0
LINE
  5
130
330
1F
100
AcDbEntity
  8
0
  6
Continuous
 62
     7
370
    25
100
AcDbLine
 10
212.4077641854
 20
543.4559958381
 30
0.0
 11
218.6327641854
 21
543.4559958381
 31
0.0
  0
LINE
  5
131
330
1F
100
AcDbEntity
  8
0
  6
Continuous
 62
     7
370
    25
100
AcDbLine
 10
218.6327641854
 20
543.4559958381
 30
0.0
 11
218.6327641854
 21
539.2554334386
 31
0.0
  0
ARC
  5
132
330
1F
100
AcDbEntity
  8
0
  6
Continuous
 62
     7
370
    25
100
AcDbCircle
 10
218.6827641854
 20
538.5071019613
 30
0.0
 40
0.7499999999999943
100
AcDbArc
 50
93.8225537293
 51
86.1774462707
  0
LINE
  5
133
330
1F
100
AcDbEntity
  8
0
  6
Continuous
 62
     7
370
    25
100
AcDbLine
 10
218.7327641854
 20
539.2554334386
 30
0.0
 11
218.7327641854
 21
547.7565582375
 31
0.0
  0
ARC
  5
134
330
1F
100
AcDbEntity
  8
0
  6
Continuous
 62
     7
370
    25
100
AcDbCircle
 10
218.6827641854
 20
548.5048897149
 30
0.0
 40
0.7500000000001096
100
AcDbArc
 50
273.8225537293
 51
266.1774462707
  0
LINE
  5
135
330
1F
100
AcDbEntity
  8
0
  6
Continuous
 62
     7
370
    25
100
AcDbLine
 10
218.6327641854
 20
547.7565582375
 30
0.0
 11
218.6327641854
 21
543.5559958381
 31
0.0
  0
LINE
  5
136
330
1F
100
AcDbEntity
  8
0
  6
Continuous
 62
     7
370
    25
100
AcDbLine
 10
218.6327641854
 20
543.5559958381
 30
0.0
 11
212.4077641854
 21
543.5559958381
 31
0.0
  0
LINE
  5
137
330
1F
100
AcDbEntity
  8
0
  6
Continuous
 62
     7
370
    25
100
AcDbLine
 10
212.4077641854
 20
543.5559958381
 30
0.0
 11
212.4077641854
 21
547.7586530315
 31
0.0
  0
ARC
  5
138
330
1F
100
AcDbEntity
  8
0
  6
Continuous
 62
     7
370
    25
100
AcDbCircle
 10
191.4977641854
 20
548.5069845088
 30
0.0
 40
0.7499999999998809
100
AcDbArc
 50
273.8225537293
 51
266.1774462707
  0
LINE
  5
139
330
1F
100
AcDbEntity
  8
0
  6
Continuous
 62
     7
370
    25
100
AcDbLine
 10
191.4477641854
 20
547.7586530315
 30
0.0
 11
191.4477641854
 21
539.2554334386
 31
0.0
  0
ARC
  5
13A
330
1F
100
AcDbEntity
  8
0
  6
Continuous
 62
     7
370
    25
100
AcDbCircle
 10
191.4977641854
 20
538.5071019613
 30
0.0
 40
0.7500000000001078
100
AcDbArc
 50
93.8225537293
 51
86.1774462707
  0
LINE
  5
13B
330
1F
100
AcDbEntity
  8
0
  6
Continuous
 62
     7
370
    25
100
AcDbLine
 10
191.5477641854
 20
539.2554334386
 30
0.0
 11
191.5477641854
 21
543.4559958381
 31
0.0
  0
LINE
  5
13C
330
1F
100
AcDbEntity
  8
0
  6
Continuous
 62
     7
370
    25
100
AcDbLine
 10
191.5477641854
 20
543.4559958381
 30
0.0
 11
197.7727641854
 21
543.4559958381
 31
0.0
  0
LINE
  5
13D
330
1F
100
AcDbEntity
  8
0
  6
Continuous
 62
     7
370
    25
100
AcDbLine
 10
197.7727641854
 20
543.4559958381
 30
0.0
 11
197.7727641854
 21
539.2554334386
 31
0.0
  0
ARC
  5
13E
330
1F
100
AcDbEntity
  8
0
  6
Continuous
 62
     7
370
    25
100
AcDbCircle
 10
197.8227641854
 20
538.5071019613
 30
0.0
 40
0.7500000000001058
100
AcDbArc
 50
93.8225537293
 51
86.1774462707
  0
LINE
  5
13F
330
1F
100
AcDbEntity
  8
0
  6
Continuous
 62
     7
370
    25
100
AcDbLine
 10
197.8727641854
 20
539.2554334386
 30
0.0
 11
197.8727641854
 21
547.7565582375
 31
0.0
  0
ARC
  5
140
330
1F
100
AcDbEntity
  8
0
  6
Continuous
 62
     7
370
    25
100
AcDbCircle
 10
197.8227641854
 20
548.5048897149
 30
0.0
 40
0.7499999999999923
100
AcDbArc
 50
273.8225537293
 51
266.1774462707
  0
LINE
  5
141
330
1F
100
AcDbEntity
  8
0
  6
Continuous
 62
     7
370
    25
100
AcDbLine
 10
197.7727641854
 20
547.7565582375
 30
0.0
 11
197.7727641854
 21
543.5559958381
 31
0.0
  0
LINE
  5
142
330
1F
100
AcDbEntity
  8
0
  6
Continuous
 62
     7
370
    25
100
AcDbLine
 10
197.7727641854
 20
543.5559958381
 30
0.0
 11
191.5477641854
 21
543.5559958381
 31
0.0
  0
LINE
  5
143
330
1F
100
AcDbEntity
  8
0
  6
Continuous
 62
     7
370
    25
100
AcDbLine
 10
191.5477641854
 20
543.5559958381
 30
0.0
 11
191.5477641854
 21
547.7586530315
 31
0.0
  0
LINE
  5
144
330
1F
100
AcDbEntity
  8
0
  6
Continuous
 62
     7
370
    25
100
AcDbLine
 10
221.9327641854
 20
551.5071019613
 30
0.0
 11
179.1327641854
 21
551.5071019613
 31
0.0
  0
LINE
  5
145
330
1F
100
AcDbEntity
  8
0
  6
Continuous
 62
     7
370
    25
100
AcDbLine
 10
221.9327641854
 20
551.5071019613
 30
0.0
 11
221.9327641854
 21
432.0674755301
 31
0.0
  0
LINE
  5
146
330
1F
100
AcDbEntity
  8
0
  6
Continuous
 62
     7
370
    25
100
AcDbLine
 10
179.1327641854
 20
462.0363581654
 30
0.0
 11
221.9327641854
 21
432.0674755301
 31
0.0
  0
CIRCLE
  5
147
330
1F
100
AcDbEntity
  8
0
  6
Continuous
 62
     7
370
    25
100
AcDbCircle
 10
215.5202641854
 20
538.5071019613
 30
0.0
 40
0.75
  0
CIRCLE
  5
148
330
1F
100
AcDbEntity
  8
0
  6
Continuous
 62
     7
370
    25
100
AcDbCircle
 10
215.5202641854
 20
548.5059371118
 30
0.0
 40
0.75
  0
CIRCLE
  5
149
330
1F
100
AcDbEntity
  8
0
  6
Continuous
 62
     7
370
    25
100
AcDbCircle
 10
194.6602641854
 20
538.5071019613
 30
0.0
 40
0.75
  0
CIRCLE
  5
14A
330
1F
100
AcDbEntity
  8
0
  6
Continuous
 62
     7
370
    25
100
AcDbCircle
 10
194.6602641854
 20
548.5059371118
 30
0.0
 40
0.7499999999999716
  0
LINE
  5
14B
330
1F
100
AcDbEntity
  8
0
  6
Continuous
 62
     7
370
    25
100
AcDbLine
 10
223.7327641854
 20
551.5071019613
 30
0.0
 11
221.9327641854
 21
551.5071019613
 31
0.0
  0
LINE
  5
14C
330
1F
100
AcDbEntity
  8
0
  6
Continuous
 62
     7
370
    25
100
AcDbLine
 10
223.7327641854
 20
430.8071019613
 30
0.0
 11
223.7327641854
 21
551.5071019613
 31
0.0
  0
LINE
  5
14D
330
1F
100
AcDbEntity
  8
0
  6
Continuous
 62
     7
370
    25
100
AcDbLine
 10
223.7327641854
 20
430.8071019613
 30
0.0
 11
221.9327641854
 21
432.0674755301
 31
0.0
  0
ARC
  5
14E
330
1F
100
AcDbEntity
  8
0
  6
Continuous
 62
     7
370
    25
100
AcDbCircle
 10
139.3477641854
 20
548.5069845088
 30
0.0
 40
0.7499999999999943
100
AcDbArc
 50
273.8225537293
 51
266.1774462707
  0
LINE
  5
14F
330
1F
100
AcDbEntity
  8
0
  6
Continuous
 62
     7
370
    25
100
AcDbLine
 10
139.2977641854
 20
547.7586530315
 30
0.0
 11
139.2977641854
 21
539.2554334386
 31
0.0
  0
ARC
  5
150
330
1F
100
AcDbEntity
  8
0
  6
Continuous
 62
     7
370
    25
100
AcDbCircle
 10
139.3477641854
 20
538.5071019613
 30
0.0
 40
0.7500000000001058
100
AcDbArc
 50
93.8225537293
 51
86.1774462707
  0
LINE
  5
151
330
1F
100
AcDbEntity
  8
0
  6
Continuous
 62
     7
370
    25
100
AcDbLine
 10
139.3977641854
 20
539.2554334386
 30
0.0
 11
139.3977641854
 21
543.4559958381
 31
0.0
  0
LINE
  5
152
330
1F
100
AcDbEntity
  8
0
  6
Continuous
 62
     7
370
    25
100
AcDbLine
 10
139.3977641854
 20
543.4559958381
 30
0.0
 11
145.6227641854
 21
543.4559958381
 31
0.0
  0
LINE
  5
153
330
1F
100
AcDbEntity
  8
0
  6
Continuous
 62
     7
370
    25
100
AcDbLine
 10
145.6227641854
 20
543.4559958381
 30
0.0
 11
145.6227641854
 21
539.2554334386
 31
0.0
  0
ARC
  5
154
330
1F
100
AcDbEntity
  8
0
  6
Continuous
 62
     7
370
    25
100
AcDbCircle
 10
145.6727641854
 20
538.5071019613
 30
0.0
 40
0.7500000000001078
100
AcDbArc
 50
93.8225537293
 51
86.1774462707
  0
LINE
  5
155
330
1F
100
AcDbEntity
  8
0
  6
Continuous
 62
     7
370
    25
100
AcDbLine
 10
145.7227641854
 20
539.2554334386
 30
0.0
 11
145.7227641854
 21
547.7565582375
 31
0.0
  0
ARC
  5
156
330
1F
100
AcDbEntity
  8
0
  6
Continuous
 62
     7
370
    25
100
AcDbCircle
 10
145.6727641854
 20
548.5048897149
 30
0.0
 40
0.7499999999999961
100
AcDbArc
 50
273.8225537293
 51
266.1774462707
  0
LINE
  5
157
330
1F
100
AcDbEntity
  8
0
  6
Continuous
 62
     7
370
    25
100
AcDbLine
 10
145.6227641854
 20
547.7565582375
 30
0.0
 11
145.6227641854
 21
543.5559958381
 31
0.0
  0
LINE
  5
158
330
1F
100
AcDbEntity
  8
0
  6
Continuous
 62
     7
370
    25
100
AcDbLine
 10
145.6227641854
 20
543.5559958381
 30
0.0
 11
139.3977641854
 21
543.5559958381
 31
0.0
  0
LINE
  5
159
330
1F
100
AcDbEntity
  8
0
  6
Continuous
 62
     7
370
    25
100
AcDbLine
 10
139.3977641854
 20
543.5559958381
 30
0.0
 11
139.3977641854
 21
547.7586530315
 31
0.0
  0
ARC
  5
15A
330
1F
100
AcDbEntity
  8
0
  6
Continuous
 62
     7
370
    25
100
AcDbCircle
 10
160.2077641854
 20
548.5069845088
 30
0.0
 40
0.7499999999999943
100
AcDbArc
 50
273.8225537293
 51
266.1774462707
  0
LINE
  5
15B
330
1F
100
AcDbEntity
  8
0
  6
Continuous
 62
     7
370
    25
100
AcDbLine
 10
160.1577641854
 20
547.7586530315
 30
0.0
 11
160.1577641854
 21
539.2554334386
 31
0.0
  0
ARC
  5
15C
330
1F
100
AcDbEntity
  8
0
  6
Continuous
 62
     7
370
    25
100
AcDbCircle
 10
160.2077641854
 20
538.5071019613
 30
0.0
 40
0.7500000000001058
100
AcDbArc
 50
93.8225537293
 51
86.1774462707
  0
LINE
  5
15D
330
1F
100
AcDbEntity
  8
0
  6
Continuous
 62
     7
370
    25
100
AcDbLine
 10
160.2577641854
 20
539.2554334386
 30
0.0
 11
160.2577641854
 21
543.4559958381
 31
0.0
  0
LINE
  5
15E
330
1F
100
AcDbEntity
  8
0
  6
Continuous
 62
     7
370
    25
100
AcDbLine
 10
160.2577641854
 20
543.4559958381
 30
0.0
 11
166.4827641854
 21
543.4559958381
 31
0.0
  0
LINE
  5
15F
330
1F
100
AcDbEntity
  8
0
  6
Continuous
 62
     7
370
    25
100
AcDbLine
 10
166.4827641854
 20
543.4559958381
 30
0.0
 11
166.4827641854
 21
539.2554334386
 31
0.0
  0
ARC
  5
160
330
1F
100
AcDbEntity
  8
0
  6
Continuous
 62
     7
370
    25
100
AcDbCircle
 10
166.5327641854
 20
538.5071019613
 30
0.0
 40
0.7500000000001078
100
AcDbArc
 50
93.8225537293
 51
86.1774462707
  0
LINE
  5
161
330
1F
100
AcDbEntity
  8
0
  6
Continuous
 62
     7
370
    25
100
AcDbLine
 10
166.5827641854
 20
539.2554334386
 30
0.0
 11
166.5827641854
 21
547.7565582375
 31
0.0
  0
ARC
  5
162
330
1F
100
AcDbEntity
  8
0
  6
Continuous
 62
     7
370
    25
100
AcDbCircle
 10
166.5327641854
 20
548.5048897149
 30
0.0
 40
0.7499999999999943
100
AcDbArc
 50
273.8225537293
 51
266.1774462707
  0
LINE
  5
163
330
1F
100
AcDbEntity
  8
0
  6
Continuous
 62
     7
370
    25
100
AcDbLine
 10
166.4827641854
 20
547.7565582375
 30
0.0
 11
166.4827641854
 21
543.5559958381
 31
0.0
  0
LINE
  5
164
330
1F
100
AcDbEntity
  8
0
  6
Continuous
 62
     7
370
    25
100
AcDbLine
 10
166.4827641854
 20
543.5559958381
 30
0.0
 11
160.2577641854
 21
543.5559958381
 31
0.0
  0
LINE
  5
165
330
1F
100
AcDbEntity
  8
0
  6
Continuous
 62
     7
370
    25
100
AcDbLine
 10
160.2577641854
 20
543.5559958381
 30
0.0
 11
160.2577641854
 21
547.7586530315
 31
0.0
  0
LINE
  5
166
330
1F
100
AcDbEntity
  8
0
  6
Continuous
 62
     7
370
    25
100
AcDbLine
 10
178.9327641854
 20
551.5071019613
 30
0.0
 11
136.1327641854
 21
551.5071019613
 31
0.0
  0
LINE
  5
167
330
1F
100
AcDbEntity
  8
0
  6
Continuous
 62
     7
370
    25
100
AcDbLine
 10
136.1327641854
 20
492.1452823084
 30
0.0
 11
136.1327641854
 21
551.5071019613
 31
0.0
  0
CIRCLE
  5
168
330
1F
100
AcDbEntity
  8
0
  6
Continuous
 62
     7
370
    25
100
AcDbCircle
 10
163.4052641854
 20
538.5071019613
 30
0.0
 40
0.75
  0
CIRCLE
  5
169
330
1F
100
AcDbEntity
  8
0
  6
Continuous
 62
     7
370
    25
100
AcDbCircle
 10
142.5452641854
 20
548.5059371118
 30
0.0
 40
0.75
  0
CIRCLE
  5
16A
330
1F
100
AcDbEntity
  8
0
  6
Continuous
 62
     7
370
    25
100
AcDbCircle
 10
142.5452641854
 20
538.5071019613
 30
0.0
 40
0.75
  0
CIRCLE
  5
16B
330
1F
100
AcDbEntity
  8
0
  6
Continuous
 62
     7
370
    25
100
AcDbCircle
 10
163.4052641854
 20
548.5059371118
 30
0.0
 40
0.75
  0
LINE
  5
16C
330
1F
100
AcDbEntity
  8
0
  6
Continuous
 62
     7
370
    25
100
AcDbLine
 10
136.1327641854
 20
492.1452823084
 30
0.0
 11
178.9327641854
 21
462.1763996731
 31
0.0
  0
LINE
  5
16D
330
1F
100
AcDbEntity
  8
0
  6
Continuous
 62
     7
370
    25
100
AcDbLine
 10
134.3327641854
 20
551.5071019613
 30
0.0
 11
134.3327641854
 21
493.4056558772
 31
0.0
  0
LINE
  5
16E
330
1F
100
AcDbEntity
  8
0
  6
Continuous
 62
     7
370
    25
100
AcDbLine
 10
136.1327641854
 20
551.5071019613
 30
0.0
 11
134.3327641854
 21
551.5071019613
 31
0.0
  0
LINE
  5
16F
330
1F
100
AcDbEntity
  8
0
  6
Continuous
 62
     7
370
    25
100
AcDbLine
 10
136.1327641854
 20
492.1452823084
 30
0.0
 11
134.3327641854
 21
493.4056558772
 31
0.0
  0
LINE
  5
170
330
1F
100
AcDbEntity
  8
0
  6
Continuous
 62
     7
370
    25
100
AcDbLine
 10
179.1327641854
 20
462.0363581654
 30
0.0
 11
178.9327641854
 21
462.1763996731
 31
0.0
  0
LINE
  5
171
330
1F
100
AcDbEntity
  8
0
  6
Continuous
 62
     7
370
    25
100
AcDbLine
 10
136.1327641854
 20
702.5071019613
 30
0.0
 11
221.9327641854
 21
702.5071019613
 31
0.0
  0
LINE
  5
172
330
1F
100
AcDbEntity
  8
0
  6
Continuous
 62
     7
370
    25
100
AcDbLine
 10
136.1327641854
 20
702.5071019613
 30
0.0
 11
136.1327641854
 21
761.8689216141
 31
0.0
  0
LINE
  5
173
330
1F
100
AcDbEntity
  8
0
  6
Continuous
 62
     7
370
    25
100
AcDbLine
 10
221.9327641854
 20
821.9467283925
 30
0.0
 11
136.1327641854
 21
761.8689216141
 31
0.0
  0
LINE
  5
174
330
1F
100
AcDbEntity
  8
0
  6
Continuous
 62
     7
370
    25
100
AcDbLine
 10
221.9327641854
 20
821.9467283925
 30
0.0
 11
221.9327641854
 21
702.5071019613
 31
0.0
  0
LINE
  5
175
330
1F
100
AcDbEntity
  8
0
  6
Continuous
 62
     7
370
    25
100
AcDbLine
 10
212.4077641854
 20
710.4582080845
 30
0.0
 11
212.4077641854
 21
706.2555508911
 31
0.0
  0
LINE
  5
176
330
1F
100
AcDbEntity
  8
0
  6
Continuous
 62
     7
370
    25
100
AcDbLine
 10
218.6327641854
 20
710.4582080845
 30
0.0
 11
212.4077641854
 21
710.4582080845
 31
0.0
  0
LINE
  5
177
330
1F
100
AcDbEntity
  8
0
  6
Continuous
 62
     7
370
    25
100
AcDbLine
 10
218.6327641854
 20
706.2576456851
 30
0.0
 11
218.6327641854
 21
710.4582080845
 31
0.0
  0
ARC
  5
178
330
1F
100
AcDbEntity
  8
0
  6
Continuous
 62
     7
370
    25
100
AcDbCircle
 10
218.6827641854
 20
705.5093142077
 30
0.0
 40
0.7500000000001096
100
AcDbArc
 50
93.8225537293
 51
86.1774462707
  0
LINE
  5
179
330
1F
100
AcDbEntity
  8
0
  6
Continuous
 62
     7
370
    25
100
AcDbLine
 10
218.7327641854
 20
714.7587704839
 30
0.0
 11
218.7327641854
 21
706.2576456851
 31
0.0
  0
ARC
  5
17A
330
1F
100
AcDbEntity
  8
0
  6
Continuous
 62
     7
370
    25
100
AcDbCircle
 10
218.6827641854
 20
715.5071019613
 30
0.0
 40
0.7499999999998826
100
AcDbArc
 50
273.8225537293
 51
266.1774462707
  0
LINE
  5
17B
330
1F
100
AcDbEntity
  8
0
  6
Continuous
 62
     7
370
    25
100
AcDbLine
 10
218.6327641854
 20
710.5582080845
 30
0.0
 11
218.6327641854
 21
714.7587704839
 31
0.0
  0
LINE
  5
17C
330
1F
100
AcDbEntity
  8
0
  6
Continuous
 62
     7
370
    25
100
AcDbLine
 10
212.4077641854
 20
710.5582080845
 30
0.0
 11
218.6327641854
 21
710.5582080845
 31
0.0
  0
LINE
  5
17D
330
1F
100
AcDbEntity
  8
0
  6
Continuous
 62
     7
370
    25
100
AcDbLine
 10
212.4077641854
 20
714.7587704839
 30
0.0
 11
212.4077641854
 21
710.5582080845
 31
0.0
  0
ARC
  5
17E
330
1F
100
AcDbEntity
  8
0
  6
Continuous
 62
     7
370
    25
100
AcDbCircle
 10
212.3577641854
 20
715.5071019613
 30
0.0
 40
0.7499999999998826
100
AcDbArc
 50
273.8225537293
 51
266.1774462707
  0
LINE
  5
17F
330
1F
100
AcDbEntity
  8
0
  6
Continuous
 62
     7
370
    25
100
AcDbLine
 10
212.3077641854
 20
706.2555508911
 30
0.0
 11
212.3077641854
 21
714.7587704839
 31
0.0
  0
ARC
  5
180
330
1F
100
AcDbEntity
  8
0
  6
Continuous
 62
     7
370
    25
100
AcDbCircle
 10
212.3577641854
 20
705.5072194137
 30
0.0
 40
0.7500000000001096
100
AcDbArc
 50
93.8225537293
 51
86.1774462707
  0
LINE
  5
181
330
1F
100
AcDbEntity
  8
0
  6
Continuous
 62
     7
370
    25
100
AcDbLine
 10
191.5477641854
 20
710.4582080845
 30
0.0
 11
191.5477641854
 21
706.2555508911
 31
0.0
  0
LINE
  5
182
330
1F
100
AcDbEntity
  8
0
  6
Continuous
 62
     7
370
    25
100
AcDbLine
 10
197.7727641854
 20
710.4582080845
 30
0.0
 11
191.5477641854
 21
710.4582080845
 31
0.0
  0
LINE
  5
183
330
1F
100
AcDbEntity
  8
0
  6
Continuous
 62
     7
370
    25
100
AcDbLine
 10
197.7727641854
 20
706.2576456851
 30
0.0
 11
197.7727641854
 21
710.4582080845
 31
0.0
  0
LINE
  5
184
330
1F
100
AcDbEntity
  8
0
  6
Continuous
 62
     7
370
    25
100
AcDbLine
 10
197.8727641854
 20
714.7587704839
 30
0.0
 11
197.8727641854
 21
706.2576456851
 31
0.0
  0
LINE
  5
185
330
1F
100
AcDbEntity
  8
0
  6
Continuous
 62
     7
370
    25
100
AcDbLine
 10
191.5477641854
 20
710.5582080845
 30
0.0
 11
197.7727641854
 21
710.5582080845
 31
0.0
  0
LINE
  5
186
330
1F
100
AcDbEntity
  8
0
  6
Continuous
 62
     7
370
    25
100
AcDbLine
 10
191.5477641854
 20
714.7587704839
 30
0.0
 11
191.5477641854
 21
710.5582080845
 31
0.0
  0
ARC
  5
187
330
1F
100
AcDbEntity
  8
0
  6
Continuous
 62
     7
370
    25
100
AcDbCircle
 10
191.4977641854
 20
715.5071019613
 30
0.0
 40
0.7499999999998809
100
AcDbArc
 50
273.8225537293
 51
266.1774462707
  0
LINE
  5
188
330
1F
100
AcDbEntity
  8
0
  6
Continuous
 62
     7
370
    25
100
AcDbLine
 10
191.4477641854
 20
706.2555508911
 30
0.0
 11
191.4477641854
 21
714.7587704839
 31
0.0
  0
ARC
  5
189
330
1F
100
AcDbEntity
  8
0
  6
Continuous
 62
     7
370
    25
100
AcDbCircle
 10
191.4977641854
 20
705.5072194137
 30
0.0
 40
0.7500000000001078
100
AcDbArc
 50
93.8225537293
 51
86.1774462707
  0
LINE
  5
18A
330
1F
100
AcDbEntity
  8
0
  6
Continuous
 62
     7
370
    25
100
AcDbLine
 10
160.2577641854
 20
710.4582080845
 30
0.0
 11
160.2577641854
 21
706.2555508911
 31
0.0
  0
LINE
  5
18B
330
1F
100
AcDbEntity
  8
0
  6
Continuous
 62
     7
370
    25
100
AcDbLine
 10
166.4827641854
 20
710.4582080845
 30
0.0
 11
160.2577641854
 21
710.4582080845
 31
0.0
  0
LINE
  5
18C
330
1F
100
AcDbEntity
  8
0
  6
Continuous
 62
     7
370
    25
100
AcDbLine
 10
166.4827641854
 20
706.2576456851
 30
0.0
 11
166.4827641854
 21
710.4582080845
 31
0.0
  0
ARC
  5
18D
330
1F
100
AcDbEntity
  8
0
  6
Continuous
 62
     7
370
    25
100
AcDbCircle
 10
166.5327641854
 20
705.5093142077
 30
0.0
 40
0.7500000000001078
100
AcDbArc
 50
93.8225537293
 51
86.1774462707
  0
LINE
  5
18E
330
1F
100
AcDbEntity
  8
0
  6
Continuous
 62
     7
370
    25
100
AcDbLine
 10
166.5827641854
 20
714.7587704839
 30
0.0
 11
166.5827641854
 21
706.2576456851
 31
0.0
  0
ARC
  5
18F
330
1F
100
AcDbEntity
  8
0
  6
Continuous
 62
     7
370
    25
100
AcDbCircle
 10
166.5327641854
 20
715.5071019613
 30
0.0
 40
0.7499999999998809
100
AcDbArc
 50
273.8225537293
 51
266.1774462707
  0
LINE
  5
190
330
1F
100
AcDbEntity
  8
0
  6
Continuous
 62
     7
370
    25
100
AcDbLine
 10
166.4827641854
 20
710.5582080845
 30
0.0
 11
166.4827641854
 21
714.7587704839
 31
0.0
  0
LINE
  5
191
330
1F
100
AcDbEntity
  8
0
  6
Continuous
 62
     7
370
    25
100
AcDbLine
 10
160.2577641854
 20
710.5582080845
 30
0.0
 11
166.4827641854
 21
710.5582080845
 31
0.0
  0
LINE
  5
192
330
1F
100
AcDbEntity
  8
0
  6
Continuous
 62
     7
370
    25
100
AcDbLine
 10
160.2577641854
 20
714.7587704839
 30
0.0
 11
160.2577641854
 21
710.5582080845
 31
0.0
  0
ARC
  5
193
330
1F
100
AcDbEntity
  8
0
  6
Continuous
 62
     7
370
    25
100
AcDbCircle
 10
160.2077641854
 20
715.5071019613
 30
0.0
 40
0.7499999999998809
100
AcDbArc
 50
273.8225537293
 51
266.1774462707
  0
LINE
  5
194
330
1F
100
AcDbEntity
  8
0
  6
Continuous
 62
     7
370
    25
100
AcDbLine
 10
160.1577641854
 20
706.2555508911
 30
0.0
 11
160.1577641854
 21
714.7587704839
 31
0.0
  0
ARC
  5
195
330
1F
100
AcDbEntity
  8
0
  6
Continuous
 62
     7
370
    25
100
AcDbCircle
 10
160.2077641854
 20
705.5072194137
 30
0.0
 40
0.7500000000001058
100
AcDbArc
 50
93.8225537293
 51
86.1774462707
  0
LINE
  5
196
330
1F
100
AcDbEntity
  8
0
  6
Continuous
 62
     7
370
    25
100
AcDbLine
 10
139.3977641854
 20
710.4582080845
 30
0.0
 11
139.3977641854
 21
706.2555508911
 31
0.0
  0
LINE
  5
197
330
1F
100
AcDbEntity
  8
0
  6
Continuous
 62
     7
370
    25
100
AcDbLine
 10
145.6227641854
 20
710.4582080845
 30
0.0
 11
139.3977641854
 21
710.4582080845
 31
0.0
  0
LINE
  5
198
330
1F
100
AcDbEntity
  8
0
  6
Continuous
 62
     7
370
    25
100
AcDbLine
 10
145.6227641854
 20
706.2576456851
 30
0.0
 11
145.6227641854
 21
710.4582080845
 31
0.0
  0
ARC
  5
199
330
1F
100
AcDbEntity
  8
0
  6
Continuous
 62
     7
370
    25
100
AcDbCircle
 10
145.6727641854
 20
705.5093142077
 30
0.0
 40
0.7500000000001078
100
AcDbArc
 50
93.8225537293
 51
86.1774462707
  0
LINE
  5
19A
330
1F
100
AcDbEntity
  8
0
  6
Continuous
 62
     7
370
    25
100
AcDbLine
 10
145.7227641854
 20
714.7587704839
 30
0.0
 11
145.7227641854
 21
706.2576456851
 31
0.0
  0
ARC
  5
19B
330
1F
100
AcDbEntity
  8
0
  6
Continuous
 62
     7
370
    25
100
AcDbCircle
 10
145.6727641854
 20
715.5071019613
 30
0.0
 40
0.7499999999998809
100
AcDbArc
 50
273.8225537293
 51
266.1774462707
  0
LINE
  5
19C
330
1F
100
AcDbEntity
  8
0
  6
Continuous
 62
     7
370
    25
100
AcDbLine
 10
145.6227641854
 20
710.5582080845
 30
0.0
 11
145.6227641854
 21
714.7587704839
 31
0.0
  0
LINE
  5
19D
330
1F
100
AcDbEntity
  8
0
  6
Continuous
 62
     7
370
    25
100
AcDbLine
 10
139.3977641854
 20
710.5582080845
 30
0.0
 11
145.6227641854
 21
710.5582080845
 31
0.0
  0
LINE
  5
19E
330
1F
100
AcDbEntity
  8
0
  6
Continuous
 62
     7
370
    25
100
AcDbLine
 10
139.3977641854
 20
714.7587704839
 30
0.0
 11
139.3977641854
 21
710.5582080845
 31
0.0
  0
ARC
  5
19F
330
1F
100
AcDbEntity
  8
0
  6
Continuous
 62
     7
370
    25
100
AcDbCircle
 10
139.3477641854
 20
715.5071019613
 30
0.0
 40
0.7499999999998809
100
AcDbArc
 50
273.8225537293
 51
266.1774462707
  0
LINE
  5
1A0
330
1F
100
AcDbEntity
  8
0
  6
Continuous
 62
     7
370
    25
100
AcDbLine
 10
139.2977641854
 20
706.2555508911
 30
0.0
 11
139.2977641854
 21
714.7587704839
 31
0.0
  0
ARC
  5
1A1
330
1F
100
AcDbEntity
  8
0
  6
Continuous
 62
     7
370
    25
100
AcDbCircle
 10
139.3477641854
 20
705.5072194137
 30
0.0
 40
0.7500000000001078
100
AcDbArc
 50
93.8225537293
 51
86.1774462707
  0
CIRCLE
  5
1A2
330
1F
100
AcDbEntity
  8
0
  6
Continuous
 62
     7
370
    25
100
AcDbCircle
 10
215.5202641854
 20
715.5071019613
 30
0.0
 40
0.75
  0
CIRCLE
  5
1A3
330
1F
100
AcDbEntity
  8
0
  6
Continuous
 62
     7
370
    25
100
AcDbCircle
 10
163.4052641854
 20
715.5071019613
 30
0.0
 40
0.75
  0
CIRCLE
  5
1A4
330
1F
100
AcDbEntity
  8
0
  6
Continuous
 62
     7
370
    25
100
AcDbCircle
 10
142.5452641854
 20
705.5082668107
 30
0.0
 40
0.75
  0
CIRCLE
  5
1A5
330
1F
100
AcDbEntity
  8
0
  6
Continuous
 62
     7
370
    25
100
AcDbCircle
 10
142.5452641854
 20
715.5071019613
 30
0.0
 40
0.75
  0
CIRCLE
  5
1A6
330
1F
100
AcDbEntity
  8
0
  6
Continuous
 62
     7
370
    25
100
AcDbCircle
 10
215.5202641854
 20
705.5082668107
 30
0.0
 40
0.75
  0
CIRCLE
  5
1A7
330
1F
100
AcDbEntity
  8
0
  6
Continuous
 62
     7
370
    25
100
AcDbCircle
 10
194.6602641854
 20
715.5071019613
 30
0.0
 40
0.75
  0
CIRCLE
  5
1A8
330
1F
100
AcDbEntity
  8
0
  6
Continuous
 62
     7
370
    25
100
AcDbCircle
 10
194.6602641854
 20
705.5082668107
 30
0.0
 40
0.7499999999999716
  0
CIRCLE
  5
1A9
330
1F
100
AcDbEntity
  8
0
  6
Continuous
 62
     7
370
    25
100
AcDbCircle
 10
163.4052641854
 20
705.5082668107
 30
0.0
 40
0.75
  0
ARC
  5
1AA
330
1F
100
AcDbEntity
  8
0
  6
Continuous
 62
     7
370
    25
100
AcDbCircle
 10
197.8227641854
 20
715.5071019613
 30
0.0
 40
0.7499999999998789
100
AcDbArc
 50
273.8225537293
 51
266.1774462707
  0
LINE
  5
1AB
330
1F
100
AcDbEntity
  8
0
  6
Continuous
 62
     7
370
    25
100
AcDbLine
 10
197.7727641854
 20
710.5582080845
 30
0.0
 11
197.7727641854
 21
714.7587704839
 31
0.0
  0
ARC
  5
1AC
330
1F
100
AcDbEntity
  8
0
  6
Continuous
 62
     7
370
    25
100
AcDbCircle
 10
197.8227641854
 20
705.5093142077
 30
0.0
 40
0.7500000000001058
100
AcDbArc
 50
93.8225537293
 51
86.1774462707
  0
LINE
  5
1AD
330
1F
100
AcDbEntity
  8
0
  6
Continuous
 62
     7
370
    25
100
AcDbLine
 10
134.3327641854
 20
702.5071019613
 30
0.0
 11
136.1327641854
 21
702.5071019613
 31
0.0
  0
LINE
  5
1AE
330
1F
100
AcDbEntity
  8
0
  6
Continuous
 62
     7
370
    25
100
AcDbLine
 10
134.3327641854
 20
760.6085480453
 30
0.0
 11
134.3327641854
 21
702.5071019613
 31
0.0
  0
LINE
  5
1AF
330
1F
100
AcDbEntity
  8
0
  6
Continuous
 62
     7
370
    25
100
AcDbLine
 10
134.3327641854
 20
760.6085480453
 30
0.0
 11
136.1327641854
 21
761.8689216141
 31
0.0
  0
LINE
  5
1B0
330
1F
100
AcDbEntity
  8
0
  6
Continuous
 62
     7
370
    25
100
AcDbLine
 10
223.7327641854
 20
702.5071019613
 30
0.0
 11
223.7327641854
 21
823.2071019613
 31
0.0
  0
LINE
  5
1B1
330
1F
100
AcDbEntity
  8
0
  6
Continuous
 62
     7
370
    25
100
AcDbLine
 10
221.9327641854
 20
702.5071019613
 30
0.0
 11
223.7327641854
 21
702.5071019613
 31
0.0
  0
LINE
  5
1B2
330
1F
100
AcDbEntity
  8
0
  6
Continuous
 62
     7
370
    25
100
AcDbLine
 10
221.9327641854
 20
821.9467283925
 30
0.0
 11
223.7327641854
 21
823.2071019613
 31
0.0
  0
LINE
  5
1B3
330
1F
100
AcDbEntity
  8
0
  6
Continuous
 62
     8
370
    25
100
AcDbLine
 10
160.7252910312
 20
539.0499333936
 30
0.0
 11
160.1824595989
 21
538.5071019613
 31
0.0
  0
LINE
  5
1B4
330
1F
100
AcDbEntity
  8
0
  6
Continuous
 62
     8
370
    25
100
AcDbLine
 10
166.6080687719
 20
538.5071019613
 30
0.0
 11
166.0414246972
 21
539.0737460359
 31
0.0
  0
LINE
  5
1B5
330
1F
100
AcDbEntity
  8
0
  6
Continuous
 62
     8
370
    25
100
AcDbLine
 10
166.4827641854
 20
539.6317973748
 30
0.0
 11
166.5827641854
 21
539.5317973748
 31
0.0
  0
LINE
  5
1B6
330
1F
100
AcDbEntity
  8
0
  6
Continuous
 62
     8
370
    25
100
AcDbLine
 10
138.8327641854
 20
539.0067973748
 30
0.0
 11
138.9948454411
 21
539.1688786305
 31
0.0
  0
LINE
  5
1B7
330
1F
100
AcDbEntity
  8
0
  6
Continuous
 62
     8
370
    25
100
AcDbLine
 10
139.2977641854
 20
539.4717973748
 30
0.0
 11
139.3977641854
 21
539.5717973748
 31
0.0
  0
LINE
  5
1B8
330
1F
100
AcDbEntity
  8
0
  6
Continuous
 62
     8
370
    25
100
AcDbLine
 10
139.8703867665
 20
539.0450291289
 30
0.0
 11
139.3324595989
 21
538.5071019613
 31
0.0
  0
LINE
  5
1B9
330
1F
100
AcDbEntity
  8
0
  6
Continuous
 62
     8
370
    25
100
AcDbLine
 10
145.7580687719
 20
538.5071019613
 30
0.0
 11
145.1868043506
 21
539.0783663825
 31
0.0
  0
LINE
  5
1BA
330
1F
100
AcDbEntity
  8
0
  6
Continuous
 62
     8
370
    25
100
AcDbLine
 10
166.5827641854
 20
547.4824065478
 30
0.0
 11
166.4827641854
 21
547.3824065478
 31
0.0
  0
LINE
  5
1BB
330
1F
100
AcDbEntity
  8
0
  6
Continuous
 62
     8
370
    25
100
AcDbLine
 10
166.0402410051
 20
547.9392741945
 30
0.0
 11
166.6080687719
 21
548.5071019613
 31
0.0
  0
LINE
  5
1BC
330
1F
100
AcDbEntity
  8
0
  6
Continuous
 62
     8
370
    25
100
AcDbLine
 10
160.1824595989
 20
548.5071019613
 30
0.0
 11
160.7253511556
 21
547.9642104046
 31
0.0
  0
LINE
  5
1BD
330
1F
100
AcDbEntity
  8
0
  6
Continuous
 62
     8
370
    25
100
AcDbLine
 10
139.3324595989
 20
548.5071019613
 30
0.0
 11
139.870446337
 21
547.9691152232
 31
0.0
  0
LINE
  5
1BE
330
1F
100
AcDbEntity
  8
0
  6
Continuous
 62
     8
370
    25
100
AcDbLine
 10
139.3977641854
 20
547.4424065478
 30
0.0
 11
139.2977641854
 21
547.5424065478
 31
0.0
  0
LINE
  5
1BF
330
1F
100
AcDbEntity
  8
0
  6
Continuous
 62
     8
370
    25
100
AcDbLine
 10
138.99509697
 20
547.8450737632
 30
0.0
 11
138.8327641854
 21
548.0074065478
 31
0.0
  0
LINE
  5
1C0
330
1F
100
AcDbEntity
  8
0
  6
Continuous
 62
     8
370
    25
100
AcDbLine
 10
145.1856101419
 20
547.9346433313
 30
0.0
 11
145.7580687719
 21
548.5071019613
 31
0.0
  0
LINE
  5
1C1
330
1F
100
AcDbEntity
  8
0
  6
Continuous
 62
     8
370
    25
100
AcDbLine
 10
159.6827641854
 20
539.0067973748
 30
0.0
 11
159.8323464877
 21
539.1563796771
 31
0.0
  0
LINE
  5
1C2
330
1F
100
AcDbEntity
  8
0
  6
Continuous
 62
     8
370
    25
100
AcDbLine
 10
160.1577641854
 20
539.4817973748
 30
0.0
 11
160.2577641854
 21
539.5817973748
 31
0.0
  0
LINE
  5
1C3
330
1F
100
AcDbEntity
  8
0
  6
Continuous
 62
     8
370
    25
100
AcDbLine
 10
160.2577641854
 20
547.4324065478
 30
0.0
 11
160.1577641854
 21
547.5324065478
 31
0.0
  0
LINE
  5
1C4
330
1F
100
AcDbEntity
  8
0
  6
Continuous
 62
     8
370
    25
100
AcDbLine
 10
159.8326247599
 20
547.8575459733
 30
0.0
 11
159.6827641854
 21
548.0074065478
 31
0.0
  0
LINE
  5
1C5
330
1F
100
AcDbEntity
  8
0
  6
Continuous
 62
     8
370
    25
100
AcDbLine
 10
145.6227641854
 20
539.6417973748
 30
0.0
 11
145.7227641854
 21
539.5417973748
 31
0.0
  0
LINE
  5
1C6
330
1F
100
AcDbEntity
  8
0
  6
Continuous
 62
     8
370
    25
100
AcDbLine
 10
145.7227641854
 20
547.4724065478
 30
0.0
 11
145.6227641854
 21
547.3724065478
 31
0.0
  0
LINE
  5
1C7
330
1F
100
AcDbEntity
  8
0
  6
Continuous
 62
     8
370
    25
100
AcDbLine
 10
219.2327641854
 20
548.0074065478
 30
0.0
 11
219.1231705803
 21
547.8978129426
 31
0.0
  0
LINE
  5
1C8
330
1F
100
AcDbEntity
  8
0
  6
Continuous
 62
     8
370
    25
100
AcDbLine
 10
218.7327641854
 20
547.5074065478
 30
0.0
 11
218.6327641854
 21
547.4074065478
 31
0.0
  0
LINE
  5
1C9
330
1F
100
AcDbEntity
  8
0
  6
Continuous
 62
     8
370
    25
100
AcDbLine
 10
218.6327641854
 20
539.6067973748
 30
0.0
 11
218.7327641854
 21
539.5067973748
 31
0.0
  0
LINE
  5
1CA
330
1F
100
AcDbEntity
  8
0
  6
Continuous
 62
     8
370
    25
100
AcDbLine
 10
219.1315534625
 20
539.1080080976
 30
0.0
 11
219.2327641854
 21
539.0067973748
 31
0.0
  0
LINE
  5
1CB
330
1F
100
AcDbEntity
  8
0
  6
Continuous
 62
     8
370
    25
100
AcDbLine
 10
218.7330687719
 20
538.5071019613
 30
0.0
 11
218.1781831852
 21
539.0619875479
 31
0.0
  0
LINE
  5
1CC
330
1F
100
AcDbEntity
  8
0
  6
Continuous
 62
     8
370
    25
100
AcDbLine
 10
212.8623451856
 20
539.0619875479
 30
0.0
 11
212.3074595989
 21
538.5071019613
 31
0.0
  0
LINE
  5
1CD
330
1F
100
AcDbEntity
  8
0
  6
Continuous
 62
     8
370
    25
100
AcDbLine
 10
211.8077641854
 20
539.0067973748
 30
0.0
 11
211.9089749082
 21
539.1080080976
 31
0.0
  0
LINE
  5
1CE
330
1F
100
AcDbEntity
  8
0
  6
Continuous
 62
     8
370
    25
100
AcDbLine
 10
212.3077641854
 20
539.5067973748
 30
0.0
 11
212.4077641854
 21
539.6067973748
 31
0.0
  0
LINE
  5
1CF
330
1F
100
AcDbEntity
  8
0
  6
Continuous
 62
     8
370
    25
100
AcDbLine
 10
192.0075589509
 20
539.0572013133
 30
0.0
 11
191.4574595989
 21
538.5071019613
 31
0.0
  0
LINE
  5
1D0
330
1F
100
AcDbEntity
  8
0
  6
Continuous
 62
     8
370
    25
100
AcDbLine
 10
197.8830687719
 20
538.5071019613
 30
0.0
 11
197.3234442516
 21
539.0667264816
 31
0.0
  0
LINE
  5
1D1
330
1F
100
AcDbEntity
  8
0
  6
Continuous
 62
     8
370
    25
100
AcDbLine
 10
190.9577641854
 20
539.0067973748
 30
0.0
 11
191.0828372191
 21
539.1318704085
 31
0.0
  0
LINE
  5
1D2
330
1F
100
AcDbEntity
  8
0
  6
Continuous
 62
     8
370
    25
100
AcDbLine
 10
191.4477641854
 20
539.4967973748
 30
0.0
 11
191.5477641854
 21
539.5967973748
 31
0.0
  0
LINE
  5
1D3
330
1F
100
AcDbEntity
  8
0
  6
Continuous
 62
     8
370
    25
100
AcDbLine
 10
197.7727641854
 20
539.6167973748
 30
0.0
 11
197.8727641854
 21
539.5167973748
 31
0.0
  0
LINE
  5
1D4
330
1F
100
AcDbEntity
  8
0
  6
Continuous
 62
     8
370
    25
100
AcDbLine
 10
198.3299975682
 20
539.059563992
 30
0.0
 11
198.3752262161
 21
539.0143353441
 31
0.0
  0
LINE
  5
1D5
330
1F
100
AcDbEntity
  8
0
  6
Continuous
 62
     8
370
    25
100
AcDbLine
 10
212.3074595989
 20
548.5071019613
 30
0.0
 11
212.8624066969
 21
547.9521548633
 31
0.0
  0
LINE
  5
1D6
330
1F
100
AcDbEntity
  8
0
  6
Continuous
 62
     8
370
    25
100
AcDbLine
 10
212.4077641854
 20
547.4074065478
 30
0.0
 11
212.3077641854
 21
547.5074065478
 31
0.0
  0
LINE
  5
1D7
330
1F
100
AcDbEntity
  8
0
  6
Continuous
 62
     8
370
    25
100
AcDbLine
 10
211.9094377835
 20
547.9057329497
 30
0.0
 11
211.8077641854
 21
548.0074065478
 31
0.0
  0
LINE
  5
1D8
330
1F
100
AcDbEntity
  8
0
  6
Continuous
 62
     8
370
    25
100
AcDbLine
 10
218.1770256995
 20
547.9510588888
 30
0.0
 11
218.7330687719
 21
548.5071019613
 31
0.0
  0
LINE
  5
1D9
330
1F
100
AcDbEntity
  8
0
  6
Continuous
 62
     8
370
    25
100
AcDbLine
 10
191.4574595989
 20
548.5071019613
 30
0.0
 11
192.0076199071
 21
547.9569416531
 31
0.0
  0
LINE
  5
1DA
330
1F
100
AcDbEntity
  8
0
  6
Continuous
 62
     8
370
    25
100
AcDbLine
 10
191.5477641854
 20
547.4174065478
 30
0.0
 11
191.4477641854
 21
547.5174065478
 31
0.0
  0
LINE
  5
1DB
330
1F
100
AcDbEntity
  8
0
  6
Continuous
 62
     8
370
    25
100
AcDbLine
 10
191.0831864958
 20
547.8819842374
 30
0.0
 11
190.9577641854
 21
548.0074065478
 31
0.0
  0
LINE
  5
1DC
330
1F
100
AcDbEntity
  8
0
  6
Continuous
 62
     8
370
    25
100
AcDbLine
 10
197.3222762961
 20
547.9463094855
 30
0.0
 11
197.8830687719
 21
548.5071019613
 31
0.0
  0
LINE
  5
1DD
330
1F
100
AcDbEntity
  8
0
  6
Continuous
 62
     8
370
    25
100
AcDbLine
 10
198.3827641854
 20
548.0074065478
 30
0.0
 11
198.3104894571
 21
547.9351318195
 31
0.0
  0
LINE
  5
1DE
330
1F
100
AcDbEntity
  8
0
  6
Continuous
 62
     8
370
    25
100
AcDbLine
 10
197.8727641854
 20
547.4974065478
 30
0.0
 11
197.7727641854
 21
547.3974065478
 31
0.0
  0
LINE
  5
1DF
330
1F
100
AcDbEntity
  8
0
  6
Continuous
 62
     8
370
    25
100
AcDbLine
 10
218.6327641854
 20
706.6067973748
 30
0.0
 11
218.7327641854
 21
706.5067973748
 31
0.0
  0
LINE
  5
1E0
330
1F
100
AcDbEntity
  8
0
  6
Continuous
 62
     8
370
    25
100
AcDbLine
 10
219.1231705803
 20
706.1163909799
 30
0.0
 11
219.2327641854
 21
706.0067973748
 31
0.0
  0
LINE
  5
1E1
330
1F
100
AcDbEntity
  8
0
  6
Continuous
 62
     8
370
    25
100
AcDbLine
 10
218.7330687719
 20
705.5071019613
 30
0.0
 11
218.1770256995
 21
706.0631450337
 31
0.0
  0
LINE
  5
1E2
330
1F
100
AcDbEntity
  8
0
  6
Continuous
 62
     8
370
    25
100
AcDbLine
 10
219.2327641854
 20
715.0074065478
 30
0.0
 11
219.1315534625
 21
714.9061958249
 31
0.0
  0
LINE
  5
1E3
330
1F
100
AcDbEntity
  8
0
  6
Continuous
 62
     8
370
    25
100
AcDbLine
 10
218.7327641854
 20
714.5074065478
 30
0.0
 11
218.6327641854
 21
714.4074065478
 31
0.0
  0
LINE
  5
1E4
330
1F
100
AcDbEntity
  8
0
  6
Continuous
 62
     8
370
    25
100
AcDbLine
 10
212.8624066969
 20
706.0620490593
 30
0.0
 11
212.3074595989
 21
705.5071019613
 31
0.0
  0
LINE
  5
1E5
330
1F
100
AcDbEntity
  8
0
  6
Continuous
 62
     8
370
    25
100
AcDbLine
 10
197.7727641854
 20
706.6167973748
 30
0.0
 11
197.8727641854
 21
706.5167973748
 31
0.0
  0
LINE
  5
1E6
330
1F
100
AcDbEntity
  8
0
  6
Continuous
 62
     8
370
    25
100
AcDbLine
 10
198.3104894571
 20
706.079072103
 30
0.0
 11
198.3827641854
 21
706.0067973748
 31
0.0
  0
LINE
  5
1E7
330
1F
100
AcDbEntity
  8
0
  6
Continuous
 62
     8
370
    25
100
AcDbLine
 10
197.8830687719
 20
705.5071019613
 30
0.0
 11
197.3222762961
 21
706.0678944371
 31
0.0
  0
LINE
  5
1E8
330
1F
100
AcDbEntity
  8
0
  6
Continuous
 62
     8
370
    25
100
AcDbLine
 10
192.0076199071
 20
706.0572622694
 30
0.0
 11
191.4574595989
 21
705.5071019613
 31
0.0
  0
LINE
  5
1E9
330
1F
100
AcDbEntity
  8
0
  6
Continuous
 62
     8
370
    25
100
AcDbLine
 10
218.1781831852
 20
714.9522163746
 30
0.0
 11
218.7330687719
 21
715.5071019613
 31
0.0
  0
LINE
  5
1EA
330
1F
100
AcDbEntity
  8
0
  6
Continuous
 62
     8
370
    25
100
AcDbLine
 10
211.8077641854
 20
706.0067973748
 30
0.0
 11
211.9094377835
 21
706.1084709728
 31
0.0
  0
LINE
  5
1EB
330
1F
100
AcDbEntity
  8
0
  6
Continuous
 62
     8
370
    25
100
AcDbLine
 10
212.3077641854
 20
706.5067973748
 30
0.0
 11
212.4077641854
 21
706.6067973748
 31
0.0
  0
LINE
  5
1EC
330
1F
100
AcDbEntity
  8
0
  6
Continuous
 62
     8
370
    25
100
AcDbLine
 10
212.3074595989
 20
715.5071019613
 30
0.0
 11
212.8623451856
 21
714.9522163746
 31
0.0
  0
LINE
  5
1ED
330
1F
100
AcDbEntity
  8
0
  6
Continuous
 62
     8
370
    25
100
AcDbLine
 10
191.5477641854
 20
714.4174065478
 30
0.0
 11
191.4477641854
 21
714.5174065478
 31
0.0
  0
LINE
  5
1EE
330
1F
100
AcDbEntity
  8
0
  6
Continuous
 62
     8
370
    25
100
AcDbLine
 10
191.0828372191
 20
714.8823335141
 30
0.0
 11
190.9577641854
 21
715.0074065478
 31
0.0
  0
LINE
  5
1EF
330
1F
100
AcDbEntity
  8
0
  6
Continuous
 62
     8
370
    25
100
AcDbLine
 10
190.9577641854
 20
706.0067973748
 30
0.0
 11
191.0831864958
 21
706.1322196851
 31
0.0
  0
LINE
  5
1F0
330
1F
100
AcDbEntity
  8
0
  6
Continuous
 62
     8
370
    25
100
AcDbLine
 10
191.4477641854
 20
706.4967973748
 30
0.0
 11
191.5477641854
 21
706.5967973748
 31
0.0
  0
LINE
  5
1F1
330
1F
100
AcDbEntity
  8
0
  6
Continuous
 62
     8
370
    25
100
AcDbLine
 10
198.3752262161
 20
714.9998685785
 30
0.0
 11
198.3299975682
 21
714.9546399306
 31
0.0
  0
LINE
  5
1F2
330
1F
100
AcDbEntity
  8
0
  6
Continuous
 62
     8
370
    25
100
AcDbLine
 10
197.8727641854
 20
714.4974065478
 30
0.0
 11
197.7727641854
 21
714.3974065478
 31
0.0
  0
LINE
  5
1F3
330
1F
100
AcDbEntity
  8
0
  6
Continuous
 62
     8
370
    25
100
AcDbLine
 10
197.3234442516
 20
714.947477441
 30
0.0
 11
197.8830687719
 21
715.5071019613
 31
0.0
  0
LINE
  5
1F4
330
1F
100
AcDbEntity
  8
0
  6
Continuous
 62
     8
370
    25
100
AcDbLine
 10
212.4077641854
 20
714.4074065478
 30
0.0
 11
212.3077641854
 21
714.5074065478
 31
0.0
  0
LINE
  5
1F5
330
1F
100
AcDbEntity
  8
0
  6
Continuous
 62
     8
370
    25
100
AcDbLine
 10
211.9089749082
 20
714.9061958249
 30
0.0
 11
211.8077641854
 21
715.0074065478
 31
0.0
  0
LINE
  5
1F6
330
1F
100
AcDbEntity
  8
0
  6
Continuous
 62
     8
370
    25
100
AcDbLine
 10
191.4574595989
 20
715.5071019613
 30
0.0
 11
192.0075589509
 21
714.9570026093
 31
0.0
  0
LINE
  5
1F7
330
1F
100
AcDbEntity
  8
0
  6
Continuous
 62
     8
370
    25
100
AcDbLine
 10
166.6080687719
 20
705.5071019613
 30
0.0
 11
166.0402410051
 21
706.0749297281
 31
0.0
  0
LINE
  5
1F8
330
1F
100
AcDbEntity
  8
0
  6
Continuous
 62
     8
370
    25
100
AcDbLine
 10
166.4827641854
 20
706.6317973748
 30
0.0
 11
166.5827641854
 21
706.5317973748
 31
0.0
  0
LINE
  5
1F9
330
1F
100
AcDbEntity
  8
0
  6
Continuous
 62
     8
370
    25
100
AcDbLine
 10
166.5827641854
 20
714.4824065478
 30
0.0
 11
166.4827641854
 21
714.3824065478
 31
0.0
  0
LINE
  5
1FA
330
1F
100
AcDbEntity
  8
0
  6
Continuous
 62
     8
370
    25
100
AcDbLine
 10
160.7253511556
 20
706.049993518
 30
0.0
 11
160.1824595989
 21
705.5071019613
 31
0.0
  0
LINE
  5
1FB
330
1F
100
AcDbEntity
  8
0
  6
Continuous
 62
     8
370
    25
100
AcDbLine
 10
166.0414246972
 20
714.9404578866
 30
0.0
 11
166.6080687719
 21
715.5071019613
 31
0.0
  0
LINE
  5
1FC
330
1F
100
AcDbEntity
  8
0
  6
Continuous
 62
     8
370
    25
100
AcDbLine
 10
160.1824595989
 20
715.5071019613
 30
0.0
 11
160.7252910312
 21
714.964270529
 31
0.0
  0
LINE
  5
1FD
330
1F
100
AcDbEntity
  8
0
  6
Continuous
 62
     8
370
    25
100
AcDbLine
 10
159.6827641854
 20
706.0067973748
 30
0.0
 11
159.8326247599
 21
706.1566579493
 31
0.0
  0
LINE
  5
1FE
330
1F
100
AcDbEntity
  8
0
  6
Continuous
 62
     8
370
    25
100
AcDbLine
 10
160.1577641854
 20
706.4817973748
 30
0.0
 11
160.2483271858
 21
706.5723603751
 31
0.0
  0
LINE
  5
1FF
330
1F
100
AcDbEntity
  8
0
  6
Continuous
 62
     8
370
    25
100
AcDbLine
 10
160.2483271858
 20
714.4418435474
 30
0.0
 11
160.1577641854
 21
714.5324065478
 31
0.0
  0
LINE
  5
200
330
1F
100
AcDbEntity
  8
0
  6
Continuous
 62
     8
370
    25
100
AcDbLine
 10
159.8323464877
 20
714.8578242455
 30
0.0
 11
159.6827641854
 21
715.0074065478
 31
0.0
  0
LINE
  5
201
330
1F
100
AcDbEntity
  8
0
  6
Continuous
 62
     8
370
    25
100
AcDbLine
 10
145.6227641854
 20
706.6417973748
 30
0.0
 11
145.7227641854
 21
706.5417973748
 31
0.0
  0
LINE
  5
202
330
1F
100
AcDbEntity
  8
0
  6
Continuous
 62
     8
370
    25
100
AcDbLine
 10
145.7227641854
 20
714.4724065478
 30
0.0
 11
145.6227641854
 21
714.3724065478
 31
0.0
  0
LINE
  5
203
330
1F
100
AcDbEntity
  8
0
  6
Continuous
 62
     8
370
    25
100
AcDbLine
 10
145.7580687719
 20
705.5071019613
 30
0.0
 11
145.1856101419
 21
706.0795605912
 31
0.0
  0
LINE
  5
204
330
1F
100
AcDbEntity
  8
0
  6
Continuous
 62
     8
370
    25
100
AcDbLine
 10
139.870446337
 20
706.0450886994
 30
0.0
 11
139.3324595989
 21
705.5071019613
 31
0.0
  0
LINE
  5
205
330
1F
100
AcDbEntity
  8
0
  6
Continuous
 62
     8
370
    25
100
AcDbLine
 10
145.1868043506
 20
714.93583754
 30
0.0
 11
145.7580687719
 21
715.5071019613
 31
0.0
  0
LINE
  5
206
330
1F
100
AcDbEntity
  8
0
  6
Continuous
 62
     8
370
    25
100
AcDbLine
 10
139.3977641854
 20
714.4424065478
 30
0.0
 11
139.2977641854
 21
714.5424065478
 31
0.0
  0
LINE
  5
207
330
1F
100
AcDbEntity
  8
0
  6
Continuous
 62
     8
370
    25
100
AcDbLine
 10
138.9948454411
 20
714.845325292
 30
0.0
 11
138.8327641854
 21
715.0074065478
 31
0.0
  0
LINE
  5
208
330
1F
100
AcDbEntity
  8
0
  6
Continuous
 62
     8
370
    25
100
AcDbLine
 10
138.8327641854
 20
706.0067973748
 30
0.0
 11
138.99509697
 21
706.1691301594
 31
0.0
  0
LINE
  5
209
330
1F
100
AcDbEntity
  8
0
  6
Continuous
 62
     8
370
    25
100
AcDbLine
 10
139.2977641854
 20
706.4717973748
 30
0.0
 11
139.3977641854
 21
706.5717973748
 31
0.0
  0
LINE
  5
20A
330
1F
100
AcDbEntity
  8
0
  6
Continuous
 62
     8
370
    25
100
AcDbLine
 10
139.3324595989
 20
715.5071019613
 30
0.0
 11
139.8703867665
 21
714.9691747936
 31
0.0
  0
ARC
  5
20B
330
1F
100
AcDbEntity
  8
0
  6
Continuous
 62
     7
370
    25
100
AcDbCircle
 10
132.8242474319
 20
391.6466525162
 30
0.0
 40
2.5
100
AcDbArc
 50
90.0
 51
180.0
  0
ARC
  5
20C
330
1F
100
AcDbEntity
  8
0
  6
Continuous
 62
     7
370
    25
100
AcDbCircle
 10
137.3242474319
 20
391.6466525162
 30
0.0
 40
2.5
100
AcDbArc
 50
0.0
 51
90.0
  0
LINE
  5
20D
330
1F
100
AcDbEntity
  8
0
  6
Continuous
 62
     7
370
    25
100
AcDbLine
 10
139.8242474319
 20
391.3966525162
 30
0.0
 11
139.8242474319
 21
391.6466525162
 31
0.0
  0
LINE
  5
20E
330
1F
100
AcDbEntity
  8
0
  6
Continuous
 62
     7
370
    25
100
AcDbLine
 10
130.3242474319
 20
391.6466525162
 30
0.0
 11
130.3242474319
 21
391.3966525162
 31
0.0
  0
LINE
  5
20F
330
1F
100
AcDbEntity
  8
0
  6
Continuous
 62
     7
370
    25
100
AcDbLine
 10
132.5742474319
 20
388.3966525162
 30
0.0
 11
132.5742474319
 21
387.8966525162
 31
0.0
  0
LINE
  5
210
330
1F
100
AcDbEntity
  8
0
  6
Continuous
 62
     7
370
    25
100
AcDbLine
 10
137.5742474319
 20
387.8966525162
 30
0.0
 11
137.5742474319
 21
388.3966525162
 31
0.0
  0
LINE
  5
211
330
1F
100
AcDbEntity
  8
0
  6
Continuous
 62
     7
370
    25
100
AcDbLine
 10
130.3242474319
 20
341.3966525162
 30
0.0
 11
130.3242474319
 21
340.8966525162
 31
0.0
  0
LINE
  5
212
330
1F
100
AcDbEntity
  8
0
  6
Continuous
 62
     7
370
    25
100
AcDbLine
 10
139.8242474319
 20
340.8966525162
 30
0.0
 11
139.8242474319
 21
341.3966525162
 31
0.0
  0
ARC
  5
213
330
1F
100
AcDbEntity
  8
0
  6
Continuous
 62
     7
370
    25
100
AcDbCircle
 10
133.6501345012
 20
342.107176412
 30
0.0
 40
3.539335092961957
100
AcDbArc
 50
200.0
 51
257.8862128145
  0
ARC
  5
214
330
1F
100
AcDbEntity
  8
0
  6
Continuous
 62
     7
370
    25
100
AcDbCircle
 10
136.4983603625
 20
342.107176412
 30
0.0
 40
3.539335092961951
100
AcDbArc
 50
282.1137871855
 51
340.0
  0
LINE
  5
215
330
1F
100
AcDbEntity
  8
0
  6
Continuous
 62
     7
370
    25
100
AcDbLine
 10
137.5742474319
 20
344.3966525162
 30
0.0
 11
137.5742474319
 21
344.8966525162
 31
0.0
  0
LINE
  5
216
330
1F
100
AcDbEntity
  8
0
  6
Continuous
 62
     7
370
    25
100
AcDbLine
 10
132.5742474319
 20
344.8966525162
 30
0.0
 11
132.5742474319
 21
344.3966525162
 31
0.0
  0
ARC
  5
217
330
1F
100
AcDbEntity
  8
0
  6
Continuous
 62
     7
370
    25
100
AcDbCircle
 10
185.8501345012
 20
323.9071764119
 30
0.0
 40
3.539335092961904
100
AcDbArc
 50
218.6498329563
 51
257.8862128145
  0
ARC
  5
218
330
1F
100
AcDbEntity
  8
0
  6
Continuous
 62
     7
370
    25
100
AcDbCircle
 10
188.6983603625
 20
323.9071764119
 30
0.0
 40
3.539335092961859
100
AcDbArc
 50
282.1137871855
 51
321.3501670437
  0
LINE
  5
219
330
1F
100
AcDbEntity
  8
0
  6
Continuous
 62
     7
370
    25
100
AcDbLine
 10
182.5242474319
 20
323.1966525162
 30
0.0
 11
182.5242474319
 21
322.6966525162
 31
0.0
  0
LINE
  5
21A
330
1F
100
AcDbEntity
  8
0
  6
Continuous
 62
     7
370
    25
100
AcDbLine
 10
192.0242474319
 20
322.6966525162
 30
0.0
 11
192.0242474319
 21
323.1966525162
 31
0.0
  0
ARC
  5
21B
330
1F
100
AcDbEntity
  8
0
  6
Continuous
 62
     7
370
    25
100
AcDbCircle
 10
188.6983603625
 20
408.8861286204
 30
0.0
 40
3.539335092961953
100
AcDbArc
 50
38.6498329563
 51
77.8862128145
  0
ARC
  5
21C
330
1F
100
AcDbEntity
  8
0
  6
Continuous
 62
     7
370
    25
100
AcDbCircle
 10
185.8501345012
 20
408.8861286204
 30
0.0
 40
3.539335092961975
100
AcDbArc
 50
102.1137871855
 51
141.3501670437
  0
LINE
  5
21D
330
1F
100
AcDbEntity
  8
0
  6
Continuous
 62
     7
370
    25
100
AcDbLine
 10
192.0242474319
 20
409.5966525162
 30
0.0
 11
192.0242474319
 21
410.0966525162
 31
0.0
  0
LINE
  5
21E
330
1F
100
AcDbEntity
  8
0
  6
Continuous
 62
     7
370
    25
100
AcDbLine
 10
182.5242474319
 20
410.0966525162
 30
0.0
 11
182.5242474319
 21
409.5966525162
 31
0.0
  0
LINE
  5
21F
330
1F
100
AcDbEntity
  8
0
  6
Continuous
 62
     7
370
    25
100
AcDbLine
 10
132.8242474319
 20
394.1466525162
 30
0.0
 11
132.8949825859
 21
394.1466525162
 31
0.0
  0
LINE
  5
220
330
1F
100
AcDbEntity
  8
0
  6
Continuous
 62
     7
370
    25
100
AcDbLine
 10
132.867398306
 20
394.145946719
 30
0.0
 11
132.8949825859
 21
394.1466525162
 31
0.0
  0
LINE
  5
221
330
1F
100
AcDbEntity
  8
0
  6
Continuous
 62
     7
370
    25
100
AcDbLine
 10
132.9582351463
 20
394.1466525162
 30
0.0
 11
132.867398306
 21
394.145946719
 31
0.0
  0
LINE
  5
222
330
1F
100
AcDbEntity
  8
0
  6
Continuous
 62
     7
370
    25
100
AcDbLine
 10
132.9582351463
 20
394.1466525162
 30
0.0
 11
134.4693608686
 21
394.1466525162
 31
0.0
  0
LINE
  5
223
330
1F
100
AcDbEntity
  8
0
  6
Continuous
 62
     7
370
    25
100
AcDbLine
 10
134.5601977088
 20
394.145946719
 30
0.0
 11
134.4693608686
 21
394.1466525162
 31
0.0
  0
LINE
  5
224
330
1F
100
AcDbEntity
  8
0
  6
Continuous
 62
     7
370
    25
100
AcDbLine
 10
134.6786188289
 20
394.1466525162
 30
0.0
 11
134.5601977088
 21
394.145946719
 31
0.0
  0
LINE
  5
225
330
1F
100
AcDbEntity
  8
0
  6
Continuous
 62
     7
370
    25
100
AcDbLine
 10
134.6786188289
 20
394.1466525162
 30
0.0
 11
136.6486257145
 21
394.1466525162
 31
0.0
  0
LINE
  5
226
330
1F
100
AcDbEntity
  8
0
  6
Continuous
 62
     7
370
    25
100
AcDbLine
 10
136.7670468346
 20
394.145946719
 30
0.0
 11
136.6486257145
 21
394.1466525162
 31
0.0
  0
LINE
  5
227
330
1F
100
AcDbEntity
  8
0
  6
Continuous
 62
     7
370
    25
100
AcDbLine
 10
136.7946311146
 20
394.1466525162
 30
0.0
 11
136.7670468346
 21
394.145946719
 31
0.0
  0
LINE
  5
228
330
1F
100
AcDbEntity
  8
0
  6
Continuous
 62
     7
370
    25
100
AcDbLine
 10
136.7946311146
 20
394.1466525162
 30
0.0
 11
137.3242474319
 21
394.1466525162
 31
0.0
  0
LINE
  5
229
330
1F
100
AcDbEntity
  8
0
  6
Continuous
 62
     7
370
    25
100
AcDbLine
 10
132.8949825859
 20
394.1466525162
 30
0.0
 11
132.9582351462
 21
394.1466525162
 31
0.0
  0
LINE
  5
22A
330
1F
100
AcDbEntity
  8
0
  6
Continuous
 62
     7
370
    25
100
AcDbLine
 10
136.6486257145
 20
394.1466525162
 30
0.0
 11
136.7946311146
 21
394.1466525162
 31
0.0
  0
LINE
  5
22B
330
1F
100
AcDbEntity
  8
0
  6
Continuous
 62
     7
370
    25
100
AcDbLine
 10
134.4693608685
 20
394.1466525162
 30
0.0
 11
134.6786188289
 21
394.1466525162
 31
0.0
  0
LINE
  5
22C
330
1F
100
AcDbEntity
  8
0
  6
Continuous
 62
     7
370
    25
100
AcDbLine
 10
230.4742474319
 20
409.5966525162
 30
0.0
 11
144.0742474319
 21
409.5966525162
 31
0.0
  0
LINE
  5
22D
330
1F
100
AcDbEntity
  8
0
  6
Continuous
 62
     7
370
    25
100
AcDbLine
 10
230.4742474319
 20
323.1966525162
 30
0.0
 11
230.4742474319
 21
409.5966525162
 31
0.0
  0
LINE
  5
22E
330
1F
100
AcDbEntity
  8
0
  6
Continuous
 62
     7
370
    25
100
AcDbLine
 10
144.0742474319
 20
409.5966525162
 30
0.0
 11
144.0742474319
 21
323.1966525162
 31
0.0
  0
ELLIPSE
  5
22F
330
1F
100
AcDbEntity
  8
0
  6
Continuous
 62
     7
370
    25
100
AcDbEllipse
 10
146.5396314345
 20
407.1312685135
 30
0.0
 11
0.3539842722995843
 21
-0.3539842722995559
 31
0.0
210
0.0
220
0.0
230
1.0
 40
0.998782766
 41
2.356803477777913
 42
3.926381829401664
  0
LINE
  5
230
330
1F
100
AcDbEntity
  8
0
  6
Continuous
 62
     7
370
    25
100
AcDbLine
 10
146.0393266624
 20
407.1318778722
 30
0.0
 11
146.0393266624
 21
325.6614271602
 31
0.0
  0
ELLIPSE
  5
231
330
1F
100
AcDbEntity
  8
0
  6
Continuous
 62
     7
370
    25
100
AcDbEllipse
 10
146.5396314345
 20
325.6620365188
 30
0.0
 11
0.3539842722995843
 21
0.3539842722996128
 31
0.0
210
0.0
220
0.0
230
1.0
 40
0.998782766
 41
2.356803477777889
 42
3.926381829401574
  0
LINE
  5
232
330
1F
100
AcDbEntity
  8
0
  6
Continuous
 62
     7
370
    25
100
AcDbLine
 10
146.5390220759
 20
325.1617317467
 30
0.0
 11
228.0094727879
 21
325.1617317467
 31
0.0
  0
ELLIPSE
  5
233
330
1F
100
AcDbEntity
  8
0
  6
Continuous
 62
     7
370
    25
100
AcDbEllipse
 10
228.0088634292
 20
325.6620365188
 30
0.0
 11
-0.3539842722995843
 21
0.3539842722996128
 31
0.0
210
0.0
220
0.0
230
1.0
 40
0.998782766
 41
2.356803477777913
 42
3.926381829401711
  0
LINE
  5
234
330
1F
100
AcDbEntity
  8
0
  6
Continuous
 62
     7
370
    25
100
AcDbLine
 10
228.5091682014
 20
325.6614271602
 30
0.0
 11
228.5091682014
 21
407.1318778722
 31
0.0
  0
ELLIPSE
  5
235
330
1F
100
AcDbEntity
  8
0
  6
Continuous
 62
     7
370
    25
100
AcDbEllipse
 10
228.0088634292
 20
407.1312685135
 30
0.0
 11
-0.3539842722995843
 21
-0.3539842722996128
 31
0.0
210
0.0
220
0.0
230
1.0
 40
0.998782766
 41
2.356803477777816
 42
3.926381829401761
  0
LINE
  5
236
330
1F
100
AcDbEntity
  8
0
  6
Continuous
 62
     7
370
    25
100
AcDbLine
 10
228.0094727879
 20
407.6315732857
 30
0.0
 11
146.5390220759
 21
407.6315732857
 31
0.0
  0
LINE
  5
237
330
1F
100
AcDbEntity
  8
0
  6
Continuous
 62
     7
370
    25
100
AcDbLine
 10
144.0742474319
 20
323.1966525162
 30
0.0
 11
230.4742474319
 21
323.1966525162
 31
0.0
  0
LINE
  5
238
330
1F
100
AcDbEntity
  8
0
  6
Continuous
 62
     7
370
    25
100
AcDbLine
 10
146.2560791767
 20
406.9151253579
 30
0.0
 11
146.0393266624
 21
407.1318778722
 31
0.0
  0
LINE
  5
239
330
1F
100
AcDbEntity
  8
0
  6
Continuous
 62
     7
370
    25
100
AcDbLine
 10
146.2560791767
 20
325.8781796745
 30
0.0
 11
146.2560791767
 21
406.9151253579
 31
0.0
  0
LINE
  5
23A
330
1F
100
AcDbEntity
  8
0
  6
Continuous
 62
     7
370
    25
100
AcDbLine
 10
146.0393266624
 20
325.6614271602
 30
0.0
 11
146.2560791767
 21
325.8781796745
 31
0.0
  0
ELLIPSE
  5
23B
330
1F
100
AcDbEntity
  8
0
  6
Continuous
 62
     7
370
    25
100
AcDbEllipse
 10
146.7561402054
 20
325.8785452897
 30
0.0
 11
0.3536397767281584
 21
0.3536397767280732
 31
0.0
210
0.0
220
0.0
230
1.0
 40
0.9997557228
 41
2.356803477777875
 42
3.926381829402023
  0
LINE
  5
23C
330
1F
100
AcDbEntity
  8
0
  6
Continuous
 62
     7
370
    25
100
AcDbLine
 10
146.7557745902
 20
325.378484261
 30
0.0
 11
146.5390220759
 21
325.1617317467
 31
0.0
  0
LINE
  5
23D
330
1F
100
AcDbEntity
  8
0
  6
Continuous
 62
     7
370
    25
100
AcDbLine
 10
227.7927202735
 20
325.378484261
 30
0.0
 11
146.7557745902
 21
325.378484261
 31
0.0
  0
LINE
  5
23E
330
1F
100
AcDbEntity
  8
0
  6
Continuous
 62
     7
370
    25
100
AcDbLine
 10
228.0094727879
 20
325.1617317467
 30
0.0
 11
227.7927202735
 21
325.378484261
 31
0.0
  0
LINE
  5
23F
330
1F
100
AcDbEntity
  8
0
  6
Continuous
 62
     7
370
    25
100
AcDbLine
 10
227.7927202735
 20
407.4148207714
 30
0.0
 11
228.0094727879
 21
407.6315732857
 31
0.0
  0
LINE
  5
240
330
1F
100
AcDbEntity
  8
0
  6
Continuous
 62
     7
370
    25
100
AcDbLine
 10
146.7557745902
 20
407.4148207714
 30
0.0
 11
227.7927202735
 21
407.4148207714
 31
0.0
  0
LINE
  5
241
330
1F
100
AcDbEntity
  8
0
  6
Continuous
 62
     7
370
    25
100
AcDbLine
 10
146.5390220759
 20
407.6315732857
 30
0.0
 11
146.7557745902
 21
407.4148207714
 31
0.0
  0
ELLIPSE
  5
242
330
1F
100
AcDbEntity
  8
0
  6
Continuous
 62
     7
370
    25
100
AcDbEllipse
 10
227.7923546584
 20
325.8785452897
 30
0.0
 11
0.3536397767282153
 21
-0.3536397767280164
 31
0.0
210
0.0
220
0.0
230
1.0
 40
0.9997557228
 41
5.498396131367417
 42
7.067974482991149
  0
LINE
  5
243
330
1F
100
AcDbEntity
  8
0
  6
Continuous
 62
     7
370
    25
100
AcDbLine
 10
228.2924156871
 20
325.8781796745
 30
0.0
 11
228.5091682014
 21
325.6614271602
 31
0.0
  0
LINE
  5
244
330
1F
100
AcDbEntity
  8
0
  6
Continuous
 62
     7
370
    25
100
AcDbLine
 10
228.2924156871
 20
406.9151253579
 30
0.0
 11
228.2924156871
 21
325.8781796745
 31
0.0
  0
LINE
  5
245
330
1F
100
AcDbEntity
  8
0
  6
Continuous
 62
     7
370
    25
100
AcDbLine
 10
228.5091682014
 20
407.1318778722
 30
0.0
 11
228.2924156871
 21
406.9151253579
 31
0.0
  0
ELLIPSE
  5
246
330
1F
100
AcDbEntity
  8
0
  6
Continuous
 62
     7
370
    25
100
AcDbEllipse
 10
146.7561402054
 20
406.9147597427
 30
0.0
 11
-0.353639776727988
 21
0.353639776728187
 31
0.0
210
0.0
220
0.0
230
1.0
 40
0.9997557228
 41
5.498396131367904
 42
7.067974482991619
  0
ELLIPSE
  5
247
330
1F
100
AcDbEntity
  8
0
  6
Continuous
 62
     7
370
    25
100
AcDbEllipse
 10
227.7923546584
 20
406.9147597427
 30
0.0
 11
0.3536397767281016
 21
0.3536397767280732
 31
0.0
210
0.0
220
0.0
230
1.0
 40
0.9997557228
 41
5.498396131367755
 42
7.06797448299151
  0
ELLIPSE
  5
248
330
1F
100
AcDbEntity
  8
0
  6
Continuous
 62
     7
370
    25
100
AcDbEllipse
 10
146.7561402054
 20
325.8785452897
 30
0.0
 11
0.2123905633797563
 21
0.2123905633798131
 31
0.0
210
0.0
220
0.0
230
1.0
 40
0.998782766
 41
2.356803477777566
 42
3.926381829401862
  0
LINE
  5
249
330
1F
100
AcDbEntity
  8
0
  6
Continuous
 62
     7
370
    25
100
AcDbLine
 10
146.7557745902
 20
325.5783624264
 30
0.0
 11
146.7557745902
 21
325.378484261
 31
0.0
  0
LINE
  5
24A
330
1F
100
AcDbEntity
  8
0
  6
Continuous
 62
     7
370
    25
100
AcDbLine
 10
146.4559573421
 20
325.8781796745
 30
0.0
 11
146.2560791767
 21
325.8781796745
 31
0.0
  0
LINE
  5
24B
330
1F
100
AcDbEntity
  8
0
  6
Continuous
 62
     7
370
    25
100
AcDbLine
 10
146.4559573421
 20
406.9151253579
 30
0.0
 11
146.4559573421
 21
325.8781796745
 31
0.0
  0
LINE
  5
24C
330
1F
100
AcDbEntity
  8
0
  6
Continuous
 62
     7
370
    25
100
AcDbLine
 10
146.4559573421
 20
406.9151253579
 30
0.0
 11
146.2560791767
 21
406.9151253579
 31
0.0
  0
LINE
  5
24D
330
1F
100
AcDbEntity
  8
0
  6
Continuous
 62
     7
370
    25
100
AcDbLine
 10
146.7557745902
 20
325.5783624264
 30
0.0
 11
227.7927202735
 21
325.5783624264
 31
0.0
  0
LINE
  5
24E
330
1F
100
AcDbEntity
  8
0
  6
Continuous
 62
     7
370
    25
100
AcDbLine
 10
227.7927202735
 20
325.5783624264
 30
0.0
 11
227.7927202735
 21
325.378484261
 31
0.0
  0
LINE
  5
24F
330
1F
100
AcDbEntity
  8
0
  6
Continuous
 62
     7
370
    25
100
AcDbLine
 10
228.2924156871
 20
325.8781796745
 30
0.0
 11
228.0925375217
 21
325.8781796745
 31
0.0
  0
LINE
  5
250
330
1F
100
AcDbEntity
  8
0
  6
Continuous
 62
     7
370
    25
100
AcDbLine
 10
228.0925375217
 20
325.8781796745
 30
0.0
 11
228.0925375217
 21
406.9151253579
 31
0.0
  0
LINE
  5
251
330
1F
100
AcDbEntity
  8
0
  6
Continuous
 62
     7
370
    25
100
AcDbLine
 10
228.2924156871
 20
406.9151253579
 30
0.0
 11
228.0925375217
 21
406.9151253579
 31
0.0
  0
ELLIPSE
  5
252
330
1F
100
AcDbEntity
  8
0
  6
Continuous
 62
     7
370
    25
100
AcDbEllipse
 10
227.7923546584
 20
325.8785452897
 30
0.0
 11
-0.2123905633797563
 21
0.2123905633796994
 31
0.0
210
0.0
220
0.0
230
1.0
 40
0.998782766
 41
2.35680347777824
 42
3.926381829401377
  0
ELLIPSE
  5
253
330
1F
100
AcDbEntity
  8
0
  6
Continuous
 62
     7
370
    25
100
AcDbEllipse
 10
146.7561402054
 20
406.9147597427
 30
0.0
 11
0.2123905633797847
 21
-0.2123905633797563
 31
0.0
210
0.0
220
0.0
230
1.0
 40
0.998782766
 41
2.356803477777666
 42
3.926381829401232
  0
LINE
  5
254
330
1F
100
AcDbEntity
  8
0
  6
Continuous
 62
     7
370
    25
100
AcDbLine
 10
146.7557745902
 20
407.4148207714
 30
0.0
 11
146.7557745902
 21
407.214942606
 31
0.0
  0
LINE
  5
255
330
1F
100
AcDbEntity
  8
0
  6
Continuous
 62
     7
370
    25
100
AcDbLine
 10
227.7927202735
 20
407.4148207714
 30
0.0
 11
227.7927202735
 21
407.214942606
 31
0.0
  0
LINE
  5
256
330
1F
100
AcDbEntity
  8
0
  6
Continuous
 62
     7
370
    25
100
AcDbLine
 10
227.7927202735
 20
407.214942606
 30
0.0
 11
146.7557745902
 21
407.214942606
 31
0.0
  0
ELLIPSE
  5
257
330
1F
100
AcDbEntity
  8
0
  6
Continuous
 62
     7
370
    25
100
AcDbEllipse
 10
227.7923546584
 20
406.9147597427
 30
0.0
 11
-0.2123905633797563
 21
-0.2123905633797563
 31
0.0
210
0.0
220
0.0
230
1.0
 40
0.998782766
 41
2.356803477777889
 42
3.926381829401901
  0
LINE
  5
258
330
1F
100
AcDbEntity
  8
0
  6
Continuous
 62
     7
370
    25
100
AcDbLine
 10
139.6558579116
 20
340.8966525162
 30
0.0
 11
139.8242474319
 21
340.8966525162
 31
0.0
  0
LINE
  5
259
330
1F
100
AcDbEntity
  8
0
  6
Continuous
 62
     7
370
    25
100
AcDbLine
 10
130.3242474319
 20
340.8966525162
 30
0.0
 11
139.6558579116
 21
340.8966525162
 31
0.0
  0
LINE
  5
25A
330
1F
100
AcDbEntity
  8
0
  6
Continuous
 62
     7
370
    25
100
AcDbLine
 10
137.1642874651
 20
338.6466525162
 30
0.0
 11
137.2411034319
 21
338.6466525162
 31
0.0
  0
LINE
  5
25B
330
1F
100
AcDbEntity
  8
0
  6
Continuous
 62
     7
370
    25
100
AcDbLine
 10
132.9073914319
 20
338.6466525162
 30
0.0
 11
137.1642874651
 21
338.6466525162
 31
0.0
  0
LINE
  5
25C
330
1F
100
AcDbEntity
  8
0
  6
Continuous
 62
     7
370
    25
100
AcDbLine
 10
188.6642747631
 20
320.4466525162
 30
0.0
 11
189.4411034319
 21
320.4466525162
 31
0.0
  0
LINE
  5
25D
330
1F
100
AcDbEntity
  8
0
  6
Continuous
 62
     7
370
    25
100
AcDbLine
 10
185.1073914319
 20
320.4466525162
 30
0.0
 11
188.6642747631
 21
320.4466525162
 31
0.0
  0
LINE
  5
25E
330
1F
100
AcDbEntity
  8
0
  6
Continuous
 62
     7
370
    25
100
AcDbLine
 10
187.3742474319
 20
410.0966525162
 30
0.0
 11
187.1742474319
 21
410.0966525162
 31
0.0
  0
LINE
  5
25F
330
1F
100
AcDbEntity
  8
0
  6
Continuous
 62
     7
370
    25
100
AcDbLine
 10
185.1170678111
 20
412.3466525162
 30
0.0
 11
185.1073914319
 21
412.3466525162
 31
0.0
  0
LINE
  5
260
330
1F
100
AcDbEntity
  8
0
  6
Continuous
 62
     7
370
    25
100
AcDbLine
 10
189.4411034319
 20
412.3466525162
 30
0.0
 11
185.1170678111
 21
412.3466525162
 31
0.0
  0
LINE
  5
261
330
1F
100
AcDbEntity
  8
0
  6
Continuous
 62
     7
370
    25
100
AcDbLine
 10
105.8742474319
 20
345.1966525162
 30
0.0
 11
105.8742474319
 21
387.5966525162
 31
0.0
  0
LINE
  5
262
330
1F
100
AcDbEntity
  8
0
  6
Continuous
 62
     7
370
    25
100
AcDbLine
 10
102.0742474319
 20
345.1966525162
 30
0.0
 11
105.8742474319
 21
345.1966525162
 31
0.0
  0
LINE
  5
263
330
1F
100
AcDbEntity
  8
0
  6
Continuous
 62
     7
370
    25
100
AcDbLine
 10
102.0742474319
 20
387.5966525162
 30
0.0
 11
102.0742474319
 21
345.1966525162
 31
0.0
  0
LINE
  5
264
330
1F
100
AcDbEntity
  8
0
  6
Continuous
 62
     7
370
    25
100
AcDbLine
 10
105.8742474319
 20
387.5966525162
 30
0.0
 11
102.0742474319
 21
387.5966525162
 31
0.0
  0
LINE
  5
265
330
1F
100
AcDbEntity
  8
0
  6
Continuous
 62
     7
370
    25
100
AcDbLine
 10
105.8742474319
 20
388.3966525162
 30
0.0
 11
142.5742474319
 21
388.3966525162
 31
0.0
  0
LINE
  5
266
330
1F
100
AcDbEntity
  8
0
  6
Continuous
 62
     7
370
    25
100
AcDbLine
 10
105.8742474319
 20
391.3966525162
 30
0.0
 11
105.8742474319
 21
388.3966525162
 31
0.0
  0
LINE
  5
267
330
1F
100
AcDbEntity
  8
0
  6
Continuous
 62
     7
370
    25
100
AcDbLine
 10
105.8742474319
 20
391.3966525162
 30
0.0
 11
142.5742474319
 21
391.3966525162
 31
0.0
  0
LINE
  5
268
330
1F
100
AcDbEntity
  8
0
  6
Continuous
 62
     7
370
    25
100
AcDbLine
 10
142.5742474319
 20
345.1966525162
 30
0.0
 11
105.8742474319
 21
345.1966525162
 31
0.0
  0
LINE
  5
269
330
1F
100
AcDbEntity
  8
0
  6
Continuous
 62
     7
370
    25
100
AcDbLine
 10
105.8742474319
 20
387.5966525162
 30
0.0
 11
142.5742474319
 21
387.5966525162
 31
0.0
  0
LINE
  5
26A
330
1F
100
AcDbEntity
  8
0
  6
Continuous
 62
     7
370
    25
100
AcDbLine
 10
105.8742474319
 20
344.3966525162
 30
0.0
 11
142.5742474319
 21
344.3966525162
 31
0.0
  0
LINE
  5
26B
330
1F
100
AcDbEntity
  8
0
  6
Continuous
 62
     7
370
    25
100
AcDbLine
 10
105.8742474319
 20
341.3966525162
 30
0.0
 11
142.5742474319
 21
341.3966525162
 31
0.0
  0
LINE
  5
26C
330
1F
100
AcDbEntity
  8
0
  6
Continuous
 62
     7
370
    25
100
AcDbLine
 10
105.8742474319
 20
341.3966525162
 30
0.0
 11
105.8742474319
 21
344.3966525162
 31
0.0
  0
ARC
  5
26D
330
1F
100
AcDbEntity
  8
0
  6
Continuous
 62
     7
370
    25
100
AcDbCircle
 10
105.8742474319
 20
387.5966525162
 30
0.0
 40
0.8000000000000114
100
AcDbArc
 50
90.0
 51
180.0
  0
ARC
  5
26E
330
1F
100
AcDbEntity
  8
0
  6
Continuous
 62
     7
370
    25
100
AcDbCircle
 10
105.8742474319
 20
387.5966525162
 30
0.0
 40
3.800000000000011
100
AcDbArc
 50
90.0
 51
180.0
  0
ARC
  5
26F
330
1F
100
AcDbEntity
  8
0
  6
Continuous
 62
     7
370
    25
100
AcDbCircle
 10
105.8742474319
 20
345.1966525162
 30
0.0
 40
0.8000000000000114
100
AcDbArc
 50
180.0
 51
270.0
  0
ARC
  5
270
330
1F
100
AcDbEntity
  8
0
  6
Continuous
 62
     7
370
    25
100
AcDbCircle
 10
105.8742474319
 20
345.1966525162
 30
0.0
 40
3.800000000000011
100
AcDbArc
 50
180.0
 51
270.0
  0
ARC
  5
271
330
1F
100
AcDbEntity
  8
0
  6
Continuous
 62
     7
370
    25
100
AcDbCircle
 10
142.0742474319
 20
381.8966525162
 30
0.0
 40
2.00000000000002
100
AcDbArc
 50
0.0
 51
41.4096221092
  0
ARC
  5
272
330
1F
100
AcDbEntity
  8
0
  6
Continuous
 62
     7
370
    25
100
AcDbCircle
 10
142.0742474319
 20
350.8966525162
 30
0.0
 40
2.00000000000002
100
AcDbArc
 50
318.5903778908
 51
0.0
  0
ARC
  5
273
330
1F
100
AcDbEntity
  8
0
  6
Continuous
 62
     7
370
    25
100
AcDbCircle
 10
129.8742474319
 20
384.0966525162
 30
0.0
 40
3.800000000000068
100
AcDbArc
 50
90.0
 51
112.9195421516
  0
LINE
  5
274
330
1F
100
AcDbEntity
  8
0
  6
Continuous
 62
     7
370
    25
100
AcDbLine
 10
142.0742474319
 20
387.8966525162
 30
0.0
 11
129.8742474319
 21
387.8966525162
 31
0.0
  0
LINE
  5
275
330
1F
100
AcDbEntity
  8
0
  6
Continuous
 62
     7
370
    25
100
AcDbLine
 10
144.0742474319
 20
384.8966525162
 30
0.0
 11
143.5742474319
 21
384.8966525162
 31
0.0
  0
LINE
  5
276
330
1F
100
AcDbEntity
  8
0
  6
Continuous
 62
     7
370
    25
100
AcDbLine
 10
142.0742474319
 20
387.8966525162
 30
0.0
 11
142.5742474319
 21
387.8966525162
 31
0.0
  0
LINE
  5
277
330
1F
100
AcDbEntity
  8
0
  6
Continuous
 62
     7
370
    25
100
AcDbLine
 10
143.5742474319
 20
387.8966525162
 30
0.0
 11
144.0742474319
 21
387.8966525162
 31
0.0
  0
ARC
  5
278
330
1F
100
AcDbEntity
  8
0
  6
Continuous
 62
     7
370
    25
100
AcDbCircle
 10
129.8742474319
 20
348.6966525162
 30
0.0
 40
3.800000000000011
100
AcDbArc
 50
247.0804578484
 51
270.0
  0
LINE
  5
279
330
1F
100
AcDbEntity
  8
0
  6
Continuous
 62
     7
370
    25
100
AcDbLine
 10
129.8742474319
 20
344.8966525162
 30
0.0
 11
142.0742474319
 21
344.8966525162
 31
0.0
  0
LINE
  5
27A
330
1F
100
AcDbEntity
  8
0
  6
Continuous
 62
     7
370
    25
100
AcDbLine
 10
144.0742474319
 20
344.8966525162
 30
0.0
 11
143.5742474319
 21
344.8966525162
 31
0.0
  0
LINE
  5
27B
330
1F
100
AcDbEntity
  8
0
  6
Continuous
 62
     7
370
    25
100
AcDbLine
 10
142.5742474319
 20
344.8966525162
 30
0.0
 11
142.0742474319
 21
344.8966525162
 31
0.0
  0
LINE
  5
27C
330
1F
100
AcDbEntity
  8
0
  6
Continuous
 62
     7
370
    25
100
AcDbLine
 10
143.5742474319
 20
347.8966525162
 30
0.0
 11
144.0742474319
 21
347.8966525162
 31
0.0
  0
ARC
  5
27D
330
1F
100
AcDbEntity
  8
0
  6
Continuous
 62
     7
370
    25
100
AcDbCircle
 10
147.2742474319
 20
326.3966525162
 30
0.0
 40
0.2000000000000171
100
AcDbArc
 50
180.0
 51
270.0
  0
LINE
  5
27E
330
1F
100
AcDbEntity
  8
0
  6
Continuous
 62
     7
370
    25
100
AcDbLine
 10
147.2742474319
 20
326.1966525162
 30
0.0
 11
147.2742474319
 21
325.8966525162
 31
0.0
  0
ARC
  5
27F
330
1F
100
AcDbEntity
  8
0
  6
Continuous
 62
     7
370
    25
100
AcDbCircle
 10
147.2742474319
 20
326.3966525162
 30
0.0
 40
0.5
100
AcDbArc
 50
180.0
 51
270.0
  0
LINE
  5
280
330
1F
100
AcDbEntity
  8
0
  6
Continuous
 62
     7
370
    25
100
AcDbLine
 10
147.0742474319
 20
326.3966525162
 30
0.0
 11
146.7742474319
 21
326.3966525162
 31
0.0
  0
CIRCLE
  5
281
330
1F
100
AcDbEntity
  8
0
  6
Continuous
 62
     7
370
    25
100
AcDbCircle
 10
187.2742474319
 20
366.3966525162
 30
0.0
 40
29.5
  0
LINE
  5
282
330
1F
100
AcDbEntity
  8
0
  6
Continuous
 62
     7
370
    25
100
AcDbLine
 10
147.0742474319
 20
406.3966525162
 30
0.0
 11
147.0742474319
 21
326.3966525162
 31
0.0
  0
ARC
  5
283
330
1F
100
AcDbEntity
  8
0
  6
Continuous
 62
     7
370
    25
100
AcDbCircle
 10
147.2742474319
 20
406.3966525162
 30
0.0
 40
0.1999999999999886
100
AcDbArc
 50
90.0
 51
180.0
  0
LINE
  5
284
330
1F
100
AcDbEntity
  8
0
  6
Continuous
 62
     7
370
    25
100
AcDbLine
 10
227.2742474319
 20
406.5966525162
 30
0.0
 11
147.2742474319
 21
406.5966525162
 31
0.0
  0
ARC
  5
285
330
1F
100
AcDbEntity
  8
0
  6
Continuous
 62
     7
370
    25
100
AcDbCircle
 10
227.2742474319
 20
406.3966525162
 30
0.0
 40
0.1999999999999886
100
AcDbArc
 50
0.0
 51
90.0
  0
LINE
  5
286
330
1F
100
AcDbEntity
  8
0
  6
Continuous
 62
     7
370
    25
100
AcDbLine
 10
227.4742474319
 20
326.3966525162
 30
0.0
 11
227.4742474319
 21
406.3966525162
 31
0.0
  0
ARC
  5
287
330
1F
100
AcDbEntity
  8
0
  6
Continuous
 62
     7
370
    25
100
AcDbCircle
 10
227.2742474319
 20
326.3966525162
 30
0.0
 40
0.1999999999999886
100
AcDbArc
 50
270.0
 51
0.0
  0
LINE
  5
288
330
1F
100
AcDbEntity
  8
0
  6
Continuous
 62
     7
370
    25
100
AcDbLine
 10
147.2742474319
 20
326.1966525162
 30
0.0
 11
227.2742474319
 21
326.1966525162
 31
0.0
  0
LINE
  5
289
330
1F
100
AcDbEntity
  8
0
  6
Continuous
 62
     7
370
    25
100
AcDbLine
 10
146.7742474319
 20
326.3966525162
 30
0.0
 11
146.7742474319
 21
406.3966525162
 31
0.0
  0
LINE
  5
28A
330
1F
100
AcDbEntity
  8
0
  6
Continuous
 62
     7
370
    25
100
AcDbLine
 10
147.0742474319
 20
406.3966525162
 30
0.0
 11
146.7742474319
 21
406.3966525162
 31
0.0
  0
LINE
  5
28B
330
1F
100
AcDbEntity
  8
0
  6
Continuous
 62
     7
370
    25
100
AcDbLine
 10
227.2742474319
 20
325.8966525162
 30
0.0
 11
147.2742474319
 21
325.8966525162
 31
0.0
  0
LINE
  5
28C
330
1F
100
AcDbEntity
  8
0
  6
Continuous
 62
     7
370
    25
100
AcDbLine
 10
227.2742474319
 20
325.8966525162
 30
0.0
 11
227.2742474319
 21
326.1966525162
 31
0.0
  0
ARC
  5
28D
330
1F
100
AcDbEntity
  8
0
  6
Continuous
 62
     7
370
    25
100
AcDbCircle
 10
147.2742474319
 20
406.3966525162
 30
0.0
 40
0.5
100
AcDbArc
 50
90.0
 51
180.0
  0
LINE
  5
28E
330
1F
100
AcDbEntity
  8
0
  6
Continuous
 62
     7
370
    25
100
AcDbLine
 10
147.2742474319
 20
406.5966525162
 30
0.0
 11
147.2742474319
 21
406.8966525162
 31
0.0
  0
LINE
  5
28F
330
1F
100
AcDbEntity
  8
0
  6
Continuous
 62
     7
370
    25
100
AcDbLine
 10
147.2742474319
 20
406.8966525162
 30
0.0
 11
227.2742474319
 21
406.8966525162
 31
0.0
  0
LINE
  5
290
330
1F
100
AcDbEntity
  8
0
  6
Continuous
 62
     7
370
    25
100
AcDbLine
 10
227.2742474319
 20
406.8966525162
 30
0.0
 11
227.2742474319
 21
406.5966525162
 31
0.0
  0
LINE
  5
291
330
1F
100
AcDbEntity
  8
0
  6
Continuous
 62
     7
370
    25
100
AcDbLine
 10
227.7742474319
 20
406.3966525162
 30
0.0
 11
227.7742474319
 21
326.3966525162
 31
0.0
  0
LINE
  5
292
330
1F
100
AcDbEntity
  8
0
  6
Continuous
 62
     7
370
    25
100
AcDbLine
 10
227.7742474319
 20
326.3966525162
 30
0.0
 11
227.4742474319
 21
326.3966525162
 31
0.0
  0
LINE
  5
293
330
1F
100
AcDbEntity
  8
0
  6
Continuous
 62
     7
370
    25
100
AcDbLine
 10
227.7742474319
 20
406.3966525162
 30
0.0
 11
227.4742474319
 21
406.3966525162
 31
0.0
  0
ARC
  5
294
330
1F
100
AcDbEntity
  8
0
  6
Continuous
 62
     7
370
    25
100
AcDbCircle
 10
227.2742474319
 20
326.3966525162
 30
0.0
 40
0.5
100
AcDbArc
 50
270.0
 51
0.0
  0
ARC
  5
295
330
1F
100
AcDbEntity
  8
0
  6
Continuous
 62
     7
370
    25
100
AcDbCircle
 10
227.2742474319
 20
406.3966525162
 30
0.0
 40
0.5
100
AcDbArc
 50
0.0
 51
90.0
  0
LINE
  5
296
330
1F
100
AcDbEntity
  8
0
  6
Continuous
 62
     7
370
    25
100
AcDbLine
 10
230.1742474319
 20
321.6966525162
 30
0.0
 11
144.3742474319
 21
321.6966525162
 31
0.0
  0
ARC
  5
297
330
1F
100
AcDbEntity
  8
0
  6
Continuous
 62
     7
370
    25
100
AcDbCircle
 10
144.3742474319
 20
323.4966525162
 30
0.0
 40
1.80000000000004
100
AcDbArc
 50
180.0
 51
270.0
  0
LINE
  5
298
330
1F
100
AcDbEntity
  8
0
  6
Continuous
 62
     7
370
    25
100
AcDbLine
 10
142.5742474319
 20
323.4966525162
 30
0.0
 11
142.5742474319
 21
409.2966525162
 31
0.0
  0
ARC
  5
299
330
1F
100
AcDbEntity
  8
0
  6
Continuous
 62
     7
370
    25
100
AcDbCircle
 10
144.3742474319
 20
409.2966525162
 30
0.0
 40
1.800000000000068
100
AcDbArc
 50
90.0
 51
180.0
  0
LINE
  5
29A
330
1F
100
AcDbEntity
  8
0
  6
Continuous
 62
     7
370
    25
100
AcDbLine
 10
144.3742474319
 20
411.0966525162
 30
0.0
 11
187.1742474319
 21
411.0966525162
 31
0.0
  0
LINE
  5
29B
330
1F
100
AcDbEntity
  8
0
  6
Continuous
 62
     7
370
    25
100
AcDbLine
 10
187.1742474319
 20
410.0966525162
 30
0.0
 11
187.1742474319
 21
411.0966525162
 31
0.0
  0
LINE
  5
29C
330
1F
100
AcDbEntity
  8
0
  6
Continuous
 62
     7
370
    25
100
AcDbLine
 10
144.3742474319
 20
410.0966525162
 30
0.0
 11
187.1742474319
 21
410.0966525162
 31
0.0
  0
ARC
  5
29D
330
1F
100
AcDbEntity
  8
0
  6
Continuous
 62
     7
370
    25
100
AcDbCircle
 10
144.3742474319
 20
409.2966525162
 30
0.0
 40
0.8000000000000682
100
AcDbArc
 50
90.0
 51
180.0
  0
LINE
  5
29E
330
1F
100
AcDbEntity
  8
0
  6
Continuous
 62
     7
370
    25
100
AcDbLine
 10
143.5742474319
 20
323.4966525162
 30
0.0
 11
143.5742474319
 21
409.2966525162
 31
0.0
  0
ARC
  5
29F
330
1F
100
AcDbEntity
  8
0
  6
Continuous
 62
     7
370
    25
100
AcDbCircle
 10
144.3742474319
 20
323.4966525162
 30
0.0
 40
0.8000000000000398
100
AcDbArc
 50
180.0
 51
270.0
  0
LINE
  5
2A0
330
1F
100
AcDbEntity
  8
0
  6
Continuous
 62
     7
370
    25
100
AcDbLine
 10
230.1742474319
 20
322.6966525162
 30
0.0
 11
144.3742474319
 21
322.6966525162
 31
0.0
  0
ARC
  5
2A1
330
1F
100
AcDbEntity
  8
0
  6
Continuous
 62
     7
370
    25
100
AcDbCircle
 10
230.1742474319
 20
323.4966525162
 30
0.0
 40
0.8000000000000682
100
AcDbArc
 50
270.0
 51
0.0
  0
LINE
  5
2A2
330
1F
100
AcDbEntity
  8
0
  6
Continuous
 62
     7
370
    25
100
AcDbLine
 10
230.9742474319
 20
409.2966525162
 30
0.0
 11
230.9742474319
 21
323.4966525162
 31
0.0
  0
ARC
  5
2A3
330
1F
100
AcDbEntity
  8
0
  6
Continuous
 62
     7
370
    25
100
AcDbCircle
 10
230.1742474319
 20
409.2966525162
 30
0.0
 40
0.8000000000000114
100
AcDbArc
 50
0.0
 51
90.0
  0
LINE
  5
2A4
330
1F
100
AcDbEntity
  8
0
  6
Continuous
 62
     7
370
    25
100
AcDbLine
 10
187.3742474319
 20
410.0966525162
 30
0.0
 11
230.1742474319
 21
410.0966525162
 31
0.0
  0
LINE
  5
2A5
330
1F
100
AcDbEntity
  8
0
  6
Continuous
 62
     7
370
    25
100
AcDbLine
 10
187.3742474319
 20
411.0966525162
 30
0.0
 11
187.3742474319
 21
410.0966525162
 31
0.0
  0
LINE
  5
2A6
330
1F
100
AcDbEntity
  8
0
  6
Continuous
 62
     7
370
    25
100
AcDbLine
 10
187.3742474319
 20
411.0966525162
 30
0.0
 11
230.1742474319
 21
411.0966525162
 31
0.0
  0
ARC
  5
2A7
330
1F
100
AcDbEntity
  8
0
  6
Continuous
 62
     7
370
    25
100
AcDbCircle
 10
230.1742474319
 20
409.2966525162
 30
0.0
 40
1.800000000000011
100
AcDbArc
 50
0.0
 51
90.0
  0
LINE
  5
2A8
330
1F
100
AcDbEntity
  8
0
  6
Continuous
 62
     7
370
    25
100
AcDbLine
 10
231.9742474319
 20
323.4966525162
 30
0.0
 11
231.9742474319
 21
409.2966525162
 31
0.0
  0
ARC
  5
2A9
330
1F
100
AcDbEntity
  8
0
  6
Continuous
 62
     7
370
    25
100
AcDbCircle
 10
230.1742474319
 20
323.4966525162
 30
0.0
 40
1.800000000000068
100
AcDbArc
 50
270.0
 51
0.0
  0
LINE
  5
2AA
330
1F
100
AcDbEntity
  8
0
  6
Continuous
 62
     8
370
    25
100
AcDbLine
 10
139.8242474319
 20
391.6466525162
 30
0.0
 11
130.3242474319
 21
391.6466525162
 31
0.0
  0
LINE
  5
2AB
330
1F
100
AcDbEntity
  8
0
  6
Continuous
 62
     8
370
    25
100
AcDbLine
 10
129.8742474319
 20
387.5966525162
 30
0.0
 11
129.8742474319
 21
387.8966525162
 31
0.0
  0
LINE
  5
2AC
330
1F
100
AcDbEntity
  8
0
  6
Continuous
 62
     8
370
    25
100
AcDbLine
 10
142.0742474319
 20
387.5966525162
 30
0.0
 11
142.0742474319
 21
387.8966525162
 31
0.0
  0
LINE
  5
2AD
330
1F
100
AcDbEntity
  8
0
  6
Continuous
 62
     8
370
    25
100
AcDbLine
 10
129.8742474319
 20
345.1966525162
 30
0.0
 11
129.8742474319
 21
344.8966525162
 31
0.0
  0
LINE
  5
2AE
330
1F
100
AcDbEntity
  8
0
  6
Continuous
 62
     8
370
    25
100
AcDbLine
 10
142.0742474319
 20
344.8966525162
 30
0.0
 11
142.0742474319
 21
345.1966525162
 31
0.0
  0
LINE
  5
2AF
330
1F
100
AcDbEntity
  8
0
  6
Continuous
 62
     7
370
    25
100
AcDbLine
 10
311.4659581585
 20
710.8445160742
 30
0.0
 11
311.4659581585
 21
712.3445160742
 31
0.0
  0
LINE
  5
2B0
330
1F
100
AcDbEntity
  8
0
  6
Continuous
 62
     7
370
    25
100
AcDbLine
 10
302.4659581585
 20
712.3445160742
 30
0.0
 11
302.4659581585
 21
710.8445160742
 31
0.0
  0
ARC
  5
2B1
330
1F
100
AcDbEntity
  8
0
  6
Continuous
 62
     7
370
    25
100
AcDbCircle
 10
302.9659581585
 20
710.8445160742
 30
0.0
 40
0.5000000000001137
100
AcDbArc
 50
180.0
 51
270.0
  0
ARC
  5
2B2
330
1F
100
AcDbEntity
  8
0
  6
Continuous
 62
     7
370
    25
100
AcDbCircle
 10
310.9659581585
 20
710.8445160742
 30
0.0
 40
0.5000000000001137
100
AcDbArc
 50
270.0
 51
0.0
  0
LINE
  5
2B3
330
1F
100
AcDbEntity
  8
0
  6
Continuous
 62
     7
370
    25
100
AcDbLine
 10
312.3621105813
 20
712.3445160742
 30
0.0
 11
312.6621105813
 21
712.6445160742
 31
0.0
  0
LINE
  5
2B4
330
1F
100
AcDbEntity
  8
0
  6
Continuous
 62
     7
370
    25
100
AcDbLine
 10
301.2698057358
 20
712.6445160742
 30
0.0
 11
301.5698057358
 21
712.3445160742
 31
0.0
  0
LINE
  5
2B5
330
1F
100
AcDbEntity
  8
0
  6
Continuous
 62
     7
370
    25
100
AcDbLine
 10
301.2698057358
 20
714.8445160742
 30
0.0
 11
301.2698057358
 21
712.6445160742
 31
0.0
  0
LINE
  5
2B6
330
1F
100
AcDbEntity
  8
0
  6
Continuous
 62
     7
370
    25
100
AcDbLine
 10
312.6621105813
 20
712.6445160742
 30
0.0
 11
312.6621105813
 21
714.8445160742
 31
0.0
  0
ARC
  5
2B7
330
1F
100
AcDbEntity
  8
0
  6
Continuous
 62
     7
370
    25
100
AcDbCircle
 10
310.9659581585
 20
543.1696878484
 30
0.0
 40
0.5
100
AcDbArc
 50
0.0
 51
90.0
  0
ARC
  5
2B8
330
1F
100
AcDbEntity
  8
0
  6
Continuous
 62
     7
370
    25
100
AcDbCircle
 10
302.9659581585
 20
543.1696878484
 30
0.0
 40
0.5
100
AcDbArc
 50
90.0
 51
180.0
  0
LINE
  5
2B9
330
1F
100
AcDbEntity
  8
0
  6
Continuous
 62
     7
370
    25
100
AcDbLine
 10
302.4659581585
 20
543.1696878484
 30
0.0
 11
302.4659581585
 21
541.6696878484
 31
0.0
  0
LINE
  5
2BA
330
1F
100
AcDbEntity
  8
0
  6
Continuous
 62
     7
370
    25
100
AcDbLine
 10
311.4659581585
 20
541.6696878484
 30
0.0
 11
311.4659581585
 21
543.1696878484
 31
0.0
  0
LINE
  5
2BB
330
1F
100
AcDbEntity
  8
0
  6
Continuous
 62
     7
370
    25
100
AcDbLine
 10
301.5698057358
 20
541.6696878484
 30
0.0
 11
301.2698057358
 21
541.3696878484
 31
0.0
  0
LINE
  5
2BC
330
1F
100
AcDbEntity
  8
0
  6
Continuous
 62
     7
370
    25
100
AcDbLine
 10
312.6621105813
 20
540.0156792033
 30
0.0
 11
312.6621105813
 21
541.3696878484
 31
0.0
  0
LINE
  5
2BD
330
1F
100
AcDbEntity
  8
0
  6
Continuous
 62
     7
370
    25
100
AcDbLine
 10
312.6621105813
 20
541.3696878484
 30
0.0
 11
312.3621105813
 21
541.6696878484
 31
0.0
  0
LINE
  5
2BE
330
1F
100
AcDbEntity
  8
0
  6
Continuous
 62
     7
370
    25
100
AcDbLine
 10
301.2698057358
 20
541.3696878484
 30
0.0
 11
301.2698057358
 21
540.0156792033
 31
0.0
  0
LWPOLYLINE
  5
2BF
330
1F
100
AcDbEntity
  8
0
  6
Continuous
 62
     7
370
    25
100
AcDbPolyline
 90
        3
 70
   128
 43
0.0
 10
310.4659581585
 20
714.8445160742
 10
310.6572998747
 20
714.8825763079
 10
310.724464357
 20
714.9165271194
  0
LWPOLYLINE
  5
2C0
330
1F
100
AcDbEntity
  8
0
  6
Continuous
 62
     7
370
    25
100
AcDbPolyline
 90
        3
 70
   128
 43
0.0
 10
303.2074519601
 20
714.9165271194
 10
303.2746164424
 20
714.8825763079
 10
303.4659581585
 20
714.8445160742
  0
LINE
  5
2C1
330
1F
100
AcDbEntity
  8
0
  6
Continuous
 62
     7
370
    25
100
AcDbLine
 10
309.5640343699
 20
712.6445160742
 30
0.0
 11
309.5640343699
 21
714.8445160742
 31
0.0
  0
LINE
  5
2C2
330
1F
100
AcDbEntity
  8
0
  6
Continuous
 62
     7
370
    25
100
AcDbLine
 10
304.3678819472
 20
712.6445160742
 30
0.0
 11
304.7011506747
 21
712.6445160742
 31
0.0
  0
LINE
  5
2C3
330
1F
100
AcDbEntity
  8
0
  6
Continuous
 62
     7
370
    25
100
AcDbLine
 10
308.8359660893
 20
712.6445160742
 30
0.0
 11
309.5640343699
 21
712.6445160742
 31
0.0
  0
LINE
  5
2C4
330
1F
100
AcDbEntity
  8
0
  6
Continuous
 62
     7
370
    25
100
AcDbLine
 10
304.3678819472
 20
714.8445160742
 30
0.0
 11
304.3678819472
 21
712.6445160742
 31
0.0
  0
LINE
  5
2C5
330
1F
100
AcDbEntity
  8
0
  6
Continuous
 62
     7
370
    25
100
AcDbLine
 10
304.3678819472
 20
714.8445160742
 30
0.0
 11
304.4734189352
 21
714.8445160742
 31
0.0
  0
LINE
  5
2C6
330
1F
100
AcDbEntity
  8
0
  6
Continuous
 62
     7
370
    25
100
AcDbLine
 10
309.0472017462
 20
714.8445160742
 30
0.0
 11
309.5640343699
 21
714.8445160742
 31
0.0
  0
LINE
  5
2C7
330
1F
100
AcDbEntity
  8
0
  6
Continuous
 62
     7
370
    25
100
AcDbLine
 10
309.5640343699
 20
712.3445160742
 30
0.0
 11
309.5640343699
 21
712.6445160742
 31
0.0
  0
LINE
  5
2C8
330
1F
100
AcDbEntity
  8
0
  6
Continuous
 62
     7
370
    25
100
AcDbLine
 10
309.5640343699
 20
712.3445160742
 30
0.0
 11
308.8359660893
 21
712.3445160742
 31
0.0
  0
LINE
  5
2C9
330
1F
100
AcDbEntity
  8
0
  6
Continuous
 62
     7
370
    25
100
AcDbLine
 10
304.7011506747
 20
712.3445160742
 30
0.0
 11
304.3678819472
 21
712.3445160742
 31
0.0
  0
LINE
  5
2CA
330
1F
100
AcDbEntity
  8
0
  6
Continuous
 62
     7
370
    25
100
AcDbLine
 10
304.3678819472
 20
712.6445160742
 30
0.0
 11
304.3678819472
 21
712.3445160742
 31
0.0
  0
LINE
  5
2CB
330
1F
100
AcDbEntity
  8
0
  6
Continuous
 62
     7
370
    25
100
AcDbLine
 10
311.3493923655
 20
711.5445160742
 30
0.0
 11
310.0389404972
 21
711.5445160742
 31
0.0
  0
LINE
  5
2CC
330
1F
100
AcDbEntity
  8
0
  6
Continuous
 62
     7
370
    25
100
AcDbLine
 10
311.3493923655
 20
711.9445160742
 30
0.0
 11
311.3493923655
 21
711.5445160742
 31
0.0
  0
LINE
  5
2CD
330
1F
100
AcDbEntity
  8
0
  6
Continuous
 62
     7
370
    25
100
AcDbLine
 10
310.0389404972
 20
711.9445160742
 30
0.0
 11
311.3493923655
 21
711.9445160742
 31
0.0
  0
LINE
  5
2CE
330
1F
100
AcDbEntity
  8
0
  6
Continuous
 62
     7
370
    25
100
AcDbLine
 10
310.0389404972
 20
711.5445160742
 30
0.0
 11
310.0389404972
 21
711.9445160742
 31
0.0
  0
LINE
  5
2CF
330
1F
100
AcDbEntity
  8
0
  6
Continuous
 62
     7
370
    25
100
AcDbLine
 10
303.8929758199
 20
711.5445160742
 30
0.0
 11
302.5825239515
 21
711.5445160742
 31
0.0
  0
LINE
  5
2D0
330
1F
100
AcDbEntity
  8
0
  6
Continuous
 62
     7
370
    25
100
AcDbLine
 10
303.8929758199
 20
711.9445160742
 30
0.0
 11
303.8929758199
 21
711.5445160742
 31
0.0
  0
LINE
  5
2D1
330
1F
100
AcDbEntity
  8
0
  6
Continuous
 62
     7
370
    25
100
AcDbLine
 10
302.5825239515
 20
711.9445160742
 30
0.0
 11
303.8929758199
 21
711.9445160742
 31
0.0
  0
LINE
  5
2D2
330
1F
100
AcDbEntity
  8
0
  6
Continuous
 62
     7
370
    25
100
AcDbLine
 10
302.5825239515
 20
711.5445160742
 30
0.0
 11
302.5825239515
 21
711.9445160742
 31
0.0
  0
LINE
  5
2D3
330
1F
100
AcDbEntity
  8
0
  6
Continuous
 62
     7
370
    25
100
AcDbLine
 10
308.9359654019
 20
710.3445160742
 30
0.0
 11
308.8359660893
 21
710.3445160742
 31
0.0
  0
LINE
  5
2D4
330
1F
100
AcDbEntity
  8
0
  6
Continuous
 62
     7
370
    25
100
AcDbLine
 10
304.7011506747
 20
710.3445160742
 30
0.0
 11
302.9659581585
 21
710.3445160742
 31
0.0
  0
LINE
  5
2D5
330
1F
100
AcDbEntity
  8
0
  6
Continuous
 62
     7
370
    25
100
AcDbLine
 10
310.9659581585
 20
710.3445160742
 30
0.0
 11
308.9359654019
 21
710.3445160742
 31
0.0
  0
LINE
  5
2D6
330
1F
100
AcDbEntity
  8
0
  6
Continuous
 62
     7
370
    25
100
AcDbLine
 10
303.9348692453
 20
712.6445160742
 30
0.0
 11
304.3678819472
 21
712.6445160742
 31
0.0
  0
LINE
  5
2D7
330
1F
100
AcDbEntity
  8
0
  6
Continuous
 62
     7
370
    25
100
AcDbLine
 10
303.9348692453
 20
712.6445160742
 30
0.0
 11
303.9348692453
 21
714.8445160742
 31
0.0
  0
LINE
  5
2D8
330
1F
100
AcDbEntity
  8
0
  6
Continuous
 62
     7
370
    25
100
AcDbLine
 10
303.9348692453
 20
714.8445160742
 30
0.0
 11
304.3678819472
 21
714.8445160742
 31
0.0
  0
LINE
  5
2D9
330
1F
100
AcDbEntity
  8
0
  6
Continuous
 62
     7
370
    25
100
AcDbLine
 10
303.9348692453
 20
712.6445160742
 30
0.0
 11
304.1946768664
 21
712.3445160742
 31
0.0
  0
LINE
  5
2DA
330
1F
100
AcDbEntity
  8
0
  6
Continuous
 62
     7
370
    25
100
AcDbLine
 10
304.3678819472
 20
712.3445160742
 30
0.0
 11
304.1946768664
 21
712.3445160742
 31
0.0
  0
LINE
  5
2DB
330
1F
100
AcDbEntity
  8
0
  6
Continuous
 62
     7
370
    25
100
AcDbLine
 10
309.9970470718
 20
714.8445160742
 30
0.0
 11
309.9970470718
 21
712.6445160742
 31
0.0
  0
LINE
  5
2DC
330
1F
100
AcDbEntity
  8
0
  6
Continuous
 62
     7
370
    25
100
AcDbLine
 10
309.5640343699
 20
712.6445160742
 30
0.0
 11
309.9970470718
 21
712.6445160742
 31
0.0
  0
LINE
  5
2DD
330
1F
100
AcDbEntity
  8
0
  6
Continuous
 62
     7
370
    25
100
AcDbLine
 10
309.5640343699
 20
714.8445160742
 30
0.0
 11
309.9970470718
 21
714.8445160742
 31
0.0
  0
LINE
  5
2DE
330
1F
100
AcDbEntity
  8
0
  6
Continuous
 62
     7
370
    25
100
AcDbLine
 10
309.7372394507
 20
712.3445160742
 30
0.0
 11
309.9970470718
 21
712.6445160742
 31
0.0
  0
LINE
  5
2DF
330
1F
100
AcDbEntity
  8
0
  6
Continuous
 62
     7
370
    25
100
AcDbLine
 10
309.7372394507
 20
712.3445160742
 30
0.0
 11
309.5640343699
 21
712.3445160742
 31
0.0
  0
LINE
  5
2E0
330
1F
100
AcDbEntity
  8
0
  6
Continuous
 62
     7
370
    25
100
AcDbLine
 10
309.9970470718
 20
712.6445160742
 30
0.0
 11
312.5951232831
 21
712.6445160742
 31
0.0
  0
LINE
  5
2E1
330
1F
100
AcDbEntity
  8
0
  6
Continuous
 62
     7
370
    25
100
AcDbLine
 10
312.335315662
 20
712.3445160742
 30
0.0
 11
312.5951232831
 21
712.6445160742
 31
0.0
  0
LINE
  5
2E2
330
1F
100
AcDbEntity
  8
0
  6
Continuous
 62
     7
370
    25
100
AcDbLine
 10
312.335315662
 20
712.3445160742
 30
0.0
 11
309.7372394507
 21
712.3445160742
 31
0.0
  0
LINE
  5
2E3
330
1F
100
AcDbEntity
  8
0
  6
Continuous
 62
     7
370
    25
100
AcDbLine
 10
301.3367930339
 20
712.6445160742
 30
0.0
 11
303.9348692453
 21
712.6445160742
 31
0.0
  0
LINE
  5
2E4
330
1F
100
AcDbEntity
  8
0
  6
Continuous
 62
     7
370
    25
100
AcDbLine
 10
301.3367930339
 20
712.6445160742
 30
0.0
 11
301.5966006551
 21
712.3445160742
 31
0.0
  0
LINE
  5
2E5
330
1F
100
AcDbEntity
  8
0
  6
Continuous
 62
     7
370
    25
100
AcDbLine
 10
304.1946768664
 20
712.3445160742
 30
0.0
 11
301.5966006551
 21
712.3445160742
 31
0.0
  0
LINE
  5
2E6
330
1F
100
AcDbEntity
  8
0
  6
Continuous
 62
     7
370
    25
100
AcDbLine
 10
301.3367930339
 20
714.8445160742
 30
0.0
 11
301.3367930339
 21
712.6445160742
 31
0.0
  0
LINE
  5
2E7
330
1F
100
AcDbEntity
  8
0
  6
Continuous
 62
     7
370
    25
100
AcDbLine
 10
301.3367930339
 20
714.8445160742
 30
0.0
 11
303.9348692453
 21
714.8445160742
 31
0.0
  0
LINE
  5
2E8
330
1F
100
AcDbEntity
  8
0
  6
Continuous
 62
     7
370
    25
100
AcDbLine
 10
312.5951232831
 20
712.6445160742
 30
0.0
 11
312.5951232831
 21
714.8445160742
 31
0.0
  0
LINE
  5
2E9
330
1F
100
AcDbEntity
  8
0
  6
Continuous
 62
     7
370
    25
100
AcDbLine
 10
309.9970470718
 20
714.8445160742
 30
0.0
 11
312.5951232831
 21
714.8445160742
 31
0.0
  0
LINE
  5
2EA
330
1F
100
AcDbEntity
  8
0
  6
Continuous
 62
     7
370
    25
100
AcDbLine
 10
312.5951232831
 20
712.6445160742
 30
0.0
 11
312.6621105813
 21
712.6445160742
 31
0.0
  0
LINE
  5
2EB
330
1F
100
AcDbEntity
  8
0
  6
Continuous
 62
     7
370
    25
100
AcDbLine
 10
312.3621105813
 20
712.3445160742
 30
0.0
 11
312.335315662
 21
712.3445160742
 31
0.0
  0
LINE
  5
2EC
330
1F
100
AcDbEntity
  8
0
  6
Continuous
 62
     7
370
    25
100
AcDbLine
 10
301.2698057358
 20
712.6445160742
 30
0.0
 11
301.3367930339
 21
712.6445160742
 31
0.0
  0
LINE
  5
2ED
330
1F
100
AcDbEntity
  8
0
  6
Continuous
 62
     7
370
    25
100
AcDbLine
 10
301.5966006551
 20
712.3445160742
 30
0.0
 11
301.5698057358
 21
712.3445160742
 31
0.0
  0
LINE
  5
2EE
330
1F
100
AcDbEntity
  8
0
  6
Continuous
 62
     7
370
    25
100
AcDbLine
 10
301.2698057358
 20
714.8445160742
 30
0.0
 11
301.3367930339
 21
714.8445160742
 31
0.0
  0
LINE
  5
2EF
330
1F
100
AcDbEntity
  8
0
  6
Continuous
 62
     7
370
    25
100
AcDbLine
 10
312.5951232831
 20
714.8445160742
 30
0.0
 11
312.6621105813
 21
714.8445160742
 31
0.0
  0
LINE
  5
2F0
330
1F
100
AcDbEntity
  8
0
  6
Continuous
 62
     7
370
    25
100
AcDbLine
 10
302.9659581585
 20
543.6696878484
 30
0.0
 11
303.7618258469
 21
543.6696878484
 31
0.0
  0
LINE
  5
2F1
330
1F
100
AcDbEntity
  8
0
  6
Continuous
 62
     7
370
    25
100
AcDbLine
 10
309.778980331
 20
543.6696878484
 30
0.0
 11
310.9659581585
 21
543.6696878484
 31
0.0
  0
LINE
  5
2F2
330
1F
100
AcDbEntity
  8
0
  6
Continuous
 62
     7
370
    25
100
AcDbLine
 10
302.5825239515
 20
542.4696878484
 30
0.0
 11
303.7618258469
 21
542.4696878484
 31
0.0
  0
LINE
  5
2F3
330
1F
100
AcDbEntity
  8
0
  6
Continuous
 62
     7
370
    25
100
AcDbLine
 10
302.5825239515
 20
542.0696878484
 30
0.0
 11
302.5825239515
 21
542.4696878484
 31
0.0
  0
LINE
  5
2F4
330
1F
100
AcDbEntity
  8
0
  6
Continuous
 62
     7
370
    25
100
AcDbLine
 10
303.7618258469
 20
542.0696878484
 30
0.0
 11
302.5825239515
 21
542.0696878484
 31
0.0
  0
LINE
  5
2F5
330
1F
100
AcDbEntity
  8
0
  6
Continuous
 62
     7
370
    25
100
AcDbLine
 10
310.0389404972
 20
542.4696878484
 30
0.0
 11
311.3493923656
 21
542.4696878484
 31
0.0
  0
LINE
  5
2F6
330
1F
100
AcDbEntity
  8
0
  6
Continuous
 62
     7
370
    25
100
AcDbLine
 10
310.0389404972
 20
542.0696878484
 30
0.0
 11
310.0389404972
 21
542.4696878484
 31
0.0
  0
LINE
  5
2F7
330
1F
100
AcDbEntity
  8
0
  6
Continuous
 62
     7
370
    25
100
AcDbLine
 10
311.3493923656
 20
542.0696878484
 30
0.0
 11
310.0389404972
 21
542.0696878484
 31
0.0
  0
LINE
  5
2F8
330
1F
100
AcDbEntity
  8
0
  6
Continuous
 62
     7
370
    25
100
AcDbLine
 10
311.3493923656
 20
542.4696878484
 30
0.0
 11
311.3493923656
 21
542.0696878484
 31
0.0
  0
LINE
  5
2F9
330
1F
100
AcDbEntity
  8
0
  6
Continuous
 62
     7
370
    25
100
AcDbLine
 10
309.9970470718
 20
541.3696878484
 30
0.0
 11
309.778980331
 21
541.3696878484
 31
0.0
  0
LINE
  5
2FA
330
1F
100
AcDbEntity
  8
0
  6
Continuous
 62
     7
370
    25
100
AcDbLine
 10
303.7618258469
 20
541.3696878484
 30
0.0
 11
301.3367930339
 21
541.3696878484
 31
0.0
  0
LINE
  5
2FB
330
1F
100
AcDbEntity
  8
0
  6
Continuous
 62
     7
370
    25
100
AcDbLine
 10
301.3367930339
 20
541.3696878484
 30
0.0
 11
301.5966006551
 21
541.6696878484
 31
0.0
  0
LINE
  5
2FC
330
1F
100
AcDbEntity
  8
0
  6
Continuous
 62
     7
370
    25
100
AcDbLine
 10
301.5966006551
 20
541.6696878484
 30
0.0
 11
303.7618258469
 21
541.6696878484
 31
0.0
  0
LINE
  5
2FD
330
1F
100
AcDbEntity
  8
0
  6
Continuous
 62
     7
370
    25
100
AcDbLine
 10
312.5951232831
 20
541.3696878484
 30
0.0
 11
309.9970470718
 21
541.3696878484
 31
0.0
  0
LINE
  5
2FE
330
1F
100
AcDbEntity
  8
0
  6
Continuous
 62
     7
370
    25
100
AcDbLine
 10
312.335315662
 20
541.6696878484
 30
0.0
 11
312.5951232831
 21
541.3696878484
 31
0.0
  0
LINE
  5
2FF
330
1F
100
AcDbEntity
  8
0
  6
Continuous
 62
     7
370
    25
100
AcDbLine
 10
309.778980331
 20
541.6696878484
 30
0.0
 11
312.335315662
 21
541.6696878484
 31
0.0
  0
LINE
  5
300
330
1F
100
AcDbEntity
  8
0
  6
Continuous
 62
     7
370
    25
100
AcDbLine
 10
301.3367930339
 20
541.3696878484
 30
0.0
 11
301.2698057358
 21
541.3696878484
 31
0.0
  0
LINE
  5
301
330
1F
100
AcDbEntity
  8
0
  6
Continuous
 62
     7
370
    25
100
AcDbLine
 10
301.5698057358
 20
541.6696878484
 30
0.0
 11
301.5966006551
 21
541.6696878484
 31
0.0
  0
LINE
  5
302
330
1F
100
AcDbEntity
  8
0
  6
Continuous
 62
     7
370
    25
100
AcDbLine
 10
312.6621105813
 20
541.3696878484
 30
0.0
 11
312.5951232831
 21
541.3696878484
 31
0.0
  0
LINE
  5
303
330
1F
100
AcDbEntity
  8
0
  6
Continuous
 62
     7
370
    25
100
AcDbLine
 10
312.335315662
 20
541.6696878484
 30
0.0
 11
312.3621105813
 21
541.6696878484
 31
0.0
  0
ELLIPSE
  5
304
330
1F
100
AcDbEntity
  8
0
  6
Continuous
 62
     7
370
    25
100
AcDbEllipse
 10
367.3200983168
 20
706.0074067334
 30
0.0
 11
0.3539842722996696
 21
-0.3539842722994991
 31
0.0
210
0.0
220
0.0
230
1.0
 40
0.998782766
 41
5.498396131367515
 42
7.067974482991189
  0
LINE
  5
305
330
1F
100
AcDbEntity
  8
0
  6
Continuous
 62
     7
370
    25
100
AcDbLine
 10
367.820403089
 20
706.0067973748
 30
0.0
 11
367.820403089
 21
715.0074065478
 31
0.0
  0
ELLIPSE
  5
306
330
1F
100
AcDbEntity
  8
0
  6
Continuous
 62
     7
370
    25
100
AcDbEllipse
 10
367.3200983168
 20
715.0067971891
 30
0.0
 11
-0.3539842722996696
 21
-0.3539842722994991
 31
-7.105427357601002E-15
210
-1.003636024765140E-14
220
-1.003636024764657E-14
230
1.0
 40
0.998782766
 41
2.35680347777819
 42
3.926381829401892
  0
LINE
  5
307
330
1F
100
AcDbEntity
  8
0
  6
Continuous
 62
     7
370
    25
100
AcDbLine
 10
367.3207076755
 20
715.5071019613
 30
0.0
 11
360.8950985025
 21
715.5071019613
 31
0.0
  0
ELLIPSE
  5
308
330
1F
100
AcDbEntity
  8
0
  6
Continuous
 62
     7
370
    25
100
AcDbEllipse
 10
360.8957078611
 20
715.0067971891
 30
0.0
 11
-0.3539842722996695
 21
0.3539842722996127
 31
0.0
210
0.0
220
0.0
230
1.0
 40
0.998782766
 41
5.498396131367709
 42
7.067974482991429
  0
LINE
  5
309
330
1F
100
AcDbEntity
  8
0
  6
Continuous
 62
     7
370
    25
100
AcDbLine
 10
360.395403089
 20
706.0067973748
 30
0.0
 11
360.395403089
 21
715.0074065478
 31
0.0
  0
ELLIPSE
  5
30A
330
1F
100
AcDbEntity
  8
0
  6
Continuous
 62
     7
370
    25
100
AcDbEllipse
 10
360.8957078611
 20
706.0074067334
 30
0.0
 11
0.3539842722996696
 21
0.3539842722994991
 31
7.105427357601002E-15
210
-1.003636024765140E-14
220
-1.003636024764657E-14
230
1.0
 40
0.998782766
 41
2.35680347777823
 42
3.926381829401739
  0
LINE
  5
30B
330
1F
100
AcDbEntity
  8
0
  6
Continuous
 62
     7
370
    25
100
AcDbLine
 10
367.3207076755
 20
705.5071019613
 30
0.0
 11
360.8950985025
 21
705.5071019613
 31
0.0
  0
ELLIPSE
  5
30C
330
1F
100
AcDbEntity
  8
0
  6
Continuous
 62
     7
370
    25
100
AcDbEllipse
 10
356.8950983168
 20
706.0074067334
 30
0.0
 11
0.3539842722995558
 21
-0.353984272299499
 31
0.0
210
0.0
220
0.0
230
1.0
 40
0.998782766
 41
5.498396131367796
 42
7.067974482991229
  0
LINE
  5
30D
330
1F
100
AcDbEntity
  8
0
  6
Continuous
 62
     7
370
    25
100
AcDbLine
 10
357.395403089
 20
706.0067973748
 30
0.0
 11
357.395403089
 21
715.0074065478
 31
0.0
  0
ELLIPSE
  5
30E
330
1F
100
AcDbEntity
  8
0
  6
Continuous
 62
     7
370
    25
100
AcDbEllipse
 10
356.8950983168
 20
715.0067971891
 30
0.0
 11
-0.3539842722996127
 21
-0.353984272299499
 31
-7.105427357601002E-15
210
-1.003636024765140E-14
220
-1.003636024764818E-14
230
1.0
 40
0.998782766
 41
2.35680347777815
 42
3.926381829401658
  0
LINE
  5
30F
330
1F
100
AcDbEntity
  8
0
  6
Continuous
 62
     7
370
    25
100
AcDbLine
 10
356.8957076755
 20
715.5071019613
 30
0.0
 11
350.4700985025
 21
715.5071019613
 31
0.0
  0
ELLIPSE
  5
310
330
1F
100
AcDbEntity
  8
0
  6
Continuous
 62
     7
370
    25
100
AcDbEllipse
 10
350.4707078611
 20
715.0067971891
 30
0.0
 11
-0.3539842722996127
 21
0.3539842722996127
 31
0.0
210
0.0
220
0.0
230
1.0
 40
0.998782766
 41
5.498396131367643
 42
7.067974482991429
  0
LINE
  5
311
330
1F
100
AcDbEntity
  8
0
  6
Continuous
 62
     7
370
    25
100
AcDbLine
 10
349.970403089
 20
706.0067973748
 30
0.0
 11
349.970403089
 21
715.0074065478
 31
0.0
  0
ELLIPSE
  5
312
330
1F
100
AcDbEntity
  8
0
  6
Continuous
 62
     7
370
    25
100
AcDbEllipse
 10
350.4707078611
 20
706.0074067334
 30
0.0
 11
0.3539842722996127
 21
0.353984272299499
 31
7.105427357601002E-15
210
-1.003636024765140E-14
220
-1.003636024764818E-14
230
1.0
 40
0.998782766
 41
2.35680347777815
 42
3.926381829401885
  0
LINE
  5
313
330
1F
100
AcDbEntity
  8
0
  6
Continuous
 62
     7
370
    25
100
AcDbLine
 10
356.8957076755
 20
705.5071019613
 30
0.0
 11
350.4700985025
 21
705.5071019613
 31
0.0
  0
ELLIPSE
  5
314
330
1F
100
AcDbEntity
  8
0
  6
Continuous
 62
     7
370
    25
100
AcDbEllipse
 10
346.4700983168
 20
706.0074067334
 30
0.0
 11
0.3539842722995558
 21
-0.353984272299499
 31
0.0
210
0.0
220
0.0
230
1.0
 40
0.998782766
 41
5.498396131367836
 42
7.067974482991189
  0
LINE
  5
315
330
1F
100
AcDbEntity
  8
0
  6
Continuous
 62
     7
370
    25
100
AcDbLine
 10
346.970403089
 20
706.0067973748
 30
0.0
 11
346.970403089
 21
715.0074065478
 31
0.0
  0
ELLIPSE
  5
316
330
1F
100
AcDbEntity
  8
0
  6
Continuous
 62
     7
370
    25
100
AcDbEllipse
 10
346.4700983168
 20
715.0067971891
 30
0.0
 11
-0.3539842722996127
 21
-0.353984272299499
 31
-7.105427357601002E-15
210
-1.003636024765140E-14
220
-1.003636024764818E-14
230
1.0
 40
0.998782766
 41
2.356803477778498
 42
3.926381829401537
  0
LINE
  5
317
330
1F
100
AcDbEntity
  8
0
  6
Continuous
 62
     7
370
    25
100
AcDbLine
 10
346.4707076755
 20
715.5071019613
 30
0.0
 11
340.0450985025
 21
715.5071019613
 31
0.0
  0
ELLIPSE
  5
318
330
1F
100
AcDbEntity
  8
0
  6
Continuous
 62
     7
370
    25
100
AcDbEllipse
 10
340.0457078611
 20
715.0067971891
 30
0.0
 11
-0.3539842722996127
 21
0.3539842722996127
 31
0.0
210
0.0
220
0.0
230
1.0
 40
0.998782766
 41
5.498396131367723
 42
7.067974482991122
  0
LINE
  5
319
330
1F
100
AcDbEntity
  8
0
  6
Continuous
 62
     7
370
    25
100
AcDbLine
 10
339.545403089
 20
706.0067973748
 30
0.0
 11
339.545403089
 21
715.0074065478
 31
0.0
  0
ELLIPSE
  5
31A
330
1F
100
AcDbEntity
  8
0
  6
Continuous
 62
     7
370
    25
100
AcDbEllipse
 10
340.0457078611
 20
706.0074067334
 30
0.0
 11
0.3539842722995558
 21
0.353984272299499
 31
7.105427357601000E-15
210
-1.003636024765140E-14
220
-1.003636024764979E-14
230
1.0
 40
0.998782766
 41
2.356803477778417
 42
3.926381829401571
  0
LINE
  5
31B
330
1F
100
AcDbEntity
  8
0
  6
Continuous
 62
     7
370
    25
100
AcDbLine
 10
346.4707076755
 20
705.5071019613
 30
0.0
 11
340.0450985025
 21
705.5071019613
 31
0.0
  0
ELLIPSE
  5
31C
330
1F
100
AcDbEntity
  8
0
  6
Continuous
 62
     7
370
    25
100
AcDbEllipse
 10
336.0450983168
 20
706.0074067334
 30
0.0
 11
0.3539842722996127
 21
-0.353984272299499
 31
0.0
210
0.0
220
0.0
230
1.0
 40
0.998782766
 41
5.49839613136779
 42
7.067974482990962
  0
LINE
  5
31D
330
1F
100
AcDbEntity
  8
0
  6
Continuous
 62
     7
370
    25
100
AcDbLine
 10
336.545403089
 20
706.0067973748
 30
0.0
 11
336.545403089
 21
715.0074065478
 31
0.0
  0
ELLIPSE
  5
31E
330
1F
100
AcDbEntity
  8
0
  6
Continuous
 62
     7
370
    25
100
AcDbEllipse
 10
336.0450983168
 20
715.0067971891
 30
0.0
 11
-0.3539842722995559
 21
-0.3539842722996127
 31
-7.105427357601002E-15
210
-1.003636024764818E-14
220
-1.003636024764979E-14
230
1.0
 40
0.998782766
 41
2.356803477777869
 42
3.926381829401571
  0
LINE
  5
31F
330
1F
100
AcDbEntity
  8
0
  6
Continuous
 62
     7
370
    25
100
AcDbLine
 10
336.0457076755
 20
715.5071019613
 30
0.0
 11
329.6200985025
 21
715.5071019613
 31
0.0
  0
ELLIPSE
  5
320
330
1F
100
AcDbEntity
  8
0
  6
Continuous
 62
     7
370
    25
100
AcDbEllipse
 10
329.6207078611
 20
715.0067971891
 30
0.0
 11
-0.3539842722996127
 21
0.3539842722996127
 31
0.0
210
0.0
220
0.0
230
1.0
 40
0.998782766
 41
5.498396131367756
 42
7.067974482991429
  0
LINE
  5
321
330
1F
100
AcDbEntity
  8
0
  6
Continuous
 62
     7
370
    25
100
AcDbLine
 10
329.120403089
 20
706.0067973748
 30
0.0
 11
329.120403089
 21
715.0074065478
 31
0.0
  0
ELLIPSE
  5
322
330
1F
100
AcDbEntity
  8
0
  6
Continuous
 62
     7
370
    25
100
AcDbEllipse
 10
329.6207078611
 20
706.0074067334
 30
0.0
 11
0.3539842722996696
 21
0.3539842722994991
 31
7.105427357601002E-15
210
-1.003636024765140E-14
220
-1.003636024764657E-14
230
1.0
 40
0.998782766
 41
2.356803477778231
 42
3.926381829402079
  0
LINE
  5
323
330
1F
100
AcDbEntity
  8
0
  6
Continuous
 62
     7
370
    25
100
AcDbLine
 10
336.0457076755
 20
705.5071019613
 30
0.0
 11
329.6200985025
 21
705.5071019613
 31
0.0
  0
ELLIPSE
  5
324
330
1F
100
AcDbEntity
  8
0
  6
Continuous
 62
     7
370
    25
100
AcDbEllipse
 10
325.6200983168
 20
706.0074067334
 30
0.0
 11
0.3539842722996127
 21
-0.353984272299499
 31
0.0
210
0.0
220
0.0
230
1.0
 40
0.998782766
 41
5.498396131367749
 42
7.06797448299123
  0
LINE
  5
325
330
1F
100
AcDbEntity
  8
0
  6
Continuous
 62
     7
370
    25
100
AcDbLine
 10
326.120403089
 20
706.0067973748
 30
0.0
 11
326.120403089
 21
715.0074065478
 31
0.0
  0
ELLIPSE
  5
326
330
1F
100
AcDbEntity
  8
0
  6
Continuous
 62
     7
370
    25
100
AcDbEllipse
 10
325.6200983168
 20
715.0067971891
 30
0.0
 11
-0.3539842722996695
 21
-0.3539842722996127
 31
-7.105427357601002E-15
210
-1.003636024764818E-14
220
-1.003636024764657E-14
230
1.0
 40
0.998782766
 41
2.356803477777989
 42
3.926381829401771
  0
LINE
  5
327
330
1F
100
AcDbEntity
  8
0
  6
Continuous
 62
     7
370
    25
100
AcDbLine
 10
325.6207076755
 20
715.5071019613
 30
0.0
 11
319.1950985025
 21
715.5071019613
 31
0.0
  0
ELLIPSE
  5
328
330
1F
100
AcDbEntity
  8
0
  6
Continuous
 62
     7
370
    25
100
AcDbEllipse
 10
319.1957078611
 20
715.0067971891
 30
0.0
 11
-0.3539842722996127
 21
0.353984272299499
 31
0.0
210
0.0
220
0.0
230
1.0
 40
0.998782766
 41
5.498396131367523
 42
7.06797448299123
  0
LINE
  5
329
330
1F
100
AcDbEntity
  8
0
  6
Continuous
 62
     7
370
    25
100
AcDbLine
 10
318.695403089
 20
706.0067973748
 30
0.0
 11
318.695403089
 21
715.0074065478
 31
0.0
  0
ELLIPSE
  5
32A
330
1F
100
AcDbEntity
  8
0
  6
Continuous
 62
     7
370
    25
100
AcDbEllipse
 10
319.1957078611
 20
706.0074067334
 30
0.0
 11
0.3539842722996695
 21
0.3539842722996127
 31
7.105427357601002E-15
210
-1.003636024764818E-14
220
-1.003636024764657E-14
230
1.0
 40
0.998782766
 41
2.356803477777989
 42
3.926381829401885
  0
LINE
  5
32B
330
1F
100
AcDbEntity
  8
0
  6
Continuous
 62
     7
370
    25
100
AcDbLine
 10
325.6207076755
 20
705.5071019613
 30
0.0
 11
319.1950985025
 21
705.5071019613
 31
0.0
  0
ELLIPSE
  5
32C
330
1F
100
AcDbEntity
  8
0
  6
Continuous
 62
     7
370
    25
100
AcDbEllipse
 10
315.1950983168
 20
706.0074067334
 30
0.0
 11
0.3539842722996127
 21
-0.3539842722996127
 31
0.0
210
0.0
220
0.0
230
1.0
 40
0.998782766
 41
5.498396131367943
 42
7.067974482991016
  0
LINE
  5
32D
330
1F
100
AcDbEntity
  8
0
  6
Continuous
 62
     7
370
    25
100
AcDbLine
 10
315.695403089
 20
706.0067973748
 30
0.0
 11
315.695403089
 21
715.0074065478
 31
0.0
  0
ELLIPSE
  5
32E
330
1F
100
AcDbEntity
  8
0
  6
Continuous
 62
     7
370
    25
100
AcDbEllipse
 10
315.1950983168
 20
715.0067971891
 30
0.0
 11
-0.3539842722996695
 21
-0.3539842722996127
 31
-7.105427357601002E-15
210
-1.003636024764818E-14
220
-1.003636024764657E-14
230
1.0
 40
0.998782766
 41
2.356803477777722
 42
3.926381829401811
  0
LINE
  5
32F
330
1F
100
AcDbEntity
  8
0
  6
Continuous
 62
     7
370
    25
100
AcDbLine
 10
315.1957076755
 20
715.5071019613
 30
0.0
 11
308.7700985025
 21
715.5071019613
 31
0.0
  0
ELLIPSE
  5
330
330
1F
100
AcDbEntity
  8
0
  6
Continuous
 62
     7
370
    25
100
AcDbEllipse
 10
308.7707078611
 20
715.0067971891
 30
0.0
 11
-0.3539842722996127
 21
0.353984272299499
 31
0.0
210
0.0
220
0.0
230
1.0
 40
0.998782766
 41
5.49839613136775
 42
7.06797448299123
  0
LINE
  5
331
330
1F
100
AcDbEntity
  8
0
  6
Continuous
 62
     7
370
    25
100
AcDbLine
 10
308.270403089
 20
706.0067973748
 30
0.0
 11
308.270403089
 21
715.0074065478
 31
0.0
  0
ELLIPSE
  5
332
330
1F
100
AcDbEntity
  8
0
  6
Continuous
 62
     7
370
    25
100
AcDbEllipse
 10
308.7707078611
 20
706.0074067334
 30
0.0
 11
0.3539842722996695
 21
0.3539842722996127
 31
7.105427357601002E-15
210
-1.003636024764818E-14
220
-1.003636024764657E-14
230
1.0
 40
0.998782766
 41
2.356803477777949
 42
3.926381829401925
  0
LINE
  5
333
330
1F
100
AcDbEntity
  8
0
  6
Continuous
 62
     7
370
    25
100
AcDbLine
 10
315.1957076755
 20
705.5071019613
 30
0.0
 11
308.7700985025
 21
705.5071019613
 31
0.0
  0
ELLIPSE
  5
334
330
1F
100
AcDbEntity
  8
0
  6
Continuous
 62
     7
370
    25
100
AcDbEllipse
 10
304.7700983168
 20
706.0074067334
 30
0.0
 11
0.3539842722996695
 21
-0.3539842722996127
 31
0.0
210
0.0
220
0.0
230
1.0
 40
0.998782766
 41
5.498396131367709
 42
7.067974482991429
  0
LINE
  5
335
330
1F
100
AcDbEntity
  8
0
  6
Continuous
 62
     7
370
    25
100
AcDbLine
 10
305.270403089
 20
706.0067973748
 30
0.0
 11
305.270403089
 21
715.0074065478
 31
0.0
  0
ELLIPSE
  5
336
330
1F
100
AcDbEntity
  8
0
  6
Continuous
 62
     7
370
    25
100
AcDbEllipse
 10
304.7700983168
 20
715.0067971891
 30
0.0
 11
-0.3539842722996127
 21
-0.3539842722996127
 31
-7.105427357601002E-15
210
-1.003636024764818E-14
220
-1.003636024764818E-14
230
1.0
 40
0.998782766
 41
2.356803477777909
 42
3.926381829401691
  0
LINE
  5
337
330
1F
100
AcDbEntity
  8
0
  6
Continuous
 62
     7
370
    25
100
AcDbLine
 10
304.7707076755
 20
715.5071019613
 30
0.0
 11
298.3450985025
 21
715.5071019613
 31
0.0
  0
ELLIPSE
  5
338
330
1F
100
AcDbEntity
  8
0
  6
Continuous
 62
     7
370
    25
100
AcDbEllipse
 10
298.3457078611
 20
715.0067971891
 30
0.0
 11
-0.3539842722996127
 21
0.3539842722996127
 31
0.0
210
0.0
220
0.0
230
1.0
 40
0.998782766
 41
5.498396131367716
 42
7.067974482991469
  0
LINE
  5
339
330
1F
100
AcDbEntity
  8
0
  6
Continuous
 62
     7
370
    25
100
AcDbLine
 10
297.845403089
 20
706.0067973748
 30
0.0
 11
297.845403089
 21
715.0074065478
 31
0.0
  0
ELLIPSE
  5
33A
330
1F
100
AcDbEntity
  8
0
  6
Continuous
 62
     7
370
    25
100
AcDbEllipse
 10
298.3457078611
 20
706.0074067334
 30
0.0
 11
0.3539842722996127
 21
0.353984272299499
 31
7.105427357601002E-15
210
-1.003636024765140E-14
220
-1.003636024764818E-14
230
1.0
 40
0.998782766
 41
2.35680347777815
 42
3.926381829401772
  0
LINE
  5
33B
330
1F
100
AcDbEntity
  8
0
  6
Continuous
 62
     7
370
    25
100
AcDbLine
 10
304.7707076755
 20
705.5071019613
 30
0.0
 11
298.3450985025
 21
705.5071019613
 31
0.0
  0
ELLIPSE
  5
33C
330
1F
100
AcDbEntity
  8
0
  6
Continuous
 62
     7
370
    25
100
AcDbEllipse
 10
294.3450983168
 20
706.0074067334
 30
0.0
 11
0.3539842722996127
 21
-0.3539842722996127
 31
0.0
210
0.0
220
0.0
230
1.0
 40
0.998782766
 41
5.498396131367869
 42
7.067974482991429
  0
LINE
  5
33D
330
1F
100
AcDbEntity
  8
0
  6
Continuous
 62
     7
370
    25
100
AcDbLine
 10
294.845403089
 20
706.0067973748
 30
0.0
 11
294.845403089
 21
715.0074065478
 31
0.0
  0
ELLIPSE
  5
33E
330
1F
100
AcDbEntity
  8
0
  6
Continuous
 62
     7
370
    25
100
AcDbEllipse
 10
294.3450983168
 20
715.0067971891
 30
0.0
 11
-0.3539842722996127
 21
-0.3539842722996127
 31
-7.105427357601002E-15
210
-1.003636024764818E-14
220
-1.003636024764818E-14
230
1.0
 40
0.998782766
 41
2.356803477777949
 42
3.926381829401651
  0
LINE
  5
33F
330
1F
100
AcDbEntity
  8
0
  6
Continuous
 62
     7
370
    25
100
AcDbLine
 10
294.3457076755
 20
715.5071019613
 30
0.0
 11
287.9200985025
 21
715.5071019613
 31
0.0
  0
ELLIPSE
  5
340
330
1F
100
AcDbEntity
  8
0
  6
Continuous
 62
     7
370
    25
100
AcDbEllipse
 10
287.9207078611
 20
715.0067971891
 30
0.0
 11
-0.3539842722996127
 21
0.3539842722996127
 31
0.0
210
0.0
220
0.0
230
1.0
 40
0.998782766
 41
5.49839613136783
 42
7.067974482991469
  0
LINE
  5
341
330
1F
100
AcDbEntity
  8
0
  6
Continuous
 62
     7
370
    25
100
AcDbLine
 10
287.420403089
 20
706.0067973748
 30
0.0
 11
287.420403089
 21
715.0074065478
 31
0.0
  0
ELLIPSE
  5
342
330
1F
100
AcDbEntity
  8
0
  6
Continuous
 62
     7
370
    25
100
AcDbEllipse
 10
287.9207078611
 20
706.0074067334
 30
0.0
 11
0.3539842722996127
 21
0.353984272299499
 31
7.105427357601002E-15
210
-1.003636024765140E-14
220
-1.003636024764818E-14
230
1.0
 40
0.998782766
 41
2.35680347777815
 42
3.926381829401772
  0
LINE
  5
343
330
1F
100
AcDbEntity
  8
0
  6
Continuous
 62
     7
370
    25
100
AcDbLine
 10
294.3457076755
 20
705.5071019613
 30
0.0
 11
287.9200985025
 21
705.5071019613
 31
0.0
  0
LINE
  5
344
330
1F
100
AcDbEntity
  8
0
  6
Continuous
 62
     7
370
    25
100
AcDbLine
 10
370.820403089
 20
762.0071019613
 30
0.0
 11
370.820403089
 21
702.5071019613
 31
0.0
  0
LINE
  5
345
330
1F
100
AcDbEntity
  8
0
  6
Continuous
 62
     7
370
    25
100
AcDbLine
 10
370.820403089
 20
702.5071019613
 30
0.0
 11
284.420403089
 21
702.5071019613
 31
0.0
  0
LINE
  5
346
330
1F
100
AcDbEntity
  8
0
  6
Continuous
 62
     7
370
    25
100
AcDbLine
 10
284.420403089
 20
762.0071019613
 30
0.0
 11
284.420403089
 21
702.5071019613
 31
0.0
  0
LINE
  5
347
330
1F
100
AcDbEntity
  8
0
  6
Continuous
 62
     7
370
    25
100
AcDbLine
 10
284.420403089
 20
762.0071019613
 30
0.0
 11
370.820403089
 21
762.0071019613
 31
0.0
  0
LINE
  5
348
330
1F
100
AcDbEntity
  8
0
  6
Continuous
 62
     7
370
    25
100
AcDbLine
 10
366.3118258469
 20
707.5153746168
 30
0.0
 11
367.820403089
 21
706.0067973748
 31
0.0
  0
LINE
  5
349
330
1F
100
AcDbEntity
  8
0
  6
Continuous
 62
     7
370
    25
100
AcDbLine
 10
367.3207076755
 20
705.5071019613
 30
0.0
 11
365.8121304334
 21
707.0156792033
 31
0.0
  0
ELLIPSE
  5
34A
330
1F
100
AcDbEntity
  8
0
  6
Continuous
 62
     7
370
    25
100
AcDbEllipse
 10
365.8115210748
 20
707.5159839755
 30
0.0
 11
-0.3539842722995559
 21
0.3539842722996127
 31
-2.280341058058900E-15
210
-3.220963806167096E-15
220
3.220963806167612E-15
230
1.0
 40
0.998782766
 41
2.356803477778378
 42
3.926381829401838
  0
LINE
  5
34B
330
1F
100
AcDbEntity
  8
0
  6
Continuous
 62
     7
370
    25
100
AcDbLine
 10
366.3118258469
 20
707.5153746168
 30
0.0
 11
366.3118258469
 21
713.4988293057
 31
0.0
  0
LINE
  5
34C
330
1F
100
AcDbEntity
  8
0
  6
Continuous
 62
     7
370
    25
100
AcDbLine
 10
367.820403089
 20
715.0074065478
 30
0.0
 11
366.3118258469
 21
713.4988293057
 31
0.0
  0
LINE
  5
34D
330
1F
100
AcDbEntity
  8
0
  6
Continuous
 62
     7
370
    25
100
AcDbLine
 10
362.4036757445
 20
707.0156792033
 30
0.0
 11
360.8950985025
 21
705.5071019613
 31
0.0
  0
LINE
  5
34E
330
1F
100
AcDbEntity
  8
0
  6
Continuous
 62
     7
370
    25
100
AcDbLine
 10
365.8121304334
 20
707.0156792033
 30
0.0
 11
362.4036757445
 21
707.0156792033
 31
0.0
  0
LINE
  5
34F
330
1F
100
AcDbEntity
  8
0
  6
Continuous
 62
     7
370
    25
100
AcDbLine
 10
345.4618258469
 20
707.5153746168
 30
0.0
 11
346.970403089
 21
706.0067973748
 31
0.0
  0
LINE
  5
350
330
1F
100
AcDbEntity
  8
0
  6
Continuous
 62
     7
370
    25
100
AcDbLine
 10
346.4707076755
 20
705.5071019613
 30
0.0
 11
344.9621304334
 21
707.0156792033
 31
0.0
  0
ELLIPSE
  5
351
330
1F
100
AcDbEntity
  8
0
  6
Continuous
 62
     7
370
    25
100
AcDbEllipse
 10
344.9615210748
 20
707.5159839755
 30
0.0
 11
-0.3539842722996696
 21
0.3539842722994991
 31
-1.716950770582125E-15
210
-2.425179457026056E-15
220
2.425179457024888E-15
230
1.0
 40
0.998782766
 41
2.356803477777822
 42
3.926381829401637
  0
LINE
  5
352
330
1F
100
AcDbEntity
  8
0
  6
Continuous
 62
     7
370
    25
100
AcDbLine
 10
341.5536757445
 20
707.0156792033
 30
0.0
 11
340.0450985025
 21
705.5071019613
 31
0.0
  0
LINE
  5
353
330
1F
100
AcDbEntity
  8
0
  6
Continuous
 62
     7
370
    25
100
AcDbLine
 10
344.9621304334
 20
707.0156792033
 30
0.0
 11
341.5536757445
 21
707.0156792033
 31
0.0
  0
ELLIPSE
  5
354
330
1F
100
AcDbEntity
  8
0
  6
Continuous
 62
     7
370
    25
100
AcDbEllipse
 10
365.8115210748
 20
713.4982199471
 30
0.0
 11
0.3539842722996127
 21
0.3539842722996127
 31
4.081971639776214E-15
210
-5.765752830285675E-15
220
-5.765752830285675E-15
230
1.0
 40
0.998782766
 41
5.498396131367716
 42
7.067974482991357
  0
LINE
  5
355
330
1F
100
AcDbEntity
  8
0
  6
Continuous
 62
     7
370
    25
100
AcDbLine
 10
365.8121304334
 20
713.9985247192
 30
0.0
 11
367.3207076755
 21
715.5071019613
 31
0.0
  0
LINE
  5
356
330
1F
100
AcDbEntity
  8
0
  6
Continuous
 62
     7
370
    25
100
AcDbLine
 10
360.8950985025
 20
715.5071019613
 30
0.0
 11
362.4036757445
 21
713.9985247192
 31
0.0
  0
LINE
  5
357
330
1F
100
AcDbEntity
  8
0
  6
Continuous
 62
     7
370
    25
100
AcDbLine
 10
365.8121304334
 20
713.9985247192
 30
0.0
 11
362.4036757445
 21
713.9985247192
 31
0.0
  0
LINE
  5
358
330
1F
100
AcDbEntity
  8
0
  6
Continuous
 62
     7
370
    25
100
AcDbLine
 10
341.053980331
 20
713.4988293057
 30
0.0
 11
339.545403089
 21
715.0074065478
 31
0.0
  0
LINE
  5
359
330
1F
100
AcDbEntity
  8
0
  6
Continuous
 62
     7
370
    25
100
AcDbLine
 10
341.053980331
 20
707.5153746168
 30
0.0
 11
341.053980331
 21
713.4988293057
 31
0.0
  0
LINE
  5
35A
330
1F
100
AcDbEntity
  8
0
  6
Continuous
 62
     7
370
    25
100
AcDbLine
 10
339.545403089
 20
706.0067973748
 30
0.0
 11
341.053980331
 21
707.5153746168
 31
0.0
  0
LINE
  5
35B
330
1F
100
AcDbEntity
  8
0
  6
Continuous
 62
     7
370
    25
100
AcDbLine
 10
360.395403089
 20
706.0067973748
 30
0.0
 11
361.903980331
 21
707.5153746168
 31
0.0
  0
ELLIPSE
  5
35C
330
1F
100
AcDbEntity
  8
0
  6
Continuous
 62
     7
370
    25
100
AcDbEllipse
 10
362.4042851032
 20
707.5159839755
 30
0.0
 11
-0.3539842722996695
 21
-0.3539842722996127
 31
-3.518581352299641E-15
210
-4.969968481144143E-15
220
-4.969968481143345E-15
230
1.0
 40
0.998782766
 41
5.498396131367529
 42
7.067974482991477
  0
LINE
  5
35D
330
1F
100
AcDbEntity
  8
0
  6
Continuous
 62
     7
370
    25
100
AcDbLine
 10
346.970403089
 20
715.0074065478
 30
0.0
 11
345.4618258469
 21
713.4988293057
 31
0.0
  0
ELLIPSE
  5
35E
330
1F
100
AcDbEntity
  8
0
  6
Continuous
 62
     7
370
    25
100
AcDbEllipse
 10
344.9615210748
 20
713.4982199471
 30
0.0
 11
0.3539842722996127
 21
0.353984272299499
 31
3.518581352299743E-15
210
-4.969968481145882E-15
220
-4.969968481144285E-15
230
1.0
 40
0.998782766
 41
5.498396131368037
 42
7.067974482991356
  0
LINE
  5
35F
330
1F
100
AcDbEntity
  8
0
  6
Continuous
 62
     7
370
    25
100
AcDbLine
 10
344.9621304334
 20
713.9985247192
 30
0.0
 11
346.4707076755
 21
715.5071019613
 31
0.0
  0
LINE
  5
360
330
1F
100
AcDbEntity
  8
0
  6
Continuous
 62
     7
370
    25
100
AcDbLine
 10
361.903980331
 20
713.4988293057
 30
0.0
 11
360.395403089
 21
715.0074065478
 31
0.0
  0
LINE
  5
361
330
1F
100
AcDbEntity
  8
0
  6
Continuous
 62
     7
370
    25
100
AcDbLine
 10
361.903980331
 20
707.5153746168
 30
0.0
 11
361.903980331
 21
713.4988293057
 31
0.0
  0
LINE
  5
362
330
1F
100
AcDbEntity
  8
0
  6
Continuous
 62
     7
370
    25
100
AcDbLine
 10
340.0450985025
 20
715.5071019613
 30
0.0
 11
341.5536757445
 21
713.9985247192
 31
0.0
  0
LINE
  5
363
330
1F
100
AcDbEntity
  8
0
  6
Continuous
 62
     7
370
    25
100
AcDbLine
 10
344.9621304334
 20
713.9985247192
 30
0.0
 11
341.5536757445
 21
713.9985247192
 31
0.0
  0
ELLIPSE
  5
364
330
1F
100
AcDbEntity
  8
0
  6
Continuous
 62
     7
370
    25
100
AcDbEllipse
 10
341.5542851032
 20
707.5159839755
 30
0.0
 11
-0.3539842722996127
 21
-0.3539842722996127
 31
-3.518581352299591E-15
210
-4.969968481144072E-15
220
-4.969968481144072E-15
230
1.0
 40
0.998782766
 41
5.498396131367489
 42
7.067974482991583
  0
LINE
  5
365
330
1F
100
AcDbEntity
  8
0
  6
Continuous
 62
     7
370
    25
100
AcDbLine
 10
356.8957076755
 20
705.5071019613
 30
0.0
 11
355.6515358208
 21
706.7512738159
 31
0.0
  0
ARC
  5
366
330
1F
100
AcDbEntity
  8
0
  6
Continuous
 62
     7
370
    25
100
AcDbCircle
 10
355.6508223412
 20
707.251682709
 30
0.0
 40
0.500409401733981
100
AcDbArc
 50
270.0816918764
 51
359.9183081236
  0
LINE
  5
367
330
1F
100
AcDbEntity
  8
0
  6
Continuous
 62
     7
370
    25
100
AcDbLine
 10
356.1512312343
 20
707.2509692294
 30
0.0
 11
357.395403089
 21
706.0067973748
 31
0.0
  0
LINE
  5
368
330
1F
100
AcDbEntity
  8
0
  6
Continuous
 62
     7
370
    25
100
AcDbLine
 10
356.1512312343
 20
713.7632346931
 30
0.0
 11
356.1512312343
 21
707.2509692294
 31
0.0
  0
LINE
  5
369
330
1F
100
AcDbEntity
  8
0
  6
Continuous
 62
     7
370
    25
100
AcDbLine
 10
357.395403089
 20
715.0074065478
 30
0.0
 11
356.1512312343
 21
713.7632346931
 31
0.0
  0
LINE
  5
36A
330
1F
100
AcDbEntity
  8
0
  6
Continuous
 62
     7
370
    25
100
AcDbLine
 10
351.7043303578
 20
706.7413338166
 30
0.0
 11
350.4700985025
 21
705.5071019613
 31
0.0
  0
ELLIPSE
  5
36B
330
1F
100
AcDbEntity
  8
0
  6
Continuous
 62
     7
370
    25
100
AcDbEllipse
 10
353.120403089
 20
707.016288562
 30
0.0
 11
8.0
 21
0.0
 31
0.0
210
0.0
220
0.0
230
1.0
 40
0.0349207695
 41
4.534442259851586
 42
5.034312226952026
  0
ELLIPSE
  5
36C
330
1F
100
AcDbEntity
  8
0
  6
Continuous
 62
     7
370
    25
100
AcDbEllipse
 10
341.5542851032
 20
713.4982199471
 30
0.0
 11
0.3539842722996695
 21
-0.3539842722996127
 31
1.716950770582327E-15
210
-2.425179457025562E-15
220
2.425179457025173E-15
230
1.0
 40
0.998782766
 41
2.356803477777755
 42
3.926381829401571
  0
ELLIPSE
  5
36D
330
1F
100
AcDbEntity
  8
0
  6
Continuous
 62
     7
370
    25
100
AcDbEllipse
 10
362.4042851032
 20
713.4982199471
 30
0.0
 11
0.3539842722996695
 21
-0.3539842722996127
 31
1.716950770582327E-15
210
-2.425179457025562E-15
220
2.425179457025173E-15
230
1.0
 40
0.998782766
 41
2.356803477777983
 42
3.926381829401571
  0
LINE
  5
36E
330
1F
100
AcDbEntity
  8
0
  6
Continuous
 62
     7
370
    25
100
AcDbLine
 10
336.545403089
 20
715.0074065478
 30
0.0
 11
335.0368258469
 21
713.4988293057
 31
0.0
  0
LINE
  5
36F
330
1F
100
AcDbEntity
  8
0
  6
Continuous
 62
     7
370
    25
100
AcDbLine
 10
335.0368258469
 20
707.5153746168
 30
0.0
 11
336.545403089
 21
706.0067973748
 31
0.0
  0
LINE
  5
370
330
1F
100
AcDbEntity
  8
0
  6
Continuous
 62
     7
370
    25
100
AcDbLine
 10
335.0368258469
 20
707.5153746168
 30
0.0
 11
335.0368258469
 21
713.4988293057
 31
0.0
  0
LINE
  5
371
330
1F
100
AcDbEntity
  8
0
  6
Continuous
 62
     7
370
    25
100
AcDbLine
 10
336.0457076755
 20
705.5071019613
 30
0.0
 11
334.5371304334
 21
707.0156792033
 31
0.0
  0
ELLIPSE
  5
372
330
1F
100
AcDbEntity
  8
0
  6
Continuous
 62
     7
370
    25
100
AcDbEllipse
 10
334.5365210748
 20
707.5159839755
 30
0.0
 11
-0.3539842722996127
 21
0.353984272299499
 31
-1.716950770582277E-15
210
-2.425179457026270E-15
220
2.425179457025491E-15
230
1.0
 40
0.998782766
 41
2.356803477777982
 42
3.926381829401637
  0
LINE
  5
373
330
1F
100
AcDbEntity
  8
0
  6
Continuous
 62
     7
370
    25
100
AcDbLine
 10
330.319693665
 20
706.2066971238
 30
0.0
 11
329.6200985025
 21
705.5071019613
 31
0.0
  0
LINE
  5
374
330
1F
100
AcDbEntity
  8
0
  6
Continuous
 62
     7
370
    25
100
AcDbLine
 10
330.8602243113
 20
706.2175950409
 30
0.0
 11
330.319693665
 21
706.2066971238
 31
0.0
  0
ELLIPSE
  5
375
330
1F
100
AcDbEntity
  8
0
  6
Continuous
 62
     7
370
    25
100
AcDbEllipse
 10
330.3602243113
 20
706.2478373144
 30
0.0
 11
1.0
 21
0.0
 31
0.0
210
0.0
220
0.0
230
1.0
 40
0.0349207695
 41
5.235987755980835
 42
6.248278722140829
  0
LINE
  5
376
330
1F
100
AcDbEntity
  8
0
  6
Continuous
 62
     7
370
    25
100
AcDbLine
 10
332.1286757445
 20
707.0156792033
 30
0.0
 11
331.3596151383
 21
706.2466185971
 31
0.0
  0
LINE
  5
377
330
1F
100
AcDbEntity
  8
0
  6
Continuous
 62
     7
370
    25
100
AcDbLine
 10
334.5371304334
 20
707.0156792033
 30
0.0
 11
332.1286757445
 21
707.0156792033
 31
0.0
  0
ARC
  5
378
330
1F
100
AcDbEntity
  8
0
  6
Continuous
 62
     7
370
    25
100
AcDbCircle
 10
355.6508223412
 20
713.7625212135
 30
0.0
 40
0.5004094017337529
100
AcDbArc
 50
0.0816918764
 51
89.9183081237
  0
LINE
  5
379
330
1F
100
AcDbEntity
  8
0
  6
Continuous
 62
     7
370
    25
100
AcDbLine
 10
355.6515358208
 20
714.2629301066
 30
0.0
 11
356.8957076755
 21
715.5071019613
 31
0.0
  0
LINE
  5
37A
330
1F
100
AcDbEntity
  8
0
  6
Continuous
 62
     7
370
    25
100
AcDbLine
 10
350.4700985025
 20
715.5071019613
 30
0.0
 11
351.7043303578
 21
714.272870106
 31
0.0
  0
ELLIPSE
  5
37B
330
1F
100
AcDbEntity
  8
0
  6
Continuous
 62
     7
370
    25
100
AcDbEllipse
 10
353.120403089
 20
713.9979153606
 30
0.0
 11
7.999999999999943
 21
0.0
 31
0.0
210
0.0
220
0.0
230
1.0
 40
0.0349207695
 41
1.248873080227774
 42
1.748743047328026
  0
ELLIPSE
  5
37C
330
1F
100
AcDbEntity
  8
0
  6
Continuous
 62
     7
370
    25
100
AcDbEllipse
 10
334.5365210748
 20
713.4982199471
 30
0.0
 11
0.3539842722996127
 21
0.353984272299499
 31
3.518581352299642E-15
210
-4.969968481145739E-15
220
-4.969968481144143E-15
230
1.0
 40
0.998782766
 41
5.498396131367957
 42
7.06797448299155
  0
LINE
  5
37D
330
1F
100
AcDbEntity
  8
0
  6
Continuous
 62
     7
370
    25
100
AcDbLine
 10
334.5371304334
 20
713.9985247192
 30
0.0
 11
336.0457076755
 21
715.5071019613
 31
0.0
  0
LINE
  5
37E
330
1F
100
AcDbEntity
  8
0
  6
Continuous
 62
     7
370
    25
100
AcDbLine
 10
349.970403089
 20
706.0067973748
 30
0.0
 11
351.2046349443
 21
707.2410292301
 31
0.0
  0
ARC
  5
37F
330
1F
100
AcDbEntity
  8
0
  6
Continuous
 62
     7
370
    25
100
AcDbCircle
 10
351.7050438373
 20
707.2417427096
 30
0.0
 40
0.5004094017337529
100
AcDbArc
 50
180.0816918764
 51
269.9183081237
  0
LINE
  5
380
330
1F
100
AcDbEntity
  8
0
  6
Continuous
 62
     7
370
    25
100
AcDbLine
 10
351.2046349443
 20
713.7731746925
 30
0.0
 11
349.970403089
 21
715.0074065478
 31
0.0
  0
LINE
  5
381
330
1F
100
AcDbEntity
  8
0
  6
Continuous
 62
     7
370
    25
100
AcDbLine
 10
351.2046349443
 20
707.2410292301
 30
0.0
 11
351.2046349443
 21
713.7731746925
 31
0.0
  0
LINE
  5
382
330
1F
100
AcDbEntity
  8
0
  6
Continuous
 62
     7
370
    25
100
AcDbLine
 10
331.3596151383
 20
714.7675853254
 30
0.0
 11
332.1286757445
 21
713.9985247192
 31
0.0
  0
ELLIPSE
  5
383
330
1F
100
AcDbEntity
  8
0
  6
Continuous
 62
     7
370
    25
100
AcDbEllipse
 10
330.3602243113
 20
714.7663666082
 30
0.0
 11
1.0
 21
0.0
 31
0.0
210
0.0
220
0.0
230
1.0
 40
0.0349207695
 41
0.034906585042299
 42
1.047197551197445
  0
LINE
  5
384
330
1F
100
AcDbEntity
  8
0
  6
Continuous
 62
     7
370
    25
100
AcDbLine
 10
330.319693665
 20
714.8075067988
 30
0.0
 11
330.8602243113
 21
714.7966088817
 31
0.0
  0
LINE
  5
385
330
1F
100
AcDbEntity
  8
0
  6
Continuous
 62
     7
370
    25
100
AcDbLine
 10
329.6200985025
 20
715.5071019613
 30
0.0
 11
330.319693665
 21
714.8075067988
 31
0.0
  0
LINE
  5
386
330
1F
100
AcDbEntity
  8
0
  6
Continuous
 62
     7
370
    25
100
AcDbLine
 10
334.5371304334
 20
713.9985247192
 30
0.0
 11
332.1286757445
 21
713.9985247192
 31
0.0
  0
ARC
  5
387
330
1F
100
AcDbEntity
  8
0
  6
Continuous
 62
     7
370
    25
100
AcDbCircle
 10
351.7050438373
 20
713.7724612129
 30
0.0
 40
0.5004094017339807
100
AcDbArc
 50
90.0816918764
 51
179.9183081236
  0
LINE
  5
388
330
1F
100
AcDbEntity
  8
0
  6
Continuous
 62
     7
370
    25
100
AcDbLine
 10
345.4618258469
 20
707.5153746168
 30
0.0
 11
345.4618258469
 21
713.4988293057
 31
0.0
  0
LINE
  5
389
330
1F
100
AcDbEntity
  8
0
  6
Continuous
 62
     7
370
    25
100
AcDbLine
 10
329.120403089
 20
706.0067973748
 30
0.0
 11
329.8199982515
 21
706.7063925373
 31
0.0
  0
ARC
  5
38A
330
1F
100
AcDbEntity
  8
0
  6
Continuous
 62
     7
370
    25
100
AcDbCircle
 10
330.3204071446
 20
706.7071060169
 30
0.0
 40
0.5004094017339806
100
AcDbArc
 50
180.0816918764
 51
269.9183081236
  0
LINE
  5
38B
330
1F
100
AcDbEntity
  8
0
  6
Continuous
 62
     7
370
    25
100
AcDbLine
 10
329.8199982515
 20
714.3078113852
 30
0.0
 11
329.120403089
 21
715.0074065478
 31
0.0
  0
LINE
  5
38C
330
1F
100
AcDbEntity
  8
0
  6
Continuous
 62
     7
370
    25
100
AcDbLine
 10
329.8199982515
 20
706.7063925373
 30
0.0
 11
329.8199982515
 21
714.3078113852
 31
0.0
  0
LINE
  5
38D
330
1F
100
AcDbEntity
  8
0
  6
Continuous
 62
     7
370
    25
100
AcDbLine
 10
326.120403089
 20
715.0074065478
 30
0.0
 11
325.4208079265
 21
714.3078113852
 31
0.0
  0
LINE
  5
38E
330
1F
100
AcDbEntity
  8
0
  6
Continuous
 62
     7
370
    25
100
AcDbLine
 10
325.4208079265
 20
706.7063925373
 30
0.0
 11
326.120403089
 21
706.0067973748
 31
0.0
  0
LINE
  5
38F
330
1F
100
AcDbEntity
  8
0
  6
Continuous
 62
     7
370
    25
100
AcDbLine
 10
325.4208079265
 20
714.3078113852
 30
0.0
 11
325.4208079265
 21
706.7063925373
 31
0.0
  0
LINE
  5
390
330
1F
100
AcDbEntity
  8
0
  6
Continuous
 62
     7
370
    25
100
AcDbLine
 10
325.6207076755
 20
705.5071019613
 30
0.0
 11
324.9211125129
 21
706.2066971238
 31
0.0
  0
ARC
  5
391
330
1F
100
AcDbEntity
  8
0
  6
Continuous
 62
     7
370
    25
100
AcDbCircle
 10
324.9203990334
 20
706.7071060169
 30
0.0
 40
0.5004094017338667
100
AcDbArc
 50
270.0816918764
 51
359.9183081236
  0
LINE
  5
392
330
1F
100
AcDbEntity
  8
0
  6
Continuous
 62
     7
370
    25
100
AcDbLine
 10
323.8811910396
 20
706.2466185971
 30
0.0
 11
323.1121304334
 21
707.0156792033
 31
0.0
  0
ELLIPSE
  5
393
330
1F
100
AcDbEntity
  8
0
  6
Continuous
 62
     7
370
    25
100
AcDbEllipse
 10
324.8805818667
 20
706.2478373144
 30
0.0
 11
1.0
 21
0.0
 31
0.0
210
0.0
220
0.0
230
1.0
 40
0.0349207695
 41
3.176499238632604
 42
4.188790204788651
  0
LINE
  5
394
330
1F
100
AcDbEntity
  8
0
  6
Continuous
 62
     7
370
    25
100
AcDbLine
 10
324.9211125129
 20
706.2066971238
 30
0.0
 11
324.3805818667
 21
706.2175950409
 31
0.0
  0
LINE
  5
395
330
1F
100
AcDbEntity
  8
0
  6
Continuous
 62
     7
370
    25
100
AcDbLine
 10
320.7036757445
 20
707.0156792033
 30
0.0
 11
319.1950985025
 21
705.5071019613
 31
0.0
  0
LINE
  5
396
330
1F
100
AcDbEntity
  8
0
  6
Continuous
 62
     7
370
    25
100
AcDbLine
 10
323.1121304334
 20
707.0156792033
 30
0.0
 11
320.7036757445
 21
707.0156792033
 31
0.0
  0
ARC
  5
397
330
1F
100
AcDbEntity
  8
0
  6
Continuous
 62
     7
370
    25
100
AcDbCircle
 10
330.3204071446
 20
714.3070979057
 30
0.0
 40
0.5004094017337529
100
AcDbArc
 50
90.0816918763
 51
179.9183081237
  0
ARC
  5
398
330
1F
100
AcDbEntity
  8
0
  6
Continuous
 62
     7
370
    25
100
AcDbCircle
 10
324.9203990334
 20
714.3070979057
 30
0.0
 40
0.5004094017338667
100
AcDbArc
 50
0.0816918764
 51
89.9183081236
  0
LINE
  5
399
330
1F
100
AcDbEntity
  8
0
  6
Continuous
 62
     7
370
    25
100
AcDbLine
 10
324.9211125129
 20
714.8075067988
 30
0.0
 11
325.6207076755
 21
715.5071019613
 31
0.0
  0
LINE
  5
39A
330
1F
100
AcDbEntity
  8
0
  6
Continuous
 62
     7
370
    25
100
AcDbLine
 10
324.3805818667
 20
714.7966088817
 30
0.0
 11
324.9211125129
 21
714.8075067988
 31
0.0
  0
ELLIPSE
  5
39B
330
1F
100
AcDbEntity
  8
0
  6
Continuous
 62
     7
370
    25
100
AcDbEllipse
 10
324.8805818667
 20
714.7663666082
 30
0.0
 11
1.0
 21
0.0
 31
0.0
210
0.0
220
0.0
230
1.0
 40
0.0349207695
 41
2.094395102392228
 42
3.106686068544357
  0
LINE
  5
39C
330
1F
100
AcDbEntity
  8
0
  6
Continuous
 62
     7
370
    25
100
AcDbLine
 10
323.1121304334
 20
713.9985247192
 30
0.0
 11
323.8811910396
 21
714.7675853254
 31
0.0
  0
LINE
  5
39D
330
1F
100
AcDbEntity
  8
0
  6
Continuous
 62
     7
370
    25
100
AcDbLine
 10
323.1121304334
 20
713.9985247192
 30
0.0
 11
320.7036757445
 21
713.9985247192
 31
0.0
  0
LINE
  5
39E
330
1F
100
AcDbEntity
  8
0
  6
Continuous
 62
     7
370
    25
100
AcDbLine
 10
319.1950985025
 20
715.5071019613
 30
0.0
 11
320.7036757445
 21
713.9985247192
 31
0.0
  0
LINE
  5
39F
330
1F
100
AcDbEntity
  8
0
  6
Continuous
 62
     7
370
    25
100
AcDbLine
 10
318.695403089
 20
706.0067973748
 30
0.0
 11
320.203980331
 21
707.5153746168
 31
0.0
  0
ELLIPSE
  5
3A0
330
1F
100
AcDbEntity
  8
0
  6
Continuous
 62
     7
370
    25
100
AcDbEllipse
 10
320.7042851032
 20
707.5159839755
 30
0.0
 11
-0.3539842722996127
 21
-0.3539842722996127
 31
-3.518581352299591E-15
210
-4.969968481144072E-15
220
-4.969968481144072E-15
230
1.0
 40
0.998782766
 41
5.498396131367529
 42
7.067974482991429
  0
LINE
  5
3A1
330
1F
100
AcDbEntity
  8
0
  6
Continuous
 62
     7
370
    25
100
AcDbLine
 10
320.203980331
 20
713.4988293057
 30
0.0
 11
318.695403089
 21
715.0074065478
 31
0.0
  0
LINE
  5
3A2
330
1F
100
AcDbEntity
  8
0
  6
Continuous
 62
     7
370
    25
100
AcDbLine
 10
320.203980331
 20
707.5153746168
 30
0.0
 11
320.203980331
 21
713.4988293057
 31
0.0
  0
ELLIPSE
  5
3A3
330
1F
100
AcDbEntity
  8
0
  6
Continuous
 62
     7
370
    25
100
AcDbEllipse
 10
320.7042851032
 20
713.4982199471
 30
0.0
 11
0.3539842722996696
 21
-0.3539842722994991
 31
1.716950770582327E-15
210
-2.425179457026341E-15
220
2.425179457025173E-15
230
1.0
 40
0.998782766
 41
2.356803477777595
 42
3.926381829401183
  0
LINE
  5
3A4
330
1F
100
AcDbEntity
  8
0
  6
Continuous
 62
     7
370
    25
100
AcDbLine
 10
315.1957076755
 20
705.5071019613
 30
0.0
 11
314.4566083823
 21
706.2462012545
 31
0.0
  0
SPLINE
  5
3A5
330
1F
100
AcDbEntity
  8
0
  6
Continuous
 62
     7
370
    25
100
AcDbSpline
210
0.0
220
0.0
230
1.0
 70
     8
 71
     3
 72
    12
 73
     8
 74
     0
 42
0.000000001
 43
0.00000001
 40
0.0
 40
0.0
 40
0.0
 40
0.0
 40
0.0166485021002234
 40
0.0392172228571702
 40
0.093957209357916
 40
0.2967369587171929
 40
1.0
 40
1.0
 40
1.0
 40
1.0
 10
314.8952692923503
 20
706.8069311714128
 30
0.0
 10
314.8950972759848
 20
706.7961363363637
 30
0.0
 10
314.8946920741173
 20
706.770708015589
 30
0.0
 10
314.8900921284657
 20
706.7184685438605
 30
0.0
 10
314.8698307507325
 20
706.6064532140314
 30
0.0
 10
314.7757876664643
 20
706.3758213281419
 30
0.0
 10
314.59608901402
 20
706.302844936124
 30
0.0
 10
314.4566083822687
 20
706.2462012544762
 30
0.0
  0
LINE
  5
3A6
330
1F
100
AcDbEntity
  8
0
  6
Continuous
 62
     7
370
    25
100
AcDbLine
 10
314.8952692924
 20
706.8069311714
 30
0.0
 11
315.695403089
 21
706.0067973748
 31
0.0
  0
LINE
  5
3A7
330
1F
100
AcDbEntity
  8
0
  6
Continuous
 62
     7
370
    25
100
AcDbLine
 10
314.8952692924
 20
714.2072727511
 30
0.0
 11
314.8952692924
 21
706.8069311714
 31
0.0
  0
LINE
  5
3A8
330
1F
100
AcDbEntity
  8
0
  6
Continuous
 62
     7
370
    25
100
AcDbLine
 10
315.695403089
 20
715.0074065478
 30
0.0
 11
314.8952692924
 21
714.2072727511
 31
0.0
  0
LINE
  5
3A9
330
1F
100
AcDbEntity
  8
0
  6
Continuous
 62
     7
370
    25
100
AcDbLine
 10
309.340512085
 20
706.0775155438
 30
0.0
 11
308.7700985025
 21
705.5071019613
 31
0.0
  0
ELLIPSE
  5
3AA
330
1F
100
AcDbEntity
  8
0
  6
Continuous
 62
     7
370
    25
100
AcDbEllipse
 10
306.9659581585
 20
706.3442916959
 30
0.0
 11
8.0
 21
1.136868377216160E-13
 31
0.0
210
0.0
220
0.0
230
1.0
 40
0.0349207695
 41
5.013749032967865
 42
5.924420618889554
  0
SPLINE
  5
3AB
330
1F
100
AcDbEntity
  8
0
  6
Continuous
 62
     7
370
    25
100
AcDbSpline
210
0.0
220
0.0
230
1.0
 70
     8
 71
     3
 72
    16
 73
    12
 74
     0
 42
0.000000001
 43
0.00000001
 40
0.0
 40
0.0
 40
0.0
 40
0.0
 40
0.519213111937063
 40
0.6745623759465635
 40
0.7811251083013517
 40
0.8540068930349657
 40
0.9041526090756912
 40
0.9566283981206705
 40
0.9775073495949078
 40
0.994157171939267
 40
1.0
 40
1.0
 40
1.0
 40
1.0
 10
314.4566083822687
 20
714.7680026680779
 30
0.0
 10
314.5637772724932
 20
714.7326723019308
 30
0.0
 10
314.7030112393468
 20
714.6867710425382
 30
0.0
 10
314.8052448096679
 20
714.5416090741774
 30
0.0
 10
314.842983898419
 20
714.4674628887421
 30
0.0
 10
314.8653055403644
 20
714.4062513116498
 30
0.0
 10
314.8802510629308
 20
714.3500678647924
 30
0.0
 10
314.8893267770221
 20
714.3007235973645
 30
0.0
 10
314.8939203386693
 20
714.252835162602
 30
0.0
 10
314.8951672378026
 20
714.2256409975092
 30
0.0
 10
314.8952482485138
 20
714.2110603175106
 30
0.0
 10
314.8952692923503
 20
714.2072727511409
 30
0.0
  0
LINE
  5
3AC
330
1F
100
AcDbEntity
  8
0
  6
Continuous
 62
     7
370
    25
100
AcDbLine
 10
314.4566083823
 20
714.7680026681
 30
0.0
 11
315.1957076755
 21
715.5071019613
 31
0.0
  0
LINE
  5
3AD
330
1F
100
AcDbEntity
  8
0
  6
Continuous
 62
     7
370
    25
100
AcDbLine
 10
308.7700985025
 20
715.5071019613
 30
0.0
 11
309.340512085
 21
714.9366883788
 31
0.0
  0
ELLIPSE
  5
3AE
330
1F
100
AcDbEntity
  8
0
  6
Continuous
 62
     7
370
    25
100
AcDbEllipse
 10
306.9659581585
 20
714.6699122267
 30
0.0
 11
8.0
 21
0.0
 31
0.0
210
0.0
220
0.0
230
1.0
 40
0.0349207695
 41
0.3587646882934521
 42
1.269436274212452
  0
LINE
  5
3AF
330
1F
100
AcDbEntity
  8
0
  6
Continuous
 62
     7
370
    25
100
AcDbLine
 10
308.270403089
 20
706.0067973748
 30
0.0
 11
308.8359660893
 21
706.5723603751
 31
0.0
  0
SPLINE
  5
3B0
330
1F
100
AcDbEntity
  8
0
  6
Continuous
 62
     7
370
    25
100
AcDbSpline
210
0.0
220
0.0
230
1.0
 70
     8
 71
     3
 72
    12
 73
     8
 74
     0
 42
0.000000001
 43
0.00000001
 40
0.0
 40
0.0
 40
0.0
 40
0.0
 40
0.2271668674675065
 40
0.4546862848077003
 40
0.6730289025662
 40
0.8815433919247687
 40
1.0
 40
1.0
 40
1.0
 40
1.0
 10
309.3405120849631
 20
706.0775155437528
 30
0.0
 10
309.2823383081573
 20
706.0826271392847
 30
0.0
 10
309.1659004722003
 20
706.0928582632497
 30
0.0
 10
309.0102505928275
 20
706.1828693667244
 30
0.0
 10
308.8969237268759
 20
706.3153141198337
 30
0.0
 10
308.8427542600317
 20
706.4537189365158
 30
0.0
 10
308.8377713288077
 20
706.5408089870672
 30
0.0
 10
308.8359660893365
 20
706.5723603751453
 30
0.0
  0
LINE
  5
3B1
330
1F
100
AcDbEntity
  8
0
  6
Continuous
 62
     7
370
    25
100
AcDbLine
 10
308.8359660893
 20
714.4418435474
 30
0.0
 11
308.270403089
 21
715.0074065478
 31
0.0
  0
LINE
  5
3B2
330
1F
100
AcDbEntity
  8
0
  6
Continuous
 62
     7
370
    25
100
AcDbLine
 10
308.8359660893
 20
706.5723603751
 30
0.0
 11
308.8359660893
 21
714.4418435474
 31
0.0
  0
LINE
  5
3B3
330
1F
100
AcDbEntity
  8
0
  6
Continuous
 62
     7
370
    25
100
AcDbLine
 10
304.7707076755
 20
705.5071019613
 30
0.0
 11
304.1955985076
 21
706.0822111291
 31
0.0
  0
SPLINE
  5
3B4
330
1F
100
AcDbEntity
  8
0
  6
Continuous
 62
     7
370
    25
100
AcDbSpline
210
0.0
220
0.0
230
1.0
 70
     8
 71
     3
 72
    12
 73
     8
 74
     0
 42
0.000000001
 43
0.00000001
 40
0.0
 40
0.0
 40
0.0
 40
0.0
 40
0.1985524677628101
 40
0.3970309579424086
 40
0.5979425553319443
 40
0.8077122078792822
 40
1.0
 40
1.0
 40
1.0
 40
1.0
 10
304.7011506747204
 20
706.5760497890434
 30
0.0
 10
304.6960644647787
 20
706.5224781234682
 30
0.0
 10
304.6858939399386
 20
706.4153547522931
 30
0.0
 10
304.6066766300445
 20
706.272219336821
 30
0.0
 10
304.4895798213659
 20
706.1614622915989
 30
0.0
 10
304.3462246581875
 20
706.0927098846688
 30
0.0
 10
304.2443304030655
 20
706.0856077787303
 30
0.0
 10
304.1955985076435
 20
706.0822111291012
 30
0.0
  0
LINE
  5
3B5
330
1F
100
AcDbEntity
  8
0
  6
Continuous
 62
     7
370
    25
100
AcDbLine
 10
304.7011506747
 20
706.576049789
 30
0.0
 11
305.270403089
 21
706.0067973748
 31
0.0
  0
LINE
  5
3B6
330
1F
100
AcDbEntity
  8
0
  6
Continuous
 62
     7
370
    25
100
AcDbLine
 10
304.7011506747
 20
714.4381541335
 30
0.0
 11
304.7011506747
 21
706.576049789
 31
0.0
  0
LINE
  5
3B7
330
1F
100
AcDbEntity
  8
0
  6
Continuous
 62
     7
370
    25
100
AcDbLine
 10
305.270403089
 20
715.0074065478
 30
0.0
 11
304.7011506747
 21
714.4381541335
 31
0.0
  0
LINE
  5
3B8
330
1F
100
AcDbEntity
  8
0
  6
Continuous
 62
     7
370
    25
100
AcDbLine
 10
299.1265870333
 20
706.2885904921
 30
0.0
 11
298.3450985025
 21
705.5071019613
 31
0.0
  0
ELLIPSE
  5
3B9
330
1F
100
AcDbEntity
  8
0
  6
Continuous
 62
     7
370
    25
100
AcDbEllipse
 10
306.9659581585
 20
706.3442916959
 30
0.0
 11
8.0
 21
1.136868377216160E-13
 31
0.0
210
0.0
220
0.0
230
1.0
 40
0.0349207695
 41
3.342322139246404
 42
4.358770180813544
  0
SPLINE
  5
3BA
330
1F
100
AcDbEntity
  8
0
  6
Continuous
 62
     7
370
    25
100
AcDbSpline
210
0.0
220
0.0
230
1.0
 70
     8
 71
     3
 72
    12
 73
     8
 74
     0
 42
0.000000001
 43
0.00000001
 40
0.0
 40
0.0
 40
0.0
 40
0.0
 40
0.2029472485145266
 40
0.4058521051810339
 40
0.6102884520363995
 40
0.8209755282316092
 40
1.0
 40
1.0
 40
1.0
 40
1.0
 10
308.8359660893364
 20
714.4418435474084
 30
0.0
 10
308.8411709321178
 20
714.4961172348833
 30
0.0
 10
308.8515795304872
 20
714.6046532730845
 30
0.0
 10
308.9327460596846
 20
714.7495397925671
 30
0.0
 10
309.0525150936132
 20
714.8607201954167
 30
0.0
 10
309.195235519961
 20
714.9268868718032
 30
0.0
 10
309.2947825032107
 20
714.9336030992476
 30
0.0
 10
309.340512084963
 20
714.9366883788009
 30
0.0
  0
SPLINE
  5
3BB
330
1F
100
AcDbEntity
  8
0
  6
Continuous
 62
     7
370
    25
100
AcDbSpline
210
0.0
220
0.0
230
1.0
 70
     8
 71
     3
 72
    12
 73
     8
 74
     0
 42
0.000000001
 43
0.00000001
 40
0.0
 40
0.0
 40
0.0
 40
0.0
 40
0.2326316956344813
 40
0.4657378175707471
 40
0.6861543040649278
 40
0.8927846519526998
 40
1.0
 40
1.0
 40
1.0
 40
1.0
 10
304.1955985076435
 20
714.9319927934527
 30
0.0
 10
304.2546726868726
 20
714.9268730577487
 30
0.0
 10
304.3729415205065
 20
714.9166231452131
 30
0.0
 10
304.5308188023881
 20
714.8242579315884
 30
0.0
 10
304.6439715097328
 20
714.6887465153267
 30
0.0
 10
304.6952037609939
 20
714.5512598139411
 30
0.0
 10
304.6996364039653
 20
714.466954387219
 30
0.0
 10
304.7011506747203
 20
714.4381541335104
 30
0.0
  0
LINE
  5
3BC
330
1F
100
AcDbEntity
  8
0
  6
Continuous
 62
     7
370
    25
100
AcDbLine
 10
304.1955985076
 20
714.9319927935
 30
0.0
 11
304.7707076755
 21
715.5071019613
 31
0.0
  0
LINE
  5
3BD
330
1F
100
AcDbEntity
  8
0
  6
Continuous
 62
     7
370
    25
100
AcDbLine
 10
297.845403089
 20
706.0067973748
 30
0.0
 11
299.353980331
 21
707.5153746168
 31
0.0
  0
ELLIPSE
  5
3BE
330
1F
100
AcDbEntity
  8
0
  6
Continuous
 62
     7
370
    25
100
AcDbEllipse
 10
299.8542851032
 20
707.5159839755
 30
0.0
 11
-0.3539842722996696
 21
-0.3539842722994991
 31
-3.518581352299607E-15
210
-4.969968481145690E-15
220
-4.969968481143296E-15
230
1.0
 40
0.998782766
 41
5.49839613136777
 42
7.067974482991557
  0
LINE
  5
3BF
330
1F
100
AcDbEntity
  8
0
  6
Continuous
 62
     7
370
    25
100
AcDbLine
 10
299.8536757445
 20
707.0156792033
 30
0.0
 11
299.2569500695
 21
706.4189535283
 31
0.0
  0
SPLINE
  5
3C0
330
1F
100
AcDbEntity
  8
0
  6
Continuous
 62
     7
370
    25
100
AcDbSpline
210
0.0
220
0.0
230
1.0
 70
     8
 71
     3
 72
    13
 73
     9
 74
     0
 42
0.000000001
 43
0.00000001
 40
0.0
 40
0.0
 40
0.0
 40
0.0
 40
0.1326150521580672
 40
0.2658305748891917
 40
0.445665995503375
 40
0.6270064596723811
 40
0.812785865748559
 40
1.0
 40
1.0
 40
1.0
 40
1.0
 10
299.1265870333006
 20
706.28859049209
 30
0.0
 10
299.0963186270894
 20
706.2968810365965
 30
0.0
 10
299.0356447616937
 20
706.3134996645459
 30
0.0
 10
298.9779090917652
 20
706.3597208090257
 30
0.0
 10
298.9562949994333
 20
706.4018268295869
 30
0.0
 10
298.9930110032443
 20
706.4203369617848
 30
0.0
 10
299.0859056931422
 20
706.4101673680323
 30
0.0
 10
299.1997892588317
 20
706.4160173075918
 30
0.0
 10
299.2569500695453
 20
706.4189535283347
 30
0.0
  0
LINE
  5
3C1
330
1F
100
AcDbEntity
  8
0
  6
Continuous
 62
     7
370
    25
100
AcDbLine
 10
298.3450985025
 20
715.5071019613
 30
0.0
 11
299.1265870333
 21
714.7256134305
 31
0.0
  0
ELLIPSE
  5
3C2
330
1F
100
AcDbEntity
  8
0
  6
Continuous
 62
     7
370
    25
100
AcDbEllipse
 10
306.9659581585
 20
714.6699122267
 30
0.0
 11
8.0
 21
0.0
 31
0.0
210
0.0
220
0.0
230
1.0
 40
0.0349207695
 41
1.924415126365056
 42
2.940863167931588
  0
LINE
  5
3C3
330
1F
100
AcDbEntity
  8
0
  6
Continuous
 62
     7
370
    25
100
AcDbLine
 10
299.353980331
 20
713.4988293057
 30
0.0
 11
297.845403089
 21
715.0074065478
 31
0.0
  0
LINE
  5
3C4
330
1F
100
AcDbEntity
  8
0
  6
Continuous
 62
     7
370
    25
100
AcDbLine
 10
299.353980331
 20
707.5153746168
 30
0.0
 11
299.353980331
 21
713.4988293057
 31
0.0
  0
LINE
  5
3C5
330
1F
100
AcDbEntity
  8
0
  6
Continuous
 62
     7
370
    25
100
AcDbLine
 10
294.3457076755
 20
705.5071019613
 30
0.0
 11
292.8371304334
 21
707.0156792033
 31
0.0
  0
ELLIPSE
  5
3C6
330
1F
100
AcDbEntity
  8
0
  6
Continuous
 62
     7
370
    25
100
AcDbEllipse
 10
292.8365210748
 20
707.5159839755
 30
0.0
 11
0.3539842722996127
 21
-0.3539842722996127
 31
1.716950770582125E-15
210
-4.545293520413422E-16
220
4.395829562009213E-15
230
1.0
 40
0.998782766
 41
5.498396131367829
 42
7.067974482991697
  0
LINE
  5
3C7
330
1F
100
AcDbEntity
  8
0
  6
Continuous
 62
     7
370
    25
100
AcDbLine
 10
293.3368258469
 20
707.5153746168
 30
0.0
 11
294.845403089
 21
706.0067973748
 31
0.0
  0
LINE
  5
3C8
330
1F
100
AcDbEntity
  8
0
  6
Continuous
 62
     7
370
    25
100
AcDbLine
 10
293.3368258469
 20
707.5153746168
 30
0.0
 11
293.3368258469
 21
713.4988293057
 31
0.0
  0
LINE
  5
3C9
330
1F
100
AcDbEntity
  8
0
  6
Continuous
 62
     7
370
    25
100
AcDbLine
 10
294.845403089
 20
715.0074065478
 30
0.0
 11
293.3368258469
 21
713.4988293057
 31
0.0
  0
LINE
  5
3CA
330
1F
100
AcDbEntity
  8
0
  6
Continuous
 62
     7
370
    25
100
AcDbLine
 10
289.4286757445
 20
707.0156792033
 30
0.0
 11
287.9200985025
 21
705.5071019613
 31
0.0
  0
LINE
  5
3CB
330
1F
100
AcDbEntity
  8
0
  6
Continuous
 62
     7
370
    25
100
AcDbLine
 10
292.8371304334
 20
707.0156792033
 30
0.0
 11
289.4286757445
 21
707.0156792033
 31
0.0
  0
ELLIPSE
  5
3CC
330
1F
100
AcDbEntity
  8
0
  6
Continuous
 62
     7
370
    25
100
AcDbEllipse
 10
299.8542851032
 20
713.4982199471
 30
0.0
 11
0.3539842722996127
 21
-0.3539842722996127
 31
1.716950770582277E-15
210
-2.425179457025491E-15
220
2.425179457025491E-15
230
1.0
 40
0.998782766
 41
2.356803477778177
 42
3.926381829401651
  0
SPLINE
  5
3CD
330
1F
100
AcDbEntity
  8
0
  6
Continuous
 62
     7
370
    25
100
AcDbSpline
210
0.0
220
0.0
230
1.0
 70
     8
 71
     3
 72
    13
 73
     9
 74
     0
 42
0.000000001
 43
0.00000001
 40
0.0
 40
0.0
 40
0.0
 40
0.0
 40
0.1326141516181659
 40
0.2658275725764613
 40
0.4456647287976706
 40
0.627017556249279
 40
0.8127969035462488
 40
1.0
 40
1.0
 40
1.0
 40
1.0
 10
299.2569500695453
 20
714.5952503942187
 30
0.0
 10
299.2152792977348
 20
714.5983193270896
 30
0.0
 10
299.1317494482988
 20
714.6044710610146
 30
0.0
 10
299.0351164339735
 20
714.5968658295103
 30
0.0
 10
298.9703756248094
 20
714.5981086878404
 30
0.0
 10
298.9594297638373
 20
714.627840883954
 30
0.0
 10
299.0038503288034
 20
714.6863573553525
 30
0.0
 10
299.0855708172768
 20
714.7124948147764
 30
0.0
 10
299.1265870333006
 20
714.7256134304636
 30
0.0
  0
LINE
  5
3CE
330
1F
100
AcDbEntity
  8
0
  6
Continuous
 62
     7
370
    25
100
AcDbLine
 10
299.2569500695
 20
714.5952503942
 30
0.0
 11
299.8536757445
 21
713.9985247192
 31
0.0
  0
ELLIPSE
  5
3CF
330
1F
100
AcDbEntity
  8
0
  6
Continuous
 62
     7
370
    25
100
AcDbEllipse
 10
292.8365210748
 20
713.4982199471
 30
0.0
 11
-0.3539842722996127
 21
-0.3539842722996127
 31
-3.518581352299541E-15
210
-1.533940266833506E-14
220
5.399465706047058E-15
230
1.0
 40
0.998782766
 41
2.356803477778029
 42
3.926381829401343
  0
LINE
  5
3D0
330
1F
100
AcDbEntity
  8
0
  6
Continuous
 62
     7
370
    25
100
AcDbLine
 10
292.8371304334
 20
713.9985247192
 30
0.0
 11
294.3457076755
 21
715.5071019613
 31
0.0
  0
LINE
  5
3D1
330
1F
100
AcDbEntity
  8
0
  6
Continuous
 62
     7
370
    25
100
AcDbLine
 10
287.9200985025
 20
715.5071019613
 30
0.0
 11
289.4286757445
 21
713.9985247192
 31
0.0
  0
LINE
  5
3D2
330
1F
100
AcDbEntity
  8
0
  6
Continuous
 62
     7
370
    25
100
AcDbLine
 10
292.8371304334
 20
713.9985247192
 30
0.0
 11
289.4286757445
 21
713.9985247192
 31
0.0
  0
LINE
  5
3D3
330
1F
100
AcDbEntity
  8
0
  6
Continuous
 62
     7
370
    25
100
AcDbLine
 10
287.420403089
 20
706.0067973748
 30
0.0
 11
288.928980331
 21
707.5153746168
 31
0.0
  0
ELLIPSE
  5
3D4
330
1F
100
AcDbEntity
  8
0
  6
Continuous
 62
     7
370
    25
100
AcDbEllipse
 10
289.4292851032
 20
707.5159839755
 30
0.0
 11
-0.3539842722996695
 21
-0.3539842722996127
 31
-2.955191064823170E-15
210
-4.174184132002753E-15
220
-4.174184132002083E-15
230
1.0
 40
0.998782766
 41
5.498396131367529
 42
7.067974482991591
  0
LINE
  5
3D5
330
1F
100
AcDbEntity
  8
0
  6
Continuous
 62
     7
370
    25
100
AcDbLine
 10
288.928980331
 20
713.4988293057
 30
0.0
 11
287.420403089
 21
715.0074065478
 31
0.0
  0
LINE
  5
3D6
330
1F
100
AcDbEntity
  8
0
  6
Continuous
 62
     7
370
    25
100
AcDbLine
 10
288.928980331
 20
707.5153746168
 30
0.0
 11
288.928980331
 21
713.4988293057
 31
0.0
  0
ELLIPSE
  5
3D7
330
1F
100
AcDbEntity
  8
0
  6
Continuous
 62
     7
370
    25
100
AcDbEllipse
 10
289.4292851032
 20
713.4982199471
 30
0.0
 11
0.3539842722996695
 21
-0.3539842722996127
 31
1.153560483105653E-15
210
-1.629395107883887E-15
220
1.629395107883626E-15
230
1.0
 40
0.998782766
 41
2.356803477777869
 42
3.926381829401571
  0
SPLINE
  5
3D8
330
1F
100
AcDbEntity
  8
0
  6
Continuous
 62
     7
370
    25
100
AcDbSpline
210
0.0
220
0.0
230
1.0
 70
     8
 71
     3
 72
    13
 73
     9
 74
     0
 42
0.000000001
 43
0.00000001
 40
0.0
 40
0.0
 40
0.0
 40
0.0
 40
0.0159755654020141
 40
0.0365423415771249
 40
0.0742428330011016
 40
0.2063955448683764
 40
0.7838140928000934
 40
1.0
 40
1.0
 40
1.0
 40
1.0
 10
314.8019322794611
 20
714.1139357382518
 30
0.0
 10
314.801698344325
 20
714.124164551566
 30
0.0
 10
314.8011632435361
 20
714.1475618323918
 30
0.0
 10
314.7958125689237
 20
714.1885667838557
 30
0.0
 10
314.7763927038782
 20
714.2671025672271
 30
0.0
 10
314.6758175044919
 20
714.4437692079637
 30
0.0
 10
314.5008976134888
 20
714.549282385704
 30
0.0
 10
314.2977571257886
 20
714.5528437338662
 30
0.0
 10
314.2424195954376
 20
714.5538138812466
 30
0.0
  0
ELLIPSE
  5
3D9
330
1F
100
AcDbEntity
  8
0
  6
Continuous
 62
     7
370
    25
100
AcDbEllipse
 10
306.9659581585
 20
714.6699122267
 30
0.0
 11
8.0
 21
0.0
 31
0.0
210
0.0
220
0.0
230
1.0
 40
0.0349207695
 41
5.504758501256339
 42
5.854607448808157
  0
LINE
  5
3DA
330
1F
100
AcDbEntity
  8
0
  6
Continuous
 62
     7
370
    25
100
AcDbLine
 10
309.3740026434
 20
710.3445160742
 30
0.0
 11
309.3740026434
 21
707.1103969292
 31
0.0
  0
SPLINE
  5
3DB
330
1F
100
AcDbEntity
  8
0
  6
Continuous
 62
     7
370
    25
100
AcDbSpline
210
0.0
220
0.0
230
1.0
 70
     8
 71
     3
 72
    12
 73
     8
 74
     0
 42
0.000000001
 43
0.00000001
 40
0.0
 40
0.0
 40
0.0
 40
0.0
 40
0.2044668571287276
 40
0.4087903314721201
 40
0.6169743041665208
 40
0.8331478191221515
 40
1.0
 40
1.0
 40
1.0
 40
1.0
 10
309.3740026433614
 20
707.1103969291701
 30
0.0
 10
309.3792532701659
 20
707.0553677635904
 30
0.0
 10
309.3897508417626
 20
706.9453480217417
 30
0.0
 10
309.4708092201304
 20
706.7980700856734
 30
0.0
 10
309.5904710055138
 20
706.6838270271534
 30
0.0
 10
309.7299458007082
 20
706.6168822005772
 30
0.0
 10
309.8258519666114
 20
706.6083503239303
 30
0.0
 10
309.8676302418411
 20
706.6046337006305
 30
0.0
  0
ELLIPSE
  5
3DC
330
1F
100
AcDbEntity
  8
0
  6
Continuous
 62
     7
370
    25
100
AcDbEllipse
 10
306.9659581585
 20
706.3442916959
 30
0.0
 11
8.0
 21
1.136868377216160E-13
 31
0.0
210
0.0
220
0.0
230
1.0
 40
0.0349207695
 41
0.4285778583732739
 42
1.199623104132503
  0
SPLINE
  5
3DD
330
1F
100
AcDbEntity
  8
0
  6
Continuous
 62
     7
370
    25
100
AcDbSpline
210
0.0
220
0.0
230
1.0
 70
     8
 71
     3
 72
    16
 73
    12
 74
     0
 42
0.000000001
 43
0.00000001
 40
0.0
 40
0.0
 40
0.0
 40
0.0
 40
0.5270059872399898
 40
0.6768488357497067
 40
0.7799302205552563
 40
0.8508369817131651
 40
0.899992726781513
 40
0.9519529793116441
 40
0.97292451614782
 40
0.9904171121943252
 40
1.0
 40
1.0
 40
1.0
 40
1.0
 10
314.2424195954376
 20
706.4603900413073
 30
0.0
 10
314.3722487030432
 20
706.4737204864125
 30
0.0
 10
314.5389919326399
 20
706.4908411576536
 30
0.0
 10
314.6741440142635
 20
706.6032598941288
 30
0.0
 10
314.7244777567823
 20
706.6615967056118
 30
0.0
 10
314.7556966742733
 20
706.7118847974427
 30
0.0
 10
314.7775075315843
 20
706.7598927658282
 30
0.0
 10
314.7913783209838
 20
706.8036196059713
 30
0.0
 10
314.7989975782806
 20
706.8481292025301
 30
0.0
 10
314.8016158845765
 20
706.8768247568763
 30
0.0
 10
314.801849570477
 20
706.8941398233128
 30
0.0
 10
314.8019322794611
 20
706.9002681843021
 30
0.0
  0
LINE
  5
3DE
330
1F
100
AcDbEntity
  8
0
  6
Continuous
 62
     7
370
    25
100
AcDbLine
 10
314.8019322795
 20
706.9002681843
 30
0.0
 11
314.8019322795
 21
714.1139357383
 31
0.0
  0
ELLIPSE
  5
3DF
330
1F
100
AcDbEntity
  8
0
  6
Continuous
 62
     7
370
    25
100
AcDbEllipse
 10
306.9659581585
 20
706.3442916959
 30
0.0
 11
8.0
 21
1.136868377216160E-13
 31
0.0
210
0.0
220
0.0
230
1.0
 40
0.0349207695
 41
1.994228296444857
 42
2.871049997851368
  0
SPLINE
  5
3E0
330
1F
100
AcDbEntity
  8
0
  6
Continuous
 62
     7
370
    25
100
AcDbSpline
210
0.0
220
0.0
230
1.0
 70
     8
 71
     3
 72
    12
 73
     8
 74
     0
 42
0.000000001
 43
0.00000001
 40
0.0
 40
0.0
 40
0.0
 40
0.0
 40
0.2356696897124413
 40
0.4716916445093176
 40
0.6975048347754158
 40
0.909458205739706
 40
1.0
 40
1.0
 40
1.0
 40
1.0
 10
303.6788242461042
 20
706.5989853906405
 30
0.0
 10
303.7373008467937
 20
706.6059976354795
 30
0.0
 10
303.8543414555297
 20
706.6200326066456
 30
0.0
 10
304.0094612311133
 20
706.7191066619763
 30
0.0
 10
304.1201142646194
 20
706.8611308614474
 30
0.0
 10
304.1667535289936
 20
706.9994329566987
 30
0.0
 10
304.1703647693177
 20
707.0812620059672
 30
0.0
 10
304.1714456731338
 20
707.1057547906299
 30
0.0
  0
LINE
  5
3E1
330
1F
100
AcDbEntity
  8
0
  6
Continuous
 62
     7
370
    25
100
AcDbLine
 10
304.1714456731
 20
707.1057547906
 30
0.0
 11
304.1714456731
 21
710.3445160742
 31
0.0
  0
ELLIPSE
  5
3E2
330
1F
100
AcDbEntity
  8
0
  6
Continuous
 62
     7
370
    25
100
AcDbEllipse
 10
306.9659581585
 20
714.6699122267
 30
0.0
 11
8.0
 21
0.0
 31
0.0
210
0.0
220
0.0
230
1.0
 40
0.0349207695
 41
3.412135309327421
 42
3.920019459513493
  0
LINE
  5
3E3
330
1F
100
AcDbEntity
  8
0
  6
Continuous
 62
     7
370
    25
100
AcDbLine
 10
330.069693665
 20
714.3078113852
 30
0.0
 11
330.069693665
 21
706.7063925373
 31
0.0
  0
LINE
  5
3E4
330
1F
100
AcDbEntity
  8
0
  6
Continuous
 62
     7
370
    25
100
AcDbLine
 10
330.069693665
 20
706.7063925373
 30
0.0
 11
329.8199982515
 21
706.7063925373
 31
0.0
  0
LINE
  5
3E5
330
1F
100
AcDbEntity
  8
0
  6
Continuous
 62
     7
370
    25
100
AcDbLine
 10
330.069693665
 20
714.3078113852
 30
0.0
 11
329.8199982515
 21
714.3078113852
 31
0.0
  0
LINE
  5
3E6
330
1F
100
AcDbEntity
  8
0
  6
Continuous
 62
     7
370
    25
100
AcDbLine
 10
330.069693665
 20
706.7063925373
 30
0.0
 11
330.6102243113
 21
706.7172904544
 31
0.0
  0
LWPOLYLINE
  5
3E7
330
1F
100
AcDbEntity
  8
0
  6
Continuous
 62
     7
370
    25
100
AcDbPolyline
 90
        9
 70
   128
 43
0.0
 10
330.6102243113
 20
706.7172904544
 10
330.6162921957
 20
706.6216135449
 10
330.6313780372
 20
706.5294737272
 10
330.6549241256
 20
706.4442773297
 10
330.6860599823
 20
706.3691739889
 10
330.7236345422
 20
706.3069402096
 10
330.7662587064
 20
706.2598767202
 10
330.8123566969
 20
706.2297234169
 10
330.8602243113
 20
706.2175950409
  0
LWPOLYLINE
  5
3E8
330
1F
100
AcDbEntity
  8
0
  6
Continuous
 62
     7
370
    25
100
AcDbPolyline
 90
        9
 70
   128
 43
0.0
 10
330.069693665
 20
706.7063925373
 10
330.0757615494
 20
706.6107156278
 10
330.090847391
 20
706.5185758101
 10
330.1143934793
 20
706.4333794126
 10
330.145529336
 20
706.3582760718
 10
330.1831038959
 20
706.2960422925
 10
330.2257280601
 20
706.2489788031
 10
330.2718260506
 20
706.2188254998
 10
330.319693665
 20
706.2066971238
  0
LWPOLYLINE
  5
3E9
330
1F
100
AcDbEntity
  8
0
  6
Continuous
 62
     7
370
    25
100
AcDbPolyline
 90
        9
 70
   128
 43
0.0
 10
330.8602243113
 20
714.7966088817
 10
330.8123566969
 20
714.7844805056
 10
330.7662587064
 20
714.7543272023
 10
330.7236345422
 20
714.707263713
 10
330.6860599823
 20
714.6450299337
 10
330.6549241256
 20
714.5699265928
 10
330.6313780372
 20
714.4847301954
 10
330.6162921957
 20
714.3925903776
 10
330.6102243113
 20
714.2969134682
  0
LINE
  5
3EA
330
1F
100
AcDbEntity
  8
0
  6
Continuous
 62
     7
370
    25
100
AcDbLine
 10
330.6102243113
 20
714.2969134682
 30
0.0
 11
330.069693665
 21
714.3078113852
 31
0.0
  0
LWPOLYLINE
  5
3EB
330
1F
100
AcDbEntity
  8
0
  6
Continuous
 62
     7
370
    25
100
AcDbPolyline
 90
        9
 70
   128
 43
0.0
 10
330.319693665
 20
714.8075067988
 10
330.2718260506
 20
714.7953784227
 10
330.2257280601
 20
714.7652251194
 10
330.1831038959
 20
714.7181616301
 10
330.145529336
 20
714.6559278508
 10
330.1143934793
 20
714.5808245099
 10
330.090847391
 20
714.4956281125
 10
330.0757615494
 20
714.4034882947
 10
330.069693665
 20
714.3078113852
  0
LINE
  5
3EC
330
1F
100
AcDbEntity
  8
0
  6
Continuous
 62
     7
370
    25
100
AcDbLine
 10
325.4208079265
 20
706.7063925373
 30
0.0
 11
325.1711125129
 21
706.7063925373
 31
0.0
  0
LINE
  5
3ED
330
1F
100
AcDbEntity
  8
0
  6
Continuous
 62
     7
370
    25
100
AcDbLine
 10
325.1711125129
 20
706.7063925373
 30
0.0
 11
325.1711125129
 21
714.3078113852
 31
0.0
  0
LINE
  5
3EE
330
1F
100
AcDbEntity
  8
0
  6
Continuous
 62
     7
370
    25
100
AcDbLine
 10
325.4208079265
 20
714.3078113852
 30
0.0
 11
325.1711125129
 21
714.3078113852
 31
0.0
  0
LWPOLYLINE
  5
3EF
330
1F
100
AcDbEntity
  8
0
  6
Continuous
 62
     7
370
    25
100
AcDbPolyline
 90
        9
 70
   128
 43
0.0
 10
324.9211125129
 20
706.2066971238
 10
324.9689801273
 20
706.2188254998
 10
325.0150781179
 20
706.2489788031
 10
325.0577022821
 20
706.2960422925
 10
325.0952768419
 20
706.3582760718
 10
325.1264126987
 20
706.4333794126
 10
325.149958787
 20
706.5185758101
 10
325.1650446285
 20
706.6107156278
 10
325.1711125129
 20
706.7063925373
  0
LWPOLYLINE
  5
3F0
330
1F
100
AcDbEntity
  8
0
  6
Continuous
 62
     7
370
    25
100
AcDbPolyline
 90
        9
 70
   128
 43
0.0
 10
324.3805818667
 20
706.2175950409
 10
324.428449481
 20
706.2297234169
 10
324.4745474716
 20
706.2598767202
 10
324.5171716358
 20
706.3069402096
 10
324.5547461956
 20
706.3691739889
 10
324.5858820524
 20
706.4442773297
 10
324.6094281407
 20
706.5294737272
 10
324.6245139823
 20
706.6216135449
 10
324.6305818667
 20
706.7172904544
  0
LINE
  5
3F1
330
1F
100
AcDbEntity
  8
0
  6
Continuous
 62
     7
370
    25
100
AcDbLine
 10
324.6305818667
 20
706.7172904544
 30
0.0
 11
325.1711125129
 21
706.7063925373
 31
0.0
  0
LWPOLYLINE
  5
3F2
330
1F
100
AcDbEntity
  8
0
  6
Continuous
 62
     7
370
    25
100
AcDbPolyline
 90
        9
 70
   128
 43
0.0
 10
325.1711125129
 20
714.3078113852
 10
325.1650446285
 20
714.4034882947
 10
325.149958787
 20
714.4956281125
 10
325.1264126987
 20
714.5808245099
 10
325.0952768419
 20
714.6559278508
 10
325.0577022821
 20
714.7181616301
 10
325.0150781179
 20
714.7652251194
 10
324.9689801273
 20
714.7953784227
 10
324.9211125129
 20
714.8075067988
  0
LINE
  5
3F3
330
1F
100
AcDbEntity
  8
0
  6
Continuous
 62
     7
370
    25
100
AcDbLine
 10
325.1711125129
 20
714.3078113852
 30
0.0
 11
324.6305818667
 21
714.2969134682
 31
0.0
  0
LWPOLYLINE
  5
3F4
330
1F
100
AcDbEntity
  8
0
  6
Continuous
 62
     7
370
    25
100
AcDbPolyline
 90
        9
 70
   128
 43
0.0
 10
324.6305818667
 20
714.2969134682
 10
324.6245139823
 20
714.3925903776
 10
324.6094281407
 20
714.4847301954
 10
324.5858820524
 20
714.5699265928
 10
324.5547461956
 20
714.6450299337
 10
324.5171716358
 20
714.707263713
 10
324.4745474716
 20
714.7543272023
 10
324.428449481
 20
714.7844805056
 10
324.3805818667
 20
714.7966088817
  0
ELLIPSE
  5
3F5
330
1F
100
AcDbEntity
  8
0
  6
Continuous
 62
     7
370
    25
100
AcDbEllipse
 10
330.3602243113
 20
706.7475327279
 30
0.0
 11
0.5
 21
0.0
 31
0.0
210
0.0
220
0.0
230
1.0
 40
0.069841539
 41
5.235987755982263
 42
6.248278722143878
  0
ARC
  5
3F6
330
1F
100
AcDbEntity
  8
0
  6
Continuous
 62
     7
370
    25
100
AcDbCircle
 10
331.3603286179
 20
706.7470274902
 30
0.0
 40
0.5004094017338098
100
AcDbArc
 50
180.0816918763
 51
269.9183081236
  0
ARC
  5
3F7
330
1F
100
AcDbEntity
  8
0
  6
Continuous
 62
     7
370
    25
100
AcDbCircle
 10
331.3603286179
 20
714.2671764323
 30
0.0
 40
0.5004094017340371
100
AcDbArc
 50
90.0816918764
 51
179.9183081237
  0
ELLIPSE
  5
3F8
330
1F
100
AcDbEntity
  8
0
  6
Continuous
 62
     7
370
    25
100
AcDbEllipse
 10
330.3602243113
 20
714.2666711947
 30
0.0
 11
0.4999999999999432
 21
0.0
 31
0.0
210
0.0
220
0.0
230
1.0
 40
0.069841539
 41
0.0349065850390415
 42
1.047197551197543
  0
ARC
  5
3F9
330
1F
100
AcDbEntity
  8
0
  6
Continuous
 62
     7
370
    25
100
AcDbCircle
 10
323.88047756
 20
706.7470274902
 30
0.0
 40
0.5004094017339806
100
AcDbArc
 50
270.0816918764
 51
359.9183081236
  0
ELLIPSE
  5
3FA
330
1F
100
AcDbEntity
  8
0
  6
Continuous
 62
     7
370
    25
100
AcDbEllipse
 10
324.8805818667
 20
706.7475327279
 30
0.0
 11
0.5000000000000568
 21
0.0
 31
0.0
210
0.0
220
0.0
230
1.0
 40
0.069841539
 41
3.17649923863229
 42
4.188790204785562
  0
ELLIPSE
  5
3FB
330
1F
100
AcDbEntity
  8
0
  6
Continuous
 62
     7
370
    25
100
AcDbEllipse
 10
324.8805818667
 20
714.2666711947
 30
0.0
 11
0.5000000000000568
 21
0.0
 31
0.0
210
0.0
220
0.0
230
1.0
 40
0.069841539
 41
2.094395102392228
 42
3.10668606854761
  0
ARC
  5
3FC
330
1F
100
AcDbEntity
  8
0
  6
Continuous
 62
     7
370
    25
100
AcDbCircle
 10
323.88047756
 20
714.2671764323
 30
0.0
 40
0.5004094017338098
100
AcDbArc
 50
0.0816918763
 51
89.9183081236
  0
LINE
  5
3FD
330
1F
100
AcDbEntity
  8
0
  6
Continuous
 62
     7
370
    25
100
AcDbLine
 10
330.6102243113
 20
706.7172904544
 30
0.0
 11
330.6102243113
 21
714.2969134682
 31
0.0
  0
LINE
  5
3FE
330
1F
100
AcDbEntity
  8
0
  6
Continuous
 62
     7
370
    25
100
AcDbLine
 10
324.6305818667
 20
714.2969134682
 30
0.0
 11
324.6305818667
 21
706.7172904544
 31
0.0
  0
LINE
  5
3FF
330
1F
100
AcDbEntity
  8
0
  6
Continuous
 62
     7
370
    25
100
AcDbLine
 10
330.8599197248
 20
714.2678899119
 30
0.0
 11
330.8599197248
 21
706.7463140106
 31
0.0
  0
LINE
  5
400
330
1F
100
AcDbEntity
  8
0
  6
Continuous
 62
     7
370
    25
100
AcDbLine
 10
324.3808864531
 20
706.7463140106
 30
0.0
 11
324.3808864531
 21
714.2678899119
 31
0.0
  0
LINE
  5
401
330
1F
100
AcDbEntity
  8
0
  6
Continuous
 62
     7
370
    25
100
AcDbLine
 10
331.628980331
 20
713.4988293057
 30
0.0
 11
330.8599197248
 21
714.2678899119
 31
0.0
  0
LINE
  5
402
330
1F
100
AcDbEntity
  8
0
  6
Continuous
 62
     7
370
    25
100
AcDbLine
 10
331.628980331
 20
707.5153746168
 30
0.0
 11
331.628980331
 21
713.4988293057
 31
0.0
  0
LINE
  5
403
330
1F
100
AcDbEntity
  8
0
  6
Continuous
 62
     7
370
    25
100
AcDbLine
 10
330.8599197248
 20
706.7463140106
 30
0.0
 11
331.628980331
 21
707.5153746168
 31
0.0
  0
ELLIPSE
  5
404
330
1F
100
AcDbEntity
  8
0
  6
Continuous
 62
     7
370
    25
100
AcDbEllipse
 10
332.1292851032
 20
707.5159839755
 30
0.0
 11
-0.3539842722996127
 21
-0.3539842722996127
 31
-3.518581352299641E-15
210
-4.969968481144143E-15
220
-4.969968481144143E-15
230
1.0
 40
0.998782766
 41
5.498396131367529
 42
7.067974482991543
  0
ELLIPSE
  5
405
330
1F
100
AcDbEntity
  8
0
  6
Continuous
 62
     7
370
    25
100
AcDbEllipse
 10
332.1292851032
 20
713.4982199471
 30
0.0
 11
0.3539842722995559
 21
-0.3539842722996127
 31
1.716950770582327E-15
210
-2.425179457025563E-15
220
2.425179457025952E-15
230
1.0
 40
0.998782766
 41
2.35680347777815
 42
3.926381829401611
  0
LINE
  5
406
330
1F
100
AcDbEntity
  8
0
  6
Continuous
 62
     7
370
    25
100
AcDbLine
 10
324.3808864531
 20
714.2678899119
 30
0.0
 11
323.6118258469
 21
713.4988293057
 31
0.0
  0
LINE
  5
407
330
1F
100
AcDbEntity
  8
0
  6
Continuous
 62
     7
370
    25
100
AcDbLine
 10
323.6118258469
 20
707.5153746168
 30
0.0
 11
324.3808864531
 21
706.7463140106
 31
0.0
  0
LINE
  5
408
330
1F
100
AcDbEntity
  8
0
  6
Continuous
 62
     7
370
    25
100
AcDbLine
 10
323.6118258469
 20
707.5153746168
 30
0.0
 11
323.6118258469
 21
713.4988293057
 31
0.0
  0
ELLIPSE
  5
409
330
1F
100
AcDbEntity
  8
0
  6
Continuous
 62
     7
370
    25
100
AcDbEllipse
 10
323.1115210748
 20
707.5159839755
 30
0.0
 11
-0.3539842722996127
 21
0.353984272299499
 31
-1.716950770582327E-15
210
-2.425179457026341E-15
220
2.425179457025562E-15
230
1.0
 40
0.998782766
 41
2.356803477777829
 42
3.926381829401678
  0
ELLIPSE
  5
40A
330
1F
100
AcDbEntity
  8
0
  6
Continuous
 62
     7
370
    25
100
AcDbEllipse
 10
323.1115210748
 20
713.4982199471
 30
0.0
 11
0.3539842722996695
 21
0.3539842722996127
 31
3.518581352299641E-15
210
-4.969968481144143E-15
220
-4.969968481143345E-15
230
1.0
 40
0.998782766
 41
5.498396131367984
 42
7.067974482991705
  0
ELLIPSE
  5
40B
330
1F
100
AcDbEntity
  8
0
  6
Continuous
 62
     7
370
    25
100
AcDbEllipse
 10
313.6865210748
 20
713.4982199471
 30
0.0
 11
0.3539842722996127
 21
0.3539842722996127
 31
3.518581352299591E-15
210
-4.969968481144072E-15
220
-4.969968481144072E-15
230
1.0
 40
0.998782766
 41
5.498396131367757
 42
7.067974482991429
  0
LINE
  5
40C
330
1F
100
AcDbEntity
  8
0
  6
Continuous
 62
     7
370
    25
100
AcDbLine
 10
313.6871304334
 20
713.9985247192
 30
0.0
 11
314.2424195954
 21
714.5538138812
 31
0.0
  0
LINE
  5
40D
330
1F
100
AcDbEntity
  8
0
  6
Continuous
 62
     7
370
    25
100
AcDbLine
 10
314.8019322795
 20
714.1139357383
 30
0.0
 11
314.1868258469
 21
713.4988293057
 31
0.0
  0
ELLIPSE
  5
40E
330
1F
100
AcDbEntity
  8
0
  6
Continuous
 62
     7
370
    25
100
AcDbEllipse
 10
313.6865210748
 20
707.5159839755
 30
0.0
 11
-0.3539842722996127
 21
0.3539842722996127
 31
-1.716950770582277E-15
210
-2.425179457025491E-15
220
2.425179457025491E-15
230
1.0
 40
0.998782766
 41
2.356803477777949
 42
3.92638182940165
  0
LINE
  5
40F
330
1F
100
AcDbEntity
  8
0
  6
Continuous
 62
     7
370
    25
100
AcDbLine
 10
314.1868258469
 20
707.5153746168
 30
0.0
 11
314.8019322795
 21
706.9002681843
 31
0.0
  0
LINE
  5
410
330
1F
100
AcDbEntity
  8
0
  6
Continuous
 62
     7
370
    25
100
AcDbLine
 10
314.2424195954
 20
706.4603900413
 30
0.0
 11
313.6871304334
 21
707.0156792033
 31
0.0
  0
LINE
  5
411
330
1F
100
AcDbEntity
  8
0
  6
Continuous
 62
     7
370
    25
100
AcDbLine
 10
314.1868258469
 20
707.5153746168
 30
0.0
 11
314.1868258469
 21
713.4988293057
 31
0.0
  0
LINE
  5
412
330
1F
100
AcDbEntity
  8
0
  6
Continuous
 62
     7
370
    25
100
AcDbLine
 10
301.2698057358
 20
713.9985247192
 30
0.0
 11
299.8536757445
 21
713.9985247192
 31
0.0
  0
LINE
  5
413
330
1F
100
AcDbEntity
  8
0
  6
Continuous
 62
     7
370
    25
100
AcDbLine
 10
303.2621304334
 20
707.0156792033
 30
0.0
 11
299.8536757445
 21
707.0156792033
 31
0.0
  0
LINE
  5
414
330
1F
100
AcDbEntity
  8
0
  6
Continuous
 62
     7
370
    25
100
AcDbLine
 10
303.6788242461
 20
706.5989853906
 30
0.0
 11
303.2621304334
 21
707.0156792033
 31
0.0
  0
LINE
  5
415
330
1F
100
AcDbEntity
  8
0
  6
Continuous
 62
     7
370
    25
100
AcDbLine
 10
313.6871304334
 20
713.9985247192
 30
0.0
 11
312.6621105813
 21
713.9985247192
 31
0.0
  0
LINE
  5
416
330
1F
100
AcDbEntity
  8
0
  6
Continuous
 62
     7
370
    25
100
AcDbLine
 10
310.2786757445
 20
707.0156792033
 30
0.0
 11
309.8676302418
 21
706.6046337006
 31
0.0
  0
LINE
  5
417
330
1F
100
AcDbEntity
  8
0
  6
Continuous
 62
     7
370
    25
100
AcDbLine
 10
313.6871304334
 20
707.0156792033
 30
0.0
 11
310.2786757445
 21
707.0156792033
 31
0.0
  0
ELLIPSE
  5
418
330
1F
100
AcDbEntity
  8
0
  6
Continuous
 62
     7
370
    25
100
AcDbEllipse
 10
303.2615210748
 20
707.5159839755
 30
0.0
 11
-0.3539842722996127
 21
0.3539842722996127
 31
-1.716950770582125E-15
210
-2.425179457025277E-15
220
2.425179457025277E-15
230
1.0
 40
0.998782766
 41
2.356803477778257
 42
3.926381829401798
  0
LINE
  5
419
330
1F
100
AcDbEntity
  8
0
  6
Continuous
 62
     7
370
    25
100
AcDbLine
 10
303.7618258469
 20
707.5153746168
 30
0.0
 11
304.1714456731
 21
707.1057547906
 31
0.0
  0
ELLIPSE
  5
41A
330
1F
100
AcDbEntity
  8
0
  6
Continuous
 62
     7
370
    25
100
AcDbEllipse
 10
310.2792851032
 20
707.5159839755
 30
0.0
 11
-0.3539842722996696
 21
-0.3539842722994991
 31
-3.518581352299541E-15
210
-4.969968481145596E-15
220
-4.969968481143202E-15
230
1.0
 40
0.998782766
 41
5.49839613136789
 42
7.06797448299155
  0
LINE
  5
41B
330
1F
100
AcDbEntity
  8
0
  6
Continuous
 62
     7
370
    25
100
AcDbLine
 10
309.3740026434
 20
707.1103969292
 30
0.0
 11
309.778980331
 21
707.5153746168
 31
0.0
  0
LINE
  5
41C
330
1F
100
AcDbEntity
  8
0
  6
Continuous
 62
     7
370
    25
100
AcDbLine
 10
303.7618258469
 20
707.5153746168
 30
0.0
 11
303.7618258469
 21
710.3445160742
 31
0.0
  0
LINE
  5
41D
330
1F
100
AcDbEntity
  8
0
  6
Continuous
 62
     7
370
    25
100
AcDbLine
 10
309.778980331
 20
707.5153746168
 30
0.0
 11
309.778980331
 21
710.3445160742
 31
0.0
  0
ELLIPSE
  5
41E
330
1F
100
AcDbEntity
  8
0
  6
Continuous
 62
     7
370
    25
100
AcDbEllipse
 10
353.120403089
 20
713.4982199471
 30
0.0
 11
7.499999999999942
 21
0.0
 31
0.0
210
0.0
220
0.0
230
1.0
 40
0.0372488208
 41
1.248873080227894
 42
1.748743047327955
  0
ARC
  5
41F
330
1F
100
AcDbEntity
  8
0
  6
Continuous
 62
     7
370
    25
100
AcDbCircle
 10
350.9610302036
 20
713.8835334868
 30
0.0
 40
0.8390936313849384
100
AcDbArc
 50
352.442481214
 51
27.6453051272
  0
ARC
  5
420
330
1F
100
AcDbEntity
  8
0
  6
Continuous
 62
     7
370
    25
100
AcDbCircle
 10
356.0411278268
 20
713.8647024662
 30
0.0
 40
0.5571060802961997
100
AcDbArc
 50
134.3719811485
 51
190.4940645851
  0
ELLIPSE
  5
421
330
1F
100
AcDbEntity
  8
0
  6
Continuous
 62
     7
370
    25
100
AcDbEllipse
 10
353.120403089
 20
707.5159839755
 30
0.0
 11
7.5
 21
0.0
 31
0.0
210
0.0
220
0.0
230
1.0
 40
0.0372488208
 41
4.534442259851595
 42
5.034312226951885
  0
ARC
  5
422
330
1F
100
AcDbEntity
  8
0
  6
Continuous
 62
     7
370
    25
100
AcDbCircle
 10
356.0411278268
 20
707.1495014563
 30
0.0
 40
0.5571060802972155
100
AcDbArc
 50
169.505935415
 51
225.6280188515
  0
ARC
  5
423
330
1F
100
AcDbEntity
  8
0
  6
Continuous
 62
     7
370
    25
100
AcDbCircle
 10
350.9610302036
 20
707.1306704357
 30
0.0
 40
0.839093631383939
100
AcDbArc
 50
332.3546948727
 51
7.557518786
  0
LINE
  5
424
330
1F
100
AcDbEntity
  8
0
  6
Continuous
 62
     7
370
    25
100
AcDbLine
 10
351.7928349035
 20
713.7731746925
 30
0.0
 11
351.2046349443
 21
713.7731746925
 31
0.0
  0
LINE
  5
425
330
1F
100
AcDbEntity
  8
0
  6
Continuous
 62
     7
370
    25
100
AcDbLine
 10
351.7928349035
 20
707.2410292301
 30
0.0
 11
351.2046349443
 21
707.2410292301
 31
0.0
  0
LINE
  5
426
330
1F
100
AcDbEntity
  8
0
  6
Continuous
 62
     7
370
    25
100
AcDbLine
 10
351.7928349035
 20
713.7731746925
 30
0.0
 11
351.7928349035
 21
707.2410292301
 31
0.0
  0
LINE
  5
427
330
1F
100
AcDbEntity
  8
0
  6
Continuous
 62
     7
370
    25
100
AcDbLine
 10
356.1512312343
 20
713.7632346931
 30
0.0
 11
355.4933400251
 21
713.7632346931
 31
0.0
  0
LINE
  5
428
330
1F
100
AcDbEntity
  8
0
  6
Continuous
 62
     7
370
    25
100
AcDbLine
 10
356.1512312343
 20
707.2509692294
 30
0.0
 11
355.4933400251
 21
707.2509692294
 31
0.0
  0
LINE
  5
429
330
1F
100
AcDbEntity
  8
0
  6
Continuous
 62
     7
370
    25
100
AcDbLine
 10
355.4933400251
 20
707.2509692294
 30
0.0
 11
355.4933400251
 21
713.7632346931
 31
0.0
  0
ELLIPSE
  5
42A
330
1F
100
AcDbEntity
  8
0
  6
Continuous
 62
     7
370
    25
100
AcDbEllipse
 10
287.9207078611
 20
548.0067971891
 30
0.0
 11
-0.3539842722996127
 21
0.353984272299499
 31
0.0
210
0.0
220
0.0
230
1.0
 40
0.998782766
 41
5.498396131367596
 42
7.067974482991496
  0
LINE
  5
42B
330
1F
100
AcDbEntity
  8
0
  6
Continuous
 62
     7
370
    25
100
AcDbLine
 10
287.420403089
 20
548.0074065478
 30
0.0
 11
287.420403089
 21
539.0067973748
 31
0.0
  0
ELLIPSE
  5
42C
330
1F
100
AcDbEntity
  8
0
  6
Continuous
 62
     7
370
    25
100
AcDbEllipse
 10
287.9207078611
 20
539.0074067334
 30
0.0
 11
0.3539842722996127
 21
0.3539842722996127
 31
0.0
210
0.0
220
0.0
230
1.0
 40
0.998782766
 41
2.356803477777869
 42
3.926381829401731
  0
LINE
  5
42D
330
1F
100
AcDbEntity
  8
0
  6
Continuous
 62
     7
370
    25
100
AcDbLine
 10
287.9200985025
 20
538.5071019613
 30
0.0
 11
294.3457076755
 21
538.5071019613
 31
0.0
  0
ELLIPSE
  5
42E
330
1F
100
AcDbEntity
  8
0
  6
Continuous
 62
     7
370
    25
100
AcDbEllipse
 10
294.3450983168
 20
539.0074067334
 30
0.0
 11
0.3539842722996127
 21
-0.3539842722996127
 31
0.0
210
0.0
220
0.0
230
1.0
 40
0.998782766
 41
5.498396131367829
 42
7.067974482991469
  0
LINE
  5
42F
330
1F
100
AcDbEntity
  8
0
  6
Continuous
 62
     7
370
    25
100
AcDbLine
 10
294.845403089
 20
548.0074065478
 30
0.0
 11
294.845403089
 21
539.0067973748
 31
0.0
  0
ELLIPSE
  5
430
330
1F
100
AcDbEntity
  8
0
  6
Continuous
 62
     7
370
    25
100
AcDbEllipse
 10
294.3450983168
 20
548.0067971891
 30
0.0
 11
-0.3539842722996127
 21
-0.3539842722996127
 31
0.0
210
0.0
220
0.0
230
1.0
 40
0.998782766
 41
2.356803477777601
 42
3.926381829401771
  0
LINE
  5
431
330
1F
100
AcDbEntity
  8
0
  6
Continuous
 62
     7
370
    25
100
AcDbLine
 10
287.9200985025
 20
548.5071019613
 30
0.0
 11
294.3457076755
 21
548.5071019613
 31
0.0
  0
ELLIPSE
  5
432
330
1F
100
AcDbEntity
  8
0
  6
Continuous
 62
     7
370
    25
100
AcDbEllipse
 10
298.3457078611
 20
548.0067971891
 30
0.0
 11
-0.3539842722996127
 21
0.3539842722996127
 31
0.0
210
0.0
220
0.0
230
1.0
 40
0.998782766
 41
5.498396131367636
 42
7.067974482991778
  0
LINE
  5
433
330
1F
100
AcDbEntity
  8
0
  6
Continuous
 62
     7
370
    25
100
AcDbLine
 10
297.845403089
 20
548.0074065478
 30
0.0
 11
297.845403089
 21
539.0067973748
 31
0.0
  0
ELLIPSE
  5
434
330
1F
100
AcDbEntity
  8
0
  6
Continuous
 62
     7
370
    25
100
AcDbEllipse
 10
298.3457078611
 20
539.0074067334
 30
0.0
 11
0.3539842722996127
 21
0.3539842722996127
 31
0.0
210
0.0
220
0.0
230
1.0
 40
0.998782766
 41
2.356803477777829
 42
3.926381829401658
  0
LINE
  5
435
330
1F
100
AcDbEntity
  8
0
  6
Continuous
 62
     7
370
    25
100
AcDbLine
 10
298.3450985025
 20
538.5071019613
 30
0.0
 11
304.7707076755
 21
538.5071019613
 31
0.0
  0
ELLIPSE
  5
436
330
1F
100
AcDbEntity
  8
0
  6
Continuous
 62
     7
370
    25
100
AcDbEllipse
 10
304.7700983168
 20
539.0074067334
 30
0.0
 11
0.3539842722995558
 21
-0.353984272299499
 31
0.0
210
0.0
220
0.0
230
1.0
 40
0.998782766
 41
5.498396131367643
 42
7.06797448299127
  0
LINE
  5
437
330
1F
100
AcDbEntity
  8
0
  6
Continuous
 62
     7
370
    25
100
AcDbLine
 10
305.270403089
 20
548.0074065478
 30
0.0
 11
305.270403089
 21
539.0067973748
 31
0.0
  0
ELLIPSE
  5
438
330
1F
100
AcDbEntity
  8
0
  6
Continuous
 62
     7
370
    25
100
AcDbEllipse
 10
304.7700983168
 20
548.0067971891
 30
0.0
 11
-0.3539842722996127
 21
-0.3539842722996127
 31
0.0
210
0.0
220
0.0
230
1.0
 40
0.998782766
 41
2.356803477777641
 42
3.926381829401618
  0
LINE
  5
439
330
1F
100
AcDbEntity
  8
0
  6
Continuous
 62
     7
370
    25
100
AcDbLine
 10
298.3450985025
 20
548.5071019613
 30
0.0
 11
304.7707076755
 21
548.5071019613
 31
0.0
  0
ELLIPSE
  5
43A
330
1F
100
AcDbEntity
  8
0
  6
Continuous
 62
     7
370
    25
100
AcDbEllipse
 10
308.7707078611
 20
548.0067971891
 30
0.0
 11
-0.3539842722996127
 21
0.3539842722996127
 31
0.0
210
0.0
220
0.0
230
1.0
 40
0.998782766
 41
5.498396131367676
 42
7.067974482991737
  0
LINE
  5
43B
330
1F
100
AcDbEntity
  8
0
  6
Continuous
 62
     7
370
    25
100
AcDbLine
 10
308.270403089
 20
548.0074065478
 30
0.0
 11
308.270403089
 21
539.0067973748
 31
0.0
  0
ELLIPSE
  5
43C
330
1F
100
AcDbEntity
  8
0
  6
Continuous
 62
     7
370
    25
100
AcDbEllipse
 10
308.7707078611
 20
539.0074067334
 30
0.0
 11
0.3539842722996695
 21
0.3539842722996127
 31
0.0
210
0.0
220
0.0
230
1.0
 40
0.998782766
 41
2.356803477777909
 42
3.926381829401852
  0
LINE
  5
43D
330
1F
100
AcDbEntity
  8
0
  6
Continuous
 62
     7
370
    25
100
AcDbLine
 10
308.7700985025
 20
538.5071019613
 30
0.0
 11
315.1957076755
 21
538.5071019613
 31
0.0
  0
ELLIPSE
  5
43E
330
1F
100
AcDbEntity
  8
0
  6
Continuous
 62
     7
370
    25
100
AcDbEllipse
 10
315.1950983168
 20
539.0074067334
 30
0.0
 11
0.3539842722996695
 21
-0.3539842722996127
 31
0.0
210
0.0
220
0.0
230
1.0
 40
0.998782766
 41
5.498396131367628
 42
7.067974482991965
  0
LINE
  5
43F
330
1F
100
AcDbEntity
  8
0
  6
Continuous
 62
     7
370
    25
100
AcDbLine
 10
315.695403089
 20
548.0074065478
 30
0.0
 11
315.695403089
 21
539.0067973748
 31
0.0
  0
ELLIPSE
  5
440
330
1F
100
AcDbEntity
  8
0
  6
Continuous
 62
     7
370
    25
100
AcDbEllipse
 10
315.1950983168
 20
548.0067971891
 30
0.0
 11
-0.3539842722996127
 21
-0.3539842722996127
 31
0.0
210
0.0
220
0.0
230
1.0
 40
0.998782766
 41
2.356803477777601
 42
3.926381829401658
  0
LINE
  5
441
330
1F
100
AcDbEntity
  8
0
  6
Continuous
 62
     7
370
    25
100
AcDbLine
 10
308.7700985025
 20
548.5071019613
 30
0.0
 11
315.1957076755
 21
548.5071019613
 31
0.0
  0
ELLIPSE
  5
442
330
1F
100
AcDbEntity
  8
0
  6
Continuous
 62
     7
370
    25
100
AcDbEllipse
 10
319.1957078611
 20
548.0067971891
 30
0.0
 11
-0.3539842722996127
 21
0.353984272299499
 31
0.0
210
0.0
220
0.0
230
1.0
 40
0.998782766
 41
5.498396131367442
 42
7.067974482991536
  0
LINE
  5
443
330
1F
100
AcDbEntity
  8
0
  6
Continuous
 62
     7
370
    25
100
AcDbLine
 10
318.695403089
 20
548.0074065478
 30
0.0
 11
318.695403089
 21
539.0067973748
 31
0.0
  0
ELLIPSE
  5
444
330
1F
100
AcDbEntity
  8
0
  6
Continuous
 62
     7
370
    25
100
AcDbEllipse
 10
319.1957078611
 20
539.0074067334
 30
0.0
 11
0.3539842722996696
 21
0.3539842722994991
 31
0.0
210
0.0
220
0.0
230
1.0
 40
0.998782766
 41
2.356803477777882
 42
3.926381829402086
  0
LINE
  5
445
330
1F
100
AcDbEntity
  8
0
  6
Continuous
 62
     7
370
    25
100
AcDbLine
 10
319.1950985025
 20
538.5071019613
 30
0.0
 11
325.6207076755
 21
538.5071019613
 31
0.0
  0
ELLIPSE
  5
446
330
1F
100
AcDbEntity
  8
0
  6
Continuous
 62
     7
370
    25
100
AcDbEllipse
 10
325.6200983168
 20
539.0074067334
 30
0.0
 11
0.3539842722996127
 21
-0.3539842722996127
 31
0.0
210
0.0
220
0.0
230
1.0
 40
0.998782766
 41
5.498396131367829
 42
7.067974482991469
  0
LINE
  5
447
330
1F
100
AcDbEntity
  8
0
  6
Continuous
 62
     7
370
    25
100
AcDbLine
 10
326.120403089
 20
548.0074065478
 30
0.0
 11
326.120403089
 21
539.0067973748
 31
0.0
  0
ELLIPSE
  5
448
330
1F
100
AcDbEntity
  8
0
  6
Continuous
 62
     7
370
    25
100
AcDbEllipse
 10
325.6200983168
 20
548.0067971891
 30
0.0
 11
-0.3539842722996127
 21
-0.3539842722996127
 31
0.0
210
0.0
220
0.0
230
1.0
 40
0.998782766
 41
2.356803477777601
 42
3.926381829401658
  0
LINE
  5
449
330
1F
100
AcDbEntity
  8
0
  6
Continuous
 62
     7
370
    25
100
AcDbLine
 10
319.1950985025
 20
548.5071019613
 30
0.0
 11
325.6207076755
 21
548.5071019613
 31
0.0
  0
ELLIPSE
  5
44A
330
1F
100
AcDbEntity
  8
0
  6
Continuous
 62
     7
370
    25
100
AcDbEllipse
 10
329.6207078611
 20
548.0067971891
 30
0.0
 11
-0.3539842722996127
 21
0.3539842722996127
 31
0.0
210
0.0
220
0.0
230
1.0
 40
0.998782766
 41
5.498396131367295
 42
7.067974482991778
  0
LINE
  5
44B
330
1F
100
AcDbEntity
  8
0
  6
Continuous
 62
     7
370
    25
100
AcDbLine
 10
329.120403089
 20
548.0074065478
 30
0.0
 11
329.120403089
 21
539.0067973748
 31
0.0
  0
ELLIPSE
  5
44C
330
1F
100
AcDbEntity
  8
0
  6
Continuous
 62
     7
370
    25
100
AcDbEllipse
 10
329.6207078611
 20
539.0074067334
 30
0.0
 11
0.3539842722996127
 21
0.3539842722996127
 31
0.0
210
0.0
220
0.0
230
1.0
 40
0.998782766
 41
2.356803477777829
 42
3.926381829401885
  0
LINE
  5
44D
330
1F
100
AcDbEntity
  8
0
  6
Continuous
 62
     7
370
    25
100
AcDbLine
 10
329.6200985025
 20
538.5071019613
 30
0.0
 11
336.0457076755
 21
538.5071019613
 31
0.0
  0
ELLIPSE
  5
44E
330
1F
100
AcDbEntity
  8
0
  6
Continuous
 62
     7
370
    25
100
AcDbEllipse
 10
336.0450983168
 20
539.0074067334
 30
0.0
 11
0.3539842722996696
 21
-0.3539842722994991
 31
0.0
210
0.0
220
0.0
230
1.0
 40
0.998782766
 41
5.498396131367548
 42
7.067974482991497
  0
LINE
  5
44F
330
1F
100
AcDbEntity
  8
0
  6
Continuous
 62
     7
370
    25
100
AcDbLine
 10
336.545403089
 20
548.0074065478
 30
0.0
 11
336.545403089
 21
539.0067973748
 31
0.0
  0
ELLIPSE
  5
450
330
1F
100
AcDbEntity
  8
0
  6
Continuous
 62
     7
370
    25
100
AcDbEllipse
 10
336.0450983168
 20
548.0067971891
 30
0.0
 11
-0.3539842722995559
 21
-0.3539842722996127
 31
0.0
210
0.0
220
0.0
230
1.0
 40
0.998782766
 41
2.356803477777561
 42
3.926381829401424
  0
LINE
  5
451
330
1F
100
AcDbEntity
  8
0
  6
Continuous
 62
     7
370
    25
100
AcDbLine
 10
329.6200985025
 20
548.5071019613
 30
0.0
 11
336.0457076755
 21
548.5071019613
 31
0.0
  0
ELLIPSE
  5
452
330
1F
100
AcDbEntity
  8
0
  6
Continuous
 62
     7
370
    25
100
AcDbEllipse
 10
340.0457078611
 20
548.0067971891
 30
0.0
 11
-0.3539842722995559
 21
0.3539842722996127
 31
0.0
210
0.0
220
0.0
230
1.0
 40
0.998782766
 41
5.498396131367569
 42
7.067974482991777
  0
LINE
  5
453
330
1F
100
AcDbEntity
  8
0
  6
Continuous
 62
     7
370
    25
100
AcDbLine
 10
339.545403089
 20
548.0074065478
 30
0.0
 11
339.545403089
 21
539.0067973748
 31
0.0
  0
ELLIPSE
  5
454
330
1F
100
AcDbEntity
  8
0
  6
Continuous
 62
     7
370
    25
100
AcDbEllipse
 10
340.0457078611
 20
539.0074067334
 30
0.0
 11
0.3539842722996695
 21
0.3539842722996127
 31
0.0
210
0.0
220
0.0
230
1.0
 40
0.998782766
 41
2.356803477777682
 42
3.926381829402079
  0
LINE
  5
455
330
1F
100
AcDbEntity
  8
0
  6
Continuous
 62
     7
370
    25
100
AcDbLine
 10
340.0450985025
 20
538.5071019613
 30
0.0
 11
346.4707076755
 21
538.5071019613
 31
0.0
  0
ELLIPSE
  5
456
330
1F
100
AcDbEntity
  8
0
  6
Continuous
 62
     7
370
    25
100
AcDbEllipse
 10
346.4700983168
 20
539.0074067334
 30
0.0
 11
0.3539842722996696
 21
-0.3539842722994991
 31
0.0
210
0.0
220
0.0
230
1.0
 40
0.998782766
 41
5.498396131367662
 42
7.067974482991271
  0
LINE
  5
457
330
1F
100
AcDbEntity
  8
0
  6
Continuous
 62
     7
370
    25
100
AcDbLine
 10
346.970403089
 20
548.0074065478
 30
0.0
 11
346.970403089
 21
539.0067973748
 31
0.0
  0
ELLIPSE
  5
458
330
1F
100
AcDbEntity
  8
0
  6
Continuous
 62
     7
370
    25
100
AcDbEllipse
 10
346.4700983168
 20
548.0067971891
 30
0.0
 11
-0.3539842722995559
 21
-0.3539842722996127
 31
0.0
210
0.0
220
0.0
230
1.0
 40
0.998782766
 41
2.356803477777561
 42
3.926381829401424
  0
LINE
  5
459
330
1F
100
AcDbEntity
  8
0
  6
Continuous
 62
     7
370
    25
100
AcDbLine
 10
340.0450985025
 20
548.5071019613
 30
0.0
 11
346.4707076755
 21
548.5071019613
 31
0.0
  0
ELLIPSE
  5
45A
330
1F
100
AcDbEntity
  8
0
  6
Continuous
 62
     7
370
    25
100
AcDbEllipse
 10
350.4707078611
 20
548.0067971891
 30
0.0
 11
-0.3539842722996127
 21
0.3539842722996127
 31
0.0
210
0.0
220
0.0
230
1.0
 40
0.998782766
 41
5.498396131367636
 42
7.067974482991778
  0
LINE
  5
45B
330
1F
100
AcDbEntity
  8
0
  6
Continuous
 62
     7
370
    25
100
AcDbLine
 10
349.970403089
 20
548.0074065478
 30
0.0
 11
349.970403089
 21
539.0067973748
 31
0.0
  0
ELLIPSE
  5
45C
330
1F
100
AcDbEntity
  8
0
  6
Continuous
 62
     7
370
    25
100
AcDbEllipse
 10
350.4707078611
 20
539.0074067334
 30
0.0
 11
0.3539842722996127
 21
0.3539842722996127
 31
0.0
210
0.0
220
0.0
230
1.0
 40
0.998782766
 41
2.356803477777829
 42
3.926381829401885
  0
LINE
  5
45D
330
1F
100
AcDbEntity
  8
0
  6
Continuous
 62
     7
370
    25
100
AcDbLine
 10
350.4700985025
 20
538.5071019613
 30
0.0
 11
356.8957076755
 21
538.5071019613
 31
0.0
  0
ELLIPSE
  5
45E
330
1F
100
AcDbEntity
  8
0
  6
Continuous
 62
     7
370
    25
100
AcDbEllipse
 10
356.8950983168
 20
539.0074067334
 30
0.0
 11
0.3539842722996127
 21
-0.3539842722996127
 31
0.0
210
0.0
220
0.0
230
1.0
 40
0.998782766
 41
5.498396131367789
 42
7.067974482991737
  0
LINE
  5
45F
330
1F
100
AcDbEntity
  8
0
  6
Continuous
 62
     7
370
    25
100
AcDbLine
 10
357.395403089
 20
548.0074065478
 30
0.0
 11
357.395403089
 21
539.0067973748
 31
0.0
  0
ELLIPSE
  5
460
330
1F
100
AcDbEntity
  8
0
  6
Continuous
 62
     7
370
    25
100
AcDbEllipse
 10
356.8950983168
 20
548.0067971891
 30
0.0
 11
-0.3539842722996695
 21
-0.3539842722996127
 31
0.0
210
0.0
220
0.0
230
1.0
 40
0.998782766
 41
2.356803477777682
 42
3.926381829401739
  0
LINE
  5
461
330
1F
100
AcDbEntity
  8
0
  6
Continuous
 62
     7
370
    25
100
AcDbLine
 10
350.4700985025
 20
548.5071019613
 30
0.0
 11
356.8957076755
 21
548.5071019613
 31
0.0
  0
ELLIPSE
  5
462
330
1F
100
AcDbEntity
  8
0
  6
Continuous
 62
     7
370
    25
100
AcDbEllipse
 10
360.8957078611
 20
548.0067971891
 30
0.0
 11
-0.3539842722996695
 21
0.3539842722996127
 31
0.0
210
0.0
220
0.0
230
1.0
 40
0.998782766
 41
5.498396131367742
 42
7.067974482991738
  0
LINE
  5
463
330
1F
100
AcDbEntity
  8
0
  6
Continuous
 62
     7
370
    25
100
AcDbLine
 10
360.395403089
 20
548.0074065478
 30
0.0
 11
360.395403089
 21
539.0067973748
 31
0.0
  0
ELLIPSE
  5
464
330
1F
100
AcDbEntity
  8
0
  6
Continuous
 62
     7
370
    25
100
AcDbEllipse
 10
360.8957078611
 20
539.0074067334
 30
0.0
 11
0.3539842722995559
 21
0.3539842722996127
 31
0.0
210
0.0
220
0.0
230
1.0
 40
0.998782766
 41
2.356803477777561
 42
3.926381829401537
  0
LINE
  5
465
330
1F
100
AcDbEntity
  8
0
  6
Continuous
 62
     7
370
    25
100
AcDbLine
 10
360.8950985025
 20
538.5071019613
 30
0.0
 11
367.3207076755
 21
538.5071019613
 31
0.0
  0
ELLIPSE
  5
466
330
1F
100
AcDbEntity
  8
0
  6
Continuous
 62
     7
370
    25
100
AcDbEllipse
 10
367.3200983168
 20
539.0074067334
 30
0.0
 11
0.3539842722995558
 21
-0.353984272299499
 31
0.0
210
0.0
220
0.0
230
1.0
 40
0.998782766
 41
5.498396131367716
 42
7.067974482991537
  0
LINE
  5
467
330
1F
100
AcDbEntity
  8
0
  6
Continuous
 62
     7
370
    25
100
AcDbLine
 10
367.820403089
 20
548.0074065478
 30
0.0
 11
367.820403089
 21
539.0067973748
 31
0.0
  0
ELLIPSE
  5
468
330
1F
100
AcDbEntity
  8
0
  6
Continuous
 62
     7
370
    25
100
AcDbEllipse
 10
367.3200983168
 20
548.0067971891
 30
0.0
 11
-0.3539842722996696
 21
-0.3539842722994991
 31
0.0
210
0.0
220
0.0
230
1.0
 40
0.998782766
 41
2.356803477777923
 42
3.926381829401932
  0
LINE
  5
469
330
1F
100
AcDbEntity
  8
0
  6
Continuous
 62
     7
370
    25
100
AcDbLine
 10
360.8950985025
 20
548.5071019613
 30
0.0
 11
367.3207076755
 21
548.5071019613
 31
0.0
  0
LINE
  5
46A
330
1F
100
AcDbEntity
  8
0
  6
Continuous
 62
     7
370
    25
100
AcDbLine
 10
284.420403089
 20
492.0071019613
 30
0.0
 11
284.420403089
 21
551.5071019613
 31
0.0
  0
LINE
  5
46B
330
1F
100
AcDbEntity
  8
0
  6
Continuous
 62
     7
370
    25
100
AcDbLine
 10
284.420403089
 20
551.5071019613
 30
0.0
 11
370.820403089
 21
551.5071019613
 31
0.0
  0
LINE
  5
46C
330
1F
100
AcDbEntity
  8
0
  6
Continuous
 62
     7
370
    25
100
AcDbLine
 10
370.820403089
 20
492.0071019613
 30
0.0
 11
370.820403089
 21
551.5071019613
 31
0.0
  0
LINE
  5
46D
330
1F
100
AcDbEntity
  8
0
  6
Continuous
 62
     7
370
    25
100
AcDbLine
 10
370.820403089
 20
492.0071019613
 30
0.0
 11
284.420403089
 21
492.0071019613
 31
0.0
  0
LINE
  5
46E
330
1F
100
AcDbEntity
  8
0
  6
Continuous
 62
     7
370
    25
100
AcDbLine
 10
304.7707076755
 20
538.5071019613
 30
0.0
 11
303.2621304334
 21
540.0156792033
 31
0.0
  0
LINE
  5
46F
330
1F
100
AcDbEntity
  8
0
  6
Continuous
 62
     7
370
    25
100
AcDbLine
 10
299.8536757445
 20
540.0156792033
 30
0.0
 11
298.3450985025
 21
538.5071019613
 31
0.0
  0
LINE
  5
470
330
1F
100
AcDbEntity
  8
0
  6
Continuous
 62
     7
370
    25
100
AcDbLine
 10
303.2621304334
 20
540.0156792033
 30
0.0
 11
299.8536757445
 21
540.0156792033
 31
0.0
  0
LINE
  5
471
330
1F
100
AcDbEntity
  8
0
  6
Continuous
 62
     7
370
    25
100
AcDbLine
 10
315.1957076755
 20
538.5071019613
 30
0.0
 11
313.6871304334
 21
540.0156792033
 31
0.0
  0
ELLIPSE
  5
472
330
1F
100
AcDbEntity
  8
0
  6
Continuous
 62
     7
370
    25
100
AcDbEllipse
 10
313.6865210748
 20
540.5159839755
 30
0.0
 11
0.3539842722996127
 21
-0.3539842722996127
 31
-7.691487518488971E-16
210
7.393500115126862E-15
220
5.220666992196788E-15
230
1.0
 40
0.998782766
 41
5.498396131367675
 42
7.067974482991055
  0
LINE
  5
473
330
1F
100
AcDbEntity
  8
0
  6
Continuous
 62
     7
370
    25
100
AcDbLine
 10
314.1868258469
 20
540.5153746168
 30
0.0
 11
315.695403089
 21
539.0067973748
 31
0.0
  0
LINE
  5
474
330
1F
100
AcDbEntity
  8
0
  6
Continuous
 62
     7
370
    25
100
AcDbLine
 10
325.4208079265
 20
539.7063925373
 30
0.0
 11
326.120403089
 21
539.0067973748
 31
0.0
  0
LINE
  5
475
330
1F
100
AcDbEntity
  8
0
  6
Continuous
 62
     7
370
    25
100
AcDbLine
 10
325.6207076755
 20
538.5071019613
 30
0.0
 11
324.9211125129
 21
539.2066971238
 31
0.0
  0
ARC
  5
476
330
1F
100
AcDbEntity
  8
0
  6
Continuous
 62
     7
370
    25
100
AcDbCircle
 10
324.9203990334
 20
539.7071060169
 30
0.0
 40
0.500409401733696
100
AcDbArc
 50
270.0816918763
 51
359.9183081237
  0
LINE
  5
477
330
1F
100
AcDbEntity
  8
0
  6
Continuous
 62
     7
370
    25
100
AcDbLine
 10
336.0457076755
 20
538.5071019613
 30
0.0
 11
334.5371304334
 21
540.0156792033
 31
0.0
  0
LINE
  5
478
330
1F
100
AcDbEntity
  8
0
  6
Continuous
 62
     7
370
    25
100
AcDbLine
 10
330.319693665
 20
539.2066971238
 30
0.0
 11
329.6200985025
 21
538.5071019613
 31
0.0
  0
LINE
  5
479
330
1F
100
AcDbEntity
  8
0
  6
Continuous
 62
     7
370
    25
100
AcDbLine
 10
330.8602243113
 20
539.2175950409
 30
0.0
 11
330.319693665
 21
539.2066971238
 31
0.0
  0
ELLIPSE
  5
47A
330
1F
100
AcDbEntity
  8
0
  6
Continuous
 62
     7
370
    25
100
AcDbEllipse
 10
330.3602243113
 20
539.2478373144
 30
0.0
 11
1.0
 21
0.0
 31
0.0
210
0.0
220
0.0
230
1.0
 40
0.0349207695
 41
5.235987755985646
 42
6.248278722140943
  0
LINE
  5
47B
330
1F
100
AcDbEntity
  8
0
  6
Continuous
 62
     7
370
    25
100
AcDbLine
 10
332.1286757445
 20
540.0156792033
 30
0.0
 11
331.3596151383
 21
539.2466185971
 31
0.0
  0
LINE
  5
47C
330
1F
100
AcDbEntity
  8
0
  6
Continuous
 62
     7
370
    25
100
AcDbLine
 10
334.5371304334
 20
540.0156792033
 30
0.0
 11
332.1286757445
 21
540.0156792033
 31
0.0
  0
LINE
  5
47D
330
1F
100
AcDbEntity
  8
0
  6
Continuous
 62
     7
370
    25
100
AcDbLine
 10
323.8811910396
 20
539.2466185971
 30
0.0
 11
323.1121304334
 21
540.0156792033
 31
0.0
  0
ELLIPSE
  5
47E
330
1F
100
AcDbEntity
  8
0
  6
Continuous
 62
     7
370
    25
100
AcDbEllipse
 10
324.8805818667
 20
539.2478373144
 30
0.0
 11
1.000000000000057
 21
0.0
 31
0.0
210
0.0
220
0.0
230
1.0
 40
0.0349207695
 41
3.176499238629241
 42
4.188790204785638
  0
LINE
  5
47F
330
1F
100
AcDbEntity
  8
0
  6
Continuous
 62
     7
370
    25
100
AcDbLine
 10
324.9211125129
 20
539.2066971238
 30
0.0
 11
324.3805818667
 21
539.2175950409
 31
0.0
  0
LINE
  5
480
330
1F
100
AcDbEntity
  8
0
  6
Continuous
 62
     7
370
    25
100
AcDbLine
 10
320.7036757445
 20
540.0156792033
 30
0.0
 11
319.1950985025
 21
538.5071019613
 31
0.0
  0
LINE
  5
481
330
1F
100
AcDbEntity
  8
0
  6
Continuous
 62
     7
370
    25
100
AcDbLine
 10
323.1121304334
 20
540.0156792033
 30
0.0
 11
320.7036757445
 21
540.0156792033
 31
0.0
  0
ELLIPSE
  5
482
330
1F
100
AcDbEntity
  8
0
  6
Continuous
 62
     7
370
    25
100
AcDbEllipse
 10
303.2615210748
 20
540.5159839755
 30
0.0
 11
0.3539842722996127
 21
-0.3539842722996127
 31
-7.691487518487962E-16
210
7.254553106019455E-15
220
5.081719983089665E-15
230
1.0
 40
0.998782766
 41
5.498396131367748
 42
7.067974482991323
  0
LINE
  5
483
330
1F
100
AcDbEntity
  8
0
  6
Continuous
 62
     7
370
    25
100
AcDbLine
 10
303.7618258469
 20
540.5153746168
 30
0.0
 11
305.270403089
 21
539.0067973748
 31
0.0
  0
LINE
  5
484
330
1F
100
AcDbEntity
  8
0
  6
Continuous
 62
     7
370
    25
100
AcDbLine
 10
329.120403089
 20
539.0067973748
 30
0.0
 11
329.8199982515
 21
539.7063925373
 31
0.0
  0
ARC
  5
485
330
1F
100
AcDbEntity
  8
0
  6
Continuous
 62
     7
370
    25
100
AcDbCircle
 10
330.3204071446
 20
539.7071060169
 30
0.0
 40
0.5004094017338098
100
AcDbArc
 50
180.0816918763
 51
269.9183081236
  0
LINE
  5
486
330
1F
100
AcDbEntity
  8
0
  6
Continuous
 62
     7
370
    25
100
AcDbLine
 10
310.2786757445
 20
540.0156792033
 30
0.0
 11
308.7700985025
 21
538.5071019613
 31
0.0
  0
LINE
  5
487
330
1F
100
AcDbEntity
  8
0
  6
Continuous
 62
     7
370
    25
100
AcDbLine
 10
313.6871304334
 20
540.0156792033
 30
0.0
 11
310.2786757445
 21
540.0156792033
 31
0.0
  0
LINE
  5
488
330
1F
100
AcDbEntity
  8
0
  6
Continuous
 62
     7
370
    25
100
AcDbLine
 10
287.420403089
 20
539.0067973748
 30
0.0
 11
288.928980331
 21
540.5153746168
 31
0.0
  0
ELLIPSE
  5
489
330
1F
100
AcDbEntity
  8
0
  6
Continuous
 62
     7
370
    25
100
AcDbEllipse
 10
289.4292851032
 20
540.5159839755
 30
0.0
 11
0.3539842722996128
 21
0.3539842722993854
 31
1.680648685046188E-15
210
-8.254157635647301E-15
220
3.506351542096095E-15
230
1.0
 40
0.998782766
 41
2.356803477778537
 42
3.926381829401819
  0
LINE
  5
48A
330
1F
100
AcDbEntity
  8
0
  6
Continuous
 62
     7
370
    25
100
AcDbLine
 10
289.4286757445
 20
540.0156792033
 30
0.0
 11
287.9200985025
 21
538.5071019613
 31
0.0
  0
LINE
  5
48B
330
1F
100
AcDbEntity
  8
0
  6
Continuous
 62
     7
370
    25
100
AcDbLine
 10
292.8371304334
 20
540.0156792033
 30
0.0
 11
289.4286757445
 21
540.0156792033
 31
0.0
  0
LINE
  5
48C
330
1F
100
AcDbEntity
  8
0
  6
Continuous
 62
     7
370
    25
100
AcDbLine
 10
294.3457076755
 20
538.5071019613
 30
0.0
 11
292.8371304334
 21
540.0156792033
 31
0.0
  0
LINE
  5
48D
330
1F
100
AcDbEntity
  8
0
  6
Continuous
 62
     7
370
    25
100
AcDbLine
 10
305.270403089
 20
548.0074065478
 30
0.0
 11
303.7618258469
 21
546.4988293057
 31
0.0
  0
ELLIPSE
  5
48E
330
1F
100
AcDbEntity
  8
0
  6
Continuous
 62
     7
370
    25
100
AcDbEllipse
 10
303.2615210748
 20
546.4982199471
 30
0.0
 11
-0.3539842722996127
 21
-0.353984272299499
 31
-1.117258397569413E-15
210
-7.630320210275881E-15
220
4.474082815007496E-15
230
1.0
 40
0.998782766
 41
2.356803477777923
 42
3.926381829401544
  0
LINE
  5
48F
330
1F
100
AcDbEntity
  8
0
  6
Continuous
 62
     7
370
    25
100
AcDbLine
 10
303.2621304334
 20
546.9985247192
 30
0.0
 11
304.7707076755
 21
548.5071019613
 31
0.0
  0
LINE
  5
490
330
1F
100
AcDbEntity
  8
0
  6
Continuous
 62
     7
370
    25
100
AcDbLine
 10
308.7700985025
 20
548.5071019613
 30
0.0
 11
310.2786757445
 21
546.9985247192
 31
0.0
  0
LINE
  5
491
330
1F
100
AcDbEntity
  8
0
  6
Continuous
 62
     7
370
    25
100
AcDbLine
 10
313.6871304334
 20
546.9985247192
 30
0.0
 11
315.1957076755
 21
548.5071019613
 31
0.0
  0
LINE
  5
492
330
1F
100
AcDbEntity
  8
0
  6
Continuous
 62
     7
370
    25
100
AcDbLine
 10
313.6871304334
 20
546.9985247192
 30
0.0
 11
310.2786757445
 21
546.9985247192
 31
0.0
  0
LINE
  5
493
330
1F
100
AcDbEntity
  8
0
  6
Continuous
 62
     7
370
    25
100
AcDbLine
 10
329.6200985025
 20
548.5071019613
 30
0.0
 11
330.319693665
 21
547.8075067988
 31
0.0
  0
ARC
  5
494
330
1F
100
AcDbEntity
  8
0
  6
Continuous
 62
     7
370
    25
100
AcDbCircle
 10
330.3204071446
 20
547.3070979057
 30
0.0
 40
0.500409401733639
100
AcDbArc
 50
90.0816918763
 51
179.9183081237
  0
LINE
  5
495
330
1F
100
AcDbEntity
  8
0
  6
Continuous
 62
     7
370
    25
100
AcDbLine
 10
329.8199982515
 20
547.3078113852
 30
0.0
 11
329.120403089
 21
548.0074065478
 31
0.0
  0
LINE
  5
496
330
1F
100
AcDbEntity
  8
0
  6
Continuous
 62
     7
370
    25
100
AcDbLine
 10
324.9211125129
 20
547.8075067988
 30
0.0
 11
325.6207076755
 21
548.5071019613
 31
0.0
  0
LINE
  5
497
330
1F
100
AcDbEntity
  8
0
  6
Continuous
 62
     7
370
    25
100
AcDbLine
 10
324.3805818667
 20
547.7966088817
 30
0.0
 11
324.9211125129
 21
547.8075067988
 31
0.0
  0
ELLIPSE
  5
498
330
1F
100
AcDbEntity
  8
0
  6
Continuous
 62
     7
370
    25
100
AcDbEllipse
 10
324.8805818667
 20
547.7663666082
 30
0.0
 11
1.000000000000057
 21
0.0
 31
0.0
210
0.0
220
0.0
230
1.0
 40
0.0349207695
 41
2.094395102389385
 42
3.106686068550631
  0
LINE
  5
499
330
1F
100
AcDbEntity
  8
0
  6
Continuous
 62
     7
370
    25
100
AcDbLine
 10
323.1121304334
 20
546.9985247192
 30
0.0
 11
323.8811910396
 21
547.7675853254
 31
0.0
  0
LINE
  5
49A
330
1F
100
AcDbEntity
  8
0
  6
Continuous
 62
     7
370
    25
100
AcDbLine
 10
323.1121304334
 20
546.9985247192
 30
0.0
 11
320.7036757445
 21
546.9985247192
 31
0.0
  0
LINE
  5
49B
330
1F
100
AcDbEntity
  8
0
  6
Continuous
 62
     7
370
    25
100
AcDbLine
 10
319.1950985025
 20
548.5071019613
 30
0.0
 11
320.7036757445
 21
546.9985247192
 31
0.0
  0
LINE
  5
49C
330
1F
100
AcDbEntity
  8
0
  6
Continuous
 62
     7
370
    25
100
AcDbLine
 10
326.120403089
 20
548.0074065478
 30
0.0
 11
325.4208079265
 21
547.3078113852
 31
0.0
  0
ARC
  5
49D
330
1F
100
AcDbEntity
  8
0
  6
Continuous
 62
     7
370
    25
100
AcDbCircle
 10
324.9203990334
 20
547.3070979057
 30
0.0
 40
0.5004094017337531
100
AcDbArc
 50
0.0816918763
 51
89.9183081236
  0
LINE
  5
49E
330
1F
100
AcDbEntity
  8
0
  6
Continuous
 62
     7
370
    25
100
AcDbLine
 10
303.2621304334
 20
546.9985247192
 30
0.0
 11
299.8536757445
 21
546.9985247192
 31
0.0
  0
LINE
  5
49F
330
1F
100
AcDbEntity
  8
0
  6
Continuous
 62
     7
370
    25
100
AcDbLine
 10
298.3450985025
 20
548.5071019613
 30
0.0
 11
299.8536757445
 21
546.9985247192
 31
0.0
  0
LINE
  5
4A0
330
1F
100
AcDbEntity
  8
0
  6
Continuous
 62
     7
370
    25
100
AcDbLine
 10
315.695403089
 20
548.0074065478
 30
0.0
 11
314.1868258469
 21
546.4988293057
 31
0.0
  0
ELLIPSE
  5
4A1
330
1F
100
AcDbEntity
  8
0
  6
Continuous
 62
     7
370
    25
100
AcDbEllipse
 10
313.6865210748
 20
546.4982199471
 30
0.0
 11
-0.3539842722996127
 21
-0.3539842722996127
 31
-1.117258397569514E-15
210
-7.491373201167745E-15
220
4.335135805897639E-15
230
1.0
 40
0.998782766
 41
2.356803477777804
 42
3.926381829401684
  0
LINE
  5
4A2
330
1F
100
AcDbEntity
  8
0
  6
Continuous
 62
     7
370
    25
100
AcDbLine
 10
331.3596151383
 20
547.7675853254
 30
0.0
 11
332.1286757445
 21
546.9985247192
 31
0.0
  0
ELLIPSE
  5
4A3
330
1F
100
AcDbEntity
  8
0
  6
Continuous
 62
     7
370
    25
100
AcDbEllipse
 10
330.3602243113
 20
547.7663666082
 30
0.0
 11
1.0
 21
0.0
 31
0.0
210
0.0
220
0.0
230
1.0
 40
0.0349207695
 41
0.034906585039157
 42
1.047197551198707
  0
LINE
  5
4A4
330
1F
100
AcDbEntity
  8
0
  6
Continuous
 62
     7
370
    25
100
AcDbLine
 10
330.319693665
 20
547.8075067988
 30
0.0
 11
330.8602243113
 21
547.7966088817
 31
0.0
  0
LINE
  5
4A5
330
1F
100
AcDbEntity
  8
0
  6
Continuous
 62
     7
370
    25
100
AcDbLine
 10
334.5371304334
 20
546.9985247192
 30
0.0
 11
336.0457076755
 21
548.5071019613
 31
0.0
  0
LINE
  5
4A6
330
1F
100
AcDbEntity
  8
0
  6
Continuous
 62
     7
370
    25
100
AcDbLine
 10
334.5371304334
 20
546.9985247192
 30
0.0
 11
332.1286757445
 21
546.9985247192
 31
0.0
  0
LINE
  5
4A7
330
1F
100
AcDbEntity
  8
0
  6
Continuous
 62
     7
370
    25
100
AcDbLine
 10
320.203980331
 20
546.4988293057
 30
0.0
 11
318.695403089
 21
548.0074065478
 31
0.0
  0
LINE
  5
4A8
330
1F
100
AcDbEntity
  8
0
  6
Continuous
 62
     7
370
    25
100
AcDbLine
 10
320.203980331
 20
546.4988293057
 30
0.0
 11
320.203980331
 21
540.5153746168
 31
0.0
  0
LINE
  5
4A9
330
1F
100
AcDbEntity
  8
0
  6
Continuous
 62
     7
370
    25
100
AcDbLine
 10
318.695403089
 20
539.0067973748
 30
0.0
 11
320.203980331
 21
540.5153746168
 31
0.0
  0
LINE
  5
4AA
330
1F
100
AcDbEntity
  8
0
  6
Continuous
 62
     7
370
    25
100
AcDbLine
 10
325.4208079265
 20
547.3078113852
 30
0.0
 11
325.4208079265
 21
539.7063925373
 31
0.0
  0
LINE
  5
4AB
330
1F
100
AcDbEntity
  8
0
  6
Continuous
 62
     7
370
    25
100
AcDbLine
 10
308.270403089
 20
539.0067973748
 30
0.0
 11
309.778980331
 21
540.5153746168
 31
0.0
  0
LINE
  5
4AC
330
1F
100
AcDbEntity
  8
0
  6
Continuous
 62
     7
370
    25
100
AcDbLine
 10
309.778980331
 20
546.4988293057
 30
0.0
 11
308.270403089
 21
548.0074065478
 31
0.0
  0
LINE
  5
4AD
330
1F
100
AcDbEntity
  8
0
  6
Continuous
 62
     7
370
    25
100
AcDbLine
 10
309.778980331
 20
546.4988293057
 30
0.0
 11
309.778980331
 21
540.5153746168
 31
0.0
  0
LINE
  5
4AE
330
1F
100
AcDbEntity
  8
0
  6
Continuous
 62
     7
370
    25
100
AcDbLine
 10
329.8199982515
 20
539.7063925373
 30
0.0
 11
329.8199982515
 21
547.3078113852
 31
0.0
  0
LINE
  5
4AF
330
1F
100
AcDbEntity
  8
0
  6
Continuous
 62
     7
370
    25
100
AcDbLine
 10
287.9200985025
 20
548.5071019613
 30
0.0
 11
289.4286757445
 21
546.9985247192
 31
0.0
  0
LINE
  5
4B0
330
1F
100
AcDbEntity
  8
0
  6
Continuous
 62
     7
370
    25
100
AcDbLine
 10
292.8371304334
 20
546.9985247192
 30
0.0
 11
294.3457076755
 21
548.5071019613
 31
0.0
  0
LINE
  5
4B1
330
1F
100
AcDbEntity
  8
0
  6
Continuous
 62
     7
370
    25
100
AcDbLine
 10
292.8371304334
 20
546.9985247192
 30
0.0
 11
289.4286757445
 21
546.9985247192
 31
0.0
  0
ELLIPSE
  5
4B2
330
1F
100
AcDbEntity
  8
0
  6
Continuous
 62
     7
370
    25
100
AcDbEllipse
 10
289.4292851032
 20
546.4982199471
 30
0.0
 11
-0.3539842722996696
 21
0.3539842722994991
 31
2.057584643724256E-16
210
6.630715680646192E-15
220
6.049451256001904E-15
230
1.0
 40
0.998782766
 41
5.498396131367669
 42
7.067974482991149
  0
LINE
  5
4B3
330
1F
100
AcDbEntity
  8
0
  6
Continuous
 62
     7
370
    25
100
AcDbLine
 10
288.928980331
 20
546.4988293057
 30
0.0
 11
287.420403089
 21
548.0074065478
 31
0.0
  0
LINE
  5
4B4
330
1F
100
AcDbEntity
  8
0
  6
Continuous
 62
     7
370
    25
100
AcDbLine
 10
297.845403089
 20
539.0067973748
 30
0.0
 11
299.353980331
 21
540.5153746168
 31
0.0
  0
ELLIPSE
  5
4B5
330
1F
100
AcDbEntity
  8
0
  6
Continuous
 62
     7
370
    25
100
AcDbEllipse
 10
299.8542851032
 20
540.5159839755
 30
0.0
 11
0.3539842722996695
 21
0.3539842722993852
 31
1.117258397569514E-15
210
-7.678951663462927E-15
220
4.522714268196958E-15
230
1.0
 40
0.998782766
 41
2.356803477778578
 42
3.926381829401939
  0
LINE
  5
4B6
330
1F
100
AcDbEntity
  8
0
  6
Continuous
 62
     7
370
    25
100
AcDbLine
 10
293.3368258469
 20
540.5153746168
 30
0.0
 11
294.845403089
 21
539.0067973748
 31
0.0
  0
ELLIPSE
  5
4B7
330
1F
100
AcDbEntity
  8
0
  6
Continuous
 62
     7
370
    25
100
AcDbEllipse
 10
292.8365210748
 20
540.5159839755
 30
0.0
 11
-0.3539842722996128
 21
0.3539842722993854
 31
7.691487518487963E-16
210
1.086416561465592E-15
220
-1.086416561464894E-15
230
1.0
 40
0.998782766
 41
2.356803477777895
 42
3.926381829401063
  0
ELLIPSE
  5
4B8
330
1F
100
AcDbEntity
  8
0
  6
Continuous
 62
     7
370
    25
100
AcDbEllipse
 10
310.2792851032
 20
540.5159839755
 30
0.0
 11
0.3539842722996128
 21
0.3539842722993854
 31
1.117258397569413E-15
210
-7.541741491969917E-15
220
4.385504096702912E-15
230
1.0
 40
0.998782766
 41
2.356803477778537
 42
3.926381829402046
  0
ELLIPSE
  5
4B9
330
1F
100
AcDbEntity
  8
0
  6
Continuous
 62
     7
370
    25
100
AcDbEllipse
 10
320.7042851032
 20
540.5159839755
 30
0.0
 11
0.3539842722996695
 21
0.3539842722996127
 31
1.117258397569514E-15
210
-7.738004142333563E-15
220
4.581766747064698E-15
230
1.0
 40
0.998782766
 41
2.356803477778029
 42
3.926381829401845
  0
ELLIPSE
  5
4BA
330
1F
100
AcDbEntity
  8
0
  6
Continuous
 62
     7
370
    25
100
AcDbEllipse
 10
320.7042851032
 20
546.4982199471
 30
0.0
 11
-0.3539842722995559
 21
0.3539842722993853
 31
7.691487518488972E-16
210
7.146869173959714E-15
220
4.974036051031689E-15
230
1.0
 40
0.998782766
 41
5.498396131367562
 42
7.067974482991255
  0
ELLIPSE
  5
4BB
330
1F
100
AcDbEntity
  8
0
  6
Continuous
 62
     7
370
    25
100
AcDbEllipse
 10
310.2792851032
 20
546.4982199471
 30
0.0
 11
-0.3539842722996127
 21
0.353984272299499
 31
7.691487518487962E-16
210
7.343131824324357E-15
220
5.170298701396228E-15
230
1.0
 40
0.998782766
 41
5.498396131367523
 42
7.067974482991456
  0
LINE
  5
4BC
330
1F
100
AcDbEntity
  8
0
  6
Continuous
 62
     7
370
    25
100
AcDbLine
 10
294.845403089
 20
548.0074065478
 30
0.0
 11
293.3368258469
 21
546.4988293057
 31
0.0
  0
ELLIPSE
  5
4BD
330
1F
100
AcDbEntity
  8
0
  6
Continuous
 62
     7
370
    25
100
AcDbEllipse
 10
292.8365210748
 20
546.4982199471
 30
0.0
 11
0.3539842722996696
 21
0.3539842722994991
 31
1.117258397569413E-15
210
-1.578118697635417E-15
220
-1.578118697634658E-15
230
1.0
 40
0.998782766
 41
5.498396131367996
 42
7.067974482991444
  0
ELLIPSE
  5
4BE
330
1F
100
AcDbEntity
  8
0
  6
Continuous
 62
     7
370
    25
100
AcDbEllipse
 10
299.8542851032
 20
546.4982199471
 30
0.0
 11
-0.3539842722996127
 21
0.353984272299499
 31
7.691487518488972E-16
210
7.205921652830583E-15
220
5.033088529902125E-15
230
1.0
 40
0.998782766
 41
5.498396131367636
 42
7.067974482991456
  0
LINE
  5
4BF
330
1F
100
AcDbEntity
  8
0
  6
Continuous
 62
     7
370
    25
100
AcDbLine
 10
299.353980331
 20
546.4988293057
 30
0.0
 11
297.845403089
 21
548.0074065478
 31
0.0
  0
LINE
  5
4C0
330
1F
100
AcDbEntity
  8
0
  6
Continuous
 62
     7
370
    25
100
AcDbLine
 10
299.353980331
 20
546.4988293057
 30
0.0
 11
299.353980331
 21
540.5153746168
 31
0.0
  0
LINE
  5
4C1
330
1F
100
AcDbEntity
  8
0
  6
Continuous
 62
     7
370
    25
100
AcDbLine
 10
314.1868258469
 20
546.4988293057
 30
0.0
 11
314.1868258469
 21
540.5153746168
 31
0.0
  0
LINE
  5
4C2
330
1F
100
AcDbEntity
  8
0
  6
Continuous
 62
     7
370
    25
100
AcDbLine
 10
303.7618258469
 20
546.4988293057
 30
0.0
 11
303.7618258469
 21
540.5153746168
 31
0.0
  0
LINE
  5
4C3
330
1F
100
AcDbEntity
  8
0
  6
Continuous
 62
     7
370
    25
100
AcDbLine
 10
293.3368258469
 20
546.4988293057
 30
0.0
 11
293.3368258469
 21
540.5153746168
 31
0.0
  0
LINE
  5
4C4
330
1F
100
AcDbEntity
  8
0
  6
Continuous
 62
     7
370
    25
100
AcDbLine
 10
288.928980331
 20
546.4988293057
 30
0.0
 11
288.928980331
 21
540.5153746168
 31
0.0
  0
LINE
  5
4C5
330
1F
100
AcDbEntity
  8
0
  6
Continuous
 62
     7
370
    25
100
AcDbLine
 10
367.3207076755
 20
538.5071019613
 30
0.0
 11
365.8121304334
 21
540.0156792033
 31
0.0
  0
ELLIPSE
  5
4C6
330
1F
100
AcDbEntity
  8
0
  6
Continuous
 62
     7
370
    25
100
AcDbEllipse
 10
365.8115210748
 20
540.5159839755
 30
0.0
 11
0.3539842722996127
 21
-0.3539842722996127
 31
-1.332539039325571E-15
210
7.888811557073972E-15
220
4.124409735860547E-15
230
1.0
 40
0.998782766
 41
5.498396131367748
 42
7.067974482991323
  0
LINE
  5
4C7
330
1F
100
AcDbEntity
  8
0
  6
Continuous
 62
     7
370
    25
100
AcDbLine
 10
366.3118258469
 20
540.5153746168
 30
0.0
 11
367.820403089
 21
539.0067973748
 31
0.0
  0
LINE
  5
4C8
330
1F
100
AcDbEntity
  8
0
  6
Continuous
 62
     7
370
    25
100
AcDbLine
 10
367.820403089
 20
548.0074065478
 30
0.0
 11
366.3118258469
 21
546.4988293057
 31
0.0
  0
LINE
  5
4C9
330
1F
100
AcDbEntity
  8
0
  6
Continuous
 62
     7
370
    25
100
AcDbLine
 10
366.3118258469
 20
546.4988293057
 30
0.0
 11
366.3118258469
 21
540.5153746168
 31
0.0
  0
LINE
  5
4CA
330
1F
100
AcDbEntity
  8
0
  6
Continuous
 62
     7
370
    25
100
AcDbLine
 10
360.395403089
 20
539.0067973748
 30
0.0
 11
361.903980331
 21
540.5153746168
 31
0.0
  0
ELLIPSE
  5
4CB
330
1F
100
AcDbEntity
  8
0
  6
Continuous
 62
     7
370
    25
100
AcDbEllipse
 10
362.4042851032
 20
540.5159839755
 30
0.0
 11
0.3539842722996696
 21
0.3539842722994991
 31
1.117258397569514E-15
210
-7.817898672571054E-15
220
4.661661277303699E-15
230
1.0
 40
0.998782766
 41
2.356803477778337
 42
3.926381829401858
  0
LINE
  5
4CC
330
1F
100
AcDbEntity
  8
0
  6
Continuous
 62
     7
370
    25
100
AcDbLine
 10
362.4036757445
 20
540.0156792033
 30
0.0
 11
360.8950985025
 21
538.5071019613
 31
0.0
  0
LINE
  5
4CD
330
1F
100
AcDbEntity
  8
0
  6
Continuous
 62
     7
370
    25
100
AcDbLine
 10
365.8121304334
 20
540.0156792033
 30
0.0
 11
362.4036757445
 21
540.0156792033
 31
0.0
  0
LINE
  5
4CE
330
1F
100
AcDbEntity
  8
0
  6
Continuous
 62
     7
370
    25
100
AcDbLine
 10
346.4707076755
 20
538.5071019613
 30
0.0
 11
344.9621304334
 21
540.0156792033
 31
0.0
  0
ELLIPSE
  5
4CF
330
1F
100
AcDbEntity
  8
0
  6
Continuous
 62
     7
370
    25
100
AcDbEllipse
 10
344.9615210748
 20
540.5159839755
 30
0.0
 11
0.3539842722996696
 21
-0.3539842722994991
 31
-7.691487518487962E-16
210
7.176395413395778E-15
220
5.003562290468747E-15
230
1.0
 40
0.998782766
 41
5.498396131367662
 42
7.067974482991043
  0
LINE
  5
4D0
330
1F
100
AcDbEntity
  8
0
  6
Continuous
 62
     7
370
    25
100
AcDbLine
 10
345.4618258469
 20
540.5153746168
 30
0.0
 11
346.970403089
 21
539.0067973748
 31
0.0
  0
LINE
  5
4D1
330
1F
100
AcDbEntity
  8
0
  6
Continuous
 62
     7
370
    25
100
AcDbLine
 10
339.545403089
 20
539.0067973748
 30
0.0
 11
341.053980331
 21
540.5153746168
 31
0.0
  0
ELLIPSE
  5
4D2
330
1F
100
AcDbEntity
  8
0
  6
Continuous
 62
     7
370
    25
100
AcDbEllipse
 10
341.5542851032
 20
540.5159839755
 30
0.0
 11
0.3539842722996696
 21
0.3539842722994991
 31
1.117258397569514E-15
210
-7.758846193700405E-15
220
4.602608798433020E-15
230
1.0
 40
0.998782766
 41
2.356803477778337
 42
3.926381829402086
  0
LINE
  5
4D3
330
1F
100
AcDbEntity
  8
0
  6
Continuous
 62
     7
370
    25
100
AcDbLine
 10
341.5536757445
 20
540.0156792033
 30
0.0
 11
340.0450985025
 21
538.5071019613
 31
0.0
  0
LINE
  5
4D4
330
1F
100
AcDbEntity
  8
0
  6
Continuous
 62
     7
370
    25
100
AcDbLine
 10
344.9621304334
 20
540.0156792033
 30
0.0
 11
341.5536757445
 21
540.0156792033
 31
0.0
  0
LINE
  5
4D5
330
1F
100
AcDbEntity
  8
0
  6
Continuous
 62
     7
370
    25
100
AcDbLine
 10
356.8957076755
 20
538.5071019613
 30
0.0
 11
355.6515358208
 21
539.7512738159
 31
0.0
  0
LINE
  5
4D6
330
1F
100
AcDbEntity
  8
0
  6
Continuous
 62
     7
370
    25
100
AcDbLine
 10
351.7043303578
 20
539.7413338166
 30
0.0
 11
350.4700985025
 21
538.5071019613
 31
0.0
  0
ELLIPSE
  5
4D7
330
1F
100
AcDbEntity
  8
0
  6
Continuous
 62
     7
370
    25
100
AcDbEllipse
 10
353.120403089
 20
540.016288562
 30
0.0
 11
8.0
 21
0.0
 31
0.0
210
0.0
220
0.0
230
1.0
 40
0.0349207695
 41
4.534442259851514
 42
5.034312226952006
  0
LINE
  5
4D8
330
1F
100
AcDbEntity
  8
0
  6
Continuous
 62
     7
370
    25
100
AcDbLine
 10
349.970403089
 20
539.0067973748
 30
0.0
 11
351.2046349443
 21
540.2410292301
 31
0.0
  0
ARC
  5
4D9
330
1F
100
AcDbEntity
  8
0
  6
Continuous
 62
     7
370
    25
100
AcDbCircle
 10
351.7050438373
 20
540.2417427096
 30
0.0
 40
0.5004094017334115
100
AcDbArc
 50
180.0816918763
 51
269.9183081237
  0
ELLIPSE
  5
4DA
330
1F
100
AcDbEntity
  8
0
  6
Continuous
 62
     7
370
    25
100
AcDbEllipse
 10
334.5365210748
 20
540.5159839755
 30
0.0
 11
0.3539842722996695
 21
-0.3539842722996127
 31
-7.691487518488972E-16
210
7.372658063760756E-15
220
5.199824940831864E-15
230
1.0
 40
0.998782766
 41
5.498396131367628
 42
7.067974482991283
  0
LINE
  5
4DB
330
1F
100
AcDbEntity
  8
0
  6
Continuous
 62
     7
370
    25
100
AcDbLine
 10
335.0368258469
 20
540.5153746168
 30
0.0
 11
336.545403089
 21
539.0067973748
 31
0.0
  0
LINE
  5
4DC
330
1F
100
AcDbEntity
  8
0
  6
Continuous
 62
     7
370
    25
100
AcDbLine
 10
365.8121304334
 20
546.9985247192
 30
0.0
 11
367.3207076755
 21
548.5071019613
 31
0.0
  0
LINE
  5
4DD
330
1F
100
AcDbEntity
  8
0
  6
Continuous
 62
     7
370
    25
100
AcDbLine
 10
365.8121304334
 20
546.9985247192
 30
0.0
 11
362.4036757445
 21
546.9985247192
 31
0.0
  0
LINE
  5
4DE
330
1F
100
AcDbEntity
  8
0
  6
Continuous
 62
     7
370
    25
100
AcDbLine
 10
360.8950985025
 20
548.5071019613
 30
0.0
 11
362.4036757445
 21
546.9985247192
 31
0.0
  0
ELLIPSE
  5
4DF
330
1F
100
AcDbEntity
  8
0
  6
Continuous
 62
     7
370
    25
100
AcDbEllipse
 10
362.4042851032
 20
546.4982199471
 30
0.0
 11
-0.3539842722996128
 21
0.3539842722993854
 31
7.691487518488974E-16
210
7.066974643722411E-15
220
4.894141520795480E-15
230
1.0
 40
0.998782766
 41
5.498396131367669
 42
7.067974482991216
  0
LINE
  5
4E0
330
1F
100
AcDbEntity
  8
0
  6
Continuous
 62
     7
370
    25
100
AcDbLine
 10
361.903980331
 20
546.4988293057
 30
0.0
 11
360.395403089
 21
548.0074065478
 31
0.0
  0
LINE
  5
4E1
330
1F
100
AcDbEntity
  8
0
  6
Continuous
 62
     7
370
    25
100
AcDbLine
 10
346.970403089
 20
548.0074065478
 30
0.0
 11
345.4618258469
 21
546.4988293057
 31
0.0
  0
ELLIPSE
  5
4E2
330
1F
100
AcDbEntity
  8
0
  6
Continuous
 62
     7
370
    25
100
AcDbEllipse
 10
344.9615210748
 20
546.4982199471
 30
0.0
 11
-0.3539842722996127
 21
-0.3539842722996127
 31
-1.117258397569413E-15
210
-7.708477902899454E-15
220
4.552240507629632E-15
230
1.0
 40
0.998782766
 41
2.356803477777682
 42
3.926381829401464
  0
LINE
  5
4E3
330
1F
100
AcDbEntity
  8
0
  6
Continuous
 62
     7
370
    25
100
AcDbLine
 10
344.9621304334
 20
546.9985247192
 30
0.0
 11
346.4707076755
 21
548.5071019613
 31
0.0
  0
LINE
  5
4E4
330
1F
100
AcDbEntity
  8
0
  6
Continuous
 62
     7
370
    25
100
AcDbLine
 10
340.0450985025
 20
548.5071019613
 30
0.0
 11
341.5536757445
 21
546.9985247192
 31
0.0
  0
LINE
  5
4E5
330
1F
100
AcDbEntity
  8
0
  6
Continuous
 62
     7
370
    25
100
AcDbLine
 10
344.9621304334
 20
546.9985247192
 30
0.0
 11
341.5536757445
 21
546.9985247192
 31
0.0
  0
LINE
  5
4E6
330
1F
100
AcDbEntity
  8
0
  6
Continuous
 62
     7
370
    25
100
AcDbLine
 10
336.545403089
 20
548.0074065478
 30
0.0
 11
335.0368258469
 21
546.4988293057
 31
0.0
  0
ELLIPSE
  5
4E7
330
1F
100
AcDbEntity
  8
0
  6
Continuous
 62
     7
370
    25
100
AcDbEllipse
 10
334.5365210748
 20
546.4982199471
 30
0.0
 11
-0.3539842722996127
 21
-0.3539842722996127
 31
-1.117258397569514E-15
210
-7.512215252535149E-15
220
4.355977857265044E-15
230
1.0
 40
0.998782766
 41
2.356803477777682
 42
3.926381829401577
  0
LINE
  5
4E8
330
1F
100
AcDbEntity
  8
0
  6
Continuous
 62
     7
370
    25
100
AcDbLine
 10
355.6515358208
 20
547.2629301066
 30
0.0
 11
356.8957076755
 21
548.5071019613
 31
0.0
  0
ELLIPSE
  5
4E9
330
1F
100
AcDbEntity
  8
0
  6
Continuous
 62
     7
370
    25
100
AcDbEllipse
 10
353.120403089
 20
546.9979153606
 30
0.0
 11
8.0
 21
0.0
 31
0.0
210
0.0
220
0.0
230
1.0
 40
0.0349207695
 41
1.248873080227756
 42
1.748743047328011
  0
LINE
  5
4EA
330
1F
100
AcDbEntity
  8
0
  6
Continuous
 62
     7
370
    25
100
AcDbLine
 10
350.4700985025
 20
548.5071019613
 30
0.0
 11
351.7043303578
 21
547.272870106
 31
0.0
  0
ARC
  5
4EB
330
1F
100
AcDbEntity
  8
0
  6
Continuous
 62
     7
370
    25
100
AcDbCircle
 10
351.7050438373
 20
546.7724612129
 30
0.0
 40
0.5004094017337528
100
AcDbArc
 50
90.0816918763
 51
179.9183081237
  0
LINE
  5
4EC
330
1F
100
AcDbEntity
  8
0
  6
Continuous
 62
     7
370
    25
100
AcDbLine
 10
351.2046349443
 20
546.7731746925
 30
0.0
 11
349.970403089
 21
548.0074065478
 31
0.0
  0
ELLIPSE
  5
4ED
330
1F
100
AcDbEntity
  8
0
  6
Continuous
 62
     7
370
    25
100
AcDbEllipse
 10
341.5542851032
 20
546.4982199471
 30
0.0
 11
-0.3539842722996696
 21
0.3539842722994991
 31
7.691487518488972E-16
210
7.126027122593269E-15
220
4.953193999665928E-15
230
1.0
 40
0.998782766
 41
5.498396131367515
 42
7.067974482991416
  0
LINE
  5
4EE
330
1F
100
AcDbEntity
  8
0
  6
Continuous
 62
     7
370
    25
100
AcDbLine
 10
341.053980331
 20
546.4988293057
 30
0.0
 11
339.545403089
 21
548.0074065478
 31
0.0
  0
LINE
  5
4EF
330
1F
100
AcDbEntity
  8
0
  6
Continuous
 62
     7
370
    25
100
AcDbLine
 10
357.395403089
 20
548.0074065478
 30
0.0
 11
356.1512312343
 21
546.7632346931
 31
0.0
  0
LINE
  5
4F0
330
1F
100
AcDbEntity
  8
0
  6
Continuous
 62
     7
370
    25
100
AcDbLine
 10
356.1512312343
 20
540.2509692294
 30
0.0
 11
357.395403089
 21
539.0067973748
 31
0.0
  0
LINE
  5
4F1
330
1F
100
AcDbEntity
  8
0
  6
Continuous
 62
     7
370
    25
100
AcDbLine
 10
356.1512312343
 20
546.7632346931
 30
0.0
 11
356.1512312343
 21
540.2509692294
 31
0.0
  0
ARC
  5
4F2
330
1F
100
AcDbEntity
  8
0
  6
Continuous
 62
     7
370
    25
100
AcDbCircle
 10
355.6508223412
 20
540.251682709
 30
0.0
 40
0.5004094017335253
100
AcDbArc
 50
270.0816918763
 51
359.9183081237
  0
LINE
  5
4F3
330
1F
100
AcDbEntity
  8
0
  6
Continuous
 62
     7
370
    25
100
AcDbLine
 10
335.0368258469
 20
546.4988293057
 30
0.0
 11
335.0368258469
 21
540.5153746168
 31
0.0
  0
LINE
  5
4F4
330
1F
100
AcDbEntity
  8
0
  6
Continuous
 62
     7
370
    25
100
AcDbLine
 10
341.053980331
 20
546.4988293057
 30
0.0
 11
341.053980331
 21
540.5153746168
 31
0.0
  0
ELLIPSE
  5
4F5
330
1F
100
AcDbEntity
  8
0
  6
Continuous
 62
     7
370
    25
100
AcDbEllipse
 10
365.8115210748
 20
546.4982199471
 30
0.0
 11
-0.3539842722996127
 21
-0.353984272299499
 31
-5.538681100930422E-16
210
-6.996061759222195E-15
220
5.431393062236613E-15
230
1.0
 40
0.998782766
 41
2.35680347777815
 42
3.926381829401658
  0
LINE
  5
4F6
330
1F
100
AcDbEntity
  8
0
  6
Continuous
 62
     7
370
    25
100
AcDbLine
 10
345.4618258469
 20
546.4988293057
 30
0.0
 11
345.4618258469
 21
540.5153746168
 31
0.0
  0
ARC
  5
4F7
330
1F
100
AcDbEntity
  8
0
  6
Continuous
 62
     7
370
    25
100
AcDbCircle
 10
355.6508223412
 20
546.7625212135
 30
0.0
 40
0.5004094017336392
100
AcDbArc
 50
0.0816918763
 51
89.9183081237
  0
LINE
  5
4F8
330
1F
100
AcDbEntity
  8
0
  6
Continuous
 62
     7
370
    25
100
AcDbLine
 10
361.903980331
 20
546.4988293057
 30
0.0
 11
361.903980331
 21
540.5153746168
 31
0.0
  0
LINE
  5
4F9
330
1F
100
AcDbEntity
  8
0
  6
Continuous
 62
     7
370
    25
100
AcDbLine
 10
351.2046349443
 20
540.2410292301
 30
0.0
 11
351.2046349443
 21
546.7731746925
 31
0.0
  0
LINE
  5
4FA
330
1F
100
AcDbEntity
  8
0
  6
Continuous
 62
     7
370
    25
100
AcDbLine
 10
325.1711125129
 20
539.7063925373
 30
0.0
 11
325.1711125129
 21
547.3078113852
 31
0.0
  0
LINE
  5
4FB
330
1F
100
AcDbEntity
  8
0
  6
Continuous
 62
     7
370
    25
100
AcDbLine
 10
325.1711125129
 20
547.3078113852
 30
0.0
 11
325.4208079265
 21
547.3078113852
 31
0.0
  0
LINE
  5
4FC
330
1F
100
AcDbEntity
  8
0
  6
Continuous
 62
     7
370
    25
100
AcDbLine
 10
325.1711125129
 20
539.7063925373
 30
0.0
 11
325.4208079265
 21
539.7063925373
 31
0.0
  0
LINE
  5
4FD
330
1F
100
AcDbEntity
  8
0
  6
Continuous
 62
     7
370
    25
100
AcDbLine
 10
329.8199982515
 20
547.3078113852
 30
0.0
 11
330.069693665
 21
547.3078113852
 31
0.0
  0
LINE
  5
4FE
330
1F
100
AcDbEntity
  8
0
  6
Continuous
 62
     7
370
    25
100
AcDbLine
 10
330.069693665
 20
547.3078113852
 30
0.0
 11
330.069693665
 21
539.7063925373
 31
0.0
  0
LINE
  5
4FF
330
1F
100
AcDbEntity
  8
0
  6
Continuous
 62
     7
370
    25
100
AcDbLine
 10
329.8199982515
 20
539.7063925373
 30
0.0
 11
330.069693665
 21
539.7063925373
 31
0.0
  0
LWPOLYLINE
  5
500
330
1F
100
AcDbEntity
  8
0
  6
Continuous
 62
     7
370
    25
100
AcDbPolyline
 90
        9
 70
   128
 43
0.0
 10
325.1711125129
 20
547.3078113852
 10
325.1650446285
 20
547.4034882947
 10
325.149958787
 20
547.4956281125
 10
325.1264126987
 20
547.5808245099
 10
325.0952768419
 20
547.6559278508
 10
325.0577022821
 20
547.7181616301
 10
325.0150781179
 20
547.7652251194
 10
324.9689801273
 20
547.7953784227
 10
324.9211125129
 20
547.8075067988
  0
LWPOLYLINE
  5
501
330
1F
100
AcDbEntity
  8
0
  6
Continuous
 62
     7
370
    25
100
AcDbPolyline
 90
        9
 70
   128
 43
0.0
 10
324.9211125129
 20
539.2066971238
 10
324.9689801273
 20
539.2188254998
 10
325.0150781179
 20
539.2489788031
 10
325.0577022821
 20
539.2960422925
 10
325.0952768419
 20
539.3582760718
 10
325.1264126987
 20
539.4333794126
 10
325.149958787
 20
539.5185758101
 10
325.1650446285
 20
539.6107156278
 10
325.1711125129
 20
539.7063925373
  0
LWPOLYLINE
  5
502
330
1F
100
AcDbEntity
  8
0
  6
Continuous
 62
     7
370
    25
100
AcDbPolyline
 90
        9
 70
   128
 43
0.0
 10
330.8602243113
 20
547.7966088817
 10
330.8123566969
 20
547.7844805056
 10
330.7662587064
 20
547.7543272023
 10
330.7236345422
 20
547.707263713
 10
330.6860599823
 20
547.6450299337
 10
330.6549241256
 20
547.5699265928
 10
330.6313780372
 20
547.4847301954
 10
330.6162921957
 20
547.3925903776
 10
330.6102243113
 20
547.2969134682
  0
LINE
  5
503
330
1F
100
AcDbEntity
  8
0
  6
Continuous
 62
     7
370
    25
100
AcDbLine
 10
330.6102243113
 20
547.2969134682
 30
0.0
 11
330.069693665
 21
547.3078113852
 31
0.0
  0
LWPOLYLINE
  5
504
330
1F
100
AcDbEntity
  8
0
  6
Continuous
 62
     7
370
    25
100
AcDbPolyline
 90
        9
 70
   128
 43
0.0
 10
330.319693665
 20
547.8075067988
 10
330.2718260506
 20
547.7953784227
 10
330.2257280601
 20
547.7652251194
 10
330.1831038959
 20
547.7181616301
 10
330.145529336
 20
547.6559278508
 10
330.1143934793
 20
547.5808245099
 10
330.090847391
 20
547.4956281125
 10
330.0757615494
 20
547.4034882947
 10
330.069693665
 20
547.3078113852
  0
LINE
  5
505
330
1F
100
AcDbEntity
  8
0
  6
Continuous
 62
     7
370
    25
100
AcDbLine
 10
325.1711125129
 20
547.3078113852
 30
0.0
 11
324.6305818667
 21
547.2969134682
 31
0.0
  0
LWPOLYLINE
  5
506
330
1F
100
AcDbEntity
  8
0
  6
Continuous
 62
     7
370
    25
100
AcDbPolyline
 90
        9
 70
   128
 43
0.0
 10
324.6305818667
 20
547.2969134682
 10
324.6245139823
 20
547.3925903776
 10
324.6094281407
 20
547.4847301954
 10
324.5858820524
 20
547.5699265928
 10
324.5547461956
 20
547.6450299337
 10
324.5171716358
 20
547.707263713
 10
324.4745474716
 20
547.7543272023
 10
324.428449481
 20
547.7844805056
 10
324.3805818667
 20
547.7966088817
  0
LINE
  5
507
330
1F
100
AcDbEntity
  8
0
  6
Continuous
 62
     7
370
    25
100
AcDbLine
 10
330.069693665
 20
539.7063925373
 30
0.0
 11
330.6102243113
 21
539.7172904544
 31
0.0
  0
LWPOLYLINE
  5
508
330
1F
100
AcDbEntity
  8
0
  6
Continuous
 62
     7
370
    25
100
AcDbPolyline
 90
        9
 70
   128
 43
0.0
 10
330.6102243113
 20
539.7172904544
 10
330.6162921957
 20
539.6216135449
 10
330.6313780372
 20
539.5294737272
 10
330.6549241256
 20
539.4442773297
 10
330.6860599823
 20
539.3691739889
 10
330.7236345422
 20
539.3069402096
 10
330.7662587064
 20
539.2598767202
 10
330.8123566969
 20
539.2297234169
 10
330.8602243113
 20
539.2175950409
  0
LWPOLYLINE
  5
509
330
1F
100
AcDbEntity
  8
0
  6
Continuous
 62
     7
370
    25
100
AcDbPolyline
 90
        9
 70
   128
 43
0.0
 10
330.069693665
 20
539.7063925373
 10
330.0757615494
 20
539.6107156278
 10
330.090847391
 20
539.5185758101
 10
330.1143934793
 20
539.4333794126
 10
330.145529336
 20
539.3582760718
 10
330.1831038959
 20
539.2960422925
 10
330.2257280601
 20
539.2489788031
 10
330.2718260506
 20
539.2188254998
 10
330.319693665
 20
539.2066971238
  0
LWPOLYLINE
  5
50A
330
1F
100
AcDbEntity
  8
0
  6
Continuous
 62
     7
370
    25
100
AcDbPolyline
 90
        9
 70
   128
 43
0.0
 10
324.3805818667
 20
539.2175950409
 10
324.428449481
 20
539.2297234169
 10
324.4745474716
 20
539.2598767202
 10
324.5171716358
 20
539.3069402096
 10
324.5547461956
 20
539.3691739889
 10
324.5858820524
 20
539.4442773297
 10
324.6094281407
 20
539.5294737272
 10
324.6245139823
 20
539.6216135449
 10
324.6305818667
 20
539.7172904544
  0
LINE
  5
50B
330
1F
100
AcDbEntity
  8
0
  6
Continuous
 62
     7
370
    25
100
AcDbLine
 10
324.6305818667
 20
539.7172904544
 30
0.0
 11
325.1711125129
 21
539.7063925373
 31
0.0
  0
ELLIPSE
  5
50C
330
1F
100
AcDbEntity
  8
0
  6
Continuous
 62
     7
370
    25
100
AcDbEllipse
 10
324.8805818667
 20
547.2666711947
 30
0.0
 11
0.5
 21
0.0
 31
0.0
210
0.0
220
0.0
230
1.0
 40
0.069841539
 41
2.094395102394026
 42
3.106686068554003
  0
ARC
  5
50D
330
1F
100
AcDbEntity
  8
0
  6
Continuous
 62
     7
370
    25
100
AcDbCircle
 10
323.88047756
 20
547.2671764323
 30
0.0
 40
0.5004094017337529
100
AcDbArc
 50
0.0816918763
 51
89.9183081237
  0
ARC
  5
50E
330
1F
100
AcDbEntity
  8
0
  6
Continuous
 62
     7
370
    25
100
AcDbCircle
 10
331.3603286179
 20
547.2671764323
 30
0.0
 40
0.5004094017335255
100
AcDbArc
 50
90.0816918763
 51
179.9183081237
  0
ELLIPSE
  5
50F
330
1F
100
AcDbEntity
  8
0
  6
Continuous
 62
     7
370
    25
100
AcDbEllipse
 10
330.3602243113
 20
547.2666711947
 30
0.0
 11
0.5
 21
0.0
 31
0.0
210
0.0
220
0.0
230
1.0
 40
0.069841539
 41
0.0349065850356664
 42
1.047197551192632
  0
ELLIPSE
  5
510
330
1F
100
AcDbEntity
  8
0
  6
Continuous
 62
     7
370
    25
100
AcDbEllipse
 10
330.3602243113
 20
539.7475327279
 30
0.0
 11
0.5
 21
0.0
 31
0.0
210
0.0
220
0.0
230
1.0
 40
0.069841539
 41
5.235987755985596
 42
6.248278722140753
  0
ARC
  5
511
330
1F
100
AcDbEntity
  8
0
  6
Continuous
 62
     7
370
    25
100
AcDbCircle
 10
331.3603286179
 20
539.7470274902
 30
0.0
 40
0.5004094017331268
100
AcDbArc
 50
180.0816918763
 51
269.9183081237
  0
ARC
  5
512
330
1F
100
AcDbEntity
  8
0
  6
Continuous
 62
     7
370
    25
100
AcDbCircle
 10
323.88047756
 20
539.7470274902
 30
0.0
 40
0.5004094017337529
100
AcDbArc
 50
270.0816918763
 51
359.9183081236
  0
ELLIPSE
  5
513
330
1F
100
AcDbEntity
  8
0
  6
Continuous
 62
     7
370
    25
100
AcDbEllipse
 10
324.8805818667
 20
539.7475327279
 30
0.0
 11
0.5
 21
0.0
 31
0.0
210
0.0
220
0.0
230
1.0
 40
0.069841539
 41
3.176499238629041
 42
4.188790204783984
  0
LINE
  5
514
330
1F
100
AcDbEntity
  8
0
  6
Continuous
 62
     7
370
    25
100
AcDbLine
 10
324.6305818667
 20
547.2969134682
 30
0.0
 11
324.6305818667
 21
539.7172904544
 31
0.0
  0
LINE
  5
515
330
1F
100
AcDbEntity
  8
0
  6
Continuous
 62
     7
370
    25
100
AcDbLine
 10
330.6102243113
 20
539.7172904544
 30
0.0
 11
330.6102243113
 21
547.2969134682
 31
0.0
  0
LINE
  5
516
330
1F
100
AcDbEntity
  8
0
  6
Continuous
 62
     7
370
    25
100
AcDbLine
 10
330.8599197248
 20
547.2678899119
 30
0.0
 11
330.8599197248
 21
539.7463140106
 31
0.0
  0
LINE
  5
517
330
1F
100
AcDbEntity
  8
0
  6
Continuous
 62
     7
370
    25
100
AcDbLine
 10
324.3808864531
 20
539.7463140106
 30
0.0
 11
324.3808864531
 21
547.2678899119
 31
0.0
  0
LINE
  5
518
330
1F
100
AcDbEntity
  8
0
  6
Continuous
 62
     7
370
    25
100
AcDbLine
 10
330.8599197248
 20
539.7463140106
 30
0.0
 11
331.628980331
 21
540.5153746168
 31
0.0
  0
LINE
  5
519
330
1F
100
AcDbEntity
  8
0
  6
Continuous
 62
     7
370
    25
100
AcDbLine
 10
331.628980331
 20
546.4988293057
 30
0.0
 11
330.8599197248
 21
547.2678899119
 31
0.0
  0
LINE
  5
51A
330
1F
100
AcDbEntity
  8
0
  6
Continuous
 62
     7
370
    25
100
AcDbLine
 10
331.628980331
 20
546.4988293057
 30
0.0
 11
331.628980331
 21
540.5153746168
 31
0.0
  0
LINE
  5
51B
330
1F
100
AcDbEntity
  8
0
  6
Continuous
 62
     7
370
    25
100
AcDbLine
 10
323.6118258469
 20
540.5153746168
 30
0.0
 11
324.3808864531
 21
539.7463140106
 31
0.0
  0
LINE
  5
51C
330
1F
100
AcDbEntity
  8
0
  6
Continuous
 62
     7
370
    25
100
AcDbLine
 10
323.6118258469
 20
546.4988293057
 30
0.0
 11
323.6118258469
 21
540.5153746168
 31
0.0
  0
LINE
  5
51D
330
1F
100
AcDbEntity
  8
0
  6
Continuous
 62
     7
370
    25
100
AcDbLine
 10
324.3808864531
 20
547.2678899119
 30
0.0
 11
323.6118258469
 21
546.4988293057
 31
0.0
  0
ELLIPSE
  5
51E
330
1F
100
AcDbEntity
  8
0
  6
Continuous
 62
     7
370
    25
100
AcDbEllipse
 10
323.1115210748
 20
546.4982199471
 30
0.0
 11
-0.3539842722996695
 21
-0.3539842722996127
 31
-1.117258397569413E-15
210
-7.467057474574111E-15
220
4.310820079305486E-15
230
1.0
 40
0.998782766
 41
2.356803477777722
 42
3.926381829401925
  0
ELLIPSE
  5
51F
330
1F
100
AcDbEntity
  8
0
  6
Continuous
 62
     7
370
    25
100
AcDbEllipse
 10
332.1292851032
 20
546.4982199471
 30
0.0
 11
-0.3539842722996696
 21
0.3539842722994991
 31
7.691487518487962E-16
210
7.101711395998510E-15
220
4.928878273071443E-15
230
1.0
 40
0.998782766
 41
5.498396131367556
 42
7.067974482991376
  0
ELLIPSE
  5
520
330
1F
100
AcDbEntity
  8
0
  6
Continuous
 62
     7
370
    25
100
AcDbEllipse
 10
323.1115210748
 20
540.5159839755
 30
0.0
 11
0.3539842722996128
 21
-0.3539842722993854
 31
-7.691487518487963E-16
210
7.417815841717712E-15
220
5.244982718791292E-15
230
1.0
 40
0.998782766
 41
5.498396131367522
 42
7.067974482990908
  0
ELLIPSE
  5
521
330
1F
100
AcDbEntity
  8
0
  6
Continuous
 62
     7
370
    25
100
AcDbEllipse
 10
332.1292851032
 20
540.5159839755
 30
0.0
 11
0.3539842722996127
 21
0.353984272299499
 31
1.117258397569413E-15
210
-7.783161920294168E-15
220
4.626924525025831E-15
230
1.0
 40
0.998782766
 41
2.356803477778337
 42
3.926381829401925
  0
ELLIPSE
  5
522
330
1F
100
AcDbEntity
  8
0
  6
Continuous
 62
     7
370
    25
100
AcDbEllipse
 10
353.120403089
 20
546.4982199471
 30
0.0
 11
7.5
 21
0.0
 31
0.0
210
0.0
220
0.0
230
1.0
 40
0.0372488208
 41
1.248873080227753
 42
1.748743047328018
  0
ARC
  5
523
330
1F
100
AcDbEntity
  8
0
  6
Continuous
 62
     7
370
    25
100
AcDbCircle
 10
350.9610302036
 20
546.8835334868
 30
0.0
 40
0.8390936313844611
100
AcDbArc
 50
352.442481214
 51
27.6453051273
  0
ARC
  5
524
330
1F
100
AcDbEntity
  8
0
  6
Continuous
 62
     7
370
    25
100
AcDbCircle
 10
356.0411278268
 20
546.8647024662
 30
0.0
 40
0.5571060802960558
100
AcDbArc
 50
134.3719811484
 51
190.4940645851
  0
ELLIPSE
  5
525
330
1F
100
AcDbEntity
  8
0
  6
Continuous
 62
     7
370
    25
100
AcDbEllipse
 10
353.120403089
 20
540.5159839755
 30
0.0
 11
7.5
 21
0.0
 31
0.0
210
0.0
220
0.0
230
1.0
 40
0.0372488208
 41
4.534442259851571
 42
5.034312226951884
  0
ARC
  5
526
330
1F
100
AcDbEntity
  8
0
  6
Continuous
 62
     7
370
    25
100
AcDbCircle
 10
356.0411278268
 20
540.1495014563
 30
0.0
 40
0.5571060802958154
100
AcDbArc
 50
169.5059354149
 51
225.6280188516
  0
ARC
  5
527
330
1F
100
AcDbEntity
  8
0
  6
Continuous
 62
     7
370
    25
100
AcDbCircle
 10
350.9610302036
 20
540.1306704357
 30
0.0
 40
0.8390936313847981
100
AcDbArc
 50
332.3546948728
 51
7.557518786
  0
LINE
  5
528
330
1F
100
AcDbEntity
  8
0
  6
Continuous
 62
     7
370
    25
100
AcDbLine
 10
351.2046349443
 20
546.7731746925
 30
0.0
 11
351.7928349035
 21
546.7731746925
 31
0.0
  0
LINE
  5
529
330
1F
100
AcDbEntity
  8
0
  6
Continuous
 62
     7
370
    25
100
AcDbLine
 10
351.7928349035
 20
546.7731746925
 30
0.0
 11
351.7928349035
 21
540.2410292301
 31
0.0
  0
LINE
  5
52A
330
1F
100
AcDbEntity
  8
0
  6
Continuous
 62
     7
370
    25
100
AcDbLine
 10
351.2046349443
 20
540.2410292301
 30
0.0
 11
351.7928349035
 21
540.2410292301
 31
0.0
  0
LINE
  5
52B
330
1F
100
AcDbEntity
  8
0
  6
Continuous
 62
     7
370
    25
100
AcDbLine
 10
355.4933400251
 20
540.2509692294
 30
0.0
 11
355.4933400251
 21
546.7632346931
 31
0.0
  0
LINE
  5
52C
330
1F
100
AcDbEntity
  8
0
  6
Continuous
 62
     7
370
    25
100
AcDbLine
 10
355.4933400251
 20
546.7632346931
 30
0.0
 11
356.1512312343
 21
546.7632346931
 31
0.0
  0
LINE
  5
52D
330
1F
100
AcDbEntity
  8
0
  6
Continuous
 62
     7
370
    25
100
AcDbLine
 10
355.4933400251
 20
540.2509692294
 30
0.0
 11
356.1512312343
 21
540.2509692294
 31
0.0
  0
LINE
  5
52E
330
1F
100
AcDbEntity
  8
0
  6
Continuous
 62
     7
370
    25
100
AcDbLine
 10
370.820403089
 20
551.5071019613
 30
0.0
 11
370.820403089
 21
702.5071019613
 31
0.0
  0
LINE
  5
52F
330
1F
100
AcDbEntity
  8
0
  6
Continuous
 62
     7
370
    25
100
AcDbLine
 10
284.420403089
 20
551.5071019613
 30
0.0
 11
284.420403089
 21
702.5071019613
 31
0.0
  0
CIRCLE
  5
530
330
1F
100
AcDbEntity
  8
0
  6
Continuous
 62
     7
370
    25
100
AcDbCircle
 10
327.620403089
 20
686.5071019613
 30
0.0
 40
4.750000000000068
  0
CIRCLE
  5
531
330
1F
100
AcDbEntity
  8
0
  6
Continuous
 62
     7
370
    25
100
AcDbCircle
 10
327.620403089
 20
686.5071019613
 30
0.0
 40
2.16685599999999
  0
LINE
  5
532
330
1F
100
AcDbEntity
  8
0
  6
Continuous
 62
     7
370
    25
100
AcDbLine
 10
327.322512203
 20
684.8008601789
 30
0.0
 11
328.9491063746
 21
685.3959999953
 31
0.0
  0
LINE
  5
533
330
1F
100
AcDbEntity
  8
0
  6
Continuous
 62
     7
370
    25
100
AcDbLine
 10
328.9491063746
 20
685.3959999953
 30
0.0
 11
329.2469972605
 21
687.1022417777
 31
0.0
  0
LINE
  5
534
330
1F
100
AcDbEntity
  8
0
  6
Continuous
 62
     7
370
    25
100
AcDbLine
 10
329.2469972605
 20
687.1022417777
 30
0.0
 11
327.9182939749
 21
688.2133437437
 31
0.0
  0
LINE
  5
535
330
1F
100
AcDbEntity
  8
0
  6
Continuous
 62
     7
370
    25
100
AcDbLine
 10
327.9182939749
 20
688.2133437437
 30
0.0
 11
326.2916998034
 21
687.6182039273
 31
0.0
  0
LINE
  5
536
330
1F
100
AcDbEntity
  8
0
  6
Continuous
 62
     7
370
    25
100
AcDbLine
 10
325.9938089174
 20
685.9119621449
 30
0.0
 11
327.322512203
 21
684.8008601789
 31
0.0
  0
LINE
  5
537
330
1F
100
AcDbEntity
  8
0
  6
Continuous
 62
     7
370
    25
100
AcDbLine
 10
326.2916998034
 20
687.6182039273
 30
0.0
 11
325.9938089174
 21
685.9119621449
 31
0.0
  0
CIRCLE
  5
538
330
1F
100
AcDbEntity
  8
0
  6
Continuous
 62
     7
370
    25
100
AcDbCircle
 10
275.420403089
 20
625.1933111461
 30
0.0
 40
4.750000000000038
  0
CIRCLE
  5
539
330
1F
100
AcDbEntity
  8
0
  6
Continuous
 62
     7
370
    25
100
AcDbCircle
 10
275.420403089
 20
625.1933111461
 30
0.0
 40
2.166855999999977
  0
LINE
  5
53A
330
1F
100
AcDbEntity
  8
0
  6
Continuous
 62
     7
370
    25
100
AcDbLine
 10
273.7450331331
 20
625.6327830005
 30
0.0
 11
274.2021243208
 21
623.9621341307
 31
0.0
  0
LINE
  5
53B
330
1F
100
AcDbEntity
  8
0
  6
Continuous
 62
     7
370
    25
100
AcDbLine
 10
274.2021243208
 20
623.9621341307
 30
0.0
 11
275.8774942767
 21
623.5226622763
 31
0.0
  0
LINE
  5
53C
330
1F
100
AcDbEntity
  8
0
  6
Continuous
 62
     7
370
    25
100
AcDbLine
 10
275.8774942767
 20
623.5226622763
 30
0.0
 11
277.0957730449
 21
624.7538392916
 31
0.0
  0
LINE
  5
53D
330
1F
100
AcDbEntity
  8
0
  6
Continuous
 62
     7
370
    25
100
AcDbLine
 10
277.0957730449
 20
624.7538392916
 30
0.0
 11
276.6386818571
 21
626.4244881614
 31
0.0
  0
LINE
  5
53E
330
1F
100
AcDbEntity
  8
0
  6
Continuous
 62
     7
370
    25
100
AcDbLine
 10
276.6386818571
 20
626.4244881614
 30
0.0
 11
274.9633119012
 21
626.8639600159
 31
0.0
  0
LINE
  5
53F
330
1F
100
AcDbEntity
  8
0
  6
Continuous
 62
     7
370
    25
100
AcDbLine
 10
274.9633119012
 20
626.8639600159
 30
0.0
 11
273.7450331331
 21
625.6327830005
 31
0.0
  0
CIRCLE
  5
540
330
1F
100
AcDbEntity
  8
0
  6
Continuous
 62
     7
370
    25
100
AcDbCircle
 10
327.620403089
 20
567.5071019613
 30
0.0
 40
4.750000000000044
  0
CIRCLE
  5
541
330
1F
100
AcDbEntity
  8
0
  6
Continuous
 62
     7
370
    25
100
AcDbCircle
 10
327.620403089
 20
567.5071019613
 30
0.0
 40
2.166856000000018
  0
LINE
  5
542
330
1F
100
AcDbEntity
  8
0
  6
Continuous
 62
     7
370
    25
100
AcDbLine
 10
325.9350811021
 20
567.1074898987
 30
0.0
 11
327.1238162934
 21
565.8477642758
 31
0.0
  0
LINE
  5
543
330
1F
100
AcDbEntity
  8
0
  6
Continuous
 62
     7
370
    25
100
AcDbLine
 10
327.1238162934
 20
565.8477642758
 30
0.0
 11
328.8091382803
 21
566.2473763384
 31
0.0
  0
LINE
  5
544
330
1F
100
AcDbEntity
  8
0
  6
Continuous
 62
     7
370
    25
100
AcDbLine
 10
328.8091382803
 20
566.2473763384
 30
0.0
 11
329.3057250758
 21
567.9067140239
 31
0.0
  0
LINE
  5
545
330
1F
100
AcDbEntity
  8
0
  6
Continuous
 62
     7
370
    25
100
AcDbLine
 10
329.3057250758
 20
567.9067140239
 30
0.0
 11
328.1169898845
 21
569.1664396468
 31
0.0
  0
LINE
  5
546
330
1F
100
AcDbEntity
  8
0
  6
Continuous
 62
     7
370
    25
100
AcDbLine
 10
326.4316678977
 20
568.7668275842
 30
0.0
 11
325.9350811021
 21
567.1074898987
 31
0.0
  0
LINE
  5
547
330
1F
100
AcDbEntity
  8
0
  6
Continuous
 62
     7
370
    25
100
AcDbLine
 10
328.1169898845
 20
569.1664396468
 30
0.0
 11
326.4316678977
 21
568.7668275842
 31
0.0
  0
LINE
  5
548
330
1F
100
AcDbEntity
  8
0
  6
Continuous
 62
     7
370
    25
100
AcDbLine
 10
246.220403089
 20
581.9933111461
 30
0.0
 11
246.220403089
 21
668.3933111461
 31
0.0
  0
LINE
  5
549
330
1F
100
AcDbEntity
  8
0
  6
Continuous
 62
     7
370
    25
100
AcDbLine
 10
246.220403089
 20
672.1933111461
 30
0.0
 11
246.220403089
 21
668.3933111461
 31
0.0
  0
LINE
  5
54A
330
1F
100
AcDbEntity
  8
0
  6
Continuous
 62
     7
370
    25
100
AcDbLine
 10
246.220403089
 20
672.1933111461
 30
0.0
 11
283.420403089
 21
672.1933111461
 31
0.0
  0
LINE
  5
54B
330
1F
100
AcDbEntity
  8
0
  6
Continuous
 62
     7
370
    25
100
AcDbLine
 10
283.420403089
 20
672.1933111461
 30
0.0
 11
283.420403089
 21
578.1933111461
 31
0.0
  0
LINE
  5
54C
330
1F
100
AcDbEntity
  8
0
  6
Continuous
 62
     7
370
    25
100
AcDbLine
 10
283.420403089
 20
578.1933111461
 30
0.0
 11
246.220403089
 21
578.1933111461
 31
0.0
  0
LINE
  5
54D
330
1F
100
AcDbEntity
  8
0
  6
Continuous
 62
     7
370
    25
100
AcDbLine
 10
246.220403089
 20
581.9933111461
 30
0.0
 11
246.220403089
 21
578.1933111461
 31
0.0
  0
LINE
  5
54E
330
1F
100
AcDbEntity
  8
0
  6
Continuous
 62
     7
370
    25
100
AcDbLine
 10
242.420403089
 20
668.3933111461
 30
0.0
 11
242.420403089
 21
581.9933111461
 31
0.0
  0
LINE
  5
54F
330
1F
100
AcDbEntity
  8
0
  6
Continuous
 62
     7
370
    25
100
AcDbLine
 10
246.220403089
 20
668.3933111461
 30
0.0
 11
242.420403089
 21
668.3933111461
 31
0.0
  0
LINE
  5
550
330
1F
100
AcDbEntity
  8
0
  6
Continuous
 62
     7
370
    25
100
AcDbLine
 10
242.420403089
 20
581.9933111461
 30
0.0
 11
246.220403089
 21
581.9933111461
 31
0.0
  0
ARC
  5
551
330
1F
100
AcDbEntity
  8
0
  6
Continuous
 62
     7
370
    25
100
AcDbCircle
 10
246.220403089
 20
581.9933111461
 30
0.0
 40
0.8000000000000682
100
AcDbArc
 50
180.0
 51
270.0
  0
ARC
  5
552
330
1F
100
AcDbEntity
  8
0
  6
Continuous
 62
     7
370
    25
100
AcDbCircle
 10
246.220403089
 20
581.9933111461
 30
0.0
 40
3.800000000000068
100
AcDbArc
 50
180.0
 51
270.0
  0
ARC
  5
553
330
1F
100
AcDbEntity
  8
0
  6
Continuous
 62
     7
370
    25
100
AcDbCircle
 10
246.220403089
 20
668.3933111461
 30
0.0
 40
0.8000000000000682
100
AcDbArc
 50
90.0
 51
180.0
  0
ARC
  5
554
330
1F
100
AcDbEntity
  8
0
  6
Continuous
 62
     7
370
    25
100
AcDbCircle
 10
246.220403089
 20
668.3933111461
 30
0.0
 40
3.800000000000068
100
AcDbArc
 50
90.0
 51
180.0
  0
ARC
  5
555
330
1F
100
AcDbEntity
  8
0
  6
Continuous
 62
     7
370
    25
100
AcDbCircle
 10
282.420403089
 20
592.1933111461
 30
0.0
 40
2.0
100
AcDbArc
 50
300.0
 51
0.0
  0
ARC
  5
556
330
1F
100
AcDbEntity
  8
0
  6
Continuous
 62
     7
370
    25
100
AcDbCircle
 10
282.420403089
 20
658.1933111461
 30
0.0
 40
2.0
100
AcDbArc
 50
0.0
 51
60.0
  0
LINE
  5
557
330
1F
100
AcDbEntity
  8
0
  6
Continuous
 62
     7
370
    25
100
AcDbLine
 10
284.420403089
 20
582.1933111461
 30
0.0
 11
283.420403089
 21
582.1933111461
 31
0.0
  0
LINE
  5
558
330
1F
100
AcDbEntity
  8
0
  6
Continuous
 62
     7
370
    25
100
AcDbLine
 10
283.420403089
 20
585.1933111461
 30
0.0
 11
284.420403089
 21
585.1933111461
 31
0.0
  0
LINE
  5
559
330
1F
100
AcDbEntity
  8
0
  6
Continuous
 62
     7
370
    25
100
AcDbLine
 10
284.420403089
 20
665.1933111461
 30
0.0
 11
283.420403089
 21
665.1933111461
 31
0.0
  0
LINE
  5
55A
330
1F
100
AcDbEntity
  8
0
  6
Continuous
 62
     7
370
    25
100
AcDbLine
 10
283.420403089
 20
668.1933111461
 30
0.0
 11
284.420403089
 21
668.1933111461
 31
0.0
  0
LINE
  5
55B
330
1F
100
AcDbEntity
  8
0
  6
Continuous
 62
     8
370
    25
100
AcDbLine
 10
309.1822163073
 20
710.8445160742
 30
0.0
 11
311.4659581585
 21
710.8445160742
 31
0.0
  0
LINE
  5
55C
330
1F
100
AcDbEntity
  8
0
  6
Continuous
 62
     8
370
    25
100
AcDbLine
 10
302.4659581585
 20
710.8445160742
 30
0.0
 11
304.7011506747
 21
710.8445160742
 31
0.0
  0
LINE
  5
55D
330
1F
100
AcDbEntity
  8
0
  6
Continuous
 62
     8
370
    25
100
AcDbLine
 10
308.8359660893
 20
710.8445160742
 30
0.0
 11
309.1822163073
 21
710.8445160742
 31
0.0
  0
LINE
  5
55E
330
1F
100
AcDbEntity
  8
0
  6
Continuous
 62
     8
370
    25
100
AcDbLine
 10
311.4659581585
 20
543.1696878484
 30
0.0
 11
309.778980331
 21
543.1696878484
 31
0.0
  0
LINE
  5
55F
330
1F
100
AcDbEntity
  8
0
  6
Continuous
 62
     8
370
    25
100
AcDbLine
 10
303.7618258469
 20
543.1696878484
 30
0.0
 11
302.4659581585
 21
543.1696878484
 31
0.0
  0
LINE
  5
560
330
1F
100
AcDbEntity
  8
0
  6
Continuous
 62
     8
370
    25
100
AcDbLine
 10
309.9970470718
 20
541.3696878484
 30
0.0
 11
309.9970470718
 21
540.102546637
 31
0.0
  0
LINE
  5
561
330
1F
100
AcDbEntity
  8
0
  6
Continuous
 62
     8
370
    25
100
AcDbLine
 10
309.778980331
 20
541.6214896314
 30
0.0
 11
309.9970470718
 21
541.3696878484
 31
0.0
  0
LINE
  5
562
330
1F
100
AcDbEntity
  8
0
  6
Continuous
 62
     8
370
    25
100
AcDbLine
 10
312.5951232831
 20
540.0156792033
 30
0.0
 11
312.5951232831
 21
541.3696878484
 31
0.0
  0
LINE
  5
563
330
1F
100
AcDbEntity
  8
0
  6
Continuous
 62
     8
370
    25
100
AcDbLine
 10
301.3367930339
 20
541.3696878484
 30
0.0
 11
301.3367930339
 21
540.0156792033
 31
0.0
  0
ARC
  5
564
330
1F
100
AcDbEntity
  8
0
  6
Continuous
 62
     7
370
    25
100
AcDbCircle
 10
273.170403089
 20
388.9715493921
 30
0.0
 40
2.5
100
AcDbArc
 50
90.0
 51
180.0
  0
ARC
  5
565
330
1F
100
AcDbEntity
  8
0
  6
Continuous
 62
     7
370
    25
100
AcDbCircle
 10
277.670403089
 20
388.9715493921
 30
0.0
 40
2.5
100
AcDbArc
 50
360.0
 51
90.0
  0
LINE
  5
566
330
1F
100
AcDbEntity
  8
0
  6
Continuous
 62
     7
370
    25
100
AcDbLine
 10
280.170403089
 20
388.7215493921
 30
0.0
 11
280.170403089
 21
388.9715493921
 31
0.0
  0
LINE
  5
567
330
1F
100
AcDbEntity
  8
0
  6
Continuous
 62
     7
370
    25
100
AcDbLine
 10
270.670403089
 20
388.9715493921
 30
0.0
 11
270.670403089
 21
388.7215493921
 31
0.0
  0
LINE
  5
568
330
1F
100
AcDbEntity
  8
0
  6
Continuous
 62
     7
370
    25
100
AcDbLine
 10
272.920403089
 20
385.7215493921
 30
0.0
 11
272.920403089
 21
385.2215493921
 31
0.0
  0
LINE
  5
569
330
1F
100
AcDbEntity
  8
0
  6
Continuous
 62
     7
370
    25
100
AcDbLine
 10
277.920403089
 20
385.2215493921
 30
0.0
 11
277.920403089
 21
385.7215493921
 31
0.0
  0
ARC
  5
56A
330
1F
100
AcDbEntity
  8
0
  6
Continuous
 62
     7
370
    25
100
AcDbCircle
 10
326.1962901583
 20
321.2320732879
 30
0.0
 40
3.539335092961945
100
AcDbArc
 50
200.0
 51
257.8862128145
  0
ARC
  5
56B
330
1F
100
AcDbEntity
  8
0
  6
Continuous
 62
     7
370
    25
100
AcDbCircle
 10
329.0445160196
 20
321.2320732879
 30
0.0
 40
3.539335092961901
100
AcDbArc
 50
282.1137871855
 51
340.0
  0
LINE
  5
56C
330
1F
100
AcDbEntity
  8
0
  6
Continuous
 62
     7
370
    25
100
AcDbLine
 10
322.870403089
 20
320.5215493921
 30
0.0
 11
322.870403089
 21
320.0215493921
 31
0.0
  0
LINE
  5
56D
330
1F
100
AcDbEntity
  8
0
  6
Continuous
 62
     7
370
    25
100
AcDbLine
 10
332.370403089
 20
320.0215493921
 30
0.0
 11
332.370403089
 21
320.5215493921
 31
0.0
  0
LINE
  5
56E
330
1F
100
AcDbEntity
  8
0
  6
Continuous
 62
     7
370
    25
100
AcDbLine
 10
270.670403089
 20
338.7215493921
 30
0.0
 11
270.670403089
 21
338.2215493921
 31
0.0
  0
LINE
  5
56F
330
1F
100
AcDbEntity
  8
0
  6
Continuous
 62
     7
370
    25
100
AcDbLine
 10
280.170403089
 20
338.2215493921
 30
0.0
 11
280.170403089
 21
338.7215493921
 31
0.0
  0
ARC
  5
570
330
1F
100
AcDbEntity
  8
0
  6
Continuous
 62
     7
370
    25
100
AcDbCircle
 10
273.9962901583
 20
339.4320732879
 30
0.0
 40
3.539335092961901
100
AcDbArc
 50
200.0
 51
257.8862128145
  0
ARC
  5
571
330
1F
100
AcDbEntity
  8
0
  6
Continuous
 62
     7
370
    25
100
AcDbCircle
 10
276.8445160196
 20
339.4320732879
 30
0.0
 40
3.539335092961901
100
AcDbArc
 50
282.1137871855
 51
340.0
  0
LINE
  5
572
330
1F
100
AcDbEntity
  8
0
  6
Continuous
 62
     7
370
    25
100
AcDbLine
 10
277.920403089
 20
341.7215493921
 30
0.0
 11
277.920403089
 21
342.2215493921
 31
0.0
  0
LINE
  5
573
330
1F
100
AcDbEntity
  8
0
  6
Continuous
 62
     7
370
    25
100
AcDbLine
 10
272.920403089
 20
342.2215493921
 30
0.0
 11
272.920403089
 21
341.7215493921
 31
0.0
  0
LINE
  5
574
330
1F
100
AcDbEntity
  8
0
  6
Continuous
 62
     7
370
    25
100
AcDbLine
 10
332.370403089
 20
406.9215493921
 30
0.0
 11
332.370403089
 21
407.4215493921
 31
0.0
  0
LINE
  5
575
330
1F
100
AcDbEntity
  8
0
  6
Continuous
 62
     7
370
    25
100
AcDbLine
 10
322.870403089
 20
407.4215493921
 30
0.0
 11
322.870403089
 21
406.9215493921
 31
0.0
  0
ARC
  5
576
330
1F
100
AcDbEntity
  8
0
  6
Continuous
 62
     7
370
    25
100
AcDbCircle
 10
329.0445160196
 20
406.2110254963
 30
0.0
 40
3.539335092961926
100
AcDbArc
 50
20.0
 51
77.8862128145
  0
ARC
  5
577
330
1F
100
AcDbEntity
  8
0
  6
Continuous
 62
     7
370
    25
100
AcDbCircle
 10
326.1962901583
 20
406.2110254963
 30
0.0
 40
3.539335092961926
100
AcDbArc
 50
102.1137871855
 51
160.0
  0
LINE
  5
578
330
1F
100
AcDbEntity
  8
0
  6
Continuous
 62
     7
370
    25
100
AcDbLine
 10
273.170403089
 20
391.4715493921
 30
0.0
 11
273.2411382431
 21
391.4715493921
 31
0.0
  0
LINE
  5
579
330
1F
100
AcDbEntity
  8
0
  6
Continuous
 62
     7
370
    25
100
AcDbLine
 10
273.2135539631
 20
391.4708435949
 30
0.0
 11
273.2411382431
 21
391.4715493921
 31
0.0
  0
LINE
  5
57A
330
1F
100
AcDbEntity
  8
0
  6
Continuous
 62
     7
370
    25
100
AcDbLine
 10
273.3043908034
 20
391.4715493921
 30
0.0
 11
273.2135539631
 21
391.4708435949
 31
0.0
  0
LINE
  5
57B
330
1F
100
AcDbEntity
  8
0
  6
Continuous
 62
     7
370
    25
100
AcDbLine
 10
273.3043908034
 20
391.4715493921
 30
0.0
 11
274.8155165257
 21
391.4715493921
 31
0.0
  0
LINE
  5
57C
330
1F
100
AcDbEntity
  8
0
  6
Continuous
 62
     7
370
    25
100
AcDbLine
 10
274.9063533659
 20
391.4708435949
 30
0.0
 11
274.8155165257
 21
391.4715493921
 31
0.0
  0
LINE
  5
57D
330
1F
100
AcDbEntity
  8
0
  6
Continuous
 62
     7
370
    25
100
AcDbLine
 10
275.024774486
 20
391.4715493921
 30
0.0
 11
274.9063533659
 21
391.4708435949
 31
0.0
  0
LINE
  5
57E
330
1F
100
AcDbEntity
  8
0
  6
Continuous
 62
     7
370
    25
100
AcDbLine
 10
275.024774486
 20
391.4715493921
 30
0.0
 11
276.9947813716
 21
391.4715493921
 31
0.0
  0
LINE
  5
57F
330
1F
100
AcDbEntity
  8
0
  6
Continuous
 62
     7
370
    25
100
AcDbLine
 10
277.1132024918
 20
391.4708435949
 30
0.0
 11
276.9947813716
 21
391.4715493921
 31
0.0
  0
LINE
  5
580
330
1F
100
AcDbEntity
  8
0
  6
Continuous
 62
     7
370
    25
100
AcDbLine
 10
277.1407867717
 20
391.4715493921
 30
0.0
 11
277.1132024918
 21
391.4708435949
 31
0.0
  0
LINE
  5
581
330
1F
100
AcDbEntity
  8
0
  6
Continuous
 62
     7
370
    25
100
AcDbLine
 10
277.1407867717
 20
391.4715493921
 30
0.0
 11
277.670403089
 21
391.4715493921
 31
0.0
  0
LINE
  5
582
330
1F
100
AcDbEntity
  8
0
  6
Continuous
 62
     7
370
    25
100
AcDbLine
 10
273.2411382431
 20
391.4715493921
 30
0.0
 11
273.3043908033
 21
391.4715493921
 31
0.0
  0
LINE
  5
583
330
1F
100
AcDbEntity
  8
0
  6
Continuous
 62
     7
370
    25
100
AcDbLine
 10
276.9947813716
 20
391.4715493921
 30
0.0
 11
277.1407867717
 21
391.4715493921
 31
0.0
  0
LINE
  5
584
330
1F
100
AcDbEntity
  8
0
  6
Continuous
 62
     7
370
    25
100
AcDbLine
 10
274.8155165257
 20
391.4715493921
 30
0.0
 11
275.024774486
 21
391.4715493921
 31
0.0
  0
LINE
  5
585
330
1F
100
AcDbEntity
  8
0
  6
Continuous
 62
     7
370
    25
100
AcDbLine
 10
370.820403089
 20
406.9215493921
 30
0.0
 11
284.420403089
 21
406.9215493921
 31
0.0
  0
LINE
  5
586
330
1F
100
AcDbEntity
  8
0
  6
Continuous
 62
     7
370
    25
100
AcDbLine
 10
370.820403089
 20
320.5215493921
 30
0.0
 11
370.820403089
 21
406.9215493921
 31
0.0
  0
LINE
  5
587
330
1F
100
AcDbEntity
  8
0
  6
Continuous
 62
     7
370
    25
100
AcDbLine
 10
284.420403089
 20
320.5215493921
 30
0.0
 11
370.820403089
 21
320.5215493921
 31
0.0
  0
LINE
  5
588
330
1F
100
AcDbEntity
  8
0
  6
Continuous
 62
     7
370
    25
100
AcDbLine
 10
284.420403089
 20
406.9215493921
 30
0.0
 11
284.420403089
 21
320.5215493921
 31
0.0
  0
ELLIPSE
  5
589
330
1F
100
AcDbEntity
  8
0
  6
Continuous
 62
     7
370
    25
100
AcDbEllipse
 10
286.8857870916
 20
404.4561653895
 30
0.0
 11
0.3539842722996127
 21
-0.3539842722995559
 31
0.0
210
0.0
220
0.0
230
1.0
 40
0.998782766
 41
2.356803477777682
 42
3.926381829401644
  0
LINE
  5
58A
330
1F
100
AcDbEntity
  8
0
  6
Continuous
 62
     7
370
    25
100
AcDbLine
 10
286.3854823195
 20
404.4567747481
 30
0.0
 11
286.3854823195
 21
322.9863240361
 31
0.0
  0
ELLIPSE
  5
58B
330
1F
100
AcDbEntity
  8
0
  6
Continuous
 62
     7
370
    25
100
AcDbEllipse
 10
286.8857870916
 20
322.9869333948
 30
0.0
 11
0.3539842722995559
 21
0.3539842722996127
 31
0.0
210
0.0
220
0.0
230
1.0
 40
0.998782766
 41
2.356803477777909
 42
3.926381829401304
  0
LINE
  5
58C
330
1F
100
AcDbEntity
  8
0
  6
Continuous
 62
     7
370
    25
100
AcDbLine
 10
286.885177733
 20
322.4866286226
 30
0.0
 11
368.355628445
 21
322.4866286226
 31
0.0
  0
ELLIPSE
  5
58D
330
1F
100
AcDbEntity
  8
0
  6
Continuous
 62
     7
370
    25
100
AcDbEllipse
 10
368.3550190863
 20
322.9869333948
 30
0.0
 11
-0.3539842722996127
 21
0.3539842722996127
 31
0.0
210
0.0
220
0.0
230
1.0
 40
0.998782766
 41
2.356803477777682
 42
3.926381829401691
  0
LINE
  5
58E
330
1F
100
AcDbEntity
  8
0
  6
Continuous
 62
     7
370
    25
100
AcDbLine
 10
368.8553238585
 20
322.9863240361
 30
0.0
 11
368.8553238585
 21
404.4567747481
 31
0.0
  0
ELLIPSE
  5
58F
330
1F
100
AcDbEntity
  8
0
  6
Continuous
 62
     7
370
    25
100
AcDbEllipse
 10
368.3550190863
 20
404.4561653895
 30
0.0
 11
-0.3539842722996127
 21
-0.3539842722996127
 31
0.0
210
0.0
220
0.0
230
1.0
 40
0.998782766
 41
2.356803477777722
 42
3.926381829401764
  0
LINE
  5
590
330
1F
100
AcDbEntity
  8
0
  6
Continuous
 62
     7
370
    25
100
AcDbLine
 10
368.355628445
 20
404.9564701616
 30
0.0
 11
286.885177733
 21
404.9564701616
 31
0.0
  0
LINE
  5
591
330
1F
100
AcDbEntity
  8
0
  6
Continuous
 62
     7
370
    25
100
AcDbLine
 10
286.6022348338
 20
404.2400222338
 30
0.0
 11
286.3854823195
 21
404.4567747481
 31
0.0
  0
LINE
  5
592
330
1F
100
AcDbEntity
  8
0
  6
Continuous
 62
     7
370
    25
100
AcDbLine
 10
286.6022348338
 20
323.2030765504
 30
0.0
 11
286.6022348338
 21
404.2400222338
 31
0.0
  0
LINE
  5
593
330
1F
100
AcDbEntity
  8
0
  6
Continuous
 62
     7
370
    25
100
AcDbLine
 10
286.3854823195
 20
322.9863240361
 30
0.0
 11
286.6022348338
 21
323.2030765504
 31
0.0
  0
ELLIPSE
  5
594
330
1F
100
AcDbEntity
  8
0
  6
Continuous
 62
     7
370
    25
100
AcDbEllipse
 10
287.1022958625
 20
323.2034421656
 30
0.0
 11
0.35363977672813
 21
0.3536397767280163
 31
0.0
210
0.0
220
0.0
230
1.0
 40
0.9997557228
 41
2.35680347777813
 42
3.926381829401905
  0
LINE
  5
595
330
1F
100
AcDbEntity
  8
0
  6
Continuous
 62
     7
370
    25
100
AcDbLine
 10
287.1019302473
 20
322.7033811369
 30
0.0
 11
286.885177733
 21
322.4866286226
 31
0.0
  0
LINE
  5
596
330
1F
100
AcDbEntity
  8
0
  6
Continuous
 62
     7
370
    25
100
AcDbLine
 10
368.1388759307
 20
322.7033811369
 30
0.0
 11
287.1019302473
 21
322.7033811369
 31
0.0
  0
LINE
  5
597
330
1F
100
AcDbEntity
  8
0
  6
Continuous
 62
     7
370
    25
100
AcDbLine
 10
368.355628445
 20
322.4866286226
 30
0.0
 11
368.1388759307
 21
322.7033811369
 31
0.0
  0
LINE
  5
598
330
1F
100
AcDbEntity
  8
0
  6
Continuous
 62
     7
370
    25
100
AcDbLine
 10
368.1388759307
 20
404.7397176473
 30
0.0
 11
368.355628445
 21
404.9564701616
 31
0.0
  0
LINE
  5
599
330
1F
100
AcDbEntity
  8
0
  6
Continuous
 62
     7
370
    25
100
AcDbLine
 10
287.1019302473
 20
404.7397176473
 30
0.0
 11
368.1388759307
 21
404.7397176473
 31
0.0
  0
LINE
  5
59A
330
1F
100
AcDbEntity
  8
0
  6
Continuous
 62
     7
370
    25
100
AcDbLine
 10
286.885177733
 20
404.9564701616
 30
0.0
 11
287.1019302473
 21
404.7397176473
 31
0.0
  0
ELLIPSE
  5
59B
330
1F
100
AcDbEntity
  8
0
  6
Continuous
 62
     7
370
    25
100
AcDbEllipse
 10
368.1385103155
 20
323.2034421656
 30
0.0
 11
0.3536397767281869
 21
-0.3536397767280163
 31
0.0
210
0.0
220
0.0
230
1.0
 40
0.9997557228
 41
5.498396131367381
 42
7.067974482991209
  0
LINE
  5
59C
330
1F
100
AcDbEntity
  8
0
  6
Continuous
 62
     7
370
    25
100
AcDbLine
 10
368.6385713442
 20
323.2030765504
 30
0.0
 11
368.8553238585
 21
322.9863240361
 31
0.0
  0
LINE
  5
59D
330
1F
100
AcDbEntity
  8
0
  6
Continuous
 62
     7
370
    25
100
AcDbLine
 10
368.6385713442
 20
404.2400222338
 30
0.0
 11
368.6385713442
 21
323.2030765504
 31
0.0
  0
LINE
  5
59E
330
1F
100
AcDbEntity
  8
0
  6
Continuous
 62
     7
370
    25
100
AcDbLine
 10
368.8553238585
 20
404.4567747481
 30
0.0
 11
368.6385713442
 21
404.2400222338
 31
0.0
  0
ELLIPSE
  5
59F
330
1F
100
AcDbEntity
  8
0
  6
Continuous
 62
     7
370
    25
100
AcDbEllipse
 10
287.1022958625
 20
404.2396566186
 30
0.0
 11
-0.3536397767279027
 21
0.3536397767281869
 31
0.0
210
0.0
220
0.0
230
1.0
 40
0.9997557228
 41
5.498396131367951
 42
7.067974482991698
  0
ELLIPSE
  5
5A0
330
1F
100
AcDbEntity
  8
0
  6
Continuous
 62
     7
370
    25
100
AcDbEllipse
 10
368.1385103155
 20
404.2396566186
 30
0.0
 11
0.3536397767280163
 21
0.35363977672813
 31
0.0
210
0.0
220
0.0
230
1.0
 40
0.9997557228
 41
5.498396131367461
 42
7.06797448299129
  0
ELLIPSE
  5
5A1
330
1F
100
AcDbEntity
  8
0
  6
Continuous
 62
     7
370
    25
100
AcDbEllipse
 10
287.1022958625
 20
323.2034421656
 30
0.0
 11
0.2123905633797563
 21
0.2123905633797563
 31
0.0
210
0.0
220
0.0
230
1.0
 40
0.998782766
 41
2.356803477777922
 42
3.926381829401867
  0
LINE
  5
5A2
330
1F
100
AcDbEntity
  8
0
  6
Continuous
 62
     7
370
    25
100
AcDbLine
 10
287.1019302473
 20
322.9032593023
 30
0.0
 11
287.1019302473
 21
322.7033811369
 31
0.0
  0
LINE
  5
5A3
330
1F
100
AcDbEntity
  8
0
  6
Continuous
 62
     7
370
    25
100
AcDbLine
 10
286.8021129992
 20
323.2030765504
 30
0.0
 11
286.6022348338
 21
323.2030765504
 31
0.0
  0
LINE
  5
5A4
330
1F
100
AcDbEntity
  8
0
  6
Continuous
 62
     7
370
    25
100
AcDbLine
 10
286.8021129992
 20
404.2400222338
 30
0.0
 11
286.8021129992
 21
323.2030765504
 31
0.0
  0
LINE
  5
5A5
330
1F
100
AcDbEntity
  8
0
  6
Continuous
 62
     7
370
    25
100
AcDbLine
 10
286.8021129992
 20
404.2400222338
 30
0.0
 11
286.6022348338
 21
404.2400222338
 31
0.0
  0
LINE
  5
5A6
330
1F
100
AcDbEntity
  8
0
  6
Continuous
 62
     7
370
    25
100
AcDbLine
 10
287.1019302473
 20
322.9032593023
 30
0.0
 11
368.1388759307
 21
322.9032593023
 31
0.0
  0
LINE
  5
5A7
330
1F
100
AcDbEntity
  8
0
  6
Continuous
 62
     7
370
    25
100
AcDbLine
 10
368.1388759307
 20
322.9032593023
 30
0.0
 11
368.1388759307
 21
322.7033811369
 31
0.0
  0
ELLIPSE
  5
5A8
330
1F
100
AcDbEntity
  8
0
  6
Continuous
 62
     7
370
    25
100
AcDbEllipse
 10
368.1385103155
 20
323.2034421656
 30
0.0
 11
-0.2123905633796994
 21
0.2123905633796994
 31
0.0
210
0.0
220
0.0
230
1.0
 40
0.998782766
 41
2.356803477778569
 42
3.92638182940141
  0
LINE
  5
5A9
330
1F
100
AcDbEntity
  8
0
  6
Continuous
 62
     7
370
    25
100
AcDbLine
 10
368.6385713442
 20
323.2030765504
 30
0.0
 11
368.4386931788
 21
323.2030765504
 31
0.0
  0
LINE
  5
5AA
330
1F
100
AcDbEntity
  8
0
  6
Continuous
 62
     7
370
    25
100
AcDbLine
 10
368.4386931788
 20
323.2030765504
 30
0.0
 11
368.4386931788
 21
404.2400222338
 31
0.0
  0
LINE
  5
5AB
330
1F
100
AcDbEntity
  8
0
  6
Continuous
 62
     7
370
    25
100
AcDbLine
 10
368.6385713442
 20
404.2400222338
 30
0.0
 11
368.4386931788
 21
404.2400222338
 31
0.0
  0
ELLIPSE
  5
5AC
330
1F
100
AcDbEntity
  8
0
  6
Continuous
 62
     7
370
    25
100
AcDbEllipse
 10
287.1022958625
 20
404.2396566186
 30
0.0
 11
0.2123905633798131
 21
-0.2123905633797563
 31
0.0
210
0.0
220
0.0
230
1.0
 40
0.998782766
 41
2.356803477777409
 42
3.926381829401165
  0
LINE
  5
5AD
330
1F
100
AcDbEntity
  8
0
  6
Continuous
 62
     7
370
    25
100
AcDbLine
 10
287.1019302473
 20
404.7397176473
 30
0.0
 11
287.1019302473
 21
404.5398394819
 31
0.0
  0
LINE
  5
5AE
330
1F
100
AcDbEntity
  8
0
  6
Continuous
 62
     7
370
    25
100
AcDbLine
 10
368.1388759307
 20
404.7397176473
 30
0.0
 11
368.1388759307
 21
404.5398394819
 31
0.0
  0
LINE
  5
5AF
330
1F
100
AcDbEntity
  8
0
  6
Continuous
 62
     7
370
    25
100
AcDbLine
 10
368.1388759307
 20
404.5398394819
 30
0.0
 11
287.1019302473
 21
404.5398394819
 31
0.0
  0
ELLIPSE
  5
5B0
330
1F
100
AcDbEntity
  8
0
  6
Continuous
 62
     7
370
    25
100
AcDbEllipse
 10
368.1385103155
 20
404.2396566186
 30
0.0
 11
-0.2123905633797563
 21
-0.2123905633797563
 31
0.0
210
0.0
220
0.0
230
1.0
 40
0.998782766
 41
2.356803477777666
 42
3.926381829401934
  0
LINE
  5
5B1
330
1F
100
AcDbEntity
  8
0
  6
Continuous
 62
     7
370
    25
100
AcDbLine
 10
330.66750443
 20
320.0215493921
 30
0.0
 11
332.370403089
 21
320.0215493921
 31
0.0
  0
LINE
  5
5B2
330
1F
100
AcDbEntity
  8
0
  6
Continuous
 62
     7
370
    25
100
AcDbLine
 10
322.870403089
 20
320.0215493921
 30
0.0
 11
330.66750443
 21
320.0215493921
 31
0.0
  0
LINE
  5
5B3
330
1F
100
AcDbEntity
  8
0
  6
Continuous
 62
     7
370
    25
100
AcDbLine
 10
329.0104304202
 20
317.7715493921
 30
0.0
 11
329.787259089
 21
317.7715493921
 31
0.0
  0
LINE
  5
5B4
330
1F
100
AcDbEntity
  8
0
  6
Continuous
 62
     7
370
    25
100
AcDbLine
 10
325.453547089
 20
317.7715493921
 30
0.0
 11
329.0104304202
 21
317.7715493921
 31
0.0
  0
LINE
  5
5B5
330
1F
100
AcDbEntity
  8
0
  6
Continuous
 62
     7
370
    25
100
AcDbLine
 10
280.0020135687
 20
338.2215493921
 30
0.0
 11
280.170403089
 21
338.2215493921
 31
0.0
  0
LINE
  5
5B6
330
1F
100
AcDbEntity
  8
0
  6
Continuous
 62
     7
370
    25
100
AcDbLine
 10
270.670403089
 20
338.2215493921
 30
0.0
 11
280.0020135687
 21
338.2215493921
 31
0.0
  0
LINE
  5
5B7
330
1F
100
AcDbEntity
  8
0
  6
Continuous
 62
     7
370
    25
100
AcDbLine
 10
277.5104431222
 20
335.9715493921
 30
0.0
 11
277.587259089
 21
335.9715493921
 31
0.0
  0
LINE
  5
5B8
330
1F
100
AcDbEntity
  8
0
  6
Continuous
 62
     7
370
    25
100
AcDbLine
 10
273.253547089
 20
335.9715493921
 30
0.0
 11
277.5104431222
 21
335.9715493921
 31
0.0
  0
LINE
  5
5B9
330
1F
100
AcDbEntity
  8
0
  6
Continuous
 62
     7
370
    25
100
AcDbLine
 10
322.891614836
 20
407.4215493921
 30
0.0
 11
322.870403089
 21
407.4215493921
 31
0.0
  0
LINE
  5
5BA
330
1F
100
AcDbEntity
  8
0
  6
Continuous
 62
     7
370
    25
100
AcDbLine
 10
332.370403089
 20
407.4215493921
 30
0.0
 11
322.891614836
 21
407.4215493921
 31
0.0
  0
LINE
  5
5BB
330
1F
100
AcDbEntity
  8
0
  6
Continuous
 62
     7
370
    25
100
AcDbLine
 10
325.4632234682
 20
409.6715493921
 30
0.0
 11
325.453547089
 21
409.6715493921
 31
0.0
  0
LINE
  5
5BC
330
1F
100
AcDbEntity
  8
0
  6
Continuous
 62
     7
370
    25
100
AcDbLine
 10
329.787259089
 20
409.6715493921
 30
0.0
 11
325.4632234682
 21
409.6715493921
 31
0.0
  0
LINE
  5
5BD
330
1F
100
AcDbEntity
  8
0
  6
Continuous
 62
     7
370
    25
100
AcDbLine
 10
246.220403089
 20
342.5215493921
 30
0.0
 11
246.220403089
 21
384.9215493921
 31
0.0
  0
LINE
  5
5BE
330
1F
100
AcDbEntity
  8
0
  6
Continuous
 62
     7
370
    25
100
AcDbLine
 10
242.420403089
 20
342.5215493921
 30
0.0
 11
246.220403089
 21
342.5215493921
 31
0.0
  0
LINE
  5
5BF
330
1F
100
AcDbEntity
  8
0
  6
Continuous
 62
     7
370
    25
100
AcDbLine
 10
242.420403089
 20
384.9215493921
 30
0.0
 11
242.420403089
 21
342.5215493921
 31
0.0
  0
LINE
  5
5C0
330
1F
100
AcDbEntity
  8
0
  6
Continuous
 62
     7
370
    25
100
AcDbLine
 10
246.220403089
 20
384.9215493921
 30
0.0
 11
242.420403089
 21
384.9215493921
 31
0.0
  0
LINE
  5
5C1
330
1F
100
AcDbEntity
  8
0
  6
Continuous
 62
     7
370
    25
100
AcDbLine
 10
246.220403089
 20
385.7215493921
 30
0.0
 11
283.420403089
 21
385.7215493921
 31
0.0
  0
LINE
  5
5C2
330
1F
100
AcDbEntity
  8
0
  6
Continuous
 62
     7
370
    25
100
AcDbLine
 10
246.220403089
 20
388.7215493921
 30
0.0
 11
283.420403089
 21
388.7215493921
 31
0.0
  0
LINE
  5
5C3
330
1F
100
AcDbEntity
  8
0
  6
Continuous
 62
     7
370
    25
100
AcDbLine
 10
283.420403089
 20
388.7215493921
 30
0.0
 11
283.420403089
 21
385.7215493921
 31
0.0
  0
LINE
  5
5C4
330
1F
100
AcDbEntity
  8
0
  6
Continuous
 62
     7
370
    25
100
AcDbLine
 10
246.220403089
 20
388.7215493921
 30
0.0
 11
246.220403089
 21
385.7215493921
 31
0.0
  0
LINE
  5
5C5
330
1F
100
AcDbEntity
  8
0
  6
Continuous
 62
     7
370
    25
100
AcDbLine
 10
283.420403089
 20
384.9215493921
 30
0.0
 11
283.420403089
 21
342.5215493921
 31
0.0
  0
LINE
  5
5C6
330
1F
100
AcDbEntity
  8
0
  6
Continuous
 62
     7
370
    25
100
AcDbLine
 10
283.420403089
 20
342.5215493921
 30
0.0
 11
246.220403089
 21
342.5215493921
 31
0.0
  0
LINE
  5
5C7
330
1F
100
AcDbEntity
  8
0
  6
Continuous
 62
     7
370
    25
100
AcDbLine
 10
246.220403089
 20
384.9215493921
 30
0.0
 11
283.420403089
 21
384.9215493921
 31
0.0
  0
LINE
  5
5C8
330
1F
100
AcDbEntity
  8
0
  6
Continuous
 62
     7
370
    25
100
AcDbLine
 10
246.220403089
 20
341.7215493921
 30
0.0
 11
283.420403089
 21
341.7215493921
 31
0.0
  0
LINE
  5
5C9
330
1F
100
AcDbEntity
  8
0
  6
Continuous
 62
     7
370
    25
100
AcDbLine
 10
283.420403089
 20
338.7215493921
 30
0.0
 11
283.420403089
 21
341.7215493921
 31
0.0
  0
LINE
  5
5CA
330
1F
100
AcDbEntity
  8
0
  6
Continuous
 62
     7
370
    25
100
AcDbLine
 10
246.220403089
 20
338.7215493921
 30
0.0
 11
283.420403089
 21
338.7215493921
 31
0.0
  0
LINE
  5
5CB
330
1F
100
AcDbEntity
  8
0
  6
Continuous
 62
     7
370
    25
100
AcDbLine
 10
246.220403089
 20
338.7215493921
 30
0.0
 11
246.220403089
 21
341.7215493921
 31
0.0
  0
ARC
  5
5CC
330
1F
100
AcDbEntity
  8
0
  6
Continuous
 62
     7
370
    25
100
AcDbCircle
 10
246.220403089
 20
384.9215493921
 30
0.0
 40
0.799999999999983
100
AcDbArc
 50
90.0
 51
180.0
  0
ARC
  5
5CD
330
1F
100
AcDbEntity
  8
0
  6
Continuous
 62
     7
370
    25
100
AcDbCircle
 10
246.220403089
 20
384.9215493921
 30
0.0
 40
3.800000000000011
100
AcDbArc
 50
90.0
 51
180.0
  0
ARC
  5
5CE
330
1F
100
AcDbEntity
  8
0
  6
Continuous
 62
     7
370
    25
100
AcDbCircle
 10
246.220403089
 20
342.5215493921
 30
0.0
 40
0.8000000000000114
100
AcDbArc
 50
180.0
 51
270.0
  0
ARC
  5
5CF
330
1F
100
AcDbEntity
  8
0
  6
Continuous
 62
     7
370
    25
100
AcDbCircle
 10
246.220403089
 20
342.5215493921
 30
0.0
 40
3.800000000000068
100
AcDbArc
 50
180.0
 51
270.0
  0
ARC
  5
5D0
330
1F
100
AcDbEntity
  8
0
  6
Continuous
 62
     7
370
    25
100
AcDbCircle
 10
282.420403089
 20
379.2215493921
 30
0.0
 40
2.0
100
AcDbArc
 50
0.0
 51
60.0
  0
ARC
  5
5D1
330
1F
100
AcDbEntity
  8
0
  6
Continuous
 62
     7
370
    25
100
AcDbCircle
 10
282.420403089
 20
348.2215493921
 30
0.0
 40
2.000000000000024
100
AcDbArc
 50
300.0
 51
0.0
  0
ARC
  5
5D2
330
1F
100
AcDbEntity
  8
0
  6
Continuous
 62
     7
370
    25
100
AcDbCircle
 10
270.220403089
 20
381.4215493921
 30
0.0
 40
3.800000000000011
100
AcDbArc
 50
90.0
 51
112.9195421516
  0
LINE
  5
5D3
330
1F
100
AcDbEntity
  8
0
  6
Continuous
 62
     7
370
    25
100
AcDbLine
 10
282.420403089
 20
385.2215493921
 30
0.0
 11
270.220403089
 21
385.2215493921
 31
0.0
  0
LINE
  5
5D4
330
1F
100
AcDbEntity
  8
0
  6
Continuous
 62
     7
370
    25
100
AcDbLine
 10
284.420403089
 20
382.2215493921
 30
0.0
 11
283.420403089
 21
382.2215493921
 31
0.0
  0
LINE
  5
5D5
330
1F
100
AcDbEntity
  8
0
  6
Continuous
 62
     7
370
    25
100
AcDbLine
 10
282.420403089
 20
385.2215493921
 30
0.0
 11
284.420403089
 21
385.2215493921
 31
0.0
  0
ARC
  5
5D6
330
1F
100
AcDbEntity
  8
0
  6
Continuous
 62
     7
370
    25
100
AcDbCircle
 10
270.220403089
 20
346.0215493921
 30
0.0
 40
3.80000000000003
100
AcDbArc
 50
247.0804578484
 51
270.0
  0
LINE
  5
5D7
330
1F
100
AcDbEntity
  8
0
  6
Continuous
 62
     7
370
    25
100
AcDbLine
 10
270.220403089
 20
342.2215493921
 30
0.0
 11
282.420403089
 21
342.2215493921
 31
0.0
  0
LINE
  5
5D8
330
1F
100
AcDbEntity
  8
0
  6
Continuous
 62
     7
370
    25
100
AcDbLine
 10
284.420403089
 20
342.2215493921
 30
0.0
 11
282.420403089
 21
342.2215493921
 31
0.0
  0
LINE
  5
5D9
330
1F
100
AcDbEntity
  8
0
  6
Continuous
 62
     7
370
    25
100
AcDbLine
 10
283.420403089
 20
345.2215493921
 30
0.0
 11
284.420403089
 21
345.2215493921
 31
0.0
  0
ARC
  5
5DA
330
1F
100
AcDbEntity
  8
0
  6
Continuous
 62
     7
370
    25
100
AcDbCircle
 10
287.620403089
 20
323.7215493921
 30
0.0
 40
0.1999999999999886
100
AcDbArc
 50
180.0
 51
270.0
  0
LINE
  5
5DB
330
1F
100
AcDbEntity
  8
0
  6
Continuous
 62
     7
370
    25
100
AcDbLine
 10
287.620403089
 20
323.5215493921
 30
0.0
 11
287.620403089
 21
323.2215493921
 31
0.0
  0
ARC
  5
5DC
330
1F
100
AcDbEntity
  8
0
  6
Continuous
 62
     7
370
    25
100
AcDbCircle
 10
287.620403089
 20
323.7215493921
 30
0.0
 40
0.5
100
AcDbArc
 50
180.0
 51
270.0
  0
LINE
  5
5DD
330
1F
100
AcDbEntity
  8
0
  6
Continuous
 62
     7
370
    25
100
AcDbLine
 10
287.420403089
 20
323.7215493921
 30
0.0
 11
287.120403089
 21
323.7215493921
 31
0.0
  0
LINE
  5
5DE
330
1F
100
AcDbEntity
  8
0
  6
Continuous
 62
     7
370
    25
100
AcDbLine
 10
367.620403089
 20
323.2215493921
 30
0.0
 11
287.620403089
 21
323.2215493921
 31
0.0
  0
LINE
  5
5DF
330
1F
100
AcDbEntity
  8
0
  6
Continuous
 62
     7
370
    25
100
AcDbLine
 10
287.620403089
 20
323.5215493921
 30
0.0
 11
367.620403089
 21
323.5215493921
 31
0.0
  0
LINE
  5
5E0
330
1F
100
AcDbEntity
  8
0
  6
Continuous
 62
     7
370
    25
100
AcDbLine
 10
367.620403089
 20
323.2215493921
 30
0.0
 11
367.620403089
 21
323.5215493921
 31
0.0
  0
CIRCLE
  5
5E1
330
1F
100
AcDbEntity
  8
0
  6
Continuous
 62
     7
370
    25
100
AcDbCircle
 10
327.620403089
 20
363.7215493921
 30
0.0
 40
29.5
  0
LINE
  5
5E2
330
1F
100
AcDbEntity
  8
0
  6
Continuous
 62
     7
370
    25
100
AcDbLine
 10
287.420403089
 20
403.7215493921
 30
0.0
 11
287.420403089
 21
323.7215493921
 31
0.0
  0
ARC
  5
5E3
330
1F
100
AcDbEntity
  8
0
  6
Continuous
 62
     7
370
    25
100
AcDbCircle
 10
287.620403089
 20
403.7215493921
 30
0.0
 40
0.1999999999999886
100
AcDbArc
 50
90.0
 51
180.0
  0
LINE
  5
5E4
330
1F
100
AcDbEntity
  8
0
  6
Continuous
 62
     7
370
    25
100
AcDbLine
 10
367.620403089
 20
403.9215493921
 30
0.0
 11
287.620403089
 21
403.9215493921
 31
0.0
  0
ARC
  5
5E5
330
1F
100
AcDbEntity
  8
0
  6
Continuous
 62
     7
370
    25
100
AcDbCircle
 10
367.620403089
 20
403.7215493921
 30
0.0
 40
0.1999999999999886
100
AcDbArc
 50
0.0
 51
90.0
  0
LINE
  5
5E6
330
1F
100
AcDbEntity
  8
0
  6
Continuous
 62
     7
370
    25
100
AcDbLine
 10
367.820403089
 20
323.7215493921
 30
0.0
 11
367.820403089
 21
403.7215493921
 31
0.0
  0
ARC
  5
5E7
330
1F
100
AcDbEntity
  8
0
  6
Continuous
 62
     7
370
    25
100
AcDbCircle
 10
367.620403089
 20
323.7215493921
 30
0.0
 40
0.1999999999999886
100
AcDbArc
 50
270.0
 51
0.0
  0
LINE
  5
5E8
330
1F
100
AcDbEntity
  8
0
  6
Continuous
 62
     7
370
    25
100
AcDbLine
 10
287.120403089
 20
323.7215493921
 30
0.0
 11
287.120403089
 21
403.7215493921
 31
0.0
  0
LINE
  5
5E9
330
1F
100
AcDbEntity
  8
0
  6
Continuous
 62
     7
370
    25
100
AcDbLine
 10
287.420403089
 20
403.7215493921
 30
0.0
 11
287.120403089
 21
403.7215493921
 31
0.0
  0
ARC
  5
5EA
330
1F
100
AcDbEntity
  8
0
  6
Continuous
 62
     7
370
    25
100
AcDbCircle
 10
287.620403089
 20
403.7215493921
 30
0.0
 40
0.5
100
AcDbArc
 50
90.0
 51
180.0
  0
LINE
  5
5EB
330
1F
100
AcDbEntity
  8
0
  6
Continuous
 62
     7
370
    25
100
AcDbLine
 10
287.620403089
 20
403.9215493921
 30
0.0
 11
287.620403089
 21
404.2215493921
 31
0.0
  0
LINE
  5
5EC
330
1F
100
AcDbEntity
  8
0
  6
Continuous
 62
     7
370
    25
100
AcDbLine
 10
287.620403089
 20
404.2215493921
 30
0.0
 11
367.620403089
 21
404.2215493921
 31
0.0
  0
LINE
  5
5ED
330
1F
100
AcDbEntity
  8
0
  6
Continuous
 62
     7
370
    25
100
AcDbLine
 10
367.620403089
 20
404.2215493921
 30
0.0
 11
367.620403089
 21
403.9215493921
 31
0.0
  0
ARC
  5
5EE
330
1F
100
AcDbEntity
  8
0
  6
Continuous
 62
     7
370
    25
100
AcDbCircle
 10
367.620403089
 20
323.7215493921
 30
0.0
 40
0.5
100
AcDbArc
 50
270.0
 51
0.0
  0
LINE
  5
5EF
330
1F
100
AcDbEntity
  8
0
  6
Continuous
 62
     7
370
    25
100
AcDbLine
 10
368.120403089
 20
323.7215493921
 30
0.0
 11
367.820403089
 21
323.7215493921
 31
0.0
  0
LINE
  5
5F0
330
1F
100
AcDbEntity
  8
0
  6
Continuous
 62
     7
370
    25
100
AcDbLine
 10
368.120403089
 20
403.7215493921
 30
0.0
 11
368.120403089
 21
323.7215493921
 31
0.0
  0
LINE
  5
5F1
330
1F
100
AcDbEntity
  8
0
  6
Continuous
 62
     7
370
    25
100
AcDbLine
 10
368.120403089
 20
403.7215493921
 30
0.0
 11
367.820403089
 21
403.7215493921
 31
0.0
  0
ARC
  5
5F2
330
1F
100
AcDbEntity
  8
0
  6
Continuous
 62
     7
370
    25
100
AcDbCircle
 10
367.620403089
 20
403.7215493921
 30
0.0
 40
0.5
100
AcDbArc
 50
0.0
 51
90.0
  0
LINE
  5
5F3
330
1F
100
AcDbEntity
  8
0
  6
Continuous
 62
     8
370
    25
100
AcDbLine
 10
280.170403089
 20
388.9715493921
 30
0.0
 11
270.670403089
 21
388.9715493921
 31
0.0
  0
LINE
  5
5F4
330
1F
100
AcDbEntity
  8
0
  6
Continuous
 62
     8
370
    25
100
AcDbLine
 10
270.220403089
 20
384.9215493921
 30
0.0
 11
270.220403089
 21
385.2215493921
 31
0.0
  0
LINE
  5
5F5
330
1F
100
AcDbEntity
  8
0
  6
Continuous
 62
     8
370
    25
100
AcDbLine
 10
282.420403089
 20
384.9215493921
 30
0.0
 11
282.420403089
 21
385.2215493921
 31
0.0
  0
LINE
  5
5F6
330
1F
100
AcDbEntity
  8
0
  6
Continuous
 62
     8
370
    25
100
AcDbLine
 10
270.220403089
 20
342.5215493921
 30
0.0
 11
270.220403089
 21
342.2215493921
 31
0.0
  0
LINE
  5
5F7
330
1F
100
AcDbEntity
  8
0
  6
Continuous
 62
     8
370
    25
100
AcDbLine
 10
282.420403089
 20
342.2215493921
 30
0.0
 11
282.420403089
 21
342.5215493921
 31
0.0
  0
ENDSEC
  0
SECTION
  2
OBJECTS
  0
DICTIONARY
  5
C
330
0
100
AcDbDictionary
281
     1
  3
ACAD_GROUP
350
D
  3
ACAD_LAYOUT
350
1A
  3
ACAD_MLINESTYLE
350
17
  3
ACAD_PLOTSETTINGS
350
19
  3
ACAD_PLOTSTYLENAME
350
E
  3
ACAD_SCALELIST
350
47
  0
DICTIONARY
  5
D
102
{ACAD_REACTORS
330
C
102
}
330
C
100
AcDbDictionary
281
     1
  0
DICTIONARY
  5
1A
102
{ACAD_REACTORS
330
C
102
}
330
C
100
AcDbDictionary
281
     1
  3
Layout1
350
1E
  3
Layout2
350
26
  3
Model
350
22
  0
DICTIONARY
  5
17
102
{ACAD_REACTORS
330
C
102
}
330
C
100
AcDbDictionary
281
     1
  3
Standard
350
18
  0
DICTIONARY
  5
19
102
{ACAD_REACTORS
330
C
102
}
330
C
100
AcDbDictionary
281
     1
  0
ACDBDICTIONARYWDFLT
  5
E
102
{ACAD_REACTORS
330
C
102
}
330
C
100
AcDbDictionary
281
     1
  3
Normal
350
F
100
AcDbDictionaryWithDefault
340
F
  0
DICTIONARY
  5
47
102
{ACAD_REACTORS
330
C
102
}
330
C
100
AcDbDictionary
281
     1
  3
A0
350
48
  3
A1
350
49
  3
A2
350
4A
  3
A3
350
4B
  3
A4
350
4C
  3
A5
350
4D
  3
A6
350
4E
  3
A7
350
4F
  3
A8
350
50
  3
A9
350
51
  3
B0
350
52
  3
B1
350
53
  3
B2
350
54
  3
B3
350
55
  3
B4
350
56
  3
B5
350
57
  3
B6
350
58
  3
B7
350
59
  3
B8
350
5A
  3
B9
350
5B
  3
C0
350
5C
  3
C1
350
5D
  3
C2
350
5E
  3
C3
350
5F
  3
C4
350
60
  3
C5
350
61
  3
C6
350
62
  3
C7
350
63
  3
C8
350
64
  3
C9
350
65
  3
D0
350
66
  3
D1
350
67
  3
D2
350
68
  0
LAYOUT
  5
1E
102
{ACAD_REACTORS
330
1A
102
}
330
1A
100
AcDbPlotSettings
  1

  2
none_device
  4

  6

 40
0.0
 41
0.0
 42
0.0
 43
0.0
 44
0.0
 45
0.0
 46
0.0
 47
0.0
 48
0.0
 49
0.0
140
0.0
141
0.0
142
1.0
143
1.0
 70
   688
 72
     1
 73
     0
 74
     5
  7

 75
    16
147
1.0
148
0.0
149
0.0
100
AcDbLayout
  1
Layout1
 70
     1
 71
     1
 10
0.0
 20
0.0
 11
420.0
 21
297.0
 12
0.0
 22
0.0
 32
0.0
 14
1.0000000000E+20
 24
1.0000000000E+20
 34
1.0000000000E+20
 15
-1.0000000000E+20
 25
-1.0000000000E+20
 35
-1.0000000000E+20
146
0.0
 13
0.0
 23
0.0
 33
0.0
 16
1.0
 26
0.0
 36
0.0
 17
0.0
 27
1.0
 37
0.0
 76
     0
330
1B
  0
LAYOUT
  5
26
102
{ACAD_REACTORS
330
1A
102
}
330
1A
100
AcDbPlotSettings
  1

  2
none_device
  4

  6

 40
0.0
 41
0.0
 42
0.0
 43
0.0
 44
0.0
 45
0.0
 46
0.0
 47
0.0
 48
0.0
 49
0.0
140
0.0
141
0.0
142
1.0
143
1.0
 70
   688
 72
     1
 73
     0
 74
     5
  7

 75
    16
147
1.0
148
0.0
149
0.0
100
AcDbLayout
  1
Layout2
 70
     1
 71
     2
 10
0.0
 20
0.0
 11
0.0
 21
0.0
 12
0.0
 22
0.0
 32
0.0
 14
0.0
 24
0.0
 34
0.0
 15
0.0
 25
0.0
 35
0.0
146
0.0
 13
0.0
 23
0.0
 33
0.0
 16
1.0
 26
0.0
 36
0.0
 17
0.0
 27
1.0
 37
0.0
 76
     0
330
23
  0
LAYOUT
  5
22
102
{ACAD_REACTORS
330
1A
102
}
330
1A
100
AcDbPlotSettings
  1

  2
none_device
  4
Letter_(8.50_x_11.00_Inches)
  6

 40
6.35
 41
6.35
 42
6.35000508
 43
6.35000508
 44
215.9
 45
279.4
 46
0.0
 47
0.0
 48
0.0
 49
0.0
140
0.0
141
0.0
142
1.0
143
1.0
 70
  1712
 72
     1
 73
     0
 74
     0
  7

 75
     0
147
1.0
148
0.0
149
0.0
100
AcDbLayout
  1
Model
 70
     1
 71
     0
 10
0.0
 20
0.0
 11
1189.0
 21
841.0
 12
0.0
 22
0.0
 32
0.0
 14
0.0
 24
0.0
 34
0.0
 15
1189.0
 25
841.0
 35
0.0
146
0.0
 13
0.0
 23
0.0
 33
0.0
 16
1.0
 26
0.0
 36
0.0
 17
0.0
 27
1.0
 37
0.0
 76
     0
330
1F
331
29
  0
MLINESTYLE
  5
18
102
{ACAD_REACTORS
330
17
102
}
330
17
100
AcDbMlineStyle
  2
Standard
 70
     0
  3

 62
   256
 51
90.0
 52
90.0
 71
     2
 49
0.5
 62
   256
  6
BYLAYER
 49
-0.5
 62
   256
  6
BYLAYER
  0
ACDBPLACEHOLDER
  5
F
102
{ACAD_REACTORS
330
E
102
}
330
E
  0
SCALE
  5
48
102
{ACAD_REACTORS
330
47
102
}
330
47
100
AcDbScale
 70
     0
300
1:1
140
1.0
141
1.0
290
     1
  0
SCALE
  5
49
102
{ACAD_REACTORS
330
47
102
}
330
47
100
AcDbScale
 70
     0
300
1:2
140
1.0
141
2.0
290
     0
  0
SCALE
  5
4A
102
{ACAD_REACTORS
330
47
102
}
330
47
100
AcDbScale
 70
     0
300
1:4
140
1.0
141
4.0
290
     0
  0
SCALE
  5
4B
102
{ACAD_REACTORS
330
47
102
}
330
47
100
AcDbScale
 70
     0
300
1:5
140
1.0
141
5.0
290
     0
  0
SCALE
  5
4C
102
{ACAD_REACTORS
330
47
102
}
330
47
100
AcDbScale
 70
     0
300
1:8
140
1.0
141
8.0
290
     0
  0
SCALE
  5
4D
102
{ACAD_REACTORS
330
47
102
}
330
47
100
AcDbScale
 70
     0
300
1:10
140
1.0
141
10.0
290
     0
  0
SCALE
  5
4E
102
{ACAD_REACTORS
330
47
102
}
330
47
100
AcDbScale
 70
     0
300
1:16
140
1.0
141
16.0
290
     0
  0
SCALE
  5
4F
102
{ACAD_REACTORS
330
47
102
}
330
47
100
AcDbScale
 70
     0
300
1:20
140
1.0
141
20.0
290
     0
  0
SCALE
  5
50
102
{ACAD_REACTORS
330
47
102
}
330
47
100
AcDbScale
 70
     0
300
1:30
140
1.0
141
30.0
290
     0
  0
SCALE
  5
51
102
{ACAD_REACTORS
330
47
102
}
330
47
100
AcDbScale
 70
     0
300
1:40
140
1.0
141
40.0
290
     0
  0
SCALE
  5
52
102
{ACAD_REACTORS
330
47
102
}
330
47
100
AcDbScale
 70
     0
300
1:50
140
1.0
141
50.0
290
     0
  0
SCALE
  5
53
102
{ACAD_REACTORS
330
47
102
}
330
47
100
AcDbScale
 70
     0
300
1:100
140
1.0
141
100.0
290
     0
  0
SCALE
  5
54
102
{ACAD_REACTORS
330
47
102
}
330
47
100
AcDbScale
 70
     0
300
2:1
140
2.0
141
1.0
290
     0
  0
SCALE
  5
55
102
{ACAD_REACTORS
330
47
102
}
330
47
100
AcDbScale
 70
     0
300
4:1
140
4.0
141
1.0
290
     0
  0
SCALE
  5
56
102
{ACAD_REACTORS
330
47
102
}
330
47
100
AcDbScale
 70
     0
300
8:1
140
8.0
141
1.0
290
     0
  0
SCALE
  5
57
102
{ACAD_REACTORS
330
47
102
}
330
47
100
AcDbScale
 70
     0
300
10:1
140
10.0
141
1.0
290
     0
  0
SCALE
  5
58
102
{ACAD_REACTORS
330
47
102
}
330
47
100
AcDbScale
 70
     0
300
100:1
140
100.0
141
1.0
290
     0
  0
SCALE
  5
59
102
{ACAD_REACTORS
330
47
102
}
330
47
100
AcDbScale
 70
     0
300
1/128" = 1'-0"
140
0.0078125
141
12.0
290
     0
  0
SCALE
  5
5A
102
{ACAD_REACTORS
330
47
102
}
330
47
100
AcDbScale
 70
     0
300
1/64" = 1'-0"
140
0.015625
141
12.0
290
     0
  0
SCALE
  5
5B
102
{ACAD_REACTORS
330
47
102
}
330
47
100
AcDbScale
 70
     0
300
1/32" = 1'-0"
140
0.03125
141
12.0
290
     0
  0
SCALE
  5
5C
102
{ACAD_REACTORS
330
47
102
}
330
47
100
AcDbScale
 70
     0
300
1/16" = 1'-0"
140
0.0625
141
12.0
290
     0
  0
SCALE
  5
5D
102
{ACAD_REACTORS
330
47
102
}
330
47
100
AcDbScale
 70
     0
300
3/32" = 1'-0"
140
0.09375
141
12.0
290
     0
  0
SCALE
  5
5E
102
{ACAD_REACTORS
330
47
102
}
330
47
100
AcDbScale
 70
     0
300
1/8" = 1'-0"
140
0.125
141
12.0
290
     0
  0
SCALE
  5
5F
102
{ACAD_REACTORS
330
47
102
}
330
47
100
AcDbScale
 70
     0
300
3/16" = 1'-0"
140
0.1875
141
12.0
290
     0
  0
SCALE
  5
60
102
{ACAD_REACTORS
330
47
102
}
330
47
100
AcDbScale
 70
     0
300
1/4" = 1'-0"
140
0.25
141
12.0
290
     0
  0
SCALE
  5
61
102
{ACAD_REACTORS
330
47
102
}
330
47
100
AcDbScale
 70
     0
300
3/8" = 1'-0"
140
0.375
141
12.0
290
     0
  0
SCALE
  5
62
102
{ACAD_REACTORS
330
47
102
}
330
47
100
AcDbScale
 70
     0
300
1/2" = 1'-0"
140
0.5
141
12.0
290
     0
  0
SCALE
  5
63
102
{ACAD_REACTORS
330
47
102
}
330
47
100
AcDbScale
 70
     0
300
3/4" = 1'-0"
140
0.75
141
12.0
290
     0
  0
SCALE
  5
64
102
{ACAD_REACTORS
330
47
102
}
330
47
100
AcDbScale
 70
     0
300
1" = 1'-0"
140
1.0
141
12.0
290
     0
  0
SCALE
  5
65
102
{ACAD_REACTORS
330
47
102
}
330
47
100
AcDbScale
 70
     0
300
1-1/2" = 1'-0"
140
1.5
141
12.0
290
     0
  0
SCALE
  5
66
102
{ACAD_REACTORS
330
47
102
}
330
47
100
AcDbScale
 70
     0
300
3" = 1'-0"
140
3.0
141
12.0
290
     0
  0
SCALE
  5
67
102
{ACAD_REACTORS
330
47
102
}
330
47
100
AcDbScale
 70
     0
300
6" = 1'-0"
140
6.0
141
12.0
290
     0
  0
SCALE
  5
68
102
{ACAD_REACTORS
330
47
102
}
330
47
100
AcDbScale
 70
     0
300
1'-0" = 1'-0"
140
12.0
141
12.0
290
     0
  0
ENDSEC
  0
EOF
