  0
SECTION
  2
HEADER
  9
$ACADVER
  1
AC1015
  9
$ACADMAINTVER
 70
     6
  9
$DWGCODEPAGE
  3
ANSI_1254
  9
$INSBASE
 10
0.0
 20
0.0
 30
0.0
  9
$EXTMIN
 10
0.0
 20
0.0
 30
0.0
  9
$EXTMAX
 10
420.0
 20
297.0
 30
0.0
  9
$LIMMIN
 10
0.0
 20
0.0
  9
$LIMMAX
 10
420.0
 20
297.0
  9
$ORTHOMODE
 70
     0
  9
$REGENMODE
 70
     1
  9
$FILLMODE
 70
     1
  9
$QTEXTMODE
 70
     0
  9
$MIRRTEXT
 70
     1
  9
$LTSCALE
 40
1.0
  9
$ATTMODE
 70
     1
  9
$TEXTSIZE
 40
3.5
  9
$TRACEWID
 40
1.0
  9
$TEXTSTYLE
  7
Standard
  9
$CLAYER
  8
0
  9
$CELTYPE
  6
ByLayer
  9
$CECOLOR
 62
   256
  9
$CELTSCALE
 40
1.0
  9
$DISPSILH
 70
     0
  9
$DIMSCALE
 40
1.0
  9
$DIMASZ
 40
3.302
  9
$DIMEXO
 40
1.0
  9
$DIMDLI
 40
3.75
  9
$DIMRND
 40
0.0
  9
$DIMDLE
 40
0.0
  9
$DIMEXE
 40
1.0
  9
$DIMTP
 40
0.0
  9
$DIMTM
 40
0.0
  9
$DIMTXT
 40
3.5
  9
$DIMCEN
 40
2.5
  9
$DIMTSZ
 40
0.0
  9
$DIMTOL
 70
     0
  9
$DIMLIM
 70
     0
  9
$DIMTIH
 70
     1
  9
$DIMTOH
 70
     1
  9
$DIMSE1
 70
     0
  9
$DIMSE2
 70
     0
  9
$DIMTAD
 70
     1
  9
$DIMZIN
 70
     1
  9
$DIMBLK
  1

  9
$DIMASO
 70
     1
  9
$DIMSHO
 70
     1
  9
$DIMPOST
  1

  9
$DIMAPOST
  1

  9
$DIMALT
 70
     0
  9
$DIMALTD
 70
     3
  9
$DIMALTF
 40
0.0393700787
  9
$DIMLFAC
 40
2.0
  9
$DIMTOFL
 70
     1
  9
$DIMTVP
 40
0.0
  9
$DIMTIX
 70
     0
  9
$DIMSOXD
 70
     0
  9
$DIMSAH
 70
     0
  9
$DIMBLK1
  1

  9
$DIMBLK2
  1

  9
$DIMSTYLE
  2
ISO-25
  9
$DIMCLRD
 70
     0
  9
$DIMCLRE
 70
     0
  9
$DIMCLRT
 70
     0
  9
$DIMTFAC
 40
1.0
  9
$DIMGAP
 40
1.524
  9
$DIMJUST
 70
     0
  9
$DIMSD1
 70
     0
  9
$DIMSD2
 70
     0
  9
$DIMTOLJ
 70
     0
  9
$DIMTZIN
 70
     1
  9
$DIMALTZ
 70
     0
  9
$DIMALTTZ
 70
     0
  9
$DIMUPT
 70
     0
  9
$DIMDEC
 70
     2
  9
$DIMTDEC
 70
     2
  9
$DIMALTU
 70
     2
  9
$DIMALTTD
 70
     3
  9
$DIMTXSTY
  7
Standard
  9
$DIMAUNIT
 70
     0
  9
$DIMADEC
 70
     2
  9
$DIMALTRND
 40
0.0
  9
$DIMAZIN
 70
     0
  9
$DIMDSEP
 70
    44
  9
$DIMATFIT
 70
     3
  9
$DIMFRAC
 70
     0
  9
$DIMLDRBLK
  1

  9
$DIMLUNIT
 70
     2
  9
$DIMLWD
 70
    -2
  9
$DIMLWE
 70
    -2
  9
$DIMTMOVE
 70
     0
  9
$LUNITS
 70
     2
  9
$LUPREC
 70
     2
  9
$SKETCHINC
 40
1.0
  9
$FILLETRAD
 40
10.0
  9
$AUNITS
 70
     0
  9
$AUPREC
 70
     2
  9
$MENU
  1
.
  9
$ELEVATION
 40
0.0
  9
$PELEVATION
 40
0.0
  9
$THICKNESS
 40
0.0
  9
$LIMCHECK
 70
     0
  9
$CHAMFERA
 40
0.0
  9
$CHAMFERB
 40
0.0
  9
$CHAMFERC
 40
0.0
  9
$CHAMFERD
 40
0.0
  9
$SKPOLY
 70
     0
  9
$TDCREATE
 40
2460368.851999213
  9
$TDUCREATE
 40
2460368.726999213
  9
$TDUPDATE
 40
2460368.851999618
  9
$TDUUPDATE
 40
2460368.726999618
  9
$TDINDWG
 40
0.0000000116
  9
$TDUSRTIMER
 40
0.0000000116
  9
$USRTIMER
 70
     1
  9
$ANGBASE
 50
0.0
  9
$ANGDIR
 70
     0
  9
$PDMODE
 70
     0
  9
$PDSIZE
 40
-1.0
  9
$PLINEWID
 40
0.0
  9
$SPLFRAME
 70
     0
  9
$SPLINETYPE
 70
     6
  9
$SPLINESEGS
 70
     8
  9
$HANDSEED
  5
3EE
  9
$SURFTAB1
 70
     6
  9
$SURFTAB2
 70
     6
  9
$SURFTYPE
 70
     6
  9
$SURFU
 70
     6
  9
$SURFV
 70
     6
  9
$UCSBASE
  2

  9
$UCSNAME
  2

  9
$UCSORG
 10
0.0
 20
0.0
 30
0.0
  9
$UCSXDIR
 10
1.0
 20
0.0
 30
0.0
  9
$UCSYDIR
 10
0.0
 20
1.0
 30
0.0
  9
$UCSORTHOREF
  2

  9
$UCSORTHOVIEW
 70
     0
  9
$UCSORGTOP
 10
0.0
 20
0.0
 30
0.0
  9
$UCSORGBOTTOM
 10
0.0
 20
0.0
 30
0.0
  9
$UCSORGLEFT
 10
0.0
 20
0.0
 30
0.0
  9
$UCSORGRIGHT
 10
0.0
 20
0.0
 30
0.0
  9
$UCSORGFRONT
 10
0.0
 20
0.0
 30
0.0
  9
$UCSORGBACK
 10
0.0
 20
0.0
 30
0.0
  9
$PUCSBASE
  2

  9
$PUCSNAME
  2

  9
$PUCSORG
 10
0.0
 20
0.0
 30
0.0
  9
$PUCSXDIR
 10
1.0
 20
0.0
 30
0.0
  9
$PUCSYDIR
 10
0.0
 20
1.0
 30
0.0
  9
$PUCSORTHOREF
  2

  9
$PUCSORTHOVIEW
 70
     0
  9
$PUCSORGTOP
 10
0.0
 20
0.0
 30
0.0
  9
$PUCSORGBOTTOM
 10
0.0
 20
0.0
 30
0.0
  9
$PUCSORGLEFT
 10
0.0
 20
0.0
 30
0.0
  9
$PUCSORGRIGHT
 10
0.0
 20
0.0
 30
0.0
  9
$PUCSORGFRONT
 10
0.0
 20
0.0
 30
0.0
  9
$PUCSORGBACK
 10
0.0
 20
0.0
 30
0.0
  9
$USERI1
 70
     0
  9
$USERI2
 70
     0
  9
$USERI3
 70
     0
  9
$USERI4
 70
     0
  9
$USERI5
 70
     0
  9
$USERR1
 40
0.0
  9
$USERR2
 40
0.0
  9
$USERR3
 40
0.0
  9
$USERR4
 40
0.0
  9
$USERR5
 40
0.0
  9
$WORLDVIEW
 70
     1
  9
$SHADEDGE
 70
     3
  9
$SHADEDIF
 70
    70
  9
$TILEMODE
 70
     1
  9
$MAXACTVP
 70
    64
  9
$PINSBASE
 10
0.0
 20
0.0
 30
0.0
  9
$PLIMCHECK
 70
     0
  9
$PEXTMIN
 10
1.0000000000E+20
 20
1.0000000000E+20
 30
1.0000000000E+20
  9
$PEXTMAX
 10
-1.0000000000E+20
 20
-1.0000000000E+20
 30
-1.0000000000E+20
  9
$PLIMMIN
 10
0.0
 20
0.0
  9
$PLIMMAX
 10
420.0
 20
297.0
  9
$UNITMODE
 70
     0
  9
$VISRETAIN
 70
     1
  9
$PLINEGEN
 70
     0
  9
$PSLTSCALE
 70
     1
  9
$TREEDEPTH
 70
  3020
  9
$CMLSTYLE
  2
Standard
  9
$CMLJUST
 70
     0
  9
$CMLSCALE
 40
20.0
  9
$PROXYGRAPHICS
 70
     1
  9
$MEASUREMENT
 70
     1
  9
$CELWEIGHT
370
    -1
  9
$ENDCAPS
280
     0
  9
$JOINSTYLE
280
     0
  9
$LWDISPLAY
290
     1
  9
$INSUNITS
 70
     4
  9
$HYPERLINKBASE
  1

  9
$STYLESHEET
  1

  9
$XEDIT
290
     1
  9
$CEPSNTYPE
380
     0
  9
$PSTYLEMODE
290
     1
  9
$FINGERPRINTGUID
  2
{cad04bd8-5366-4418-91dd-973332f16bf0}
  9
$VERSIONGUID
  2
{FAEB1C32-E019-11D5-929B-00C0DF256EC4}
  9
$EXTNAMES
290
     1
  9
$PSVPSCALE
 40
0.0
  9
$OLESTARTUP
290
     0
  0
ENDSEC
  0
SECTION
  2
CLASSES
  0
CLASS
  1
ACDBDICTIONARYWDFLT
  2
AcDbDictionaryWithDefault
  3
ObjectDBX Classes
 90
        0
280
     0
281
     0
  0
CLASS
  1
VISUALSTYLE
  2
AcDbVisualStyle
  3
ObjectDBX Classes
 90
     4095
280
     0
281
     0
  0
CLASS
  1
MATERIAL
  2
AcDbMaterial
  3
ObjectDBX Classes
 90
     1153
280
     0
281
     0
  0
CLASS
  1
SCALE
  2
AcDbScale
  3
ObjectDBX Classes
 90
     1153
280
     0
281
     0
  0
CLASS
  1
TABLESTYLE
  2
AcDbTableStyle
  3
ObjectDBX Classes
 90
     4095
280
     0
281
     0
  0
CLASS
  1
MLEADERSTYLE
  2
AcDbMLeaderStyle
  3
ACDB_MLEADERSTYLE_CLASS
 90
     4095
280
     0
281
     0
  0
CLASS
  1
SUN
  2
AcDbSun
  3
SCENEOE
 90
     1153
280
     0
281
     0
  0
CLASS
  1
ACDBPLACEHOLDER
  2
AcDbPlaceHolder
  3
ObjectDBX Classes
 90
        0
280
     0
281
     0
  0
CLASS
  1
LAYOUT
  2
AcDbLayout
  3
ObjectDBX Classes
 90
        0
280
     0
281
     0
  0
ENDSEC
  0
SECTION
  2
TABLES
  0
TABLE
  2
VPORT
  5
8
330
0
100
AcDbSymbolTable
 70
     1
  0
VPORT
  5
29
330
8
100
AcDbSymbolTableRecord
100
AcDbViewportTableRecord
  2
*Active
 70
     0
 10
0.0
 20
0.0
 11
1.0
 21
1.0
 12
210.0
 22
148.5
 13
0.0
 23
0.0
 14
10.0
 24
10.0
 15
10.0
 25
10.0
 16
0.0
 26
0.0
 36
1.0
 17
0.0
 27
0.0
 37
0.0
 40
297.0
 41
1.4141414141
 42
50.0
 43
0.0
 44
0.0
 50
0.0
 51
0.0
 71
     0
 72
  2000
 73
     1
 74
     3
 75
     0
 76
     0
 77
     0
 78
     0
281
     0
 65
     1
110
0.0
120
0.0
130
0.0
111
1.0
121
0.0
131
0.0
112
0.0
122
1.0
132
0.0
 79
     0
146
0.0
  0
ENDTAB
  0
TABLE
  2
LTYPE
  5
5
330
0
100
AcDbSymbolTable
 70
     6
  0
LTYPE
  5
14
330
5
100
AcDbSymbolTableRecord
100
AcDbLinetypeTableRecord
  2
ByBlock
 70
     0
  3

 72
    65
 73
     0
 40
0.0
  0
LTYPE
  5
15
330
5
100
AcDbSymbolTableRecord
100
AcDbLinetypeTableRecord
  2
ByLayer
 70
     0
  3

 72
    65
 73
     0
 40
0.0
  0
LTYPE
  5
16
330
5
100
AcDbSymbolTableRecord
100
AcDbLinetypeTableRecord
  2
Continuous
 70
     0
  3
Solid line
 72
    65
 73
     0
 40
0.0
  0
LTYPE
  5
6E
330
5
100
AcDbSymbolTableRecord
100
AcDbLinetypeTableRecord
  2
HIDDEN
 70
     0
  3
Hidden __ __ __ __ __ __ __ __ __ __ __ __ __ __
 72
    65
 73
     2
 40
1.905
 49
1.27
 74
     0
 49
-0.635
 74
     0
  0
LTYPE
  5
6F
330
5
100
AcDbSymbolTableRecord
100
AcDbLinetypeTableRecord
  2
PHANTOM
 70
     0
  3
Phantom ______  __  __  ______  __  __  ______
 72
    65
 73
     6
 40
12.7
 49
6.35
 74
     0
 49
-1.27
 74
     0
 49
1.27
 74
     0
 49
-1.27
 74
     0
 49
1.27
 74
     0
 49
-1.27
 74
     0
  0
LTYPE
  5
70
330
5
100
AcDbSymbolTableRecord
100
AcDbLinetypeTableRecord
  2
CENTER
 70
     0
  3
Center ____ _ ____ _ ____ _ ____ _ ____ _ ____
 72
    65
 73
     4
 40
10.16
 49
6.35
 74
     0
 49
-1.27
 74
     0
 49
1.27
 74
     0
 49
-1.27
 74
     0
  0
LTYPE
  5
71
330
5
100
AcDbSymbolTableRecord
100
AcDbLinetypeTableRecord
  2
CENTERX2
 70
     0
  3
Center (2x) ________  __  ________  __  _____
 72
    65
 73
     4
 40
20.32
 49
12.7
 74
     0
 49
-2.54
 74
     0
 49
2.54
 74
     0
 49
-2.54
 74
     0
  0
LTYPE
  5
72
330
5
100
AcDbSymbolTableRecord
100
AcDbLinetypeTableRecord
  2
DOT2
 70
     0
  3
Dot (.5x) ........................................
 72
    65
 73
     2
 40
0.635
 49
0.0
 74
     0
 49
-0.635
 74
     0
  0
ENDTAB
  0
TABLE
  2
LAYER
  5
2
330
0
100
AcDbSymbolTable
 70
     5
  0
LAYER
  5
10
330
2
100
AcDbSymbolTableRecord
100
AcDbLayerTableRecord
  2
0
 70
     0
 62
     7
  6
Continuous
370
    -3
390
F
  0
LAYER
  5
73
330
2
100
AcDbSymbolTableRecord
100
AcDbLayerTableRecord
  2
FORMAT
 70
     0
 62
     7
  6
Continuous
370
    -3
390
F
  0
LAYER
  5
74
330
2
100
AcDbSymbolTableRecord
100
AcDbLayerTableRecord
  2
SLD-0
 70
     0
 62
   179
  6
Continuous
370
    -3
390
F
  0
LAYER
  5
75
330
2
100
AcDbSymbolTableRecord
100
AcDbLayerTableRecord
  2
AAA_EKSEN
 70
     0
 62
     1
  6
CENTER
370
    -3
390
F
  0
LAYER
  5
76
330
2
100
AcDbSymbolTableRecord
100
AcDbLayerTableRecord
  2
03
 70
     0
 62
     3
  6
HIDDEN
370
    -3
390
F
  0
ENDTAB
  0
TABLE
  2
STYLE
  5
3
330
0
100
AcDbSymbolTable
 70
     1
  0
STYLE
  5
11
330
3
100
AcDbSymbolTableRecord
100
AcDbTextStyleTableRecord
  2
Standard
 70
     0
 40
0.0
 41
1.0
 50
0.0
 71
     0
 42
3.5
  3
txt
  4

  0
ENDTAB
  0
TABLE
  2
VIEW
  5
6
330
0
100
AcDbSymbolTable
 70
     0
  0
ENDTAB
  0
TABLE
  2
UCS
  5
7
330
0
100
AcDbSymbolTable
 70
     0
  0
ENDTAB
  0
TABLE
  2
APPID
  5
9
330
0
100
AcDbSymbolTable
 70
     1
  0
APPID
  5
12
330
9
100
AcDbSymbolTableRecord
100
AcDbRegAppTableRecord
  2
ACAD
 70
     0
  0
ENDTAB
  0
TABLE
  2
DIMSTYLE
  5
A
330
0
100
AcDbSymbolTable
 70
     1
100
AcDbDimStyleTable
  0
DIMSTYLE
105
27
330
A
100
AcDbSymbolTableRecord
100
AcDbDimStyleTableRecord
  2
ISO-25
 70
     0
 41
2.5
 42
0.625
 43
3.75
 44
1.25
 73
     0
 74
     0
 77
     1
 78
     8
140
2.5
141
2.5
143
0.0393700787
147
0.625
171
     3
172
     1
178
     0
271
     2
272
     2
274
     3
278
    44
283
     0
284
     8
340
11
  0
ENDTAB
  0
TABLE
  2
BLOCK_RECORD
  5
1
330
0
100
AcDbSymbolTable
 70
     1
  0
BLOCK_RECORD
  5
1F
330
1
100
AcDbSymbolTableRecord
100
AcDbBlockTableRecord
  2
*Model_Space
340
22
  0
BLOCK_RECORD
  5
1B
330
1
100
AcDbSymbolTableRecord
100
AcDbBlockTableRecord
  2
*Paper_Space
340
1E
  0
BLOCK_RECORD
  5
23
330
1
100
AcDbSymbolTableRecord
100
AcDbBlockTableRecord
  2
*Paper_Space0
340
26
  0
ENDTAB
  0
ENDSEC
  0
SECTION
  2
BLOCKS
  0
BLOCK
  5
20
330
1F
100
AcDbEntity
  8
0
100
AcDbBlockBegin
  2
*Model_Space
 70
     0
 10
0.0
 20
0.0
 30
0.0
  3
*Model_Space
  1

  0
ENDBLK
  5
21
330
1F
100
AcDbEntity
  8
0
100
AcDbBlockEnd
  0
BLOCK
  5
1C
330
1B
100
AcDbEntity
 67
     1
  8
0
100
AcDbBlockBegin
  2
*Paper_Space
 70
     0
 10
0.0
 20
0.0
 30
0.0
  3
*Paper_Space
  1

  0
ENDBLK
  5
1D
330
1B
100
AcDbEntity
 67
     1
  8
0
100
AcDbBlockEnd
  0
BLOCK
  5
24
330
23
100
AcDbEntity
  8
0
100
AcDbBlockBegin
  2
*Paper_Space0
 70
     0
 10
0.0
 20
0.0
 30
0.0
  3
*Paper_Space0
  1

  0
ENDBLK
  5
25
330
23
100
AcDbEntity
  8
0
100
AcDbBlockEnd
  0
ENDSEC
  0
SECTION
  2
ENTITIES
  0
LINE
  5
77
330
1F
100
AcDbEntity
  8
0
  6
Continuous
 62
     7
370
    25
100
AcDbLine
 10
140.5308017468
 20
130.9400709893
 30
0.0
 11
140.5308017468
 21
67.2699808541
 31
0.0
  0
LINE
  5
78
330
1F
100
AcDbEntity
  8
0
  6
Continuous
 62
     7
370
    25
100
AcDbLine
 10
152.4542137199
 20
67.2699808541
 30
0.0
 11
152.4542137199
 21
130.9400709893
 31
0.0
  0
LINE
  5
79
330
1F
100
AcDbEntity
  8
0
  6
Continuous
 62
     7
370
    25
100
AcDbLine
 10
137.1987627832
 20
130.7902968508
 30
0.0
 11
137.1987627832
 21
67.2699808541
 31
0.0
  0
LINE
  5
7A
330
1F
100
AcDbEntity
  8
0
  6
Continuous
 62
     7
370
    25
100
AcDbLine
 10
155.7862526834
 20
67.2699808541
 30
0.0
 11
155.7862526834
 21
130.7902968508
 31
0.0
  0
LINE
  5
7B
330
1F
100
AcDbEntity
  8
0
  6
Continuous
 62
     7
370
    25
100
AcDbLine
 10
134.0359376762
 20
130.5778229291
 30
0.0
 11
134.0359376762
 21
67.2699808541
 31
0.0
  0
LINE
  5
7C
330
1F
100
AcDbEntity
  8
0
  6
Continuous
 62
     7
370
    25
100
AcDbLine
 10
158.9490777905
 20
67.2699808541
 30
0.0
 11
158.9490777905
 21
130.5778229291
 31
0.0
  0
LINE
  5
7D
330
1F
100
AcDbEntity
  8
0
  6
Continuous
 62
     7
370
    25
100
AcDbLine
 10
131.1038872187
 20
130.3083610998
 30
0.0
 11
131.1038872187
 21
67.2699808541
 31
0.0
  0
LINE
  5
7E
330
1F
100
AcDbEntity
  8
0
  6
Continuous
 62
     7
370
    25
100
AcDbLine
 10
161.881128248
 20
67.2699808541
 30
0.0
 11
161.881128248
 21
130.3083610998
 31
0.0
  0
LINE
  5
7F
330
1F
100
AcDbEntity
  8
0
  6
Continuous
 62
     7
370
    25
100
AcDbLine
 10
128.4596804377
 20
129.9900623629
 30
0.0
 11
128.4596804377
 21
67.2699808541
 31
0.0
  0
LINE
  5
80
330
1F
100
AcDbEntity
  8
0
  6
Continuous
 62
     7
370
    25
100
AcDbLine
 10
164.525335029
 20
67.2699808541
 30
0.0
 11
164.525335029
 21
129.9900623629
 31
0.0
  0
LINE
  5
81
330
1F
100
AcDbEntity
  8
0
  6
Continuous
 62
     7
370
    25
100
AcDbLine
 10
126.1547838104
 20
129.6342737283
 30
0.0
 11
126.1547838104
 21
67.2699808541
 31
0.0
  0
LINE
  5
82
330
1F
100
AcDbEntity
  8
0
  6
Continuous
 62
     7
370
    25
100
AcDbLine
 10
166.8302316563
 20
67.2699808541
 30
0.0
 11
166.8302316563
 21
129.6342737283
 31
0.0
  0
LINE
  5
83
330
1F
100
AcDbEntity
  8
0
  6
Continuous
 62
     7
370
    25
100
AcDbLine
 10
124.234059528
 20
129.257196863
 30
0.0
 11
124.234059528
 21
67.2699808541
 31
0.0
  0
LINE
  5
84
330
1F
100
AcDbEntity
  8
0
  6
Continuous
 62
     7
370
    25
100
AcDbLine
 10
168.7509559387
 20
67.2699808541
 30
0.0
 11
168.7509559387
 21
129.257196863
 31
0.0
  0
LINE
  5
85
330
1F
100
AcDbEntity
  8
0
  6
Continuous
 62
     7
370
    25
100
AcDbLine
 10
122.7348923038
 20
128.88348945
 30
0.0
 11
122.7348923038
 21
67.2699808541
 31
0.0
  0
LINE
  5
86
330
1F
100
AcDbEntity
  8
0
  6
Continuous
 62
     7
370
    25
100
AcDbLine
 10
170.2501231629
 20
67.2699808541
 30
0.0
 11
170.2501231629
 21
128.88348945
 31
0.0
  0
LINE
  5
87
330
1F
100
AcDbEntity
  8
0
  6
Continuous
 62
     7
370
    25
100
AcDbLine
 10
171.2985537442
 20
67.2699808541
 30
0.0
 11
171.2985537442
 21
128.5534044404
 31
0.0
  0
LINE
  5
88
330
1F
100
AcDbEntity
  8
0
  6
Continuous
 62
     7
370
    25
100
AcDbLine
 10
121.6864617225
 20
128.5534044404
 30
0.0
 11
121.6864617225
 21
67.2699808541
 31
0.0
  0
LINE
  5
89
330
1F
100
AcDbEntity
  8
0
  6
Continuous
 62
     7
370
    25
100
AcDbLine
 10
171.8758411738
 20
67.2699808541
 30
0.0
 11
171.8758411738
 21
128.3312783913
 31
0.0
  0
LINE
  5
8A
330
1F
100
AcDbEntity
  8
0
  6
Continuous
 62
     7
370
    25
100
AcDbLine
 10
121.1091742928
 20
128.3312783913
 30
0.0
 11
121.1091742928
 21
67.2699808541
 31
0.0
  0
LINE
  5
8B
330
1F
100
AcDbEntity
  8
0
  6
Continuous
 62
     7
370
    25
100
AcDbLine
 10
171.9839294435
 20
67.2699808541
 30
0.0
 11
171.9839294435
 21
128.2850160812
 31
0.0
  0
LINE
  5
8C
330
1F
100
AcDbEntity
  8
0
  6
Continuous
 62
     7
370
    25
100
AcDbLine
 10
121.0010860232
 20
128.2850160812
 30
0.0
 11
121.0010860232
 21
67.2699808541
 31
0.0
  0
LINE
  5
8D
330
1F
100
AcDbEntity
  8
0
  6
Continuous
 62
     7
370
    25
100
AcDbLine
 10
149.697567631
 20
171.527479031
 30
0.0
 11
149.697567631
 21
235.2699808541
 31
0.0
  0
LINE
  5
8E
330
1F
100
AcDbEntity
  8
0
  6
Continuous
 62
     7
370
    25
100
AcDbLine
 10
141.1993251859
 20
235.2699808541
 30
0.0
 11
141.1993251859
 21
171.5781937288
 31
0.0
  0
LINE
  5
8F
330
1F
100
AcDbEntity
  8
0
  6
Continuous
 62
     7
370
    25
100
AcDbLine
 10
153.1187082233
 20
171.6241498603
 30
0.0
 11
153.1187082233
 21
235.2699808541
 31
0.0
  0
LINE
  5
90
330
1F
100
AcDbEntity
  8
0
  6
Continuous
 62
     7
370
    25
100
AcDbLine
 10
137.8415985006
 20
235.2699808541
 30
0.0
 11
137.8415985006
 21
171.7151707496
 31
0.0
  0
LINE
  5
91
330
1F
100
AcDbEntity
  8
0
  6
Continuous
 62
     7
370
    25
100
AcDbLine
 10
156.4225556777
 20
171.7865821971
 30
0.0
 11
156.4225556777
 21
235.2699808541
 31
0.0
  0
LINE
  5
92
330
1F
100
AcDbEntity
  8
0
  6
Continuous
 62
     7
370
    25
100
AcDbLine
 10
134.6405736057
 20
235.2699808541
 30
0.0
 11
134.6405736057
 21
171.9157161707
 31
0.0
  0
LINE
  5
93
330
1F
100
AcDbEntity
  8
0
  6
Continuous
 62
     7
370
    25
100
AcDbLine
 10
159.5448043616
 20
172.0107654253
 30
0.0
 11
159.5448043616
 21
235.2699808541
 31
0.0
  0
LINE
  5
94
330
1F
100
AcDbEntity
  8
0
  6
Continuous
 62
     7
370
    25
100
AcDbLine
 10
131.6585548097
 20
235.2699808541
 30
0.0
 11
131.6585548097
 21
172.1745485697
 31
0.0
  0
LINE
  5
95
330
1F
100
AcDbEntity
  8
0
  6
Continuous
 62
     7
370
    25
100
AcDbLine
 10
162.424683256
 20
172.2905446544
 30
0.0
 11
162.424683256
 21
235.2699808541
 31
0.0
  0
LINE
  5
96
330
1F
100
AcDbEntity
  8
0
  6
Continuous
 62
     7
370
    25
100
AcDbLine
 10
128.9535837165
 20
235.2699808541
 30
0.0
 11
128.9535837165
 21
172.4840378896
 31
0.0
  0
LINE
  5
97
330
1F
100
AcDbEntity
  8
0
  6
Continuous
 62
     7
370
    25
100
AcDbLine
 10
165.0061387939
 20
172.617220149
 30
0.0
 11
165.0061387939
 21
235.2699808541
 31
0.0
  0
LINE
  5
98
330
1F
100
AcDbEntity
  8
0
  6
Continuous
 62
     7
370
    25
100
AcDbLine
 10
126.5783095115
 20
235.2699808541
 30
0.0
 11
126.5783095115
 21
172.8335568075
 31
0.0
  0
LINE
  5
99
330
1F
100
AcDbEntity
  8
0
  6
Continuous
 62
     7
370
    25
100
AcDbLine
 10
167.2389258796
 20
172.9786643444
 30
0.0
 11
167.2389258796
 21
235.2699808541
 31
0.0
  0
LINE
  5
9A
330
1F
100
AcDbEntity
  8
0
  6
Continuous
 62
     7
370
    25
100
AcDbLine
 10
124.5789642053
 20
235.2699808541
 30
0.0
 11
124.5789642053
 21
173.2080588443
 31
0.0
  0
LINE
  5
9B
330
1F
100
AcDbEntity
  8
0
  6
Continuous
 62
     7
370
    25
100
AcDbLine
 10
169.0795858524
 20
173.3573873122
 30
0.0
 11
169.0795858524
 21
235.2699808541
 31
0.0
  0
LINE
  5
9C
330
1F
100
AcDbEntity
  8
0
  6
Continuous
 62
     7
370
    25
100
AcDbLine
 10
122.9944627802
 20
235.2699808541
 30
0.0
 11
122.9944627802
 21
173.5849771513
 31
0.0
  0
LINE
  5
9D
330
1F
100
AcDbEntity
  8
0
  6
Continuous
 62
     7
370
    25
100
AcDbLine
 10
170.4922923595
 20
173.7263664244
 30
0.0
 11
170.4922923595
 21
235.2699808541
 31
0.0
  0
LINE
  5
9E
330
1F
100
AcDbEntity
  8
0
  6
Continuous
 62
     7
370
    25
100
AcDbLine
 10
121.8556457538
 20
235.2699808541
 30
0.0
 11
121.8556457538
 21
173.9278751542
 31
0.0
  0
LINE
  5
9F
330
1F
100
AcDbEntity
  8
0
  6
Continuous
 62
     7
370
    25
100
AcDbLine
 10
171.4495486757
 20
174.0411397423
 30
0.0
 11
171.4495486757
 21
235.2699808541
 31
0.0
  0
LINE
  5
A0
330
1F
100
AcDbEntity
  8
0
  6
Continuous
 62
     7
370
    25
100
AcDbLine
 10
121.1846789044
 20
235.2699808541
 30
0.0
 11
121.1846789044
 21
174.1773650227
 31
0.0
  0
LINE
  5
A1
330
1F
100
AcDbEntity
  8
0
  6
Continuous
 62
     7
370
    25
100
AcDbLine
 10
171.9327228957
 20
174.2328107262
 30
0.0
 11
171.9327228957
 21
235.2699808541
 31
0.0
  0
LINE
  5
A2
330
1F
100
AcDbEntity
  8
0
  6
Continuous
 62
     7
370
    25
100
AcDbLine
 10
171.955931145
 20
174.2427929746
 30
0.0
 11
171.955931145
 21
235.2699808541
 31
0.0
  0
LINE
  5
A3
330
1F
100
AcDbEntity
  8
0
  6
Continuous
 62
     7
370
    25
100
AcDbLine
 10
147.4455449199
 20
67.2699808541
 30
0.0
 11
148.0829264951
 21
67.2699808541
 31
0.0
  0
LINE
  5
A4
330
1F
100
AcDbEntity
  8
0
  6
Continuous
 62
     7
370
    25
100
AcDbLine
 10
144.9020889715
 20
67.2699808541
 30
0.0
 11
145.5394705468
 21
67.2699808541
 31
0.0
  0
LINE
  5
A5
330
1F
100
AcDbEntity
  8
0
  6
Continuous
 62
     7
370
    25
100
AcDbLine
 10
148.4596691325
 20
67.2699808541
 30
0.0
 11
148.0829264951
 21
67.2699808541
 31
0.0
  0
LINE
  5
A6
330
1F
100
AcDbEntity
  8
0
  6
Continuous
 62
     7
370
    25
100
AcDbLine
 10
144.9020889715
 20
67.2699808541
 30
0.0
 11
144.5253463342
 21
67.2699808541
 31
0.0
  0
LINE
  5
A7
330
1F
100
AcDbEntity
  8
0
  6
Continuous
 62
     7
370
    25
100
AcDbLine
 10
143.9672916013
 20
131.0235321162
 30
0.0
 11
143.9672916013
 21
67.2699808541
 31
0.0
  0
LINE
  5
A8
330
1F
100
AcDbEntity
  8
0
  6
Continuous
 62
     7
370
    25
100
AcDbLine
 10
143.9672916013
 20
67.2699808541
 30
0.0
 11
144.5253463342
 21
67.2699808541
 31
0.0
  0
LINE
  5
A9
330
1F
100
AcDbEntity
  8
0
  6
Continuous
 62
     7
370
    25
100
AcDbLine
 10
149.0177238653
 20
67.2699808541
 30
0.0
 11
149.0177238653
 21
131.0235321162
 31
0.0
  0
LINE
  5
AA
330
1F
100
AcDbEntity
  8
0
  6
Continuous
 62
     7
370
    25
100
AcDbLine
 10
148.4596691325
 20
67.2699808541
 30
0.0
 11
149.0177238653
 21
67.2699808541
 31
0.0
  0
LINE
  5
AB
330
1F
100
AcDbEntity
  8
0
  6
Continuous
 62
     7
370
    25
100
AcDbLine
 10
150.9052484537
 20
67.2699808541
 30
0.0
 11
151.609550964
 21
67.2699808541
 31
0.0
  0
LINE
  5
AC
330
1F
100
AcDbEntity
  8
0
  6
Continuous
 62
     7
370
    25
100
AcDbLine
 10
141.3754645027
 20
67.2699808541
 30
0.0
 11
142.079767013
 21
67.2699808541
 31
0.0
  0
LINE
  5
AD
330
1F
100
AcDbEntity
  8
0
  6
Continuous
 62
     7
370
    25
100
AcDbLine
 10
151.9789607344
 20
67.2699808541
 30
0.0
 11
151.609550964
 21
67.2699808541
 31
0.0
  0
LINE
  5
AE
330
1F
100
AcDbEntity
  8
0
  6
Continuous
 62
     7
370
    25
100
AcDbLine
 10
141.3754645027
 20
67.2699808541
 30
0.0
 11
141.0060547323
 21
67.2699808541
 31
0.0
  0
LINE
  5
AF
330
1F
100
AcDbEntity
  8
0
  6
Continuous
 62
     7
370
    25
100
AcDbLine
 10
145.6549198125
 20
131.0395755456
 30
0.0
 11
145.6549198125
 21
67.2699808541
 31
0.0
  0
LINE
  5
B0
330
1F
100
AcDbEntity
  8
0
  6
Continuous
 62
     7
370
    25
100
AcDbLine
 10
145.6549198125
 20
67.2699808541
 30
0.0
 11
145.5394705468
 21
67.2699808541
 31
0.0
  0
LINE
  5
B1
330
1F
100
AcDbEntity
  8
0
  6
Continuous
 62
     7
370
    25
100
AcDbLine
 10
147.3300956542
 20
67.2699808541
 30
0.0
 11
147.3300956542
 21
131.0395755456
 31
0.0
  0
LINE
  5
B2
330
1F
100
AcDbEntity
  8
0
  6
Continuous
 62
     7
370
    25
100
AcDbLine
 10
147.4455449199
 20
67.2699808541
 30
0.0
 11
147.3300956542
 21
67.2699808541
 31
0.0
  0
LINE
  5
B3
330
1F
100
AcDbEntity
  8
0
  6
Continuous
 62
     7
370
    25
100
AcDbLine
 10
140.5308017468
 20
67.2699808541
 30
0.0
 11
141.0060547323
 21
67.2699808541
 31
0.0
  0
LINE
  5
B4
330
1F
100
AcDbEntity
  8
0
  6
Continuous
 62
     7
370
    25
100
AcDbLine
 10
151.9789607344
 20
67.2699808541
 30
0.0
 11
152.4542137199
 21
67.2699808541
 31
0.0
  0
LINE
  5
B5
330
1F
100
AcDbEntity
  8
0
  6
Continuous
 62
     7
370
    25
100
AcDbLine
 10
150.6600639973
 20
67.2699808541
 30
0.0
 11
150.6600639973
 21
130.9922785751
 31
0.0
  0
LINE
  5
B6
330
1F
100
AcDbEntity
  8
0
  6
Continuous
 62
     7
370
    25
100
AcDbLine
 10
150.9052484537
 20
67.2699808541
 30
0.0
 11
150.6600639973
 21
67.2699808541
 31
0.0
  0
LINE
  5
B7
330
1F
100
AcDbEntity
  8
0
  6
Continuous
 62
     7
370
    25
100
AcDbLine
 10
142.3249514693
 20
130.9922785751
 30
0.0
 11
142.3249514693
 21
67.2699808541
 31
0.0
  0
LINE
  5
B8
330
1F
100
AcDbEntity
  8
0
  6
Continuous
 62
     7
370
    25
100
AcDbLine
 10
142.3249514693
 20
67.2699808541
 30
0.0
 11
142.079767013
 21
67.2699808541
 31
0.0
  0
LINE
  5
B9
330
1F
100
AcDbEntity
  8
0
  6
Continuous
 62
     7
370
    25
100
AcDbLine
 10
137.9484374598
 20
67.2699808541
 30
0.0
 11
138.7059524579
 21
67.2699808541
 31
0.0
  0
LINE
  5
BA
330
1F
100
AcDbEntity
  8
0
  6
Continuous
 62
     7
370
    25
100
AcDbLine
 10
154.2790630088
 20
67.2699808541
 30
0.0
 11
155.0365780069
 21
67.2699808541
 31
0.0
  0
LINE
  5
BB
330
1F
100
AcDbEntity
  8
0
  6
Continuous
 62
     7
370
    25
100
AcDbLine
 10
155.3914647694
 20
67.2699808541
 30
0.0
 11
155.0365780069
 21
67.2699808541
 31
0.0
  0
LINE
  5
BC
330
1F
100
AcDbEntity
  8
0
  6
Continuous
 62
     7
370
    25
100
AcDbLine
 10
137.9484374598
 20
67.2699808541
 30
0.0
 11
137.5935506973
 21
67.2699808541
 31
0.0
  0
LINE
  5
BD
330
1F
100
AcDbEntity
  8
0
  6
Continuous
 62
     7
370
    25
100
AcDbLine
 10
145.6549198125
 20
67.2699808541
 30
0.0
 11
147.3300956542
 21
67.2699808541
 31
0.0
  0
LINE
  5
BE
330
1F
100
AcDbEntity
  8
0
  6
Continuous
 62
     7
370
    25
100
AcDbLine
 10
137.1987627832
 20
67.2699808541
 30
0.0
 11
137.5935506973
 21
67.2699808541
 31
0.0
  0
LINE
  5
BF
330
1F
100
AcDbEntity
  8
0
  6
Continuous
 62
     7
370
    25
100
AcDbLine
 10
155.3914647694
 20
67.2699808541
 30
0.0
 11
155.7862526834
 21
67.2699808541
 31
0.0
  0
LINE
  5
C0
330
1F
100
AcDbEntity
  8
0
  6
Continuous
 62
     7
370
    25
100
AcDbLine
 10
142.3249514693
 20
67.2699808541
 30
0.0
 11
143.9838246149
 21
67.2699808541
 31
0.0
  0
LINE
  5
C1
330
1F
100
AcDbEntity
  8
0
  6
Continuous
 62
     7
370
    25
100
AcDbLine
 10
149.0011908518
 20
67.2699808541
 30
0.0
 11
150.6600639973
 21
67.2699808541
 31
0.0
  0
LINE
  5
C2
330
1F
100
AcDbEntity
  8
0
  6
Continuous
 62
     7
370
    25
100
AcDbLine
 10
139.0760998683
 20
130.8833996601
 30
0.0
 11
139.0760998683
 21
67.2699808541
 31
0.0
  0
LINE
  5
C3
330
1F
100
AcDbEntity
  8
0
  6
Continuous
 62
     7
370
    25
100
AcDbLine
 10
139.0760998683
 20
67.2699808541
 30
0.0
 11
138.7059524579
 21
67.2699808541
 31
0.0
  0
LINE
  5
C4
330
1F
100
AcDbEntity
  8
0
  6
Continuous
 62
     7
370
    25
100
AcDbLine
 10
153.9089155983
 20
67.2699808541
 30
0.0
 11
153.9089155983
 21
130.8833996601
 31
0.0
  0
LINE
  5
C5
330
1F
100
AcDbEntity
  8
0
  6
Continuous
 62
     7
370
    25
100
AcDbLine
 10
154.2790630088
 20
67.2699808541
 30
0.0
 11
153.9089155983
 21
67.2699808541
 31
0.0
  0
LINE
  5
C6
330
1F
100
AcDbEntity
  8
0
  6
Continuous
 62
     7
370
    25
100
AcDbLine
 10
139.0760998683
 20
67.2699808541
 30
0.0
 11
140.5308017468
 21
67.2699808541
 31
0.0
  0
LINE
  5
C7
330
1F
100
AcDbEntity
  8
0
  6
Continuous
 62
     7
370
    25
100
AcDbLine
 10
152.4542137199
 20
67.2699808541
 30
0.0
 11
153.9089155983
 21
67.2699808541
 31
0.0
  0
LINE
  5
C8
330
1F
100
AcDbEntity
  8
0
  6
Continuous
 62
     7
370
    25
100
AcDbLine
 10
134.6877110261
 20
67.2699808541
 30
0.0
 11
135.4836943442
 21
67.2699808541
 31
0.0
  0
LINE
  5
C9
330
1F
100
AcDbEntity
  8
0
  6
Continuous
 62
     7
370
    25
100
AcDbLine
 10
157.5013211225
 20
67.2699808541
 30
0.0
 11
158.2973044406
 21
67.2699808541
 31
0.0
  0
LINE
  5
CA
330
1F
100
AcDbEntity
  8
0
  6
Continuous
 62
     7
370
    25
100
AcDbLine
 10
158.6307607281
 20
67.2699808541
 30
0.0
 11
158.2973044406
 21
67.2699808541
 31
0.0
  0
LINE
  5
CB
330
1F
100
AcDbEntity
  8
0
  6
Continuous
 62
     7
370
    25
100
AcDbLine
 10
134.6877110261
 20
67.2699808541
 30
0.0
 11
134.3542547385
 21
67.2699808541
 31
0.0
  0
LINE
  5
CC
330
1F
100
AcDbEntity
  8
0
  6
Continuous
 62
     7
370
    25
100
AcDbLine
 10
134.0359376762
 20
67.2699808541
 30
0.0
 11
134.3542547385
 21
67.2699808541
 31
0.0
  0
LINE
  5
CD
330
1F
100
AcDbEntity
  8
0
  6
Continuous
 62
     7
370
    25
100
AcDbLine
 10
158.6307607281
 20
67.2699808541
 30
0.0
 11
158.9490777905
 21
67.2699808541
 31
0.0
  0
LINE
  5
CE
330
1F
100
AcDbEntity
  8
0
  6
Continuous
 62
     7
370
    25
100
AcDbLine
 10
135.9716002104
 20
130.7165570227
 30
0.0
 11
135.9716002104
 21
67.2699808541
 31
0.0
  0
LINE
  5
CF
330
1F
100
AcDbEntity
  8
0
  6
Continuous
 62
     7
370
    25
100
AcDbLine
 10
135.9716002104
 20
67.2699808541
 30
0.0
 11
135.4836943442
 21
67.2699808541
 31
0.0
  0
LINE
  5
D0
330
1F
100
AcDbEntity
  8
0
  6
Continuous
 62
     7
370
    25
100
AcDbLine
 10
157.0134152563
 20
67.2699808541
 30
0.0
 11
157.0134152563
 21
130.7165570227
 31
0.0
  0
LINE
  5
D1
330
1F
100
AcDbEntity
  8
0
  6
Continuous
 62
     7
370
    25
100
AcDbLine
 10
157.5013211225
 20
67.2699808541
 30
0.0
 11
157.0134152563
 21
67.2699808541
 31
0.0
  0
LINE
  5
D2
330
1F
100
AcDbEntity
  8
0
  6
Continuous
 62
     7
370
    25
100
AcDbLine
 10
135.9716002104
 20
67.2699808541
 30
0.0
 11
137.1987627832
 21
67.2699808541
 31
0.0
  0
LINE
  5
D3
330
1F
100
AcDbEntity
  8
0
  6
Continuous
 62
     7
370
    25
100
AcDbLine
 10
155.7862526834
 20
67.2699808541
 30
0.0
 11
157.0134152563
 21
67.2699808541
 31
0.0
  0
LINE
  5
D4
330
1F
100
AcDbEntity
  8
0
  6
Continuous
 62
     7
370
    25
100
AcDbLine
 10
160.509305206
 20
67.2699808541
 30
0.0
 11
161.3282639342
 21
67.2699808541
 31
0.0
  0
LINE
  5
D5
330
1F
100
AcDbEntity
  8
0
  6
Continuous
 62
     7
370
    25
100
AcDbLine
 10
131.6567515325
 20
67.2699808541
 30
0.0
 11
132.4757102607
 21
67.2699808541
 31
0.0
  0
LINE
  5
D6
330
1F
100
AcDbEntity
  8
0
  6
Continuous
 62
     7
370
    25
100
AcDbLine
 10
133.07187805
 20
130.4976454911
 30
0.0
 11
133.07187805
 21
67.2699808541
 31
0.0
  0
LINE
  5
D7
330
1F
100
AcDbEntity
  8
0
  6
Continuous
 62
     7
370
    25
100
AcDbLine
 10
133.07187805
 20
67.2699808541
 30
0.0
 11
134.0359376762
 21
67.2699808541
 31
0.0
  0
LINE
  5
D8
330
1F
100
AcDbEntity
  8
0
  6
Continuous
 62
     7
370
    25
100
AcDbLine
 10
159.9131374166
 20
67.2699808541
 30
0.0
 11
159.9131374166
 21
130.4976454911
 31
0.0
  0
LINE
  5
D9
330
1F
100
AcDbEntity
  8
0
  6
Continuous
 62
     7
370
    25
100
AcDbLine
 10
158.9490777905
 20
67.2699808541
 30
0.0
 11
159.9131374166
 21
67.2699808541
 31
0.0
  0
LINE
  5
DA
330
1F
100
AcDbEntity
  8
0
  6
Continuous
 62
     7
370
    25
100
AcDbLine
 10
131.6567515325
 20
67.2699808541
 30
0.0
 11
131.3512160673
 21
67.2699808541
 31
0.0
  0
LINE
  5
DB
330
1F
100
AcDbEntity
  8
0
  6
Continuous
 62
     7
370
    25
100
AcDbLine
 10
161.6337993994
 20
67.2699808541
 30
0.0
 11
161.3282639342
 21
67.2699808541
 31
0.0
  0
LINE
  5
DC
330
1F
100
AcDbEntity
  8
0
  6
Continuous
 62
     7
370
    25
100
AcDbLine
 10
133.07187805
 20
67.2699808541
 30
0.0
 11
132.4757102607
 21
67.2699808541
 31
0.0
  0
LINE
  5
DD
330
1F
100
AcDbEntity
  8
0
  6
Continuous
 62
     7
370
    25
100
AcDbLine
 10
160.509305206
 20
67.2699808541
 30
0.0
 11
159.9131374166
 21
67.2699808541
 31
0.0
  0
LINE
  5
DE
330
1F
100
AcDbEntity
  8
0
  6
Continuous
 62
     7
370
    25
100
AcDbLine
 10
131.1038872187
 20
67.2699808541
 30
0.0
 11
131.3512160673
 21
67.2699808541
 31
0.0
  0
LINE
  5
DF
330
1F
100
AcDbEntity
  8
0
  6
Continuous
 62
     7
370
    25
100
AcDbLine
 10
161.6337993994
 20
67.2699808541
 30
0.0
 11
161.881128248
 21
67.2699808541
 31
0.0
  0
LINE
  5
E0
330
1F
100
AcDbEntity
  8
0
  6
Continuous
 62
     7
370
    25
100
AcDbLine
 10
130.4333731807
 20
130.2351993612
 30
0.0
 11
130.4333731807
 21
67.2699808541
 31
0.0
  0
LINE
  5
E1
330
1F
100
AcDbEntity
  8
0
  6
Continuous
 62
     7
370
    25
100
AcDbLine
 10
130.4333731807
 20
67.2699808541
 30
0.0
 11
131.1038872187
 21
67.2699808541
 31
0.0
  0
LINE
  5
E2
330
1F
100
AcDbEntity
  8
0
  6
Continuous
 62
     7
370
    25
100
AcDbLine
 10
162.551642286
 20
67.2699808541
 30
0.0
 11
162.551642286
 21
130.2351993612
 31
0.0
  0
LINE
  5
E3
330
1F
100
AcDbEntity
  8
0
  6
Continuous
 62
     7
370
    25
100
AcDbLine
 10
161.881128248
 20
67.2699808541
 30
0.0
 11
162.551642286
 21
67.2699808541
 31
0.0
  0
LINE
  5
E4
330
1F
100
AcDbEntity
  8
0
  6
Continuous
 62
     7
370
    25
100
AcDbLine
 10
128.9145531579
 20
67.2699808541
 30
0.0
 11
129.7405471962
 21
67.2699808541
 31
0.0
  0
LINE
  5
E5
330
1F
100
AcDbEntity
  8
0
  6
Continuous
 62
     7
370
    25
100
AcDbLine
 10
163.2444682705
 20
67.2699808541
 30
0.0
 11
164.0704623088
 21
67.2699808541
 31
0.0
  0
LINE
  5
E6
330
1F
100
AcDbEntity
  8
0
  6
Continuous
 62
     7
370
    25
100
AcDbLine
 10
130.4333731807
 20
67.2699808541
 30
0.0
 11
129.7405471962
 21
67.2699808541
 31
0.0
  0
LINE
  5
E7
330
1F
100
AcDbEntity
  8
0
  6
Continuous
 62
     7
370
    25
100
AcDbLine
 10
163.2444682705
 20
67.2699808541
 30
0.0
 11
162.551642286
 21
67.2699808541
 31
0.0
  0
LINE
  5
E8
330
1F
100
AcDbEntity
  8
0
  6
Continuous
 62
     7
370
    25
100
AcDbLine
 10
128.9145531579
 20
67.2699808541
 30
0.0
 11
128.6428854154
 21
67.2699808541
 31
0.0
  0
LINE
  5
E9
330
1F
100
AcDbEntity
  8
0
  6
Continuous
 62
     7
370
    25
100
AcDbLine
 10
164.3421300513
 20
67.2699808541
 30
0.0
 11
164.0704623088
 21
67.2699808541
 31
0.0
  0
LINE
  5
EA
330
1F
100
AcDbEntity
  8
0
  6
Continuous
 62
     7
370
    25
100
AcDbLine
 10
128.4596804377
 20
67.2699808541
 30
0.0
 11
128.6428854154
 21
67.2699808541
 31
0.0
  0
LINE
  5
EB
330
1F
100
AcDbEntity
  8
0
  6
Continuous
 62
     7
370
    25
100
AcDbLine
 10
164.3421300513
 20
67.2699808541
 30
0.0
 11
164.525335029
 21
67.2699808541
 31
0.0
  0
LINE
  5
EC
330
1F
100
AcDbEntity
  8
0
  6
Continuous
 62
     7
370
    25
100
AcDbLine
 10
128.1074410985
 20
129.9410646101
 30
0.0
 11
128.1074410985
 21
67.2699808541
 31
0.0
  0
LINE
  5
ED
330
1F
100
AcDbEntity
  8
0
  6
Continuous
 62
     7
370
    25
100
AcDbLine
 10
128.1074410985
 20
67.2699808541
 30
0.0
 11
128.4596804377
 21
67.2699808541
 31
0.0
  0
LINE
  5
EE
330
1F
100
AcDbEntity
  8
0
  6
Continuous
 62
     7
370
    25
100
AcDbLine
 10
164.8775743682
 20
67.2699808541
 30
0.0
 11
164.8775743682
 21
129.9410646101
 31
0.0
  0
LINE
  5
EF
330
1F
100
AcDbEntity
  8
0
  6
Continuous
 62
     7
370
    25
100
AcDbLine
 10
164.525335029
 20
67.2699808541
 30
0.0
 11
164.8775743682
 21
67.2699808541
 31
0.0
  0
LINE
  5
F0
330
1F
100
AcDbEntity
  8
0
  6
Continuous
 62
     7
370
    25
100
AcDbLine
 10
165.6535734782
 20
67.2699808541
 30
0.0
 11
166.4705257922
 21
67.2699808541
 31
0.0
  0
LINE
  5
F1
330
1F
100
AcDbEntity
  8
0
  6
Continuous
 62
     7
370
    25
100
AcDbLine
 10
126.5144896745
 20
67.2699808541
 30
0.0
 11
127.3314419885
 21
67.2699808541
 31
0.0
  0
LINE
  5
F2
330
1F
100
AcDbEntity
  8
0
  6
Continuous
 62
     7
370
    25
100
AcDbLine
 10
165.6535734782
 20
67.2699808541
 30
0.0
 11
164.8775743682
 21
67.2699808541
 31
0.0
  0
LINE
  5
F3
330
1F
100
AcDbEntity
  8
0
  6
Continuous
 62
     7
370
    25
100
AcDbLine
 10
128.1074410985
 20
67.2699808541
 30
0.0
 11
127.3314419885
 21
67.2699808541
 31
0.0
  0
LINE
  5
F4
330
1F
100
AcDbEntity
  8
0
  6
Continuous
 62
     7
370
    25
100
AcDbLine
 10
166.7030381084
 20
67.2699808541
 30
0.0
 11
166.4705257922
 21
67.2699808541
 31
0.0
  0
LINE
  5
F5
330
1F
100
AcDbEntity
  8
0
  6
Continuous
 62
     7
370
    25
100
AcDbLine
 10
126.5144896745
 20
67.2699808541
 30
0.0
 11
126.2819773582
 21
67.2699808541
 31
0.0
  0
LINE
  5
F6
330
1F
100
AcDbEntity
  8
0
  6
Continuous
 62
     7
370
    25
100
AcDbLine
 10
126.1547838104
 20
67.2699808541
 30
0.0
 11
126.2819773582
 21
67.2699808541
 31
0.0
  0
LINE
  5
F7
330
1F
100
AcDbEntity
  8
0
  6
Continuous
 62
     7
370
    25
100
AcDbLine
 10
166.7030381084
 20
67.2699808541
 30
0.0
 11
166.8302316563
 21
67.2699808541
 31
0.0
  0
LINE
  5
F8
330
1F
100
AcDbEntity
  8
0
  6
Continuous
 62
     7
370
    25
100
AcDbLine
 10
126.1393534256
 20
129.6315803325
 30
0.0
 11
126.1393534256
 21
67.2699808541
 31
0.0
  0
LINE
  5
F9
330
1F
100
AcDbEntity
  8
0
  6
Continuous
 62
     7
370
    25
100
AcDbLine
 10
166.8456620411
 20
67.2699808541
 30
0.0
 11
166.8456620411
 21
129.6315803325
 31
0.0
  0
LINE
  5
FA
330
1F
100
AcDbEntity
  8
0
  6
Continuous
 62
     7
370
    25
100
AcDbLine
 10
124.503275588
 20
67.2699808541
 30
0.0
 11
125.2952851301
 21
67.2699808541
 31
0.0
  0
LINE
  5
FB
330
1F
100
AcDbEntity
  8
0
  6
Continuous
 62
     7
370
    25
100
AcDbLine
 10
167.6897303366
 20
67.2699808541
 30
0.0
 11
168.4817398787
 21
67.2699808541
 31
0.0
  0
LINE
  5
FC
330
1F
100
AcDbEntity
  8
0
  6
Continuous
 62
     7
370
    25
100
AcDbLine
 10
126.1393534256
 20
67.2699808541
 30
0.0
 11
125.2952851301
 21
67.2699808541
 31
0.0
  0
LINE
  5
FD
330
1F
100
AcDbEntity
  8
0
  6
Continuous
 62
     7
370
    25
100
AcDbLine
 10
167.6897303366
 20
67.2699808541
 30
0.0
 11
166.8456620411
 21
67.2699808541
 31
0.0
  0
LINE
  5
FE
330
1F
100
AcDbEntity
  8
0
  6
Continuous
 62
     7
370
    25
100
AcDbLine
 10
124.503275588
 20
67.2699808541
 30
0.0
 11
124.3144442857
 21
67.2699808541
 31
0.0
  0
LINE
  5
FF
330
1F
100
AcDbEntity
  8
0
  6
Continuous
 62
     7
370
    25
100
AcDbLine
 10
168.670571181
 20
67.2699808541
 30
0.0
 11
168.4817398787
 21
67.2699808541
 31
0.0
  0
LINE
  5
100
330
1F
100
AcDbEntity
  8
0
  6
Continuous
 62
     7
370
    25
100
AcDbLine
 10
124.234059528
 20
67.2699808541
 30
0.0
 11
124.3144442857
 21
67.2699808541
 31
0.0
  0
LINE
  5
101
330
1F
100
AcDbEntity
  8
0
  6
Continuous
 62
     7
370
    25
100
AcDbLine
 10
168.670571181
 20
67.2699808541
 30
0.0
 11
168.7509559387
 21
67.2699808541
 31
0.0
  0
LINE
  5
102
330
1F
100
AcDbEntity
  8
0
  6
Continuous
 62
     7
370
    25
100
AcDbLine
 10
122.9200568927
 20
67.2699808541
 30
0.0
 11
123.6717080982
 21
67.2699808541
 31
0.0
  0
LINE
  5
103
330
1F
100
AcDbEntity
  8
0
  6
Continuous
 62
     7
370
    25
100
AcDbLine
 10
169.3133073685
 20
67.2699808541
 30
0.0
 11
170.0649585739
 21
67.2699808541
 31
0.0
  0
LINE
  5
104
330
1F
100
AcDbEntity
  8
0
  6
Continuous
 62
     7
370
    25
100
AcDbLine
 10
124.234059528
 20
67.2699808541
 30
0.0
 11
123.6717080982
 21
67.2699808541
 31
0.0
  0
LINE
  5
105
330
1F
100
AcDbEntity
  8
0
  6
Continuous
 62
     7
370
    25
100
AcDbLine
 10
169.3133073685
 20
67.2699808541
 30
0.0
 11
168.7509559387
 21
67.2699808541
 31
0.0
  0
LINE
  5
106
330
1F
100
AcDbEntity
  8
0
  6
Continuous
 62
     7
370
    25
100
AcDbLine
 10
170.2064334757
 20
67.2699808541
 30
0.0
 11
170.0649585739
 21
67.2699808541
 31
0.0
  0
LINE
  5
107
330
1F
100
AcDbEntity
  8
0
  6
Continuous
 62
     7
370
    25
100
AcDbLine
 10
122.9200568927
 20
67.2699808541
 30
0.0
 11
122.778581991
 21
67.2699808541
 31
0.0
  0
LINE
  5
108
330
1F
100
AcDbEntity
  8
0
  6
Continuous
 62
     7
370
    25
100
AcDbLine
 10
122.7348923038
 20
67.2699808541
 30
0.0
 11
122.778581991
 21
67.2699808541
 31
0.0
  0
LINE
  5
109
330
1F
100
AcDbEntity
  8
0
  6
Continuous
 62
     7
370
    25
100
AcDbLine
 10
170.2064334757
 20
67.2699808541
 30
0.0
 11
170.2501231629
 21
67.2699808541
 31
0.0
  0
LINE
  5
10A
330
1F
100
AcDbEntity
  8
0
  6
Continuous
 62
     7
370
    25
100
AcDbLine
 10
121.7956491399
 20
67.2699808541
 30
0.0
 11
122.4923119729
 21
67.2699808541
 31
0.0
  0
LINE
  5
10B
330
1F
100
AcDbEntity
  8
0
  6
Continuous
 62
     7
370
    25
100
AcDbLine
 10
170.4927034938
 20
67.2699808541
 30
0.0
 11
171.1893663268
 21
67.2699808541
 31
0.0
  0
LINE
  5
10C
330
1F
100
AcDbEntity
  8
0
  6
Continuous
 62
     7
370
    25
100
AcDbLine
 10
122.7348923038
 20
67.2699808541
 30
0.0
 11
122.4923119729
 21
67.2699808541
 31
0.0
  0
LINE
  5
10D
330
1F
100
AcDbEntity
  8
0
  6
Continuous
 62
     7
370
    25
100
AcDbLine
 10
170.4927034938
 20
67.2699808541
 30
0.0
 11
170.2501231629
 21
67.2699808541
 31
0.0
  0
LINE
  5
10E
330
1F
100
AcDbEntity
  8
0
  6
Continuous
 62
     7
370
    25
100
AcDbLine
 10
171.28073118
 20
67.2699808541
 30
0.0
 11
171.1893663268
 21
67.2699808541
 31
0.0
  0
LINE
  5
10F
330
1F
100
AcDbEntity
  8
0
  6
Continuous
 62
     7
370
    25
100
AcDbLine
 10
121.7956491399
 20
67.2699808541
 30
0.0
 11
121.7042842867
 21
67.2699808541
 31
0.0
  0
LINE
  5
110
330
1F
100
AcDbEntity
  8
0
  6
Continuous
 62
     7
370
    25
100
AcDbLine
 10
171.28073118
 20
67.2699808541
 30
0.0
 11
171.2985537442
 21
67.2699808541
 31
0.0
  0
LINE
  5
111
330
1F
100
AcDbEntity
  8
0
  6
Continuous
 62
     7
370
    25
100
AcDbLine
 10
121.6864617225
 20
67.2699808541
 30
0.0
 11
121.7042842867
 21
67.2699808541
 31
0.0
  0
LINE
  5
112
330
1F
100
AcDbEntity
  8
0
  6
Continuous
 62
     7
370
    25
100
AcDbLine
 10
171.2985537442
 20
67.2699808541
 30
0.0
 11
171.8330778194
 21
67.2699808541
 31
0.0
  0
LINE
  5
113
330
1F
100
AcDbEntity
  8
0
  6
Continuous
 62
     7
370
    25
100
AcDbLine
 10
121.1519376473
 20
67.2699808541
 30
0.0
 11
121.6864617225
 21
67.2699808541
 31
0.0
  0
LINE
  5
114
330
1F
100
AcDbEntity
  8
0
  6
Continuous
 62
     7
370
    25
100
AcDbLine
 10
121.1519376473
 20
67.2699808541
 30
0.0
 11
121.1124611556
 21
67.2699808541
 31
0.0
  0
LINE
  5
115
330
1F
100
AcDbEntity
  8
0
  6
Continuous
 62
     7
370
    25
100
AcDbLine
 10
171.8725543111
 20
67.2699808541
 30
0.0
 11
171.8330778194
 21
67.2699808541
 31
0.0
  0
LINE
  5
116
330
1F
100
AcDbEntity
  8
0
  6
Continuous
 62
     7
370
    25
100
AcDbLine
 10
171.8725543111
 20
67.2699808541
 30
0.0
 11
171.8758411738
 21
67.2699808541
 31
0.0
  0
LINE
  5
117
330
1F
100
AcDbEntity
  8
0
  6
Continuous
 62
     7
370
    25
100
AcDbLine
 10
121.1091742928
 20
67.2699808541
 30
0.0
 11
121.1124611556
 21
67.2699808541
 31
0.0
  0
LINE
  5
118
330
1F
100
AcDbEntity
  8
0
  6
Continuous
 62
     7
370
    25
100
AcDbLine
 10
171.8758411738
 20
67.2699808541
 30
0.0
 11
171.9839294435
 21
67.2699808541
 31
0.0
  0
LINE
  5
119
330
1F
100
AcDbEntity
  8
0
  6
Continuous
 62
     7
370
    25
100
AcDbLine
 10
121.0010860232
 20
67.2699808541
 30
0.0
 11
121.1091742928
 21
67.2699808541
 31
0.0
  0
LINE
  5
11A
330
1F
100
AcDbEntity
  8
0
  6
Continuous
 62
     7
370
    25
100
AcDbLine
 10
145.2229668778
 20
235.2699808541
 30
0.0
 11
145.6002900578
 21
235.2699808541
 31
0.0
  0
LINE
  5
11B
330
1F
100
AcDbEntity
  8
0
  6
Continuous
 62
     7
370
    25
100
AcDbLine
 10
146.2230306888
 20
235.2699808541
 30
0.0
 11
145.6002900578
 21
235.2699808541
 31
0.0
  0
LINE
  5
11C
330
1F
100
AcDbEntity
  8
0
  6
Continuous
 62
     7
370
    25
100
AcDbLine
 10
145.2229668778
 20
235.2699808541
 30
0.0
 11
144.6484290899
 21
235.2699808541
 31
0.0
  0
LINE
  5
11D
330
1F
100
AcDbEntity
  8
0
  6
Continuous
 62
     7
370
    25
100
AcDbLine
 10
148.7799324963
 20
235.2699808541
 30
0.0
 11
149.155811496
 21
235.2699808541
 31
0.0
  0
LINE
  5
11E
330
1F
100
AcDbEntity
  8
0
  6
Continuous
 62
     7
370
    25
100
AcDbLine
 10
148.7799324963
 20
235.2699808541
 30
0.0
 11
148.1283889232
 21
235.2699808541
 31
0.0
  0
LINE
  5
11F
330
1F
100
AcDbEntity
  8
0
  6
Continuous
 62
     7
370
    25
100
AcDbLine
 10
149.697567631
 20
235.2699808541
 30
0.0
 11
149.155811496
 21
235.2699808541
 31
0.0
  0
LINE
  5
120
330
1F
100
AcDbEntity
  8
0
  6
Continuous
 62
     7
370
    25
100
AcDbLine
 10
142.7543426059
 20
235.2699808541
 30
0.0
 11
142.0621346217
 21
235.2699808541
 31
0.0
  0
LINE
  5
121
330
1F
100
AcDbEntity
  8
0
  6
Continuous
 62
     7
370
    25
100
AcDbLine
 10
141.6907114281
 20
235.2699808541
 30
0.0
 11
142.0621346217
 21
235.2699808541
 31
0.0
  0
LINE
  5
122
330
1F
100
AcDbEntity
  8
0
  6
Continuous
 62
     7
370
    25
100
AcDbLine
 10
141.6907114281
 20
235.2699808541
 30
0.0
 11
141.1993251859
 21
235.2699808541
 31
0.0
  0
LINE
  5
123
330
1F
100
AcDbEntity
  8
0
  6
Continuous
 62
     7
370
    25
100
AcDbLine
 10
152.2923759936
 20
235.2699808541
 30
0.0
 11
151.5765081899
 21
235.2699808541
 31
0.0
  0
LINE
  5
124
330
1F
100
AcDbEntity
  8
0
  6
Continuous
 62
     7
370
    25
100
AcDbLine
 10
152.2923759936
 20
235.2699808541
 30
0.0
 11
152.659494756
 21
235.2699808541
 31
0.0
  0
LINE
  5
125
330
1F
100
AcDbEntity
  8
0
  6
Continuous
 62
     7
370
    25
100
AcDbLine
 10
146.3126644498
 20
235.2699808541
 30
0.0
 11
146.3126644498
 21
171.4984984625
 31
0.0
  0
LINE
  5
126
330
1F
100
AcDbEntity
  8
0
  6
Continuous
 62
     7
370
    25
100
AcDbLine
 10
146.2230306888
 20
235.2699808541
 30
0.0
 11
146.3126644498
 21
235.2699808541
 31
0.0
  0
LINE
  5
127
330
1F
100
AcDbEntity
  8
0
  6
Continuous
 62
     7
370
    25
100
AcDbLine
 10
147.9872109045
 20
171.504712529
 30
0.0
 11
147.9872109045
 21
235.2699808541
 31
0.0
  0
LINE
  5
128
330
1F
100
AcDbEntity
  8
0
  6
Continuous
 62
     7
370
    25
100
AcDbLine
 10
147.9872109045
 20
235.2699808541
 30
0.0
 11
148.1283889232
 21
235.2699808541
 31
0.0
  0
LINE
  5
129
330
1F
100
AcDbEntity
  8
0
  6
Continuous
 62
     7
370
    25
100
AcDbLine
 10
144.6389941735
 20
171.5081071081
 30
0.0
 11
144.6389941735
 21
235.2699808541
 31
0.0
  0
LINE
  5
12A
330
1F
100
AcDbEntity
  8
0
  6
Continuous
 62
     7
370
    25
100
AcDbLine
 10
144.6389941735
 20
235.2699808541
 30
0.0
 11
144.6484290899
 21
235.2699808541
 31
0.0
  0
LINE
  5
12B
330
1F
100
AcDbEntity
  8
0
  6
Continuous
 62
     7
370
    25
100
AcDbLine
 10
147.9872109045
 20
235.2699808541
 30
0.0
 11
146.3126644498
 21
235.2699808541
 31
0.0
  0
LINE
  5
12C
330
1F
100
AcDbEntity
  8
0
  6
Continuous
 62
     7
370
    25
100
AcDbLine
 10
153.1187082233
 20
235.2699808541
 30
0.0
 11
152.659494756
 21
235.2699808541
 31
0.0
  0
LINE
  5
12D
330
1F
100
AcDbEntity
  8
0
  6
Continuous
 62
     7
370
    25
100
AcDbLine
 10
142.9743540289
 20
235.2699808541
 30
0.0
 11
142.9743540289
 21
171.5334619428
 31
0.0
  0
LINE
  5
12E
330
1F
100
AcDbEntity
  8
0
  6
Continuous
 62
     7
370
    25
100
AcDbLine
 10
144.6389941735
 20
235.2699808541
 30
0.0
 11
142.9743540289
 21
235.2699808541
 31
0.0
  0
LINE
  5
12F
330
1F
100
AcDbEntity
  8
0
  6
Continuous
 62
     7
370
    25
100
AcDbLine
 10
142.7543426059
 20
235.2699808541
 30
0.0
 11
142.9743540289
 21
235.2699808541
 31
0.0
  0
LINE
  5
130
330
1F
100
AcDbEntity
  8
0
  6
Continuous
 62
     7
370
    25
100
AcDbLine
 10
139.3584136551
 20
235.2699808541
 30
0.0
 11
138.6102113588
 21
235.2699808541
 31
0.0
  0
LINE
  5
131
330
1F
100
AcDbEntity
  8
0
  6
Continuous
 62
     7
370
    25
100
AcDbLine
 10
151.3063349386
 20
171.5642844915
 30
0.0
 11
151.3063349386
 21
235.2699808541
 31
0.0
  0
LINE
  5
132
330
1F
100
AcDbEntity
  8
0
  6
Continuous
 62
     7
370
    25
100
AcDbLine
 10
151.3063349386
 20
235.2699808541
 30
0.0
 11
149.6544753156
 21
235.2699808541
 31
0.0
  0
LINE
  5
133
330
1F
100
AcDbEntity
  8
0
  6
Continuous
 62
     7
370
    25
100
AcDbLine
 10
151.3063349386
 20
235.2699808541
 30
0.0
 11
151.5765081899
 21
235.2699808541
 31
0.0
  0
LINE
  5
134
330
1F
100
AcDbEntity
  8
0
  6
Continuous
 62
     7
370
    25
100
AcDbLine
 10
138.2519174814
 20
235.2699808541
 30
0.0
 11
138.6102113588
 21
235.2699808541
 31
0.0
  0
LINE
  5
135
330
1F
100
AcDbEntity
  8
0
  6
Continuous
 62
     7
370
    25
100
AcDbLine
 10
138.2519174814
 20
235.2699808541
 30
0.0
 11
137.8415985006
 21
235.2699808541
 31
0.0
  0
LINE
  5
136
330
1F
100
AcDbEntity
  8
0
  6
Continuous
 62
     7
370
    25
100
AcDbLine
 10
139.704520468
 20
235.2699808541
 30
0.0
 11
139.704520468
 21
171.630468184
 31
0.0
  0
LINE
  5
137
330
1F
100
AcDbEntity
  8
0
  6
Continuous
 62
     7
370
    25
100
AcDbLine
 10
141.1993251859
 20
235.2699808541
 30
0.0
 11
139.704520468
 21
235.2699808541
 31
0.0
  0
LINE
  5
138
330
1F
100
AcDbEntity
  8
0
  6
Continuous
 62
     7
370
    25
100
AcDbLine
 10
155.6919316525
 20
235.2699808541
 30
0.0
 11
154.9256731706
 21
235.2699808541
 31
0.0
  0
LINE
  5
139
330
1F
100
AcDbEntity
  8
0
  6
Continuous
 62
     7
370
    25
100
AcDbLine
 10
139.3584136551
 20
235.2699808541
 30
0.0
 11
139.704520468
 21
235.2699808541
 31
0.0
  0
LINE
  5
13A
330
1F
100
AcDbEntity
  8
0
  6
Continuous
 62
     7
370
    25
100
AcDbLine
 10
155.6919316525
 20
235.2699808541
 30
0.0
 11
156.0431446284
 21
235.2699808541
 31
0.0
  0
LINE
  5
13B
330
1F
100
AcDbEntity
  8
0
  6
Continuous
 62
     7
370
    25
100
AcDbLine
 10
156.4225556777
 20
235.2699808541
 30
0.0
 11
156.0431446284
 21
235.2699808541
 31
0.0
  0
LINE
  5
13C
330
1F
100
AcDbEntity
  8
0
  6
Continuous
 62
     7
370
    25
100
AcDbLine
 10
154.5317633017
 20
171.6848971452
 30
0.0
 11
154.5317633017
 21
235.2699808541
 31
0.0
  0
LINE
  5
13D
330
1F
100
AcDbEntity
  8
0
  6
Continuous
 62
     7
370
    25
100
AcDbLine
 10
154.5317633017
 20
235.2699808541
 30
0.0
 11
153.1187082233
 21
235.2699808541
 31
0.0
  0
LINE
  5
13E
330
1F
100
AcDbEntity
  8
0
  6
Continuous
 62
     7
370
    25
100
AcDbLine
 10
154.5317633017
 20
235.2699808541
 30
0.0
 11
154.9256731706
 21
235.2699808541
 31
0.0
  0
LINE
  5
13F
330
1F
100
AcDbEntity
  8
0
  6
Continuous
 62
     7
370
    25
100
AcDbLine
 10
136.1013417306
 20
235.2699808541
 30
0.0
 11
135.3117080288
 21
235.2699808541
 31
0.0
  0
LINE
  5
140
330
1F
100
AcDbEntity
  8
0
  6
Continuous
 62
     7
370
    25
100
AcDbLine
 10
134.9735172505
 20
235.2699808541
 30
0.0
 11
135.3117080288
 21
235.2699808541
 31
0.0
  0
LINE
  5
141
330
1F
100
AcDbEntity
  8
0
  6
Continuous
 62
     7
370
    25
100
AcDbLine
 10
136.566807358
 20
235.2699808541
 30
0.0
 11
136.566807358
 21
171.7863204169
 31
0.0
  0
LINE
  5
142
330
1F
100
AcDbEntity
  8
0
  6
Continuous
 62
     7
370
    25
100
AcDbLine
 10
137.8415985006
 20
235.2699808541
 30
0.0
 11
136.566807358
 21
235.2699808541
 31
0.0
  0
LINE
  5
143
330
1F
100
AcDbEntity
  8
0
  6
Continuous
 62
     7
370
    25
100
AcDbLine
 10
134.9735172505
 20
235.2699808541
 30
0.0
 11
134.6405736057
 21
235.2699808541
 31
0.0
  0
LINE
  5
144
330
1F
100
AcDbEntity
  8
0
  6
Continuous
 62
     7
370
    25
100
AcDbLine
 10
136.1013417306
 20
235.2699808541
 30
0.0
 11
136.566807358
 21
235.2699808541
 31
0.0
  0
LINE
  5
145
330
1F
100
AcDbEntity
  8
0
  6
Continuous
 62
     7
370
    25
100
AcDbLine
 10
158.912430989
 20
235.2699808541
 30
0.0
 11
158.1106961788
 21
235.2699808541
 31
0.0
  0
LINE
  5
146
330
1F
100
AcDbEntity
  8
0
  6
Continuous
 62
     7
370
    25
100
AcDbLine
 10
157.6007166997
 20
171.8625040347
 30
0.0
 11
157.6007166997
 21
235.2699808541
 31
0.0
  0
LINE
  5
147
330
1F
100
AcDbEntity
  8
0
  6
Continuous
 62
     7
370
    25
100
AcDbLine
 10
157.6007166997
 20
235.2699808541
 30
0.0
 11
156.4225556777
 21
235.2699808541
 31
0.0
  0
LINE
  5
148
330
1F
100
AcDbEntity
  8
0
  6
Continuous
 62
     7
370
    25
100
AcDbLine
 10
158.912430989
 20
235.2699808541
 30
0.0
 11
159.2409022174
 21
235.2699808541
 31
0.0
  0
LINE
  5
149
330
1F
100
AcDbEntity
  8
0
  6
Continuous
 62
     7
370
    25
100
AcDbLine
 10
159.5448043616
 20
235.2699808541
 30
0.0
 11
159.2409022174
 21
235.2699808541
 31
0.0
  0
LINE
  5
14A
330
1F
100
AcDbEntity
  8
0
  6
Continuous
 62
     7
370
    25
100
AcDbLine
 10
157.6007166997
 20
235.2699808541
 30
0.0
 11
158.1106961788
 21
235.2699808541
 31
0.0
  0
LINE
  5
14B
330
1F
100
AcDbEntity
  8
0
  6
Continuous
 62
     7
370
    25
100
AcDbLine
 10
133.0465220326
 20
235.2699808541
 30
0.0
 11
132.2308262471
 21
235.2699808541
 31
0.0
  0
LINE
  5
14C
330
1F
100
AcDbEntity
  8
0
  6
Continuous
 62
     7
370
    25
100
AcDbLine
 10
133.6222867155
 20
235.2699808541
 30
0.0
 11
133.6222867155
 21
171.9955923193
 31
0.0
  0
LINE
  5
14D
330
1F
100
AcDbEntity
  8
0
  6
Continuous
 62
     7
370
    25
100
AcDbLine
 10
134.6405736057
 20
235.2699808541
 30
0.0
 11
133.6222867155
 21
235.2699808541
 31
0.0
  0
LINE
  5
14E
330
1F
100
AcDbEntity
  8
0
  6
Continuous
 62
     7
370
    25
100
AcDbLine
 10
131.9193210667
 20
235.2699808541
 30
0.0
 11
132.2308262471
 21
235.2699808541
 31
0.0
  0
LINE
  5
14F
330
1F
100
AcDbEntity
  8
0
  6
Continuous
 62
     7
370
    25
100
AcDbLine
 10
133.0465220326
 20
235.2699808541
 30
0.0
 11
133.6222867155
 21
235.2699808541
 31
0.0
  0
LINE
  5
150
330
1F
100
AcDbEntity
  8
0
  6
Continuous
 62
     7
370
    25
100
AcDbLine
 10
131.9193210667
 20
235.2699808541
 30
0.0
 11
131.6585548097
 21
235.2699808541
 31
0.0
  0
LINE
  5
151
330
1F
100
AcDbEntity
  8
0
  6
Continuous
 62
     7
370
    25
100
AcDbLine
 10
161.8911906468
 20
235.2699808541
 30
0.0
 11
161.0695843643
 21
235.2699808541
 31
0.0
  0
LINE
  5
152
330
1F
100
AcDbEntity
  8
0
  6
Continuous
 62
     7
370
    25
100
AcDbLine
 10
160.4534614456
 20
172.0907282245
 30
0.0
 11
160.4534614456
 21
235.2699808541
 31
0.0
  0
LINE
  5
153
330
1F
100
AcDbEntity
  8
0
  6
Continuous
 62
     7
370
    25
100
AcDbLine
 10
160.4534614456
 20
235.2699808541
 30
0.0
 11
159.5448043616
 21
235.2699808541
 31
0.0
  0
LINE
  5
154
330
1F
100
AcDbEntity
  8
0
  6
Continuous
 62
     7
370
    25
100
AcDbLine
 10
161.8911906468
 20
235.2699808541
 30
0.0
 11
162.1905268088
 21
235.2699808541
 31
0.0
  0
LINE
  5
155
330
1F
100
AcDbEntity
  8
0
  6
Continuous
 62
     7
370
    25
100
AcDbLine
 10
160.4534614456
 20
235.2699808541
 30
0.0
 11
161.0695843643
 21
235.2699808541
 31
0.0
  0
LINE
  5
156
330
1F
100
AcDbEntity
  8
0
  6
Continuous
 62
     7
370
    25
100
AcDbLine
 10
162.424683256
 20
235.2699808541
 30
0.0
 11
162.1905268088
 21
235.2699808541
 31
0.0
  0
LINE
  5
157
330
1F
100
AcDbEntity
  8
0
  6
Continuous
 62
     7
370
    25
100
AcDbLine
 10
130.9282702854
 20
235.2699808541
 30
0.0
 11
130.9282702854
 21
172.2503087104
 31
0.0
  0
LINE
  5
158
330
1F
100
AcDbEntity
  8
0
  6
Continuous
 62
     7
370
    25
100
AcDbLine
 10
131.6585548097
 20
235.2699808541
 30
0.0
 11
130.9282702854
 21
235.2699808541
 31
0.0
  0
LINE
  5
159
330
1F
100
AcDbEntity
  8
0
  6
Continuous
 62
     7
370
    25
100
AcDbLine
 10
130.2534131517
 20
235.2699808541
 30
0.0
 11
129.4275318731
 21
235.2699808541
 31
0.0
  0
LINE
  5
15A
330
1F
100
AcDbEntity
  8
0
  6
Continuous
 62
     7
370
    25
100
AcDbLine
 10
129.1487753846
 20
235.2699808541
 30
0.0
 11
129.4275318731
 21
235.2699808541
 31
0.0
  0
LINE
  5
15B
330
1F
100
AcDbEntity
  8
0
  6
Continuous
 62
     7
370
    25
100
AcDbLine
 10
130.2534131517
 20
235.2699808541
 30
0.0
 11
130.9282702854
 21
235.2699808541
 31
0.0
  0
LINE
  5
15C
330
1F
100
AcDbEntity
  8
0
  6
Continuous
 62
     7
370
    25
100
AcDbLine
 10
129.1487753846
 20
235.2699808541
 30
0.0
 11
128.9535837165
 21
235.2699808541
 31
0.0
  0
LINE
  5
15D
330
1F
100
AcDbEntity
  8
0
  6
Continuous
 62
     7
370
    25
100
AcDbLine
 10
163.0344721078
 20
172.360451025
 30
0.0
 11
163.0344721078
 21
235.2699808541
 31
0.0
  0
LINE
  5
15E
330
1F
100
AcDbEntity
  8
0
  6
Continuous
 62
     7
370
    25
100
AcDbLine
 10
163.0344721078
 20
235.2699808541
 30
0.0
 11
162.424683256
 21
235.2699808541
 31
0.0
  0
LINE
  5
15F
330
1F
100
AcDbEntity
  8
0
  6
Continuous
 62
     7
370
    25
100
AcDbLine
 10
164.5702324574
 20
235.2699808541
 30
0.0
 11
163.7447463344
 21
235.2699808541
 31
0.0
  0
LINE
  5
160
330
1F
100
AcDbEntity
  8
0
  6
Continuous
 62
     7
370
    25
100
AcDbLine
 10
163.0344721078
 20
235.2699808541
 30
0.0
 11
163.7447463344
 21
235.2699808541
 31
0.0
  0
LINE
  5
161
330
1F
100
AcDbEntity
  8
0
  6
Continuous
 62
     7
370
    25
100
AcDbLine
 10
164.5702324574
 20
235.2699808541
 30
0.0
 11
164.8346073151
 21
235.2699808541
 31
0.0
  0
LINE
  5
162
330
1F
100
AcDbEntity
  8
0
  6
Continuous
 62
     7
370
    25
100
AcDbLine
 10
165.0061387939
 20
235.2699808541
 30
0.0
 11
164.8346073151
 21
235.2699808541
 31
0.0
  0
LINE
  5
163
330
1F
100
AcDbEntity
  8
0
  6
Continuous
 62
     7
370
    25
100
AcDbLine
 10
128.5371940332
 20
235.2699808541
 30
0.0
 11
128.5371940332
 21
172.5393476591
 31
0.0
  0
LINE
  5
164
330
1F
100
AcDbEntity
  8
0
  6
Continuous
 62
     7
370
    25
100
AcDbLine
 10
128.9535837165
 20
235.2699808541
 30
0.0
 11
128.5371940332
 21
235.2699808541
 31
0.0
  0
LINE
  5
165
330
1F
100
AcDbEntity
  8
0
  6
Continuous
 62
     7
370
    25
100
AcDbLine
 10
127.7763797751
 20
235.2699808541
 30
0.0
 11
126.9563878431
 21
235.2699808541
 31
0.0
  0
LINE
  5
166
330
1F
100
AcDbEntity
  8
0
  6
Continuous
 62
     7
370
    25
100
AcDbLine
 10
127.7763797751
 20
235.2699808541
 30
0.0
 11
128.5371940332
 21
235.2699808541
 31
0.0
  0
LINE
  5
167
330
1F
100
AcDbEntity
  8
0
  6
Continuous
 62
     7
370
    25
100
AcDbLine
 10
126.7158057244
 20
235.2699808541
 30
0.0
 11
126.9563878431
 21
235.2699808541
 31
0.0
  0
LINE
  5
168
330
1F
100
AcDbEntity
  8
0
  6
Continuous
 62
     7
370
    25
100
AcDbLine
 10
165.2935122497
 20
172.6590576146
 30
0.0
 11
165.2935122497
 21
235.2699808541
 31
0.0
  0
LINE
  5
169
330
1F
100
AcDbEntity
  8
0
  6
Continuous
 62
     7
370
    25
100
AcDbLine
 10
165.2935122497
 20
235.2699808541
 30
0.0
 11
165.0061387939
 21
235.2699808541
 31
0.0
  0
LINE
  5
16A
330
1F
100
AcDbEntity
  8
0
  6
Continuous
 62
     7
370
    25
100
AcDbLine
 10
126.7158057244
 20
235.2699808541
 30
0.0
 11
126.5783095115
 21
235.2699808541
 31
0.0
  0
LINE
  5
16B
330
1F
100
AcDbEntity
  8
0
  6
Continuous
 62
     7
370
    25
100
AcDbLine
 10
166.8974119193
 20
235.2699808541
 30
0.0
 11
166.0841131042
 21
235.2699808541
 31
0.0
  0
LINE
  5
16C
330
1F
100
AcDbEntity
  8
0
  6
Continuous
 62
     7
370
    25
100
AcDbLine
 10
165.2935122497
 20
235.2699808541
 30
0.0
 11
166.0841131042
 21
235.2699808541
 31
0.0
  0
LINE
  5
16D
330
1F
100
AcDbEntity
  8
0
  6
Continuous
 62
     7
370
    25
100
AcDbLine
 10
166.8974119193
 20
235.2699808541
 30
0.0
 11
167.1216797169
 21
235.2699808541
 31
0.0
  0
LINE
  5
16E
330
1F
100
AcDbEntity
  8
0
  6
Continuous
 62
     7
370
    25
100
AcDbLine
 10
167.2389258796
 20
235.2699808541
 30
0.0
 11
167.1216797169
 21
235.2699808541
 31
0.0
  0
LINE
  5
16F
330
1F
100
AcDbEntity
  8
0
  6
Continuous
 62
     7
370
    25
100
AcDbLine
 10
126.4955975383
 20
235.2699808541
 30
0.0
 11
126.4955975383
 21
172.8473772764
 31
0.0
  0
LINE
  5
170
330
1F
100
AcDbEntity
  8
0
  6
Continuous
 62
     7
370
    25
100
AcDbLine
 10
126.5783095115
 20
235.2699808541
 30
0.0
 11
126.4955975383
 21
235.2699808541
 31
0.0
  0
LINE
  5
171
330
1F
100
AcDbEntity
  8
0
  6
Continuous
 62
     7
370
    25
100
AcDbLine
 10
125.6636345399
 20
235.2699808541
 30
0.0
 11
124.8654921647
 21
235.2699808541
 31
0.0
  0
LINE
  5
172
330
1F
100
AcDbEntity
  8
0
  6
Continuous
 62
     7
370
    25
100
AcDbLine
 10
125.6636345399
 20
235.2699808541
 30
0.0
 11
126.4955975383
 21
235.2699808541
 31
0.0
  0
LINE
  5
173
330
1F
100
AcDbEntity
  8
0
  6
Continuous
 62
     7
370
    25
100
AcDbLine
 10
124.6677670732
 20
235.2699808541
 30
0.0
 11
124.8654921647
 21
235.2699808541
 31
0.0
  0
LINE
  5
174
330
1F
100
AcDbEntity
  8
0
  6
Continuous
 62
     7
370
    25
100
AcDbLine
 10
124.6677670732
 20
235.2699808541
 30
0.0
 11
124.5789642053
 21
235.2699808541
 31
0.0
  0
LINE
  5
175
330
1F
100
AcDbEntity
  8
0
  6
Continuous
 62
     7
370
    25
100
AcDbLine
 10
168.8274331315
 20
235.2699808541
 30
0.0
 11
168.0421515606
 21
235.2699808541
 31
0.0
  0
LINE
  5
176
330
1F
100
AcDbEntity
  8
0
  6
Continuous
 62
     7
370
    25
100
AcDbLine
 10
167.2389258796
 20
235.2699808541
 30
0.0
 11
168.0421515606
 21
235.2699808541
 31
0.0
  0
LINE
  5
177
330
1F
100
AcDbEntity
  8
0
  6
Continuous
 62
     7
370
    25
100
AcDbLine
 10
168.8274331315
 20
235.2699808541
 30
0.0
 11
169.0072287514
 21
235.2699808541
 31
0.0
  0
LINE
  5
178
330
1F
100
AcDbEntity
  8
0
  6
Continuous
 62
     7
370
    25
100
AcDbLine
 10
169.0795858524
 20
235.2699808541
 30
0.0
 11
169.0072287514
 21
235.2699808541
 31
0.0
  0
LINE
  5
179
330
1F
100
AcDbEntity
  8
0
  6
Continuous
 62
     7
370
    25
100
AcDbLine
 10
123.956299629
 20
235.2699808541
 30
0.0
 11
124.5789642053
 21
235.2699808541
 31
0.0
  0
LINE
  5
17A
330
1F
100
AcDbEntity
  8
0
  6
Continuous
 62
     7
370
    25
100
AcDbLine
 10
123.956299629
 20
235.2699808541
 30
0.0
 11
123.1955417441
 21
235.2699808541
 31
0.0
  0
LINE
  5
17B
330
1F
100
AcDbEntity
  8
0
  6
Continuous
 62
     7
370
    25
100
AcDbLine
 10
123.0445221737
 20
235.2699808541
 30
0.0
 11
123.1955417441
 21
235.2699808541
 31
0.0
  0
LINE
  5
17C
330
1F
100
AcDbEntity
  8
0
  6
Continuous
 62
     7
370
    25
100
AcDbLine
 10
123.0445221737
 20
235.2699808541
 30
0.0
 11
122.9944627802
 21
235.2699808541
 31
0.0
  0
LINE
  5
17D
330
1F
100
AcDbEntity
  8
0
  6
Continuous
 62
     7
370
    25
100
AcDbLine
 10
169.0795858524
 20
235.2699808541
 30
0.0
 11
169.5807507123
 21
235.2699808541
 31
0.0
  0
LINE
  5
17E
330
1F
100
AcDbEntity
  8
0
  6
Continuous
 62
     7
370
    25
100
AcDbLine
 10
170.3227304265
 20
235.2699808541
 30
0.0
 11
169.5807507123
 21
235.2699808541
 31
0.0
  0
LINE
  5
17F
330
1F
100
AcDbEntity
  8
0
  6
Continuous
 62
     7
370
    25
100
AcDbLine
 10
170.3227304265
 20
235.2699808541
 30
0.0
 11
170.4545543514
 21
235.2699808541
 31
0.0
  0
LINE
  5
180
330
1F
100
AcDbEntity
  8
0
  6
Continuous
 62
     7
370
    25
100
AcDbLine
 10
170.4922923595
 20
235.2699808541
 30
0.0
 11
170.4545543514
 21
235.2699808541
 31
0.0
  0
LINE
  5
181
330
1F
100
AcDbEntity
  8
0
  6
Continuous
 62
     7
370
    25
100
AcDbLine
 10
122.6876063742
 20
235.2699808541
 30
0.0
 11
122.9944627802
 21
235.2699808541
 31
0.0
  0
LINE
  5
182
330
1F
100
AcDbEntity
  8
0
  6
Continuous
 62
     7
370
    25
100
AcDbLine
 10
122.6876063742
 20
235.2699808541
 30
0.0
 11
121.9790402665
 21
235.2699808541
 31
0.0
  0
LINE
  5
183
330
1F
100
AcDbEntity
  8
0
  6
Continuous
 62
     7
370
    25
100
AcDbLine
 10
121.8776656414
 20
235.2699808541
 30
0.0
 11
121.9790402665
 21
235.2699808541
 31
0.0
  0
LINE
  5
184
330
1F
100
AcDbEntity
  8
0
  6
Continuous
 62
     7
370
    25
100
AcDbLine
 10
121.8776656414
 20
235.2699808541
 30
0.0
 11
121.8556457538
 21
235.2699808541
 31
0.0
  0
LINE
  5
185
330
1F
100
AcDbEntity
  8
0
  6
Continuous
 62
     7
370
    25
100
AcDbLine
 10
170.4922923595
 20
235.2699808541
 30
0.0
 11
170.6699634769
 21
235.2699808541
 31
0.0
  0
LINE
  5
186
330
1F
100
AcDbEntity
  8
0
  6
Continuous
 62
     7
370
    25
100
AcDbLine
 10
171.3541995432
 20
235.2699808541
 30
0.0
 11
170.6699634769
 21
235.2699808541
 31
0.0
  0
LINE
  5
187
330
1F
100
AcDbEntity
  8
0
  6
Continuous
 62
     7
370
    25
100
AcDbLine
 10
171.3541995432
 20
235.2699808541
 30
0.0
 11
171.4354859703
 21
235.2699808541
 31
0.0
  0
LINE
  5
188
330
1F
100
AcDbEntity
  8
0
  6
Continuous
 62
     7
370
    25
100
AcDbLine
 10
171.4495486757
 20
235.2699808541
 30
0.0
 11
171.4354859703
 21
235.2699808541
 31
0.0
  0
LINE
  5
189
330
1F
100
AcDbEntity
  8
0
  6
Continuous
 62
     7
370
    25
100
AcDbLine
 10
121.8556457538
 20
235.2699808541
 30
0.0
 11
121.2396655495
 21
235.2699808541
 31
0.0
  0
LINE
  5
18A
330
1F
100
AcDbEntity
  8
0
  6
Continuous
 62
     7
370
    25
100
AcDbLine
 10
121.1899090114
 20
235.2699808541
 30
0.0
 11
121.2396655495
 21
235.2699808541
 31
0.0
  0
LINE
  5
18B
330
1F
100
AcDbEntity
  8
0
  6
Continuous
 62
     7
370
    25
100
AcDbLine
 10
121.1899090114
 20
235.2699808541
 30
0.0
 11
121.1846789044
 21
235.2699808541
 31
0.0
  0
LINE
  5
18C
330
1F
100
AcDbEntity
  8
0
  6
Continuous
 62
     7
370
    25
100
AcDbLine
 10
171.9017641086
 20
235.2699808541
 30
0.0
 11
171.4495486757
 21
235.2699808541
 31
0.0
  0
LINE
  5
18D
330
1F
100
AcDbEntity
  8
0
  6
Continuous
 62
     7
370
    25
100
AcDbLine
 10
171.9017641086
 20
235.2699808541
 30
0.0
 11
171.9309308902
 21
235.2699808541
 31
0.0
  0
LINE
  5
18E
330
1F
100
AcDbEntity
  8
0
  6
Continuous
 62
     7
370
    25
100
AcDbLine
 10
171.9327228957
 20
235.2699808541
 30
0.0
 11
171.9309308902
 21
235.2699808541
 31
0.0
  0
LINE
  5
18F
330
1F
100
AcDbEntity
  8
0
  6
Continuous
 62
     7
370
    25
100
AcDbLine
 10
120.9918086809
 20
235.2699808541
 30
0.0
 11
120.9918086809
 21
174.2589995329
 31
0.0
  0
LINE
  5
190
330
1F
100
AcDbEntity
  8
0
  6
Continuous
 62
     7
370
    25
100
AcDbLine
 10
121.1846789044
 20
235.2699808541
 30
0.0
 11
120.9918086809
 21
235.2699808541
 31
0.0
  0
LINE
  5
191
330
1F
100
AcDbEntity
  8
0
  6
Continuous
 62
     7
370
    25
100
AcDbLine
 10
171.955931145
 20
235.2699808541
 30
0.0
 11
171.9327228957
 21
235.2699808541
 31
0.0
  0
LINE
  5
192
330
1F
100
AcDbEntity
  8
0
  6
Continuous
 62
     7
370
    25
100
AcDbLine
 10
174.986023046
 20
174.5092230149
 30
0.0
 11
174.986023046
 21
128.0307386933
 31
0.0
  0
SPLINE
  5
193
330
1F
100
AcDbEntity
  8
0
  6
Continuous
 62
     7
370
    25
100
AcDbSpline
210
0.0
220
0.0
230
1.0
 70
     8
 71
     3
 72
    63
 73
    59
 74
     0
 42
0.00000001
 43
0.00000001
 40
0.0
 40
0.0
 40
0.0
 40
0.0
 40
0.03101197637006
 40
0.0578849860895769
 40
0.0633499106002234
 40
0.0686060568945241
 40
0.0736534255397555
 40
0.0784920172664138
 40
0.0831218329938592
 40
0.0875428738620151
 40
0.0917551412709236
 40
0.1267133873729401
 40
0.159590726499573
 40
0.1678607254150415
 40
0.1759879250562263
 40
0.1839723532489987
 40
0.1918140393661019
 40
0.1995130144410664
 40
0.2070693112928125
 40
0.243368782626069
 40
0.2785857430987857
 40
0.292375983860635
 40
0.3059938789601908
 40
0.319439760235445
 40
0.3327139724696658
 40
0.3458168740427121
 40
0.3849622647769486
 40
0.4236960743961276
 40
0.4620291852103676
 40
0.4999728248280438
 40
0.53791619377852
 40
0.5762492143440293
 40
0.5917020125632573
 40
0.6072197465039026
 40
0.6228031107461275
 40
0.6384527911293407
 40
0.6541694648091624
 40
0.6872354434134901
 40
0.7213744190076291
 40
0.7329984567935757
 40
0.7447426060633696
 40
0.7566070401724878
 40
0.7685919272423086
 40
0.780697430361145
 40
0.7929237077760504
 40
0.8225329690041346
 40
0.8542216012457672
 40
0.861624288562185
 40
0.8691319641992618
 40
0.8767446421558168
 40
0.8844623358490843
 40
0.8922850581457327
 40
0.9002128213908402
 40
0.9082456374349843
 40
0.926232821608905
 40
0.947521275455004
 40
0.9721105276885637
 40
0.9999999999999999
 40
0.9999999999999999
 40
0.9999999999999999
 40
0.9999999999999999
 10
117.9989924206774
 20
128.0307386932753
 30
0.0
 10
118.0430120918878
 20
128.1639073490816
 30
0.0
 10
118.1251764152858
 20
128.4124715069067
 30
0.0
 10
118.4289182295997
 20
128.6816306408241
 30
0.0
 10
118.6559937581043
 20
128.8400909479805
 30
0.0
 10
118.7589629741304
 20
128.906351864118
 30
0.0
 10
118.8646356147983
 20
128.9697705640388
 30
0.0
 10
118.9722426048307
 20
129.0303471952892
 30
0.0
 10
119.0809445234075
 20
129.0880802438437
 30
0.0
 10
119.1899711568677
 20
129.1429755534645
 30
0.0
 10
119.5646039923123
 20
129.3224825759179
 30
0.0
 10
120.3063808882837
 20
129.6132002910378
 30
0.0
 10
121.3051045460305
 20
129.9070943577431
 30
0.0
 10
122.031840151167
 20
130.0909760606204
 30
0.0
 10
122.407098829198
 20
130.1806584934648
 30
0.0
 10
122.7906456769917
 20
130.2674316923758
 30
0.0
 10
123.1814794074398
 20
130.3512960202777
 30
0.0
 10
123.5786367436078
 20
130.4322560152599
 30
0.0
 10
124.4940044460684
 20
130.6097332987251
 30
0.0
 10
126.0248492170757
 20
130.8675287503109
 30
0.0
 10
127.8778052159107
 20
131.1175476737359
 30
0.0
 10
129.3275258922379
 20
131.2854812060317
 30
0.0
 10
130.3045802098695
 20
131.3891694380365
 30
0.0
 10
131.2980330264037
 20
131.4855916314386
 30
0.0
 10
132.3052157116045
 20
131.574757716476
 30
0.0
 10
134.0021932346727
 20
131.7112489976762
 30
0.0
 10
136.4634901307617
 20
131.8719450947973
 30
0.0
 10
139.7550976355579
 20
132.0201495963725
 30
0.0
 10
143.1111376916697
 20
132.109205009641
 30
0.0
 10
146.4925447624294
 20
132.1391827045556
 30
0.0
 10
149.8736779865687
 20
132.1092120034637
 30
0.0
 10
152.5510192891256
 20
132.0381591984368
 30
0.0
 10
154.5307763618115
 20
131.9603090561004
 30
0.0
 10
155.8417814922085
 20
131.8987622025844
 30
0.0
 10
157.1359349579672
 20
131.8277523933347
 30
0.0
 10
158.410020691539
 20
131.7472714345714
 30
0.0
 10
160.1189150305616
 20
131.6243845969477
 30
0.0
 10
162.2320389489573
 20
131.4414163964209
 30
0.0
 10
164.1052947596274
 20
131.2379812544654
 30
0.0
 10
165.3935263167334
 20
131.0763933091865
 30
0.0
 10
166.1576523442225
 20
130.9733536500605
 30
0.0
 10
166.9028525728271
 20
130.8652728269375
 30
0.0
 10
167.6273526589626
 20
130.7521494577348
 30
0.0
 10
168.3293296295256
 20
130.6339770313409
 30
0.0
 10
169.3257637921646
 20
130.4528053073901
 30
0.0
 10
170.5730447035026
 20
130.1926502742281
 30
0.0
 10
171.576382504222
 20
129.9348698582538
 30
0.0
 10
172.1826274585978
 20
129.7549437414826
 30
0.0
 10
172.4619128921991
 20
129.6670513543002
 30
0.0
 10
172.7308068025271
 20
129.577024064127
 30
0.0
 10
172.9885809457931
 20
129.4848588381314
 30
0.0
 10
173.234480387229
 20
129.390559076099
 30
0.0
 10
173.4677604412417
 20
129.2941140200832
 30
0.0
 10
173.7774441953474
 20
129.1552855106863
 30
0.0
 10
174.1563525432108
 20
128.9587964234514
 30
0.0
 10
174.5551550281014
 20
128.6897290262948
 30
0.0
 10
174.8779723770858
 20
128.3758897791192
 30
0.0
 10
174.9485271675703
 20
128.1505134552884
 30
0.0
 10
174.9860230459995
 20
128.0307386932753
 30
0.0
  0
LINE
  5
194
330
1F
100
AcDbEntity
  8
0
  6
Continuous
 62
     7
370
    25
100
AcDbLine
 10
117.9989924207
 20
174.5092230149
 30
0.0
 11
117.9989924207
 21
128.0307386933
 31
0.0
  0
SPLINE
  5
195
330
1F
100
AcDbEntity
  8
0
  6
Continuous
 62
     7
370
    25
100
AcDbSpline
210
0.0
220
0.0
230
1.0
 70
     8
 71
     3
 72
    29
 73
    25
 74
     0
 42
0.00000001
 43
0.00000001
 40
0.0
 40
0.0
 40
0.0
 40
0.0
 40
0.0790207442562814
 40
0.1586885762965196
 40
0.2390287531823903
 40
0.301624398996938
 40
0.365679253415134
 40
0.3982675266353733
 40
0.4312246183877315
 40
0.464551679422946
 40
0.4982498224871547
 40
0.5583694274965221
 40
0.6217791907064283
 40
0.6480747089749141
 40
0.6748981171919747
 40
0.7022496568097588
 40
0.7301295552417798
 40
0.758538026895677
 40
0.7970252469145638
 40
0.8383948328857027
 40
0.8826468825417241
 40
0.9147529924767203
 40
0.9538710596469524
 40
0.9999999999999999
 40
0.9999999999999999
 40
0.9999999999999999
 40
0.9999999999999999
 10
146.4925077333385
 20
170.4107363260223
 30
0.0
 10
145.3227798252569
 20
170.4169226487769
 30
0.0
 10
142.9737453010343
 20
170.4293459530583
 30
0.0
 10
139.4904706385638
 20
170.5289342857811
 30
0.0
 10
136.348648352123
 20
170.675403735881
 30
0.0
 10
133.5548802682476
 20
170.8597857685864
 30
0.0
 10
131.5115832529772
 20
171.0316193143936
 30
0.0
 10
129.9280536304549
 20
171.1888580835093
 30
0.0
 10
128.7635016274539
 20
171.3175357662278
 30
0.0
 10
127.6335929872801
 20
171.4562827182594
 30
0.0
 10
126.2618929208824
 20
171.6433725916461
 30
0.0
 10
124.6841139439402
 20
171.893030192095
 30
0.0
 10
123.3428008035823
 20
172.1505907898376
 30
0.0
 10
122.3984855058518
 20
172.360238439555
 30
0.0
 10
121.7875314896394
 20
172.5086728598619
 30
0.0
 10
121.2084631109784
 20
172.6635976889084
 30
0.0
 10
120.6648191194265
 20
172.825013728564
 30
0.0
 10
120.1037385861852
 20
173.0117540921535
 30
0.0
 10
119.5386250236311
 20
173.2298952390869
 30
0.0
 10
118.9970859206749
 20
173.4851183335133
 30
0.0
 10
118.5926746206858
 20
173.7314455291917
 30
0.0
 10
118.2955905910328
 20
173.9763152803759
 30
0.0
 10
118.0789938522939
 20
174.2269615247841
 30
0.0
 10
118.0270826558144
 20
174.4101148930877
 30
0.0
 10
117.9989924206774
 20
174.5092230148552
 30
0.0
  0
SPLINE
  5
196
330
1F
100
AcDbEntity
  8
0
  6
Continuous
 62
     7
370
    25
100
AcDbSpline
210
0.0
220
0.0
230
1.0
 70
     8
 71
     3
 72
    27
 73
    23
 74
     0
 42
0.00000001
 43
0.00000001
 40
0.0
 40
0.0
 40
0.0
 40
0.0
 40
0.0399720301345356
 40
0.0747927396530534
 40
0.1044616102672295
 40
0.1366839888382173
 40
0.1737351179732484
 40
0.2086687690570602
 40
0.2414850464297849
 40
0.3114897556204919
 40
0.3781969779810446
 40
0.4103249370729261
 40
0.4416291761125375
 40
0.4721102729192475
 40
0.5017688547211782
 40
0.5687740357874601
 40
0.6343011509583807
 40
0.69835951355631
 40
0.7609590993577336
 40
0.8413029269601981
 40
0.9209748075790994
 40
0.9999999999999999
 40
0.9999999999999999
 40
0.9999999999999999
 40
0.9999999999999999
 10
174.9860230459995
 20
174.5092230148552
 30
0.0
 10
174.9632485982897
 20
174.423339813401
 30
0.0
 10
174.920634717219
 20
174.2626414474357
 30
0.0
 10
174.7480388887501
 20
174.0393223130566
 30
0.0
 10
174.5243063979575
 20
173.8336363700696
 30
0.0
 10
174.225942801671
 20
173.6252445696024
 30
0.0
 10
173.8327016287202
 20
173.4085214174115
 30
0.0
 10
173.35524974743
 20
173.1939520214272
 30
0.0
 10
172.628229113697
 20
172.9169444060376
 30
0.0
 10
171.5500249951543
 20
172.5874878384222
 30
0.0
 10
170.245347296147
 20
172.2774273489378
 30
0.0
 10
169.1192361189651
 20
172.0501731400652
 30
0.0
 10
168.2524154389593
 20
171.8919989729622
 30
0.0
 10
167.3588975376002
 20
171.7439579608806
 30
0.0
 10
166.0523386467789
 20
171.5469726099294
 30
0.0
 10
164.257976507038
 20
171.3147523406829
 30
0.0
 10
161.8958168063044
 20
171.0671378221222
 30
0.0
 10
159.4302274474384
 20
170.8597945533451
 30
0.0
 10
156.6363596294155
 20
170.6754023170643
 30
0.0
 10
153.4945642438159
 20
170.5289344892683
 30
0.0
 10
150.0112812688519
 20
170.4293456710156
 30
0.0
 10
147.6622414778433
 20
170.4169225663649
 30
0.0
 10
146.4925077333385
 20
170.4107363260223
 30
0.0
  0
SPLINE
  5
197
330
1F
100
AcDbEntity
  8
0
  6
Continuous
 62
     7
370
    25
100
AcDbSpline
210
0.0
220
0.0
230
1.0
 70
     8
 71
     3
 72
    22
 73
    18
 74
     0
 42
0.00000001
 43
0.00000001
 40
0.0
 40
0.0
 40
0.0
 40
0.0
 40
0.0580356248245215
 40
0.1160881999907116
 40
0.1775429330780638
 40
0.2390457844235371
 40
0.3030738512557337
 40
0.3671738678238781
 40
0.4326538317308222
 40
0.4982204986290484
 40
0.5638512234951065
 40
0.6295691660224424
 40
0.6940138657006353
 40
0.7585319875061478
 40
0.8412183279758907
 40
0.9217726348365158
 40
1.0
 40
1.0
 40
1.0
 40
1.0
 10
146.4925077333385
 20
171.3993389322027
 30
0.0
 10
145.6635851698456
 20
171.4026182576465
 30
0.0
 10
144.0054979412076
 20
171.4091778663196
 30
0.0
 10
141.4910310768298
 20
171.4635000929634
 30
0.0
 10
138.9712464967953
 20
171.5521502628258
 30
0.0
 10
136.4401646722837
 20
171.6820810898974
 30
0.0
 10
133.9704946990819
 20
171.8507764798075
 30
0.0
 10
131.5773355461272
 20
172.0604547085456
 30
0.0
 10
129.3177111868357
 20
172.3071150850668
 30
0.0
 10
127.2216429876033
 20
172.5895428671404
 30
0.0
 10
125.3229108929083
 20
172.9026895522804
 30
0.0
 10
123.6557334382481
 20
173.2414223231656
 30
0.0
 10
122.2288374817731
 20
173.6013184685486
 30
0.0
 10
120.9420802016119
 20
174.0138250524311
 30
0.0
 10
119.9025120617882
 20
174.4788350621293
 30
0.0
 10
119.1867839747698
 20
174.9885573678313
 30
0.0
 10
119.0608225964291
 20
175.3297361925382
 30
0.0
 10
118.9987648877883
 20
175.4978256210356
 30
0.0
  0
LINE
  5
198
330
1F
100
AcDbEntity
  8
0
  6
Continuous
 62
     7
370
    25
100
AcDbLine
 10
146.4925077333
 20
170.4107363262
 30
0.0
 11
146.4925077333
 21
171.3993389322
 31
0.0
  0
ARC
  5
199
330
1F
100
AcDbEntity
  8
0
  6
Continuous
 62
     7
370
    25
100
AcDbCircle
 10
118.9969387591
 20
174.4998368133
 30
0.0
 40
0.9979904784545065
100
AcDbArc
 50
89.8951597946
 51
179.4611194698
  0
SPLINE
  5
19A
330
1F
100
AcDbEntity
  8
0
  6
Continuous
 62
     7
370
    25
100
AcDbSpline
210
0.0
220
0.0
230
1.0
 70
     8
 71
     3
 72
    22
 73
    18
 74
     0
 42
0.00000001
 43
0.00000001
 40
0.0
 40
0.0
 40
0.0
 40
0.0
 40
0.0587005093300552
 40
0.1173937407571615
 40
0.1794770363420695
 40
0.2415348792382283
 40
0.3060407705304101
 40
0.37049797364819
 40
0.4362039968412958
 40
0.501846914852266
 40
0.5674016909019477
 40
0.6328938201337645
 40
0.696981682023385
 40
0.7610221677509317
 40
0.8429511246084646
 40
0.9226549990402012
 40
1.0
 40
1.0
 40
1.0
 40
1.0
 10
173.9862505788886
 20
175.4978256210356
 30
0.0
 10
173.9470479883014
 20
175.3717014675184
 30
0.0
 10
173.868647667607
 20
175.119468797816
 30
0.0
 10
173.4585346950647
 20
174.7378743014543
 30
0.0
 10
172.8230326661897
 20
174.3562063528271
 30
0.0
 10
171.9163626927476
 20
173.9736850671158
 30
0.0
 10
170.7565944204408
 20
173.601331048139
 30
0.0
 10
169.3293845928622
 20
173.2414689299404
 30
0.0
 10
167.6622389911799
 20
172.9027092696122
 30
0.0
 10
165.7636114580533
 20
172.5895784601693
 30
0.0
 10
163.6674362251474
 20
172.3071351949605
 30
0.0
 10
161.4079891819235
 20
172.060469188775
 30
0.0
 10
159.0146085956332
 20
171.8508399778779
 30
0.0
 10
156.2792859278298
 20
171.6637057743574
 30
0.0
 10
153.2040249065892
 20
171.5152863031813
 30
0.0
 10
149.8411913404752
 20
171.4171158830683
 30
0.0
 10
147.5975022017939
 20
171.4052049484279
 30
0.0
 10
146.4925077333385
 20
171.3993389322027
 30
0.0
  0
ARC
  5
19B
330
1F
100
AcDbEntity
  8
0
  6
Continuous
 62
     7
370
    25
100
AcDbCircle
 10
173.9880767076
 20
174.4998368133
 30
0.0
 40
0.9979904784607835
100
AcDbArc
 50
0.5388805552
 51
90.1048402052
  0
ARC
  5
19C
330
1F
100
AcDbEntity
  8
0
  6
Continuous
 62
     7
370
    25
100
AcDbCircle
 10
173.9880767076
 20
128.0401248948
 30
0.0
 40
0.9979904784766807
100
AcDbArc
 50
269.8951597953
 51
359.4611193809
  0
SPLINE
  5
19D
330
1F
100
AcDbEntity
  8
0
  6
Continuous
 62
     7
370
    25
100
AcDbSpline
210
0.0
220
0.0
230
1.0
 70
     8
 71
     3
 72
    48
 73
    44
 74
     0
 42
0.00000001
 43
0.00000001
 40
0.0
 40
0.0
 40
0.0
 40
0.0
 40
0.0172596447119945
 40
0.0345078807028544
 40
0.0528815276708568
 40
0.0723285021146581
 40
0.0917917984279249
 40
0.1136411373796856
 40
0.1354588640838753
 40
0.1585605203702208
 40
0.1828377247014062
 40
0.2071340173054067
 40
0.2294104497159314
 40
0.2516190387363075
 40
0.2738657355721406
 40
0.2979090924002744
 40
0.3218684312825119
 40
0.3458789465388467
 40
0.3712514178468356
 40
0.3965307895040051
 40
0.421878121679678
 40
0.4609443875067091
 40
0.5000034196253476
 40
0.539056376685107
 40
0.5781287152697703
 40
0.603470634816542
 40
0.6287500064737117
 40
0.6541278926958426
 40
0.6781331224503548
 40
0.7020924613325921
 40
0.7261411040515241
 40
0.7483824637421563
 40
0.7705910527625324
 40
0.7928728214834245
 40
0.817163281596206
 40
0.8414424328444998
 40
0.8645433862523583
 40
0.8863588163210117
 40
0.9082150315722054
 40
0.9325290980608529
 40
0.9568601331702943
 40
0.9784268113217255
 40
1.0
 40
1.0
 40
1.0
 40
1.0
 10
118.9987648877883
 20
127.0421360870949
 30
0.0
 10
119.0166172108276
 20
127.1163175996451
 30
0.0
 10
119.0523100564216
 20
127.2646315903531
 30
0.0
 10
119.2075943624028
 20
127.4909650844228
 30
0.0
 10
119.4479467784757
 20
127.7250672651709
 30
0.0
 10
119.7924424029208
 20
127.9660159787368
 30
0.0
 10
120.2577691319649
 20
128.2178530900849
 30
0.0
 10
120.8495238075671
 20
128.4744852408164
 30
0.0
 10
121.5949021820575
 20
128.7389676146754
 30
0.0
 10
122.4905239127991
 20
129.0044703699906
 30
0.0
 10
123.5484499915837
 20
129.2686522406948
 30
0.0
 10
124.7215712734925
 20
129.517226718681
 30
0.0
 10
125.9713926854286
 20
129.7456915538702
 30
0.0
 10
127.2828021195567
 20
129.9542216505975
 30
0.0
 10
128.723997070549
 20
130.1537368985256
 30
0.0
 10
130.2951839891481
 20
130.3420422698883
 30
0.0
 10
131.9976006170262
 20
130.5163193720655
 30
0.0
 10
133.815162455926
 20
130.6736697841338
 30
0.0
 10
135.7414397977091
 20
130.8121565091304
 30
0.0
 10
137.7708331557189
 20
130.9291060962684
 30
0.0
 10
140.2310450937624
 20
131.0378723687242
 30
0.0
 10
143.1434806923903
 20
131.1201294183993
 30
0.0
 10
146.4923340403743
 20
131.1508668079143
 30
0.0
 10
149.8413613806829
 20
131.1201330242741
 30
0.0
 10
152.7536463930404
 20
131.037881565033
 30
0.0
 10
155.2138991075819
 20
130.9291259725844
 30
0.0
 10
157.2432790202521
 20
130.8121707782985
 30
0.0
 10
159.1695810276202
 20
130.6736912028005
 30
0.0
 10
160.9871735013135
 20
130.5163472105293
 30
0.0
 10
162.6895710492197
 20
130.3420658824688
 30
0.0
 10
164.2607865014503
 20
130.1537666133202
 30
0.0
 10
165.702013912588
 20
129.9542567017169
 30
0.0
 10
167.0133997724367
 20
129.7457232815329
 30
0.0
 10
168.2632521141327
 20
129.5172652479148
 30
0.0
 10
169.436430037625
 20
129.2686889608237
 30
0.0
 10
170.4942570449907
 20
129.0045209389892
 30
0.0
 10
171.3899535760989
 20
128.7390305563247
 30
0.0
 10
172.135377944821
 20
128.4745277418466
 30
0.0
 10
172.7725322097309
 20
128.1981700709113
 30
0.0
 10
173.2989971392686
 20
127.9052598832166
 30
0.0
 10
173.674853925793
 20
127.608481077299
 30
0.0
 10
173.9123131575803
 20
127.3202682582951
 30
0.0
 10
173.9616022922679
 20
127.1348561380908
 30
0.0
 10
173.9862505788886
 20
127.0421360870949
 30
0.0
  0
ARC
  5
19E
330
1F
100
AcDbEntity
  8
0
  6
Continuous
 62
     7
370
    25
100
AcDbCircle
 10
118.9969387591
 20
128.0401248948
 30
0.0
 40
0.9979904784607977
100
AcDbArc
 50
180.5388805552
 51
270.1048402052
  0
ELLIPSE
  5
19F
330
1F
100
AcDbEntity
  8
0
  6
Continuous
 62
     7
370
    25
100
AcDbEllipse
 10
146.4925077333
 20
126.9298793312
 30
0.0
 11
27.0
 21
0.0
 31
0.0
210
0.0
220
0.0
230
1.0
 40
0.152284264
 41
5.947323823689287
 42
9.760639444259837
  0
LINE
  5
1A0
330
1F
100
AcDbEntity
  8
0
  6
Continuous
 62
     7
370
    25
100
AcDbLine
 10
173.9862505789
 20
127.0421360871
 30
0.0
 11
175.4954922408
 21
116.2699808541
 31
0.0
  0
LINE
  5
1A1
330
1F
100
AcDbEntity
  8
0
  6
Continuous
 62
     7
370
    25
100
AcDbLine
 10
117.4895232259
 20
116.2699808541
 30
0.0
 11
121.0010860232
 21
116.2699808541
 31
0.0
  0
LINE
  5
1A2
330
1F
100
AcDbEntity
  8
0
  6
Continuous
 62
     7
370
    25
100
AcDbLine
 10
171.9839294435
 20
116.2699808541
 30
0.0
 11
175.4954922408
 21
116.2699808541
 31
0.0
  0
LINE
  5
1A3
330
1F
100
AcDbEntity
  8
0
  6
Continuous
 62
     7
370
    25
100
AcDbLine
 10
117.4895232259
 20
116.2699808541
 30
0.0
 11
118.9987648878
 21
127.0421360871
 31
0.0
  0
ELLIPSE
  5
1A4
330
1F
100
AcDbEntity
  8
0
  6
Continuous
 62
     7
370
    25
100
AcDbEllipse
 10
146.4925077333
 20
175.6100823769
 30
0.0
 11
27.0
 21
0.0
 31
0.0
210
0.0
220
0.0
230
1.0
 40
0.152284264
 41
2.806775278356994
 42
6.622179067951053
  0
LINE
  5
1A5
330
1F
100
AcDbEntity
  8
0
  6
Continuous
 62
     7
370
    25
100
AcDbLine
 10
175.4954922408
 20
186.2699808541
 30
0.0
 11
171.955931145
 21
186.2699808541
 31
0.0
  0
LINE
  5
1A6
330
1F
100
AcDbEntity
  8
0
  6
Continuous
 62
     7
370
    25
100
AcDbLine
 10
120.9918086809
 20
186.2699808541
 30
0.0
 11
117.4895232259
 21
186.2699808541
 31
0.0
  0
LINE
  5
1A7
330
1F
100
AcDbEntity
  8
0
  6
Continuous
 62
     7
370
    25
100
AcDbLine
 10
175.4954922408
 20
186.2699808541
 30
0.0
 11
173.9862505789
 21
175.497825621
 31
0.0
  0
LINE
  5
1A8
330
1F
100
AcDbEntity
  8
0
  6
Continuous
 62
     7
370
    25
100
AcDbLine
 10
118.9987648878
 20
175.497825621
 30
0.0
 11
117.4895232259
 21
186.2699808541
 31
0.0
  0
LINE
  5
1A9
330
1F
100
AcDbEntity
  8
0
  6
Continuous
 62
     7
370
    25
100
AcDbLine
 10
174.986023046
 20
128.0307386933
 30
0.0
 11
176.4925077333
 21
117.2782612617
 31
0.0
  0
ELLIPSE
  5
1AA
330
1F
100
AcDbEntity
  8
0
  6
Continuous
 62
     7
370
    25
100
AcDbEllipse
 10
175.4922801487
 20
117.2815096461
 30
0.0
 11
0.1403814723068137
 21
-1.001967444791276
 31
0.0
210
0.0
220
0.0
230
1.0
 40
0.9883827631
 41
6.145582242923551
 42
7.713167202949137
  0
ELLIPSE
  5
1AB
330
1F
100
AcDbEntity
  8
0
  6
Continuous
 62
     7
370
    25
100
AcDbEllipse
 10
117.492735318
 20
117.2815096461
 30
0.0
 11
0.1403814723068279
 21
1.00196744479129
 31
0.0
210
0.0
220
0.0
230
1.0
 40
0.9883827631
 41
1.711610757820252
 42
3.279195717845856
  0
LINE
  5
1AC
330
1F
100
AcDbEntity
  8
0
  6
Continuous
 62
     7
370
    25
100
AcDbLine
 10
117.9989924207
 20
128.0307386933
 30
0.0
 11
116.4925077333
 21
117.2782612617
 31
0.0
  0
ELLIPSE
  5
1AD
330
1F
100
AcDbEntity
  8
0
  6
Continuous
 62
     7
370
    25
100
AcDbEllipse
 10
175.4922801487
 20
185.2584520621
 30
0.0
 11
-0.1403814723068422
 21
-1.001967444791291
 31
0.0
210
0.0
220
0.0
230
1.0
 40
0.9883827631
 41
1.711610757820238
 42
3.279195717845885
  0
LINE
  5
1AE
330
1F
100
AcDbEntity
  8
0
  6
Continuous
 62
     7
370
    25
100
AcDbLine
 10
176.4925077333
 20
185.2617004464
 30
0.0
 11
174.986023046
 21
174.5092230149
 31
0.0
  0
LINE
  5
1AF
330
1F
100
AcDbEntity
  8
0
  6
Continuous
 62
     7
370
    25
100
AcDbLine
 10
116.4925077333
 20
185.2617004464
 30
0.0
 11
117.9989924207
 21
174.5092230149
 31
0.0
  0
ELLIPSE
  5
1B0
330
1F
100
AcDbEntity
  8
0
  6
Continuous
 62
     7
370
    25
100
AcDbEllipse
 10
117.492735318
 20
185.2584520621
 30
0.0
 11
-0.1403814723068279
 21
1.00196744479129
 31
0.0
210
0.0
220
0.0
230
1.0
 40
0.9883827631
 41
6.145582242923552
 42
7.713167202949155
  0
LINE
  5
1B1
330
1F
100
AcDbEntity
  8
0
  6
Continuous
 62
     7
370
    25
100
AcDbLine
 10
116.4925077333
 20
185.2617004464
 30
0.0
 11
116.4925077333
 21
117.2782612617
 31
0.0
  0
LINE
  5
1B2
330
1F
100
AcDbEntity
  8
0
  6
Continuous
 62
     7
370
    25
100
AcDbLine
 10
176.4925077333
 20
117.2782612617
 30
0.0
 11
176.4925077333
 21
185.2617004464
 31
0.0
  0
LINE
  5
1B3
330
1F
100
AcDbEntity
  8
0
  6
Continuous
 62
     8
370
    25
100
AcDbLine
 10
148.0829264951
 20
67.2699808541
 30
0.0
 11
148.0829264951
 21
131.0344150623
 31
0.0
  0
LINE
  5
1B4
330
1F
100
AcDbEntity
  8
0
  6
Continuous
 62
     8
370
    25
100
AcDbLine
 10
147.4455449199
 20
131.0389922388
 30
0.0
 11
147.4455449199
 21
67.2699808541
 31
0.0
  0
LINE
  5
1B5
330
1F
100
AcDbEntity
  8
0
  6
Continuous
 62
     8
370
    25
100
AcDbLine
 10
145.5394705468
 20
67.2699808541
 30
0.0
 11
145.5394705468
 21
131.0389922388
 31
0.0
  0
LINE
  5
1B6
330
1F
100
AcDbEntity
  8
0
  6
Continuous
 62
     8
370
    25
100
AcDbLine
 10
144.9020889715
 20
131.0344150623
 30
0.0
 11
144.9020889715
 21
67.2699808541
 31
0.0
  0
LINE
  5
1B7
330
1F
100
AcDbEntity
  8
0
  6
Continuous
 62
     8
370
    25
100
AcDbLine
 10
148.4596691325
 20
131.0306270102
 30
0.0
 11
148.4596691325
 21
67.2699808541
 31
0.0
  0
LINE
  5
1B8
330
1F
100
AcDbEntity
  8
0
  6
Continuous
 62
     8
370
    25
100
AcDbLine
 10
144.5253463342
 20
67.2699808541
 30
0.0
 11
144.5253463342
 21
131.0306270102
 31
0.0
  0
LINE
  5
1B9
330
1F
100
AcDbEntity
  8
0
  6
Continuous
 62
     8
370
    25
100
AcDbLine
 10
151.609550964
 20
67.2699808541
 30
0.0
 11
151.609550964
 21
130.9670379021
 31
0.0
  0
LINE
  5
1BA
330
1F
100
AcDbEntity
  8
0
  6
Continuous
 62
     8
370
    25
100
AcDbLine
 10
150.9052484537
 20
130.9862694113
 30
0.0
 11
150.9052484537
 21
67.2699808541
 31
0.0
  0
LINE
  5
1BB
330
1F
100
AcDbEntity
  8
0
  6
Continuous
 62
     8
370
    25
100
AcDbLine
 10
142.079767013
 20
67.2699808541
 30
0.0
 11
142.079767013
 21
130.9862694113
 31
0.0
  0
LINE
  5
1BC
330
1F
100
AcDbEntity
  8
0
  6
Continuous
 62
     8
370
    25
100
AcDbLine
 10
141.3754645027
 20
130.9670379021
 30
0.0
 11
141.3754645027
 21
67.2699808541
 31
0.0
  0
LINE
  5
1BD
330
1F
100
AcDbEntity
  8
0
  6
Continuous
 62
     8
370
    25
100
AcDbLine
 10
151.9789607344
 20
130.9557719447
 30
0.0
 11
151.9789607344
 21
67.2699808541
 31
0.0
  0
LINE
  5
1BE
330
1F
100
AcDbEntity
  8
0
  6
Continuous
 62
     8
370
    25
100
AcDbLine
 10
141.0060547323
 20
67.2699808541
 30
0.0
 11
141.0060547323
 21
130.9557719447
 31
0.0
  0
LINE
  5
1BF
330
1F
100
AcDbEntity
  8
0
  6
Continuous
 62
     8
370
    25
100
AcDbLine
 10
138.7059524579
 20
67.2699808541
 30
0.0
 11
138.7059524579
 21
130.8668606924
 31
0.0
  0
LINE
  5
1C0
330
1F
100
AcDbEntity
  8
0
  6
Continuous
 62
     8
370
    25
100
AcDbLine
 10
137.9484374598
 20
130.8302561977
 30
0.0
 11
137.9484374598
 21
67.2699808541
 31
0.0
  0
LINE
  5
1C1
330
1F
100
AcDbEntity
  8
0
  6
Continuous
 62
     8
370
    25
100
AcDbLine
 10
155.0365780069
 20
67.2699808541
 30
0.0
 11
155.0365780069
 21
130.8302561977
 31
0.0
  0
LINE
  5
1C2
330
1F
100
AcDbEntity
  8
0
  6
Continuous
 62
     8
370
    25
100
AcDbLine
 10
154.2790630088
 20
130.8668606924
 30
0.0
 11
154.2790630088
 21
67.2699808541
 31
0.0
  0
LINE
  5
1C3
330
1F
100
AcDbEntity
  8
0
  6
Continuous
 62
     8
370
    25
100
AcDbLine
 10
155.3914647694
 20
130.8118097245
 30
0.0
 11
155.3914647694
 21
67.2699808541
 31
0.0
  0
LINE
  5
1C4
330
1F
100
AcDbEntity
  8
0
  6
Continuous
 62
     8
370
    25
100
AcDbLine
 10
137.5935506973
 20
67.2699808541
 30
0.0
 11
137.5935506973
 21
130.8118097245
 31
0.0
  0
LINE
  5
1C5
330
1F
100
AcDbEntity
  8
0
  6
Continuous
 62
     8
370
    25
100
AcDbLine
 10
135.4836943442
 20
67.2699808541
 30
0.0
 11
135.4836943442
 21
130.6842532995
 31
0.0
  0
LINE
  5
1C6
330
1F
100
AcDbEntity
  8
0
  6
Continuous
 62
     8
370
    25
100
AcDbLine
 10
134.6877110261
 20
130.6277438216
 30
0.0
 11
134.6877110261
 21
67.2699808541
 31
0.0
  0
LINE
  5
1C7
330
1F
100
AcDbEntity
  8
0
  6
Continuous
 62
     8
370
    25
100
AcDbLine
 10
158.2973044406
 20
67.2699808541
 30
0.0
 11
158.2973044406
 21
130.6277438216
 31
0.0
  0
LINE
  5
1C8
330
1F
100
AcDbEntity
  8
0
  6
Continuous
 62
     8
370
    25
100
AcDbLine
 10
157.5013211225
 20
130.6842532995
 30
0.0
 11
157.5013211225
 21
67.2699808541
 31
0.0
  0
LINE
  5
1C9
330
1F
100
AcDbEntity
  8
0
  6
Continuous
 62
     8
370
    25
100
AcDbLine
 10
158.6307607281
 20
130.6026235065
 30
0.0
 11
158.6307607281
 21
67.2699808541
 31
0.0
  0
LINE
  5
1CA
330
1F
100
AcDbEntity
  8
0
  6
Continuous
 62
     8
370
    25
100
AcDbLine
 10
134.3542547385
 20
67.2699808541
 30
0.0
 11
134.3542547385
 21
130.6026235065
 31
0.0
  0
LINE
  5
1CB
330
1F
100
AcDbEntity
  8
0
  6
Continuous
 62
     8
370
    25
100
AcDbLine
 10
161.3282639342
 20
67.2699808541
 30
0.0
 11
161.3282639342
 21
130.365232557
 31
0.0
  0
LINE
  5
1CC
330
1F
100
AcDbEntity
  8
0
  6
Continuous
 62
     8
370
    25
100
AcDbLine
 10
160.509305206
 20
130.4440821164
 30
0.0
 11
160.509305206
 21
67.2699808541
 31
0.0
  0
LINE
  5
1CD
330
1F
100
AcDbEntity
  8
0
  6
Continuous
 62
     8
370
    25
100
AcDbLine
 10
132.4757102607
 20
67.2699808541
 30
0.0
 11
132.4757102607
 21
130.4440821164
 31
0.0
  0
LINE
  5
1CE
330
1F
100
AcDbEntity
  8
0
  6
Continuous
 62
     8
370
    25
100
AcDbLine
 10
131.6567515325
 20
130.365232557
 30
0.0
 11
131.6567515325
 21
67.2699808541
 31
0.0
  0
LINE
  5
1CF
330
1F
100
AcDbEntity
  8
0
  6
Continuous
 62
     8
370
    25
100
AcDbLine
 10
131.3512160673
 20
67.2699808541
 30
0.0
 11
131.3512160673
 21
130.3341779131
 31
0.0
  0
LINE
  5
1D0
330
1F
100
AcDbEntity
  8
0
  6
Continuous
 62
     8
370
    25
100
AcDbLine
 10
161.6337993994
 20
130.3341779131
 30
0.0
 11
161.6337993994
 21
67.2699808541
 31
0.0
  0
LINE
  5
1D1
330
1F
100
AcDbEntity
  8
0
  6
Continuous
 62
     8
370
    25
100
AcDbLine
 10
129.7405471962
 20
67.2699808541
 30
0.0
 11
129.7405471962
 21
130.1544669523
 31
0.0
  0
LINE
  5
1D2
330
1F
100
AcDbEntity
  8
0
  6
Continuous
 62
     8
370
    25
100
AcDbLine
 10
128.9145531579
 20
130.0508356772
 30
0.0
 11
128.9145531579
 21
67.2699808541
 31
0.0
  0
LINE
  5
1D3
330
1F
100
AcDbEntity
  8
0
  6
Continuous
 62
     8
370
    25
100
AcDbLine
 10
164.0704623088
 20
67.2699808541
 30
0.0
 11
164.0704623088
 21
130.0508356772
 31
0.0
  0
LINE
  5
1D4
330
1F
100
AcDbEntity
  8
0
  6
Continuous
 62
     8
370
    25
100
AcDbLine
 10
163.2444682705
 20
130.1544669523
 30
0.0
 11
163.2444682705
 21
67.2699808541
 31
0.0
  0
LINE
  5
1D5
330
1F
100
AcDbEntity
  8
0
  6
Continuous
 62
     8
370
    25
100
AcDbLine
 10
128.6428854154
 20
67.2699808541
 30
0.0
 11
128.6428854154
 21
130.0148705602
 31
0.0
  0
LINE
  5
1D6
330
1F
100
AcDbEntity
  8
0
  6
Continuous
 62
     8
370
    25
100
AcDbLine
 10
164.3421300513
 20
130.0148705602
 30
0.0
 11
164.3421300513
 21
67.2699808541
 31
0.0
  0
LINE
  5
1D7
330
1F
100
AcDbEntity
  8
0
  6
Continuous
 62
     8
370
    25
100
AcDbLine
 10
166.4705257922
 20
67.2699808541
 30
0.0
 11
166.4705257922
 21
129.6957522873
 31
0.0
  0
LINE
  5
1D8
330
1F
100
AcDbEntity
  8
0
  6
Continuous
 62
     8
370
    25
100
AcDbLine
 10
165.6535734782
 20
129.8266989501
 30
0.0
 11
165.6535734782
 21
67.2699808541
 31
0.0
  0
LINE
  5
1D9
330
1F
100
AcDbEntity
  8
0
  6
Continuous
 62
     8
370
    25
100
AcDbLine
 10
127.3314419885
 20
67.2699808541
 30
0.0
 11
127.3314419885
 21
129.8266989501
 31
0.0
  0
LINE
  5
1DA
330
1F
100
AcDbEntity
  8
0
  6
Continuous
 62
     8
370
    25
100
AcDbLine
 10
126.5144896745
 20
129.6957522873
 30
0.0
 11
126.5144896745
 21
67.2699808541
 31
0.0
  0
LINE
  5
1DB
330
1F
100
AcDbEntity
  8
0
  6
Continuous
 62
     8
370
    25
100
AcDbLine
 10
166.7030381084
 20
129.6562970348
 30
0.0
 11
166.7030381084
 21
67.2699808541
 31
0.0
  0
LINE
  5
1DC
330
1F
100
AcDbEntity
  8
0
  6
Continuous
 62
     8
370
    25
100
AcDbLine
 10
126.2819773582
 20
67.2699808541
 30
0.0
 11
126.2819773582
 21
129.6562970348
 31
0.0
  0
LINE
  5
1DD
330
1F
100
AcDbEntity
  8
0
  6
Continuous
 62
     8
370
    25
100
AcDbLine
 10
125.2952851301
 20
67.2699808541
 30
0.0
 11
125.2952851301
 21
129.476615699
 31
0.0
  0
LINE
  5
1DE
330
1F
100
AcDbEntity
  8
0
  6
Continuous
 62
     8
370
    25
100
AcDbLine
 10
124.503275588
 20
129.3158081675
 30
0.0
 11
124.503275588
 21
67.2699808541
 31
0.0
  0
LINE
  5
1DF
330
1F
100
AcDbEntity
  8
0
  6
Continuous
 62
     8
370
    25
100
AcDbLine
 10
168.4817398787
 20
67.2699808541
 30
0.0
 11
168.4817398787
 21
129.3158081675
 31
0.0
  0
LINE
  5
1E0
330
1F
100
AcDbEntity
  8
0
  6
Continuous
 62
     8
370
    25
100
AcDbLine
 10
167.6897303366
 20
129.476615699
 30
0.0
 11
167.6897303366
 21
67.2699808541
 31
0.0
  0
LINE
  5
1E1
330
1F
100
AcDbEntity
  8
0
  6
Continuous
 62
     8
370
    25
100
AcDbLine
 10
124.3144442857
 20
67.2699808541
 30
0.0
 11
124.3144442857
 21
129.2749259772
 31
0.0
  0
LINE
  5
1E2
330
1F
100
AcDbEntity
  8
0
  6
Continuous
 62
     8
370
    25
100
AcDbLine
 10
168.670571181
 20
129.2749259772
 30
0.0
 11
168.670571181
 21
67.2699808541
 31
0.0
  0
LINE
  5
1E3
330
1F
100
AcDbEntity
  8
0
  6
Continuous
 62
     8
370
    25
100
AcDbLine
 10
123.6717080982
 20
67.2699808541
 30
0.0
 11
123.6717080982
 21
129.1272684623
 31
0.0
  0
LINE
  5
1E4
330
1F
100
AcDbEntity
  8
0
  6
Continuous
 62
     8
370
    25
100
AcDbLine
 10
122.9200568927
 20
128.9348308485
 30
0.0
 11
122.9200568927
 21
67.2699808541
 31
0.0
  0
LINE
  5
1E5
330
1F
100
AcDbEntity
  8
0
  6
Continuous
 62
     8
370
    25
100
AcDbLine
 10
170.0649585739
 20
67.2699808541
 30
0.0
 11
170.0649585739
 21
128.9348308485
 31
0.0
  0
LINE
  5
1E6
330
1F
100
AcDbEntity
  8
0
  6
Continuous
 62
     8
370
    25
100
AcDbLine
 10
169.3133073685
 20
129.1272684623
 30
0.0
 11
169.3133073685
 21
67.2699808541
 31
0.0
  0
LINE
  5
1E7
330
1F
100
AcDbEntity
  8
0
  6
Continuous
 62
     8
370
    25
100
AcDbLine
 10
170.2064334757
 20
128.8957608069
 30
0.0
 11
170.2064334757
 21
67.2699808541
 31
0.0
  0
LINE
  5
1E8
330
1F
100
AcDbEntity
  8
0
  6
Continuous
 62
     8
370
    25
100
AcDbLine
 10
122.778581991
 20
67.2699808541
 30
0.0
 11
122.778581991
 21
128.8957608069
 31
0.0
  0
LINE
  5
1E9
330
1F
100
AcDbEntity
  8
0
  6
Continuous
 62
     8
370
    25
100
AcDbLine
 10
122.4923119729
 20
67.2699808541
 30
0.0
 11
122.4923119729
 21
128.8134738041
 31
0.0
  0
LINE
  5
1EA
330
1F
100
AcDbEntity
  8
0
  6
Continuous
 62
     8
370
    25
100
AcDbLine
 10
121.7956491399
 20
128.5915593858
 30
0.0
 11
121.7956491399
 21
67.2699808541
 31
0.0
  0
LINE
  5
1EB
330
1F
100
AcDbEntity
  8
0
  6
Continuous
 62
     8
370
    25
100
AcDbLine
 10
171.1893663268
 20
67.2699808541
 30
0.0
 11
171.1893663268
 21
128.5915593858
 31
0.0
  0
LINE
  5
1EC
330
1F
100
AcDbEntity
  8
0
  6
Continuous
 62
     8
370
    25
100
AcDbLine
 10
170.4927034938
 20
128.8134738041
 30
0.0
 11
170.4927034938
 21
67.2699808541
 31
0.0
  0
LINE
  5
1ED
330
1F
100
AcDbEntity
  8
0
  6
Continuous
 62
     8
370
    25
100
AcDbLine
 10
171.28073118
 20
128.559705025
 30
0.0
 11
171.28073118
 21
67.2699808541
 31
0.0
  0
LINE
  5
1EE
330
1F
100
AcDbEntity
  8
0
  6
Continuous
 62
     8
370
    25
100
AcDbLine
 10
121.7042842867
 20
67.2699808541
 30
0.0
 11
121.7042842867
 21
128.559705025
 31
0.0
  0
LINE
  5
1EF
330
1F
100
AcDbEntity
  8
0
  6
Continuous
 62
     8
370
    25
100
AcDbLine
 10
171.8330778194
 20
67.2699808541
 30
0.0
 11
171.8330778194
 21
128.3491123619
 31
0.0
  0
LINE
  5
1F0
330
1F
100
AcDbEntity
  8
0
  6
Continuous
 62
     8
370
    25
100
AcDbLine
 10
121.1519376473
 20
128.3491123619
 30
0.0
 11
121.1519376473
 21
67.2699808541
 31
0.0
  0
LINE
  5
1F1
330
1F
100
AcDbEntity
  8
0
  6
Continuous
 62
     8
370
    25
100
AcDbLine
 10
121.1124611556
 20
67.2699808541
 30
0.0
 11
121.1124611556
 21
128.3326582562
 31
0.0
  0
LINE
  5
1F2
330
1F
100
AcDbEntity
  8
0
  6
Continuous
 62
     8
370
    25
100
AcDbLine
 10
171.8725543111
 20
128.3326582562
 30
0.0
 11
171.8725543111
 21
67.2699808541
 31
0.0
  0
LINE
  5
1F3
330
1F
100
AcDbEntity
  8
0
  6
Continuous
 62
     8
370
    25
100
AcDbLine
 10
145.6002900578
 20
235.2699808541
 30
0.0
 11
145.6002900578
 21
171.5006527938
 31
0.0
  0
LINE
  5
1F4
330
1F
100
AcDbEntity
  8
0
  6
Continuous
 62
     8
370
    25
100
AcDbLine
 10
145.2229668778
 20
171.5029549821
 30
0.0
 11
145.2229668778
 21
235.2699808541
 31
0.0
  0
LINE
  5
1F5
330
1F
100
AcDbEntity
  8
0
  6
Continuous
 62
     8
370
    25
100
AcDbLine
 10
146.2230306888
 20
171.4986120433
 30
0.0
 11
146.2230306888
 21
235.2699808541
 31
0.0
  0
LINE
  5
1F6
330
1F
100
AcDbEntity
  8
0
  6
Continuous
 62
     8
370
    25
100
AcDbLine
 10
144.6484290899
 20
235.2699808541
 30
0.0
 11
144.6484290899
 21
171.508008494
 31
0.0
  0
LINE
  5
1F7
330
1F
100
AcDbEntity
  8
0
  6
Continuous
 62
     8
370
    25
100
AcDbLine
 10
149.155811496
 20
235.2699808541
 30
0.0
 11
149.155811496
 21
171.5184594937
 31
0.0
  0
LINE
  5
1F8
330
1F
100
AcDbEntity
  8
0
  6
Continuous
 62
     8
370
    25
100
AcDbLine
 10
148.7799324963
 20
171.5131893551
 30
0.0
 11
148.7799324963
 21
235.2699808541
 31
0.0
  0
LINE
  5
1F9
330
1F
100
AcDbEntity
  8
0
  6
Continuous
 62
     8
370
    25
100
AcDbLine
 10
148.1283889232
 20
235.2699808541
 30
0.0
 11
148.1283889232
 21
171.5059610225
 31
0.0
  0
LINE
  5
1FA
330
1F
100
AcDbEntity
  8
0
  6
Continuous
 62
     8
370
    25
100
AcDbLine
 10
142.0621346217
 20
235.2699808541
 30
0.0
 11
142.0621346217
 21
171.5541380358
 31
0.0
  0
LINE
  5
1FB
330
1F
100
AcDbEntity
  8
0
  6
Continuous
 62
     8
370
    25
100
AcDbLine
 10
142.7543426059
 20
171.5380053687
 30
0.0
 11
142.7543426059
 21
235.2699808541
 31
0.0
  0
LINE
  5
1FC
330
1F
100
AcDbEntity
  8
0
  6
Continuous
 62
     8
370
    25
100
AcDbLine
 10
141.6907114281
 20
171.5639529532
 30
0.0
 11
141.6907114281
 21
235.2699808541
 31
0.0
  0
LINE
  5
1FD
330
1F
100
AcDbEntity
  8
0
  6
Continuous
 62
     8
370
    25
100
AcDbLine
 10
151.5765081899
 20
235.2699808541
 30
0.0
 11
151.5765081899
 21
171.5719558106
 31
0.0
  0
LINE
  5
1FE
330
1F
100
AcDbEntity
  8
0
  6
Continuous
 62
     8
370
    25
100
AcDbLine
 10
152.2923759936
 20
171.594390722
 30
0.0
 11
152.2923759936
 21
235.2699808541
 31
0.0
  0
LINE
  5
1FF
330
1F
100
AcDbEntity
  8
0
  6
Continuous
 62
     8
370
    25
100
AcDbLine
 10
152.659494756
 20
235.2699808541
 30
0.0
 11
152.659494756
 21
171.6070962851
 31
0.0
  0
LINE
  5
200
330
1F
100
AcDbEntity
  8
0
  6
Continuous
 62
     8
370
    25
100
AcDbLine
 10
138.6102113588
 20
235.2699808541
 30
0.0
 11
138.6102113588
 21
171.677521768
 31
0.0
  0
LINE
  5
201
330
1F
100
AcDbEntity
  8
0
  6
Continuous
 62
     8
370
    25
100
AcDbLine
 10
139.3584136551
 20
171.6445325936
 30
0.0
 11
139.3584136551
 21
235.2699808541
 31
0.0
  0
LINE
  5
202
330
1F
100
AcDbEntity
  8
0
  6
Continuous
 62
     8
370
    25
100
AcDbLine
 10
138.2519174814
 20
171.6945916457
 30
0.0
 11
138.2519174814
 21
235.2699808541
 31
0.0
  0
LINE
  5
203
330
1F
100
AcDbEntity
  8
0
  6
Continuous
 62
     8
370
    25
100
AcDbLine
 10
154.9256731706
 20
235.2699808541
 30
0.0
 11
154.9256731706
 21
171.7041120617
 31
0.0
  0
LINE
  5
204
330
1F
100
AcDbEntity
  8
0
  6
Continuous
 62
     8
370
    25
100
AcDbLine
 10
155.6919316525
 20
171.7444291995
 30
0.0
 11
155.6919316525
 21
235.2699808541
 31
0.0
  0
LINE
  5
205
330
1F
100
AcDbEntity
  8
0
  6
Continuous
 62
     8
370
    25
100
AcDbLine
 10
156.0431446284
 20
235.2699808541
 30
0.0
 11
156.0431446284
 21
171.7642328053
 31
0.0
  0
LINE
  5
206
330
1F
100
AcDbEntity
  8
0
  6
Continuous
 62
     8
370
    25
100
AcDbLine
 10
135.3117080288
 20
235.2699808541
 30
0.0
 11
135.3117080288
 21
171.8675135035
 31
0.0
  0
LINE
  5
207
330
1F
100
AcDbEntity
  8
0
  6
Continuous
 62
     8
370
    25
100
AcDbLine
 10
136.1013417306
 20
171.8151057543
 30
0.0
 11
136.1013417306
 21
235.2699808541
 31
0.0
  0
LINE
  5
208
330
1F
100
AcDbEntity
  8
0
  6
Continuous
 62
     8
370
    25
100
AcDbLine
 10
134.9735172505
 20
171.8913740555
 30
0.0
 11
134.9735172505
 21
235.2699808541
 31
0.0
  0
LINE
  5
209
330
1F
100
AcDbEntity
  8
0
  6
Continuous
 62
     8
370
    25
100
AcDbLine
 10
158.1106961788
 20
235.2699808541
 30
0.0
 11
158.1106961788
 21
171.898537462
 31
0.0
  0
LINE
  5
20A
330
1F
100
AcDbEntity
  8
0
  6
Continuous
 62
     8
370
    25
100
AcDbLine
 10
158.912430989
 20
171.9592422039
 30
0.0
 11
158.912430989
 21
235.2699808541
 31
0.0
  0
LINE
  5
20B
330
1F
100
AcDbEntity
  8
0
  6
Continuous
 62
     8
370
    25
100
AcDbLine
 10
159.2409022174
 20
235.2699808541
 30
0.0
 11
159.2409022174
 21
171.9855939238
 31
0.0
  0
LINE
  5
20C
330
1F
100
AcDbEntity
  8
0
  6
Continuous
 62
     8
370
    25
100
AcDbLine
 10
132.2308262471
 20
235.2699808541
 30
0.0
 11
132.2308262471
 21
172.1188034934
 31
0.0
  0
LINE
  5
20D
330
1F
100
AcDbEntity
  8
0
  6
Continuous
 62
     8
370
    25
100
AcDbLine
 10
133.0465220326
 20
172.0445309047
 30
0.0
 11
133.0465220326
 21
235.2699808541
 31
0.0
  0
LINE
  5
20E
330
1F
100
AcDbEntity
  8
0
  6
Continuous
 62
     8
370
    25
100
AcDbLine
 10
131.9193210667
 20
172.1487637973
 30
0.0
 11
131.9193210667
 21
235.2699808541
 31
0.0
  0
LINE
  5
20F
330
1F
100
AcDbEntity
  8
0
  6
Continuous
 62
     8
370
    25
100
AcDbLine
 10
161.0695843643
 20
235.2699808541
 30
0.0
 11
161.0695843643
 21
172.1491436808
 31
0.0
  0
LINE
  5
210
330
1F
100
AcDbEntity
  8
0
  6
Continuous
 62
     8
370
    25
100
AcDbLine
 10
161.8911906468
 20
172.2326640166
 30
0.0
 11
161.8911906468
 21
235.2699808541
 31
0.0
  0
LINE
  5
211
330
1F
100
AcDbEntity
  8
0
  6
Continuous
 62
     8
370
    25
100
AcDbLine
 10
162.1905268088
 20
235.2699808541
 30
0.0
 11
162.1905268088
 21
172.264773854
 31
0.0
  0
LINE
  5
212
330
1F
100
AcDbEntity
  8
0
  6
Continuous
 62
     8
370
    25
100
AcDbLine
 10
130.2534131517
 20
172.3252158223
 30
0.0
 11
130.2534131517
 21
235.2699808541
 31
0.0
  0
LINE
  5
213
330
1F
100
AcDbEntity
  8
0
  6
Continuous
 62
     8
370
    25
100
AcDbLine
 10
129.4275318731
 20
235.2699808541
 30
0.0
 11
129.4275318731
 21
172.4237853365
 31
0.0
  0
LINE
  5
214
330
1F
100
AcDbEntity
  8
0
  6
Continuous
 62
     8
370
    25
100
AcDbLine
 10
129.1487753846
 20
172.4588836077
 30
0.0
 11
129.1487753846
 21
235.2699808541
 31
0.0
  0
LINE
  5
215
330
1F
100
AcDbEntity
  8
0
  6
Continuous
 62
     8
370
    25
100
AcDbLine
 10
163.7447463344
 20
235.2699808541
 30
0.0
 11
163.7447463344
 21
172.447257862
 31
0.0
  0
LINE
  5
216
330
1F
100
AcDbEntity
  8
0
  6
Continuous
 62
     8
370
    25
100
AcDbLine
 10
164.5702324574
 20
172.556048633
 30
0.0
 11
164.5702324574
 21
235.2699808541
 31
0.0
  0
LINE
  5
217
330
1F
100
AcDbEntity
  8
0
  6
Continuous
 62
     8
370
    25
100
AcDbLine
 10
164.8346073151
 20
235.2699808541
 30
0.0
 11
164.8346073151
 21
172.5928265482
 31
0.0
  0
LINE
  5
218
330
1F
100
AcDbEntity
  8
0
  6
Continuous
 62
     8
370
    25
100
AcDbLine
 10
126.9563878431
 20
235.2699808541
 30
0.0
 11
126.9563878431
 21
172.7719513545
 31
0.0
  0
LINE
  5
219
330
1F
100
AcDbEntity
  8
0
  6
Continuous
 62
     8
370
    25
100
AcDbLine
 10
127.7763797751
 20
172.6465720886
 30
0.0
 11
127.7763797751
 21
235.2699808541
 31
0.0
  0
LINE
  5
21A
330
1F
100
AcDbEntity
  8
0
  6
Continuous
 62
     8
370
    25
100
AcDbLine
 10
126.7158057244
 20
172.8108587593
 30
0.0
 11
126.7158057244
 21
235.2699808541
 31
0.0
  0
LINE
  5
21B
330
1F
100
AcDbEntity
  8
0
  6
Continuous
 62
     8
370
    25
100
AcDbLine
 10
166.0841131042
 20
235.2699808541
 30
0.0
 11
166.0841131042
 21
172.7808350118
 31
0.0
  0
LINE
  5
21C
330
1F
100
AcDbEntity
  8
0
  6
Continuous
 62
     8
370
    25
100
AcDbLine
 10
166.8974119193
 20
172.9174490312
 30
0.0
 11
166.8974119193
 21
235.2699808541
 31
0.0
  0
LINE
  5
21D
330
1F
100
AcDbEntity
  8
0
  6
Continuous
 62
     8
370
    25
100
AcDbLine
 10
167.1216797169
 20
235.2699808541
 30
0.0
 11
167.1216797169
 21
172.9573741459
 31
0.0
  0
LINE
  5
21E
330
1F
100
AcDbEntity
  8
0
  6
Continuous
 62
     8
370
    25
100
AcDbLine
 10
124.8654921647
 20
235.2699808541
 30
0.0
 11
124.8654921647
 21
173.1485722454
 31
0.0
  0
LINE
  5
21F
330
1F
100
AcDbEntity
  8
0
  6
Continuous
 62
     8
370
    25
100
AcDbLine
 10
125.6636345399
 20
172.993813719
 30
0.0
 11
125.6636345399
 21
235.2699808541
 31
0.0
  0
LINE
  5
220
330
1F
100
AcDbEntity
  8
0
  6
Continuous
 62
     8
370
    25
100
AcDbLine
 10
124.6677670732
 20
173.1893818761
 30
0.0
 11
124.6677670732
 21
235.2699808541
 31
0.0
  0
LINE
  5
221
330
1F
100
AcDbEntity
  8
0
  6
Continuous
 62
     8
370
    25
100
AcDbLine
 10
168.0421515606
 20
235.2699808541
 30
0.0
 11
168.0421515606
 21
173.1328856672
 31
0.0
  0
LINE
  5
222
330
1F
100
AcDbEntity
  8
0
  6
Continuous
 62
     8
370
    25
100
AcDbLine
 10
168.8274331315
 20
173.2998186304
 30
0.0
 11
168.8274331315
 21
235.2699808541
 31
0.0
  0
LINE
  5
223
330
1F
100
AcDbEntity
  8
0
  6
Continuous
 62
     8
370
    25
100
AcDbLine
 10
169.0072287514
 20
235.2699808541
 30
0.0
 11
169.0072287514
 21
173.3406516676
 31
0.0
  0
LINE
  5
224
330
1F
100
AcDbEntity
  8
0
  6
Continuous
 62
     8
370
    25
100
AcDbLine
 10
123.956299629
 20
173.3456029583
 30
0.0
 11
123.956299629
 21
235.2699808541
 31
0.0
  0
LINE
  5
225
330
1F
100
AcDbEntity
  8
0
  6
Continuous
 62
     8
370
    25
100
AcDbLine
 10
123.1955417441
 20
235.2699808541
 30
0.0
 11
123.1955417441
 21
173.5317989558
 31
0.0
  0
LINE
  5
226
330
1F
100
AcDbEntity
  8
0
  6
Continuous
 62
     8
370
    25
100
AcDbLine
 10
123.0445221737
 20
173.5715655323
 30
0.0
 11
123.0445221737
 21
235.2699808541
 31
0.0
  0
LINE
  5
227
330
1F
100
AcDbEntity
  8
0
  6
Continuous
 62
     8
370
    25
100
AcDbLine
 10
169.5807507123
 20
235.2699808541
 30
0.0
 11
169.5807507123
 21
173.4784669105
 31
0.0
  0
LINE
  5
228
330
1F
100
AcDbEntity
  8
0
  6
Continuous
 62
     8
370
    25
100
AcDbLine
 10
170.3227304265
 20
173.677088801
 30
0.0
 11
170.3227304265
 21
235.2699808541
 31
0.0
  0
LINE
  5
229
330
1F
100
AcDbEntity
  8
0
  6
Continuous
 62
     8
370
    25
100
AcDbLine
 10
170.4545543514
 20
235.2699808541
 30
0.0
 11
170.4545543514
 21
173.7152577893
 31
0.0
  0
LINE
  5
22A
330
1F
100
AcDbEntity
  8
0
  6
Continuous
 62
     8
370
    25
100
AcDbLine
 10
122.6876063742
 20
173.6698668756
 30
0.0
 11
122.6876063742
 21
235.2699808541
 31
0.0
  0
LINE
  5
22B
330
1F
100
AcDbEntity
  8
0
  6
Continuous
 62
     8
370
    25
100
AcDbLine
 10
121.9790402665
 20
235.2699808541
 30
0.0
 11
121.9790402665
 21
173.886577592
 31
0.0
  0
LINE
  5
22C
330
1F
100
AcDbEntity
  8
0
  6
Continuous
 62
     8
370
    25
100
AcDbLine
 10
121.8776656414
 20
173.9204162478
 30
0.0
 11
121.8776656414
 21
235.2699808541
 31
0.0
  0
LINE
  5
22D
330
1F
100
AcDbEntity
  8
0
  6
Continuous
 62
     8
370
    25
100
AcDbLine
 10
170.6699634769
 20
235.2699808541
 30
0.0
 11
170.6699634769
 21
173.7798140916
 31
0.0
  0
LINE
  5
22E
330
1F
100
AcDbEntity
  8
0
  6
Continuous
 62
     8
370
    25
100
AcDbLine
 10
171.3541995432
 20
174.0064178664
 30
0.0
 11
171.3541995432
 21
235.2699808541
 31
0.0
  0
LINE
  5
22F
330
1F
100
AcDbEntity
  8
0
  6
Continuous
 62
     8
370
    25
100
AcDbLine
 10
171.4354859703
 20
235.2699808541
 30
0.0
 11
171.4354859703
 21
174.0359621652
 31
0.0
  0
LINE
  5
230
330
1F
100
AcDbEntity
  8
0
  6
Continuous
 62
     8
370
    25
100
AcDbLine
 10
121.2396655495
 20
235.2699808541
 30
0.0
 11
121.2396655495
 21
174.1550386154
 31
0.0
  0
LINE
  5
231
330
1F
100
AcDbEntity
  8
0
  6
Continuous
 62
     8
370
    25
100
AcDbLine
 10
121.1899090114
 20
174.1752243721
 30
0.0
 11
121.1899090114
 21
235.2699808541
 31
0.0
  0
LINE
  5
232
330
1F
100
AcDbEntity
  8
0
  6
Continuous
 62
     8
370
    25
100
AcDbLine
 10
171.9017641086
 20
174.2196203815
 30
0.0
 11
171.9017641086
 21
235.2699808541
 31
0.0
  0
LINE
  5
233
330
1F
100
AcDbEntity
  8
0
  6
Continuous
 62
     8
370
    25
100
AcDbLine
 10
171.9309308902
 20
235.2699808541
 30
0.0
 11
171.9309308902
 21
174.2320433395
 31
0.0
  0
LINE
  5
234
330
1F
100
AcDbEntity
  8
0
  6
Continuous
 62
     7
370
    25
100
AcDbLine
 10
274.1045244762
 20
127.4462075952
 30
0.0
 11
274.1045244762
 21
67.2699808541
 31
0.0
  0
LINE
  5
235
330
1F
100
AcDbEntity
  8
0
  6
Continuous
 62
     7
370
    25
100
AcDbLine
 10
282.6048822306
 20
67.2699808541
 30
0.0
 11
282.6048822306
 21
126.1517368712
 31
0.0
  0
LINE
  5
236
330
1F
100
AcDbEntity
  8
0
  6
Continuous
 62
     7
370
    25
100
AcDbLine
 10
270.6880026702
 20
127.9664901037
 30
0.0
 11
270.6880026702
 21
67.2699808541
 31
0.0
  0
LINE
  5
237
330
1F
100
AcDbEntity
  8
0
  6
Continuous
 62
     7
370
    25
100
AcDbLine
 10
285.9691924766
 20
67.2699808541
 30
0.0
 11
285.9691924766
 21
125.6394053616
 31
0.0
  0
LINE
  5
238
330
1F
100
AcDbEntity
  8
0
  6
Continuous
 62
     7
370
    25
100
AcDbLine
 10
267.3922945655
 20
128.4683745867
 30
0.0
 11
267.3922945655
 21
67.2699808541
 31
0.0
  0
LINE
  5
239
330
1F
100
AcDbEntity
  8
0
  6
Continuous
 62
     7
370
    25
100
AcDbLine
 10
289.1802420814
 20
67.2699808541
 30
0.0
 11
289.1802420814
 21
125.150413036
 31
0.0
  0
LINE
  5
23A
330
1F
100
AcDbEntity
  8
0
  6
Continuous
 62
     7
370
    25
100
AcDbLine
 10
264.2815473714
 20
128.9420924335
 30
0.0
 11
264.2815473714
 21
67.2699808541
 31
0.0
  0
LINE
  5
23B
330
1F
100
AcDbEntity
  8
0
  6
Continuous
 62
     7
370
    25
100
AcDbLine
 10
292.175531617
 20
67.2699808541
 30
0.0
 11
292.175531617
 21
124.6942775737
 31
0.0
  0
LINE
  5
23C
330
1F
100
AcDbEntity
  8
0
  6
Continuous
 62
     7
370
    25
100
AcDbLine
 10
261.4163082438
 20
129.3784232651
 30
0.0
 11
261.4163082438
 21
67.2699808541
 31
0.0
  0
LINE
  5
23D
330
1F
100
AcDbEntity
  8
0
  6
Continuous
 62
     7
370
    25
100
AcDbLine
 10
294.8967611797
 20
67.2699808541
 30
0.0
 11
294.8967611797
 21
124.2798771327
 31
0.0
  0
LINE
  5
23E
330
1F
100
AcDbEntity
  8
0
  6
Continuous
 62
     7
370
    25
100
AcDbLine
 10
258.8523458031
 20
129.7688743982
 30
0.0
 11
258.8523458031
 21
67.2699808541
 31
0.0
  0
LINE
  5
23F
330
1F
100
AcDbEntity
  8
0
  6
Continuous
 62
     7
370
    25
100
AcDbLine
 10
297.2909651313
 20
67.2699808541
 30
0.0
 11
297.2909651313
 21
123.9152775462
 31
0.0
  0
LINE
  5
240
330
1F
100
AcDbEntity
  8
0
  6
Continuous
 62
     7
370
    25
100
AcDbLine
 10
256.6395646616
 20
130.1058461456
 30
0.0
 11
256.6395646616
 21
67.2699808541
 31
0.0
  0
LINE
  5
241
330
1F
100
AcDbEntity
  8
0
  6
Continuous
 62
     7
370
    25
100
AcDbLine
 10
299.3115430152
 20
67.2699808541
 30
0.0
 11
299.3115430152
 21
123.6075753304
 31
0.0
  0
LINE
  5
242
330
1F
100
AcDbEntity
  8
0
  6
Continuous
 62
     7
370
    25
100
AcDbLine
 10
254.8210340874
 20
130.3827797356
 30
0.0
 11
254.8210340874
 21
67.2699808541
 31
0.0
  0
LINE
  5
243
330
1F
100
AcDbEntity
  8
0
  6
Continuous
 62
     7
370
    25
100
AcDbLine
 10
300.9191665815
 20
67.2699808541
 30
0.0
 11
300.9191665815
 21
123.3627595588
 31
0.0
  0
LINE
  5
244
330
1F
100
AcDbEntity
  8
0
  6
Continuous
 62
     7
370
    25
100
AcDbLine
 10
253.4321497096
 20
130.5942849708
 30
0.0
 11
253.4321497096
 21
67.2699808541
 31
0.0
  0
LINE
  5
245
330
1F
100
AcDbEntity
  8
0
  6
Continuous
 62
     7
370
    25
100
AcDbLine
 10
302.0825452659
 20
67.2699808541
 30
0.0
 11
302.0825452659
 21
123.1855952922
 31
0.0
  0
LINE
  5
246
330
1F
100
AcDbEntity
  8
0
  6
Continuous
 62
     7
370
    25
100
AcDbLine
 10
252.4999445826
 20
130.7362451424
 30
0.0
 11
252.4999445826
 21
67.2699808541
 31
0.0
  0
LINE
  5
247
330
1F
100
AcDbEntity
  8
0
  6
Continuous
 62
     7
370
    25
100
AcDbLine
 10
302.7790352258
 20
67.2699808541
 30
0.0
 11
302.7790352258
 21
123.0795308313
 31
0.0
  0
LINE
  5
248
330
1F
100
AcDbEntity
  8
0
  6
Continuous
 62
     7
370
    25
100
AcDbLine
 10
252.042563019
 20
130.8058971572
 30
0.0
 11
252.042563019
 21
67.2699808541
 31
0.0
  0
LINE
  5
249
330
1F
100
AcDbEntity
  8
0
  6
Continuous
 62
     7
370
    25
100
AcDbLine
 10
274.7837924335
 20
235.2699808541
 30
0.0
 11
274.7837924335
 21
175.1971959339
 31
0.0
  0
LINE
  5
24A
330
1F
100
AcDbEntity
  8
0
  6
Continuous
 62
     7
370
    25
100
AcDbLine
 10
283.2744196964
 20
176.4901848571
 30
0.0
 11
283.2744196964
 21
235.2699808541
 31
0.0
  0
LINE
  5
24B
330
1F
100
AcDbEntity
  8
0
  6
Continuous
 62
     7
370
    25
100
AcDbLine
 10
271.3513087985
 20
235.2699808541
 30
0.0
 11
271.3513087985
 21
174.6744826899
 31
0.0
  0
LINE
  5
24C
330
1F
100
AcDbEntity
  8
0
  6
Continuous
 62
     7
370
    25
100
AcDbLine
 10
286.6137300868
 20
176.9987092821
 30
0.0
 11
286.6137300868
 21
235.2699808541
 31
0.0
  0
LINE
  5
24D
330
1F
100
AcDbEntity
  8
0
  6
Continuous
 62
     7
370
    25
100
AcDbLine
 10
268.0267283654
 20
235.2699808541
 30
0.0
 11
268.0267283654
 21
174.1682014057
 31
0.0
  0
LINE
  5
24E
330
1F
100
AcDbEntity
  8
0
  6
Continuous
 62
     7
370
    25
100
AcDbLine
 10
289.7872346445
 20
177.4819840878
 30
0.0
 11
289.7872346445
 21
235.2699808541
 31
0.0
  0
LINE
  5
24F
330
1F
100
AcDbEntity
  8
0
  6
Continuous
 62
     7
370
    25
100
AcDbLine
 10
264.8747603108
 20
235.2699808541
 30
0.0
 11
264.8747603108
 21
173.6882062705
 31
0.0
  0
LINE
  5
250
330
1F
100
AcDbEntity
  8
0
  6
Continuous
 62
     7
370
    25
100
AcDbLine
 10
292.7331647132
 20
177.93060288
 30
0.0
 11
292.7331647132
 21
235.2699808541
 31
0.0
  0
LINE
  5
251
330
1F
100
AcDbEntity
  8
0
  6
Continuous
 62
     7
370
    25
100
AcDbLine
 10
261.9567541076
 20
235.2699808541
 30
0.0
 11
261.9567541076
 21
173.2438398436
 31
0.0
  0
LINE
  5
252
330
1F
100
AcDbEntity
  8
0
  6
Continuous
 62
     7
370
    25
100
AcDbLine
 10
295.394181115
 20
178.3358338041
 30
0.0
 11
295.394181115
 21
235.2699808541
 31
0.0
  0
LINE
  5
253
330
1F
100
AcDbEntity
  8
0
  6
Continuous
 62
     7
370
    25
100
AcDbLine
 10
259.3295054272
 20
235.2699808541
 30
0.0
 11
259.3295054272
 21
172.8437512121
 31
0.0
  0
LINE
  5
254
330
1F
100
AcDbEntity
  8
0
  6
Continuous
 62
     7
370
    25
100
AcDbLine
 10
297.7184901926
 20
178.6897895012
 30
0.0
 11
297.7184901926
 21
235.2699808541
 31
0.0
  0
LINE
  5
255
330
1F
100
AcDbEntity
  8
0
  6
Continuous
 62
     7
370
    25
100
AcDbLine
 10
257.0441506768
 20
235.2699808541
 30
0.0
 11
257.0441506768
 21
172.495727646
 31
0.0
  0
LINE
  5
256
330
1F
100
AcDbEntity
  8
0
  6
Continuous
 62
     7
370
    25
100
AcDbLine
 10
299.6608519135
 20
178.9855806262
 30
0.0
 11
299.6608519135
 21
235.2699808541
 31
0.0
  0
LINE
  5
257
330
1F
100
AcDbEntity
  8
0
  6
Continuous
 62
     7
370
    25
100
AcDbLine
 10
255.1451716871
 20
235.2699808541
 30
0.0
 11
255.1451716871
 21
172.2065430283
 31
0.0
  0
LINE
  5
258
330
1F
100
AcDbEntity
  8
0
  6
Continuous
 62
     7
370
    25
100
AcDbLine
 10
301.1834604163
 20
179.2174499414
 30
0.0
 11
301.1834604163
 21
235.2699808541
 31
0.0
  0
LINE
  5
259
330
1F
100
AcDbEntity
  8
0
  6
Continuous
 62
     7
370
    25
100
AcDbLine
 10
253.669529924
 20
235.2699808541
 30
0.0
 11
253.669529924
 21
171.9818260086
 31
0.0
  0
LINE
  5
25A
330
1F
100
AcDbEntity
  8
0
  6
Continuous
 62
     7
370
    25
100
AcDbLine
 10
302.2566798584
 20
179.3808843742
 30
0.0
 11
302.2566798584
 21
235.2699808541
 31
0.0
  0
LINE
  5
25B
330
1F
100
AcDbEntity
  8
0
  6
Continuous
 62
     7
370
    25
100
AcDbLine
 10
252.645947076
 20
235.2699808541
 30
0.0
 11
252.645947076
 21
171.8259504479
 31
0.0
  0
LINE
  5
25C
330
1F
100
AcDbEntity
  8
0
  6
Continuous
 62
     7
370
    25
100
AcDbLine
 10
302.8596212442
 20
179.4727028593
 30
0.0
 11
302.8596212442
 21
235.2699808541
 31
0.0
  0
LINE
  5
25D
330
1F
100
AcDbEntity
  8
0
  6
Continuous
 62
     7
370
    25
100
AcDbLine
 10
252.0943460188
 20
235.2699808541
 30
0.0
 11
252.0943460188
 21
171.741950287
 31
0.0
  0
LINE
  5
25E
330
1F
100
AcDbEntity
  8
0
  6
Continuous
 62
     7
370
    25
100
AcDbLine
 10
302.9909005907
 20
179.492694638
 30
0.0
 11
302.9909005907
 21
235.2699808541
 31
0.0
  0
LINE
  5
25F
330
1F
100
AcDbEntity
  8
0
  6
Continuous
 62
     7
370
    25
100
AcDbLine
 10
252.0094548954
 20
235.2699808541
 30
0.0
 11
252.0094548954
 21
171.7290227047
 31
0.0
  0
LINE
  5
260
330
1F
100
AcDbEntity
  8
0
  6
Continuous
 62
     7
370
    25
100
AcDbLine
 10
248.9950800762
 20
170.410736326
 30
0.0
 11
248.9950800762
 21
132.1292253821
 31
0.0
  0
SPLINE
  5
261
330
1F
100
AcDbEntity
  8
0
  6
Continuous
 62
     7
370
    25
100
AcDbSpline
210
0.0
220
0.0
230
1.0
 70
     8
 71
     3
 72
     9
 73
     5
 74
     0
 42
0.00000001
 43
0.00000001
 40
0.0
 40
0.0
 40
0.0
 40
0.0
 40
0.5026273510051568
 40
1.0
 40
1.0
 40
1.0
 40
1.0
 10
249.5204852403641
 20
171.2909407010409
 30
0.0
 10
249.3702573148869
 20
171.1755243320844
 30
0.0
 10
249.0713720171076
 20
170.9458982110114
 30
0.0
 10
249.0427686586341
 20
170.5917813256219
 30
0.0
 10
249.02854213046
 20
170.4156532722819
 30
0.0
  0
SPLINE
  5
262
330
1F
100
AcDbEntity
  8
0
  6
Continuous
 62
     7
370
    25
100
AcDbSpline
210
0.0
220
0.0
230
1.0
 70
     8
 71
     3
 72
    11
 73
     7
 74
     0
 42
0.00000001
 43
0.00000001
 40
0.0
 40
0.0
 40
0.0
 40
0.0
 40
0.2419587761310336
 40
0.499999999999992
 40
0.758041223868965
 40
1.0
 40
1.0
 40
1.0
 40
1.0
 10
248.9950800761959
 20
132.1292253821081
 30
0.0
 10
249.0065601875376
 20
132.0146722754109
 30
0.0
 10
249.0302834670264
 20
131.7779519784064
 30
0.0
 10
249.2212268517895
 20
131.4642962335286
 30
0.0
 10
249.502561475501
 20
131.2283086661001
 30
0.0
 10
249.7330122710611
 20
131.1692178560758
 30
0.0
 10
249.8445314559653
 20
131.1406227759277
 30
0.0
  0
LINE
  5
263
330
1F
100
AcDbEntity
  8
0
  6
Continuous
 62
     7
370
    25
100
AcDbLine
 10
277.5776444539
 20
67.2699808541
 30
0.0
 11
278.1963009708
 21
67.2699808541
 31
0.0
  0
LINE
  5
264
330
1F
100
AcDbEntity
  8
0
  6
Continuous
 62
     7
370
    25
100
AcDbLine
 10
278.5737335134
 20
67.2699808541
 30
0.0
 11
278.1963009708
 21
67.2699808541
 31
0.0
  0
LINE
  5
265
330
1F
100
AcDbEntity
  8
0
  6
Continuous
 62
     7
370
    25
100
AcDbLine
 10
278.5737335134
 20
67.2699808541
 30
0.0
 11
279.1527024325
 21
67.2699808541
 31
0.0
  0
LINE
  5
266
330
1F
100
AcDbEntity
  8
0
  6
Continuous
 62
     7
370
    25
100
AcDbLine
 10
275.0174011275
 20
67.2699808541
 30
0.0
 11
275.6727312098
 21
67.2699808541
 31
0.0
  0
LINE
  5
267
330
1F
100
AcDbEntity
  8
0
  6
Continuous
 62
     7
370
    25
100
AcDbLine
 10
275.0174011275
 20
67.2699808541
 30
0.0
 11
274.6418073983
 21
67.2699808541
 31
0.0
  0
LINE
  5
268
330
1F
100
AcDbEntity
  8
0
  6
Continuous
 62
     7
370
    25
100
AcDbLine
 10
274.1045244762
 20
67.2699808541
 30
0.0
 11
274.6418073983
 21
67.2699808541
 31
0.0
  0
LINE
  5
269
330
1F
100
AcDbEntity
  8
0
  6
Continuous
 62
     7
370
    25
100
AcDbLine
 10
281.0483351308
 20
67.2699808541
 30
0.0
 11
281.7371460763
 21
67.2699808541
 31
0.0
  0
LINE
  5
26A
330
1F
100
AcDbEntity
  8
0
  6
Continuous
 62
     7
370
    25
100
AcDbLine
 10
282.1090711372
 20
67.2699808541
 30
0.0
 11
281.7371460763
 21
67.2699808541
 31
0.0
  0
LINE
  5
26B
330
1F
100
AcDbEntity
  8
0
  6
Continuous
 62
     7
370
    25
100
AcDbLine
 10
282.1090711372
 20
67.2699808541
 30
0.0
 11
282.6048822306
 21
67.2699808541
 31
0.0
  0
LINE
  5
26C
330
1F
100
AcDbEntity
  8
0
  6
Continuous
 62
     7
370
    25
100
AcDbLine
 10
277.4950800762
 20
67.2699808541
 30
0.0
 11
277.4950800762
 21
126.9298793312
 31
0.0
  0
LINE
  5
26D
330
1F
100
AcDbEntity
  8
0
  6
Continuous
 62
     7
370
    25
100
AcDbLine
 10
277.5776444539
 20
67.2699808541
 30
0.0
 11
277.4950800762
 21
67.2699808541
 31
0.0
  0
LINE
  5
26E
330
1F
100
AcDbEntity
  8
0
  6
Continuous
 62
     7
370
    25
100
AcDbLine
 10
279.1692354461
 20
126.674931813
 30
0.0
 11
279.1692354461
 21
67.2699808541
 31
0.0
  0
LINE
  5
26F
330
1F
100
AcDbEntity
  8
0
  6
Continuous
 62
     7
370
    25
100
AcDbLine
 10
279.1692354461
 20
67.2699808541
 30
0.0
 11
279.1527024325
 21
67.2699808541
 31
0.0
  0
LINE
  5
270
330
1F
100
AcDbEntity
  8
0
  6
Continuous
 62
     7
370
    25
100
AcDbLine
 10
275.8209247063
 20
127.1848268495
 30
0.0
 11
275.8209247063
 21
67.2699808541
 31
0.0
  0
LINE
  5
271
330
1F
100
AcDbEntity
  8
0
  6
Continuous
 62
     7
370
    25
100
AcDbLine
 10
275.8209247063
 20
67.2699808541
 30
0.0
 11
275.6727312098
 21
67.2699808541
 31
0.0
  0
LINE
  5
272
330
1F
100
AcDbEntity
  8
0
  6
Continuous
 62
     7
370
    25
100
AcDbLine
 10
271.5092939439
 20
67.2699808541
 30
0.0
 11
272.2282299349
 21
67.2699808541
 31
0.0
  0
LINE
  5
273
330
1F
100
AcDbEntity
  8
0
  6
Continuous
 62
     7
370
    25
100
AcDbLine
 10
271.5092939439
 20
67.2699808541
 30
0.0
 11
271.1428495329
 21
67.2699808541
 31
0.0
  0
LINE
  5
274
330
1F
100
AcDbEntity
  8
0
  6
Continuous
 62
     7
370
    25
100
AcDbLine
 10
270.6880026702
 20
67.2699808541
 30
0.0
 11
271.1428495329
 21
67.2699808541
 31
0.0
  0
LINE
  5
275
330
1F
100
AcDbEntity
  8
0
  6
Continuous
 62
     7
370
    25
100
AcDbLine
 10
280.8352344992
 20
67.2699808541
 30
0.0
 11
280.8352344992
 21
126.4212263734
 31
0.0
  0
LINE
  5
276
330
1F
100
AcDbEntity
  8
0
  6
Continuous
 62
     7
370
    25
100
AcDbLine
 10
281.0483351308
 20
67.2699808541
 30
0.0
 11
280.8352344992
 21
67.2699808541
 31
0.0
  0
LINE
  5
277
330
1F
100
AcDbEntity
  8
0
  6
Continuous
 62
     7
370
    25
100
AcDbLine
 10
272.5051994966
 20
127.6897596225
 30
0.0
 11
272.5051994966
 21
67.2699808541
 31
0.0
  0
LINE
  5
278
330
1F
100
AcDbEntity
  8
0
  6
Continuous
 62
     7
370
    25
100
AcDbLine
 10
272.5051994966
 20
67.2699808541
 30
0.0
 11
272.2282299349
 21
67.2699808541
 31
0.0
  0
LINE
  5
279
330
1F
100
AcDbEntity
  8
0
  6
Continuous
 62
     7
370
    25
100
AcDbLine
 10
284.4498657398
 20
67.2699808541
 30
0.0
 11
285.1954241923
 21
67.2699808541
 31
0.0
  0
LINE
  5
27A
330
1F
100
AcDbEntity
  8
0
  6
Continuous
 62
     7
370
    25
100
AcDbLine
 10
285.5546026732
 20
67.2699808541
 30
0.0
 11
285.1954241923
 21
67.2699808541
 31
0.0
  0
LINE
  5
27B
330
1F
100
AcDbEntity
  8
0
  6
Continuous
 62
     7
370
    25
100
AcDbLine
 10
285.5546026732
 20
67.2699808541
 30
0.0
 11
285.9691924766
 21
67.2699808541
 31
0.0
  0
LINE
  5
27C
330
1F
100
AcDbEntity
  8
0
  6
Continuous
 62
     7
370
    25
100
AcDbLine
 10
275.8209247063
 20
67.2699808541
 30
0.0
 11
277.4950800762
 21
67.2699808541
 31
0.0
  0
LINE
  5
27D
330
1F
100
AcDbEntity
  8
0
  6
Continuous
 62
     7
370
    25
100
AcDbLine
 10
284.1103766158
 20
67.2699808541
 30
0.0
 11
284.1103766158
 21
125.9224737668
 31
0.0
  0
LINE
  5
27E
330
1F
100
AcDbEntity
  8
0
  6
Continuous
 62
     7
370
    25
100
AcDbLine
 10
284.4498657398
 20
67.2699808541
 30
0.0
 11
284.1103766158
 21
67.2699808541
 31
0.0
  0
LINE
  5
27F
330
1F
100
AcDbEntity
  8
0
  6
Continuous
 62
     7
370
    25
100
AcDbLine
 10
279.1692354461
 20
67.2699808541
 30
0.0
 11
280.8352344992
 21
67.2699808541
 31
0.0
  0
LINE
  5
280
330
1F
100
AcDbEntity
  8
0
  6
Continuous
 62
     7
370
    25
100
AcDbLine
 10
272.5051994966
 20
67.2699808541
 30
0.0
 11
274.1549256532
 21
67.2699808541
 31
0.0
  0
LINE
  5
281
330
1F
100
AcDbEntity
  8
0
  6
Continuous
 62
     7
370
    25
100
AcDbLine
 10
268.1176932788
 20
67.2699808541
 30
0.0
 11
268.886241907
 21
67.2699808541
 31
0.0
  0
LINE
  5
282
330
1F
100
AcDbEntity
  8
0
  6
Continuous
 62
     7
370
    25
100
AcDbLine
 10
268.1176932788
 20
67.2699808541
 30
0.0
 11
267.7675306094
 21
67.2699808541
 31
0.0
  0
LINE
  5
283
330
1F
100
AcDbEntity
  8
0
  6
Continuous
 62
     7
370
    25
100
AcDbLine
 10
267.3922945655
 20
67.2699808541
 30
0.0
 11
267.7675306094
 21
67.2699808541
 31
0.0
  0
LINE
  5
284
330
1F
100
AcDbEntity
  8
0
  6
Continuous
 62
     7
370
    25
100
AcDbLine
 10
282.6004099215
 20
67.2699808541
 30
0.0
 11
284.1103766158
 21
67.2699808541
 31
0.0
  0
LINE
  5
285
330
1F
100
AcDbEntity
  8
0
  6
Continuous
 62
     7
370
    25
100
AcDbLine
 10
269.2865966364
 20
128.1799021901
 30
0.0
 11
269.2865966364
 21
67.2699808541
 31
0.0
  0
LINE
  5
286
330
1F
100
AcDbEntity
  8
0
  6
Continuous
 62
     7
370
    25
100
AcDbLine
 10
269.2865966364
 20
67.2699808541
 30
0.0
 11
268.886241907
 21
67.2699808541
 31
0.0
  0
LINE
  5
287
330
1F
100
AcDbEntity
  8
0
  6
Continuous
 62
     7
370
    25
100
AcDbLine
 10
269.2865966364
 20
67.2699808541
 30
0.0
 11
270.6990263602
 21
67.2699808541
 31
0.0
  0
LINE
  5
288
330
1F
100
AcDbEntity
  8
0
  6
Continuous
 62
     7
370
    25
100
AcDbLine
 10
287.7160293568
 20
67.2699808541
 30
0.0
 11
288.5038238691
 21
67.2699808541
 31
0.0
  0
LINE
  5
289
330
1F
100
AcDbEntity
  8
0
  6
Continuous
 62
     7
370
    25
100
AcDbLine
 10
288.8432647695
 20
67.2699808541
 30
0.0
 11
288.5038238691
 21
67.2699808541
 31
0.0
  0
LINE
  5
28A
330
1F
100
AcDbEntity
  8
0
  6
Continuous
 62
     7
370
    25
100
AcDbLine
 10
288.8432647695
 20
67.2699808541
 30
0.0
 11
289.1802420814
 21
67.2699808541
 31
0.0
  0
LINE
  5
28B
330
1F
100
AcDbEntity
  8
0
  6
Continuous
 62
     7
370
    25
100
AcDbLine
 10
287.25675951
 20
67.2699808541
 30
0.0
 11
287.25675951
 21
125.4433291636
 31
0.0
  0
LINE
  5
28C
330
1F
100
AcDbEntity
  8
0
  6
Continuous
 62
     7
370
    25
100
AcDbLine
 10
287.7160293568
 20
67.2699808541
 30
0.0
 11
287.25675951
 21
67.2699808541
 31
0.0
  0
LINE
  5
28D
330
1F
100
AcDbEntity
  8
0
  6
Continuous
 62
     7
370
    25
100
AcDbLine
 10
285.9487479724
 20
67.2699808541
 30
0.0
 11
287.25675951
 21
67.2699808541
 31
0.0
  0
LINE
  5
28E
330
1F
100
AcDbEntity
  8
0
  6
Continuous
 62
     7
370
    25
100
AcDbLine
 10
264.908612781
 20
67.2699808541
 30
0.0
 11
265.7118151217
 21
67.2699808541
 31
0.0
  0
LINE
  5
28F
330
1F
100
AcDbEntity
  8
0
  6
Continuous
 62
     7
370
    25
100
AcDbLine
 10
264.908612781
 20
67.2699808541
 30
0.0
 11
264.5815473714
 21
67.2699808541
 31
0.0
  0
LINE
  5
290
330
1F
100
AcDbEntity
  8
0
  6
Continuous
 62
     7
370
    25
100
AcDbLine
 10
264.2815473714
 20
67.2699808541
 30
0.0
 11
264.5815473714
 21
67.2699808541
 31
0.0
  0
LINE
  5
291
330
1F
100
AcDbEntity
  8
0
  6
Continuous
 62
     7
370
    25
100
AcDbLine
 10
266.2277625693
 20
128.6457144846
 30
0.0
 11
266.2277625693
 21
67.2699808541
 31
0.0
  0
LINE
  5
292
330
1F
100
AcDbEntity
  8
0
  6
Continuous
 62
     7
370
    25
100
AcDbLine
 10
266.2277625693
 20
67.2699808541
 30
0.0
 11
265.7118151217
 21
67.2699808541
 31
0.0
  0
LINE
  5
293
330
1F
100
AcDbEntity
  8
0
  6
Continuous
 62
     7
370
    25
100
AcDbLine
 10
266.2277625693
 20
67.2699808541
 30
0.0
 11
267.4249834201
 21
67.2699808541
 31
0.0
  0
LINE
  5
294
330
1F
100
AcDbEntity
  8
0
  6
Continuous
 62
     7
370
    25
100
AcDbLine
 10
290.7832538222
 20
67.2699808541
 30
0.0
 11
291.5979508703
 21
67.2699808541
 31
0.0
  0
LINE
  5
295
330
1F
100
AcDbEntity
  8
0
  6
Continuous
 62
     7
370
    25
100
AcDbLine
 10
291.9110473591
 20
67.2699808541
 30
0.0
 11
291.5979508703
 21
67.2699808541
 31
0.0
  0
LINE
  5
296
330
1F
100
AcDbEntity
  8
0
  6
Continuous
 62
     7
370
    25
100
AcDbLine
 10
290.2131424178
 20
67.2699808541
 30
0.0
 11
290.2131424178
 21
124.9931185685
 31
0.0
  0
LINE
  5
297
330
1F
100
AcDbEntity
  8
0
  6
Continuous
 62
     7
370
    25
100
AcDbLine
 10
289.1802420814
 20
67.2699808541
 30
0.0
 11
290.2131424178
 21
67.2699808541
 31
0.0
  0
LINE
  5
298
330
1F
100
AcDbEntity
  8
0
  6
Continuous
 62
     7
370
    25
100
AcDbLine
 10
290.7832538222
 20
67.2699808541
 30
0.0
 11
290.2131424178
 21
67.2699808541
 31
0.0
  0
LINE
  5
299
330
1F
100
AcDbEntity
  8
0
  6
Continuous
 62
     7
370
    25
100
AcDbLine
 10
291.9110473591
 20
67.2699808541
 30
0.0
 11
292.175531617
 21
67.2699808541
 31
0.0
  0
LINE
  5
29A
330
1F
100
AcDbEntity
  8
0
  6
Continuous
 62
     7
370
    25
100
AcDbLine
 10
263.3882340212
 20
129.0781299995
 30
0.0
 11
263.3882340212
 21
67.2699808541
 31
0.0
  0
LINE
  5
29B
330
1F
100
AcDbEntity
  8
0
  6
Continuous
 62
     7
370
    25
100
AcDbLine
 10
263.3882340212
 20
67.2699808541
 30
0.0
 11
264.2815473714
 21
67.2699808541
 31
0.0
  0
LINE
  5
29C
330
1F
100
AcDbEntity
  8
0
  6
Continuous
 62
     7
370
    25
100
AcDbLine
 10
261.9445135522
 20
67.2699808541
 30
0.0
 11
262.7667361855
 21
67.2699808541
 31
0.0
  0
LINE
  5
29D
330
1F
100
AcDbEntity
  8
0
  6
Continuous
 62
     7
370
    25
100
AcDbLine
 10
261.9445135522
 20
67.2699808541
 30
0.0
 11
261.6469113586
 21
67.2699808541
 31
0.0
  0
LINE
  5
29E
330
1F
100
AcDbEntity
  8
0
  6
Continuous
 62
     7
370
    25
100
AcDbLine
 10
263.3882340212
 20
67.2699808541
 30
0.0
 11
262.7667361855
 21
67.2699808541
 31
0.0
  0
LINE
  5
29F
330
1F
100
AcDbEntity
  8
0
  6
Continuous
 62
     7
370
    25
100
AcDbLine
 10
261.4163082438
 20
67.2699808541
 30
0.0
 11
261.6469113586
 21
67.2699808541
 31
0.0
  0
LINE
  5
2A0
330
1F
100
AcDbEntity
  8
0
  6
Continuous
 62
     7
370
    25
100
AcDbLine
 10
292.9219827087
 20
67.2699808541
 30
0.0
 11
292.9219827087
 21
124.5806048187
 31
0.0
  0
LINE
  5
2A1
330
1F
100
AcDbEntity
  8
0
  6
Continuous
 62
     7
370
    25
100
AcDbLine
 10
292.175531617
 20
67.2699808541
 30
0.0
 11
292.9219827087
 21
67.2699808541
 31
0.0
  0
LINE
  5
2A2
330
1F
100
AcDbEntity
  8
0
  6
Continuous
 62
     7
370
    25
100
AcDbLine
 10
293.5918391007
 20
67.2699808541
 30
0.0
 11
294.4175815332
 21
67.2699808541
 31
0.0
  0
LINE
  5
2A3
330
1F
100
AcDbEntity
  8
0
  6
Continuous
 62
     7
370
    25
100
AcDbLine
 10
294.6982395435
 20
67.2699808541
 30
0.0
 11
294.4175815332
 21
67.2699808541
 31
0.0
  0
LINE
  5
2A4
330
1F
100
AcDbEntity
  8
0
  6
Continuous
 62
     7
370
    25
100
AcDbLine
 10
293.5918391007
 20
67.2699808541
 30
0.0
 11
292.9219827087
 21
67.2699808541
 31
0.0
  0
LINE
  5
2A5
330
1F
100
AcDbEntity
  8
0
  6
Continuous
 62
     7
370
    25
100
AcDbLine
 10
294.6982395435
 20
67.2699808541
 30
0.0
 11
294.8967611797
 21
67.2699808541
 31
0.0
  0
LINE
  5
2A6
330
1F
100
AcDbEntity
  8
0
  6
Continuous
 62
     7
370
    25
100
AcDbLine
 10
260.8232791852
 20
129.4687322588
 30
0.0
 11
260.8232791852
 21
67.2699808541
 31
0.0
  0
LINE
  5
2A7
330
1F
100
AcDbEntity
  8
0
  6
Continuous
 62
     7
370
    25
100
AcDbLine
 10
260.8232791852
 20
67.2699808541
 30
0.0
 11
261.4163082438
 21
67.2699808541
 31
0.0
  0
LINE
  5
2A8
330
1F
100
AcDbEntity
  8
0
  6
Continuous
 62
     7
370
    25
100
AcDbLine
 10
259.2830884123
 20
67.2699808541
 30
0.0
 11
260.1083277099
 21
67.2699808541
 31
0.0
  0
LINE
  5
2A9
330
1F
100
AcDbEntity
  8
0
  6
Continuous
 62
     7
370
    25
100
AcDbLine
 10
260.8232791852
 20
67.2699808541
 30
0.0
 11
260.1083277099
 21
67.2699808541
 31
0.0
  0
LINE
  5
2AA
330
1F
100
AcDbEntity
  8
0
  6
Continuous
 62
     7
370
    25
100
AcDbLine
 10
259.2830884123
 20
67.2699808541
 30
0.0
 11
259.0207419229
 21
67.2699808541
 31
0.0
  0
LINE
  5
2AB
330
1F
100
AcDbEntity
  8
0
  6
Continuous
 62
     7
370
    25
100
AcDbLine
 10
258.8523458031
 20
67.2699808541
 30
0.0
 11
259.0207419229
 21
67.2699808541
 31
0.0
  0
LINE
  5
2AC
330
1F
100
AcDbEntity
  8
0
  6
Continuous
 62
     7
370
    25
100
AcDbLine
 10
295.3305558877
 20
67.2699808541
 30
0.0
 11
295.3305558877
 21
124.2138170249
 31
0.0
  0
LINE
  5
2AD
330
1F
100
AcDbEntity
  8
0
  6
Continuous
 62
     7
370
    25
100
AcDbLine
 10
294.8967611797
 20
67.2699808541
 30
0.0
 11
295.3305558877
 21
67.2699808541
 31
0.0
  0
LINE
  5
2AE
330
1F
100
AcDbEntity
  8
0
  6
Continuous
 62
     7
370
    25
100
AcDbLine
 10
296.0871192746
 20
67.2699808541
 30
0.0
 11
296.9078349543
 21
67.2699808541
 31
0.0
  0
LINE
  5
2AF
330
1F
100
AcDbEntity
  8
0
  6
Continuous
 62
     7
370
    25
100
AcDbLine
 10
296.0871192746
 20
67.2699808541
 30
0.0
 11
295.3305558877
 21
67.2699808541
 31
0.0
  0
LINE
  5
2B0
330
1F
100
AcDbEntity
  8
0
  6
Continuous
 62
     7
370
    25
100
AcDbLine
 10
297.1505917971
 20
67.2699808541
 30
0.0
 11
296.9078349543
 21
67.2699808541
 31
0.0
  0
LINE
  5
2B1
330
1F
100
AcDbEntity
  8
0
  6
Continuous
 62
     7
370
    25
100
AcDbLine
 10
297.1505917971
 20
67.2699808541
 30
0.0
 11
297.2909651313
 21
67.2699808541
 31
0.0
  0
LINE
  5
2B2
330
1F
100
AcDbEntity
  8
0
  6
Continuous
 62
     7
370
    25
100
AcDbLine
 10
258.5828219896
 20
129.8099186337
 30
0.0
 11
258.5828219896
 21
67.2699808541
 31
0.0
  0
LINE
  5
2B3
330
1F
100
AcDbEntity
  8
0
  6
Continuous
 62
     7
370
    25
100
AcDbLine
 10
258.5828219896
 20
67.2699808541
 30
0.0
 11
258.8523458031
 21
67.2699808541
 31
0.0
  0
LINE
  5
2B4
330
1F
100
AcDbEntity
  8
0
  6
Continuous
 62
     7
370
    25
100
AcDbLine
 10
256.9761389743
 20
67.2699808541
 30
0.0
 11
257.7883325919
 21
67.2699808541
 31
0.0
  0
LINE
  5
2B5
330
1F
100
AcDbEntity
  8
0
  6
Continuous
 62
     7
370
    25
100
AcDbLine
 10
258.5828219896
 20
67.2699808541
 30
0.0
 11
257.7883325919
 21
67.2699808541
 31
0.0
  0
LINE
  5
2B6
330
1F
100
AcDbEntity
  8
0
  6
Continuous
 62
     7
370
    25
100
AcDbLine
 10
256.9761389743
 20
67.2699808541
 30
0.0
 11
256.754154465
 21
67.2699808541
 31
0.0
  0
LINE
  5
2B7
330
1F
100
AcDbEntity
  8
0
  6
Continuous
 62
     7
370
    25
100
AcDbLine
 10
256.6395646616
 20
67.2699808541
 30
0.0
 11
256.754154465
 21
67.2699808541
 31
0.0
  0
LINE
  5
2B8
330
1F
100
AcDbEntity
  8
0
  6
Continuous
 62
     7
370
    25
100
AcDbLine
 10
297.3919818175
 20
67.2699808541
 30
0.0
 11
297.3919818175
 21
123.8998942945
 31
0.0
  0
LINE
  5
2B9
330
1F
100
AcDbEntity
  8
0
  6
Continuous
 62
     7
370
    25
100
AcDbLine
 10
297.2909651313
 20
67.2699808541
 30
0.0
 11
297.3919818175
 21
67.2699808541
 31
0.0
  0
LINE
  5
2BA
330
1F
100
AcDbEntity
  8
0
  6
Continuous
 62
     7
370
    25
100
AcDbLine
 10
298.2205265536
 20
67.2699808541
 30
0.0
 11
299.0202411834
 21
67.2699808541
 31
0.0
  0
LINE
  5
2BB
330
1F
100
AcDbEntity
  8
0
  6
Continuous
 62
     7
370
    25
100
AcDbLine
 10
298.2205265536
 20
67.2699808541
 30
0.0
 11
297.3919818175
 21
67.2699808541
 31
0.0
  0
LINE
  5
2BC
330
1F
100
AcDbEntity
  8
0
  6
Continuous
 62
     7
370
    25
100
AcDbLine
 10
299.2203718729
 20
67.2699808541
 30
0.0
 11
299.0202411834
 21
67.2699808541
 31
0.0
  0
LINE
  5
2BD
330
1F
100
AcDbEntity
  8
0
  6
Continuous
 62
     7
370
    25
100
AcDbLine
 10
299.2203718729
 20
67.2699808541
 30
0.0
 11
299.3115430152
 21
67.2699808541
 31
0.0
  0
LINE
  5
2BE
330
1F
100
AcDbEntity
  8
0
  6
Continuous
 62
     7
370
    25
100
AcDbLine
 10
255.0685673849
 20
67.2699808541
 30
0.0
 11
255.8519068976
 21
67.2699808541
 31
0.0
  0
LINE
  5
2BF
330
1F
100
AcDbEntity
  8
0
  6
Continuous
 62
     7
370
    25
100
AcDbLine
 10
256.6395646616
 20
67.2699808541
 30
0.0
 11
255.8519068976
 21
67.2699808541
 31
0.0
  0
LINE
  5
2C0
330
1F
100
AcDbEntity
  8
0
  6
Continuous
 62
     7
370
    25
100
AcDbLine
 10
255.0685673849
 20
67.2699808541
 30
0.0
 11
254.8912655317
 21
67.2699808541
 31
0.0
  0
LINE
  5
2C1
330
1F
100
AcDbEntity
  8
0
  6
Continuous
 62
     7
370
    25
100
AcDbLine
 10
254.8210340874
 20
67.2699808541
 30
0.0
 11
254.8912655317
 21
67.2699808541
 31
0.0
  0
LINE
  5
2C2
330
1F
100
AcDbEntity
  8
0
  6
Continuous
 62
     7
370
    25
100
AcDbLine
 10
299.9505365918
 20
67.2699808541
 30
0.0
 11
300.7136846361
 21
67.2699808541
 31
0.0
  0
LINE
  5
2C3
330
1F
100
AcDbEntity
  8
0
  6
Continuous
 62
     7
370
    25
100
AcDbLine
 10
299.9505365918
 20
67.2699808541
 30
0.0
 11
299.3115430152
 21
67.2699808541
 31
0.0
  0
LINE
  5
2C4
330
1F
100
AcDbEntity
  8
0
  6
Continuous
 62
     7
370
    25
100
AcDbLine
 10
300.8672938561
 20
67.2699808541
 30
0.0
 11
300.7136846361
 21
67.2699808541
 31
0.0
  0
LINE
  5
2C5
330
1F
100
AcDbEntity
  8
0
  6
Continuous
 62
     7
370
    25
100
AcDbLine
 10
300.8672938561
 20
67.2699808541
 30
0.0
 11
300.9191665815
 21
67.2699808541
 31
0.0
  0
LINE
  5
2C6
330
1F
100
AcDbEntity
  8
0
  6
Continuous
 62
     7
370
    25
100
AcDbLine
 10
253.5975023552
 20
67.2699808541
 30
0.0
 11
254.3367409505
 21
67.2699808541
 31
0.0
  0
LINE
  5
2C7
330
1F
100
AcDbEntity
  8
0
  6
Continuous
 62
     7
370
    25
100
AcDbLine
 10
254.8210340874
 20
67.2699808541
 30
0.0
 11
254.3367409505
 21
67.2699808541
 31
0.0
  0
LINE
  5
2C8
330
1F
100
AcDbEntity
  8
0
  6
Continuous
 62
     7
370
    25
100
AcDbLine
 10
253.5975023552
 20
67.2699808541
 30
0.0
 11
253.4683341371
 21
67.2699808541
 31
0.0
  0
LINE
  5
2C9
330
1F
100
AcDbEntity
  8
0
  6
Continuous
 62
     7
370
    25
100
AcDbLine
 10
253.4321497096
 20
67.2699808541
 30
0.0
 11
253.4683341371
 21
67.2699808541
 31
0.0
  0
LINE
  5
2CA
330
1F
100
AcDbEntity
  8
0
  6
Continuous
 62
     7
370
    25
100
AcDbLine
 10
301.2434767116
 20
67.2699808541
 30
0.0
 11
301.9552043618
 21
67.2699808541
 31
0.0
  0
LINE
  5
2CB
330
1F
100
AcDbEntity
  8
0
  6
Continuous
 62
     7
370
    25
100
AcDbLine
 10
301.2434767116
 20
67.2699808541
 30
0.0
 11
300.9191665815
 21
67.2699808541
 31
0.0
  0
LINE
  5
2CC
330
1F
100
AcDbEntity
  8
0
  6
Continuous
 62
     7
370
    25
100
AcDbLine
 10
302.0593022835
 20
67.2699808541
 30
0.0
 11
301.9552043618
 21
67.2699808541
 31
0.0
  0
LINE
  5
2CD
330
1F
100
AcDbEntity
  8
0
  6
Continuous
 62
     7
370
    25
100
AcDbLine
 10
302.0593022835
 20
67.2699808541
 30
0.0
 11
302.0825452659
 21
67.2699808541
 31
0.0
  0
LINE
  5
2CE
330
1F
100
AcDbEntity
  8
0
  6
Continuous
 62
     7
370
    25
100
AcDbLine
 10
252.5915764928
 20
67.2699808541
 30
0.0
 11
253.2723257323
 21
67.2699808541
 31
0.0
  0
LINE
  5
2CF
330
1F
100
AcDbEntity
  8
0
  6
Continuous
 62
     7
370
    25
100
AcDbLine
 10
253.4321497096
 20
67.2699808541
 30
0.0
 11
253.2723257323
 21
67.2699808541
 31
0.0
  0
LINE
  5
2D0
330
1F
100
AcDbEntity
  8
0
  6
Continuous
 62
     7
370
    25
100
AcDbLine
 10
252.5915764928
 20
67.2699808541
 30
0.0
 11
252.5130560222
 21
67.2699808541
 31
0.0
  0
LINE
  5
2D1
330
1F
100
AcDbEntity
  8
0
  6
Continuous
 62
     7
370
    25
100
AcDbLine
 10
252.4999445826
 20
67.2699808541
 30
0.0
 11
252.5130560222
 21
67.2699808541
 31
0.0
  0
LINE
  5
2D2
330
1F
100
AcDbEntity
  8
0
  6
Continuous
 62
     7
370
    25
100
AcDbLine
 10
302.0741813043
 20
67.2699808541
 30
0.0
 11
302.7206355912
 21
67.2699808541
 31
0.0
  0
LINE
  5
2D3
330
1F
100
AcDbEntity
  8
0
  6
Continuous
 62
     7
370
    25
100
AcDbLine
 10
302.773196067
 20
67.2699808541
 30
0.0
 11
302.7206355912
 21
67.2699808541
 31
0.0
  0
LINE
  5
2D4
330
1F
100
AcDbEntity
  8
0
  6
Continuous
 62
     7
370
    25
100
AcDbLine
 10
302.773196067
 20
67.2699808541
 30
0.0
 11
302.7790352258
 21
67.2699808541
 31
0.0
  0
LINE
  5
2D5
330
1F
100
AcDbEntity
  8
0
  6
Continuous
 62
     7
370
    25
100
AcDbLine
 10
252.0703690003
 20
67.2699808541
 30
0.0
 11
252.4999445826
 21
67.2699808541
 31
0.0
  0
LINE
  5
2D6
330
1F
100
AcDbEntity
  8
0
  6
Continuous
 62
     7
370
    25
100
AcDbLine
 10
252.0703690003
 20
67.2699808541
 30
0.0
 11
252.0440245888
 21
67.2699808541
 31
0.0
  0
LINE
  5
2D7
330
1F
100
AcDbEntity
  8
0
  6
Continuous
 62
     7
370
    25
100
AcDbLine
 10
252.042563019
 20
67.2699808541
 30
0.0
 11
252.0440245888
 21
67.2699808541
 31
0.0
  0
LINE
  5
2D8
330
1F
100
AcDbEntity
  8
0
  6
Continuous
 62
     7
370
    25
100
AcDbLine
 10
302.9950800762
 20
67.2699808541
 30
0.0
 11
302.9950800762
 21
123.0466306003
 31
0.0
  0
LINE
  5
2D9
330
1F
100
AcDbEntity
  8
0
  6
Continuous
 62
     7
370
    25
100
AcDbLine
 10
302.7790352258
 20
67.2699808541
 30
0.0
 11
302.9950800762
 21
67.2699808541
 31
0.0
  0
LINE
  5
2DA
330
1F
100
AcDbEntity
  8
0
  6
Continuous
 62
     7
370
    25
100
AcDbLine
 10
278.8947374602
 20
235.2699808541
 30
0.0
 11
279.271666931
 21
235.2699808541
 31
0.0
  0
LINE
  5
2DB
330
1F
100
AcDbEntity
  8
0
  6
Continuous
 62
     7
370
    25
100
AcDbLine
 10
275.3374545945
 20
235.2699808541
 30
0.0
 11
275.7139892432
 21
235.2699808541
 31
0.0
  0
LINE
  5
2DC
330
1F
100
AcDbEntity
  8
0
  6
Continuous
 62
     7
370
    25
100
AcDbLine
 10
278.8947374602
 20
235.2699808541
 30
0.0
 11
278.2613109756
 21
235.2699808541
 31
0.0
  0
LINE
  5
2DD
330
1F
100
AcDbEntity
  8
0
  6
Continuous
 62
     7
370
    25
100
AcDbLine
 10
276.3552901183
 20
235.2699808541
 30
0.0
 11
275.7139892432
 21
235.2699808541
 31
0.0
  0
LINE
  5
2DE
330
1F
100
AcDbEntity
  8
0
  6
Continuous
 62
     7
370
    25
100
AcDbLine
 10
279.8342695929
 20
175.9663041307
 30
0.0
 11
279.8342695929
 21
235.2699808541
 31
0.0
  0
LINE
  5
2DF
330
1F
100
AcDbEntity
  8
0
  6
Continuous
 62
     7
370
    25
100
AcDbLine
 10
279.8342695929
 20
235.2699808541
 30
0.0
 11
279.271666931
 21
235.2699808541
 31
0.0
  0
LINE
  5
2E0
330
1F
100
AcDbEntity
  8
0
  6
Continuous
 62
     7
370
    25
100
AcDbLine
 10
275.3374545945
 20
235.2699808541
 30
0.0
 11
274.7837924335
 21
235.2699808541
 31
0.0
  0
LINE
  5
2E1
330
1F
100
AcDbEntity
  8
0
  6
Continuous
 62
     7
370
    25
100
AcDbLine
 10
282.424777587
 20
235.2699808541
 30
0.0
 11
281.7237290113
 21
235.2699808541
 31
0.0
  0
LINE
  5
2E2
330
1F
100
AcDbEntity
  8
0
  6
Continuous
 62
     7
370
    25
100
AcDbLine
 10
282.424777587
 20
235.2699808541
 30
0.0
 11
282.7947653765
 21
235.2699808541
 31
0.0
  0
LINE
  5
2E3
330
1F
100
AcDbEntity
  8
0
  6
Continuous
 62
     7
370
    25
100
AcDbLine
 10
272.8984953586
 20
235.2699808541
 30
0.0
 11
272.1909784624
 21
235.2699808541
 31
0.0
  0
LINE
  5
2E4
330
1F
100
AcDbEntity
  8
0
  6
Continuous
 62
     7
370
    25
100
AcDbLine
 10
271.8221674545
 20
235.2699808541
 30
0.0
 11
272.1909784624
 21
235.2699808541
 31
0.0
  0
LINE
  5
2E5
330
1F
100
AcDbEntity
  8
0
  6
Continuous
 62
     7
370
    25
100
AcDbLine
 10
283.2744196964
 20
235.2699808541
 30
0.0
 11
282.7947653765
 21
235.2699808541
 31
0.0
  0
LINE
  5
2E6
330
1F
100
AcDbEntity
  8
0
  6
Continuous
 62
     7
370
    25
100
AcDbLine
 10
271.8221674545
 20
235.2699808541
 30
0.0
 11
271.3513087985
 21
235.2699808541
 31
0.0
  0
LINE
  5
2E7
330
1F
100
AcDbEntity
  8
0
  6
Continuous
 62
     7
370
    25
100
AcDbLine
 10
278.1529107527
 20
175.7102596373
 30
0.0
 11
278.1529107527
 21
235.2699808541
 31
0.0
  0
LINE
  5
2E8
330
1F
100
AcDbEntity
  8
0
  6
Continuous
 62
     7
370
    25
100
AcDbLine
 10
278.1529107527
 20
235.2699808541
 30
0.0
 11
278.2613109756
 21
235.2699808541
 31
0.0
  0
LINE
  5
2E9
330
1F
100
AcDbEntity
  8
0
  6
Continuous
 62
     7
370
    25
100
AcDbLine
 10
276.4777819439
 20
235.2699808541
 30
0.0
 11
276.4777819439
 21
175.4551638796
 31
0.0
  0
LINE
  5
2EA
330
1F
100
AcDbEntity
  8
0
  6
Continuous
 62
     7
370
    25
100
AcDbLine
 10
276.3552901183
 20
235.2699808541
 30
0.0
 11
276.4777819439
 21
235.2699808541
 31
0.0
  0
LINE
  5
2EB
330
1F
100
AcDbEntity
  8
0
  6
Continuous
 62
     7
370
    25
100
AcDbLine
 10
278.1529107527
 20
235.2699808541
 30
0.0
 11
276.4777819439
 21
235.2699808541
 31
0.0
  0
LINE
  5
2EC
330
1F
100
AcDbEntity
  8
0
  6
Continuous
 62
     7
370
    25
100
AcDbLine
 10
281.4854082701
 20
176.2177465689
 30
0.0
 11
281.4854082701
 21
235.2699808541
 31
0.0
  0
LINE
  5
2ED
330
1F
100
AcDbEntity
  8
0
  6
Continuous
 62
     7
370
    25
100
AcDbLine
 10
281.4854082701
 20
235.2699808541
 30
0.0
 11
279.8248346765
 21
235.2699808541
 31
0.0
  0
LINE
  5
2EE
330
1F
100
AcDbEntity
  8
0
  6
Continuous
 62
     7
370
    25
100
AcDbLine
 10
281.4854082701
 20
235.2699808541
 30
0.0
 11
281.7237290113
 21
235.2699808541
 31
0.0
  0
LINE
  5
2EF
330
1F
100
AcDbEntity
  8
0
  6
Continuous
 62
     7
370
    25
100
AcDbLine
 10
273.1505297624
 20
235.2699808541
 30
0.0
 11
273.1505297624
 21
174.9484757301
 31
0.0
  0
LINE
  5
2F0
330
1F
100
AcDbEntity
  8
0
  6
Continuous
 62
     7
370
    25
100
AcDbLine
 10
274.8076093094
 20
235.2699808541
 30
0.0
 11
273.1505297624
 21
235.2699808541
 31
0.0
  0
LINE
  5
2F1
330
1F
100
AcDbEntity
  8
0
  6
Continuous
 62
     7
370
    25
100
AcDbLine
 10
272.8984953586
 20
235.2699808541
 30
0.0
 11
273.1505297624
 21
235.2699808541
 31
0.0
  0
LINE
  5
2F2
330
1F
100
AcDbEntity
  8
0
  6
Continuous
 62
     7
370
    25
100
AcDbLine
 10
285.8588667592
 20
235.2699808541
 30
0.0
 11
285.1038412054
 21
235.2699808541
 31
0.0
  0
LINE
  5
2F3
330
1F
100
AcDbEntity
  8
0
  6
Continuous
 62
     7
370
    25
100
AcDbLine
 10
269.531167892
 20
235.2699808541
 30
0.0
 11
268.7712059863
 21
235.2699808541
 31
0.0
  0
LINE
  5
2F4
330
1F
100
AcDbEntity
  8
0
  6
Continuous
 62
     7
370
    25
100
AcDbLine
 10
285.8588667592
 20
235.2699808541
 30
0.0
 11
286.214711476
 21
235.2699808541
 31
0.0
  0
LINE
  5
2F5
330
1F
100
AcDbEntity
  8
0
  6
Continuous
 62
     7
370
    25
100
AcDbLine
 10
268.4172971059
 20
235.2699808541
 30
0.0
 11
268.7712059863
 21
235.2699808541
 31
0.0
  0
LINE
  5
2F6
330
1F
100
AcDbEntity
  8
0
  6
Continuous
 62
     7
370
    25
100
AcDbLine
 10
286.6137300868
 20
235.2699808541
 30
0.0
 11
286.214711476
 21
235.2699808541
 31
0.0
  0
LINE
  5
2F7
330
1F
100
AcDbEntity
  8
0
  6
Continuous
 62
     7
370
    25
100
AcDbLine
 10
284.7402385881
 20
176.7134060082
 30
0.0
 11
284.7402385881
 21
235.2699808541
 31
0.0
  0
LINE
  5
2F8
330
1F
100
AcDbEntity
  8
0
  6
Continuous
 62
     7
370
    25
100
AcDbLine
 10
284.7402385881
 20
235.2699808541
 30
0.0
 11
283.2744196964
 21
235.2699808541
 31
0.0
  0
LINE
  5
2F9
330
1F
100
AcDbEntity
  8
0
  6
Continuous
 62
     7
370
    25
100
AcDbLine
 10
268.4172971059
 20
235.2699808541
 30
0.0
 11
268.0267283654
 21
235.2699808541
 31
0.0
  0
LINE
  5
2FA
330
1F
100
AcDbEntity
  8
0
  6
Continuous
 62
     7
370
    25
100
AcDbLine
 10
269.9078393108
 20
235.2699808541
 30
0.0
 11
269.9078393108
 21
174.4546650015
 31
0.0
  0
LINE
  5
2FB
330
1F
100
AcDbEntity
  8
0
  6
Continuous
 62
     7
370
    25
100
AcDbLine
 10
271.3513087985
 20
235.2699808541
 30
0.0
 11
269.9078393108
 21
235.2699808541
 31
0.0
  0
LINE
  5
2FC
330
1F
100
AcDbEntity
  8
0
  6
Continuous
 62
     7
370
    25
100
AcDbLine
 10
284.7402385881
 20
235.2699808541
 30
0.0
 11
285.1038412054
 21
235.2699808541
 31
0.0
  0
LINE
  5
2FD
330
1F
100
AcDbEntity
  8
0
  6
Continuous
 62
     7
370
    25
100
AcDbLine
 10
269.531167892
 20
235.2699808541
 30
0.0
 11
269.9078393108
 21
235.2699808541
 31
0.0
  0
LINE
  5
2FE
330
1F
100
AcDbEntity
  8
0
  6
Continuous
 62
     7
370
    25
100
AcDbLine
 10
289.1301643373
 20
235.2699808541
 30
0.0
 11
288.3358575189
 21
235.2699808541
 31
0.0
  0
LINE
  5
2FF
330
1F
100
AcDbEntity
  8
0
  6
Continuous
 62
     7
370
    25
100
AcDbLine
 10
266.3188489172
 20
235.2699808541
 30
0.0
 11
265.5212337961
 21
235.2699808541
 31
0.0
  0
LINE
  5
300
330
1F
100
AcDbEntity
  8
0
  6
Continuous
 62
     7
370
    25
100
AcDbLine
 10
289.1301643373
 20
235.2699808541
 30
0.0
 11
289.4649398687
 21
235.2699808541
 31
0.0
  0
LINE
  5
301
330
1F
100
AcDbEntity
  8
0
  6
Continuous
 62
     7
370
    25
100
AcDbLine
 10
287.854050137
 20
177.187590508
 30
0.0
 11
287.854050137
 21
235.2699808541
 31
0.0
  0
LINE
  5
302
330
1F
100
AcDbEntity
  8
0
  6
Continuous
 62
     7
370
    25
100
AcDbLine
 10
287.854050137
 20
235.2699808541
 30
0.0
 11
286.6137300868
 21
235.2699808541
 31
0.0
  0
LINE
  5
303
330
1F
100
AcDbEntity
  8
0
  6
Continuous
 62
     7
370
    25
100
AcDbLine
 10
266.8128258704
 20
235.2699808541
 30
0.0
 11
266.8128258704
 21
173.9833431577
 31
0.0
  0
LINE
  5
304
330
1F
100
AcDbEntity
  8
0
  6
Continuous
 62
     7
370
    25
100
AcDbLine
 10
268.0267283654
 20
235.2699808541
 30
0.0
 11
266.8128258704
 21
235.2699808541
 31
0.0
  0
LINE
  5
305
330
1F
100
AcDbEntity
  8
0
  6
Continuous
 62
     7
370
    25
100
AcDbLine
 10
265.189115477
 20
235.2699808541
 30
0.0
 11
265.5212337961
 21
235.2699808541
 31
0.0
  0
LINE
  5
306
330
1F
100
AcDbEntity
  8
0
  6
Continuous
 62
     7
370
    25
100
AcDbLine
 10
289.7872346445
 20
235.2699808541
 30
0.0
 11
289.4649398687
 21
235.2699808541
 31
0.0
  0
LINE
  5
307
330
1F
100
AcDbEntity
  8
0
  6
Continuous
 62
     7
370
    25
100
AcDbLine
 10
287.854050137
 20
235.2699808541
 30
0.0
 11
288.3358575189
 21
235.2699808541
 31
0.0
  0
LINE
  5
308
330
1F
100
AcDbEntity
  8
0
  6
Continuous
 62
     7
370
    25
100
AcDbLine
 10
265.189115477
 20
235.2699808541
 30
0.0
 11
264.8747603108
 21
235.2699808541
 31
0.0
  0
LINE
  5
309
330
1F
100
AcDbEntity
  8
0
  6
Continuous
 62
     7
370
    25
100
AcDbLine
 10
266.3188489172
 20
235.2699808541
 30
0.0
 11
266.8128258704
 21
235.2699808541
 31
0.0
  0
LINE
  5
30A
330
1F
100
AcDbEntity
  8
0
  6
Continuous
 62
     7
370
    25
100
AcDbLine
 10
292.1749982349
 20
235.2699808541
 30
0.0
 11
291.3568704308
 21
235.2699808541
 31
0.0
  0
LINE
  5
30B
330
1F
100
AcDbEntity
  8
0
  6
Continuous
 62
     7
370
    25
100
AcDbLine
 10
290.7662361167
 20
177.6310706064
 30
0.0
 11
290.7662361167
 21
235.2699808541
 31
0.0
  0
LINE
  5
30C
330
1F
100
AcDbEntity
  8
0
  6
Continuous
 62
     7
370
    25
100
AcDbLine
 10
290.7662361167
 20
235.2699808541
 30
0.0
 11
289.7872346445
 21
235.2699808541
 31
0.0
  0
LINE
  5
30D
330
1F
100
AcDbEntity
  8
0
  6
Continuous
 62
     7
370
    25
100
AcDbLine
 10
263.3240625691
 20
235.2699808541
 30
0.0
 11
262.5043189036
 21
235.2699808541
 31
0.0
  0
LINE
  5
30E
330
1F
100
AcDbEntity
  8
0
  6
Continuous
 62
     7
370
    25
100
AcDbLine
 10
263.9257303572
 20
235.2699808541
 30
0.0
 11
263.9257303572
 21
173.5436839425
 31
0.0
  0
LINE
  5
30F
330
1F
100
AcDbEntity
  8
0
  6
Continuous
 62
     7
370
    25
100
AcDbLine
 10
264.8747603108
 20
235.2699808541
 30
0.0
 11
263.9257303572
 21
235.2699808541
 31
0.0
  0
LINE
  5
310
330
1F
100
AcDbEntity
  8
0
  6
Continuous
 62
     7
370
    25
100
AcDbLine
 10
292.1749982349
 20
235.2699808541
 30
0.0
 11
292.482188556
 21
235.2699808541
 31
0.0
  0
LINE
  5
311
330
1F
100
AcDbEntity
  8
0
  6
Continuous
 62
     7
370
    25
100
AcDbLine
 10
290.7662361167
 20
235.2699808541
 30
0.0
 11
291.3568704308
 21
235.2699808541
 31
0.0
  0
LINE
  5
312
330
1F
100
AcDbEntity
  8
0
  6
Continuous
 62
     7
370
    25
100
AcDbLine
 10
262.2004554511
 20
235.2699808541
 30
0.0
 11
262.5043189036
 21
235.2699808541
 31
0.0
  0
LINE
  5
313
330
1F
100
AcDbEntity
  8
0
  6
Continuous
 62
     7
370
    25
100
AcDbLine
 10
292.7331647132
 20
235.2699808541
 30
0.0
 11
292.482188556
 21
235.2699808541
 31
0.0
  0
LINE
  5
314
330
1F
100
AcDbEntity
  8
0
  6
Continuous
 62
     7
370
    25
100
AcDbLine
 10
263.3240625691
 20
235.2699808541
 30
0.0
 11
263.9257303572
 21
235.2699808541
 31
0.0
  0
LINE
  5
315
330
1F
100
AcDbEntity
  8
0
  6
Continuous
 62
     7
370
    25
100
AcDbLine
 10
262.2004554511
 20
235.2699808541
 30
0.0
 11
261.9567541076
 21
235.2699808541
 31
0.0
  0
LINE
  5
316
330
1F
100
AcDbEntity
  8
0
  6
Continuous
 62
     7
370
    25
100
AcDbLine
 10
293.4201141399
 20
178.0352144678
 30
0.0
 11
293.4201141399
 21
235.2699808541
 31
0.0
  0
LINE
  5
317
330
1F
100
AcDbEntity
  8
0
  6
Continuous
 62
     7
370
    25
100
AcDbLine
 10
293.4201141399
 20
235.2699808541
 30
0.0
 11
292.7331647132
 21
235.2699808541
 31
0.0
  0
LINE
  5
318
330
1F
100
AcDbEntity
  8
0
  6
Continuous
 62
     7
370
    25
100
AcDbLine
 10
294.9341042238
 20
235.2699808541
 30
0.0
 11
294.108079361
 21
235.2699808541
 31
0.0
  0
LINE
  5
319
330
1F
100
AcDbEntity
  8
0
  6
Continuous
 62
     7
370
    25
100
AcDbLine
 10
261.3027468014
 20
235.2699808541
 30
0.0
 11
261.3027468014
 21
173.1442448224
 31
0.0
  0
LINE
  5
31A
330
1F
100
AcDbEntity
  8
0
  6
Continuous
 62
     7
370
    25
100
AcDbLine
 10
261.9567541076
 20
235.2699808541
 30
0.0
 11
261.3027468014
 21
235.2699808541
 31
0.0
  0
LINE
  5
31B
330
1F
100
AcDbEntity
  8
0
  6
Continuous
 62
     7
370
    25
100
AcDbLine
 10
260.6050989575
 20
235.2699808541
 30
0.0
 11
259.7791821257
 21
235.2699808541
 31
0.0
  0
LINE
  5
31C
330
1F
100
AcDbEntity
  8
0
  6
Continuous
 62
     7
370
    25
100
AcDbLine
 10
293.4201141399
 20
235.2699808541
 30
0.0
 11
294.108079361
 21
235.2699808541
 31
0.0
  0
LINE
  5
31D
330
1F
100
AcDbEntity
  8
0
  6
Continuous
 62
     7
370
    25
100
AcDbLine
 10
294.9627174826
 20
220.2699808541
 30
0.0
 11
295.1791169656
 21
220.2699808541
 31
0.0
  0
LINE
  5
31E
330
1F
100
AcDbEntity
  8
0
  6
Continuous
 62
     7
370
    25
100
AcDbLine
 10
295.1791169656
 20
220.2699808541
 30
0.0
 11
295.1791169656
 21
235.2699808541
 31
0.0
  0
LINE
  5
31F
330
1F
100
AcDbEntity
  8
0
  6
Continuous
 62
     7
370
    25
100
AcDbLine
 10
294.9627174826
 20
235.2699808541
 30
0.0
 11
294.9627174826
 21
220.2699808541
 31
0.0
  0
LINE
  5
320
330
1F
100
AcDbEntity
  8
0
  6
Continuous
 62
     7
370
    25
100
AcDbLine
 10
294.9341042238
 20
235.2699808541
 30
0.0
 11
294.9627174826
 21
235.2699808541
 31
0.0
  0
LINE
  5
321
330
1F
100
AcDbEntity
  8
0
  6
Continuous
 62
     7
370
    25
100
AcDbLine
 10
295.1791169656
 20
235.2699808541
 30
0.0
 11
295.2077302244
 21
235.2699808541
 31
0.0
  0
LINE
  5
322
330
1F
100
AcDbEntity
  8
0
  6
Continuous
 62
     7
370
    25
100
AcDbLine
 10
295.1101921141
 20
220.2699808541
 30
0.0
 11
295.1101921141
 21
235.2699808541
 31
0.0
  0
LINE
  5
323
330
1F
100
AcDbEntity
  8
0
  6
Continuous
 62
     7
370
    25
100
AcDbLine
 10
294.9627174826
 20
235.2699808541
 30
0.0
 11
295.1101921141
 21
235.2699808541
 31
0.0
  0
LINE
  5
324
330
1F
100
AcDbEntity
  8
0
  6
Continuous
 62
     7
370
    25
100
AcDbLine
 10
295.1101921141
 20
235.2699808541
 30
0.0
 11
295.1791169656
 21
235.2699808541
 31
0.0
  0
LINE
  5
325
330
1F
100
AcDbEntity
  8
0
  6
Continuous
 62
     7
370
    25
100
AcDbLine
 10
260.6050989575
 20
235.2699808541
 30
0.0
 11
261.3027468014
 21
235.2699808541
 31
0.0
  0
LINE
  5
326
330
1F
100
AcDbEntity
  8
0
  6
Continuous
 62
     7
370
    25
100
AcDbLine
 10
259.5094878963
 20
235.2699808541
 30
0.0
 11
259.7791821257
 21
235.2699808541
 31
0.0
  0
LINE
  5
327
330
1F
100
AcDbEntity
  8
0
  6
Continuous
 62
     7
370
    25
100
AcDbLine
 10
295.394181115
 20
235.2699808541
 30
0.0
 11
295.2077302244
 21
235.2699808541
 31
0.0
  0
LINE
  5
328
330
1F
100
AcDbEntity
  8
0
  6
Continuous
 62
     7
370
    25
100
AcDbLine
 10
259.5094878963
 20
235.2699808541
 30
0.0
 11
259.3295054272
 21
235.2699808541
 31
0.0
  0
LINE
  5
329
330
1F
100
AcDbEntity
  8
0
  6
Continuous
 62
     7
370
    25
100
AcDbLine
 10
295.7640294894
 20
178.3921558916
 30
0.0
 11
295.7640294894
 21
235.2699808541
 31
0.0
  0
LINE
  5
32A
330
1F
100
AcDbEntity
  8
0
  6
Continuous
 62
     7
370
    25
100
AcDbLine
 10
295.7640294894
 20
235.2699808541
 30
0.0
 11
295.394181115
 21
235.2699808541
 31
0.0
  0
LINE
  5
32B
330
1F
100
AcDbEntity
  8
0
  6
Continuous
 62
     7
370
    25
100
AcDbLine
 10
258.9949285942
 20
235.2699808541
 30
0.0
 11
258.9949285942
 21
172.7928004253
 31
0.0
  0
LINE
  5
32C
330
1F
100
AcDbEntity
  8
0
  6
Continuous
 62
     7
370
    25
100
AcDbLine
 10
259.3295054272
 20
235.2699808541
 30
0.0
 11
258.9949285942
 21
235.2699808541
 31
0.0
  0
LINE
  5
32D
330
1F
100
AcDbEntity
  8
0
  6
Continuous
 62
     7
370
    25
100
AcDbLine
 10
297.3537794442
 20
235.2699808541
 30
0.0
 11
296.535935157
 21
235.2699808541
 31
0.0
  0
LINE
  5
32E
330
1F
100
AcDbEntity
  8
0
  6
Continuous
 62
     7
370
    25
100
AcDbLine
 10
295.7640294894
 20
235.2699808541
 30
0.0
 11
296.535935157
 21
235.2699808541
 31
0.0
  0
LINE
  5
32F
330
1F
100
AcDbEntity
  8
0
  6
Continuous
 62
     7
370
    25
100
AcDbLine
 10
258.2148796164
 20
235.2699808541
 30
0.0
 11
257.3988651498
 21
235.2699808541
 31
0.0
  0
LINE
  5
330
330
1F
100
AcDbEntity
  8
0
  6
Continuous
 62
     7
370
    25
100
AcDbLine
 10
297.3537794442
 20
235.2699808541
 30
0.0
 11
297.5885153055
 21
235.2699808541
 31
0.0
  0
LINE
  5
331
330
1F
100
AcDbEntity
  8
0
  6
Continuous
 62
     7
370
    25
100
AcDbLine
 10
258.2148796164
 20
235.2699808541
 30
0.0
 11
258.9949285942
 21
235.2699808541
 31
0.0
  0
LINE
  5
332
330
1F
100
AcDbEntity
  8
0
  6
Continuous
 62
     7
370
    25
100
AcDbLine
 10
297.7184901926
 20
235.2699808541
 30
0.0
 11
297.5885153055
 21
235.2699808541
 31
0.0
  0
LINE
  5
333
330
1F
100
AcDbEntity
  8
0
  6
Continuous
 62
     7
370
    25
100
AcDbLine
 10
257.1685894348
 20
235.2699808541
 30
0.0
 11
257.3988651498
 21
235.2699808541
 31
0.0
  0
LINE
  5
334
330
1F
100
AcDbEntity
  8
0
  6
Continuous
 62
     7
370
    25
100
AcDbLine
 10
257.1685894348
 20
235.2699808541
 30
0.0
 11
257.0441506768
 21
235.2699808541
 31
0.0
  0
LINE
  5
335
330
1F
100
AcDbEntity
  8
0
  6
Continuous
 62
     7
370
    25
100
AcDbLine
 10
297.7523605193
 20
178.694947419
 30
0.0
 11
297.7523605193
 21
235.2699808541
 31
0.0
  0
LINE
  5
336
330
1F
100
AcDbEntity
  8
0
  6
Continuous
 62
     7
370
    25
100
AcDbLine
 10
299.3869276704
 20
235.2699808541
 30
0.0
 11
298.5931823676
 21
235.2699808541
 31
0.0
  0
LINE
  5
337
330
1F
100
AcDbEntity
  8
0
  6
Continuous
 62
     7
370
    25
100
AcDbLine
 10
297.7523605193
 20
235.2699808541
 30
0.0
 11
298.5931823676
 21
235.2699808541
 31
0.0
  0
LINE
  5
338
330
1F
100
AcDbEntity
  8
0
  6
Continuous
 62
     7
370
    25
100
AcDbLine
 10
256.1999274462
 20
235.2699808541
 30
0.0
 11
255.4096981384
 21
235.2699808541
 31
0.0
  0
LINE
  5
339
330
1F
100
AcDbEntity
  8
0
  6
Continuous
 62
     7
370
    25
100
AcDbLine
 10
256.1999274462
 20
235.2699808541
 30
0.0
 11
257.0441506768
 21
235.2699808541
 31
0.0
  0
LINE
  5
33A
330
1F
100
AcDbEntity
  8
0
  6
Continuous
 62
     7
370
    25
100
AcDbLine
 10
299.3869276704
 20
235.2699808541
 30
0.0
 11
299.5782045258
 21
235.2699808541
 31
0.0
  0
LINE
  5
33B
330
1F
100
AcDbEntity
  8
0
  6
Continuous
 62
     7
370
    25
100
AcDbLine
 10
299.6608519135
 20
235.2699808541
 30
0.0
 11
299.5782045258
 21
235.2699808541
 31
0.0
  0
LINE
  5
33C
330
1F
100
AcDbEntity
  8
0
  6
Continuous
 62
     7
370
    25
100
AcDbLine
 10
255.2233229927
 20
235.2699808541
 30
0.0
 11
255.4096981384
 21
235.2699808541
 31
0.0
  0
LINE
  5
33D
330
1F
100
AcDbEntity
  8
0
  6
Continuous
 62
     7
370
    25
100
AcDbLine
 10
255.2233229927
 20
235.2699808541
 30
0.0
 11
255.1451716871
 21
235.2699808541
 31
0.0
  0
LINE
  5
33E
330
1F
100
AcDbEntity
  8
0
  6
Continuous
 62
     7
370
    25
100
AcDbLine
 10
299.6608519135
 20
235.2699808541
 30
0.0
 11
300.2397790158
 21
235.2699808541
 31
0.0
  0
LINE
  5
33F
330
1F
100
AcDbEntity
  8
0
  6
Continuous
 62
     7
370
    25
100
AcDbLine
 10
300.9939759847
 20
235.2699808541
 30
0.0
 11
300.2397790158
 21
235.2699808541
 31
0.0
  0
LINE
  5
340
330
1F
100
AcDbEntity
  8
0
  6
Continuous
 62
     7
370
    25
100
AcDbLine
 10
254.5994611992
 20
235.2699808541
 30
0.0
 11
255.1451716871
 21
235.2699808541
 31
0.0
  0
LINE
  5
341
330
1F
100
AcDbEntity
  8
0
  6
Continuous
 62
     7
370
    25
100
AcDbLine
 10
254.5994611992
 20
235.2699808541
 30
0.0
 11
253.8503979646
 21
235.2699808541
 31
0.0
  0
LINE
  5
342
330
1F
100
AcDbEntity
  8
0
  6
Continuous
 62
     7
370
    25
100
AcDbLine
 10
300.9939759847
 20
235.2699808541
 30
0.0
 11
301.1380708478
 21
235.2699808541
 31
0.0
  0
LINE
  5
343
330
1F
100
AcDbEntity
  8
0
  6
Continuous
 62
     7
370
    25
100
AcDbLine
 10
301.1834604163
 20
235.2699808541
 30
0.0
 11
301.1380708478
 21
235.2699808541
 31
0.0
  0
LINE
  5
344
330
1F
100
AcDbEntity
  8
0
  6
Continuous
 62
     7
370
    25
100
AcDbLine
 10
253.7115509685
 20
235.2699808541
 30
0.0
 11
253.8503979646
 21
235.2699808541
 31
0.0
  0
LINE
  5
345
330
1F
100
AcDbEntity
  8
0
  6
Continuous
 62
     7
370
    25
100
AcDbLine
 10
253.7115509685
 20
235.2699808541
 30
0.0
 11
253.669529924
 21
235.2699808541
 31
0.0
  0
LINE
  5
346
330
1F
100
AcDbEntity
  8
0
  6
Continuous
 62
     7
370
    25
100
AcDbLine
 10
301.1834604163
 20
235.2699808541
 30
0.0
 11
301.4436759709
 21
235.2699808541
 31
0.0
  0
LINE
  5
347
330
1F
100
AcDbEntity
  8
0
  6
Continuous
 62
     7
370
    25
100
AcDbLine
 10
302.1436450198
 20
235.2699808541
 30
0.0
 11
301.4436759709
 21
235.2699808541
 31
0.0
  0
LINE
  5
348
330
1F
100
AcDbEntity
  8
0
  6
Continuous
 62
     7
370
    25
100
AcDbLine
 10
253.4446321302
 20
235.2699808541
 30
0.0
 11
253.669529924
 21
235.2699808541
 31
0.0
  0
LINE
  5
349
330
1F
100
AcDbEntity
  8
0
  6
Continuous
 62
     7
370
    25
100
AcDbLine
 10
253.4446321302
 20
235.2699808541
 30
0.0
 11
252.7513146327
 21
235.2699808541
 31
0.0
  0
LINE
  5
34A
330
1F
100
AcDbEntity
  8
0
  6
Continuous
 62
     7
370
    25
100
AcDbLine
 10
302.1436450198
 20
235.2699808541
 30
0.0
 11
302.237753248
 21
235.2699808541
 31
0.0
  0
LINE
  5
34B
330
1F
100
AcDbEntity
  8
0
  6
Continuous
 62
     7
370
    25
100
AcDbLine
 10
302.2566798584
 20
235.2699808541
 30
0.0
 11
302.237753248
 21
235.2699808541
 31
0.0
  0
LINE
  5
34C
330
1F
100
AcDbEntity
  8
0
  6
Continuous
 62
     7
370
    25
100
AcDbLine
 10
252.662698285
 20
235.2699808541
 30
0.0
 11
252.7513146327
 21
235.2699808541
 31
0.0
  0
LINE
  5
34D
330
1F
100
AcDbEntity
  8
0
  6
Continuous
 62
     7
370
    25
100
AcDbLine
 10
252.662698285
 20
235.2699808541
 30
0.0
 11
252.645947076
 21
235.2699808541
 31
0.0
  0
LINE
  5
34E
330
1F
100
AcDbEntity
  8
0
  6
Continuous
 62
     7
370
    25
100
AcDbLine
 10
302.8135577756
 20
235.2699808541
 30
0.0
 11
302.2566798584
 21
235.2699808541
 31
0.0
  0
LINE
  5
34F
330
1F
100
AcDbEntity
  8
0
  6
Continuous
 62
     7
370
    25
100
AcDbLine
 10
252.645947076
 20
235.2699808541
 30
0.0
 11
252.1338405495
 21
235.2699808541
 31
0.0
  0
LINE
  5
350
330
1F
100
AcDbEntity
  8
0
  6
Continuous
 62
     7
370
    25
100
AcDbLine
 10
302.8135577756
 20
235.2699808541
 30
0.0
 11
302.8558476593
 21
235.2699808541
 31
0.0
  0
LINE
  5
351
330
1F
100
AcDbEntity
  8
0
  6
Continuous
 62
     7
370
    25
100
AcDbLine
 10
302.8596212442
 20
235.2699808541
 30
0.0
 11
302.8558476593
 21
235.2699808541
 31
0.0
  0
LINE
  5
352
330
1F
100
AcDbEntity
  8
0
  6
Continuous
 62
     7
370
    25
100
AcDbLine
 10
252.0971796666
 20
235.2699808541
 30
0.0
 11
252.1338405495
 21
235.2699808541
 31
0.0
  0
LINE
  5
353
330
1F
100
AcDbEntity
  8
0
  6
Continuous
 62
     7
370
    25
100
AcDbLine
 10
252.0971796666
 20
235.2699808541
 30
0.0
 11
252.0943460188
 21
235.2699808541
 31
0.0
  0
LINE
  5
354
330
1F
100
AcDbEntity
  8
0
  6
Continuous
 62
     7
370
    25
100
AcDbLine
 10
302.9909005907
 20
235.2699808541
 30
0.0
 11
302.8596212442
 21
235.2699808541
 31
0.0
  0
LINE
  5
355
330
1F
100
AcDbEntity
  8
0
  6
Continuous
 62
     7
370
    25
100
AcDbLine
 10
252.0943460188
 20
235.2699808541
 30
0.0
 11
252.0094548954
 21
235.2699808541
 31
0.0
  0
LINE
  5
356
330
1F
100
AcDbEntity
  8
0
  6
Continuous
 62
     7
370
    25
100
AcDbLine
 10
276.8871449422
 20
128.0307386933
 30
0.0
 11
347.4950800762
 21
117.2782612617
 31
0.0
  0
LINE
  5
357
330
1F
100
AcDbEntity
  8
0
  6
Continuous
 62
     7
370
    25
100
AcDbLine
 10
276.8871449422
 20
174.5092230149
 30
0.0
 11
276.8871449422
 21
128.0307386933
 31
0.0
  0
LINE
  5
358
330
1F
100
AcDbEntity
  8
0
  6
Continuous
 62
     7
370
    25
100
AcDbLine
 10
347.4950800762
 20
185.2617004464
 30
0.0
 11
276.8871449422
 21
174.5092230149
 31
0.0
  0
LINE
  5
359
330
1F
100
AcDbEntity
  8
0
  6
Continuous
 62
     7
370
    25
100
AcDbLine
 10
347.4950800762
 20
117.2782612617
 30
0.0
 11
347.4950800762
 21
185.2617004464
 31
0.0
  0
LINE
  5
35A
330
1F
100
AcDbEntity
  8
0
  6
Continuous
 62
     7
370
    25
100
AcDbLine
 10
347.4950800762
 20
186.2699808541
 30
0.0
 11
276.7579273793
 21
175.497825621
 31
0.0
  0
LINE
  5
35B
330
1F
100
AcDbEntity
  8
0
  6
Continuous
 62
     7
370
    25
100
AcDbLine
 10
347.4950800762
 20
185.2617004464
 30
0.0
 11
347.4950800762
 21
186.2699808541
 31
0.0
  0
ARC
  5
35C
330
1F
100
AcDbEntity
  8
0
  6
Continuous
 62
     7
370
    25
100
AcDbCircle
 10
288.5348070531
 20
176.534403451
 30
0.0
 40
11.82241043313394
100
AcDbArc
 50
185.0300990784
 51
189.8634199222
  0
LINE
  5
35D
330
1F
100
AcDbEntity
  8
0
  6
Continuous
 62
     7
370
    25
100
AcDbLine
 10
347.4950800762
 20
116.2699808541
 30
0.0
 11
347.4950800762
 21
117.2782612617
 31
0.0
  0
LINE
  5
35E
330
1F
100
AcDbEntity
  8
0
  6
Continuous
 62
     7
370
    25
100
AcDbLine
 10
276.7579273793
 20
127.0421360871
 30
0.0
 11
347.4950800762
 21
116.2699808541
 31
0.0
  0
ARC
  5
35F
330
1F
100
AcDbEntity
  8
0
  6
Continuous
 62
     7
370
    25
100
AcDbCircle
 10
288.5348070356
 20
126.0055582591
 30
0.0
 40
11.82241041547032
100
AcDbArc
 50
170.1365800782
 51
174.9699009239
  0
ARC
  5
360
330
1F
100
AcDbEntity
  8
0
  6
Continuous
 62
     7
370
    25
100
AcDbCircle
 10
249.9950800762
 20
170.410736326
 30
0.0
 40
1.000000000000012
100
AcDbArc
 50
151.1769781397
 51
179.9999999912
  0
ARC
  5
361
330
1F
100
AcDbEntity
  8
0
  6
Continuous
 62
     7
370
    25
100
AcDbCircle
 10
249.9950800762
 20
170.410736326
 30
0.0
 40
1.000000000000009
100
AcDbArc
 50
98.6587212324
 51
122.9828074862
  0
SPLINE
  5
362
330
1F
100
AcDbEntity
  8
0
  6
Continuous
 62
     7
370
    25
100
AcDbSpline
210
0.0
220
0.0
230
1.0
 70
    24
 71
     3
 72
    22
 73
    18
 74
     0
 42
0.00000001
 43
0.00000001
 40
0.0
 40
0.0
 40
0.0
 40
0.0
 40
0.0587005093300552
 40
0.1173937407571615
 40
0.1794770363420695
 40
0.2415348792382283
 40
0.3060407705304101
 40
0.37049797364819
 40
0.4362039968412958
 40
0.501846914852266
 40
0.5674016909019477
 40
0.6328938201337645
 40
0.696981682023385
 40
0.7610221677509317
 40
0.8429511246084646
 40
0.9226549990402012
 40
1.0
 40
1.0
 40
1.0
 40
1.0
 10
276.757927379301
 20
175.4978256210356
 30
0.0
 10
275.9297121045383
 20
175.3717014675184
 30
0.0
 10
274.2733842401593
 20
175.119468797816
 30
0.0
 10
271.7675803807174
 20
174.7378743014543
 30
0.0
 10
269.2612941847319
 20
174.3562063528271
 30
0.0
 10
266.749404408561
 20
173.9736850671158
 30
0.0
 10
264.304279683947
 20
173.601331048139
 30
0.0
 10
261.9411851077758
 20
173.2414689299404
 30
0.0
 10
259.7166633382877
 20
172.9027092696122
 30
0.0
 10
257.6604376896124
 20
172.5895784601693
 30
0.0
 10
255.8057269147415
 20
172.3071351949605
 30
0.0
 10
254.1859534741237
 20
172.060469188775
 30
0.0
 10
252.8093883225658
 20
171.8508399778779
 30
0.0
 10
251.5805403861143
 20
171.6637057743574
 30
0.0
 10
250.6059191920577
 20
171.5152863031813
 30
0.0
 10
249.9612667666492
 20
171.4171158830683
 30
0.0
 10
249.8830516291773
 20
171.4052049484279
 30
0.0
 10
249.8445314559654
 20
171.3993389322027
 30
0.0
  0
SPLINE
  5
363
330
1F
100
AcDbEntity
  8
0
  6
Continuous
 62
     7
370
    25
100
AcDbSpline
210
0.0
220
0.0
230
1.0
 70
    24
 71
     3
 72
    27
 73
    23
 74
     0
 42
0.00000001
 43
0.00000001
 40
0.0
 40
0.0
 40
0.0
 40
0.0
 40
0.0781064483090998
 40
0.1562516599331194
 40
0.2069358456685152
 40
0.2574949347691402
 40
0.308251054347228
 40
0.3562618422140666
 40
0.4041808477086329
 40
0.4522784620981394
 40
0.4967614857099542
 40
0.5411789675329995
 40
0.5857428097580729
 40
0.6343240622430005
 40
0.682882696844264
 40
0.7290849196485651
 40
0.7727160781903032
 40
0.816428807655006
 40
0.8650572732145678
 40
0.9137196762478244
 40
0.9568533275525415
 40
1.0
 40
1.0
 40
1.0
 40
1.0
 10
249.8445314559653
 20
131.1406227759277
 30
0.0
 10
249.8832789204338
 20
131.1347221468208
 30
0.0
 10
249.9607930792834
 20
131.122917960194
 30
0.0
 10
250.5222268135616
 20
131.0374204372075
 30
0.0
 10
251.2327021158291
 20
130.9292262287403
 30
0.0
 10
252.0015435525594
 20
130.8121437764464
 30
0.0
 10
252.9106707173764
 20
130.6736980153067
 30
0.0
 10
253.9439526818277
 20
130.5163454318877
 30
0.0
 10
255.0883852415011
 20
130.3420663618867
 30
0.0
 10
256.3248876982797
 20
130.1537664953723
 30
0.0
 10
257.6350018097001
 20
129.9542567322117
 30
0.0
 10
259.004371522824
 20
129.7457232733604
 30
0.0
 10
260.5045792073961
 20
129.5172652503291
 30
0.0
 10
262.1368968462225
 20
129.2686889601525
 30
0.0
 10
263.8716001840759
 20
129.0045209391596
 30
0.0
 10
265.6149870316336
 20
128.7390305562828
 30
0.0
 10
267.3518888463594
 20
128.4745277418576
 30
0.0
 10
269.1666375522616
 20
128.198170070908
 30
0.0
 10
271.0900811180953
 20
127.9052598832176
 30
0.0
 10
273.038928610295
 20
127.6084810772988
 30
0.0
 10
274.9315261217523
 20
127.3202682582952
 30
0.0
 10
276.1490657110944
 20
127.1348561380908
 30
0.0
 10
276.757927379301
 20
127.0421360870949
 30
0.0
  0
LINE
  5
364
330
1F
100
AcDbEntity
  8
0
  6
Continuous
 62
     7
370
    25
100
AcDbLine
 10
349.4950800762
 20
135.5631379557
 30
0.0
 11
349.4950800762
 21
123.5631379557
 31
0.0
  0
LINE
  5
365
330
1F
100
AcDbEntity
  8
0
  6
Continuous
 62
     7
370
    25
100
AcDbLine
 10
347.4950800762
 20
123.5631379557
 30
0.0
 11
349.4950800762
 21
123.5631379557
 31
0.0
  0
LINE
  5
366
330
1F
100
AcDbEntity
  8
0
  6
Continuous
 62
     7
370
    25
100
AcDbLine
 10
347.4950800762
 20
135.5631379557
 30
0.0
 11
349.4950800762
 21
135.5631379557
 31
0.0
  0
LINE
  5
367
330
1F
100
AcDbEntity
  8
0
  6
Continuous
 62
     7
370
    25
100
AcDbLine
 10
347.4950800762
 20
179.5631379557
 30
0.0
 11
349.4950800762
 21
179.5631379557
 31
0.0
  0
LINE
  5
368
330
1F
100
AcDbEntity
  8
0
  6
Continuous
 62
     7
370
    25
100
AcDbLine
 10
349.4950800762
 20
179.5631379557
 30
0.0
 11
349.4950800762
 21
167.5631379557
 31
0.0
  0
LINE
  5
369
330
1F
100
AcDbEntity
  8
0
  6
Continuous
 62
     7
370
    25
100
AcDbLine
 10
349.4950800762
 20
167.5631379557
 30
0.0
 11
347.4950800762
 21
167.5631379557
 31
0.0
  0
LINE
  5
36A
330
1F
100
AcDbEntity
  8
0
  6
Continuous
 62
     8
370
    25
100
AcDbLine
 10
278.1963009708
 20
67.2699808541
 30
0.0
 11
278.1963009708
 21
126.8230944234
 31
0.0
  0
LINE
  5
36B
330
1F
100
AcDbEntity
  8
0
  6
Continuous
 62
     8
370
    25
100
AcDbLine
 10
277.5776444539
 20
126.9173060757
 30
0.0
 11
277.5776444539
 21
67.2699808541
 31
0.0
  0
LINE
  5
36C
330
1F
100
AcDbEntity
  8
0
  6
Continuous
 62
     8
370
    25
100
AcDbLine
 10
278.5737335134
 20
126.7656173865
 30
0.0
 11
278.5737335134
 21
67.2699808541
 31
0.0
  0
LINE
  5
36D
330
1F
100
AcDbEntity
  8
0
  6
Continuous
 62
     8
370
    25
100
AcDbLine
 10
279.1527024325
 20
67.2699808541
 30
0.0
 11
279.1527024325
 21
126.6774495308
 31
0.0
  0
LINE
  5
36E
330
1F
100
AcDbEntity
  8
0
  6
Continuous
 62
     8
370
    25
100
AcDbLine
 10
275.6727312098
 20
67.2699808541
 30
0.0
 11
275.6727312098
 21
127.207394387
 31
0.0
  0
LINE
  5
36F
330
1F
100
AcDbEntity
  8
0
  6
Continuous
 62
     8
370
    25
100
AcDbLine
 10
275.0174011275
 20
127.3071908463
 30
0.0
 11
275.0174011275
 21
67.2699808541
 31
0.0
  0
LINE
  5
370
330
1F
100
AcDbEntity
  8
0
  6
Continuous
 62
     8
370
    25
100
AcDbLine
 10
274.6418073983
 20
67.2699808541
 30
0.0
 11
274.6418073983
 21
127.3643878609
 31
0.0
  0
LINE
  5
371
330
1F
100
AcDbEntity
  8
0
  6
Continuous
 62
     8
370
    25
100
AcDbLine
 10
281.7371460763
 20
67.2699808541
 30
0.0
 11
281.7371460763
 21
126.2838794327
 31
0.0
  0
LINE
  5
372
330
1F
100
AcDbEntity
  8
0
  6
Continuous
 62
     8
370
    25
100
AcDbLine
 10
281.0483351308
 20
126.3887745006
 30
0.0
 11
281.0483351308
 21
67.2699808541
 31
0.0
  0
LINE
  5
373
330
1F
100
AcDbEntity
  8
0
  6
Continuous
 62
     8
370
    25
100
AcDbLine
 10
282.1090711372
 20
126.2272410986
 30
0.0
 11
282.1090711372
 21
67.2699808541
 31
0.0
  0
LINE
  5
374
330
1F
100
AcDbEntity
  8
0
  6
Continuous
 62
     8
370
    25
100
AcDbLine
 10
272.2282299349
 20
67.2699808541
 30
0.0
 11
272.2282299349
 21
127.7319377284
 31
0.0
  0
LINE
  5
375
330
1F
100
AcDbEntity
  8
0
  6
Continuous
 62
     8
370
    25
100
AcDbLine
 10
271.5092939439
 20
127.8414203666
 30
0.0
 11
271.5092939439
 21
67.2699808541
 31
0.0
  0
LINE
  5
376
330
1F
100
AcDbEntity
  8
0
  6
Continuous
 62
     8
370
    25
100
AcDbLine
 10
271.1428495329
 20
67.2699808541
 30
0.0
 11
271.1428495329
 21
127.897224084
 31
0.0
  0
LINE
  5
377
330
1F
100
AcDbEntity
  8
0
  6
Continuous
 62
     8
370
    25
100
AcDbLine
 10
285.1954241923
 20
67.2699808541
 30
0.0
 11
285.1954241923
 21
125.7572380953
 31
0.0
  0
LINE
  5
378
330
1F
100
AcDbEntity
  8
0
  6
Continuous
 62
     8
370
    25
100
AcDbLine
 10
284.4498657398
 20
125.8707749155
 30
0.0
 11
284.4498657398
 21
67.2699808541
 31
0.0
  0
LINE
  5
379
330
1F
100
AcDbEntity
  8
0
  6
Continuous
 62
     8
370
    25
100
AcDbLine
 10
285.5546026732
 20
125.7025408647
 30
0.0
 11
285.5546026732
 21
67.2699808541
 31
0.0
  0
LINE
  5
37A
330
1F
100
AcDbEntity
  8
0
  6
Continuous
 62
     8
370
    25
100
AcDbLine
 10
268.886241907
 20
67.2699808541
 30
0.0
 11
268.886241907
 21
128.2408699154
 31
0.0
  0
LINE
  5
37B
330
1F
100
AcDbEntity
  8
0
  6
Continuous
 62
     8
370
    25
100
AcDbLine
 10
268.1176932788
 20
128.3579077775
 30
0.0
 11
268.1176932788
 21
67.2699808541
 31
0.0
  0
LINE
  5
37C
330
1F
100
AcDbEntity
  8
0
  6
Continuous
 62
     8
370
    25
100
AcDbLine
 10
267.7675306094
 20
67.2699808541
 30
0.0
 11
267.7675306094
 21
128.4112320419
 31
0.0
  0
LINE
  5
37D
330
1F
100
AcDbEntity
  8
0
  6
Continuous
 62
     8
370
    25
100
AcDbLine
 10
288.5038238691
 20
67.2699808541
 30
0.0
 11
288.5038238691
 21
125.2534208856
 31
0.0
  0
LINE
  5
37E
330
1F
100
AcDbEntity
  8
0
  6
Continuous
 62
     8
370
    25
100
AcDbLine
 10
287.7160293568
 20
125.3733895931
 30
0.0
 11
287.7160293568
 21
67.2699808541
 31
0.0
  0
LINE
  5
37F
330
1F
100
AcDbEntity
  8
0
  6
Continuous
 62
     8
370
    25
100
AcDbLine
 10
288.8432647695
 20
125.2017293779
 30
0.0
 11
288.8432647695
 21
67.2699808541
 31
0.0
  0
LINE
  5
380
330
1F
100
AcDbEntity
  8
0
  6
Continuous
 62
     8
370
    25
100
AcDbLine
 10
265.7118151217
 20
67.2699808541
 30
0.0
 11
265.7118151217
 21
128.7242851619
 31
0.0
  0
LINE
  5
381
330
1F
100
AcDbEntity
  8
0
  6
Continuous
 62
     8
370
    25
100
AcDbLine
 10
264.908612781
 20
128.8466002391
 30
0.0
 11
264.908612781
 21
67.2699808541
 31
0.0
  0
LINE
  5
382
330
1F
100
AcDbEntity
  8
0
  6
Continuous
 62
     8
370
    25
100
AcDbLine
 10
264.5815473714
 20
67.2699808541
 30
0.0
 11
264.5815473714
 21
128.8964071543
 31
0.0
  0
LINE
  5
383
330
1F
100
AcDbEntity
  8
0
  6
Continuous
 62
     8
370
    25
100
AcDbLine
 10
291.5979508703
 20
67.2699808541
 30
0.0
 11
291.5979508703
 21
124.7822340326
 31
0.0
  0
LINE
  5
384
330
1F
100
AcDbEntity
  8
0
  6
Continuous
 62
     8
370
    25
100
AcDbLine
 10
290.7832538222
 20
124.906299573
 30
0.0
 11
290.7832538222
 21
67.2699808541
 31
0.0
  0
LINE
  5
385
330
1F
100
AcDbEntity
  8
0
  6
Continuous
 62
     8
370
    25
100
AcDbLine
 10
291.9110473591
 20
124.7345543643
 30
0.0
 11
291.9110473591
 21
67.2699808541
 31
0.0
  0
LINE
  5
386
330
1F
100
AcDbEntity
  8
0
  6
Continuous
 62
     8
370
    25
100
AcDbLine
 10
262.7667361855
 20
67.2699808541
 30
0.0
 11
262.7667361855
 21
129.17277434
 31
0.0
  0
LINE
  5
387
330
1F
100
AcDbEntity
  8
0
  6
Continuous
 62
     8
370
    25
100
AcDbLine
 10
261.9445135522
 20
129.2979859085
 30
0.0
 11
261.9445135522
 21
67.2699808541
 31
0.0
  0
LINE
  5
388
330
1F
100
AcDbEntity
  8
0
  6
Continuous
 62
     8
370
    25
100
AcDbLine
 10
261.6469113586
 20
67.2699808541
 30
0.0
 11
261.6469113586
 21
129.3433060395
 31
0.0
  0
LINE
  5
389
330
1F
100
AcDbEntity
  8
0
  6
Continuous
 62
     8
370
    25
100
AcDbLine
 10
294.4175815332
 20
67.2699808541
 30
0.0
 11
294.4175815332
 21
124.3528486525
 31
0.0
  0
LINE
  5
38A
330
1F
100
AcDbEntity
  8
0
  6
Continuous
 62
     8
370
    25
100
AcDbLine
 10
293.5918391007
 20
124.478596231
 30
0.0
 11
293.5918391007
 21
67.2699808541
 31
0.0
  0
LINE
  5
38B
330
1F
100
AcDbEntity
  8
0
  6
Continuous
 62
     8
370
    25
100
AcDbLine
 10
294.6982395435
 20
124.310108854
 30
0.0
 11
294.6982395435
 21
67.2699808541
 31
0.0
  0
LINE
  5
38C
330
1F
100
AcDbEntity
  8
0
  6
Continuous
 62
     8
370
    25
100
AcDbLine
 10
260.1083277099
 20
67.2699808541
 30
0.0
 11
260.1083277099
 21
129.577608118
 31
0.0
  0
LINE
  5
38D
330
1F
100
AcDbEntity
  8
0
  6
Continuous
 62
     8
370
    25
100
AcDbLine
 10
259.2830884123
 20
129.703279077
 30
0.0
 11
259.2830884123
 21
67.2699808541
 31
0.0
  0
LINE
  5
38E
330
1F
100
AcDbEntity
  8
0
  6
Continuous
 62
     8
370
    25
100
AcDbLine
 10
259.0207419229
 20
67.2699808541
 30
0.0
 11
259.0207419229
 21
129.743230319
 31
0.0
  0
LINE
  5
38F
330
1F
100
AcDbEntity
  8
0
  6
Continuous
 62
     8
370
    25
100
AcDbLine
 10
296.9078349543
 20
67.2699808541
 30
0.0
 11
296.9078349543
 21
123.9736222432
 31
0.0
  0
LINE
  5
390
330
1F
100
AcDbEntity
  8
0
  6
Continuous
 62
     8
370
    25
100
AcDbLine
 10
296.0871192746
 20
124.0986043264
 30
0.0
 11
296.0871192746
 21
67.2699808541
 31
0.0
  0
LINE
  5
391
330
1F
100
AcDbEntity
  8
0
  6
Continuous
 62
     8
370
    25
100
AcDbLine
 10
297.1505917971
 20
123.9366541961
 30
0.0
 11
297.1505917971
 21
67.2699808541
 31
0.0
  0
LINE
  5
392
330
1F
100
AcDbEntity
  8
0
  6
Continuous
 62
     8
370
    25
100
AcDbLine
 10
257.7883325919
 20
67.2699808541
 30
0.0
 11
257.7883325919
 21
129.9309068669
 31
0.0
  0
LINE
  5
393
330
1F
100
AcDbEntity
  8
0
  6
Continuous
 62
     8
370
    25
100
AcDbLine
 10
256.9761389743
 20
130.0545911742
 30
0.0
 11
256.9761389743
 21
67.2699808541
 31
0.0
  0
LINE
  5
394
330
1F
100
AcDbEntity
  8
0
  6
Continuous
 62
     8
370
    25
100
AcDbLine
 10
256.754154465
 20
67.2699808541
 30
0.0
 11
256.754154465
 21
130.0883959218
 31
0.0
  0
LINE
  5
395
330
1F
100
AcDbEntity
  8
0
  6
Continuous
 62
     8
370
    25
100
AcDbLine
 10
299.0202411834
 20
67.2699808541
 30
0.0
 11
299.0202411834
 21
123.6519360154
 31
0.0
  0
LINE
  5
396
330
1F
100
AcDbEntity
  8
0
  6
Continuous
 62
     8
370
    25
100
AcDbLine
 10
298.2205265536
 20
123.7737199692
 30
0.0
 11
298.2205265536
 21
67.2699808541
 31
0.0
  0
LINE
  5
397
330
1F
100
AcDbEntity
  8
0
  6
Continuous
 62
     8
370
    25
100
AcDbLine
 10
299.2203718729
 20
123.6214592607
 30
0.0
 11
299.2203718729
 21
67.2699808541
 31
0.0
  0
LINE
  5
398
330
1F
100
AcDbEntity
  8
0
  6
Continuous
 62
     8
370
    25
100
AcDbLine
 10
255.8519068976
 20
67.2699808541
 30
0.0
 11
255.8519068976
 21
130.2257940285
 31
0.0
  0
LINE
  5
399
330
1F
100
AcDbEntity
  8
0
  6
Continuous
 62
     8
370
    25
100
AcDbLine
 10
255.0685673849
 20
130.3450843096
 30
0.0
 11
255.0685673849
 21
67.2699808541
 31
0.0
  0
LINE
  5
39A
330
1F
100
AcDbEntity
  8
0
  6
Continuous
 62
     8
370
    25
100
AcDbLine
 10
254.8912655317
 20
67.2699808541
 30
0.0
 11
254.8912655317
 21
130.3720845918
 31
0.0
  0
LINE
  5
39B
330
1F
100
AcDbEntity
  8
0
  6
Continuous
 62
     8
370
    25
100
AcDbLine
 10
300.7136846361
 20
67.2699808541
 30
0.0
 11
300.7136846361
 21
123.3940512257
 31
0.0
  0
LINE
  5
39C
330
1F
100
AcDbEntity
  8
0
  6
Continuous
 62
     8
370
    25
100
AcDbLine
 10
299.9505365918
 20
123.5102666639
 30
0.0
 11
299.9505365918
 21
67.2699808541
 31
0.0
  0
LINE
  5
39D
330
1F
100
AcDbEntity
  8
0
  6
Continuous
 62
     8
370
    25
100
AcDbLine
 10
300.8672938561
 20
123.3706589587
 30
0.0
 11
300.8672938561
 21
67.2699808541
 31
0.0
  0
LINE
  5
39E
330
1F
100
AcDbEntity
  8
0
  6
Continuous
 62
     8
370
    25
100
AcDbLine
 10
254.3367409505
 20
67.2699808541
 30
0.0
 11
254.3367409505
 21
130.4565299595
 31
0.0
  0
LINE
  5
39F
330
1F
100
AcDbEntity
  8
0
  6
Continuous
 62
     8
370
    25
100
AcDbLine
 10
253.5975023552
 20
130.5691043649
 30
0.0
 11
253.5975023552
 21
67.2699808541
 31
0.0
  0
LINE
  5
3A0
330
1F
100
AcDbEntity
  8
0
  6
Continuous
 62
     8
370
    25
100
AcDbLine
 10
253.4683341371
 20
67.2699808541
 30
0.0
 11
253.4683341371
 21
130.5887746519
 31
0.0
  0
LINE
  5
3A1
330
1F
100
AcDbEntity
  8
0
  6
Continuous
 62
     8
370
    25
100
AcDbLine
 10
301.9552043618
 20
67.2699808541
 30
0.0
 11
301.9552043618
 21
123.204987308
 31
0.0
  0
LINE
  5
3A2
330
1F
100
AcDbEntity
  8
0
  6
Continuous
 62
     8
370
    25
100
AcDbLine
 10
301.2434767116
 20
123.3133722294
 30
0.0
 11
301.2434767116
 21
67.2699808541
 31
0.0
  0
LINE
  5
3A3
330
1F
100
AcDbEntity
  8
0
  6
Continuous
 62
     8
370
    25
100
AcDbLine
 10
302.0593022835
 20
123.1891348327
 30
0.0
 11
302.0593022835
 21
67.2699808541
 31
0.0
  0
LINE
  5
3A4
330
1F
100
AcDbEntity
  8
0
  6
Continuous
 62
     8
370
    25
100
AcDbLine
 10
253.2723257323
 20
67.2699808541
 30
0.0
 11
253.2723257323
 21
130.6186236476
 31
0.0
  0
LINE
  5
3A5
330
1F
100
AcDbEntity
  8
0
  6
Continuous
 62
     8
370
    25
100
AcDbLine
 10
252.5915764928
 20
130.7222910444
 30
0.0
 11
252.5915764928
 21
67.2699808541
 31
0.0
  0
LINE
  5
3A6
330
1F
100
AcDbEntity
  8
0
  6
Continuous
 62
     8
370
    25
100
AcDbLine
 10
252.5130560222
 20
67.2699808541
 30
0.0
 11
252.5130560222
 21
130.7342484765
 31
0.0
  0
LINE
  5
3A7
330
1F
100
AcDbEntity
  8
0
  6
Continuous
 62
     8
370
    25
100
AcDbLine
 10
302.7206355912
 20
67.2699808541
 30
0.0
 11
302.7206355912
 21
123.0884241767
 31
0.0
  0
LINE
  5
3A8
330
1F
100
AcDbEntity
  8
0
  6
Continuous
 62
     8
370
    25
100
AcDbLine
 10
302.773196067
 20
123.0804200433
 30
0.0
 11
302.773196067
 21
67.2699808541
 31
0.0
  0
LINE
  5
3A9
330
1F
100
AcDbEntity
  8
0
  6
Continuous
 62
     8
370
    25
100
AcDbLine
 10
252.0703690003
 20
130.8016627438
 30
0.0
 11
252.0703690003
 21
67.2699808541
 31
0.0
  0
LINE
  5
3AA
330
1F
100
AcDbEntity
  8
0
  6
Continuous
 62
     8
370
    25
100
AcDbLine
 10
252.0440245888
 20
67.2699808541
 30
0.0
 11
252.0440245888
 21
130.8056745831
 31
0.0
  0
LINE
  5
3AB
330
1F
100
AcDbEntity
  8
0
  6
Continuous
 62
     8
370
    25
100
AcDbLine
 10
279.271666931
 20
235.2699808541
 30
0.0
 11
279.271666931
 21
175.8806285984
 31
0.0
  0
LINE
  5
3AC
330
1F
100
AcDbEntity
  8
0
  6
Continuous
 62
     8
370
    25
100
AcDbLine
 10
278.8947374602
 20
175.8232281714
 30
0.0
 11
278.8947374602
 21
235.2699808541
 31
0.0
  0
LINE
  5
3AD
330
1F
100
AcDbEntity
  8
0
  6
Continuous
 62
     8
370
    25
100
AcDbLine
 10
275.7139892432
 20
235.2699808541
 30
0.0
 11
275.7139892432
 21
175.3388502704
 31
0.0
  0
LINE
  5
3AE
330
1F
100
AcDbEntity
  8
0
  6
Continuous
 62
     8
370
    25
100
AcDbLine
 10
275.3374545945
 20
175.2815099685
 30
0.0
 11
275.3374545945
 21
235.2699808541
 31
0.0
  0
LINE
  5
3AF
330
1F
100
AcDbEntity
  8
0
  6
Continuous
 62
     8
370
    25
100
AcDbLine
 10
278.2613109756
 20
235.2699808541
 30
0.0
 11
278.2613109756
 21
175.7267672855
 31
0.0
  0
LINE
  5
3B0
330
1F
100
AcDbEntity
  8
0
  6
Continuous
 62
     8
370
    25
100
AcDbLine
 10
276.3552901183
 20
175.4365103021
 30
0.0
 11
276.3552901183
 21
235.2699808541
 31
0.0
  0
LINE
  5
3B1
330
1F
100
AcDbEntity
  8
0
  6
Continuous
 62
     8
370
    25
100
AcDbLine
 10
281.7237290113
 20
235.2699808541
 30
0.0
 11
281.7237290113
 21
176.2540390675
 31
0.0
  0
LINE
  5
3B2
330
1F
100
AcDbEntity
  8
0
  6
Continuous
 62
     8
370
    25
100
AcDbLine
 10
282.424777587
 20
176.3607977339
 30
0.0
 11
282.424777587
 21
235.2699808541
 31
0.0
  0
LINE
  5
3B3
330
1F
100
AcDbEntity
  8
0
  6
Continuous
 62
     8
370
    25
100
AcDbLine
 10
282.7947653765
 20
235.2699808541
 30
0.0
 11
282.7947653765
 21
176.4171410521
 31
0.0
  0
LINE
  5
3B4
330
1F
100
AcDbEntity
  8
0
  6
Continuous
 62
     8
370
    25
100
AcDbLine
 10
272.1909784624
 20
235.2699808541
 30
0.0
 11
272.1909784624
 21
174.8023511667
 31
0.0
  0
LINE
  5
3B5
330
1F
100
AcDbEntity
  8
0
  6
Continuous
 62
     8
370
    25
100
AcDbLine
 10
272.8984953586
 20
174.9100948565
 30
0.0
 11
272.8984953586
 21
235.2699808541
 31
0.0
  0
LINE
  5
3B6
330
1F
100
AcDbEntity
  8
0
  6
Continuous
 62
     8
370
    25
100
AcDbLine
 10
271.8221674545
 20
174.7461870538
 30
0.0
 11
271.8221674545
 21
235.2699808541
 31
0.0
  0
LINE
  5
3B7
330
1F
100
AcDbEntity
  8
0
  6
Continuous
 62
     8
370
    25
100
AcDbLine
 10
285.1038412054
 20
235.2699808541
 30
0.0
 11
285.1038412054
 21
176.7687769651
 31
0.0
  0
LINE
  5
3B8
330
1F
100
AcDbEntity
  8
0
  6
Continuous
 62
     8
370
    25
100
AcDbLine
 10
285.8588667592
 20
176.8837554758
 30
0.0
 11
285.8588667592
 21
235.2699808541
 31
0.0
  0
LINE
  5
3B9
330
1F
100
AcDbEntity
  8
0
  6
Continuous
 62
     8
370
    25
100
AcDbLine
 10
268.7712059863
 20
235.2699808541
 30
0.0
 11
268.7712059863
 21
174.2815736323
 31
0.0
  0
LINE
  5
3BA
330
1F
100
AcDbEntity
  8
0
  6
Continuous
 62
     8
370
    25
100
AcDbLine
 10
269.531167892
 20
174.3973038717
 30
0.0
 11
269.531167892
 21
235.2699808541
 31
0.0
  0
LINE
  5
3BB
330
1F
100
AcDbEntity
  8
0
  6
Continuous
 62
     8
370
    25
100
AcDbLine
 10
286.214711476
 20
235.2699808541
 30
0.0
 11
286.214711476
 21
176.9379450266
 31
0.0
  0
LINE
  5
3BC
330
1F
100
AcDbEntity
  8
0
  6
Continuous
 62
     8
370
    25
100
AcDbLine
 10
268.4172971059
 20
174.2276788789
 30
0.0
 11
268.4172971059
 21
235.2699808541
 31
0.0
  0
LINE
  5
3BD
330
1F
100
AcDbEntity
  8
0
  6
Continuous
 62
     8
370
    25
100
AcDbLine
 10
288.3358575189
 20
235.2699808541
 30
0.0
 11
288.3358575189
 21
177.2609621905
 31
0.0
  0
LINE
  5
3BE
330
1F
100
AcDbEntity
  8
0
  6
Continuous
 62
     8
370
    25
100
AcDbLine
 10
289.1301643373
 20
177.3819226197
 30
0.0
 11
289.1301643373
 21
235.2699808541
 31
0.0
  0
LINE
  5
3BF
330
1F
100
AcDbEntity
  8
0
  6
Continuous
 62
     8
370
    25
100
AcDbLine
 10
265.5212337961
 20
235.2699808541
 30
0.0
 11
265.5212337961
 21
173.7866540094
 31
0.0
  0
LINE
  5
3C0
330
1F
100
AcDbEntity
  8
0
  6
Continuous
 62
     8
370
    25
100
AcDbLine
 10
266.3188489172
 20
173.908118241
 30
0.0
 11
266.3188489172
 21
235.2699808541
 31
0.0
  0
LINE
  5
3C1
330
1F
100
AcDbEntity
  8
0
  6
Continuous
 62
     8
370
    25
100
AcDbLine
 10
289.4649398687
 20
235.2699808541
 30
0.0
 11
289.4649398687
 21
177.4329036651
 31
0.0
  0
LINE
  5
3C2
330
1F
100
AcDbEntity
  8
0
  6
Continuous
 62
     8
370
    25
100
AcDbLine
 10
265.189115477
 20
173.7360776156
 30
0.0
 11
265.189115477
 21
235.2699808541
 31
0.0
  0
LINE
  5
3C3
330
1F
100
AcDbEntity
  8
0
  6
Continuous
 62
     8
370
    25
100
AcDbLine
 10
291.3568704308
 20
235.2699808541
 30
0.0
 11
291.3568704308
 21
177.7210149182
 31
0.0
  0
LINE
  5
3C4
330
1F
100
AcDbEntity
  8
0
  6
Continuous
 62
     8
370
    25
100
AcDbLine
 10
292.1749982349
 20
177.8456029087
 30
0.0
 11
292.1749982349
 21
235.2699808541
 31
0.0
  0
LINE
  5
3C5
330
1F
100
AcDbEntity
  8
0
  6
Continuous
 62
     8
370
    25
100
AcDbLine
 10
262.5043189036
 20
235.2699808541
 30
0.0
 11
262.5043189036
 21
173.3272253456
 31
0.0
  0
LINE
  5
3C6
330
1F
100
AcDbEntity
  8
0
  6
Continuous
 62
     8
370
    25
100
AcDbLine
 10
263.3240625691
 20
173.4520594063
 30
0.0
 11
263.3240625691
 21
235.2699808541
 31
0.0
  0
LINE
  5
3C7
330
1F
100
AcDbEntity
  8
0
  6
Continuous
 62
     8
370
    25
100
AcDbLine
 10
292.482188556
 20
235.2699808541
 30
0.0
 11
292.482188556
 21
177.8923831606
 31
0.0
  0
LINE
  5
3C8
330
1F
100
AcDbEntity
  8
0
  6
Continuous
 62
     8
370
    25
100
AcDbLine
 10
262.2004554511
 20
173.2809517233
 30
0.0
 11
262.2004554511
 21
235.2699808541
 31
0.0
  0
LINE
  5
3C9
330
1F
100
AcDbEntity
  8
0
  6
Continuous
 62
     8
370
    25
100
AcDbLine
 10
294.108079361
 20
235.2699808541
 30
0.0
 11
294.108079361
 21
178.1399807451
 31
0.0
  0
LINE
  5
3CA
330
1F
100
AcDbEntity
  8
0
  6
Continuous
 62
     8
370
    25
100
AcDbLine
 10
294.9341042238
 20
178.2657713334
 30
0.0
 11
294.9341042238
 21
235.2699808541
 31
0.0
  0
LINE
  5
3CB
330
1F
100
AcDbEntity
  8
0
  6
Continuous
 62
     8
370
    25
100
AcDbLine
 10
259.7791821257
 20
235.2699808541
 30
0.0
 11
259.7791821257
 21
172.9122298971
 31
0.0
  0
LINE
  5
3CC
330
1F
100
AcDbEntity
  8
0
  6
Continuous
 62
     8
370
    25
100
AcDbLine
 10
260.6050989575
 20
173.038004034
 30
0.0
 11
260.6050989575
 21
235.2699808541
 31
0.0
  0
LINE
  5
3CD
330
1F
100
AcDbEntity
  8
0
  6
Continuous
 62
     8
370
    25
100
AcDbLine
 10
295.2077302244
 20
235.2699808541
 30
0.0
 11
295.2077302244
 21
178.3074402675
 31
0.0
  0
LINE
  5
3CE
330
1F
100
AcDbEntity
  8
0
  6
Continuous
 62
     8
370
    25
100
AcDbLine
 10
259.5094878963
 20
172.8711597099
 30
0.0
 11
259.5094878963
 21
235.2699808541
 31
0.0
  0
LINE
  5
3CF
330
1F
100
AcDbEntity
  8
0
  6
Continuous
 62
     8
370
    25
100
AcDbLine
 10
296.535935157
 20
235.2699808541
 30
0.0
 11
296.535935157
 21
178.5097049781
 31
0.0
  0
LINE
  5
3D0
330
1F
100
AcDbEntity
  8
0
  6
Continuous
 62
     8
370
    25
100
AcDbLine
 10
297.3537794442
 20
178.6342497934
 30
0.0
 11
297.3537794442
 21
235.2699808541
 31
0.0
  0
LINE
  5
3D1
330
1F
100
AcDbEntity
  8
0
  6
Continuous
 62
     8
370
    25
100
AcDbLine
 10
257.3988651498
 20
235.2699808541
 30
0.0
 11
257.3988651498
 21
172.5497450785
 31
0.0
  0
LINE
  5
3D2
330
1F
100
AcDbEntity
  8
0
  6
Continuous
 62
     8
370
    25
100
AcDbLine
 10
258.2148796164
 20
172.6740112409
 30
0.0
 11
258.2148796164
 21
235.2699808541
 31
0.0
  0
LINE
  5
3D3
330
1F
100
AcDbEntity
  8
0
  6
Continuous
 62
     8
370
    25
100
AcDbLine
 10
297.5885153055
 20
235.2699808541
 30
0.0
 11
297.5885153055
 21
178.6699963712
 31
0.0
  0
LINE
  5
3D4
330
1F
100
AcDbEntity
  8
0
  6
Continuous
 62
     8
370
    25
100
AcDbLine
 10
257.1685894348
 20
172.5146777107
 30
0.0
 11
257.1685894348
 21
235.2699808541
 31
0.0
  0
LINE
  5
3D5
330
1F
100
AcDbEntity
  8
0
  6
Continuous
 62
     8
370
    25
100
AcDbLine
 10
298.5931823676
 20
235.2699808541
 30
0.0
 11
298.5931823676
 21
178.8229913553
 31
0.0
  0
LINE
  5
3D6
330
1F
100
AcDbEntity
  8
0
  6
Continuous
 62
     8
370
    25
100
AcDbLine
 10
299.3869276704
 20
178.9438662745
 30
0.0
 11
299.3869276704
 21
235.2699808541
 31
0.0
  0
LINE
  5
3D7
330
1F
100
AcDbEntity
  8
0
  6
Continuous
 62
     8
370
    25
100
AcDbLine
 10
255.4096981384
 20
235.2699808541
 30
0.0
 11
255.4096981384
 21
172.2468262442
 31
0.0
  0
LINE
  5
3D8
330
1F
100
AcDbEntity
  8
0
  6
Continuous
 62
     8
370
    25
100
AcDbLine
 10
256.1999274462
 20
172.3671657328
 30
0.0
 11
256.1999274462
 21
235.2699808541
 31
0.0
  0
LINE
  5
3D9
330
1F
100
AcDbEntity
  8
0
  6
Continuous
 62
     8
370
    25
100
AcDbLine
 10
299.5782045258
 20
235.2699808541
 30
0.0
 11
299.5782045258
 21
178.9729947296
 31
0.0
  0
LINE
  5
3DA
330
1F
100
AcDbEntity
  8
0
  6
Continuous
 62
     8
370
    25
100
AcDbLine
 10
255.2233229927
 20
172.2184442424
 30
0.0
 11
255.2233229927
 21
235.2699808541
 31
0.0
  0
LINE
  5
3DB
330
1F
100
AcDbEntity
  8
0
  6
Continuous
 62
     8
370
    25
100
AcDbLine
 10
300.2397790158
 20
235.2699808541
 30
0.0
 11
300.2397790158
 21
179.0737421139
 31
0.0
  0
LINE
  5
3DC
330
1F
100
AcDbEntity
  8
0
  6
Continuous
 62
     8
370
    25
100
AcDbLine
 10
300.9939759847
 20
179.1885944442
 30
0.0
 11
300.9939759847
 21
235.2699808541
 31
0.0
  0
LINE
  5
3DD
330
1F
100
AcDbEntity
  8
0
  6
Continuous
 62
     8
370
    25
100
AcDbLine
 10
254.5994611992
 20
172.1234399083
 30
0.0
 11
254.5994611992
 21
235.2699808541
 31
0.0
  0
LINE
  5
3DE
330
1F
100
AcDbEntity
  8
0
  6
Continuous
 62
     8
370
    25
100
AcDbLine
 10
253.8503979646
 20
235.2699808541
 30
0.0
 11
253.8503979646
 21
172.009369365
 31
0.0
  0
LINE
  5
3DF
330
1F
100
AcDbEntity
  8
0
  6
Continuous
 62
     8
370
    25
100
AcDbLine
 10
301.1380708478
 20
235.2699808541
 30
0.0
 11
301.1380708478
 21
179.2105378244
 31
0.0
  0
LINE
  5
3E0
330
1F
100
AcDbEntity
  8
0
  6
Continuous
 62
     8
370
    25
100
AcDbLine
 10
253.7115509685
 20
171.9882251524
 30
0.0
 11
253.7115509685
 21
235.2699808541
 31
0.0
  0
LINE
  5
3E1
330
1F
100
AcDbEntity
  8
0
  6
Continuous
 62
     8
370
    25
100
AcDbLine
 10
301.4436759709
 20
235.2699808541
 30
0.0
 11
301.4436759709
 21
179.2570766756
 31
0.0
  0
LINE
  5
3E2
330
1F
100
AcDbEntity
  8
0
  6
Continuous
 62
     8
370
    25
100
AcDbLine
 10
302.1436450198
 20
179.363670947
 30
0.0
 11
302.1436450198
 21
235.2699808541
 31
0.0
  0
LINE
  5
3E3
330
1F
100
AcDbEntity
  8
0
  6
Continuous
 62
     8
370
    25
100
AcDbLine
 10
253.4446321302
 20
171.9475776136
 30
0.0
 11
253.4446321302
 21
235.2699808541
 31
0.0
  0
LINE
  5
3E4
330
1F
100
AcDbEntity
  8
0
  6
Continuous
 62
     8
370
    25
100
AcDbLine
 10
252.7513146327
 20
235.2699808541
 30
0.0
 11
252.7513146327
 21
171.8419962688
 31
0.0
  0
LINE
  5
3E5
330
1F
100
AcDbEntity
  8
0
  6
Continuous
 62
     8
370
    25
100
AcDbLine
 10
302.237753248
 20
235.2699808541
 30
0.0
 11
302.237753248
 21
179.3780021493
 31
0.0
  0
LINE
  5
3E6
330
1F
100
AcDbEntity
  8
0
  6
Continuous
 62
     8
370
    25
100
AcDbLine
 10
252.662698285
 20
171.8285013935
 30
0.0
 11
252.662698285
 21
235.2699808541
 31
0.0
  0
LINE
  5
3E7
330
1F
100
AcDbEntity
  8
0
  6
Continuous
 62
     8
370
    25
100
AcDbLine
 10
302.8135577756
 20
179.4656881179
 30
0.0
 11
302.8135577756
 21
235.2699808541
 31
0.0
  0
LINE
  5
3E8
330
1F
100
AcDbEntity
  8
0
  6
Continuous
 62
     8
370
    25
100
AcDbLine
 10
252.1338405495
 20
235.2699808541
 30
0.0
 11
252.1338405495
 21
171.7479646825
 31
0.0
  0
LINE
  5
3E9
330
1F
100
AcDbEntity
  8
0
  6
Continuous
 62
     8
370
    25
100
AcDbLine
 10
302.8558476593
 20
235.2699808541
 30
0.0
 11
302.8558476593
 21
179.4721282017
 31
0.0
  0
LINE
  5
3EA
330
1F
100
AcDbEntity
  8
0
  6
Continuous
 62
     8
370
    25
100
AcDbLine
 10
252.0971796666
 20
171.7423818069
 30
0.0
 11
252.0971796666
 21
235.2699808541
 31
0.0
  0
SPLINE
  5
3EB
330
1F
100
AcDbEntity
  8
0
  6
Continuous
 62
     8
370
    25
100
AcDbSpline
210
0.0
220
0.0
230
1.0
 70
     8
 71
     3
 72
    35
 73
    31
 74
     0
 42
0.00000001
 43
0.00000001
 40
0.0
 40
0.0
 40
0.0
 40
0.0
 40
0.0758826136548032
 40
0.1525444881865761
 40
0.1834484049865256
 40
0.214482186171136
 40
0.2456472208252344
 40
0.2769448805530909
 40
0.3083765195923425
 40
0.3745048827017206
 40
0.4427791231615493
 40
0.4660259352612099
 40
0.4895129572730741
 40
0.5132405358892523
 40
0.537209007334228
 40
0.5614186977668997
 40
0.5858699236641738
 40
0.6450852277482004
 40
0.7084590478425482
 40
0.7232636178419128
 40
0.7382781530709128
 40
0.7535026815256658
 40
0.7689372300391809
 40
0.7845818243433968
 40
0.8004364891271286
 40
0.8165012480902423
 40
0.8524736613250531
 40
0.8950482550734391
 40
0.9442240868171908
 40
0.9999999999999999
 40
0.9999999999999999
 40
0.9999999999999999
 40
0.9999999999999999
 10
248.9950800761959
 20
132.1292253821081
 30
0.0
 10
249.0333117508823
 20
132.1234986348936
 30
0.0
 10
249.1101677125666
 20
132.1119863308132
 30
0.0
 10
249.6121676519375
 20
132.0378863479165
 30
0.0
 10
250.1403469883952
 20
131.9603542357916
 30
0.0
 10
250.5605158751661
 20
131.8987500214936
 30
0.0
 10
251.0449846275088
 20
131.8277556725364
 30
0.0
 10
251.5939928743088
 20
131.7472705710121
 30
0.0
 10
252.4312843731965
 20
131.6243851252656
 30
0.0
 10
253.6733766061208
 20
131.4414162017024
 30
0.0
 10
255.0559706704194
 20
131.2379812705412
 30
0.0
 10
256.1559933988771
 20
131.0763933067905
 30
0.0
 10
256.8578693001335
 20
130.9733536507124
 30
0.0
 10
257.5943947856716
 20
130.8652728267602
 30
0.0
 10
258.3653898993689
 20
130.7521494577829
 30
0.0
 10
259.1705854265413
 20
130.6339770313282
 30
0.0
 10
260.4043697648719
 20
130.4528053073992
 30
0.0
 10
262.1714017682322
 20
130.1926502742245
 30
0.0
 10
263.9244205135687
 20
129.934869858254
 30
0.0
 10
265.149588466762
 20
129.7549437414826
 30
0.0
 10
265.7482722298927
 20
129.6670513543002
 30
0.0
 10
266.3616527841469
 20
129.577024064127
 30
0.0
 10
266.9896620047602
 20
129.4848588381314
 30
0.0
 10
267.6321865591451
 20
129.390559076099
 30
0.0
 10
268.2890931805306
 20
129.2941140200831
 30
0.0
 10
269.2344838643264
 20
129.1552855106863
 30
0.0
 10
270.5684085032466
 20
128.9587964234514
 30
0.0
 10
272.3966021108332
 20
128.6897290262948
 30
0.0
 10
274.535531554967
 20
128.3758897791192
 30
0.0
 10
276.0710851198341
 20
128.1505134552884
 30
0.0
 10
276.8871449421982
 20
128.0307386932753
 30
0.0
  0
SPLINE
  5
3EC
330
1F
100
AcDbEntity
  8
0
  6
Continuous
 62
     8
370
    25
100
AcDbSpline
210
0.0
220
0.0
230
1.0
 70
     8
 71
     3
 72
    27
 73
    23
 74
     0
 42
0.00000001
 43
0.00000001
 40
0.0
 40
0.0
 40
0.0
 40
0.0
 40
0.0412263245996633
 40
0.0771396837302698
 40
0.1077395428399688
 40
0.1409730372076478
 40
0.1791868049688478
 40
0.2152166496924035
 40
0.2490626789925675
 40
0.3212640871994427
 40
0.3900645357361309
 40
0.4232006478072122
 40
0.4554871920645037
 40
0.4869247644589434
 40
0.5175140119006348
 40
0.5866217688797101
 40
0.6542050792850993
 40
0.7202735486847421
 40
0.7848374658880422
 40
0.8677024268412462
 40
0.9498743555825535
 40
1.0
 40
1.0
 40
1.0
 40
1.0
 10
276.8871449421982
 20
174.5092230148552
 30
0.0
 10
276.3023859310316
 20
174.423339813401
 30
0.0
 10
275.2082276324722
 20
174.2626414474357
 30
0.0
 10
273.6877807652972
 20
174.0393223130567
 30
0.0
 10
272.2894957493671
 20
173.8336363700691
 30
0.0
 10
270.871198020376
 20
173.6252445696044
 30
0.0
 10
269.3957100521092
 20
173.4085214174029
 30
0.0
 10
267.9356655363967
 20
173.1939520214562
 30
0.0
 10
266.0515657111462
 20
172.9169444058882
 30
0.0
 10
263.8056973846178
 20
172.5874878396917
 30
0.0
 10
261.6932104084249
 20
172.2774273455111
 30
0.0
 10
260.1476637213014
 20
172.0501731457038
 30
0.0
 10
259.0729293664024
 20
171.8919989522698
 30
0.0
 10
258.067506768045
 20
171.7439580351815
 30
0.0
 10
256.7283356990117
 20
171.5469721977834
 30
0.0
 10
255.1455038821327
 20
171.3147561071337
 30
0.0
 10
253.458822785791
 20
171.0671245749587
 30
0.0
 10
252.0497971679998
 20
170.8598422456825
 30
0.0
 10
250.7957910393176
 20
170.6752079698976
 30
0.0
 10
249.8042933455858
 20
170.529889539646
 30
0.0
 10
249.1866770412583
 20
170.4390964233193
 30
0.0
 10
249.1079651213167
 20
170.427428224931
 30
0.0
 10
249.078142308878
 20
170.423007312669
 30
0.0
  0
ENDSEC
  0
SECTION
  2
OBJECTS
  0
DICTIONARY
  5
C
330
0
100
AcDbDictionary
281
     1
  3
ACAD_GROUP
350
D
  3
ACAD_LAYOUT
350
1A
  3
ACAD_MLINESTYLE
350
17
  3
ACAD_PLOTSETTINGS
350
19
  3
ACAD_PLOTSTYLENAME
350
E
  3
ACAD_SCALELIST
350
47
  3
DWGPROPS
350
3ED
  0
DICTIONARY
  5
D
102
{ACAD_REACTORS
330
C
102
}
330
C
100
AcDbDictionary
281
     1
  0
DICTIONARY
  5
1A
102
{ACAD_REACTORS
330
C
102
}
330
C
100
AcDbDictionary
281
     1
  3
Layout1
350
1E
  3
Layout2
350
26
  3
Model
350
22
  0
DICTIONARY
  5
17
102
{ACAD_REACTORS
330
C
102
}
330
C
100
AcDbDictionary
281
     1
  3
Standard
350
18
  0
DICTIONARY
  5
19
102
{ACAD_REACTORS
330
C
102
}
330
C
100
AcDbDictionary
281
     1
  0
ACDBDICTIONARYWDFLT
  5
E
102
{ACAD_REACTORS
330
C
102
}
330
C
100
AcDbDictionary
281
     1
  3
Normal
350
F
100
AcDbDictionaryWithDefault
340
F
  0
DICTIONARY
  5
47
102
{ACAD_REACTORS
330
C
102
}
330
C
100
AcDbDictionary
281
     1
  3
A0
350
48
  3
A1
350
49
  3
A2
350
4A
  3
A3
350
4B
  3
A4
350
4C
  3
A5
350
4D
  3
A6
350
4E
  3
A7
350
4F
  3
A8
350
50
  3
A9
350
51
  3
B0
350
52
  3
B1
350
53
  3
B2
350
54
  3
B3
350
55
  3
B4
350
56
  3
B5
350
57
  3
B6
350
58
  3
B7
350
59
  3
B8
350
5A
  3
B9
350
5B
  3
C0
350
5C
  3
C1
350
5D
  3
C2
350
5E
  3
C3
350
5F
  3
C4
350
60
  3
C5
350
61
  3
C6
350
62
  3
C7
350
63
  3
C8
350
64
  3
C9
350
65
  3
D0
350
66
  3
D1
350
67
  3
D2
350
68
  0
XRECORD
  5
3ED
102
{ACAD_REACTORS
330
C
102
}
330
C
100
AcDbXrecord
280
     1
  1
DWGPROPS COOKIE
  2

  3

  4

  6

  7

  8
ttorun
  9

300
=
301
=
302
=
303
=
304
=
305
=
306
=
307
=
308
=
309
=
 40
0.0
 41
2460368.726999213
 42
2460368.726999618
  1

 90
        0
  0
LAYOUT
  5
1E
102
{ACAD_REACTORS
330
1A
102
}
330
1A
100
AcDbPlotSettings
  1

  2
none_device
  4

  6

 40
0.0
 41
0.0
 42
0.0
 43
0.0
 44
0.0
 45
0.0
 46
0.0
 47
0.0
 48
0.0
 49
0.0
140
0.0
141
0.0
142
1.0
143
1.0
 70
   688
 72
     1
 73
     0
 74
     5
  7

 75
    16
147
1.0
148
0.0
149
0.0
100
AcDbLayout
  1
Layout1
 70
     1
 71
     1
 10
0.0
 20
0.0
 11
420.0
 21
297.0
 12
0.0
 22
0.0
 32
0.0
 14
1.0000000000E+20
 24
1.0000000000E+20
 34
1.0000000000E+20
 15
-1.0000000000E+20
 25
-1.0000000000E+20
 35
-1.0000000000E+20
146
0.0
 13
0.0
 23
0.0
 33
0.0
 16
1.0
 26
0.0
 36
0.0
 17
0.0
 27
1.0
 37
0.0
 76
     0
330
1B
  0
LAYOUT
  5
26
102
{ACAD_REACTORS
330
1A
102
}
330
1A
100
AcDbPlotSettings
  1

  2
none_device
  4

  6

 40
0.0
 41
0.0
 42
0.0
 43
0.0
 44
0.0
 45
0.0
 46
0.0
 47
0.0
 48
0.0
 49
0.0
140
0.0
141
0.0
142
1.0
143
1.0
 70
   688
 72
     1
 73
     0
 74
     5
  7

 75
    16
147
1.0
148
0.0
149
0.0
100
AcDbLayout
  1
Layout2
 70
     1
 71
     2
 10
0.0
 20
0.0
 11
0.0
 21
0.0
 12
0.0
 22
0.0
 32
0.0
 14
0.0
 24
0.0
 34
0.0
 15
0.0
 25
0.0
 35
0.0
146
0.0
 13
0.0
 23
0.0
 33
0.0
 16
1.0
 26
0.0
 36
0.0
 17
0.0
 27
1.0
 37
0.0
 76
     0
330
23
  0
LAYOUT
  5
22
102
{ACAD_REACTORS
330
1A
102
}
330
1A
100
AcDbPlotSettings
  1

  2
none_device
  4
Letter_(8.50_x_11.00_Inches)
  6

 40
6.35
 41
6.35
 42
6.35000508
 43
6.35000508
 44
215.9
 45
279.4
 46
0.0
 47
0.0
 48
0.0
 49
0.0
140
0.0
141
0.0
142
1.0
143
1.0
 70
  1712
 72
     1
 73
     0
 74
     0
  7

 75
     0
147
1.0
148
0.0
149
0.0
100
AcDbLayout
  1
Model
 70
     1
 71
     0
 10
0.0
 20
0.0
 11
420.0
 21
297.0
 12
0.0
 22
0.0
 32
0.0
 14
0.0
 24
0.0
 34
0.0
 15
420.0
 25
297.0
 35
0.0
146
0.0
 13
0.0
 23
0.0
 33
0.0
 16
1.0
 26
0.0
 36
0.0
 17
0.0
 27
1.0
 37
0.0
 76
     0
330
1F
331
29
  0
MLINESTYLE
  5
18
102
{ACAD_REACTORS
330
17
102
}
330
17
100
AcDbMlineStyle
  2
Standard
 70
     0
  3

 62
   256
 51
90.0
 52
90.0
 71
     2
 49
0.5
 62
   256
  6
BYLAYER
 49
-0.5
 62
   256
  6
BYLAYER
  0
ACDBPLACEHOLDER
  5
F
102
{ACAD_REACTORS
330
E
102
}
330
E
  0
SCALE
  5
48
102
{ACAD_REACTORS
330
47
102
}
330
47
100
AcDbScale
 70
     0
300
1:1
140
1.0
141
1.0
290
     1
  0
SCALE
  5
49
102
{ACAD_REACTORS
330
47
102
}
330
47
100
AcDbScale
 70
     0
300
1:2
140
1.0
141
2.0
290
     0
  0
SCALE
  5
4A
102
{ACAD_REACTORS
330
47
102
}
330
47
100
AcDbScale
 70
     0
300
1:4
140
1.0
141
4.0
290
     0
  0
SCALE
  5
4B
102
{ACAD_REACTORS
330
47
102
}
330
47
100
AcDbScale
 70
     0
300
1:5
140
1.0
141
5.0
290
     0
  0
SCALE
  5
4C
102
{ACAD_REACTORS
330
47
102
}
330
47
100
AcDbScale
 70
     0
300
1:8
140
1.0
141
8.0
290
     0
  0
SCALE
  5
4D
102
{ACAD_REACTORS
330
47
102
}
330
47
100
AcDbScale
 70
     0
300
1:10
140
1.0
141
10.0
290
     0
  0
SCALE
  5
4E
102
{ACAD_REACTORS
330
47
102
}
330
47
100
AcDbScale
 70
     0
300
1:16
140
1.0
141
16.0
290
     0
  0
SCALE
  5
4F
102
{ACAD_REACTORS
330
47
102
}
330
47
100
AcDbScale
 70
     0
300
1:20
140
1.0
141
20.0
290
     0
  0
SCALE
  5
50
102
{ACAD_REACTORS
330
47
102
}
330
47
100
AcDbScale
 70
     0
300
1:30
140
1.0
141
30.0
290
     0
  0
SCALE
  5
51
102
{ACAD_REACTORS
330
47
102
}
330
47
100
AcDbScale
 70
     0
300
1:40
140
1.0
141
40.0
290
     0
  0
SCALE
  5
52
102
{ACAD_REACTORS
330
47
102
}
330
47
100
AcDbScale
 70
     0
300
1:50
140
1.0
141
50.0
290
     0
  0
SCALE
  5
53
102
{ACAD_REACTORS
330
47
102
}
330
47
100
AcDbScale
 70
     0
300
1:100
140
1.0
141
100.0
290
     0
  0
SCALE
  5
54
102
{ACAD_REACTORS
330
47
102
}
330
47
100
AcDbScale
 70
     0
300
2:1
140
2.0
141
1.0
290
     0
  0
SCALE
  5
55
102
{ACAD_REACTORS
330
47
102
}
330
47
100
AcDbScale
 70
     0
300
4:1
140
4.0
141
1.0
290
     0
  0
SCALE
  5
56
102
{ACAD_REACTORS
330
47
102
}
330
47
100
AcDbScale
 70
     0
300
8:1
140
8.0
141
1.0
290
     0
  0
SCALE
  5
57
102
{ACAD_REACTORS
330
47
102
}
330
47
100
AcDbScale
 70
     0
300
10:1
140
10.0
141
1.0
290
     0
  0
SCALE
  5
58
102
{ACAD_REACTORS
330
47
102
}
330
47
100
AcDbScale
 70
     0
300
100:1
140
100.0
141
1.0
290
     0
  0
SCALE
  5
59
102
{ACAD_REACTORS
330
47
102
}
330
47
100
AcDbScale
 70
     0
300
1/128" = 1'-0"
140
0.0078125
141
12.0
290
     0
  0
SCALE
  5
5A
102
{ACAD_REACTORS
330
47
102
}
330
47
100
AcDbScale
 70
     0
300
1/64" = 1'-0"
140
0.015625
141
12.0
290
     0
  0
SCALE
  5
5B
102
{ACAD_REACTORS
330
47
102
}
330
47
100
AcDbScale
 70
     0
300
1/32" = 1'-0"
140
0.03125
141
12.0
290
     0
  0
SCALE
  5
5C
102
{ACAD_REACTORS
330
47
102
}
330
47
100
AcDbScale
 70
     0
300
1/16" = 1'-0"
140
0.0625
141
12.0
290
     0
  0
SCALE
  5
5D
102
{ACAD_REACTORS
330
47
102
}
330
47
100
AcDbScale
 70
     0
300
3/32" = 1'-0"
140
0.09375
141
12.0
290
     0
  0
SCALE
  5
5E
102
{ACAD_REACTORS
330
47
102
}
330
47
100
AcDbScale
 70
     0
300
1/8" = 1'-0"
140
0.125
141
12.0
290
     0
  0
SCALE
  5
5F
102
{ACAD_REACTORS
330
47
102
}
330
47
100
AcDbScale
 70
     0
300
3/16" = 1'-0"
140
0.1875
141
12.0
290
     0
  0
SCALE
  5
60
102
{ACAD_REACTORS
330
47
102
}
330
47
100
AcDbScale
 70
     0
300
1/4" = 1'-0"
140
0.25
141
12.0
290
     0
  0
SCALE
  5
61
102
{ACAD_REACTORS
330
47
102
}
330
47
100
AcDbScale
 70
     0
300
3/8" = 1'-0"
140
0.375
141
12.0
290
     0
  0
SCALE
  5
62
102
{ACAD_REACTORS
330
47
102
}
330
47
100
AcDbScale
 70
     0
300
1/2" = 1'-0"
140
0.5
141
12.0
290
     0
  0
SCALE
  5
63
102
{ACAD_REACTORS
330
47
102
}
330
47
100
AcDbScale
 70
     0
300
3/4" = 1'-0"
140
0.75
141
12.0
290
     0
  0
SCALE
  5
64
102
{ACAD_REACTORS
330
47
102
}
330
47
100
AcDbScale
 70
     0
300
1" = 1'-0"
140
1.0
141
12.0
290
     0
  0
SCALE
  5
65
102
{ACAD_REACTORS
330
47
102
}
330
47
100
AcDbScale
 70
     0
300
1-1/2" = 1'-0"
140
1.5
141
12.0
290
     0
  0
SCALE
  5
66
102
{ACAD_REACTORS
330
47
102
}
330
47
100
AcDbScale
 70
     0
300
3" = 1'-0"
140
3.0
141
12.0
290
     0
  0
SCALE
  5
67
102
{ACAD_REACTORS
330
47
102
}
330
47
100
AcDbScale
 70
     0
300
6" = 1'-0"
140
6.0
141
12.0
290
     0
  0
SCALE
  5
68
102
{ACAD_REACTORS
330
47
102
}
330
47
100
AcDbScale
 70
     0
300
1'-0" = 1'-0"
140
12.0
141
12.0
290
     0
  0
ENDSEC
  0
EOF
