  0
SECTION
  2
HEADER
  9
$ACADVER
  1
AC1018
  9
$ACADMAINTVER
 70
     0
  9
$DWGCODEPAGE
  3
ANSI_1252
  9
$INSBASE
 10
0.0
 20
0.0
 30
0.0
  9
$EXTMIN
 10
1.000000000000000E+20
 20
1.000000000000000E+20
 30
1.000000000000000E+20
  9
$EXTMAX
 10
-1.000000000000000E+20
 20
-1.000000000000000E+20
 30
-1.000000000000000E+20
  9
$LIMMIN
 10
0.0
 20
0.0
  9
$LIMMAX
 10
12.0
 20
9.0
  9
$ORTHOMODE
 70
     0
  9
$REGENMODE
 70
     1
  9
$FILLMODE
 70
     1
  9
$QTEXTMODE
 70
     0
  9
$MIRRTEXT
 70
     1
  9
$LTSCALE
 40
1.0
  9
$ATTMODE
 70
     1
  9
$TEXTSIZE
 40
0.2
  9
$TRACEWID
 40
0.05
  9
$TEXTSTYLE
  7
Standard
  9
$CLAYER
  8
0
  9
$CELTYPE
  6
ByLayer
  9
$CECOLOR
 62
   256
  9
$CELTSCALE
 40
1.0
  9
$DISPSILH
 70
     0
  9
$DIMSCALE
 40
1.0
  9
$DIMASZ
 40
0.18
  9
$DIMEXO
 40
0.0625
  9
$DIMDLI
 40
0.38
  9
$DIMRND
 40
0.0
  9
$DIMDLE
 40
0.0
  9
$DIMEXE
 40
0.18
  9
$DIMTP
 40
0.0
  9
$DIMTM
 40
0.0
  9
$DIMTXT
 40
0.18
  9
$DIMCEN
 40
0.09
  9
$DIMTSZ
 40
0.0
  9
$DIMTOL
 70
     0
  9
$DIMLIM
 70
     0
  9
$DIMTIH
 70
     1
  9
$DIMTOH
 70
     1
  9
$DIMSE1
 70
     0
  9
$DIMSE2
 70
     0
  9
$DIMTAD
 70
     0
  9
$DIMZIN
 70
     0
  9
$DIMBLK
  1

  9
$DIMASO
 70
     1
  9
$DIMSHO
 70
     1
  9
$DIMPOST
  1

  9
$DIMAPOST
  1

  9
$DIMALT
 70
     0
  9
$DIMALTD
 70
     2
  9
$DIMALTF
 40
25.4
  9
$DIMLFAC
 40
1.0
  9
$DIMTOFL
 70
     0
  9
$DIMTVP
 40
0.0
  9
$DIMTIX
 70
     0
  9
$DIMSOXD
 70
     0
  9
$DIMSAH
 70
     0
  9
$DIMBLK1
  1

  9
$DIMBLK2
  1

  9
$DIMSTYLE
  2
Standard
  9
$DIMCLRD
 70
     0
  9
$DIMCLRE
 70
     0
  9
$DIMCLRT
 70
     0
  9
$DIMTFAC
 40
1.0
  9
$DIMGAP
 40
0.09
  9
$DIMJUST
 70
     0
  9
$DIMSD1
 70
     0
  9
$DIMSD2
 70
     0
  9
$DIMTOLJ
 70
     1
  9
$DIMTZIN
 70
     0
  9
$DIMALTZ
 70
     0
  9
$DIMALTTZ
 70
     0
  9
$DIMUPT
 70
     0
  9
$DIMDEC
 70
     4
  9
$DIMTDEC
 70
     4
  9
$DIMALTU
 70
     2
  9
$DIMALTTD
 70
     2
  9
$DIMTXSTY
  7
Standard
  9
$DIMAUNIT
 70
     0
  9
$DIMADEC
 70
     0
  9
$DIMALTRND
 40
0.0
  9
$DIMAZIN
 70
     0
  9
$DIMDSEP
 70
    46
  9
$DIMATFIT
 70
     3
  9
$DIMFRAC
 70
     0
  9
$DIMLDRBLK
  1

  9
$DIMLUNIT
 70
     2
  9
$DIMLWD
 70
    -2
  9
$DIMLWE
 70
    -2
  9
$DIMTMOVE
 70
     0
  9
$LUNITS
 70
     2
  9
$LUPREC
 70
     4
  9
$SKETCHINC
 40
0.1
  9
$FILLETRAD
 40
0.5
  9
$AUNITS
 70
     0
  9
$AUPREC
 70
     0
  9
$MENU
  1
.
  9
$ELEVATION
 40
0.0
  9
$PELEVATION
 40
0.0
  9
$THICKNESS
 40
0.0
  9
$LIMCHECK
 70
     0
  9
$CHAMFERA
 40
0.5
  9
$CHAMFERB
 40
0.5
  9
$CHAMFERC
 40
1.0
  9
$CHAMFERD
 40
0.0
  9
$SKPOLY
 70
     0
  9
$TDCREATE
 40
2457560.476461933
  9
$TDUCREATE
 40
2457560.3931286
  9
$TDUPDATE
 40
2457560.476461945
  9
$TDUUPDATE
 40
2457560.393128611
  9
$TDINDWG
 40
0.0000000116
  9
$TDUSRTIMER
 40
0.0000000116
  9
$USRTIMER
 70
     1
  9
$ANGBASE
 50
0.0
  9
$ANGDIR
 70
     0
  9
$PDMODE
 70
     0
  9
$PDSIZE
 40
0.0
  9
$PLINEWID
 40
0.0
  9
$SPLFRAME
 70
     0
  9
$SPLINETYPE
 70
     6
  9
$SPLINESEGS
 70
     8
  9
$HANDSEED
  5
845
  9
$SURFTAB1
 70
     6
  9
$SURFTAB2
 70
     6
  9
$SURFTYPE
 70
     6
  9
$SURFU
 70
     6
  9
$SURFV
 70
     6
  9
$UCSBASE
  2

  9
$UCSNAME
  2

  9
$UCSORG
 10
0.0
 20
0.0
 30
0.0
  9
$UCSXDIR
 10
1.0
 20
0.0
 30
0.0
  9
$UCSYDIR
 10
0.0
 20
1.0
 30
0.0
  9
$UCSORTHOREF
  2

  9
$UCSORTHOVIEW
 70
     0
  9
$UCSORGTOP
 10
0.0
 20
0.0
 30
0.0
  9
$UCSORGBOTTOM
 10
0.0
 20
0.0
 30
0.0
  9
$UCSORGLEFT
 10
0.0
 20
0.0
 30
0.0
  9
$UCSORGRIGHT
 10
0.0
 20
0.0
 30
0.0
  9
$UCSORGFRONT
 10
0.0
 20
0.0
 30
0.0
  9
$UCSORGBACK
 10
0.0
 20
0.0
 30
0.0
  9
$PUCSBASE
  2

  9
$PUCSNAME
  2

  9
$PUCSORG
 10
0.0
 20
0.0
 30
0.0
  9
$PUCSXDIR
 10
1.0
 20
0.0
 30
0.0
  9
$PUCSYDIR
 10
0.0
 20
1.0
 30
0.0
  9
$PUCSORTHOREF
  2

  9
$PUCSORTHOVIEW
 70
     0
  9
$PUCSORGTOP
 10
0.0
 20
0.0
 30
0.0
  9
$PUCSORGBOTTOM
 10
0.0
 20
0.0
 30
0.0
  9
$PUCSORGLEFT
 10
0.0
 20
0.0
 30
0.0
  9
$PUCSORGRIGHT
 10
0.0
 20
0.0
 30
0.0
  9
$PUCSORGFRONT
 10
0.0
 20
0.0
 30
0.0
  9
$PUCSORGBACK
 10
0.0
 20
0.0
 30
0.0
  9
$USERI1
 70
     0
  9
$USERI2
 70
     0
  9
$USERI3
 70
     0
  9
$USERI4
 70
     0
  9
$USERI5
 70
     0
  9
$USERR1
 40
0.0
  9
$USERR2
 40
0.0
  9
$USERR3
 40
0.0
  9
$USERR4
 40
0.0
  9
$USERR5
 40
0.0
  9
$WORLDVIEW
 70
     1
  9
$SHADEDGE
 70
     3
  9
$SHADEDIF
 70
    70
  9
$TILEMODE
 70
     1
  9
$MAXACTVP
 70
    64
  9
$PINSBASE
 10
0.0
 20
0.0
 30
0.0
  9
$PLIMCHECK
 70
     0
  9
$PEXTMIN
 10
1.000000000000000E+20
 20
1.000000000000000E+20
 30
1.000000000000000E+20
  9
$PEXTMAX
 10
-1.000000000000000E+20
 20
-1.000000000000000E+20
 30
-1.000000000000000E+20
  9
$PLIMMIN
 10
0.0
 20
0.0
  9
$PLIMMAX
 10
12.0
 20
9.0
  9
$UNITMODE
 70
     0
  9
$VISRETAIN
 70
     1
  9
$PLINEGEN
 70
     0
  9
$PSLTSCALE
 70
     1
  9
$TREEDEPTH
 70
  3020
  9
$CMLSTYLE
  2
Standard
  9
$CMLJUST
 70
     0
  9
$CMLSCALE
 40
1.0
  9
$PROXYGRAPHICS
 70
     1
  9
$MEASUREMENT
 70
     0
  9
$CELWEIGHT
370
    -1
  9
$ENDCAPS
280
     0
  9
$JOINSTYLE
280
     0
  9
$LWDISPLAY
290
     1
  9
$INSUNITS
 70
     1
  9
$HYPERLINKBASE
  1

  9
$STYLESHEET
  1

  9
$XEDIT
290
     1
  9
$CEPSNTYPE
380
     0
  9
$PSTYLEMODE
290
     1
  9
$FINGERPRINTGUID
  2
{A54FA56E-9352-42A2-83A1-0438A4CE6229}
  9
$VERSIONGUID
  2
{FAEB1C32-E019-11D5-929B-00C0DF256EC4}
  9
$EXTNAMES
290
     1
  9
$PSVPSCALE
 40
0.0
  9
$OLESTARTUP
290
     0
  9
$SORTENTS
280
   127
  9
$INDEXCTL
280
     0
  9
$HIDETEXT
280
     1
  9
$XCLIPFRAME
290
     0
  9
$HALOGAP
280
     0
  9
$OBSCOLOR
 70
   257
  9
$OBSLTYPE
280
     0
  9
$INTERSECTIONDISPLAY
280
     0
  9
$INTERSECTIONCOLOR
 70
   257
  9
$DIMASSOC
280
     2
  9
$PROJECTNAME
  1

  0
ENDSEC
  0
SECTION
  2
CLASSES
  0
CLASS
  1
ACDBDICTIONARYWDFLT
  2
AcDbDictionaryWithDefault
  3
ObjectDBX Classes
 90
        0
 91
        3
280
     0
281
     0
  0
CLASS
  1
VISUALSTYLE
  2
AcDbVisualStyle
  3
ObjectDBX Classes
 90
     4095
 91
        3
280
     0
281
     0
  0
ENDSEC
  0
SECTION
  2
TABLES
  0
TABLE
  2
VPORT
  5
8
330
0
100
AcDbSymbolTable
 70
     1
  0
VPORT
  5
29
330
8
100
AcDbSymbolTableRecord
100
AcDbViewportTableRecord
  2
*Active
 70
     0
 10
0.0
 20
0.0
 11
1.0
 21
1.0
 12
0.0
 22
0.0
 13
0.0
 23
0.0
 14
0.5
 24
0.5
 15
0.5
 25
0.5
 16
0.0
 26
0.0
 36
1.0
 17
78.06775849827821
 27
90.91064383035393
 37
0.0
 40
181.8212876607079
 41
0.8587306745286998
 42
50.0
 43
0.0
 44
0.0
 50
0.0
 51
0.0
 71
     0
 72
   100
 73
     1
 74
     3
 75
     0
 76
     0
 77
     0
 78
     0
281
     0
 65
     1
110
0.0
120
0.0
130
0.0
111
1.0
121
0.0
131
0.0
112
0.0
122
1.0
132
0.0
 79
     0
146
0.0
  0
ENDTAB
  0
TABLE
  2
LTYPE
  5
5
330
0
100
AcDbSymbolTable
 70
     1
  0
LTYPE
  5
14
330
5
100
AcDbSymbolTableRecord
100
AcDbLinetypeTableRecord
  2
ByBlock
 70
     0
  3

 72
    65
 73
     0
 40
0.0
  0
LTYPE
  5
15
330
5
100
AcDbSymbolTableRecord
100
AcDbLinetypeTableRecord
  2
ByLayer
 70
     0
  3

 72
    65
 73
     0
 40
0.0
  0
LTYPE
  5
16
330
5
100
AcDbSymbolTableRecord
100
AcDbLinetypeTableRecord
  2
Continuous
 70
     0
  3
Solid line
 72
    65
 73
     0
 40
0.0
  0
ENDTAB
  0
TABLE
  2
LAYER
  5
2
330
0
100
AcDbSymbolTable
 70
     3
  0
LAYER
  5
10
330
2
100
AcDbSymbolTableRecord
100
AcDbLayerTableRecord
  2
0
 70
     0
 62
     7
  6
Continuous
370
    -3
390
F
  0
LAYER
  5
3B
330
2
100
AcDbSymbolTableRecord
100
AcDbLayerTableRecord
  2
cuerpo
 70
     0
 62
     7
  6
Continuous
370
    -3
390
F
  0
LAYER
  5
495
330
2
100
AcDbSymbolTableRecord
100
AcDbLayerTableRecord
  2
cotas
 70
     1
 62
     7
  6
Continuous
370
    -3
390
F
  0
ENDTAB
  0
TABLE
  2
STYLE
  5
3
330
0
100
AcDbSymbolTable
 70
     1
  0
STYLE
  5
11
330
3
100
AcDbSymbolTableRecord
100
AcDbTextStyleTableRecord
  2
Standard
 70
     0
 40
0.0
 41
1.0
 50
0.0
 71
     0
 42
0.2
  3
txt
  4

  0
ENDTAB
  0
TABLE
  2
VIEW
  5
6
330
0
100
AcDbSymbolTable
 70
     0
  0
ENDTAB
  0
TABLE
  2
UCS
  5
7
330
0
100
AcDbSymbolTable
 70
     0
  0
ENDTAB
  0
TABLE
  2
APPID
  5
9
330
0
100
AcDbSymbolTable
 70
     1
  0
APPID
  5
12
330
9
100
AcDbSymbolTableRecord
100
AcDbRegAppTableRecord
  2
ACAD
 70
     0
  0
ENDTAB
  0
TABLE
  2
DIMSTYLE
  5
A
330
0
100
AcDbSymbolTable
 70
     1
100
AcDbDimStyleTable
  0
DIMSTYLE
105
27
330
A
100
AcDbSymbolTableRecord
100
AcDbDimStyleTableRecord
  2
Standard
 70
     0
340
11
  0
ENDTAB
  0
TABLE
  2
BLOCK_RECORD
  5
1
330
0
100
AcDbSymbolTable
 70
   260
  0
BLOCK_RECORD
  5
1F
330
1
100
AcDbSymbolTableRecord
100
AcDbBlockTableRecord
  2
*Model_Space
340
22
  0
BLOCK_RECORD
  5
1B
330
1
100
AcDbSymbolTableRecord
100
AcDbBlockTableRecord
  2
*Paper_Space
340
1E
  0
BLOCK_RECORD
  5
23
330
1
100
AcDbSymbolTableRecord
100
AcDbBlockTableRecord
  2
*Paper_Space0
340
26
  0
BLOCK_RECORD
  5
3C
330
1
100
AcDbSymbolTableRecord
100
AcDbBlockTableRecord
  2
block 2
340
0
102
{BLKREFS
331
3D
102
}
  0
BLOCK_RECORD
  5
44
330
1
100
AcDbSymbolTableRecord
100
AcDbBlockTableRecord
  2
block 3
340
0
102
{BLKREFS
331
45
102
}
  0
BLOCK_RECORD
  5
4C
330
1
100
AcDbSymbolTableRecord
100
AcDbBlockTableRecord
  2
block 4
340
0
102
{BLKREFS
331
4D
102
}
  0
BLOCK_RECORD
  5
54
330
1
100
AcDbSymbolTableRecord
100
AcDbBlockTableRecord
  2
block 5
340
0
102
{BLKREFS
331
55
102
}
  0
BLOCK_RECORD
  5
5C
330
1
100
AcDbSymbolTableRecord
100
AcDbBlockTableRecord
  2
block 6
340
0
102
{BLKREFS
331
5D
102
}
  0
BLOCK_RECORD
  5
64
330
1
100
AcDbSymbolTableRecord
100
AcDbBlockTableRecord
  2
block 7
340
0
102
{BLKREFS
331
65
102
}
  0
BLOCK_RECORD
  5
6C
330
1
100
AcDbSymbolTableRecord
100
AcDbBlockTableRecord
  2
block 8
340
0
102
{BLKREFS
331
6D
102
}
  0
BLOCK_RECORD
  5
74
330
1
100
AcDbSymbolTableRecord
100
AcDbBlockTableRecord
  2
block 9
340
0
102
{BLKREFS
331
75
102
}
  0
BLOCK_RECORD
  5
7C
330
1
100
AcDbSymbolTableRecord
100
AcDbBlockTableRecord
  2
block 10
340
0
102
{BLKREFS
331
7D
102
}
  0
BLOCK_RECORD
  5
84
330
1
100
AcDbSymbolTableRecord
100
AcDbBlockTableRecord
  2
block 11
340
0
102
{BLKREFS
331
85
102
}
  0
BLOCK_RECORD
  5
8C
330
1
100
AcDbSymbolTableRecord
100
AcDbBlockTableRecord
  2
block 12
340
0
102
{BLKREFS
331
8D
102
}
  0
BLOCK_RECORD
  5
94
330
1
100
AcDbSymbolTableRecord
100
AcDbBlockTableRecord
  2
block 13
340
0
102
{BLKREFS
331
95
102
}
  0
BLOCK_RECORD
  5
9C
330
1
100
AcDbSymbolTableRecord
100
AcDbBlockTableRecord
  2
block 14
340
0
102
{BLKREFS
331
9D
102
}
  0
BLOCK_RECORD
  5
A4
330
1
100
AcDbSymbolTableRecord
100
AcDbBlockTableRecord
  2
block 15
340
0
102
{BLKREFS
331
A5
102
}
  0
BLOCK_RECORD
  5
AC
330
1
100
AcDbSymbolTableRecord
100
AcDbBlockTableRecord
  2
block 16
340
0
102
{BLKREFS
331
AD
102
}
  0
BLOCK_RECORD
  5
B4
330
1
100
AcDbSymbolTableRecord
100
AcDbBlockTableRecord
  2
block 17
340
0
102
{BLKREFS
331
B5
102
}
  0
BLOCK_RECORD
  5
BC
330
1
100
AcDbSymbolTableRecord
100
AcDbBlockTableRecord
  2
block 18
340
0
102
{BLKREFS
331
BD
102
}
  0
BLOCK_RECORD
  5
C4
330
1
100
AcDbSymbolTableRecord
100
AcDbBlockTableRecord
  2
block 19
340
0
102
{BLKREFS
331
C5
102
}
  0
BLOCK_RECORD
  5
CC
330
1
100
AcDbSymbolTableRecord
100
AcDbBlockTableRecord
  2
block 20
340
0
102
{BLKREFS
331
CD
102
}
  0
BLOCK_RECORD
  5
D4
330
1
100
AcDbSymbolTableRecord
100
AcDbBlockTableRecord
  2
block 21
340
0
102
{BLKREFS
331
D5
102
}
  0
BLOCK_RECORD
  5
DC
330
1
100
AcDbSymbolTableRecord
100
AcDbBlockTableRecord
  2
block 22
340
0
102
{BLKREFS
331
DD
102
}
  0
BLOCK_RECORD
  5
E4
330
1
100
AcDbSymbolTableRecord
100
AcDbBlockTableRecord
  2
block 23
340
0
102
{BLKREFS
331
E5
102
}
  0
BLOCK_RECORD
  5
E9
330
1
100
AcDbSymbolTableRecord
100
AcDbBlockTableRecord
  2
block 24
340
0
102
{BLKREFS
331
EA
102
}
  0
BLOCK_RECORD
  5
F1
330
1
100
AcDbSymbolTableRecord
100
AcDbBlockTableRecord
  2
block 25
340
0
102
{BLKREFS
331
F2
102
}
  0
BLOCK_RECORD
  5
F9
330
1
100
AcDbSymbolTableRecord
100
AcDbBlockTableRecord
  2
block 26
340
0
102
{BLKREFS
331
FA
102
}
  0
BLOCK_RECORD
  5
101
330
1
100
AcDbSymbolTableRecord
100
AcDbBlockTableRecord
  2
block 27
340
0
102
{BLKREFS
331
102
102
}
  0
BLOCK_RECORD
  5
109
330
1
100
AcDbSymbolTableRecord
100
AcDbBlockTableRecord
  2
block 28
340
0
102
{BLKREFS
331
10A
102
}
  0
BLOCK_RECORD
  5
111
330
1
100
AcDbSymbolTableRecord
100
AcDbBlockTableRecord
  2
block 29
340
0
102
{BLKREFS
331
112
102
}
  0
BLOCK_RECORD
  5
119
330
1
100
AcDbSymbolTableRecord
100
AcDbBlockTableRecord
  2
block 30
340
0
102
{BLKREFS
331
11A
102
}
  0
BLOCK_RECORD
  5
121
330
1
100
AcDbSymbolTableRecord
100
AcDbBlockTableRecord
  2
block 31
340
0
102
{BLKREFS
331
122
102
}
  0
BLOCK_RECORD
  5
129
330
1
100
AcDbSymbolTableRecord
100
AcDbBlockTableRecord
  2
block 32
340
0
102
{BLKREFS
331
12A
102
}
  0
BLOCK_RECORD
  5
131
330
1
100
AcDbSymbolTableRecord
100
AcDbBlockTableRecord
  2
block 33
340
0
102
{BLKREFS
331
132
102
}
  0
BLOCK_RECORD
  5
139
330
1
100
AcDbSymbolTableRecord
100
AcDbBlockTableRecord
  2
block 34
340
0
102
{BLKREFS
331
13A
102
}
  0
BLOCK_RECORD
  5
141
330
1
100
AcDbSymbolTableRecord
100
AcDbBlockTableRecord
  2
block 35
340
0
102
{BLKREFS
331
142
102
}
  0
BLOCK_RECORD
  5
149
330
1
100
AcDbSymbolTableRecord
100
AcDbBlockTableRecord
  2
block 36
340
0
102
{BLKREFS
331
14A
102
}
  0
BLOCK_RECORD
  5
151
330
1
100
AcDbSymbolTableRecord
100
AcDbBlockTableRecord
  2
block 37
340
0
102
{BLKREFS
331
152
102
}
  0
BLOCK_RECORD
  5
159
330
1
100
AcDbSymbolTableRecord
100
AcDbBlockTableRecord
  2
block 38
340
0
102
{BLKREFS
331
15A
102
}
  0
BLOCK_RECORD
  5
161
330
1
100
AcDbSymbolTableRecord
100
AcDbBlockTableRecord
  2
block 39
340
0
102
{BLKREFS
331
162
102
}
  0
BLOCK_RECORD
  5
169
330
1
100
AcDbSymbolTableRecord
100
AcDbBlockTableRecord
  2
block 40
340
0
102
{BLKREFS
331
16A
102
}
  0
BLOCK_RECORD
  5
171
330
1
100
AcDbSymbolTableRecord
100
AcDbBlockTableRecord
  2
block 41
340
0
102
{BLKREFS
331
172
102
}
  0
BLOCK_RECORD
  5
179
330
1
100
AcDbSymbolTableRecord
100
AcDbBlockTableRecord
  2
block 42
340
0
102
{BLKREFS
331
17A
102
}
  0
BLOCK_RECORD
  5
181
330
1
100
AcDbSymbolTableRecord
100
AcDbBlockTableRecord
  2
block 43
340
0
102
{BLKREFS
331
182
102
}
  0
BLOCK_RECORD
  5
189
330
1
100
AcDbSymbolTableRecord
100
AcDbBlockTableRecord
  2
block 44
340
0
102
{BLKREFS
331
18A
102
}
  0
BLOCK_RECORD
  5
191
330
1
100
AcDbSymbolTableRecord
100
AcDbBlockTableRecord
  2
block 45
340
0
102
{BLKREFS
331
192
102
}
  0
BLOCK_RECORD
  5
199
330
1
100
AcDbSymbolTableRecord
100
AcDbBlockTableRecord
  2
block 46
340
0
102
{BLKREFS
331
19A
102
}
  0
BLOCK_RECORD
  5
1A1
330
1
100
AcDbSymbolTableRecord
100
AcDbBlockTableRecord
  2
block 47
340
0
102
{BLKREFS
331
1A2
102
}
  0
BLOCK_RECORD
  5
1A9
330
1
100
AcDbSymbolTableRecord
100
AcDbBlockTableRecord
  2
block 48
340
0
102
{BLKREFS
331
1AA
102
}
  0
BLOCK_RECORD
  5
1B1
330
1
100
AcDbSymbolTableRecord
100
AcDbBlockTableRecord
  2
block 49
340
0
102
{BLKREFS
331
1B2
102
}
  0
BLOCK_RECORD
  5
1B9
330
1
100
AcDbSymbolTableRecord
100
AcDbBlockTableRecord
  2
block 50
340
0
102
{BLKREFS
331
1BA
102
}
  0
BLOCK_RECORD
  5
1C1
330
1
100
AcDbSymbolTableRecord
100
AcDbBlockTableRecord
  2
block 51
340
0
102
{BLKREFS
331
1C2
102
}
  0
BLOCK_RECORD
  5
1C6
330
1
100
AcDbSymbolTableRecord
100
AcDbBlockTableRecord
  2
block 52
340
0
102
{BLKREFS
331
1C7
102
}
  0
BLOCK_RECORD
  5
1CB
330
1
100
AcDbSymbolTableRecord
100
AcDbBlockTableRecord
  2
block 53
340
0
102
{BLKREFS
331
1CC
102
}
  0
BLOCK_RECORD
  5
1D3
330
1
100
AcDbSymbolTableRecord
100
AcDbBlockTableRecord
  2
block 54
340
0
102
{BLKREFS
331
1D4
102
}
  0
BLOCK_RECORD
  5
1DB
330
1
100
AcDbSymbolTableRecord
100
AcDbBlockTableRecord
  2
block 55
340
0
102
{BLKREFS
331
1DC
102
}
  0
BLOCK_RECORD
  5
1E3
330
1
100
AcDbSymbolTableRecord
100
AcDbBlockTableRecord
  2
block 56
340
0
102
{BLKREFS
331
1E4
102
}
  0
BLOCK_RECORD
  5
1EB
330
1
100
AcDbSymbolTableRecord
100
AcDbBlockTableRecord
  2
block 57
340
0
102
{BLKREFS
331
1EC
102
}
  0
BLOCK_RECORD
  5
1F0
330
1
100
AcDbSymbolTableRecord
100
AcDbBlockTableRecord
  2
block 58
340
0
102
{BLKREFS
331
1F1
102
}
  0
BLOCK_RECORD
  5
1F5
330
1
100
AcDbSymbolTableRecord
100
AcDbBlockTableRecord
  2
block 59
340
0
102
{BLKREFS
331
1F6
102
}
  0
BLOCK_RECORD
  5
1FD
330
1
100
AcDbSymbolTableRecord
100
AcDbBlockTableRecord
  2
block 60
340
0
102
{BLKREFS
331
1FE
102
}
  0
BLOCK_RECORD
  5
205
330
1
100
AcDbSymbolTableRecord
100
AcDbBlockTableRecord
  2
block 61
340
0
102
{BLKREFS
331
206
102
}
  0
BLOCK_RECORD
  5
20A
330
1
100
AcDbSymbolTableRecord
100
AcDbBlockTableRecord
  2
block 62
340
0
102
{BLKREFS
331
20B
102
}
  0
BLOCK_RECORD
  5
212
330
1
100
AcDbSymbolTableRecord
100
AcDbBlockTableRecord
  2
block 63
340
0
102
{BLKREFS
331
213
102
}
  0
BLOCK_RECORD
  5
21A
330
1
100
AcDbSymbolTableRecord
100
AcDbBlockTableRecord
  2
block 64
340
0
102
{BLKREFS
331
21B
102
}
  0
BLOCK_RECORD
  5
222
330
1
100
AcDbSymbolTableRecord
100
AcDbBlockTableRecord
  2
block 65
340
0
102
{BLKREFS
331
223
102
}
  0
BLOCK_RECORD
  5
22A
330
1
100
AcDbSymbolTableRecord
100
AcDbBlockTableRecord
  2
block 66
340
0
102
{BLKREFS
331
22B
102
}
  0
BLOCK_RECORD
  5
232
330
1
100
AcDbSymbolTableRecord
100
AcDbBlockTableRecord
  2
block 67
340
0
102
{BLKREFS
331
233
102
}
  0
BLOCK_RECORD
  5
237
330
1
100
AcDbSymbolTableRecord
100
AcDbBlockTableRecord
  2
block 68
340
0
102
{BLKREFS
331
238
102
}
  0
BLOCK_RECORD
  5
23C
330
1
100
AcDbSymbolTableRecord
100
AcDbBlockTableRecord
  2
block 69
340
0
102
{BLKREFS
331
23D
102
}
  0
BLOCK_RECORD
  5
241
330
1
100
AcDbSymbolTableRecord
100
AcDbBlockTableRecord
  2
block 70
340
0
102
{BLKREFS
331
242
102
}
  0
BLOCK_RECORD
  5
246
330
1
100
AcDbSymbolTableRecord
100
AcDbBlockTableRecord
  2
block 71
340
0
102
{BLKREFS
331
247
102
}
  0
BLOCK_RECORD
  5
24E
330
1
100
AcDbSymbolTableRecord
100
AcDbBlockTableRecord
  2
block 72
340
0
102
{BLKREFS
331
24F
102
}
  0
BLOCK_RECORD
  5
253
330
1
100
AcDbSymbolTableRecord
100
AcDbBlockTableRecord
  2
block 73
340
0
102
{BLKREFS
331
254
102
}
  0
BLOCK_RECORD
  5
25B
330
1
100
AcDbSymbolTableRecord
100
AcDbBlockTableRecord
  2
block 74
340
0
102
{BLKREFS
331
25C
102
}
  0
BLOCK_RECORD
  5
263
330
1
100
AcDbSymbolTableRecord
100
AcDbBlockTableRecord
  2
block 75
340
0
102
{BLKREFS
331
264
102
}
  0
BLOCK_RECORD
  5
26B
330
1
100
AcDbSymbolTableRecord
100
AcDbBlockTableRecord
  2
block 76
340
0
102
{BLKREFS
331
26C
102
}
  0
BLOCK_RECORD
  5
270
330
1
100
AcDbSymbolTableRecord
100
AcDbBlockTableRecord
  2
block 77
340
0
102
{BLKREFS
331
271
102
}
  0
BLOCK_RECORD
  5
275
330
1
100
AcDbSymbolTableRecord
100
AcDbBlockTableRecord
  2
block 78
340
0
102
{BLKREFS
331
276
102
}
  0
BLOCK_RECORD
  5
27D
330
1
100
AcDbSymbolTableRecord
100
AcDbBlockTableRecord
  2
block 79
340
0
102
{BLKREFS
331
27E
102
}
  0
BLOCK_RECORD
  5
285
330
1
100
AcDbSymbolTableRecord
100
AcDbBlockTableRecord
  2
block 80
340
0
102
{BLKREFS
331
286
102
}
  0
BLOCK_RECORD
  5
28D
330
1
100
AcDbSymbolTableRecord
100
AcDbBlockTableRecord
  2
block 81
340
0
102
{BLKREFS
331
28E
102
}
  0
BLOCK_RECORD
  5
292
330
1
100
AcDbSymbolTableRecord
100
AcDbBlockTableRecord
  2
block 82
340
0
102
{BLKREFS
331
293
102
}
  0
BLOCK_RECORD
  5
29A
330
1
100
AcDbSymbolTableRecord
100
AcDbBlockTableRecord
  2
block 83
340
0
102
{BLKREFS
331
29B
102
}
  0
BLOCK_RECORD
  5
2A2
330
1
100
AcDbSymbolTableRecord
100
AcDbBlockTableRecord
  2
block 84
340
0
102
{BLKREFS
331
2A3
102
}
  0
BLOCK_RECORD
  5
2AA
330
1
100
AcDbSymbolTableRecord
100
AcDbBlockTableRecord
  2
block 85
340
0
102
{BLKREFS
331
2AB
102
}
  0
BLOCK_RECORD
  5
2B2
330
1
100
AcDbSymbolTableRecord
100
AcDbBlockTableRecord
  2
block 86
340
0
102
{BLKREFS
331
2B3
102
}
  0
BLOCK_RECORD
  5
2B7
330
1
100
AcDbSymbolTableRecord
100
AcDbBlockTableRecord
  2
block 87
340
0
102
{BLKREFS
331
2B8
102
}
  0
BLOCK_RECORD
  5
2BF
330
1
100
AcDbSymbolTableRecord
100
AcDbBlockTableRecord
  2
block 88
340
0
102
{BLKREFS
331
2C0
102
}
  0
BLOCK_RECORD
  5
2C7
330
1
100
AcDbSymbolTableRecord
100
AcDbBlockTableRecord
  2
block 89
340
0
102
{BLKREFS
331
2C8
102
}
  0
BLOCK_RECORD
  5
2CF
330
1
100
AcDbSymbolTableRecord
100
AcDbBlockTableRecord
  2
block 90
340
0
102
{BLKREFS
331
2D0
102
}
  0
BLOCK_RECORD
  5
2D7
330
1
100
AcDbSymbolTableRecord
100
AcDbBlockTableRecord
  2
block 91
340
0
102
{BLKREFS
331
2D8
102
}
  0
BLOCK_RECORD
  5
2DC
330
1
100
AcDbSymbolTableRecord
100
AcDbBlockTableRecord
  2
block 92
340
0
102
{BLKREFS
331
2DD
102
}
  0
BLOCK_RECORD
  5
2E4
330
1
100
AcDbSymbolTableRecord
100
AcDbBlockTableRecord
  2
block 93
340
0
102
{BLKREFS
331
2E5
102
}
  0
BLOCK_RECORD
  5
2EC
330
1
100
AcDbSymbolTableRecord
100
AcDbBlockTableRecord
  2
block 94
340
0
102
{BLKREFS
331
2ED
102
}
  0
BLOCK_RECORD
  5
2F4
330
1
100
AcDbSymbolTableRecord
100
AcDbBlockTableRecord
  2
block 95
340
0
102
{BLKREFS
331
2F5
102
}
  0
BLOCK_RECORD
  5
2F9
330
1
100
AcDbSymbolTableRecord
100
AcDbBlockTableRecord
  2
block 96
340
0
102
{BLKREFS
331
2FA
102
}
  0
BLOCK_RECORD
  5
301
330
1
100
AcDbSymbolTableRecord
100
AcDbBlockTableRecord
  2
block 97
340
0
102
{BLKREFS
331
302
102
}
  0
BLOCK_RECORD
  5
309
330
1
100
AcDbSymbolTableRecord
100
AcDbBlockTableRecord
  2
block 98
340
0
102
{BLKREFS
331
30A
102
}
  0
BLOCK_RECORD
  5
311
330
1
100
AcDbSymbolTableRecord
100
AcDbBlockTableRecord
  2
block 99
340
0
102
{BLKREFS
331
312
102
}
  0
BLOCK_RECORD
  5
316
330
1
100
AcDbSymbolTableRecord
100
AcDbBlockTableRecord
  2
block 100
340
0
102
{BLKREFS
331
317
102
}
  0
BLOCK_RECORD
  5
31B
330
1
100
AcDbSymbolTableRecord
100
AcDbBlockTableRecord
  2
block 101
340
0
102
{BLKREFS
331
31C
102
}
  0
BLOCK_RECORD
  5
320
330
1
100
AcDbSymbolTableRecord
100
AcDbBlockTableRecord
  2
block 102
340
0
102
{BLKREFS
331
321
102
}
  0
BLOCK_RECORD
  5
328
330
1
100
AcDbSymbolTableRecord
100
AcDbBlockTableRecord
  2
block 103
340
0
102
{BLKREFS
331
329
102
}
  0
BLOCK_RECORD
  5
330
330
1
100
AcDbSymbolTableRecord
100
AcDbBlockTableRecord
  2
block 104
340
0
102
{BLKREFS
331
331
102
}
  0
BLOCK_RECORD
  5
335
330
1
100
AcDbSymbolTableRecord
100
AcDbBlockTableRecord
  2
block 105
340
0
102
{BLKREFS
331
336
102
}
  0
BLOCK_RECORD
  5
33D
330
1
100
AcDbSymbolTableRecord
100
AcDbBlockTableRecord
  2
block 106
340
0
102
{BLKREFS
331
33E
102
}
  0
BLOCK_RECORD
  5
345
330
1
100
AcDbSymbolTableRecord
100
AcDbBlockTableRecord
  2
block 107
340
0
102
{BLKREFS
331
346
102
}
  0
BLOCK_RECORD
  5
34D
330
1
100
AcDbSymbolTableRecord
100
AcDbBlockTableRecord
  2
block 108
340
0
102
{BLKREFS
331
34E
102
}
  0
BLOCK_RECORD
  5
355
330
1
100
AcDbSymbolTableRecord
100
AcDbBlockTableRecord
  2
block 109
340
0
102
{BLKREFS
331
356
102
}
  0
BLOCK_RECORD
  5
35D
330
1
100
AcDbSymbolTableRecord
100
AcDbBlockTableRecord
  2
block 110
340
0
102
{BLKREFS
331
35E
102
}
  0
BLOCK_RECORD
  5
365
330
1
100
AcDbSymbolTableRecord
100
AcDbBlockTableRecord
  2
block 111
340
0
102
{BLKREFS
331
366
102
}
  0
BLOCK_RECORD
  5
36D
330
1
100
AcDbSymbolTableRecord
100
AcDbBlockTableRecord
  2
block 112
340
0
102
{BLKREFS
331
36E
102
}
  0
BLOCK_RECORD
  5
375
330
1
100
AcDbSymbolTableRecord
100
AcDbBlockTableRecord
  2
block 113
340
0
102
{BLKREFS
331
376
102
}
  0
BLOCK_RECORD
  5
37D
330
1
100
AcDbSymbolTableRecord
100
AcDbBlockTableRecord
  2
block 114
340
0
102
{BLKREFS
331
37E
102
}
  0
BLOCK_RECORD
  5
385
330
1
100
AcDbSymbolTableRecord
100
AcDbBlockTableRecord
  2
block 115
340
0
102
{BLKREFS
331
386
102
}
  0
BLOCK_RECORD
  5
38D
330
1
100
AcDbSymbolTableRecord
100
AcDbBlockTableRecord
  2
block 116
340
0
102
{BLKREFS
331
38E
102
}
  0
BLOCK_RECORD
  5
395
330
1
100
AcDbSymbolTableRecord
100
AcDbBlockTableRecord
  2
block 117
340
0
102
{BLKREFS
331
396
102
}
  0
BLOCK_RECORD
  5
39D
330
1
100
AcDbSymbolTableRecord
100
AcDbBlockTableRecord
  2
block 118
340
0
102
{BLKREFS
331
39E
102
}
  0
BLOCK_RECORD
  5
3A5
330
1
100
AcDbSymbolTableRecord
100
AcDbBlockTableRecord
  2
block 119
340
0
102
{BLKREFS
331
3A6
102
}
  0
BLOCK_RECORD
  5
3AD
330
1
100
AcDbSymbolTableRecord
100
AcDbBlockTableRecord
  2
block 120
340
0
102
{BLKREFS
331
3AE
102
}
  0
BLOCK_RECORD
  5
3B5
330
1
100
AcDbSymbolTableRecord
100
AcDbBlockTableRecord
  2
block 121
340
0
102
{BLKREFS
331
3B6
102
}
  0
BLOCK_RECORD
  5
3BD
330
1
100
AcDbSymbolTableRecord
100
AcDbBlockTableRecord
  2
block 122
340
0
102
{BLKREFS
331
3BE
102
}
  0
BLOCK_RECORD
  5
3C5
330
1
100
AcDbSymbolTableRecord
100
AcDbBlockTableRecord
  2
block 123
340
0
102
{BLKREFS
331
3C6
102
}
  0
BLOCK_RECORD
  5
3CA
330
1
100
AcDbSymbolTableRecord
100
AcDbBlockTableRecord
  2
block 124
340
0
102
{BLKREFS
331
3CB
102
}
  0
BLOCK_RECORD
  5
3D2
330
1
100
AcDbSymbolTableRecord
100
AcDbBlockTableRecord
  2
block 125
340
0
102
{BLKREFS
331
3D3
102
}
  0
BLOCK_RECORD
  5
3DA
330
1
100
AcDbSymbolTableRecord
100
AcDbBlockTableRecord
  2
block 126
340
0
102
{BLKREFS
331
3DB
102
}
  0
BLOCK_RECORD
  5
3DF
330
1
100
AcDbSymbolTableRecord
100
AcDbBlockTableRecord
  2
block 127
340
0
102
{BLKREFS
331
3E0
102
}
  0
BLOCK_RECORD
  5
3E7
330
1
100
AcDbSymbolTableRecord
100
AcDbBlockTableRecord
  2
block 128
340
0
102
{BLKREFS
331
3E8
102
}
  0
BLOCK_RECORD
  5
3EF
330
1
100
AcDbSymbolTableRecord
100
AcDbBlockTableRecord
  2
block 129
340
0
102
{BLKREFS
331
3F0
102
}
  0
BLOCK_RECORD
  5
3F7
330
1
100
AcDbSymbolTableRecord
100
AcDbBlockTableRecord
  2
block 130
340
0
102
{BLKREFS
331
3F8
102
}
  0
BLOCK_RECORD
  5
3FF
330
1
100
AcDbSymbolTableRecord
100
AcDbBlockTableRecord
  2
block 131
340
0
102
{BLKREFS
331
400
102
}
  0
BLOCK_RECORD
  5
404
330
1
100
AcDbSymbolTableRecord
100
AcDbBlockTableRecord
  2
block 132
340
0
102
{BLKREFS
331
405
102
}
  0
BLOCK_RECORD
  5
409
330
1
100
AcDbSymbolTableRecord
100
AcDbBlockTableRecord
  2
block 133
340
0
102
{BLKREFS
331
40A
102
}
  0
BLOCK_RECORD
  5
40E
330
1
100
AcDbSymbolTableRecord
100
AcDbBlockTableRecord
  2
block 134
340
0
102
{BLKREFS
331
40F
102
}
  0
BLOCK_RECORD
  5
413
330
1
100
AcDbSymbolTableRecord
100
AcDbBlockTableRecord
  2
block 135
340
0
102
{BLKREFS
331
414
102
}
  0
BLOCK_RECORD
  5
418
330
1
100
AcDbSymbolTableRecord
100
AcDbBlockTableRecord
  2
block 136
340
0
102
{BLKREFS
331
419
102
}
  0
BLOCK_RECORD
  5
41D
330
1
100
AcDbSymbolTableRecord
100
AcDbBlockTableRecord
  2
block 137
340
0
102
{BLKREFS
331
41E
102
}
  0
BLOCK_RECORD
  5
425
330
1
100
AcDbSymbolTableRecord
100
AcDbBlockTableRecord
  2
block 138
340
0
102
{BLKREFS
331
426
102
}
  0
BLOCK_RECORD
  5
42D
330
1
100
AcDbSymbolTableRecord
100
AcDbBlockTableRecord
  2
block 139
340
0
102
{BLKREFS
331
42E
102
}
  0
BLOCK_RECORD
  5
435
330
1
100
AcDbSymbolTableRecord
100
AcDbBlockTableRecord
  2
block 140
340
0
102
{BLKREFS
331
436
102
}
  0
BLOCK_RECORD
  5
43D
330
1
100
AcDbSymbolTableRecord
100
AcDbBlockTableRecord
  2
block 141
340
0
102
{BLKREFS
331
43E
102
}
  0
BLOCK_RECORD
  5
445
330
1
100
AcDbSymbolTableRecord
100
AcDbBlockTableRecord
  2
block 142
340
0
102
{BLKREFS
331
446
102
}
  0
BLOCK_RECORD
  5
44D
330
1
100
AcDbSymbolTableRecord
100
AcDbBlockTableRecord
  2
block 143
340
0
102
{BLKREFS
331
44E
102
}
  0
BLOCK_RECORD
  5
455
330
1
100
AcDbSymbolTableRecord
100
AcDbBlockTableRecord
  2
block 144
340
0
102
{BLKREFS
331
456
102
}
  0
BLOCK_RECORD
  5
45D
330
1
100
AcDbSymbolTableRecord
100
AcDbBlockTableRecord
  2
block 145
340
0
102
{BLKREFS
331
45E
102
}
  0
BLOCK_RECORD
  5
465
330
1
100
AcDbSymbolTableRecord
100
AcDbBlockTableRecord
  2
block 146
340
0
102
{BLKREFS
331
466
102
}
  0
BLOCK_RECORD
  5
46D
330
1
100
AcDbSymbolTableRecord
100
AcDbBlockTableRecord
  2
block 147
340
0
102
{BLKREFS
331
46E
102
}
  0
BLOCK_RECORD
  5
475
330
1
100
AcDbSymbolTableRecord
100
AcDbBlockTableRecord
  2
block 148
340
0
102
{BLKREFS
331
476
102
}
  0
BLOCK_RECORD
  5
47D
330
1
100
AcDbSymbolTableRecord
100
AcDbBlockTableRecord
  2
block 149
340
0
102
{BLKREFS
331
47E
102
}
  0
BLOCK_RECORD
  5
485
330
1
100
AcDbSymbolTableRecord
100
AcDbBlockTableRecord
  2
block 150
340
0
102
{BLKREFS
331
486
102
}
  0
BLOCK_RECORD
  5
48D
330
1
100
AcDbSymbolTableRecord
100
AcDbBlockTableRecord
  2
block 151
340
0
102
{BLKREFS
331
48E
102
}
  0
BLOCK_RECORD
  5
496
330
1
100
AcDbSymbolTableRecord
100
AcDbBlockTableRecord
  2
block 152
340
0
102
{BLKREFS
331
497
102
}
  0
BLOCK_RECORD
  5
49A
330
1
100
AcDbSymbolTableRecord
100
AcDbBlockTableRecord
  2
block 153
340
0
102
{BLKREFS
331
49B
102
}
  0
BLOCK_RECORD
  5
4A2
330
1
100
AcDbSymbolTableRecord
100
AcDbBlockTableRecord
  2
block 154
340
0
102
{BLKREFS
331
4A3
102
}
  0
BLOCK_RECORD
  5
4AA
330
1
100
AcDbSymbolTableRecord
100
AcDbBlockTableRecord
  2
block 155
340
0
102
{BLKREFS
331
4AB
102
}
  0
BLOCK_RECORD
  5
4B2
330
1
100
AcDbSymbolTableRecord
100
AcDbBlockTableRecord
  2
block 156
340
0
102
{BLKREFS
331
4B3
102
}
  0
BLOCK_RECORD
  5
4BA
330
1
100
AcDbSymbolTableRecord
100
AcDbBlockTableRecord
  2
block 157
340
0
102
{BLKREFS
331
4BB
102
}
  0
BLOCK_RECORD
  5
4C5
330
1
100
AcDbSymbolTableRecord
100
AcDbBlockTableRecord
  2
block 158
340
0
102
{BLKREFS
331
4C6
102
}
  0
BLOCK_RECORD
  5
4CD
330
1
100
AcDbSymbolTableRecord
100
AcDbBlockTableRecord
  2
block 159
340
0
102
{BLKREFS
331
4CE
102
}
  0
BLOCK_RECORD
  5
4D8
330
1
100
AcDbSymbolTableRecord
100
AcDbBlockTableRecord
  2
block 160
340
0
102
{BLKREFS
331
4D9
102
}
  0
BLOCK_RECORD
  5
4E0
330
1
100
AcDbSymbolTableRecord
100
AcDbBlockTableRecord
  2
block 161
340
0
102
{BLKREFS
331
4E1
102
}
  0
BLOCK_RECORD
  5
4E5
330
1
100
AcDbSymbolTableRecord
100
AcDbBlockTableRecord
  2
block 162
340
0
102
{BLKREFS
331
4E6
102
}
  0
BLOCK_RECORD
  5
4ED
330
1
100
AcDbSymbolTableRecord
100
AcDbBlockTableRecord
  2
block 163
340
0
102
{BLKREFS
331
4EE
102
}
  0
BLOCK_RECORD
  5
4F5
330
1
100
AcDbSymbolTableRecord
100
AcDbBlockTableRecord
  2
block 164
340
0
102
{BLKREFS
331
4F6
102
}
  0
BLOCK_RECORD
  5
4FD
330
1
100
AcDbSymbolTableRecord
100
AcDbBlockTableRecord
  2
block 165
340
0
102
{BLKREFS
331
4FE
102
}
  0
BLOCK_RECORD
  5
501
330
1
100
AcDbSymbolTableRecord
100
AcDbBlockTableRecord
  2
block 166
340
0
102
{BLKREFS
331
502
102
}
  0
BLOCK_RECORD
  5
509
330
1
100
AcDbSymbolTableRecord
100
AcDbBlockTableRecord
  2
block 167
340
0
102
{BLKREFS
331
50A
102
}
  0
BLOCK_RECORD
  5
511
330
1
100
AcDbSymbolTableRecord
100
AcDbBlockTableRecord
  2
block 168
340
0
102
{BLKREFS
331
512
102
}
  0
BLOCK_RECORD
  5
519
330
1
100
AcDbSymbolTableRecord
100
AcDbBlockTableRecord
  2
block 169
340
0
102
{BLKREFS
331
51A
102
}
  0
BLOCK_RECORD
  5
521
330
1
100
AcDbSymbolTableRecord
100
AcDbBlockTableRecord
  2
block 170
340
0
102
{BLKREFS
331
522
102
}
  0
BLOCK_RECORD
  5
52C
330
1
100
AcDbSymbolTableRecord
100
AcDbBlockTableRecord
  2
block 171
340
0
102
{BLKREFS
331
52D
102
}
  0
BLOCK_RECORD
  5
537
330
1
100
AcDbSymbolTableRecord
100
AcDbBlockTableRecord
  2
block 172
340
0
102
{BLKREFS
331
538
102
}
  0
BLOCK_RECORD
  5
53C
330
1
100
AcDbSymbolTableRecord
100
AcDbBlockTableRecord
  2
block 173
340
0
102
{BLKREFS
331
53D
102
}
  0
BLOCK_RECORD
  5
544
330
1
100
AcDbSymbolTableRecord
100
AcDbBlockTableRecord
  2
block 174
340
0
102
{BLKREFS
331
545
102
}
  0
BLOCK_RECORD
  5
54C
330
1
100
AcDbSymbolTableRecord
100
AcDbBlockTableRecord
  2
block 175
340
0
102
{BLKREFS
331
54D
102
}
  0
BLOCK_RECORD
  5
554
330
1
100
AcDbSymbolTableRecord
100
AcDbBlockTableRecord
  2
block 176
340
0
102
{BLKREFS
331
555
102
}
  0
BLOCK_RECORD
  5
558
330
1
100
AcDbSymbolTableRecord
100
AcDbBlockTableRecord
  2
block 177
340
0
102
{BLKREFS
331
559
102
}
  0
BLOCK_RECORD
  5
560
330
1
100
AcDbSymbolTableRecord
100
AcDbBlockTableRecord
  2
block 178
340
0
102
{BLKREFS
331
561
102
}
  0
BLOCK_RECORD
  5
568
330
1
100
AcDbSymbolTableRecord
100
AcDbBlockTableRecord
  2
block 179
340
0
102
{BLKREFS
331
569
102
}
  0
BLOCK_RECORD
  5
570
330
1
100
AcDbSymbolTableRecord
100
AcDbBlockTableRecord
  2
block 180
340
0
102
{BLKREFS
331
571
102
}
  0
BLOCK_RECORD
  5
578
330
1
100
AcDbSymbolTableRecord
100
AcDbBlockTableRecord
  2
block 181
340
0
102
{BLKREFS
331
579
102
}
  0
BLOCK_RECORD
  5
583
330
1
100
AcDbSymbolTableRecord
100
AcDbBlockTableRecord
  2
block 182
340
0
102
{BLKREFS
331
584
102
}
  0
BLOCK_RECORD
  5
58E
330
1
100
AcDbSymbolTableRecord
100
AcDbBlockTableRecord
  2
block 183
340
0
102
{BLKREFS
331
58F
102
}
  0
BLOCK_RECORD
  5
593
330
1
100
AcDbSymbolTableRecord
100
AcDbBlockTableRecord
  2
block 184
340
0
102
{BLKREFS
331
594
102
}
  0
BLOCK_RECORD
  5
59B
330
1
100
AcDbSymbolTableRecord
100
AcDbBlockTableRecord
  2
block 185
340
0
102
{BLKREFS
331
59C
102
}
  0
BLOCK_RECORD
  5
5A3
330
1
100
AcDbSymbolTableRecord
100
AcDbBlockTableRecord
  2
block 186
340
0
102
{BLKREFS
331
5A4
102
}
  0
BLOCK_RECORD
  5
5AB
330
1
100
AcDbSymbolTableRecord
100
AcDbBlockTableRecord
  2
block 187
340
0
102
{BLKREFS
331
5AC
102
}
  0
BLOCK_RECORD
  5
5AF
330
1
100
AcDbSymbolTableRecord
100
AcDbBlockTableRecord
  2
block 188
340
0
102
{BLKREFS
331
5B0
102
}
  0
BLOCK_RECORD
  5
5B7
330
1
100
AcDbSymbolTableRecord
100
AcDbBlockTableRecord
  2
block 189
340
0
102
{BLKREFS
331
5B8
102
}
  0
BLOCK_RECORD
  5
5BF
330
1
100
AcDbSymbolTableRecord
100
AcDbBlockTableRecord
  2
block 190
340
0
102
{BLKREFS
331
5C0
102
}
  0
BLOCK_RECORD
  5
5C7
330
1
100
AcDbSymbolTableRecord
100
AcDbBlockTableRecord
  2
block 191
340
0
102
{BLKREFS
331
5C8
102
}
  0
BLOCK_RECORD
  5
5CF
330
1
100
AcDbSymbolTableRecord
100
AcDbBlockTableRecord
  2
block 192
340
0
102
{BLKREFS
331
5D0
102
}
  0
BLOCK_RECORD
  5
5DA
330
1
100
AcDbSymbolTableRecord
100
AcDbBlockTableRecord
  2
block 193
340
0
102
{BLKREFS
331
5DB
102
}
  0
BLOCK_RECORD
  5
5E5
330
1
100
AcDbSymbolTableRecord
100
AcDbBlockTableRecord
  2
block 194
340
0
102
{BLKREFS
331
5E6
102
}
  0
BLOCK_RECORD
  5
5EA
330
1
100
AcDbSymbolTableRecord
100
AcDbBlockTableRecord
  2
block 195
340
0
102
{BLKREFS
331
5EB
102
}
  0
BLOCK_RECORD
  5
5F2
330
1
100
AcDbSymbolTableRecord
100
AcDbBlockTableRecord
  2
block 196
340
0
102
{BLKREFS
331
5F3
102
}
  0
BLOCK_RECORD
  5
5FA
330
1
100
AcDbSymbolTableRecord
100
AcDbBlockTableRecord
  2
block 197
340
0
102
{BLKREFS
331
5FB
102
}
  0
BLOCK_RECORD
  5
602
330
1
100
AcDbSymbolTableRecord
100
AcDbBlockTableRecord
  2
block 198
340
0
102
{BLKREFS
331
603
102
}
  0
BLOCK_RECORD
  5
606
330
1
100
AcDbSymbolTableRecord
100
AcDbBlockTableRecord
  2
block 199
340
0
102
{BLKREFS
331
607
102
}
  0
BLOCK_RECORD
  5
60E
330
1
100
AcDbSymbolTableRecord
100
AcDbBlockTableRecord
  2
block 200
340
0
102
{BLKREFS
331
60F
102
}
  0
BLOCK_RECORD
  5
616
330
1
100
AcDbSymbolTableRecord
100
AcDbBlockTableRecord
  2
block 201
340
0
102
{BLKREFS
331
617
102
}
  0
BLOCK_RECORD
  5
61B
330
1
100
AcDbSymbolTableRecord
100
AcDbBlockTableRecord
  2
block 202
340
0
102
{BLKREFS
331
61C
102
}
  0
BLOCK_RECORD
  5
620
330
1
100
AcDbSymbolTableRecord
100
AcDbBlockTableRecord
  2
block 203
340
0
102
{BLKREFS
331
621
102
}
  0
BLOCK_RECORD
  5
625
330
1
100
AcDbSymbolTableRecord
100
AcDbBlockTableRecord
  2
block 204
340
0
102
{BLKREFS
331
626
102
}
  0
BLOCK_RECORD
  5
630
330
1
100
AcDbSymbolTableRecord
100
AcDbBlockTableRecord
  2
block 205
340
0
102
{BLKREFS
331
631
102
}
  0
BLOCK_RECORD
  5
63B
330
1
100
AcDbSymbolTableRecord
100
AcDbBlockTableRecord
  2
block 206
340
0
102
{BLKREFS
331
63C
102
}
  0
BLOCK_RECORD
  5
640
330
1
100
AcDbSymbolTableRecord
100
AcDbBlockTableRecord
  2
block 207
340
0
102
{BLKREFS
331
641
102
}
  0
BLOCK_RECORD
  5
648
330
1
100
AcDbSymbolTableRecord
100
AcDbBlockTableRecord
  2
block 208
340
0
102
{BLKREFS
331
649
102
}
  0
BLOCK_RECORD
  5
650
330
1
100
AcDbSymbolTableRecord
100
AcDbBlockTableRecord
  2
block 209
340
0
102
{BLKREFS
331
651
102
}
  0
BLOCK_RECORD
  5
658
330
1
100
AcDbSymbolTableRecord
100
AcDbBlockTableRecord
  2
block 210
340
0
102
{BLKREFS
331
659
102
}
  0
BLOCK_RECORD
  5
660
330
1
100
AcDbSymbolTableRecord
100
AcDbBlockTableRecord
  2
block 211
340
0
102
{BLKREFS
331
661
102
}
  0
BLOCK_RECORD
  5
668
330
1
100
AcDbSymbolTableRecord
100
AcDbBlockTableRecord
  2
block 212
340
0
102
{BLKREFS
331
669
102
}
  0
BLOCK_RECORD
  5
66C
330
1
100
AcDbSymbolTableRecord
100
AcDbBlockTableRecord
  2
block 213
340
0
102
{BLKREFS
331
66D
102
}
  0
BLOCK_RECORD
  5
674
330
1
100
AcDbSymbolTableRecord
100
AcDbBlockTableRecord
  2
block 214
340
0
102
{BLKREFS
331
675
102
}
  0
BLOCK_RECORD
  5
67C
330
1
100
AcDbSymbolTableRecord
100
AcDbBlockTableRecord
  2
block 215
340
0
102
{BLKREFS
331
67D
102
}
  0
BLOCK_RECORD
  5
684
330
1
100
AcDbSymbolTableRecord
100
AcDbBlockTableRecord
  2
block 216
340
0
102
{BLKREFS
331
685
102
}
  0
BLOCK_RECORD
  5
68C
330
1
100
AcDbSymbolTableRecord
100
AcDbBlockTableRecord
  2
block 217
340
0
102
{BLKREFS
331
68D
102
}
  0
BLOCK_RECORD
  5
694
330
1
100
AcDbSymbolTableRecord
100
AcDbBlockTableRecord
  2
block 218
340
0
102
{BLKREFS
331
695
102
}
  0
BLOCK_RECORD
  5
69F
330
1
100
AcDbSymbolTableRecord
100
AcDbBlockTableRecord
  2
block 219
340
0
102
{BLKREFS
331
6A0
102
}
  0
BLOCK_RECORD
  5
6AA
330
1
100
AcDbSymbolTableRecord
100
AcDbBlockTableRecord
  2
block 220
340
0
102
{BLKREFS
331
6AB
102
}
  0
BLOCK_RECORD
  5
6AF
330
1
100
AcDbSymbolTableRecord
100
AcDbBlockTableRecord
  2
block 221
340
0
102
{BLKREFS
331
6B0
102
}
  0
BLOCK_RECORD
  5
6B7
330
1
100
AcDbSymbolTableRecord
100
AcDbBlockTableRecord
  2
block 222
340
0
102
{BLKREFS
331
6B8
102
}
  0
BLOCK_RECORD
  5
6BF
330
1
100
AcDbSymbolTableRecord
100
AcDbBlockTableRecord
  2
block 223
340
0
102
{BLKREFS
331
6C0
102
}
  0
BLOCK_RECORD
  5
6C7
330
1
100
AcDbSymbolTableRecord
100
AcDbBlockTableRecord
  2
block 224
340
0
102
{BLKREFS
331
6C8
102
}
  0
BLOCK_RECORD
  5
6CB
330
1
100
AcDbSymbolTableRecord
100
AcDbBlockTableRecord
  2
block 225
340
0
102
{BLKREFS
331
6CC
102
}
  0
BLOCK_RECORD
  5
6D3
330
1
100
AcDbSymbolTableRecord
100
AcDbBlockTableRecord
  2
block 226
340
0
102
{BLKREFS
331
6D4
102
}
  0
BLOCK_RECORD
  5
6DB
330
1
100
AcDbSymbolTableRecord
100
AcDbBlockTableRecord
  2
block 227
340
0
102
{BLKREFS
331
6DC
102
}
  0
BLOCK_RECORD
  5
6E3
330
1
100
AcDbSymbolTableRecord
100
AcDbBlockTableRecord
  2
block 228
340
0
102
{BLKREFS
331
6E4
102
}
  0
BLOCK_RECORD
  5
6EB
330
1
100
AcDbSymbolTableRecord
100
AcDbBlockTableRecord
  2
block 229
340
0
102
{BLKREFS
331
6EC
102
}
  0
BLOCK_RECORD
  5
6F3
330
1
100
AcDbSymbolTableRecord
100
AcDbBlockTableRecord
  2
block 230
340
0
102
{BLKREFS
331
6F4
102
}
  0
BLOCK_RECORD
  5
6FB
330
1
100
AcDbSymbolTableRecord
100
AcDbBlockTableRecord
  2
block 231
340
0
102
{BLKREFS
331
6FC
102
}
  0
BLOCK_RECORD
  5
706
330
1
100
AcDbSymbolTableRecord
100
AcDbBlockTableRecord
  2
block 232
340
0
102
{BLKREFS
331
707
102
}
  0
BLOCK_RECORD
  5
711
330
1
100
AcDbSymbolTableRecord
100
AcDbBlockTableRecord
  2
block 233
340
0
102
{BLKREFS
331
712
102
}
  0
BLOCK_RECORD
  5
716
330
1
100
AcDbSymbolTableRecord
100
AcDbBlockTableRecord
  2
block 234
340
0
102
{BLKREFS
331
717
102
}
  0
BLOCK_RECORD
  5
71E
330
1
100
AcDbSymbolTableRecord
100
AcDbBlockTableRecord
  2
block 235
340
0
102
{BLKREFS
331
71F
102
}
  0
BLOCK_RECORD
  5
726
330
1
100
AcDbSymbolTableRecord
100
AcDbBlockTableRecord
  2
block 236
340
0
102
{BLKREFS
331
727
102
}
  0
BLOCK_RECORD
  5
72E
330
1
100
AcDbSymbolTableRecord
100
AcDbBlockTableRecord
  2
block 237
340
0
102
{BLKREFS
331
72F
102
}
  0
BLOCK_RECORD
  5
732
330
1
100
AcDbSymbolTableRecord
100
AcDbBlockTableRecord
  2
block 238
340
0
102
{BLKREFS
331
733
102
}
  0
BLOCK_RECORD
  5
73A
330
1
100
AcDbSymbolTableRecord
100
AcDbBlockTableRecord
  2
block 239
340
0
102
{BLKREFS
331
73B
102
}
  0
BLOCK_RECORD
  5
742
330
1
100
AcDbSymbolTableRecord
100
AcDbBlockTableRecord
  2
block 240
340
0
102
{BLKREFS
331
743
102
}
  0
BLOCK_RECORD
  5
74A
330
1
100
AcDbSymbolTableRecord
100
AcDbBlockTableRecord
  2
block 241
340
0
102
{BLKREFS
331
74B
102
}
  0
BLOCK_RECORD
  5
752
330
1
100
AcDbSymbolTableRecord
100
AcDbBlockTableRecord
  2
block 242
340
0
102
{BLKREFS
331
753
102
}
  0
BLOCK_RECORD
  5
75D
330
1
100
AcDbSymbolTableRecord
100
AcDbBlockTableRecord
  2
block 243
340
0
102
{BLKREFS
331
75E
102
}
  0
BLOCK_RECORD
  5
768
330
1
100
AcDbSymbolTableRecord
100
AcDbBlockTableRecord
  2
block 244
340
0
102
{BLKREFS
331
769
102
}
  0
BLOCK_RECORD
  5
76D
330
1
100
AcDbSymbolTableRecord
100
AcDbBlockTableRecord
  2
block 245
340
0
102
{BLKREFS
331
76E
102
}
  0
BLOCK_RECORD
  5
775
330
1
100
AcDbSymbolTableRecord
100
AcDbBlockTableRecord
  2
block 246
340
0
102
{BLKREFS
331
776
102
}
  0
BLOCK_RECORD
  5
77D
330
1
100
AcDbSymbolTableRecord
100
AcDbBlockTableRecord
  2
block 247
340
0
102
{BLKREFS
331
77E
102
}
  0
BLOCK_RECORD
  5
785
330
1
100
AcDbSymbolTableRecord
100
AcDbBlockTableRecord
  2
block 248
340
0
102
{BLKREFS
331
786
102
}
  0
BLOCK_RECORD
  5
7E5
330
1
100
AcDbSymbolTableRecord
100
AcDbBlockTableRecord
  2
block 249
340
0
102
{BLKREFS
331
7E6
102
}
  0
BLOCK_RECORD
  5
7E9
330
1
100
AcDbSymbolTableRecord
100
AcDbBlockTableRecord
  2
block 250
340
0
102
{BLKREFS
331
7EA
102
}
  0
BLOCK_RECORD
  5
7F1
330
1
100
AcDbSymbolTableRecord
100
AcDbBlockTableRecord
  2
block 251
340
0
102
{BLKREFS
331
7F2
102
}
  0
BLOCK_RECORD
  5
7F9
330
1
100
AcDbSymbolTableRecord
100
AcDbBlockTableRecord
  2
block 252
340
0
102
{BLKREFS
331
7FA
102
}
  0
BLOCK_RECORD
  5
801
330
1
100
AcDbSymbolTableRecord
100
AcDbBlockTableRecord
  2
block 253
340
0
102
{BLKREFS
331
802
102
}
  0
BLOCK_RECORD
  5
809
330
1
100
AcDbSymbolTableRecord
100
AcDbBlockTableRecord
  2
block 254
340
0
102
{BLKREFS
331
80A
102
}
  0
BLOCK_RECORD
  5
811
330
1
100
AcDbSymbolTableRecord
100
AcDbBlockTableRecord
  2
block 255
340
0
102
{BLKREFS
331
812
102
}
  0
BLOCK_RECORD
  5
81C
330
1
100
AcDbSymbolTableRecord
100
AcDbBlockTableRecord
  2
block 256
340
0
102
{BLKREFS
331
81D
102
}
  0
BLOCK_RECORD
  5
827
330
1
100
AcDbSymbolTableRecord
100
AcDbBlockTableRecord
  2
block 257
340
0
102
{BLKREFS
331
828
102
}
  0
BLOCK_RECORD
  5
82C
330
1
100
AcDbSymbolTableRecord
100
AcDbBlockTableRecord
  2
block 258
340
0
102
{BLKREFS
331
82D
102
}
  0
BLOCK_RECORD
  5
834
330
1
100
AcDbSymbolTableRecord
100
AcDbBlockTableRecord
  2
block 259
340
0
102
{BLKREFS
331
835
102
}
  0
BLOCK_RECORD
  5
83C
330
1
100
AcDbSymbolTableRecord
100
AcDbBlockTableRecord
  2
block 260
340
0
102
{BLKREFS
331
83D
102
}
  0
ENDTAB
  0
ENDSEC
  0
SECTION
  2
BLOCKS
  0
BLOCK
  5
20
330
1F
100
AcDbEntity
  8
0
100
AcDbBlockBegin
  2
*Model_Space
 70
     0
 71
     0
 10
0.0
 20
0.0
 30
0.0
  3
*Model_Space
  1

  0
ENDBLK
  5
21
330
1F
100
AcDbEntity
  8
0
100
AcDbBlockEnd
  0
BLOCK
  5
1C
330
1B
100
AcDbEntity
 67
     1
  8
0
100
AcDbBlockBegin
  2
*Paper_Space
 70
     0
 71
     0
 10
0.0
 20
0.0
 30
0.0
  3
*Paper_Space
  1

  0
ENDBLK
  5
1D
330
1B
100
AcDbEntity
 67
     1
  8
0
100
AcDbBlockEnd
  0
BLOCK
  5
24
330
23
100
AcDbEntity
  8
0
100
AcDbBlockBegin
  2
*Paper_Space0
 70
     0
 71
     0
 10
0.0
 20
0.0
 30
0.0
  3
*Paper_Space0
  1

  0
ENDBLK
  5
25
330
23
100
AcDbEntity
  8
0
100
AcDbBlockEnd
  0
BLOCK
  5
3E
330
3C
100
AcDbEntity
  8
0
100
AcDbBlockBegin
  2
block 2
 70
     0
 71
     0
 10
0.0
 20
0.0
 30
0.0
  3
block 2
  1

  0
POLYLINE
  5
40
330
3C
100
AcDbEntity
  8
cuerpo
 62
     7
420
 16777215
370
    25
100
AcDb2dPolyline
 66
     1
 10
0.0
 20
0.0
 30
0.0
  0
VERTEX
  5
41
330
40
100
AcDbEntity
  8
cuerpo
 62
     7
420
 16777215
370
    25
100
AcDbVertex
100
AcDb2dVertex
 10
60.23766681436767
 20
72.45931530306574
 30
0.0
  0
VERTEX
  5
42
330
40
100
AcDbEntity
  8
cuerpo
 62
     7
420
 16777215
370
    25
100
AcDbVertex
100
AcDb2dVertex
 10
80.80144176582395
 20
72.45931530306574
 30
0.0
  0
SEQEND
  5
43
330
40
100
AcDbEntity
  8
cuerpo
370
    25
  0
ENDBLK
  5
3F
330
3C
100
AcDbEntity
  8
0
100
AcDbBlockEnd
  0
BLOCK
  5
46
330
44
100
AcDbEntity
  8
0
100
AcDbBlockBegin
  2
block 3
 70
     0
 71
     0
 10
0.0
 20
0.0
 30
0.0
  3
block 3
  1

  0
POLYLINE
  5
48
330
44
100
AcDbEntity
  8
cuerpo
 62
     7
420
 16777215
370
    25
100
AcDb2dPolyline
 66
     1
 10
0.0
 20
0.0
 30
0.0
  0
VERTEX
  5
49
330
48
100
AcDbEntity
  8
cuerpo
 62
     7
420
 16777215
370
    25
100
AcDbVertex
100
AcDb2dVertex
 10
60.23766681436767
 20
72.45931530306574
 30
0.0
  0
VERTEX
  5
4A
330
48
100
AcDbEntity
  8
cuerpo
 62
     7
420
 16777215
370
    25
100
AcDbVertex
100
AcDb2dVertex
 10
62.52245414018536
 20
72.45931530306574
 30
0.0
  0
SEQEND
  5
4B
330
48
100
AcDbEntity
  8
cuerpo
370
    25
  0
ENDBLK
  5
47
330
44
100
AcDbEntity
  8
0
100
AcDbBlockEnd
  0
BLOCK
  5
4E
330
4C
100
AcDbEntity
  8
0
100
AcDbBlockBegin
  2
block 4
 70
     0
 71
     0
 10
0.0
 20
0.0
 30
0.0
  3
block 4
  1

  0
POLYLINE
  5
50
330
4C
100
AcDbEntity
  8
cuerpo
 62
     7
420
 16777215
370
    25
100
AcDb2dPolyline
 66
     1
 10
0.0
 20
0.0
 30
0.0
  0
VERTEX
  5
51
330
50
100
AcDbEntity
  8
cuerpo
 62
     7
420
 16777215
370
    25
100
AcDbVertex
100
AcDb2dVertex
 10
98.62326522056988
 20
115.586226370843
 30
0.0
  0
VERTEX
  5
52
330
50
100
AcDbEntity
  8
cuerpo
 62
     7
420
 16777215
370
    25
100
AcDbVertex
100
AcDb2dVertex
 10
98.62326522056988
 20
105.532748725787
 30
0.0
  0
SEQEND
  5
53
330
50
100
AcDbEntity
  8
cuerpo
370
    25
  0
ENDBLK
  5
4F
330
4C
100
AcDbEntity
  8
0
100
AcDbBlockEnd
  0
BLOCK
  5
56
330
54
100
AcDbEntity
  8
0
100
AcDbBlockBegin
  2
block 5
 70
     0
 71
     0
 10
0.0
 20
0.0
 30
0.0
  3
block 5
  1

  0
POLYLINE
  5
58
330
54
100
AcDbEntity
  8
cuerpo
 62
     7
420
 16777215
370
    25
100
AcDb2dPolyline
 66
     1
 10
0.0
 20
0.0
 30
0.0
  0
VERTEX
  5
59
330
58
100
AcDbEntity
  8
cuerpo
 62
     7
420
 16777215
370
    25
100
AcDbVertex
100
AcDb2dVertex
 10
97.52669132761486
 20
105.532748725787
 30
0.0
  0
VERTEX
  5
5A
330
58
100
AcDbEntity
  8
cuerpo
 62
     7
420
 16777215
370
    25
100
AcDbVertex
100
AcDb2dVertex
 10
97.52669132761486
 20
115.586226370843
 30
0.0
  0
SEQEND
  5
5B
330
58
100
AcDbEntity
  8
cuerpo
370
    25
  0
ENDBLK
  5
57
330
54
100
AcDbEntity
  8
0
100
AcDbBlockEnd
  0
BLOCK
  5
5E
330
5C
100
AcDbEntity
  8
0
100
AcDbBlockBegin
  2
block 6
 70
     0
 71
     0
 10
0.0
 20
0.0
 30
0.0
  3
block 6
  1

  0
POLYLINE
  5
60
330
5C
100
AcDbEntity
  8
cuerpo
 62
     7
420
 16777215
370
    25
100
AcDb2dPolyline
 66
     1
 10
0.0
 20
0.0
 30
0.0
  0
VERTEX
  5
61
330
60
100
AcDbEntity
  8
cuerpo
 62
     7
420
 16777215
370
    25
100
AcDbVertex
100
AcDb2dVertex
 10
115.0742851817349
 20
109.5376722273899
 30
0.0
  0
VERTEX
  5
62
330
60
100
AcDbEntity
  8
cuerpo
 62
     7
420
 16777215
370
    25
100
AcDbVertex
100
AcDb2dVertex
 10
115.0742851817349
 20
115.586226370843
 30
0.0
  0
SEQEND
  5
63
330
60
100
AcDbEntity
  8
cuerpo
370
    25
  0
ENDBLK
  5
5F
330
5C
100
AcDbEntity
  8
0
100
AcDbBlockEnd
  0
BLOCK
  5
66
330
64
100
AcDbEntity
  8
0
100
AcDbBlockBegin
  2
block 7
 70
     0
 71
     0
 10
0.0
 20
0.0
 30
0.0
  3
block 7
  1

  0
POLYLINE
  5
68
330
64
100
AcDbEntity
  8
cuerpo
 62
     7
420
 16777215
370
    25
100
AcDb2dPolyline
 66
     1
 10
0.0
 20
0.0
 30
0.0
  0
VERTEX
  5
69
330
68
100
AcDbEntity
  8
cuerpo
 62
     7
420
 16777215
370
    25
100
AcDbVertex
100
AcDb2dVertex
 10
78.56212970041156
 20
115.586226370843
 30
0.0
  0
VERTEX
  5
6A
330
68
100
AcDbEntity
  8
cuerpo
 62
     7
420
 16777215
370
    25
100
AcDbVertex
100
AcDb2dVertex
 10
78.56212970041156
 20
105.532748725787
 30
0.0
  0
SEQEND
  5
6B
330
68
100
AcDbEntity
  8
cuerpo
370
    25
  0
ENDBLK
  5
67
330
64
100
AcDbEntity
  8
0
100
AcDbBlockEnd
  0
BLOCK
  5
6E
330
6C
100
AcDbEntity
  8
0
100
AcDbBlockBegin
  2
block 8
 70
     0
 71
     0
 10
0.0
 20
0.0
 30
0.0
  3
block 8
  1

  0
POLYLINE
  5
70
330
6C
100
AcDbEntity
  8
cuerpo
 62
     7
420
 16777215
370
    25
100
AcDb2dPolyline
 66
     1
 10
0.0
 20
0.0
 30
0.0
  0
VERTEX
  5
71
330
70
100
AcDbEntity
  8
cuerpo
 62
     7
420
 16777215
370
    25
100
AcDbVertex
100
AcDb2dVertex
 10
78.56212970041156
 20
105.532748725787
 30
0.0
  0
VERTEX
  5
72
330
70
100
AcDbEntity
  8
cuerpo
 62
     7
420
 16777215
370
    25
100
AcDbVertex
100
AcDb2dVertex
 10
97.52669132761486
 20
105.532748725787
 30
0.0
  0
SEQEND
  5
73
330
70
100
AcDbEntity
  8
cuerpo
370
    25
  0
ENDBLK
  5
6F
330
6C
100
AcDbEntity
  8
0
100
AcDbBlockEnd
  0
BLOCK
  5
76
330
74
100
AcDbEntity
  8
0
100
AcDbBlockBegin
  2
block 9
 70
     0
 71
     0
 10
0.0
 20
0.0
 30
0.0
  3
block 9
  1

  0
POLYLINE
  5
78
330
74
100
AcDbEntity
  8
cuerpo
 62
     7
420
 16777215
370
    25
100
AcDb2dPolyline
 66
     1
 10
0.0
 20
0.0
 30
0.0
  0
VERTEX
  5
79
330
78
100
AcDbEntity
  8
cuerpo
 62
     7
420
 16777215
370
    25
100
AcDbVertex
100
AcDb2dVertex
 10
98.62326522056988
 20
105.532748725787
 30
0.0
  0
VERTEX
  5
7A
330
78
100
AcDbEntity
  8
cuerpo
 62
     7
420
 16777215
370
    25
100
AcDbVertex
100
AcDb2dVertex
 10
104.0709947113955
 20
105.532748725787
 30
0.0
  0
SEQEND
  5
7B
330
78
100
AcDbEntity
  8
cuerpo
370
    25
  0
ENDBLK
  5
77
330
74
100
AcDbEntity
  8
0
100
AcDbBlockEnd
  0
BLOCK
  5
7E
330
7C
100
AcDbEntity
  8
0
100
AcDbBlockBegin
  2
block 10
 70
     0
 71
     0
 10
0.0
 20
0.0
 30
0.0
  3
block 10
  1

  0
POLYLINE
  5
80
330
7C
100
AcDbEntity
  8
cuerpo
 62
     7
420
 16777215
370
    25
100
AcDb2dPolyline
 66
     1
 10
0.0
 20
0.0
 30
0.0
  0
VERTEX
  5
81
330
80
100
AcDbEntity
  8
cuerpo
 62
     7
420
 16777215
370
    25
100
AcDbVertex
100
AcDb2dVertex
 10
98.62326522056988
 20
115.586226370843
 30
0.0
  0
VERTEX
  5
82
330
80
100
AcDbEntity
  8
cuerpo
 62
     7
420
 16777215
370
    25
100
AcDbVertex
100
AcDb2dVertex
 10
115.0742851817349
 20
115.586226370843
 30
0.0
  0
SEQEND
  5
83
330
80
100
AcDbEntity
  8
cuerpo
370
    25
  0
ENDBLK
  5
7F
330
7C
100
AcDbEntity
  8
0
100
AcDbBlockEnd
  0
BLOCK
  5
86
330
84
100
AcDbEntity
  8
0
100
AcDbBlockBegin
  2
block 11
 70
     0
 71
     0
 10
0.0
 20
0.0
 30
0.0
  3
block 11
  1

  0
POLYLINE
  5
88
330
84
100
AcDbEntity
  8
cuerpo
 62
     7
420
 16777215
370
    25
100
AcDb2dPolyline
 66
     1
 10
0.0
 20
0.0
 30
0.0
  0
VERTEX
  5
89
330
88
100
AcDbEntity
  8
cuerpo
 62
     7
420
 16777215
370
    25
100
AcDbVertex
100
AcDb2dVertex
 10
78.56212970041156
 20
115.586226370843
 30
0.0
  0
VERTEX
  5
8A
330
88
100
AcDbEntity
  8
cuerpo
 62
     7
420
 16777215
370
    25
100
AcDbVertex
100
AcDb2dVertex
 10
97.52669132761486
 20
115.586226370843
 30
0.0
  0
SEQEND
  5
8B
330
88
100
AcDbEntity
  8
cuerpo
370
    25
  0
ENDBLK
  5
87
330
84
100
AcDbEntity
  8
0
100
AcDbBlockEnd
  0
BLOCK
  5
8E
330
8C
100
AcDbEntity
  8
0
100
AcDbBlockBegin
  2
block 12
 70
     0
 71
     0
 10
0.0
 20
0.0
 30
0.0
  3
block 12
  1

  0
POLYLINE
  5
90
330
8C
100
AcDbEntity
  8
cuerpo
 62
     7
420
 16777215
370
    25
100
AcDb2dPolyline
 66
     1
 10
0.0
 20
0.0
 30
0.0
  0
VERTEX
  5
91
330
90
100
AcDbEntity
  8
cuerpo
 62
     7
420
 16777215
370
    25
100
AcDbVertex
100
AcDb2dVertex
 10
60.23766681436767
 20
72.45931530306574
 30
0.0
  0
VERTEX
  5
92
330
90
100
AcDbEntity
  8
cuerpo
 62
     7
420
 16777215
370
    25
100
AcDbVertex
100
AcDb2dVertex
 10
80.80144176582395
 20
72.45931530306574
 30
0.0
  0
SEQEND
  5
93
330
90
100
AcDbEntity
  8
cuerpo
370
    25
  0
ENDBLK
  5
8F
330
8C
100
AcDbEntity
  8
0
100
AcDbBlockEnd
  0
BLOCK
  5
96
330
94
100
AcDbEntity
  8
0
100
AcDbBlockBegin
  2
block 13
 70
     0
 71
     0
 10
0.0
 20
0.0
 30
0.0
  3
block 13
  1

  0
POLYLINE
  5
98
330
94
100
AcDbEntity
  8
cuerpo
 62
     7
420
 16777215
370
    25
100
AcDb2dPolyline
 66
     1
 10
0.0
 20
0.0
 30
0.0
  0
VERTEX
  5
99
330
98
100
AcDbEntity
  8
cuerpo
 62
     7
420
 16777215
370
    25
100
AcDbVertex
100
AcDb2dVertex
 10
60.23766681436767
 20
74.97285696910401
 30
0.0
  0
VERTEX
  5
9A
330
98
100
AcDbEntity
  8
cuerpo
 62
     7
420
 16777215
370
    25
100
AcDbVertex
100
AcDb2dVertex
 10
60.23766681436767
 20
72.45931530306574
 30
0.0
  0
SEQEND
  5
9B
330
98
100
AcDbEntity
  8
cuerpo
370
    25
  0
ENDBLK
  5
97
330
94
100
AcDbEntity
  8
0
100
AcDbBlockEnd
  0
BLOCK
  5
9E
330
9C
100
AcDbEntity
  8
0
100
AcDbBlockBegin
  2
block 14
 70
     0
 71
     0
 10
0.0
 20
0.0
 30
0.0
  3
block 14
  1

  0
POLYLINE
  5
A0
330
9C
100
AcDbEntity
  8
cuerpo
 62
     7
420
 16777215
370
    25
100
AcDb2dPolyline
 66
     1
 10
0.0
 20
0.0
 30
0.0
  0
VERTEX
  5
A1
330
A0
100
AcDbEntity
  8
cuerpo
 62
     7
420
 16777215
370
    25
100
AcDbVertex
100
AcDb2dVertex
 10
80.80144176582395
 20
72.45931530306574
 30
0.0
  0
VERTEX
  5
A2
330
A0
100
AcDbEntity
  8
cuerpo
 62
     7
420
 16777215
370
    25
100
AcDbVertex
100
AcDb2dVertex
 10
80.80144176582395
 20
74.97285696910401
 30
0.0
  0
SEQEND
  5
A3
330
A0
100
AcDbEntity
  8
cuerpo
370
    25
  0
ENDBLK
  5
9F
330
9C
100
AcDbEntity
  8
0
100
AcDbBlockEnd
  0
BLOCK
  5
A6
330
A4
100
AcDbEntity
  8
0
100
AcDbBlockBegin
  2
block 15
 70
     0
 71
     0
 10
0.0
 20
0.0
 30
0.0
  3
block 15
  1

  0
POLYLINE
  5
A8
330
A4
100
AcDbEntity
  8
cuerpo
 62
     7
420
 16777215
370
    25
100
AcDb2dPolyline
 66
     1
 10
0.0
 20
0.0
 30
0.0
  0
VERTEX
  5
A9
330
A8
100
AcDbEntity
  8
cuerpo
 62
     7
420
 16777215
370
    25
100
AcDbVertex
100
AcDb2dVertex
 10
62.52245414018536
 20
74.97285696910401
 30
0.0
  0
VERTEX
  5
AA
330
A8
100
AcDbEntity
  8
cuerpo
 62
     7
420
 16777215
370
    25
100
AcDbVertex
100
AcDb2dVertex
 10
62.52245414018536
 20
127.5245157558793
 30
0.0
  0
SEQEND
  5
AB
330
A8
100
AcDbEntity
  8
cuerpo
370
    25
  0
ENDBLK
  5
A7
330
A4
100
AcDbEntity
  8
0
100
AcDbBlockEnd
  0
BLOCK
  5
AE
330
AC
100
AcDbEntity
  8
0
100
AcDbBlockBegin
  2
block 16
 70
     0
 71
     0
 10
0.0
 20
0.0
 30
0.0
  3
block 16
  1

  0
POLYLINE
  5
B0
330
AC
100
AcDbEntity
  8
cuerpo
 62
     7
420
 16777215
370
    25
100
AcDb2dPolyline
 66
     1
 10
0.0
 20
0.0
 30
0.0
  0
VERTEX
  5
B1
330
B0
100
AcDbEntity
  8
cuerpo
 62
     7
420
 16777215
370
    25
100
AcDbVertex
100
AcDb2dVertex
 10
78.51630993045774
 20
74.97285696910401
 30
0.0
  0
VERTEX
  5
B2
330
B0
100
AcDbEntity
  8
cuerpo
 62
     7
420
 16777215
370
    25
100
AcDbVertex
100
AcDb2dVertex
 10
78.51630993045774
 20
127.5245157558793
 30
0.0
  0
SEQEND
  5
B3
330
B0
100
AcDbEntity
  8
cuerpo
370
    25
  0
ENDBLK
  5
AF
330
AC
100
AcDbEntity
  8
0
100
AcDbBlockEnd
  0
BLOCK
  5
B6
330
B4
100
AcDbEntity
  8
0
100
AcDbBlockBegin
  2
block 17
 70
     0
 71
     0
 10
0.0
 20
0.0
 30
0.0
  3
block 17
  1

  0
POLYLINE
  5
B8
330
B4
100
AcDbEntity
  8
cuerpo
 62
     7
420
 16777215
370
    25
100
AcDb2dPolyline
 66
     1
 10
0.0
 20
0.0
 30
0.0
  0
VERTEX
  5
B9
330
B8
100
AcDbEntity
  8
cuerpo
 62
     7
420
 16777215
370
    25
100
AcDbVertex
100
AcDb2dVertex
 10
80.80144176582395
 20
74.97285696910401
 30
0.0
  0
VERTEX
  5
BA
330
B8
100
AcDbEntity
  8
cuerpo
 62
     7
420
 16777215
370
    25
100
AcDbVertex
100
AcDb2dVertex
 10
60.23766681436767
 20
74.97285696910401
 30
0.0
  0
SEQEND
  5
BB
330
B8
100
AcDbEntity
  8
cuerpo
370
    25
  0
ENDBLK
  5
B7
330
B4
100
AcDbEntity
  8
0
100
AcDbBlockEnd
  0
BLOCK
  5
BE
330
BC
100
AcDbEntity
  8
0
100
AcDbBlockBegin
  2
block 18
 70
     0
 71
     0
 10
0.0
 20
0.0
 30
0.0
  3
block 18
  1

  0
POLYLINE
  5
C0
330
BC
100
AcDbEntity
  8
cuerpo
 62
     7
420
 16777215
370
    25
100
AcDb2dPolyline
 66
     1
 10
0.0
 20
0.0
 30
0.0
  0
VERTEX
  5
C1
330
C0
100
AcDbEntity
  8
cuerpo
 62
     7
420
 16777215
370
    25
100
AcDbVertex
100
AcDb2dVertex
 10
108.7890529784451
 20
105.0009982376386
 30
0.0
  0
VERTEX
  5
C2
330
C0
100
AcDbEntity
  8
cuerpo
 62
     7
420
 16777215
370
    25
100
AcDbVertex
100
AcDb2dVertex
 10
111.0548922790939
 20
105.8255818420332
 30
0.0
  0
SEQEND
  5
C3
330
C0
100
AcDbEntity
  8
cuerpo
370
    25
  0
ENDBLK
  5
BF
330
BC
100
AcDbEntity
  8
0
100
AcDbBlockEnd
  0
BLOCK
  5
C6
330
C4
100
AcDbEntity
  8
0
100
AcDbBlockBegin
  2
block 19
 70
     0
 71
     0
 10
0.0
 20
0.0
 30
0.0
  3
block 19
  1

  0
POLYLINE
  5
C8
330
C4
100
AcDbEntity
  8
cuerpo
 62
     7
420
 16777215
370
    25
100
AcDb2dPolyline
 66
     1
 10
0.0
 20
0.0
 30
0.0
  0
VERTEX
  5
C9
330
C8
100
AcDbEntity
  8
cuerpo
 62
     7
420
 16777215
370
    25
100
AcDbVertex
100
AcDb2dVertex
 10
113.9353366143113
 20
105.609574355108
 30
0.0
  0
VERTEX
  5
CA
330
C8
100
AcDbEntity
  8
cuerpo
 62
     7
420
 16777215
370
    25
100
AcDbVertex
100
AcDb2dVertex
 10
106.7213066681982
 20
102.9838948310249
 30
0.0
  0
SEQEND
  5
CB
330
C8
100
AcDbEntity
  8
cuerpo
370
    25
  0
ENDBLK
  5
C7
330
C4
100
AcDbEntity
  8
0
100
AcDbBlockEnd
  0
BLOCK
  5
CE
330
CC
100
AcDbEntity
  8
0
100
AcDbBlockBegin
  2
block 20
 70
     0
 71
     0
 10
0.0
 20
0.0
 30
0.0
  3
block 20
  1

  0
POLYLINE
  5
D0
330
CC
100
AcDbEntity
  8
cuerpo
 62
     7
420
 16777215
370
    25
100
AcDb2dPolyline
 66
     1
 10
0.0
 20
0.0
 30
0.0
  0
VERTEX
  5
D1
330
D0
100
AcDbEntity
  8
cuerpo
 62
     7
420
 16777215
370
    25
100
AcDbVertex
100
AcDb2dVertex
 10
104.0709947113955
 20
105.532748725787
 30
0.0
  0
VERTEX
  5
D2
330
D0
100
AcDbEntity
  8
cuerpo
 62
     7
420
 16777215
370
    25
100
AcDbVertex
100
AcDb2dVertex
 10
115.0742851817349
 20
109.5376722273899
 30
0.0
  0
SEQEND
  5
D3
330
D0
100
AcDbEntity
  8
cuerpo
370
    25
  0
ENDBLK
  5
CF
330
CC
100
AcDbEntity
  8
0
100
AcDbBlockEnd
  0
BLOCK
  5
D6
330
D4
100
AcDbEntity
  8
0
100
AcDbBlockBegin
  2
block 21
 70
     0
 71
     0
 10
0.0
 20
0.0
 30
0.0
  3
block 21
  1

  0
POLYLINE
  5
D8
330
D4
100
AcDbEntity
  8
cuerpo
 62
     7
420
 16777215
370
    25
100
AcDb2dPolyline
 66
     1
 10
0.0
 20
0.0
 30
0.0
  0
VERTEX
  5
D9
330
D8
100
AcDbEntity
  8
cuerpo
 62
     7
420
 16777215
370
    25
100
AcDbVertex
100
AcDb2dVertex
 10
97.52669132761486
 20
108.5844143066213
 30
0.0
  0
VERTEX
  5
DA
330
D8
100
AcDbEntity
  8
cuerpo
 62
     7
420
 16777215
370
    25
100
AcDbVertex
100
AcDb2dVertex
 10
98.62326522056988
 20
108.5844143066213
 30
0.0
  0
SEQEND
  5
DB
330
D8
100
AcDbEntity
  8
cuerpo
370
    25
  0
ENDBLK
  5
D7
330
D4
100
AcDbEntity
  8
0
100
AcDbBlockEnd
  0
BLOCK
  5
DE
330
DC
100
AcDbEntity
  8
0
100
AcDbBlockBegin
  2
block 22
 70
     0
 71
     0
 10
0.0
 20
0.0
 30
0.0
  3
block 22
  1

  0
POLYLINE
  5
E0
330
DC
100
AcDbEntity
  8
cuerpo
 62
     7
420
 16777215
370
    25
100
AcDb2dPolyline
 66
     1
 10
0.0
 20
0.0
 30
0.0
  0
VERTEX
  5
E1
330
E0
100
AcDbEntity
  8
cuerpo
 62
     7
420
 16777215
370
    25
100
AcDbVertex
100
AcDb2dVertex
 10
98.62326522056988
 20
112.6971692969125
 30
0.0
  0
VERTEX
  5
E2
330
E0
100
AcDbEntity
  8
cuerpo
 62
     7
420
 16777215
370
    25
100
AcDbVertex
100
AcDb2dVertex
 10
97.52669132761486
 20
112.6971692969125
 30
0.0
  0
SEQEND
  5
E3
330
E0
100
AcDbEntity
  8
cuerpo
370
    25
  0
ENDBLK
  5
DF
330
DC
100
AcDbEntity
  8
0
100
AcDbBlockEnd
  0
BLOCK
  5
E6
330
E4
100
AcDbEntity
  8
0
100
AcDbBlockBegin
  2
block 23
 70
     0
 71
     0
 10
0.0
 20
0.0
 30
0.0
  3
block 23
  1

  0
SPLINE
  5
E8
330
E4
100
AcDbEntity
  8
cuerpo
 62
     7
420
 16777215
370
    25
100
AcDbSpline
210
0.0
220
0.0
230
1.0
 70
     8
 71
     3
 72
   179
 73
   175
 74
     0
 42
0.0000000001
 43
0.0000000001
 40
0.0
 40
0.0
 40
0.0
 40
0.0
 40
1.0
 40
1.0
 40
1.0
 40
2.0
 40
2.0
 40
2.0
 40
3.0
 40
3.0
 40
3.0
 40
4.0
 40
4.0
 40
4.0
 40
5.0
 40
5.0
 40
5.0
 40
6.0
 40
6.0
 40
6.0
 40
7.0
 40
7.0
 40
7.0
 40
8.0
 40
8.0
 40
8.0
 40
9.0
 40
9.0
 40
9.0
 40
10.0
 40
10.0
 40
10.0
 40
11.0
 40
11.0
 40
11.0
 40
12.0
 40
12.0
 40
12.0
 40
13.0
 40
13.0
 40
13.0
 40
14.0
 40
14.0
 40
14.0
 40
15.0
 40
15.0
 40
15.0
 40
16.0
 40
16.0
 40
16.0
 40
17.0
 40
17.0
 40
17.0
 40
18.0
 40
18.0
 40
18.0
 40
19.0
 40
19.0
 40
19.0
 40
20.0
 40
20.0
 40
20.0
 40
21.0
 40
21.0
 40
21.0
 40
22.0
 40
22.0
 40
22.0
 40
23.0
 40
23.0
 40
23.0
 40
24.0
 40
24.0
 40
24.0
 40
25.0
 40
25.0
 40
25.0
 40
26.0
 40
26.0
 40
26.0
 40
27.0
 40
27.0
 40
27.0
 40
28.0
 40
28.0
 40
28.0
 40
29.0
 40
29.0
 40
29.0
 40
30.0
 40
30.0
 40
30.0
 40
31.0
 40
31.0
 40
31.0
 40
32.0
 40
32.0
 40
32.0
 40
33.0
 40
33.0
 40
33.0
 40
34.0
 40
34.0
 40
34.0
 40
35.0
 40
35.0
 40
35.0
 40
36.0
 40
36.0
 40
36.0
 40
37.0
 40
37.0
 40
37.0
 40
38.0
 40
38.0
 40
38.0
 40
39.0
 40
39.0
 40
39.0
 40
40.0
 40
40.0
 40
40.0
 40
41.0
 40
41.0
 40
41.0
 40
42.0
 40
42.0
 40
42.0
 40
43.0
 40
43.0
 40
43.0
 40
44.0
 40
44.0
 40
44.0
 40
45.0
 40
45.0
 40
45.0
 40
46.0
 40
46.0
 40
46.0
 40
47.0
 40
47.0
 40
47.0
 40
48.0
 40
48.0
 40
48.0
 40
49.0
 40
49.0
 40
49.0
 40
50.0
 40
50.0
 40
50.0
 40
51.0
 40
51.0
 40
51.0
 40
52.0
 40
52.0
 40
52.0
 40
53.0
 40
53.0
 40
53.0
 40
54.0
 40
54.0
 40
54.0
 40
55.0
 40
55.0
 40
55.0
 40
56.0
 40
56.0
 40
56.0
 40
57.0
 40
57.0
 40
57.0
 40
58.0
 40
58.0
 40
58.0
 40
58.0
 10
111.3832098788382
 20
104.9238280987691
 30
0.0
 10
111.3832098788382
 20
104.9238280987691
 30
0.0
 10
111.3477253953402
 20
104.8979898826297
 30
0.0
 10
111.3477253953402
 20
104.8979898826297
 30
0.0
 10
111.3363565802388
 20
104.8895493986908
 30
0.0
 10
111.3242987460405
 20
104.8809366599777
 30
0.0
 10
111.3125854213906
 20
104.8726684308131
 30
0.0
 10
111.3008720967408
 20
104.8642279468742
 30
0.0
 10
111.2891587720909
 20
104.8559597177096
 30
0.0
 10
111.2774454474411
 20
104.847691488545
 30
0.0
 10
111.2657321227912
 20
104.8394232593804
 30
0.0
 10
111.2540187981414
 20
104.8313272849901
 30
0.0
 10
111.241960963943
 20
104.8232313105998
 30
0.0
 10
111.2305921488417
 20
104.8151353362094
 30
0.0
 10
111.2185343146433
 20
104.8072116165933
 30
0.0
 10
111.2068209899934
 20
104.7992878969773
 30
0.0
 10
111.1951076653436
 20
104.7915364321355
 30
0.0
 10
111.1833943406937
 20
104.7836127125194
 30
0.0
 10
111.1716810160439
 20
104.7758612476776
 30
0.0
 10
111.159967691394
 20
104.7681097828358
 30
0.0
 10
111.1482543667442
 20
104.7605305727682
 30
0.0
 10
111.1365410420943
 20
104.7529513627007
 30
0.0
 10
111.1248277174445
 20
104.7453721526331
 30
0.0
 10
111.1131143927946
 20
104.7377929425656
 30
0.0
 10
111.1014010681448
 20
104.730213732498
 30
0.0
 10
111.0896877434949
 20
104.7226345224305
 30
0.0
 10
111.0776299092966
 20
104.7153998219114
 30
0.0
 10
111.0662610941952
 20
104.7081651213924
 30
0.0
 10
111.0545477695454
 20
104.7005859113249
 30
0.0
 10
111.042489935347
 20
104.6936957203544
 30
0.0
 10
111.0307766106972
 20
104.6861165102868
 30
0.0
 10
111.0190632860473
 20
104.6792263193163
 30
0.0
 10
111.0073499613975
 20
104.6723361283458
 30
0.0
 10
110.9956366367476
 20
104.6651014278268
 30
0.0
 10
110.9835788025492
 20
104.6582112368563
 30
0.0
 10
110.9722099874479
 20
104.6513210458858
 30
0.0
 10
110.9601521532496
 20
104.6440863453668
 30
0.0
 10
110.9484388285997
 20
104.6375406639448
 30
0.0
 10
110.9367255039498
 20
104.6309949825228
 30
0.0
 10
110.9246676697515
 20
104.6241047915523
 30
0.0
 10
110.9129543451016
 20
104.6172146005818
 30
0.0
 10
110.9012410204518
 20
104.6103244096113
 30
0.0
 10
110.8891831862534
 20
104.6041232377379
 30
0.0
 10
110.8778143711521
 20
104.5972330467674
 30
0.0
 10
110.8661010465022
 20
104.5910318748939
 30
0.0
 10
110.8540432123038
 20
104.5844861934719
 30
0.0
 10
110.842329887654
 20
104.57794051205
 30
0.0
 10
110.8302720534556
 20
104.5717393401765
 30
0.0
 10
110.8185587288058
 20
104.5655381683031
 30
0.0
 10
110.8065008946074
 20
104.5593369964296
 30
0.0
 10
110.7947875699576
 20
104.5531358245562
 30
0.0
 10
110.7830742453077
 20
104.5469346526827
 30
0.0
 10
110.7710164111093
 20
104.5407334808093
 30
0.0
 10
110.758958576911
 20
104.5345323089358
 30
0.0
 10
110.7472452522611
 20
104.5283311370624
 30
0.0
 10
110.7355319276113
 20
104.5224744747374
 30
0.0
 10
110.7234740934129
 20
104.5166178124125
 30
0.0
 10
110.711760768763
 20
104.5104166405391
 30
0.0
 10
110.6997029345647
 20
104.5049044877627
 30
0.0
 10
110.6876451003663
 20
104.4987033158892
 30
0.0
 10
110.6759317757164
 20
104.4931911631128
 30
0.0
 10
110.6638739415181
 20
104.4873345007879
 30
0.0
 10
110.6521606168682
 20
104.481477838463
 30
0.0
 10
110.6401027826698
 20
104.4759656856866
 30
0.0
 10
110.6280449484715
 20
104.4704535329102
 30
0.0
 10
110.6159871142731
 20
104.4649413801338
 30
0.0
 10
110.6039292800747
 20
104.4594292273574
 30
0.0
 10
110.5922159554249
 20
104.453917074581
 30
0.0
 10
110.579813611678
 20
104.4484049218046
 30
0.0
 10
110.5681002870281
 20
104.4428927690282
 30
0.0
 10
110.5556979432812
 20
104.4373806162518
 30
0.0
 10
110.5439846186314
 20
104.4322129730239
 30
0.0
 10
110.531926784433
 20
104.427045329796
 30
0.0
 10
110.5198689502346
 20
104.4218776865682
 30
0.0
 10
110.5078111160363
 20
104.4167100433403
 30
0.0
 10
110.4957532818379
 20
104.4115424001124
 30
0.0
 10
110.4836954476395
 20
104.4063747568845
 30
0.0
 10
110.4716376134411
 20
104.4015516232052
 30
0.0
 10
110.4592352696942
 20
104.3963839799773
 30
0.0
 10
110.4471774354958
 20
104.3912163367494
 30
0.0
 10
110.4347750917489
 20
104.3863932030701
 30
0.0
 10
110.4227172575506
 20
104.3815700693907
 30
0.0
 10
110.4106594233522
 20
104.3767469357114
 30
0.0
 10
110.3986015891538
 20
104.371923802032
 30
0.0
 10
110.3861992454069
 20
104.3671006683527
 30
0.0
 10
110.3741414112086
 20
104.3626220442219
 30
0.0
 10
110.3620835770102
 20
104.358143420091
 30
0.0
 10
110.3496812332633
 20
104.3533202864117
 30
0.0
 10
110.3372788895164
 20
104.3484971527323
 30
0.0
 10
110.3248765457695
 20
104.34436303815
 30
0.0
 10
110.3128187115711
 20
104.3395399044707
 30
0.0
 10
110.3004163678242
 20
104.3354057898884
 30
0.0
 10
110.2883585336258
 20
104.3309271657575
 30
0.0
 10
110.2756116803304
 20
104.3264485416267
 30
0.0
 10
110.263553846132
 20
104.3223144270444
 30
0.0
 10
110.2511515023851
 20
104.3178358029136
 30
0.0
 10
110.2387491586382
 20
104.3133571787828
 30
0.0
 10
110.2263468148913
 20
104.3092230642005
 30
0.0
 10
110.2139444711444
 20
104.3050889496182
 30
0.0
 10
110.2015421273975
 20
104.3009548350359
 30
0.0
 10
110.1891397836506
 20
104.2968207204536
 30
0.0
 10
110.1763929303552
 20
104.2930311154198
 30
0.0
 10
110.1639905866083
 20
104.2888970008375
 30
0.0
 10
110.1515882428614
 20
104.2851073958037
 30
0.0
 10
110.138841389566
 20
104.2809732812214
 30
0.0
 10
110.1264390458191
 20
104.2771836761876
 30
0.0
 10
110.1140367020722
 20
104.2733940711539
 30
0.0
 10
110.1012898487768
 20
104.2696044661201
 30
0.0
 10
110.0885429954813
 20
104.2658148610863
 30
0.0
 10
110.0761406517344
 20
104.2620252560526
 30
0.0
 10
110.063393798439
 20
104.2582356510188
 30
0.0
 10
110.0509914546921
 20
104.2547905555335
 30
0.0
 10
110.0382446013967
 20
104.2513454600483
 30
0.0
 10
110.0254977481013
 20
104.2475558550145
 30
0.0
 10
110.0127508948058
 20
104.2441107595292
 30
0.0
 10
110.0000040415104
 20
104.240665664044
 30
0.0
 10
109.987257188215
 20
104.2368760590102
 30
0.0
 10
109.9745103349196
 20
104.2337754730735
 30
0.0
 10
109.9617634816241
 20
104.2303303775883
 30
0.0
 10
109.9490166283287
 20
104.2272297916515
 30
0.0
 10
109.9362697750333
 20
104.2237846961663
 30
0.0
 10
109.9231784121893
 20
104.220339600681
 30
0.0
 10
109.9100870493454
 20
104.2172390147443
 30
0.0
 10
109.89734019605
 20
104.2141384288076
 30
0.0
 10
109.8845933427546
 20
104.2110378428709
 30
0.0
 10
109.8715019799106
 20
104.2079372569341
 30
0.0
 10
109.8584106170667
 20
104.2048366709974
 30
0.0
 10
109.8456637637712
 20
104.2017360850607
 30
0.0
 10
109.8325724009273
 20
104.1989800086725
 30
0.0
 10
109.8194810380833
 20
104.1962239322843
 30
0.0
 10
109.8063896752394
 20
104.1931233463476
 30
0.0
 10
109.7932983123954
 20
104.1903672699594
 30
0.0
 10
109.7802069495515
 20
104.1872666840226
 30
0.0
 10
109.7671155867075
 20
104.1845106076344
 30
0.0
 10
109.7540242238636
 20
104.1817545312462
 30
0.0
 10
109.7409328610196
 20
104.1793429644066
 30
0.0
 10
109.7274969886272
 20
104.1765868880184
 30
0.0
 10
109.7144056257832
 20
104.1741753211787
 30
0.0
 10
109.7013142629393
 20
104.1714192447905
 30
0.0
 10
109.6878783905468
 20
104.1690076779508
 30
0.0
 10
109.6744425181543
 20
104.1665961111111
 30
0.0
 10
109.6610066457618
 20
104.1638400347229
 30
0.0
 10
109.6475707733694
 20
104.1617729774318
 30
0.0
 10
109.6344794105254
 20
104.1590169010436
 30
0.0
 10
109.6210435381329
 20
104.1569498437524
 30
0.0
 10
109.6076076657405
 20
104.1548827864613
 30
0.0
 10
109.5938272837995
 20
104.1521267100731
 30
0.0
 10
109.580391411407
 20
104.1500596527819
 30
0.0
 10
109.5669555390145
 20
104.1479925954908
 30
0.0
 10
109.5531751570735
 20
104.1459255381996
 30
0.0
 10
109.539739284681
 20
104.1438584809085
 30
0.0
 10
109.5263034122886
 20
104.1417914236173
 30
0.0
 10
109.5128675398961
 20
104.1397243663262
 30
0.0
 10
109.4990871579551
 20
104.137657309035
 30
0.0
 10
109.4853067760141
 20
104.1355902517439
 30
0.0
 10
109.4715263940731
 20
104.1335231944527
 30
0.0
 10
109.4577460121321
 20
104.1321451562586
 30
0.0
 10
109.4436211206426
 20
104.1300780989675
 30
0.0
 10
109.4291517196045
 20
104.1280110416763
 30
0.0
 10
109.4146823185665
 20
104.1266330034822
 30
0.0
 10
109.401246446174
 20
104.1249104557396
 30
0.0
 10
109.3878105737815
 20
104.123187907997
 30
0.0
 10
109.374374701389
 20
104.1218098698029
 30
0.0
 10
109.3623168671907
 20
104.1204318316088
 30
0.0
 10
109.3499145234438
 20
104.1190537934147
 30
0.0
 10
109.3378566892454
 20
104.1173312456721
 30
0.0
 10
109.3216647404647
 20
104.1156086979294
 30
0.0
 10
109.3058173012326
 20
104.1142306597353
 30
0.0
 10
109.2899698620004
 20
104.1128526215412
 30
0.0
 10
109.2651651745066
 20
104.110096545153
 30
0.0
 10
109.2403604870128
 20
104.1083739974104
 30
0.0
 10
109.215555799519
 20
104.1066514496678
 30
0.0
 10
109.1828273924092
 20
104.1038953732796
 30
0.0
 10
109.1500989852993
 20
104.1014838064399
 30
0.0
 10
109.1173705781894
 20
104.0990722396002
 30
0.0
  0
ENDBLK
  5
E7
330
E4
100
AcDbEntity
  8
0
100
AcDbBlockEnd
  0
BLOCK
  5
EB
330
E9
100
AcDbEntity
  8
0
100
AcDbBlockBegin
  2
block 24
 70
     0
 71
     0
 10
0.0
 20
0.0
 30
0.0
  3
block 24
  1

  0
POLYLINE
  5
ED
330
E9
100
AcDbEntity
  8
cuerpo
 62
     7
420
 16777215
370
    25
100
AcDb2dPolyline
 66
     1
 10
0.0
 20
0.0
 30
0.0
  0
VERTEX
  5
EE
330
ED
100
AcDbEntity
  8
cuerpo
 62
     7
420
 16777215
370
    25
100
AcDbVertex
100
AcDb2dVertex
 10
109.1173705781894
 20
104.0990722396002
 30
0.0
  0
VERTEX
  5
EF
330
ED
100
AcDbEntity
  8
cuerpo
 62
     7
420
 16777215
370
    25
100
AcDbVertex
100
AcDb2dVertex
 10
108.7890529784451
 20
105.0009982376386
 30
0.0
  0
SEQEND
  5
F0
330
ED
100
AcDbEntity
  8
cuerpo
370
    25
  0
ENDBLK
  5
EC
330
E9
100
AcDbEntity
  8
0
100
AcDbBlockEnd
  0
BLOCK
  5
F3
330
F1
100
AcDbEntity
  8
0
100
AcDbBlockBegin
  2
block 25
 70
     0
 71
     0
 10
0.0
 20
0.0
 30
0.0
  3
block 25
  1

  0
POLYLINE
  5
F5
330
F1
100
AcDbEntity
  8
cuerpo
 62
     7
420
 16777215
370
    25
100
AcDb2dPolyline
 66
     1
 10
0.0
 20
0.0
 30
0.0
  0
VERTEX
  5
F6
330
F5
100
AcDbEntity
  8
cuerpo
 62
     7
420
 16777215
370
    25
100
AcDbVertex
100
AcDb2dVertex
 10
111.0548922790939
 20
105.8255818420332
 30
0.0
  0
VERTEX
  5
F7
330
F5
100
AcDbEntity
  8
cuerpo
 62
     7
420
 16777215
370
    25
100
AcDbVertex
100
AcDb2dVertex
 10
111.3832098788382
 20
104.9238280987691
 30
0.0
  0
SEQEND
  5
F8
330
F5
100
AcDbEntity
  8
cuerpo
370
    25
  0
ENDBLK
  5
F4
330
F1
100
AcDbEntity
  8
0
100
AcDbBlockEnd
  0
BLOCK
  5
FB
330
F9
100
AcDbEntity
  8
0
100
AcDbBlockBegin
  2
block 26
 70
     0
 71
     0
 10
0.0
 20
0.0
 30
0.0
  3
block 26
  1

  0
POLYLINE
  5
FD
330
F9
100
AcDbEntity
  8
cuerpo
 62
     7
420
 16777215
370
    25
100
AcDb2dPolyline
 66
     1
 10
0.0
 20
0.0
 30
0.0
  0
VERTEX
  5
FE
330
FD
100
AcDbEntity
  8
cuerpo
 62
     7
420
 16777215
370
    25
100
AcDbVertex
100
AcDb2dVertex
 10
106.4284735519519
 20
103.1206651217893
 30
0.0
  0
VERTEX
  5
FF
330
FD
100
AcDbEntity
  8
cuerpo
 62
     7
420
 16777215
370
    25
100
AcDbVertex
100
AcDb2dVertex
 10
109.1173705781894
 20
104.0990722396002
 30
0.0
  0
SEQEND
  5
100
330
FD
100
AcDbEntity
  8
cuerpo
370
    25
  0
ENDBLK
  5
FC
330
F9
100
AcDbEntity
  8
0
100
AcDbBlockEnd
  0
BLOCK
  5
103
330
101
100
AcDbEntity
  8
0
100
AcDbBlockBegin
  2
block 27
 70
     0
 71
     0
 10
0.0
 20
0.0
 30
0.0
  3
block 27
  1

  0
POLYLINE
  5
105
330
101
100
AcDbEntity
  8
cuerpo
 62
     7
420
 16777215
370
    25
100
AcDb2dPolyline
 66
     1
 10
0.0
 20
0.0
 30
0.0
  0
VERTEX
  5
106
330
105
100
AcDbEntity
  8
cuerpo
 62
     7
420
 16777215
370
    25
100
AcDbVertex
100
AcDb2dVertex
 10
106.4284735519519
 20
103.1206651217893
 30
0.0
  0
VERTEX
  5
107
330
105
100
AcDbEntity
  8
cuerpo
 62
     7
420
 16777215
370
    25
100
AcDbVertex
100
AcDb2dVertex
 10
106.7213066681982
 20
102.9838948310249
 30
0.0
  0
SEQEND
  5
108
330
105
100
AcDbEntity
  8
cuerpo
370
    25
  0
ENDBLK
  5
104
330
101
100
AcDbEntity
  8
0
100
AcDbBlockEnd
  0
BLOCK
  5
10B
330
109
100
AcDbEntity
  8
0
100
AcDbBlockBegin
  2
block 28
 70
     0
 71
     0
 10
0.0
 20
0.0
 30
0.0
  3
block 28
  1

  0
POLYLINE
  5
10D
330
109
100
AcDbEntity
  8
cuerpo
 62
     7
420
 16777215
370
    25
100
AcDb2dPolyline
 66
     1
 10
0.0
 20
0.0
 30
0.0
  0
VERTEX
  5
10E
330
10D
100
AcDbEntity
  8
cuerpo
 62
     7
420
 16777215
370
    25
100
AcDbVertex
100
AcDb2dVertex
 10
113.9353366143113
 20
105.609574355108
 30
0.0
  0
VERTEX
  5
10F
330
10D
100
AcDbEntity
  8
cuerpo
 62
     7
420
 16777215
370
    25
100
AcDbVertex
100
AcDb2dVertex
 10
114.0721069050757
 20
105.9024074713543
 30
0.0
  0
SEQEND
  5
110
330
10D
100
AcDbEntity
  8
cuerpo
370
    25
  0
ENDBLK
  5
10C
330
109
100
AcDbEntity
  8
0
100
AcDbBlockEnd
  0
BLOCK
  5
113
330
111
100
AcDbEntity
  8
0
100
AcDbBlockBegin
  2
block 29
 70
     0
 71
     0
 10
0.0
 20
0.0
 30
0.0
  3
block 29
  1

  0
POLYLINE
  5
115
330
111
100
AcDbEntity
  8
cuerpo
 62
     7
420
 16777215
370
    25
100
AcDb2dPolyline
 66
     1
 10
0.0
 20
0.0
 30
0.0
  0
VERTEX
  5
116
330
115
100
AcDbEntity
  8
cuerpo
 62
     7
420
 16777215
370
    25
100
AcDbVertex
100
AcDb2dVertex
 10
111.3832098788382
 20
104.9238280987691
 30
0.0
  0
VERTEX
  5
117
330
115
100
AcDbEntity
  8
cuerpo
 62
     7
420
 16777215
370
    25
100
AcDbVertex
100
AcDb2dVertex
 10
114.0721069050757
 20
105.9024074713543
 30
0.0
  0
SEQEND
  5
118
330
115
100
AcDbEntity
  8
cuerpo
370
    25
  0
ENDBLK
  5
114
330
111
100
AcDbEntity
  8
0
100
AcDbBlockEnd
  0
BLOCK
  5
11B
330
119
100
AcDbEntity
  8
0
100
AcDbBlockBegin
  2
block 30
 70
     0
 71
     0
 10
0.0
 20
0.0
 30
0.0
  3
block 30
  1

  0
POLYLINE
  5
11D
330
119
100
AcDbEntity
  8
cuerpo
 62
     7
420
 16777215
370
    25
100
AcDb2dPolyline
 66
     1
 10
0.0
 20
0.0
 30
0.0
  0
VERTEX
  5
11E
330
11D
100
AcDbEntity
  8
cuerpo
 62
     7
420
 16777215
370
    25
100
AcDbVertex
100
AcDb2dVertex
 10
105.3773749194022
 20
106.0081719027514
 30
0.0
  0
VERTEX
  5
11F
330
11D
100
AcDbEntity
  8
cuerpo
 62
     7
420
 16777215
370
    25
100
AcDbVertex
100
AcDb2dVertex
 10
106.4284735519519
 20
103.1206651217893
 30
0.0
  0
SEQEND
  5
120
330
11D
100
AcDbEntity
  8
cuerpo
370
    25
  0
ENDBLK
  5
11C
330
119
100
AcDbEntity
  8
0
100
AcDbBlockEnd
  0
BLOCK
  5
123
330
121
100
AcDbEntity
  8
0
100
AcDbBlockBegin
  2
block 31
 70
     0
 71
     0
 10
0.0
 20
0.0
 30
0.0
  3
block 31
  1

  0
POLYLINE
  5
125
330
121
100
AcDbEntity
  8
cuerpo
 62
     7
420
 16777215
370
    25
100
AcDb2dPolyline
 66
     1
 10
0.0
 20
0.0
 30
0.0
  0
VERTEX
  5
126
330
125
100
AcDbEntity
  8
cuerpo
 62
     7
420
 16777215
370
    25
100
AcDbVertex
100
AcDb2dVertex
 10
113.021008272526
 20
108.7902587618649
 30
0.0
  0
VERTEX
  5
127
330
125
100
AcDbEntity
  8
cuerpo
 62
     7
420
 16777215
370
    25
100
AcDbVertex
100
AcDb2dVertex
 10
114.0721069050757
 20
105.9024074713543
 30
0.0
  0
SEQEND
  5
128
330
125
100
AcDbEntity
  8
cuerpo
370
    25
  0
ENDBLK
  5
124
330
121
100
AcDbEntity
  8
0
100
AcDbBlockEnd
  0
BLOCK
  5
12B
330
129
100
AcDbEntity
  8
0
100
AcDbBlockBegin
  2
block 32
 70
     0
 71
     0
 10
0.0
 20
0.0
 30
0.0
  3
block 32
  1

  0
POLYLINE
  5
12D
330
129
100
AcDbEntity
  8
cuerpo
 62
     7
420
 16777215
370
    25
100
AcDb2dPolyline
 66
     1
 10
0.0
 20
0.0
 30
0.0
  0
VERTEX
  5
12E
330
12D
100
AcDbEntity
  8
cuerpo
 62
     7
420
 16777215
370
    25
100
AcDbVertex
100
AcDb2dVertex
 10
115.0742851817349
 20
109.5376722273899
 30
0.0
  0
VERTEX
  5
12F
330
12D
100
AcDbEntity
  8
cuerpo
 62
     7
420
 16777215
370
    25
100
AcDbVertex
100
AcDb2dVertex
 10
117.143409530176
 20
110.0921603457409
 30
0.0
  0
SEQEND
  5
130
330
12D
100
AcDbEntity
  8
cuerpo
370
    25
  0
ENDBLK
  5
12C
330
129
100
AcDbEntity
  8
0
100
AcDbBlockEnd
  0
BLOCK
  5
133
330
131
100
AcDbEntity
  8
0
100
AcDbBlockBegin
  2
block 33
 70
     0
 71
     0
 10
0.0
 20
0.0
 30
0.0
  3
block 33
  1

  0
POLYLINE
  5
135
330
131
100
AcDbEntity
  8
cuerpo
 62
     7
420
 16777215
370
    25
100
AcDb2dPolyline
 66
     1
 10
0.0
 20
0.0
 30
0.0
  0
VERTEX
  5
136
330
135
100
AcDbEntity
  8
cuerpo
 62
     7
420
 16777215
370
    25
100
AcDbVertex
100
AcDb2dVertex
 10
115.0742851817349
 20
109.5376722273899
 30
0.0
  0
VERTEX
  5
137
330
135
100
AcDbEntity
  8
cuerpo
 62
     7
420
 16777215
370
    25
100
AcDbVertex
100
AcDb2dVertex
 10
117.1130926899058
 20
109.5376722273899
 30
0.0
  0
SEQEND
  5
138
330
135
100
AcDbEntity
  8
cuerpo
370
    25
  0
ENDBLK
  5
134
330
131
100
AcDbEntity
  8
0
100
AcDbBlockEnd
  0
BLOCK
  5
13B
330
139
100
AcDbEntity
  8
0
100
AcDbBlockBegin
  2
block 34
 70
     0
 71
     0
 10
0.0
 20
0.0
 30
0.0
  3
block 34
  1

  0
POLYLINE
  5
13D
330
139
100
AcDbEntity
  8
cuerpo
 62
     7
420
 16777215
370
    25
100
AcDb2dPolyline
 66
     1
 10
0.0
 20
0.0
 30
0.0
  0
VERTEX
  5
13E
330
13D
100
AcDbEntity
  8
cuerpo
 62
     7
420
 16777215
370
    25
100
AcDbVertex
100
AcDb2dVertex
 10
62.52245414018536
 20
127.5245157558793
 30
0.0
  0
VERTEX
  5
13F
330
13D
100
AcDbEntity
  8
cuerpo
 62
     7
420
 16777215
370
    25
100
AcDbVertex
100
AcDb2dVertex
 10
78.51630993045774
 20
127.5245157558793
 30
0.0
  0
SEQEND
  5
140
330
13D
100
AcDbEntity
  8
cuerpo
370
    25
  0
ENDBLK
  5
13C
330
139
100
AcDbEntity
  8
0
100
AcDbBlockEnd
  0
BLOCK
  5
143
330
141
100
AcDbEntity
  8
0
100
AcDbBlockBegin
  2
block 35
 70
     0
 71
     0
 10
0.0
 20
0.0
 30
0.0
  3
block 35
  1

  0
POLYLINE
  5
145
330
141
100
AcDbEntity
  8
cuerpo
 62
     7
420
 16777215
370
    25
100
AcDb2dPolyline
 66
     1
 10
0.0
 20
0.0
 30
0.0
  0
VERTEX
  5
146
330
145
100
AcDbEntity
  8
cuerpo
 62
     7
420
 16777215
370
    25
100
AcDbVertex
100
AcDb2dVertex
 10
64.60673690876152
 20
131.3173936303651
 30
0.0
  0
VERTEX
  5
147
330
145
100
AcDbEntity
  8
cuerpo
 62
     7
420
 16777215
370
    25
100
AcDbVertex
100
AcDb2dVertex
 10
65.00240612524246
 20
131.3173936303651
 30
0.0
  0
SEQEND
  5
148
330
145
100
AcDbEntity
  8
cuerpo
370
    25
  0
ENDBLK
  5
144
330
141
100
AcDbEntity
  8
0
100
AcDbBlockEnd
  0
BLOCK
  5
14B
330
149
100
AcDbEntity
  8
0
100
AcDbBlockBegin
  2
block 36
 70
     0
 71
     0
 10
0.0
 20
0.0
 30
0.0
  3
block 36
  1

  0
POLYLINE
  5
14D
330
149
100
AcDbEntity
  8
cuerpo
 62
     7
420
 16777215
370
    25
100
AcDb2dPolyline
 66
     1
 10
0.0
 20
0.0
 30
0.0
  0
VERTEX
  5
14E
330
14D
100
AcDbEntity
  8
cuerpo
 62
     7
420
 16777215
370
    25
100
AcDbVertex
100
AcDb2dVertex
 10
62.52245414018536
 20
132.4215467333877
 30
0.0
  0
VERTEX
  5
14F
330
14D
100
AcDbEntity
  8
cuerpo
 62
     7
420
 16777215
370
    25
100
AcDbVertex
100
AcDb2dVertex
 10
62.52245414018536
 20
146.0319132121899
 30
0.0
  0
SEQEND
  5
150
330
14D
100
AcDbEntity
  8
cuerpo
370
    25
  0
ENDBLK
  5
14C
330
149
100
AcDbEntity
  8
0
100
AcDbBlockEnd
  0
BLOCK
  5
153
330
151
100
AcDbEntity
  8
0
100
AcDbBlockBegin
  2
block 37
 70
     0
 71
     0
 10
0.0
 20
0.0
 30
0.0
  3
block 37
  1

  0
POLYLINE
  5
155
330
151
100
AcDbEntity
  8
cuerpo
 62
     7
420
 16777215
370
    25
100
AcDb2dPolyline
 66
     1
 10
0.0
 20
0.0
 30
0.0
  0
VERTEX
  5
156
330
155
100
AcDbEntity
  8
cuerpo
 62
     7
420
 16777215
370
    25
100
AcDbVertex
100
AcDb2dVertex
 10
71.9818250688101
 20
128.210089757444
 30
0.0
  0
VERTEX
  5
157
330
155
100
AcDbEntity
  8
cuerpo
 62
     7
420
 16777215
370
    25
100
AcDbVertex
100
AcDb2dVertex
 10
78.51630993045774
 20
128.210089757444
 30
0.0
  0
SEQEND
  5
158
330
155
100
AcDbEntity
  8
cuerpo
370
    25
  0
ENDBLK
  5
154
330
151
100
AcDbEntity
  8
0
100
AcDbBlockEnd
  0
BLOCK
  5
15B
330
159
100
AcDbEntity
  8
0
100
AcDbBlockBegin
  2
block 38
 70
     0
 71
     0
 10
0.0
 20
0.0
 30
0.0
  3
block 38
  1

  0
POLYLINE
  5
15D
330
159
100
AcDbEntity
  8
cuerpo
 62
     7
420
 16777215
370
    25
100
AcDb2dPolyline
 66
     1
 10
0.0
 20
0.0
 30
0.0
  0
VERTEX
  5
15E
330
15D
100
AcDbEntity
  8
cuerpo
 62
     7
420
 16777215
370
    25
100
AcDbVertex
100
AcDb2dVertex
 10
62.52245414018536
 20
132.4215467333877
 30
0.0
  0
VERTEX
  5
15F
330
15D
100
AcDbEntity
  8
cuerpo
 62
     7
420
 16777215
370
    25
100
AcDbVertex
100
AcDb2dVertex
 10
71.9818250688101
 20
128.210089757444
 30
0.0
  0
SEQEND
  5
160
330
15D
100
AcDbEntity
  8
cuerpo
370
    25
  0
ENDBLK
  5
15C
330
159
100
AcDbEntity
  8
0
100
AcDbBlockEnd
  0
BLOCK
  5
163
330
161
100
AcDbEntity
  8
0
100
AcDbBlockBegin
  2
block 39
 70
     0
 71
     0
 10
0.0
 20
0.0
 30
0.0
  3
block 39
  1

  0
POLYLINE
  5
165
330
161
100
AcDbEntity
  8
cuerpo
 62
     7
420
 16777215
370
    25
100
AcDb2dPolyline
 66
     1
 10
0.0
 20
0.0
 30
0.0
  0
VERTEX
  5
166
330
165
100
AcDbEntity
  8
cuerpo
 62
     7
420
 16777215
370
    25
100
AcDbVertex
100
AcDb2dVertex
 10
78.51630993045774
 20
146.0319132121899
 30
0.0
  0
VERTEX
  5
167
330
165
100
AcDbEntity
  8
cuerpo
 62
     7
420
 16777215
370
    25
100
AcDbVertex
100
AcDb2dVertex
 10
62.52245414018536
 20
146.0319132121899
 30
0.0
  0
SEQEND
  5
168
330
165
100
AcDbEntity
  8
cuerpo
370
    25
  0
ENDBLK
  5
164
330
161
100
AcDbEntity
  8
0
100
AcDbBlockEnd
  0
BLOCK
  5
16B
330
169
100
AcDbEntity
  8
0
100
AcDbBlockBegin
  2
block 40
 70
     0
 71
     0
 10
0.0
 20
0.0
 30
0.0
  3
block 40
  1

  0
POLYLINE
  5
16D
330
169
100
AcDbEntity
  8
cuerpo
 62
     7
420
 16777215
370
    25
100
AcDb2dPolyline
 66
     1
 10
0.0
 20
0.0
 30
0.0
  0
VERTEX
  5
16E
330
16D
100
AcDbEntity
  8
cuerpo
 62
     7
420
 16777215
370
    25
100
AcDbVertex
100
AcDb2dVertex
 10
77.83108043844153
 20
143.5187160557002
 30
0.0
  0
VERTEX
  5
16F
330
16D
100
AcDbEntity
  8
cuerpo
 62
     7
420
 16777215
370
    25
100
AcDbVertex
100
AcDb2dVertex
 10
78.51630993045774
 20
143.5187160557002
 30
0.0
  0
SEQEND
  5
170
330
16D
100
AcDbEntity
  8
cuerpo
370
    25
  0
ENDBLK
  5
16C
330
169
100
AcDbEntity
  8
0
100
AcDbBlockEnd
  0
BLOCK
  5
173
330
171
100
AcDbEntity
  8
0
100
AcDbBlockBegin
  2
block 41
 70
     0
 71
     0
 10
0.0
 20
0.0
 30
0.0
  3
block 41
  1

  0
POLYLINE
  5
175
330
171
100
AcDbEntity
  8
cuerpo
 62
     7
420
 16777215
370
    25
100
AcDb2dPolyline
 66
     1
 10
0.0
 20
0.0
 30
0.0
  0
VERTEX
  5
176
330
175
100
AcDbEntity
  8
cuerpo
 62
     7
420
 16777215
370
    25
100
AcDbVertex
100
AcDb2dVertex
 10
77.83108043844153
 20
142.6045599686891
 30
0.0
  0
VERTEX
  5
177
330
175
100
AcDbEntity
  8
cuerpo
 62
     7
420
 16777215
370
    25
100
AcDbVertex
100
AcDb2dVertex
 10
77.83108043844153
 20
143.5187160557002
 30
0.0
  0
SEQEND
  5
178
330
175
100
AcDbEntity
  8
cuerpo
370
    25
  0
ENDBLK
  5
174
330
171
100
AcDbEntity
  8
0
100
AcDbBlockEnd
  0
BLOCK
  5
17B
330
179
100
AcDbEntity
  8
0
100
AcDbBlockBegin
  2
block 42
 70
     0
 71
     0
 10
0.0
 20
0.0
 30
0.0
  3
block 42
  1

  0
POLYLINE
  5
17D
330
179
100
AcDbEntity
  8
cuerpo
 62
     7
420
 16777215
370
    25
100
AcDb2dPolyline
 66
     1
 10
0.0
 20
0.0
 30
0.0
  0
VERTEX
  5
17E
330
17D
100
AcDbEntity
  8
cuerpo
 62
     7
420
 16777215
370
    25
100
AcDbVertex
100
AcDb2dVertex
 10
78.51630993045774
 20
142.6045599686891
 30
0.0
  0
VERTEX
  5
17F
330
17D
100
AcDbEntity
  8
cuerpo
 62
     7
420
 16777215
370
    25
100
AcDbVertex
100
AcDb2dVertex
 10
77.83108043844153
 20
142.6045599686891
 30
0.0
  0
SEQEND
  5
180
330
17D
100
AcDbEntity
  8
cuerpo
370
    25
  0
ENDBLK
  5
17C
330
179
100
AcDbEntity
  8
0
100
AcDbBlockEnd
  0
BLOCK
  5
183
330
181
100
AcDbEntity
  8
0
100
AcDbBlockBegin
  2
block 43
 70
     0
 71
     0
 10
0.0
 20
0.0
 30
0.0
  3
block 43
  1

  0
POLYLINE
  5
185
330
181
100
AcDbEntity
  8
cuerpo
 62
     7
420
 16777215
370
    25
100
AcDb2dPolyline
 66
     1
 10
0.0
 20
0.0
 30
0.0
  0
VERTEX
  5
186
330
185
100
AcDbEntity
  8
cuerpo
 62
     7
420
 16777215
370
    25
100
AcDbVertex
100
AcDb2dVertex
 10
77.83108043844153
 20
141.4621663057803
 30
0.0
  0
VERTEX
  5
187
330
185
100
AcDbEntity
  8
cuerpo
 62
     7
420
 16777215
370
    25
100
AcDbVertex
100
AcDb2dVertex
 10
78.51630993045774
 20
141.4621663057803
 30
0.0
  0
SEQEND
  5
188
330
185
100
AcDbEntity
  8
cuerpo
370
    25
  0
ENDBLK
  5
184
330
181
100
AcDbEntity
  8
0
100
AcDbBlockEnd
  0
BLOCK
  5
18B
330
189
100
AcDbEntity
  8
0
100
AcDbBlockBegin
  2
block 44
 70
     0
 71
     0
 10
0.0
 20
0.0
 30
0.0
  3
block 44
  1

  0
POLYLINE
  5
18D
330
189
100
AcDbEntity
  8
cuerpo
 62
     7
420
 16777215
370
    25
100
AcDb2dPolyline
 66
     1
 10
0.0
 20
0.0
 30
0.0
  0
VERTEX
  5
18E
330
18D
100
AcDbEntity
  8
cuerpo
 62
     7
420
 16777215
370
    25
100
AcDbVertex
100
AcDb2dVertex
 10
77.83108043844153
 20
140.5483547283178
 30
0.0
  0
VERTEX
  5
18F
330
18D
100
AcDbEntity
  8
cuerpo
 62
     7
420
 16777215
370
    25
100
AcDbVertex
100
AcDb2dVertex
 10
77.83108043844153
 20
141.4621663057803
 30
0.0
  0
SEQEND
  5
190
330
18D
100
AcDbEntity
  8
cuerpo
370
    25
  0
ENDBLK
  5
18C
330
189
100
AcDbEntity
  8
0
100
AcDbBlockEnd
  0
BLOCK
  5
193
330
191
100
AcDbEntity
  8
0
100
AcDbBlockBegin
  2
block 45
 70
     0
 71
     0
 10
0.0
 20
0.0
 30
0.0
  3
block 45
  1

  0
POLYLINE
  5
195
330
191
100
AcDbEntity
  8
cuerpo
 62
     7
420
 16777215
370
    25
100
AcDb2dPolyline
 66
     1
 10
0.0
 20
0.0
 30
0.0
  0
VERTEX
  5
196
330
195
100
AcDbEntity
  8
cuerpo
 62
     7
420
 16777215
370
    25
100
AcDbVertex
100
AcDb2dVertex
 10
78.51630993045774
 20
140.5483547283178
 30
0.0
  0
VERTEX
  5
197
330
195
100
AcDbEntity
  8
cuerpo
 62
     7
420
 16777215
370
    25
100
AcDbVertex
100
AcDb2dVertex
 10
77.83108043844153
 20
140.5483547283178
 30
0.0
  0
SEQEND
  5
198
330
195
100
AcDbEntity
  8
cuerpo
370
    25
  0
ENDBLK
  5
194
330
191
100
AcDbEntity
  8
0
100
AcDbBlockEnd
  0
BLOCK
  5
19B
330
199
100
AcDbEntity
  8
0
100
AcDbBlockBegin
  2
block 46
 70
     0
 71
     0
 10
0.0
 20
0.0
 30
0.0
  3
block 46
  1

  0
POLYLINE
  5
19D
330
199
100
AcDbEntity
  8
cuerpo
 62
     7
420
 16777215
370
    25
100
AcDb2dPolyline
 66
     1
 10
0.0
 20
0.0
 30
0.0
  0
VERTEX
  5
19E
330
19D
100
AcDbEntity
  8
cuerpo
 62
     7
420
 16777215
370
    25
100
AcDbVertex
100
AcDb2dVertex
 10
78.51630993045774
 20
140.5483547283178
 30
0.0
  0
VERTEX
  5
19F
330
19D
100
AcDbEntity
  8
cuerpo
 62
     7
420
 16777215
370
    25
100
AcDbVertex
100
AcDb2dVertex
 10
78.51630993045774
 20
128.210089757444
 30
0.0
  0
SEQEND
  5
1A0
330
19D
100
AcDbEntity
  8
cuerpo
370
    25
  0
ENDBLK
  5
19C
330
199
100
AcDbEntity
  8
0
100
AcDbBlockEnd
  0
BLOCK
  5
1A3
330
1A1
100
AcDbEntity
  8
0
100
AcDbBlockBegin
  2
block 47
 70
     0
 71
     0
 10
0.0
 20
0.0
 30
0.0
  3
block 47
  1

  0
POLYLINE
  5
1A5
330
1A1
100
AcDbEntity
  8
cuerpo
 62
     7
420
 16777215
370
    25
100
AcDb2dPolyline
 66
     1
 10
0.0
 20
0.0
 30
0.0
  0
VERTEX
  5
1A6
330
1A5
100
AcDbEntity
  8
cuerpo
 62
     7
420
 16777215
370
    25
100
AcDbVertex
100
AcDb2dVertex
 10
78.51630993045774
 20
142.6045599686891
 30
0.0
  0
VERTEX
  5
1A7
330
1A5
100
AcDbEntity
  8
cuerpo
 62
     7
420
 16777215
370
    25
100
AcDbVertex
100
AcDb2dVertex
 10
78.51630993045774
 20
141.4621663057803
 30
0.0
  0
SEQEND
  5
1A8
330
1A5
100
AcDbEntity
  8
cuerpo
370
    25
  0
ENDBLK
  5
1A4
330
1A1
100
AcDbEntity
  8
0
100
AcDbBlockEnd
  0
BLOCK
  5
1AB
330
1A9
100
AcDbEntity
  8
0
100
AcDbBlockBegin
  2
block 48
 70
     0
 71
     0
 10
0.0
 20
0.0
 30
0.0
  3
block 48
  1

  0
POLYLINE
  5
1AD
330
1A9
100
AcDbEntity
  8
cuerpo
 62
     7
420
 16777215
370
    25
100
AcDb2dPolyline
 66
     1
 10
0.0
 20
0.0
 30
0.0
  0
VERTEX
  5
1AE
330
1AD
100
AcDbEntity
  8
cuerpo
 62
     7
420
 16777215
370
    25
100
AcDbVertex
100
AcDb2dVertex
 10
78.51630993045774
 20
146.0319132121899
 30
0.0
  0
VERTEX
  5
1AF
330
1AD
100
AcDbEntity
  8
cuerpo
 62
     7
420
 16777215
370
    25
100
AcDbVertex
100
AcDb2dVertex
 10
78.51630993045774
 20
143.5187160557002
 30
0.0
  0
SEQEND
  5
1B0
330
1AD
100
AcDbEntity
  8
cuerpo
370
    25
  0
ENDBLK
  5
1AC
330
1A9
100
AcDbEntity
  8
0
100
AcDbBlockEnd
  0
BLOCK
  5
1B3
330
1B1
100
AcDbEntity
  8
0
100
AcDbBlockBegin
  2
block 49
 70
     0
 71
     0
 10
0.0
 20
0.0
 30
0.0
  3
block 49
  1

  0
POLYLINE
  5
1B5
330
1B1
100
AcDbEntity
  8
cuerpo
 62
     7
420
 16777215
370
    25
100
AcDb2dPolyline
 66
     1
 10
0.0
 20
0.0
 30
0.0
  0
VERTEX
  5
1B6
330
1B5
100
AcDbEntity
  8
cuerpo
 62
     7
420
 16777215
370
    25
100
AcDbVertex
100
AcDb2dVertex
 10
77.1244913544168
 20
128.210089757444
 30
0.0
  0
VERTEX
  5
1B7
330
1B5
100
AcDbEntity
  8
cuerpo
 62
     7
420
 16777215
370
    25
100
AcDbVertex
100
AcDb2dVertex
 10
77.2140638370333
 20
127.5245157558793
 30
0.0
  0
SEQEND
  5
1B8
330
1B5
100
AcDbEntity
  8
cuerpo
370
    25
  0
ENDBLK
  5
1B4
330
1B1
100
AcDbEntity
  8
0
100
AcDbBlockEnd
  0
BLOCK
  5
1BB
330
1B9
100
AcDbEntity
  8
0
100
AcDbBlockBegin
  2
block 50
 70
     0
 71
     0
 10
0.0
 20
0.0
 30
0.0
  3
block 50
  1

  0
POLYLINE
  5
1BD
330
1B9
100
AcDbEntity
  8
cuerpo
 62
     7
420
 16777215
370
    25
100
AcDb2dPolyline
 66
     1
 10
0.0
 20
0.0
 30
0.0
  0
VERTEX
  5
1BE
330
1BD
100
AcDbEntity
  8
cuerpo
 62
     7
420
 16777215
370
    25
100
AcDbVertex
100
AcDb2dVertex
 10
64.14698891625493
 20
129.9863809896388
 30
0.0
  0
VERTEX
  5
1BF
330
1BD
100
AcDbEntity
  8
cuerpo
 62
     7
420
 16777215
370
    25
100
AcDbVertex
100
AcDb2dVertex
 10
63.82487248838406
 20
127.5245157558793
 30
0.0
  0
SEQEND
  5
1C0
330
1BD
100
AcDbEntity
  8
cuerpo
370
    25
  0
ENDBLK
  5
1BC
330
1B9
100
AcDbEntity
  8
0
100
AcDbBlockEnd
  0
BLOCK
  5
1C3
330
1C1
100
AcDbEntity
  8
0
100
AcDbBlockBegin
  2
block 51
 70
     0
 71
     0
 10
0.0
 20
0.0
 30
0.0
  3
block 51
  1

  0
SPLINE
  5
1C5
330
1C1
100
AcDbEntity
  8
cuerpo
 62
     7
420
 16777215
370
    25
100
AcDbSpline
210
0.0
220
0.0
230
1.0
 70
     8
 71
     3
 72
     8
 73
     4
 74
     0
 42
0.0000000001
 43
0.0000000001
 40
0.0
 40
0.0
 40
0.0
 40
0.0
 40
1.0
 40
1.0
 40
1.0
 40
1.0
 10
64.60673690876152
 20
131.3173936303651
 30
0.0
 10
64.56160615790473
 20
131.3173936303651
 30
0.0
 10
64.52060952163026
 20
131.2908663951287
 30
0.0
 10
64.50235051555845
 20
131.2495252493057
 30
0.0
  0
ENDBLK
  5
1C4
330
1C1
100
AcDbEntity
  8
0
100
AcDbBlockEnd
  0
BLOCK
  5
1C8
330
1C6
100
AcDbEntity
  8
0
100
AcDbBlockBegin
  2
block 52
 70
     0
 71
     0
 10
0.0
 20
0.0
 30
0.0
  3
block 52
  1

  0
SPLINE
  5
1CA
330
1C6
100
AcDbEntity
  8
cuerpo
 62
     7
420
 16777215
370
    25
100
AcDbSpline
210
0.0
220
0.0
230
1.0
 70
     8
 71
     3
 72
    89
 73
    85
 74
     0
 42
0.0000000001
 43
0.0000000001
 40
0.0
 40
0.0
 40
0.0
 40
0.0
 40
1.0
 40
1.0
 40
1.0
 40
2.0
 40
2.0
 40
2.0
 40
3.0
 40
3.0
 40
3.0
 40
4.0
 40
4.0
 40
4.0
 40
5.0
 40
5.0
 40
5.0
 40
6.0
 40
6.0
 40
6.0
 40
7.0
 40
7.0
 40
7.0
 40
8.0
 40
8.0
 40
8.0
 40
9.0
 40
9.0
 40
9.0
 40
10.0
 40
10.0
 40
10.0
 40
11.0
 40
11.0
 40
11.0
 40
12.0
 40
12.0
 40
12.0
 40
13.0
 40
13.0
 40
13.0
 40
14.0
 40
14.0
 40
14.0
 40
15.0
 40
15.0
 40
15.0
 40
16.0
 40
16.0
 40
16.0
 40
17.0
 40
17.0
 40
17.0
 40
18.0
 40
18.0
 40
18.0
 40
19.0
 40
19.0
 40
19.0
 40
20.0
 40
20.0
 40
20.0
 40
21.0
 40
21.0
 40
21.0
 40
22.0
 40
22.0
 40
22.0
 40
23.0
 40
23.0
 40
23.0
 40
24.0
 40
24.0
 40
24.0
 40
25.0
 40
25.0
 40
25.0
 40
26.0
 40
26.0
 40
26.0
 40
27.0
 40
27.0
 40
27.0
 40
28.0
 40
28.0
 40
28.0
 40
28.0
 10
64.50235051555845
 20
131.2495252493057
 30
0.0
 10
64.50235051555845
 20
131.2495252493057
 30
0.0
 10
64.48478052858367
 20
131.2093898869025
 30
0.0
 10
64.48478052858367
 20
131.2093898869025
 30
0.0
 10
64.47892386625874
 20
131.1961262692843
 30
0.0
 10
64.47323945870808
 20
131.1826903968918
 30
0.0
 10
64.46755505115742
 20
131.1692545244994
 30
0.0
 10
64.46187064360676
 20
131.1558186521069
 30
0.0
 10
64.45635849083035
 20
131.1423827797144
 30
0.0
 10
64.4506740832797
 20
131.1287746525477
 30
0.0
 10
64.44516193050329
 20
131.1153387801552
 30
0.0
 10
64.4396497777269
 20
131.1017306529885
 30
0.0
 10
64.43430987972476
 20
131.0881225258217
 30
0.0
 10
64.42879772694836
 20
131.074514398655
 30
0.0
 10
64.42345782894623
 20
131.0610785262625
 30
0.0
 10
64.41829018571835
 20
131.0472981443215
 30
0.0
 10
64.41277803294194
 20
131.0336900171548
 30
0.0
 10
64.40761038971407
 20
131.020081889988
 30
0.0
 10
64.40261500126046
 20
131.006301508047
 30
0.0
 10
64.39727510325832
 20
130.9926933808803
 30
0.0
 10
64.39227971480472
 20
130.9789129989393
 30
0.0
 10
64.3872843263511
 20
130.9651326169983
 30
0.0
 10
64.38211668312323
 20
130.9515244898316
 30
0.0
 10
64.3771212946696
 20
130.9377441078906
 30
0.0
 10
64.37229816099025
 20
130.9239637259496
 30
0.0
 10
64.36747502731092
 20
130.9101833440086
 30
0.0
 10
64.36265189363156
 20
130.8962307072933
 30
0.0
 10
64.35782875995221
 20
130.8824503253523
 30
0.0
 10
64.35300562627286
 20
130.8686699434113
 30
0.0
 10
64.34835474736778
 20
130.854717306696
 30
0.0
 10
64.34370386846268
 20
130.8409369247551
 30
0.0
 10
64.3390529895576
 20
130.8269842880398
 30
0.0
 10
64.33440211065252
 20
130.8130316513245
 30
0.0
 10
64.3299234865217
 20
130.7990790146093
 30
0.0
 10
64.32544486239087
 20
130.785126377894
 30
0.0
 10
64.32096623826004
 20
130.7711737411787
 30
0.0
 10
64.31665986890347
 20
130.7572211044635
 30
0.0
 10
64.31235349954692
 20
130.7432684677482
 30
0.0
 10
64.30804713019035
 20
130.7291435762587
 30
0.0
 10
64.30374076083379
 20
130.7151909395434
 30
0.0
 10
64.29943439147723
 20
130.7010660480539
 30
0.0
 10
64.29530027689493
 20
130.6871134113387
 30
0.0
 10
64.29116616231263
 20
130.6731607746234
 30
0.0
 10
64.28720430250459
 20
130.6588636283596
 30
0.0
 10
64.28307018792229
 20
130.6449109916443
 30
0.0
 10
64.27910832811425
 20
130.6307861001548
 30
0.0
 10
64.27514646830622
 20
130.6166612086653
 30
0.0
 10
64.27118460849817
 20
130.6025363171757
 30
0.0
 10
64.2673950034644
 20
130.5884114256862
 30
0.0
 10
64.26343314365637
 20
130.5742865341967
 30
0.0
 10
64.25981579339685
 20
130.5601616427072
 30
0.0
 10
64.25602618836308
 20
130.5460367512177
 30
0.0
 10
64.25240883810356
 20
130.5317396049539
 30
0.0
 10
64.24879148784406
 20
130.5176147134644
 30
0.0
 10
64.24517413758454
 20
130.5033175672006
 30
0.0
 10
64.24155678732502
 20
130.4890204209368
 30
0.0
 10
64.23811169183978
 20
130.4748955294473
 30
0.0
 10
64.2348388511288
 20
130.4605983831835
 30
0.0
 10
64.23122150086928
 20
130.4463012369197
 30
0.0
 10
64.22794866015829
 20
130.4320040906559
 30
0.0
 10
64.22467581944731
 20
130.4178791991664
 30
0.0
 10
64.22140297873632
 20
130.4037543076768
 30
0.0
 10
64.21813013802533
 20
130.389457161413
 30
0.0
 10
64.21502955208861
 20
130.3753322699235
 30
0.0
 10
64.21192896615189
 20
130.3608628688855
 30
0.0
 10
64.20882838021515
 20
130.3463934678474
 30
0.0
 10
64.20572779427843
 20
130.3320963215836
 30
0.0
 10
64.20262720834171
 20
130.3172824109971
 30
0.0
 10
64.19969887717924
 20
130.3024685004105
 30
0.0
 10
64.19677054601678
 20
130.2876545898239
 30
0.0
 10
64.19401446962858
 20
130.2737019531087
 30
0.0
 10
64.19125839324039
 20
130.2599215711677
 30
0.0
 10
64.18867457162645
 20
130.2457966796781
 30
0.0
 10
64.18626300478677
 20
130.2333943359313
 30
0.0
 10
64.1838514379471
 20
130.2206474826358
 30
0.0
 10
64.18126761633316
 20
130.2082451388889
 30
0.0
 10
64.17851153994496
 20
130.1920531901083
 30
0.0
 10
64.17575546355675
 20
130.1756889865533
 30
0.0
 10
64.17299938716856
 20
130.1594970377726
 30
0.0
 10
64.16886527258626
 20
130.1346923502788
 30
0.0
 10
64.16507566755249
 20
130.1095431532365
 30
0.0
 10
64.16145831729297
 20
130.0845662109685
 30
0.0
 10
64.15646292883936
 20
130.0518378038586
 30
0.0
 10
64.15163979516001
 20
130.0191093967487
 30
0.0
 10
64.14698891625493
 20
129.9863809896388
 30
0.0
  0
ENDBLK
  5
1C9
330
1C6
100
AcDbEntity
  8
0
100
AcDbBlockEnd
  0
BLOCK
  5
1CD
330
1CB
100
AcDbEntity
  8
0
100
AcDbBlockBegin
  2
block 53
 70
     0
 71
     0
 10
0.0
 20
0.0
 30
0.0
  3
block 53
  1

  0
POLYLINE
  5
1CF
330
1CB
100
AcDbEntity
  8
cuerpo
 62
     7
420
 16777215
370
    25
100
AcDb2dPolyline
 66
     1
 10
0.0
 20
0.0
 30
0.0
  0
VERTEX
  5
1D0
330
1CF
100
AcDbEntity
  8
cuerpo
 62
     7
420
 16777215
370
    25
100
AcDbVertex
100
AcDb2dVertex
 10
59.09510089668456
 20
66.10655922826503
 30
0.0
  0
VERTEX
  5
1D1
330
1CF
100
AcDbEntity
  8
cuerpo
 62
     7
420
 16777215
370
    25
100
AcDbVertex
100
AcDb2dVertex
 10
81.9438354287328
 20
66.10655922826503
 30
0.0
  0
SEQEND
  5
1D2
330
1CF
100
AcDbEntity
  8
cuerpo
370
    25
  0
ENDBLK
  5
1CE
330
1CB
100
AcDbEntity
  8
0
100
AcDbBlockEnd
  0
BLOCK
  5
1D5
330
1D3
100
AcDbEntity
  8
0
100
AcDbBlockBegin
  2
block 54
 70
     0
 71
     0
 10
0.0
 20
0.0
 30
0.0
  3
block 54
  1

  0
POLYLINE
  5
1D7
330
1D3
100
AcDbEntity
  8
cuerpo
 62
     7
420
 16777215
370
    25
100
AcDb2dPolyline
 66
     1
 10
0.0
 20
0.0
 30
0.0
  0
VERTEX
  5
1D8
330
1D7
100
AcDbEntity
  8
cuerpo
 62
     7
420
 16777215
370
    25
100
AcDbVertex
100
AcDb2dVertex
 10
68.8626356164649
 20
51.69021266068856
 30
0.0
  0
VERTEX
  5
1D9
330
1D7
100
AcDbEntity
  8
cuerpo
 62
     7
420
 16777215
370
    25
100
AcDbVertex
100
AcDb2dVertex
 10
79.7996079987133
 20
54.62129989953912
 30
0.0
  0
SEQEND
  5
1DA
330
1D7
100
AcDbEntity
  8
cuerpo
370
    25
  0
ENDBLK
  5
1D6
330
1D3
100
AcDbEntity
  8
0
100
AcDbBlockEnd
  0
BLOCK
  5
1DD
330
1DB
100
AcDbEntity
  8
0
100
AcDbBlockBegin
  2
block 55
 70
     0
 71
     0
 10
0.0
 20
0.0
 30
0.0
  3
block 55
  1

  0
POLYLINE
  5
1DF
330
1DB
100
AcDbEntity
  8
cuerpo
 62
     7
420
 16777215
370
    25
100
AcDb2dPolyline
 66
     1
 10
0.0
 20
0.0
 30
0.0
  0
VERTEX
  5
1E0
330
1DF
100
AcDbEntity
  8
cuerpo
 62
     7
420
 16777215
370
    25
100
AcDbVertex
100
AcDb2dVertex
 10
70.93503280561694
 20
46.83469508377744
 30
0.0
  0
VERTEX
  5
1E1
330
1DF
100
AcDbEntity
  8
cuerpo
 62
     7
420
 16777215
370
    25
100
AcDbVertex
100
AcDb2dVertex
 10
70.93503280561694
 20
43.3372341471518
 30
0.0
  0
SEQEND
  5
1E2
330
1DF
100
AcDbEntity
  8
cuerpo
370
    25
  0
ENDBLK
  5
1DE
330
1DB
100
AcDbEntity
  8
0
100
AcDbBlockEnd
  0
BLOCK
  5
1E5
330
1E3
100
AcDbEntity
  8
0
100
AcDbBlockBegin
  2
block 56
 70
     0
 71
     0
 10
0.0
 20
0.0
 30
0.0
  3
block 56
  1

  0
POLYLINE
  5
1E7
330
1E3
100
AcDbEntity
  8
cuerpo
 62
     7
420
 16777215
370
    25
100
AcDb2dPolyline
 66
     1
 10
0.0
 20
0.0
 30
0.0
  0
VERTEX
  5
1E8
330
1E7
100
AcDbEntity
  8
cuerpo
 62
     7
420
 16777215
370
    25
100
AcDbVertex
100
AcDb2dVertex
 10
68.8626356164649
 20
46.28279078704042
 30
0.0
  0
VERTEX
  5
1E9
330
1E7
100
AcDbEntity
  8
cuerpo
 62
     7
420
 16777215
370
    25
100
AcDbVertex
100
AcDb2dVertex
 10
79.7996079987133
 20
49.21318900679393
 30
0.0
  0
SEQEND
  5
1EA
330
1E7
100
AcDbEntity
  8
cuerpo
370
    25
  0
ENDBLK
  5
1E6
330
1E3
100
AcDbEntity
  8
0
100
AcDbBlockEnd
  0
BLOCK
  5
1ED
330
1EB
100
AcDbEntity
  8
0
100
AcDbBlockBegin
  2
block 57
 70
     0
 71
     0
 10
0.0
 20
0.0
 30
0.0
  3
block 57
  1

  0
SPLINE
  5
1EF
330
1EB
100
AcDbEntity
  8
cuerpo
 62
     7
420
 16777215
370
    25
100
AcDbSpline
210
0.0
220
0.0
230
1.0
 70
     8
 71
     3
 72
    11
 73
     7
 74
     0
 42
0.0000000001
 43
0.0000000001
 40
0.0
 40
0.0
 40
0.0
 40
0.0
 40
1.0
 40
1.0
 40
1.0
 40
2.0
 40
2.0
 40
2.0
 40
2.0
 10
75.2636230280591
 20
35.79660914903696
 30
0.0
 10
75.67169458828694
 20
35.82761500840421
 30
0.0
 10
75.97761906737712
 20
36.18314886248199
 30
0.0
 10
75.94678546278413
 20
36.59173718703262
 30
0.0
 10
75.93972301703938
 20
36.68751084152257
 30
0.0
 10
75.91371254612574
 20
36.78121743872136
 30
0.0
 10
75.87064885256012
 20
36.86734482585261
 30
0.0
  0
ENDBLK
  5
1EE
330
1EB
100
AcDbEntity
  8
0
100
AcDbBlockEnd
  0
BLOCK
  5
1F2
330
1F0
100
AcDbEntity
  8
0
100
AcDbBlockBegin
  2
block 58
 70
     0
 71
     0
 10
0.0
 20
0.0
 30
0.0
  3
block 58
  1

  0
SPLINE
  5
1F4
330
1F0
100
AcDbEntity
  8
cuerpo
 62
     7
420
 16777215
370
    25
100
AcDbSpline
210
0.0
220
0.0
230
1.0
 70
     8
 71
     3
 72
    11
 73
     7
 74
     0
 42
0.0000000001
 43
0.0000000001
 40
0.0
 40
0.0
 40
0.0
 40
0.0
 40
1.0
 40
1.0
 40
1.0
 40
2.0
 40
2.0
 40
2.0
 40
2.0
 10
70.5434977037183
 20
36.86734482585261
 30
0.0
 10
70.36039087867726
 20
36.50147568531908
 30
0.0
 10
70.50887449409153
 20
36.0563693486248
 30
0.0
 10
70.87491588939933
 20
35.87309026880951
 30
0.0
 10
70.96104327653057
 20
35.82968206569536
 30
0.0
 10
71.05474987372938
 20
35.80418835910451
 30
0.0
 10
71.15069578299358
 20
35.79660914903696
 30
0.0
  0
ENDBLK
  5
1F3
330
1F0
100
AcDbEntity
  8
0
100
AcDbBlockEnd
  0
BLOCK
  5
1F7
330
1F5
100
AcDbEntity
  8
0
100
AcDbBlockBegin
  2
block 59
 70
     0
 71
     0
 10
0.0
 20
0.0
 30
0.0
  3
block 59
  1

  0
POLYLINE
  5
1F9
330
1F5
100
AcDbEntity
  8
cuerpo
 62
     7
420
 16777215
370
    25
100
AcDb2dPolyline
 66
     1
 10
0.0
 20
0.0
 30
0.0
  0
VERTEX
  5
1FA
330
1F9
100
AcDbEntity
  8
cuerpo
 62
     7
420
 16777215
370
    25
100
AcDbVertex
100
AcDb2dVertex
 10
75.4918606039569
 20
37.62457681351052
 30
0.0
  0
VERTEX
  5
1FB
330
1F9
100
AcDbEntity
  8
cuerpo
 62
     7
420
 16777215
370
    25
100
AcDbVertex
100
AcDb2dVertex
 10
75.4918606039569
 20
40.82369248111353
 30
0.0
  0
SEQEND
  5
1FC
330
1F9
100
AcDbEntity
  8
cuerpo
370
    25
  0
ENDBLK
  5
1F8
330
1F5
100
AcDbEntity
  8
0
100
AcDbBlockEnd
  0
BLOCK
  5
1FF
330
1FD
100
AcDbEntity
  8
0
100
AcDbBlockBegin
  2
block 60
 70
     0
 71
     0
 10
0.0
 20
0.0
 30
0.0
  3
block 60
  1

  0
POLYLINE
  5
201
330
1FD
100
AcDbEntity
  8
cuerpo
 62
     7
420
 16777215
370
    25
100
AcDb2dPolyline
 66
     1
 10
0.0
 20
0.0
 30
0.0
  0
VERTEX
  5
202
330
201
100
AcDbEntity
  8
cuerpo
 62
     7
420
 16777215
370
    25
100
AcDbVertex
100
AcDb2dVertex
 10
75.94902477484955
 20
42.59378254143489
 30
0.0
  0
VERTEX
  5
203
330
201
100
AcDbEntity
  8
cuerpo
 62
     7
420
 16777215
370
    25
100
AcDbVertex
100
AcDb2dVertex
 10
75.94902477484955
 20
43.3372341471518
 30
0.0
  0
SEQEND
  5
204
330
201
100
AcDbEntity
  8
cuerpo
370
    25
  0
ENDBLK
  5
200
330
1FD
100
AcDbEntity
  8
0
100
AcDbBlockEnd
  0
BLOCK
  5
207
330
205
100
AcDbEntity
  8
0
100
AcDbBlockBegin
  2
block 61
 70
     0
 71
     0
 10
0.0
 20
0.0
 30
0.0
  3
block 61
  1

  0
SPLINE
  5
209
330
205
100
AcDbEntity
  8
cuerpo
 62
     7
420
 16777215
370
    25
100
AcDbSpline
210
0.0
220
0.0
230
1.0
 70
     8
 71
     3
 72
     8
 73
     4
 74
     0
 42
0.0000000001
 43
0.0000000001
 40
0.0
 40
0.0
 40
0.0
 40
0.0
 40
1.0
 40
1.0
 40
1.0
 40
1.0
 10
75.4918606039569
 20
40.82369248111353
 30
0.0
 10
75.7917561659479
 20
41.3652614913948
 30
0.0
 10
75.94902477484955
 20
41.97435437318697
 30
0.0
 10
75.94902477484955
 20
42.59378254143489
 30
0.0
  0
ENDBLK
  5
208
330
205
100
AcDbEntity
  8
0
100
AcDbBlockEnd
  0
BLOCK
  5
20C
330
20A
100
AcDbEntity
  8
0
100
AcDbBlockBegin
  2
block 62
 70
     0
 71
     0
 10
0.0
 20
0.0
 30
0.0
  3
block 62
  1

  0
POLYLINE
  5
20E
330
20A
100
AcDbEntity
  8
cuerpo
 62
     7
420
 16777215
370
    25
100
AcDb2dPolyline
 66
     1
 10
0.0
 20
0.0
 30
0.0
  0
VERTEX
  5
20F
330
20E
100
AcDbEntity
  8
cuerpo
 62
     7
420
 16777215
370
    25
100
AcDbVertex
100
AcDb2dVertex
 10
75.4918606039569
 20
37.62457681351052
 30
0.0
  0
VERTEX
  5
210
330
20E
100
AcDbEntity
  8
cuerpo
 62
     7
420
 16777215
370
    25
100
AcDbVertex
100
AcDb2dVertex
 10
75.87064885256012
 20
36.86734482585261
 30
0.0
  0
SEQEND
  5
211
330
20E
100
AcDbEntity
  8
cuerpo
370
    25
  0
ENDBLK
  5
20D
330
20A
100
AcDbEntity
  8
0
100
AcDbBlockEnd
  0
BLOCK
  5
214
330
212
100
AcDbEntity
  8
0
100
AcDbBlockBegin
  2
block 63
 70
     0
 71
     0
 10
0.0
 20
0.0
 30
0.0
  3
block 63
  1

  0
POLYLINE
  5
216
330
212
100
AcDbEntity
  8
cuerpo
 62
     7
420
 16777215
370
    25
100
AcDb2dPolyline
 66
     1
 10
0.0
 20
0.0
 30
0.0
  0
VERTEX
  5
217
330
216
100
AcDbEntity
  8
cuerpo
 62
     7
420
 16777215
370
    25
100
AcDbVertex
100
AcDb2dVertex
 10
75.1492458579488
 20
37.62457681351052
 30
0.0
  0
VERTEX
  5
218
330
216
100
AcDbEntity
  8
cuerpo
 62
     7
420
 16777215
370
    25
100
AcDbVertex
100
AcDb2dVertex
 10
75.1492458579488
 20
40.82369248111353
 30
0.0
  0
SEQEND
  5
219
330
216
100
AcDbEntity
  8
cuerpo
370
    25
  0
ENDBLK
  5
215
330
212
100
AcDbEntity
  8
0
100
AcDbBlockEnd
  0
BLOCK
  5
21C
330
21A
100
AcDbEntity
  8
0
100
AcDbBlockBegin
  2
block 64
 70
     0
 71
     0
 10
0.0
 20
0.0
 30
0.0
  3
block 64
  1

  0
POLYLINE
  5
21E
330
21A
100
AcDbEntity
  8
cuerpo
 62
     7
420
 16777215
370
    25
100
AcDb2dPolyline
 66
     1
 10
0.0
 20
0.0
 30
0.0
  0
VERTEX
  5
21F
330
21E
100
AcDbEntity
  8
cuerpo
 62
     7
420
 16777215
370
    25
100
AcDbVertex
100
AcDb2dVertex
 10
73.77844236436789
 20
37.62457681351052
 30
0.0
  0
VERTEX
  5
220
330
21E
100
AcDbEntity
  8
cuerpo
 62
     7
420
 16777215
370
    25
100
AcDbVertex
100
AcDb2dVertex
 10
73.77844236436789
 20
40.82369248111353
 30
0.0
  0
SEQEND
  5
221
330
21E
100
AcDbEntity
  8
cuerpo
370
    25
  0
ENDBLK
  5
21D
330
21A
100
AcDbEntity
  8
0
100
AcDbBlockEnd
  0
BLOCK
  5
224
330
222
100
AcDbEntity
  8
0
100
AcDbBlockBegin
  2
block 65
 70
     0
 71
     0
 10
0.0
 20
0.0
 30
0.0
  3
block 65
  1

  0
POLYLINE
  5
226
330
222
100
AcDbEntity
  8
cuerpo
 62
     7
420
 16777215
370
    25
100
AcDb2dPolyline
 66
     1
 10
0.0
 20
0.0
 30
0.0
  0
VERTEX
  5
227
330
226
100
AcDbEntity
  8
cuerpo
 62
     7
420
 16777215
370
    25
100
AcDbVertex
100
AcDb2dVertex
 10
72.63587644668479
 20
37.62457681351052
 30
0.0
  0
VERTEX
  5
228
330
226
100
AcDbEntity
  8
cuerpo
 62
     7
420
 16777215
370
    25
100
AcDbVertex
100
AcDb2dVertex
 10
72.63587644668479
 20
40.82369248111353
 30
0.0
  0
SEQEND
  5
229
330
226
100
AcDbEntity
  8
cuerpo
370
    25
  0
ENDBLK
  5
225
330
222
100
AcDbEntity
  8
0
100
AcDbBlockEnd
  0
BLOCK
  5
22C
330
22A
100
AcDbEntity
  8
0
100
AcDbBlockBegin
  2
block 66
 70
     0
 71
     0
 10
0.0
 20
0.0
 30
0.0
  3
block 66
  1

  0
POLYLINE
  5
22E
330
22A
100
AcDbEntity
  8
cuerpo
 62
     7
420
 16777215
370
    25
100
AcDb2dPolyline
 66
     1
 10
0.0
 20
0.0
 30
0.0
  0
VERTEX
  5
22F
330
22E
100
AcDbEntity
  8
cuerpo
 62
     7
420
 16777215
370
    25
100
AcDbVertex
100
AcDb2dVertex
 10
74.34946694104805
 20
37.62457681351052
 30
0.0
  0
VERTEX
  5
230
330
22E
100
AcDbEntity
  8
cuerpo
 62
     7
420
 16777215
370
    25
100
AcDbVertex
100
AcDb2dVertex
 10
74.34946694104805
 20
40.82369248111353
 30
0.0
  0
SEQEND
  5
231
330
22E
100
AcDbEntity
  8
cuerpo
370
    25
  0
ENDBLK
  5
22D
330
22A
100
AcDbEntity
  8
0
100
AcDbBlockEnd
  0
BLOCK
  5
234
330
232
100
AcDbEntity
  8
0
100
AcDbBlockBegin
  2
block 67
 70
     0
 71
     0
 10
0.0
 20
0.0
 30
0.0
  3
block 67
  1

  0
SPLINE
  5
236
330
232
100
AcDbEntity
  8
cuerpo
 62
     7
420
 16777215
370
    25
100
AcDbSpline
210
0.0
220
0.0
230
1.0
 70
     8
 71
     3
 72
    11
 73
     7
 74
     0
 42
0.0000000001
 43
0.0000000001
 40
0.0
 40
0.0
 40
0.0
 40
0.0
 40
1.0
 40
1.0
 40
1.0
 40
2.0
 40
2.0
 40
2.0
 40
2.0
 10
72.63587644668479
 20
37.62457681351052
 30
0.0
 10
72.63587644668479
 20
37.30969508615869
 30
0.0
 10
72.89167478646459
 20
37.0533799820561
 30
0.0
 10
73.2070732781392
 20
37.0533799820561
 30
0.0
 10
73.52247176981383
 20
37.0533799820561
 30
0.0
 10
73.77844236436789
 20
37.30969508615869
 30
0.0
 10
73.77844236436789
 20
37.62457681351052
 30
0.0
  0
ENDBLK
  5
235
330
232
100
AcDbEntity
  8
0
100
AcDbBlockEnd
  0
BLOCK
  5
239
330
237
100
AcDbEntity
  8
0
100
AcDbBlockBegin
  2
block 68
 70
     0
 71
     0
 10
0.0
 20
0.0
 30
0.0
  3
block 68
  1

  0
SPLINE
  5
23B
330
237
100
AcDbEntity
  8
cuerpo
 62
     7
420
 16777215
370
    25
100
AcDbSpline
210
0.0
220
0.0
230
1.0
 70
     8
 71
     3
 72
    11
 73
     7
 74
     0
 42
0.0000000001
 43
0.0000000001
 40
0.0
 40
0.0
 40
0.0
 40
0.0
 40
1.0
 40
1.0
 40
1.0
 40
2.0
 40
2.0
 40
2.0
 40
2.0
 10
74.17807344065687
 20
37.62457681351052
 30
0.0
 10
74.17807344065687
 20
37.30969508615869
 30
0.0
 10
74.43387178043668
 20
37.0533799820561
 30
0.0
 10
74.74944252688556
 20
37.0533799820561
 30
0.0
 10
75.06484101856019
 20
37.0533799820561
 30
0.0
 10
75.32063935833999
 20
37.30969508615869
 30
0.0
 10
75.32063935833999
 20
37.62457681351052
 30
0.0
  0
ENDBLK
  5
23A
330
237
100
AcDbEntity
  8
0
100
AcDbBlockEnd
  0
BLOCK
  5
23E
330
23C
100
AcDbEntity
  8
0
100
AcDbBlockBegin
  2
block 69
 70
     0
 71
     0
 10
0.0
 20
0.0
 30
0.0
  3
block 69
  1

  0
SPLINE
  5
240
330
23C
100
AcDbEntity
  8
cuerpo
 62
     7
420
 16777215
370
    25
100
AcDbSpline
210
0.0
220
0.0
230
1.0
 70
     8
 71
     3
 72
    11
 73
     7
 74
     0
 42
0.0000000001
 43
0.0000000001
 40
0.0
 40
0.0
 40
0.0
 40
0.0
 40
1.0
 40
1.0
 40
1.0
 40
2.0
 40
2.0
 40
2.0
 40
2.0
 10
75.32063935833999
 20
40.82369248111353
 30
0.0
 10
75.32063935833999
 20
41.13926322756241
 30
0.0
 10
75.06484101856019
 20
41.39488931256795
 30
0.0
 10
74.74944252688556
 20
41.39488931256795
 30
0.0
 10
74.43387178043668
 20
41.39488931256795
 30
0.0
 10
74.17807344065687
 20
41.13926322756241
 30
0.0
 10
74.17807344065687
 20
40.82369248111353
 30
0.0
  0
ENDBLK
  5
23F
330
23C
100
AcDbEntity
  8
0
100
AcDbBlockEnd
  0
BLOCK
  5
243
330
241
100
AcDbEntity
  8
0
100
AcDbBlockBegin
  2
block 70
 70
     0
 71
     0
 10
0.0
 20
0.0
 30
0.0
  3
block 70
  1

  0
SPLINE
  5
245
330
241
100
AcDbEntity
  8
cuerpo
 62
     7
420
 16777215
370
    25
100
AcDbSpline
210
0.0
220
0.0
230
1.0
 70
     8
 71
     3
 72
    11
 73
     7
 74
     0
 42
0.0000000001
 43
0.0000000001
 40
0.0
 40
0.0
 40
0.0
 40
0.0
 40
1.0
 40
1.0
 40
1.0
 40
2.0
 40
2.0
 40
2.0
 40
2.0
 10
73.77844236436789
 20
40.82369248111353
 30
0.0
 10
73.77844236436789
 20
41.13926322756241
 30
0.0
 10
73.52247176981383
 20
41.39488931256795
 30
0.0
 10
73.2070732781392
 20
41.39488931256795
 30
0.0
 10
72.89167478646459
 20
41.39488931256795
 30
0.0
 10
72.63587644668479
 20
41.13926322756241
 30
0.0
 10
72.63587644668479
 20
40.82369248111353
 30
0.0
  0
ENDBLK
  5
244
330
241
100
AcDbEntity
  8
0
100
AcDbBlockEnd
  0
BLOCK
  5
248
330
246
100
AcDbEntity
  8
0
100
AcDbBlockBegin
  2
block 71
 70
     0
 71
     0
 10
0.0
 20
0.0
 30
0.0
  3
block 71
  1

  0
POLYLINE
  5
24A
330
246
100
AcDbEntity
  8
cuerpo
 62
     7
420
 16777215
370
    25
100
AcDb2dPolyline
 66
     1
 10
0.0
 20
0.0
 30
0.0
  0
VERTEX
  5
24B
330
24A
100
AcDbEntity
  8
cuerpo
 62
     7
420
 16777215
370
    25
100
AcDbVertex
100
AcDb2dVertex
 10
70.46529403620312
 20
42.59378254143489
 30
0.0
  0
VERTEX
  5
24C
330
24A
100
AcDbEntity
  8
cuerpo
 62
     7
420
 16777215
370
    25
100
AcDbVertex
100
AcDb2dVertex
 10
70.46529403620312
 20
43.3372341471518
 30
0.0
  0
SEQEND
  5
24D
330
24A
100
AcDbEntity
  8
cuerpo
370
    25
  0
ENDBLK
  5
249
330
246
100
AcDbEntity
  8
0
100
AcDbBlockEnd
  0
BLOCK
  5
250
330
24E
100
AcDbEntity
  8
0
100
AcDbBlockBegin
  2
block 72
 70
     0
 71
     0
 10
0.0
 20
0.0
 30
0.0
  3
block 72
  1

  0
SPLINE
  5
252
330
24E
100
AcDbEntity
  8
cuerpo
 62
     7
420
 16777215
370
    25
100
AcDbSpline
210
0.0
220
0.0
230
1.0
 70
     8
 71
     3
 72
     8
 73
     4
 74
     0
 42
0.0000000001
 43
0.0000000001
 40
0.0
 40
0.0
 40
0.0
 40
0.0
 40
1.0
 40
1.0
 40
1.0
 40
1.0
 10
70.46529403620312
 20
42.59378254143489
 30
0.0
 10
70.46529403620312
 20
41.97435437318697
 30
0.0
 10
70.62256264510478
 20
41.3652614913948
 30
0.0
 10
70.92228595232152
 20
40.82369248111353
 30
0.0
  0
ENDBLK
  5
251
330
24E
100
AcDbEntity
  8
0
100
AcDbBlockEnd
  0
BLOCK
  5
255
330
253
100
AcDbEntity
  8
0
100
AcDbBlockBegin
  2
block 73
 70
     0
 71
     0
 10
0.0
 20
0.0
 30
0.0
  3
block 73
  1

  0
POLYLINE
  5
257
330
253
100
AcDbEntity
  8
cuerpo
 62
     7
420
 16777215
370
    25
100
AcDb2dPolyline
 66
     1
 10
0.0
 20
0.0
 30
0.0
  0
VERTEX
  5
258
330
257
100
AcDbEntity
  8
cuerpo
 62
     7
420
 16777215
370
    25
100
AcDbVertex
100
AcDb2dVertex
 10
70.92228595232152
 20
37.62457681351052
 30
0.0
  0
VERTEX
  5
259
330
257
100
AcDbEntity
  8
cuerpo
 62
     7
420
 16777215
370
    25
100
AcDbVertex
100
AcDb2dVertex
 10
70.5434977037183
 20
36.86734482585261
 30
0.0
  0
SEQEND
  5
25A
330
257
100
AcDbEntity
  8
cuerpo
370
    25
  0
ENDBLK
  5
256
330
253
100
AcDbEntity
  8
0
100
AcDbBlockEnd
  0
BLOCK
  5
25D
330
25B
100
AcDbEntity
  8
0
100
AcDbBlockBegin
  2
block 74
 70
     0
 71
     0
 10
0.0
 20
0.0
 30
0.0
  3
block 74
  1

  0
POLYLINE
  5
25F
330
25B
100
AcDbEntity
  8
cuerpo
 62
     7
420
 16777215
370
    25
100
AcDb2dPolyline
 66
     1
 10
0.0
 20
0.0
 30
0.0
  0
VERTEX
  5
260
330
25F
100
AcDbEntity
  8
cuerpo
 62
     7
420
 16777215
370
    25
100
AcDbVertex
100
AcDb2dVertex
 10
71.26490069832961
 20
37.62457681351052
 30
0.0
  0
VERTEX
  5
261
330
25F
100
AcDbEntity
  8
cuerpo
 62
     7
420
 16777215
370
    25
100
AcDbVertex
100
AcDb2dVertex
 10
71.26490069832961
 20
40.82369248111353
 30
0.0
  0
SEQEND
  5
262
330
25F
100
AcDbEntity
  8
cuerpo
370
    25
  0
ENDBLK
  5
25E
330
25B
100
AcDbEntity
  8
0
100
AcDbBlockEnd
  0
BLOCK
  5
265
330
263
100
AcDbEntity
  8
0
100
AcDbBlockBegin
  2
block 75
 70
     0
 71
     0
 10
0.0
 20
0.0
 30
0.0
  3
block 75
  1

  0
POLYLINE
  5
267
330
263
100
AcDbEntity
  8
cuerpo
 62
     7
420
 16777215
370
    25
100
AcDb2dPolyline
 66
     1
 10
0.0
 20
0.0
 30
0.0
  0
VERTEX
  5
268
330
267
100
AcDbEntity
  8
cuerpo
 62
     7
420
 16777215
370
    25
100
AcDbVertex
100
AcDb2dVertex
 10
72.06467961523036
 20
37.62457681351052
 30
0.0
  0
VERTEX
  5
269
330
267
100
AcDbEntity
  8
cuerpo
 62
     7
420
 16777215
370
    25
100
AcDbVertex
100
AcDb2dVertex
 10
72.06467961523036
 20
40.82369248111353
 30
0.0
  0
SEQEND
  5
26A
330
267
100
AcDbEntity
  8
cuerpo
370
    25
  0
ENDBLK
  5
266
330
263
100
AcDbEntity
  8
0
100
AcDbBlockEnd
  0
BLOCK
  5
26D
330
26B
100
AcDbEntity
  8
0
100
AcDbBlockBegin
  2
block 76
 70
     0
 71
     0
 10
0.0
 20
0.0
 30
0.0
  3
block 76
  1

  0
SPLINE
  5
26F
330
26B
100
AcDbEntity
  8
cuerpo
 62
     7
420
 16777215
370
    25
100
AcDbSpline
210
0.0
220
0.0
230
1.0
 70
     8
 71
     3
 72
    11
 73
     7
 74
     0
 42
0.0000000001
 43
0.0000000001
 40
0.0
 40
0.0
 40
0.0
 40
0.0
 40
1.0
 40
1.0
 40
1.0
 40
2.0
 40
2.0
 40
2.0
 40
2.0
 10
71.09350719793844
 20
37.62457681351052
 30
0.0
 10
71.09350719793844
 20
37.30969508615869
 30
0.0
 10
71.34930553771824
 20
37.0533799820561
 30
0.0
 10
71.66487628416712
 20
37.0533799820561
 30
0.0
 10
71.98027477584174
 20
37.0533799820561
 30
0.0
 10
72.23607311562154
 20
37.30969508615869
 30
0.0
 10
72.23607311562154
 20
37.62457681351052
 30
0.0
  0
ENDBLK
  5
26E
330
26B
100
AcDbEntity
  8
0
100
AcDbBlockEnd
  0
BLOCK
  5
272
330
270
100
AcDbEntity
  8
0
100
AcDbBlockBegin
  2
block 77
 70
     0
 71
     0
 10
0.0
 20
0.0
 30
0.0
  3
block 77
  1

  0
SPLINE
  5
274
330
270
100
AcDbEntity
  8
cuerpo
 62
     7
420
 16777215
370
    25
100
AcDbSpline
210
0.0
220
0.0
230
1.0
 70
     8
 71
     3
 72
    11
 73
     7
 74
     0
 42
0.0000000001
 43
0.0000000001
 40
0.0
 40
0.0
 40
0.0
 40
0.0
 40
1.0
 40
1.0
 40
1.0
 40
2.0
 40
2.0
 40
2.0
 40
2.0
 10
72.23607311562154
 20
40.82369248111353
 30
0.0
 10
72.23607311562154
 20
41.13926322756241
 30
0.0
 10
71.98027477584174
 20
41.39488931256795
 30
0.0
 10
71.66487628416712
 20
41.39488931256795
 30
0.0
 10
71.34930553771824
 20
41.39488931256795
 30
0.0
 10
71.09350719793844
 20
41.13926322756241
 30
0.0
 10
71.09350719793844
 20
40.82369248111353
 30
0.0
  0
ENDBLK
  5
273
330
270
100
AcDbEntity
  8
0
100
AcDbBlockEnd
  0
BLOCK
  5
277
330
275
100
AcDbEntity
  8
0
100
AcDbBlockBegin
  2
block 78
 70
     0
 71
     0
 10
0.0
 20
0.0
 30
0.0
  3
block 78
  1

  0
POLYLINE
  5
279
330
275
100
AcDbEntity
  8
cuerpo
 62
     7
420
 16777215
370
    25
100
AcDb2dPolyline
 66
     1
 10
0.0
 20
0.0
 30
0.0
  0
VERTEX
  5
27A
330
279
100
AcDbEntity
  8
cuerpo
 62
     7
420
 16777215
370
    25
100
AcDbVertex
100
AcDb2dVertex
 10
70.92228595232152
 20
37.62457681351052
 30
0.0
  0
VERTEX
  5
27B
330
279
100
AcDbEntity
  8
cuerpo
 62
     7
420
 16777215
370
    25
100
AcDbVertex
100
AcDb2dVertex
 10
70.92228595232152
 20
40.82369248111353
 30
0.0
  0
SEQEND
  5
27C
330
279
100
AcDbEntity
  8
cuerpo
370
    25
  0
ENDBLK
  5
278
330
275
100
AcDbEntity
  8
0
100
AcDbBlockEnd
  0
BLOCK
  5
27F
330
27D
100
AcDbEntity
  8
0
100
AcDbBlockBegin
  2
block 79
 70
     0
 71
     0
 10
0.0
 20
0.0
 30
0.0
  3
block 79
  1

  0
POLYLINE
  5
281
330
27D
100
AcDbEntity
  8
cuerpo
 62
     7
420
 16777215
370
    25
100
AcDb2dPolyline
 66
     1
 10
0.0
 20
0.0
 30
0.0
  0
VERTEX
  5
282
330
281
100
AcDbEntity
  8
cuerpo
 62
     7
420
 16777215
370
    25
100
AcDbVertex
100
AcDb2dVertex
 10
70.46529403620312
 20
43.3372341471518
 30
0.0
  0
VERTEX
  5
283
330
281
100
AcDbEntity
  8
cuerpo
 62
     7
420
 16777215
370
    25
100
AcDbVertex
100
AcDb2dVertex
 10
75.94902477484955
 20
43.3372341471518
 30
0.0
  0
SEQEND
  5
284
330
281
100
AcDbEntity
  8
cuerpo
370
    25
  0
ENDBLK
  5
280
330
27D
100
AcDbEntity
  8
0
100
AcDbBlockEnd
  0
BLOCK
  5
287
330
285
100
AcDbEntity
  8
0
100
AcDbBlockBegin
  2
block 80
 70
     0
 71
     0
 10
0.0
 20
0.0
 30
0.0
  3
block 80
  1

  0
POLYLINE
  5
289
330
285
100
AcDbEntity
  8
cuerpo
 62
     7
420
 16777215
370
    25
100
AcDb2dPolyline
 66
     1
 10
0.0
 20
0.0
 30
0.0
  0
VERTEX
  5
28A
330
289
100
AcDbEntity
  8
cuerpo
 62
     7
420
 16777215
370
    25
100
AcDbVertex
100
AcDb2dVertex
 10
67.63807642623284
 20
47.10547958891808
 30
0.0
  0
VERTEX
  5
28B
330
289
100
AcDbEntity
  8
cuerpo
 62
     7
420
 16777215
370
    25
100
AcDbVertex
100
AcDb2dVertex
 10
66.09984129206879
 20
47.10547958891808
 30
0.0
  0
SEQEND
  5
28C
330
289
100
AcDbEntity
  8
cuerpo
370
    25
  0
ENDBLK
  5
288
330
285
100
AcDbEntity
  8
0
100
AcDbBlockEnd
  0
BLOCK
  5
28F
330
28D
100
AcDbEntity
  8
0
100
AcDbBlockBegin
  2
block 81
 70
     0
 71
     0
 10
0.0
 20
0.0
 30
0.0
  3
block 81
  1

  0
SPLINE
  5
291
330
28D
100
AcDbEntity
  8
cuerpo
 62
     7
420
 16777215
370
    25
100
AcDbSpline
210
0.0
220
0.0
230
1.0
 70
     8
 71
     3
 72
     8
 73
     4
 74
     0
 42
0.0000000001
 43
0.0000000001
 40
0.0
 40
0.0
 40
0.0
 40
0.0
 40
1.0
 40
1.0
 40
1.0
 40
1.0
 10
66.09984129206879
 20
46.12982854749532
 30
0.0
 10
66.7321885683864
 20
46.21044378185017
 30
0.0
 10
67.29580618977327
 20
46.5680446932191
 30
0.0
 10
67.63807642623284
 20
47.10547958891808
 30
0.0
  0
ENDBLK
  5
290
330
28D
100
AcDbEntity
  8
0
100
AcDbBlockEnd
  0
BLOCK
  5
294
330
292
100
AcDbEntity
  8
0
100
AcDbBlockBegin
  2
block 82
 70
     0
 71
     0
 10
0.0
 20
0.0
 30
0.0
  3
block 82
  1

  0
POLYLINE
  5
296
330
292
100
AcDbEntity
  8
cuerpo
 62
     7
420
 16777215
370
    25
100
AcDb2dPolyline
 66
     1
 10
0.0
 20
0.0
 30
0.0
  0
VERTEX
  5
297
330
296
100
AcDbEntity
  8
cuerpo
 62
     7
420
 16777215
370
    25
100
AcDbVertex
100
AcDb2dVertex
 10
65.55706649836767
 20
47.10547958891808
 30
0.0
  0
VERTEX
  5
298
330
296
100
AcDbEntity
  8
cuerpo
 62
     7
420
 16777215
370
    25
100
AcDbVertex
100
AcDb2dVertex
 10
64.01883136420363
 20
47.10547958891808
 30
0.0
  0
SEQEND
  5
299
330
296
100
AcDbEntity
  8
cuerpo
370
    25
  0
ENDBLK
  5
295
330
292
100
AcDbEntity
  8
0
100
AcDbBlockEnd
  0
BLOCK
  5
29C
330
29A
100
AcDbEntity
  8
0
100
AcDbBlockBegin
  2
block 83
 70
     0
 71
     0
 10
0.0
 20
0.0
 30
0.0
  3
block 83
  1

  0
POLYLINE
  5
29E
330
29A
100
AcDbEntity
  8
cuerpo
 62
     7
420
 16777215
370
    25
100
AcDb2dPolyline
 66
     1
 10
0.0
 20
0.0
 30
0.0
  0
VERTEX
  5
29F
330
29E
100
AcDbEntity
  8
cuerpo
 62
     7
420
 16777215
370
    25
100
AcDbVertex
100
AcDb2dVertex
 10
65.55706649836767
 20
47.46928167216046
 30
0.0
  0
VERTEX
  5
2A0
330
29E
100
AcDbEntity
  8
cuerpo
 62
     7
420
 16777215
370
    25
100
AcDbVertex
100
AcDb2dVertex
 10
66.09984129206879
 20
47.46928167216046
 30
0.0
  0
SEQEND
  5
2A1
330
29E
100
AcDbEntity
  8
cuerpo
370
    25
  0
ENDBLK
  5
29D
330
29A
100
AcDbEntity
  8
0
100
AcDbBlockEnd
  0
BLOCK
  5
2A4
330
2A2
100
AcDbEntity
  8
0
100
AcDbBlockBegin
  2
block 84
 70
     0
 71
     0
 10
0.0
 20
0.0
 30
0.0
  3
block 84
  1

  0
POLYLINE
  5
2A6
330
2A2
100
AcDbEntity
  8
cuerpo
 62
     7
420
 16777215
370
    25
100
AcDb2dPolyline
 66
     1
 10
0.0
 20
0.0
 30
0.0
  0
VERTEX
  5
2A7
330
2A6
100
AcDbEntity
  8
cuerpo
 62
     7
420
 16777215
370
    25
100
AcDbVertex
100
AcDb2dVertex
 10
66.09984129206879
 20
47.46928167216046
 30
0.0
  0
VERTEX
  5
2A8
330
2A6
100
AcDbEntity
  8
cuerpo
 62
     7
420
 16777215
370
    25
100
AcDbVertex
100
AcDb2dVertex
 10
66.09984129206879
 20
46.12982854749532
 30
0.0
  0
SEQEND
  5
2A9
330
2A6
100
AcDbEntity
  8
cuerpo
370
    25
  0
ENDBLK
  5
2A5
330
2A2
100
AcDbEntity
  8
0
100
AcDbBlockEnd
  0
BLOCK
  5
2AC
330
2AA
100
AcDbEntity
  8
0
100
AcDbBlockBegin
  2
block 85
 70
     0
 71
     0
 10
0.0
 20
0.0
 30
0.0
  3
block 85
  1

  0
POLYLINE
  5
2AE
330
2AA
100
AcDbEntity
  8
cuerpo
 62
     7
420
 16777215
370
    25
100
AcDb2dPolyline
 66
     1
 10
0.0
 20
0.0
 30
0.0
  0
VERTEX
  5
2AF
330
2AE
100
AcDbEntity
  8
cuerpo
 62
     7
420
 16777215
370
    25
100
AcDbVertex
100
AcDb2dVertex
 10
65.55706649836767
 20
47.46928167216046
 30
0.0
  0
VERTEX
  5
2B0
330
2AE
100
AcDbEntity
  8
cuerpo
 62
     7
420
 16777215
370
    25
100
AcDbVertex
100
AcDb2dVertex
 10
65.55706649836767
 20
46.12982854749532
 30
0.0
  0
SEQEND
  5
2B1
330
2AE
100
AcDbEntity
  8
cuerpo
370
    25
  0
ENDBLK
  5
2AD
330
2AA
100
AcDbEntity
  8
0
100
AcDbBlockEnd
  0
BLOCK
  5
2B4
330
2B2
100
AcDbEntity
  8
0
100
AcDbBlockBegin
  2
block 86
 70
     0
 71
     0
 10
0.0
 20
0.0
 30
0.0
  3
block 86
  1

  0
SPLINE
  5
2B6
330
2B2
100
AcDbEntity
  8
cuerpo
 62
     7
420
 16777215
370
    25
100
AcDbSpline
210
0.0
220
0.0
230
1.0
 70
     8
 71
     3
 72
     8
 73
     4
 74
     0
 42
0.0000000001
 43
0.0000000001
 40
0.0
 40
0.0
 40
0.0
 40
0.0
 40
1.0
 40
1.0
 40
1.0
 40
1.0
 10
64.01883136420363
 20
47.10547958891808
 30
0.0
 10
64.3611016006632
 20
46.5680446932191
 30
0.0
 10
64.92471922205007
 20
46.21044378185017
 30
0.0
 10
65.55706649836767
 20
46.12982854749532
 30
0.0
  0
ENDBLK
  5
2B5
330
2B2
100
AcDbEntity
  8
0
100
AcDbBlockEnd
  0
BLOCK
  5
2B9
330
2B7
100
AcDbEntity
  8
0
100
AcDbBlockBegin
  2
block 87
 70
     0
 71
     0
 10
0.0
 20
0.0
 30
0.0
  3
block 87
  1

  0
POLYLINE
  5
2BB
330
2B7
100
AcDbEntity
  8
cuerpo
 62
     7
420
 16777215
370
    25
100
AcDb2dPolyline
 66
     1
 10
0.0
 20
0.0
 30
0.0
  0
VERTEX
  5
2BC
330
2BB
100
AcDbEntity
  8
cuerpo
 62
     7
420
 16777215
370
    25
100
AcDbVertex
100
AcDb2dVertex
 10
68.70157740252947
 20
59.2859591865674
 30
0.0
  0
VERTEX
  5
2BD
330
2BB
100
AcDbEntity
  8
cuerpo
 62
     7
420
 16777215
370
    25
100
AcDbVertex
100
AcDb2dVertex
 10
68.70157740252947
 20
52.9524956464841
 30
0.0
  0
SEQEND
  5
2BE
330
2BB
100
AcDbEntity
  8
cuerpo
370
    25
  0
ENDBLK
  5
2BA
330
2B7
100
AcDbEntity
  8
0
100
AcDbBlockEnd
  0
BLOCK
  5
2C1
330
2BF
100
AcDbEntity
  8
0
100
AcDbBlockBegin
  2
block 88
 70
     0
 71
     0
 10
0.0
 20
0.0
 30
0.0
  3
block 88
  1

  0
POLYLINE
  5
2C3
330
2BF
100
AcDbEntity
  8
cuerpo
 62
     7
420
 16777215
370
    25
100
AcDb2dPolyline
 66
     1
 10
0.0
 20
0.0
 30
0.0
  0
VERTEX
  5
2C4
330
2C3
100
AcDbEntity
  8
cuerpo
 62
     7
420
 16777215
370
    25
100
AcDbVertex
100
AcDb2dVertex
 10
64.39193520525619
 20
59.2859591865674
 30
0.0
  0
VERTEX
  5
2C5
330
2C3
100
AcDbEntity
  8
cuerpo
 62
     7
420
 16777215
370
    25
100
AcDbVertex
100
AcDb2dVertex
 10
64.39193520525619
 20
52.9524956464841
 30
0.0
  0
SEQEND
  5
2C6
330
2C3
100
AcDbEntity
  8
cuerpo
370
    25
  0
ENDBLK
  5
2C2
330
2BF
100
AcDbEntity
  8
0
100
AcDbBlockEnd
  0
BLOCK
  5
2C9
330
2C7
100
AcDbEntity
  8
0
100
AcDbBlockBegin
  2
block 89
 70
     0
 71
     0
 10
0.0
 20
0.0
 30
0.0
  3
block 89
  1

  0
POLYLINE
  5
2CB
330
2C7
100
AcDbEntity
  8
cuerpo
 62
     7
420
 16777215
370
    25
100
AcDb2dPolyline
 66
     1
 10
0.0
 20
0.0
 30
0.0
  0
VERTEX
  5
2CC
330
2CB
100
AcDbEntity
  8
cuerpo
 62
     7
420
 16777215
370
    25
100
AcDbVertex
100
AcDb2dVertex
 10
62.955330387907
 20
59.2859591865674
 30
0.0
  0
VERTEX
  5
2CD
330
2CB
100
AcDbEntity
  8
cuerpo
 62
     7
420
 16777215
370
    25
100
AcDbVertex
100
AcDb2dVertex
 10
62.955330387907
 20
52.9524956464841
 30
0.0
  0
SEQEND
  5
2CE
330
2CB
100
AcDbEntity
  8
cuerpo
370
    25
  0
ENDBLK
  5
2CA
330
2C7
100
AcDbEntity
  8
0
100
AcDbBlockEnd
  0
BLOCK
  5
2D1
330
2CF
100
AcDbEntity
  8
0
100
AcDbBlockBegin
  2
block 90
 70
     0
 71
     0
 10
0.0
 20
0.0
 30
0.0
  3
block 90
  1

  0
POLYLINE
  5
2D3
330
2CF
100
AcDbEntity
  8
cuerpo
 62
     7
420
 16777215
370
    25
100
AcDb2dPolyline
 66
     1
 10
0.0
 20
0.0
 30
0.0
  0
VERTEX
  5
2D4
330
2D3
100
AcDbEntity
  8
cuerpo
 62
     7
420
 16777215
370
    25
100
AcDbVertex
100
AcDb2dVertex
 10
68.30987004585657
 20
52.72580836355466
 30
0.0
  0
VERTEX
  5
2D5
330
2D3
100
AcDbEntity
  8
cuerpo
 62
     7
420
 16777215
370
    25
100
AcDbVertex
100
AcDb2dVertex
 10
63.34703774457991
 20
52.72580836355466
 30
0.0
  0
SEQEND
  5
2D6
330
2D3
100
AcDbEntity
  8
cuerpo
370
    25
  0
ENDBLK
  5
2D2
330
2CF
100
AcDbEntity
  8
0
100
AcDbBlockEnd
  0
BLOCK
  5
2D9
330
2D7
100
AcDbEntity
  8
0
100
AcDbBlockBegin
  2
block 91
 70
     0
 71
     0
 10
0.0
 20
0.0
 30
0.0
  3
block 91
  1

  0
SPLINE
  5
2DB
330
2D7
100
AcDbEntity
  8
cuerpo
 62
     7
420
 16777215
370
    25
100
AcDbSpline
210
0.0
220
0.0
230
1.0
 70
     8
 71
     3
 72
     8
 73
     4
 74
     0
 42
0.0000000001
 43
0.0000000001
 40
0.0
 40
0.0
 40
0.0
 40
0.0
 40
1.0
 40
1.0
 40
1.0
 40
1.0
 10
63.67259926793602
 20
52.72580836355466
 30
0.0
 10
63.92994790068418
 20
52.72580836355466
 30
0.0
 10
64.18092310678463
 20
52.80504555971541
 30
0.0
 10
64.39193520525619
 20
52.9524956464841
 30
0.0
  0
ENDBLK
  5
2DA
330
2D7
100
AcDbEntity
  8
0
100
AcDbBlockEnd
  0
BLOCK
  5
2DE
330
2DC
100
AcDbEntity
  8
0
100
AcDbBlockBegin
  2
block 92
 70
     0
 71
     0
 10
0.0
 20
0.0
 30
0.0
  3
block 92
  1

  0
POLYLINE
  5
2E0
330
2DC
100
AcDbEntity
  8
cuerpo
 62
     7
420
 16777215
370
    25
100
AcDb2dPolyline
 66
     1
 10
0.0
 20
0.0
 30
0.0
  0
VERTEX
  5
2E1
330
2E0
100
AcDbEntity
  8
cuerpo
 62
     7
420
 16777215
370
    25
100
AcDbVertex
100
AcDb2dVertex
 10
62.955330387907
 20
52.9524956464841
 30
0.0
  0
VERTEX
  5
2E2
330
2E0
100
AcDbEntity
  8
cuerpo
 62
     7
420
 16777215
370
    25
100
AcDbVertex
100
AcDb2dVertex
 10
63.34703774457991
 20
52.72580836355466
 30
0.0
  0
SEQEND
  5
2E3
330
2E0
100
AcDbEntity
  8
cuerpo
370
    25
  0
ENDBLK
  5
2DF
330
2DC
100
AcDbEntity
  8
0
100
AcDbBlockEnd
  0
BLOCK
  5
2E6
330
2E4
100
AcDbEntity
  8
0
100
AcDbBlockBegin
  2
block 93
 70
     0
 71
     0
 10
0.0
 20
0.0
 30
0.0
  3
block 93
  1

  0
POLYLINE
  5
2E8
330
2E4
100
AcDbEntity
  8
cuerpo
 62
     7
420
 16777215
370
    25
100
AcDb2dPolyline
 66
     1
 10
0.0
 20
0.0
 30
0.0
  0
VERTEX
  5
2E9
330
2E8
100
AcDbEntity
  8
cuerpo
 62
     7
420
 16777215
370
    25
100
AcDbVertex
100
AcDb2dVertex
 10
68.70157740252947
 20
52.9524956464841
 30
0.0
  0
VERTEX
  5
2EA
330
2E8
100
AcDbEntity
  8
cuerpo
 62
     7
420
 16777215
370
    25
100
AcDbVertex
100
AcDb2dVertex
 10
68.30987004585657
 20
52.72580836355466
 30
0.0
  0
SEQEND
  5
2EB
330
2E8
100
AcDbEntity
  8
cuerpo
370
    25
  0
ENDBLK
  5
2E7
330
2E4
100
AcDbEntity
  8
0
100
AcDbBlockEnd
  0
BLOCK
  5
2EE
330
2EC
100
AcDbEntity
  8
0
100
AcDbBlockBegin
  2
block 94
 70
     0
 71
     0
 10
0.0
 20
0.0
 30
0.0
  3
block 94
  1

  0
POLYLINE
  5
2F0
330
2EC
100
AcDbEntity
  8
cuerpo
 62
     7
420
 16777215
370
    25
100
AcDb2dPolyline
 66
     1
 10
0.0
 20
0.0
 30
0.0
  0
VERTEX
  5
2F1
330
2F0
100
AcDbEntity
  8
cuerpo
 62
     7
420
 16777215
370
    25
100
AcDbVertex
100
AcDb2dVertex
 10
62.955330387907
 20
59.2859591865674
 30
0.0
  0
VERTEX
  5
2F2
330
2F0
100
AcDbEntity
  8
cuerpo
 62
     7
420
 16777215
370
    25
100
AcDbVertex
100
AcDb2dVertex
 10
63.34703774457991
 20
59.51195745039979
 30
0.0
  0
SEQEND
  5
2F3
330
2F0
100
AcDbEntity
  8
cuerpo
370
    25
  0
ENDBLK
  5
2EF
330
2EC
100
AcDbEntity
  8
0
100
AcDbBlockEnd
  0
BLOCK
  5
2F6
330
2F4
100
AcDbEntity
  8
0
100
AcDbBlockBegin
  2
block 95
 70
     0
 71
     0
 10
0.0
 20
0.0
 30
0.0
  3
block 95
  1

  0
SPLINE
  5
2F8
330
2F4
100
AcDbEntity
  8
cuerpo
 62
     7
420
 16777215
370
    25
100
AcDbSpline
210
0.0
220
0.0
230
1.0
 70
     8
 71
     3
 72
     8
 73
     4
 74
     0
 42
0.0000000001
 43
0.0000000001
 40
0.0
 40
0.0
 40
0.0
 40
0.0
 40
1.0
 40
1.0
 40
1.0
 40
1.0
 10
64.39193520525619
 20
59.2859591865674
 30
0.0
 10
64.18092310678463
 20
59.4334092733361
 30
0.0
 10
63.92994790068418
 20
59.51195745039979
 30
0.0
 10
63.67259926793602
 20
59.51195745039979
 30
0.0
  0
ENDBLK
  5
2F7
330
2F4
100
AcDbEntity
  8
0
100
AcDbBlockEnd
  0
BLOCK
  5
2FB
330
2F9
100
AcDbEntity
  8
0
100
AcDbBlockBegin
  2
block 96
 70
     0
 71
     0
 10
0.0
 20
0.0
 30
0.0
  3
block 96
  1

  0
POLYLINE
  5
2FD
330
2F9
100
AcDbEntity
  8
cuerpo
 62
     7
420
 16777215
370
    25
100
AcDb2dPolyline
 66
     1
 10
0.0
 20
0.0
 30
0.0
  0
VERTEX
  5
2FE
330
2FD
100
AcDbEntity
  8
cuerpo
 62
     7
420
 16777215
370
    25
100
AcDbVertex
100
AcDb2dVertex
 10
82.09231904414706
 20
64.7491916070766
 30
0.0
  0
VERTEX
  5
2FF
330
2FD
100
AcDbEntity
  8
cuerpo
 62
     7
420
 16777215
370
    25
100
AcDbVertex
100
AcDb2dVertex
 10
82.09231904414706
 20
66.10655922826503
 30
0.0
  0
SEQEND
  5
300
330
2FD
100
AcDbEntity
  8
cuerpo
370
    25
  0
ENDBLK
  5
2FC
330
2F9
100
AcDbEntity
  8
0
100
AcDbBlockEnd
  0
BLOCK
  5
303
330
301
100
AcDbEntity
  8
0
100
AcDbBlockBegin
  2
block 97
 70
     0
 71
     0
 10
0.0
 20
0.0
 30
0.0
  3
block 97
  1

  0
POLYLINE
  5
305
330
301
100
AcDbEntity
  8
cuerpo
 62
     7
420
 16777215
370
    25
100
AcDb2dPolyline
 66
     1
 10
0.0
 20
0.0
 30
0.0
  0
VERTEX
  5
306
330
305
100
AcDbEntity
  8
cuerpo
 62
     7
420
 16777215
370
    25
100
AcDbVertex
100
AcDb2dVertex
 10
73.33419730154493
 20
59.51195745039979
 30
0.0
  0
VERTEX
  5
307
330
305
100
AcDbEntity
  8
cuerpo
 62
     7
420
 16777215
370
    25
100
AcDbVertex
100
AcDb2dVertex
 10
80.15445283369402
 20
59.51195745039979
 30
0.0
  0
SEQEND
  5
308
330
305
100
AcDbEntity
  8
cuerpo
370
    25
  0
ENDBLK
  5
304
330
301
100
AcDbEntity
  8
0
100
AcDbBlockEnd
  0
BLOCK
  5
30B
330
309
100
AcDbEntity
  8
0
100
AcDbBlockBegin
  2
block 98
 70
     0
 71
     0
 10
0.0
 20
0.0
 30
0.0
  3
block 98
  1

  0
POLYLINE
  5
30D
330
309
100
AcDbEntity
  8
cuerpo
 62
     7
420
 16777215
370
    25
100
AcDb2dPolyline
 66
     1
 10
0.0
 20
0.0
 30
0.0
  0
VERTEX
  5
30E
330
30D
100
AcDbEntity
  8
cuerpo
 62
     7
420
 16777215
370
    25
100
AcDbVertex
100
AcDb2dVertex
 10
58.94661728127029
 20
64.7491916070766
 30
0.0
  0
VERTEX
  5
30F
330
30D
100
AcDbEntity
  8
cuerpo
 62
     7
420
 16777215
370
    25
100
AcDbVertex
100
AcDb2dVertex
 10
82.09231904414706
 20
64.7491916070766
 30
0.0
  0
SEQEND
  5
310
330
30D
100
AcDbEntity
  8
cuerpo
370
    25
  0
ENDBLK
  5
30C
330
309
100
AcDbEntity
  8
0
100
AcDbBlockEnd
  0
BLOCK
  5
313
330
311
100
AcDbEntity
  8
0
100
AcDbBlockBegin
  2
block 99
 70
     0
 71
     0
 10
0.0
 20
0.0
 30
0.0
  3
block 99
  1

  0
SPLINE
  5
315
330
311
100
AcDbEntity
  8
cuerpo
 62
     7
420
 16777215
370
    25
100
AcDbSpline
210
0.0
220
0.0
230
1.0
 70
     8
 71
     3
 72
     8
 73
     4
 74
     0
 42
0.0000000001
 43
0.0000000001
 40
0.0
 40
0.0
 40
0.0
 40
0.0
 40
1.0
 40
1.0
 40
1.0
 40
1.0
 10
67.24189044542912
 20
59.29353839663495
 30
0.0
 10
66.31395397647707
 20
59.58499347468709
 30
0.0
 10
65.31849363601413
 20
59.58223739829889
 30
0.0
 10
64.39193520525619
 20
59.2859591865674
 30
0.0
  0
ENDBLK
  5
314
330
311
100
AcDbEntity
  8
0
100
AcDbBlockEnd
  0
BLOCK
  5
318
330
316
100
AcDbEntity
  8
0
100
AcDbBlockBegin
  2
block 100
 70
     0
 71
     0
 10
0.0
 20
0.0
 30
0.0
  3
block 100
  1

  0
SPLINE
  5
31A
330
316
100
AcDbEntity
  8
cuerpo
 62
     7
420
 16777215
370
    25
100
AcDbSpline
210
0.0
220
0.0
230
1.0
 70
     8
 71
     3
 72
     8
 73
     4
 74
     0
 42
0.0000000001
 43
0.0000000001
 40
0.0
 40
0.0
 40
0.0
 40
0.0
 40
1.0
 40
1.0
 40
1.0
 40
1.0
 10
64.39193520525619
 20
52.9524956464841
 30
0.0
 10
65.32624510085594
 20
52.65346135836442
 30
0.0
 10
66.33066268958054
 20
52.65346135836442
 30
0.0
 10
67.26497258518029
 20
52.9524956464841
 30
0.0
  0
ENDBLK
  5
319
330
316
100
AcDbEntity
  8
0
100
AcDbBlockEnd
  0
BLOCK
  5
31D
330
31B
100
AcDbEntity
  8
0
100
AcDbBlockBegin
  2
block 101
 70
     0
 71
     0
 10
0.0
 20
0.0
 30
0.0
  3
block 101
  1

  0
SPLINE
  5
31F
330
31B
100
AcDbEntity
  8
cuerpo
 62
     7
420
 16777215
370
    25
100
AcDbSpline
210
0.0
220
0.0
230
1.0
 70
     8
 71
     3
 72
     8
 73
     4
 74
     0
 42
0.0000000001
 43
0.0000000001
 40
0.0
 40
0.0
 40
0.0
 40
0.0
 40
1.0
 40
1.0
 40
1.0
 40
1.0
 10
67.26497258518029
 20
52.9524956464841
 30
0.0
 10
67.47581242887757
 20
52.80504555971541
 30
0.0
 10
67.7269598897523
 20
52.72580836355466
 30
0.0
 10
67.98430852250046
 20
52.72580836355466
 30
0.0
  0
ENDBLK
  5
31E
330
31B
100
AcDbEntity
  8
0
100
AcDbBlockEnd
  0
BLOCK
  5
322
330
320
100
AcDbEntity
  8
0
100
AcDbBlockBegin
  2
block 102
 70
     0
 71
     0
 10
0.0
 20
0.0
 30
0.0
  3
block 102
  1

  0
POLYLINE
  5
324
330
320
100
AcDbEntity
  8
cuerpo
 62
     7
420
 16777215
370
    25
100
AcDb2dPolyline
 66
     1
 10
0.0
 20
0.0
 30
0.0
  0
VERTEX
  5
325
330
324
100
AcDbEntity
  8
cuerpo
 62
     7
420
 16777215
370
    25
100
AcDbVertex
100
AcDb2dVertex
 10
67.26497258518029
 20
59.26046547997655
 30
0.0
  0
VERTEX
  5
326
330
324
100
AcDbEntity
  8
cuerpo
 62
     7
420
 16777215
370
    25
100
AcDbVertex
100
AcDb2dVertex
 10
67.26497258518029
 20
52.9524956464841
 30
0.0
  0
SEQEND
  5
327
330
324
100
AcDbEntity
  8
cuerpo
370
    25
  0
ENDBLK
  5
323
330
320
100
AcDbEntity
  8
0
100
AcDbBlockEnd
  0
BLOCK
  5
32A
330
328
100
AcDbEntity
  8
0
100
AcDbBlockBegin
  2
block 103
 70
     0
 71
     0
 10
0.0
 20
0.0
 30
0.0
  3
block 103
  1

  0
POLYLINE
  5
32C
330
328
100
AcDbEntity
  8
cuerpo
 62
     7
420
 16777215
370
    25
100
AcDb2dPolyline
 66
     1
 10
0.0
 20
0.0
 30
0.0
  0
VERTEX
  5
32D
330
32C
100
AcDbEntity
  8
cuerpo
 62
     7
420
 16777215
370
    25
100
AcDbVertex
100
AcDb2dVertex
 10
68.70157740252947
 20
59.2859591865674
 30
0.0
  0
VERTEX
  5
32E
330
32C
100
AcDbEntity
  8
cuerpo
 62
     7
420
 16777215
370
    25
100
AcDbVertex
100
AcDb2dVertex
 10
68.30987004585657
 20
59.51195745039979
 30
0.0
  0
SEQEND
  5
32F
330
32C
100
AcDbEntity
  8
cuerpo
370
    25
  0
ENDBLK
  5
32B
330
328
100
AcDbEntity
  8
0
100
AcDbBlockEnd
  0
BLOCK
  5
332
330
330
100
AcDbEntity
  8
0
100
AcDbBlockBegin
  2
block 104
 70
     0
 71
     0
 10
0.0
 20
0.0
 30
0.0
  3
block 104
  1

  0
SPLINE
  5
334
330
330
100
AcDbEntity
  8
cuerpo
 62
     7
420
 16777215
370
    25
100
AcDbSpline
210
0.0
220
0.0
230
1.0
 70
     8
 71
     3
 72
     8
 73
     4
 74
     0
 42
0.0000000001
 43
0.0000000001
 40
0.0
 40
0.0
 40
0.0
 40
0.0
 40
1.0
 40
1.0
 40
1.0
 40
1.0
 10
67.98430852250046
 20
59.51195745039979
 30
0.0
 10
67.7269598897523
 20
59.51195745039979
 30
0.0
 10
67.47581242887757
 20
59.4334092733361
 30
0.0
 10
67.26497258518029
 20
59.2859591865674
 30
0.0
  0
ENDBLK
  5
333
330
330
100
AcDbEntity
  8
0
100
AcDbBlockEnd
  0
BLOCK
  5
337
330
335
100
AcDbEntity
  8
0
100
AcDbBlockBegin
  2
block 105
 70
     0
 71
     0
 10
0.0
 20
0.0
 30
0.0
  3
block 105
  1

  0
POLYLINE
  5
339
330
335
100
AcDbEntity
  8
cuerpo
 62
     7
420
 16777215
370
    25
100
AcDb2dPolyline
 66
     1
 10
0.0
 20
0.0
 30
0.0
  0
VERTEX
  5
33A
330
339
100
AcDbEntity
  8
cuerpo
 62
     7
420
 16777215
370
    25
100
AcDbVertex
100
AcDb2dVertex
 10
58.94661728127029
 20
64.7491916070766
 30
0.0
  0
VERTEX
  5
33B
330
339
100
AcDbEntity
  8
cuerpo
 62
     7
420
 16777215
370
    25
100
AcDbVertex
100
AcDb2dVertex
 10
58.94661728127029
 20
66.10655922826503
 30
0.0
  0
SEQEND
  5
33C
330
339
100
AcDbEntity
  8
cuerpo
370
    25
  0
ENDBLK
  5
338
330
335
100
AcDbEntity
  8
0
100
AcDbBlockEnd
  0
BLOCK
  5
33F
330
33D
100
AcDbEntity
  8
0
100
AcDbBlockBegin
  2
block 106
 70
     0
 71
     0
 10
0.0
 20
0.0
 30
0.0
  3
block 106
  1

  0
POLYLINE
  5
341
330
33D
100
AcDbEntity
  8
cuerpo
 62
     7
420
 16777215
370
    25
100
AcDb2dPolyline
 66
     1
 10
0.0
 20
0.0
 30
0.0
  0
VERTEX
  5
342
330
341
100
AcDbEntity
  8
cuerpo
 62
     7
420
 16777215
370
    25
100
AcDbVertex
100
AcDb2dVertex
 10
58.94661728127029
 20
66.10655922826503
 30
0.0
  0
VERTEX
  5
343
330
341
100
AcDbEntity
  8
cuerpo
 62
     7
420
 16777215
370
    25
100
AcDbVertex
100
AcDb2dVertex
 10
82.09231904414706
 20
66.10655922826503
 30
0.0
  0
SEQEND
  5
344
330
341
100
AcDbEntity
  8
cuerpo
370
    25
  0
ENDBLK
  5
340
330
33D
100
AcDbEntity
  8
0
100
AcDbBlockEnd
  0
BLOCK
  5
347
330
345
100
AcDbEntity
  8
0
100
AcDbBlockBegin
  2
block 107
 70
     0
 71
     0
 10
0.0
 20
0.0
 30
0.0
  3
block 107
  1

  0
POLYLINE
  5
349
330
345
100
AcDbEntity
  8
cuerpo
 62
     7
420
 16777215
370
    25
100
AcDb2dPolyline
 66
     1
 10
0.0
 20
0.0
 30
0.0
  0
VERTEX
  5
34A
330
349
100
AcDbEntity
  8
cuerpo
 62
     7
420
 16777215
370
    25
100
AcDbVertex
100
AcDb2dVertex
 10
75.39057479669056
 20
62.24047307471766
 30
0.0
  0
VERTEX
  5
34B
330
349
100
AcDbEntity
  8
cuerpo
 62
     7
420
 16777215
370
    25
100
AcDbVertex
100
AcDb2dVertex
 10
75.39057479669056
 20
59.51195745039979
 30
0.0
  0
SEQEND
  5
34C
330
349
100
AcDbEntity
  8
cuerpo
370
    25
  0
ENDBLK
  5
348
330
345
100
AcDbEntity
  8
0
100
AcDbBlockEnd
  0
BLOCK
  5
34F
330
34D
100
AcDbEntity
  8
0
100
AcDbBlockBegin
  2
block 108
 70
     0
 71
     0
 10
0.0
 20
0.0
 30
0.0
  3
block 108
  1

  0
POLYLINE
  5
351
330
34D
100
AcDbEntity
  8
cuerpo
 62
     7
420
 16777215
370
    25
100
AcDb2dPolyline
 66
     1
 10
0.0
 20
0.0
 30
0.0
  0
VERTEX
  5
352
330
351
100
AcDbEntity
  8
cuerpo
 62
     7
420
 16777215
370
    25
100
AcDbVertex
100
AcDb2dVertex
 10
73.33419730154493
 20
59.51195745039979
 30
0.0
  0
VERTEX
  5
353
330
351
100
AcDbEntity
  8
cuerpo
 62
     7
420
 16777215
370
    25
100
AcDbVertex
100
AcDb2dVertex
 10
60.97681205072802
 20
59.51195745039979
 30
0.0
  0
SEQEND
  5
354
330
351
100
AcDbEntity
  8
cuerpo
370
    25
  0
ENDBLK
  5
350
330
34D
100
AcDbEntity
  8
0
100
AcDbBlockEnd
  0
BLOCK
  5
357
330
355
100
AcDbEntity
  8
0
100
AcDbBlockBegin
  2
block 109
 70
     0
 71
     0
 10
0.0
 20
0.0
 30
0.0
  3
block 109
  1

  0
POLYLINE
  5
359
330
355
100
AcDbEntity
  8
cuerpo
 62
     7
420
 16777215
370
    25
100
AcDb2dPolyline
 66
     1
 10
0.0
 20
0.0
 30
0.0
  0
VERTEX
  5
35A
330
359
100
AcDbEntity
  8
cuerpo
 62
     7
420
 16777215
370
    25
100
AcDbVertex
100
AcDb2dVertex
 10
60.54307452913507
 20
62.24047307471766
 30
0.0
  0
VERTEX
  5
35B
330
359
100
AcDbEntity
  8
cuerpo
 62
     7
420
 16777215
370
    25
100
AcDbVertex
100
AcDb2dVertex
 10
60.97681205072802
 20
59.51195745039979
 30
0.0
  0
SEQEND
  5
35C
330
359
100
AcDbEntity
  8
cuerpo
370
    25
  0
ENDBLK
  5
358
330
355
100
AcDbEntity
  8
0
100
AcDbBlockEnd
  0
BLOCK
  5
35F
330
35D
100
AcDbEntity
  8
0
100
AcDbBlockBegin
  2
block 110
 70
     0
 71
     0
 10
0.0
 20
0.0
 30
0.0
  3
block 110
  1

  0
POLYLINE
  5
361
330
35D
100
AcDbEntity
  8
cuerpo
 62
     7
420
 16777215
370
    25
100
AcDb2dPolyline
 66
     1
 10
0.0
 20
0.0
 30
0.0
  0
VERTEX
  5
362
330
361
100
AcDbEntity
  8
cuerpo
 62
     7
420
 16777215
370
    25
100
AcDbVertex
100
AcDb2dVertex
 10
62.92036266873172
 20
62.24047307471766
 30
0.0
  0
VERTEX
  5
363
330
361
100
AcDbEntity
  8
cuerpo
 62
     7
420
 16777215
370
    25
100
AcDbVertex
100
AcDb2dVertex
 10
63.35410019032467
 20
59.51195745039979
 30
0.0
  0
SEQEND
  5
364
330
361
100
AcDbEntity
  8
cuerpo
370
    25
  0
ENDBLK
  5
360
330
35D
100
AcDbEntity
  8
0
100
AcDbBlockEnd
  0
BLOCK
  5
367
330
365
100
AcDbEntity
  8
0
100
AcDbBlockBegin
  2
block 111
 70
     0
 71
     0
 10
0.0
 20
0.0
 30
0.0
  3
block 111
  1

  0
POLYLINE
  5
369
330
365
100
AcDbEntity
  8
cuerpo
 62
     7
420
 16777215
370
    25
100
AcDb2dPolyline
 66
     1
 10
0.0
 20
0.0
 30
0.0
  0
VERTEX
  5
36A
330
369
100
AcDbEntity
  8
cuerpo
 62
     7
420
 16777215
370
    25
100
AcDbVertex
100
AcDb2dVertex
 10
66.41127792393537
 20
62.24047307471766
 30
0.0
  0
VERTEX
  5
36B
330
369
100
AcDbEntity
  8
cuerpo
 62
     7
420
 16777215
370
    25
100
AcDbVertex
100
AcDb2dVertex
 10
66.84501544552833
 20
59.51195745039979
 30
0.0
  0
SEQEND
  5
36C
330
369
100
AcDbEntity
  8
cuerpo
370
    25
  0
ENDBLK
  5
368
330
365
100
AcDbEntity
  8
0
100
AcDbBlockEnd
  0
BLOCK
  5
36F
330
36D
100
AcDbEntity
  8
0
100
AcDbBlockBegin
  2
block 112
 70
     0
 71
     0
 10
0.0
 20
0.0
 30
0.0
  3
block 112
  1

  0
POLYLINE
  5
371
330
36D
100
AcDbEntity
  8
cuerpo
 62
     7
420
 16777215
370
    25
100
AcDb2dPolyline
 66
     1
 10
0.0
 20
0.0
 30
0.0
  0
VERTEX
  5
372
330
371
100
AcDbEntity
  8
cuerpo
 62
     7
420
 16777215
370
    25
100
AcDbVertex
100
AcDb2dVertex
 10
71.27764755162504
 20
62.24047307471766
 30
0.0
  0
VERTEX
  5
373
330
371
100
AcDbEntity
  8
cuerpo
 62
     7
420
 16777215
370
    25
100
AcDbVertex
100
AcDb2dVertex
 10
71.27764755162504
 20
59.51195745039979
 30
0.0
  0
SEQEND
  5
374
330
371
100
AcDbEntity
  8
cuerpo
370
    25
  0
ENDBLK
  5
370
330
36D
100
AcDbEntity
  8
0
100
AcDbBlockEnd
  0
BLOCK
  5
377
330
375
100
AcDbEntity
  8
0
100
AcDbBlockBegin
  2
block 113
 70
     0
 71
     0
 10
0.0
 20
0.0
 30
0.0
  3
block 113
  1

  0
POLYLINE
  5
379
330
375
100
AcDbEntity
  8
cuerpo
 62
     7
420
 16777215
370
    25
100
AcDb2dPolyline
 66
     1
 10
0.0
 20
0.0
 30
0.0
  0
VERTEX
  5
37A
330
379
100
AcDbEntity
  8
cuerpo
 62
     7
420
 16777215
370
    25
100
AcDbVertex
100
AcDb2dVertex
 10
60.69465873048606
 20
66.10655922826503
 30
0.0
  0
VERTEX
  5
37B
330
379
100
AcDbEntity
  8
cuerpo
 62
     7
420
 16777215
370
    25
100
AcDbVertex
100
AcDb2dVertex
 10
80.34462210447982
 20
66.10655922826503
 30
0.0
  0
SEQEND
  5
37C
330
379
100
AcDbEntity
  8
cuerpo
370
    25
  0
ENDBLK
  5
378
330
375
100
AcDbEntity
  8
0
100
AcDbBlockEnd
  0
BLOCK
  5
37F
330
37D
100
AcDbEntity
  8
0
100
AcDbBlockBegin
  2
block 114
 70
     0
 71
     0
 10
0.0
 20
0.0
 30
0.0
  3
block 114
  1

  0
POLYLINE
  5
381
330
37D
100
AcDbEntity
  8
cuerpo
 62
     7
420
 16777215
370
    25
100
AcDb2dPolyline
 66
     1
 10
0.0
 20
0.0
 30
0.0
  0
VERTEX
  5
382
330
381
100
AcDbEntity
  8
cuerpo
 62
     7
420
 16777215
370
    25
100
AcDbVertex
100
AcDb2dVertex
 10
75.50477971202659
 20
43.3372341471518
 30
0.0
  0
VERTEX
  5
383
330
381
100
AcDbEntity
  8
cuerpo
 62
     7
420
 16777215
370
    25
100
AcDbVertex
100
AcDb2dVertex
 10
75.50477971202659
 20
48.05908201923523
 30
0.0
  0
SEQEND
  5
384
330
381
100
AcDbEntity
  8
cuerpo
370
    25
  0
ENDBLK
  5
380
330
37D
100
AcDbEntity
  8
0
100
AcDbBlockEnd
  0
BLOCK
  5
387
330
385
100
AcDbEntity
  8
0
100
AcDbBlockBegin
  2
block 115
 70
     0
 71
     0
 10
0.0
 20
0.0
 30
0.0
  3
block 115
  1

  0
POLYLINE
  5
389
330
385
100
AcDbEntity
  8
cuerpo
 62
     7
420
 16777215
370
    25
100
AcDb2dPolyline
 66
     1
 10
0.0
 20
0.0
 30
0.0
  0
VERTEX
  5
38A
330
389
100
AcDbEntity
  8
cuerpo
 62
     7
420
 16777215
370
    25
100
AcDbVertex
100
AcDb2dVertex
 10
75.4918606039569
 20
53.46650389288337
 30
0.0
  0
VERTEX
  5
38B
330
389
100
AcDbEntity
  8
cuerpo
 62
     7
420
 16777215
370
    25
100
AcDbVertex
100
AcDb2dVertex
 10
75.4918606039569
 20
59.51195745039979
 30
0.0
  0
SEQEND
  5
38C
330
389
100
AcDbEntity
  8
cuerpo
370
    25
  0
ENDBLK
  5
388
330
385
100
AcDbEntity
  8
0
100
AcDbBlockEnd
  0
BLOCK
  5
38F
330
38D
100
AcDbEntity
  8
0
100
AcDbBlockBegin
  2
block 116
 70
     0
 71
     0
 10
0.0
 20
0.0
 30
0.0
  3
block 116
  1

  0
POLYLINE
  5
391
330
38D
100
AcDbEntity
  8
cuerpo
 62
     7
420
 16777215
370
    25
100
AcDb2dPolyline
 66
     1
 10
0.0
 20
0.0
 30
0.0
  0
VERTEX
  5
392
330
391
100
AcDbEntity
  8
cuerpo
 62
     7
420
 16777215
370
    25
100
AcDbVertex
100
AcDb2dVertex
 10
70.93503280561694
 20
43.3372341471518
 30
0.0
  0
VERTEX
  5
393
330
391
100
AcDbEntity
  8
cuerpo
 62
     7
420
 16777215
370
    25
100
AcDbVertex
100
AcDb2dVertex
 10
70.93503280561694
 20
46.83469508377744
 30
0.0
  0
SEQEND
  5
394
330
391
100
AcDbEntity
  8
cuerpo
370
    25
  0
ENDBLK
  5
390
330
38D
100
AcDbEntity
  8
0
100
AcDbBlockEnd
  0
BLOCK
  5
397
330
395
100
AcDbEntity
  8
0
100
AcDbBlockBegin
  2
block 117
 70
     0
 71
     0
 10
0.0
 20
0.0
 30
0.0
  3
block 117
  1

  0
POLYLINE
  5
399
330
395
100
AcDbEntity
  8
cuerpo
 62
     7
420
 16777215
370
    25
100
AcDb2dPolyline
 66
     1
 10
0.0
 20
0.0
 30
0.0
  0
VERTEX
  5
39A
330
399
100
AcDbEntity
  8
cuerpo
 62
     7
420
 16777215
370
    25
100
AcDbVertex
100
AcDb2dVertex
 10
70.92228595232152
 20
52.24211695742559
 30
0.0
  0
VERTEX
  5
39B
330
399
100
AcDbEntity
  8
cuerpo
 62
     7
420
 16777215
370
    25
100
AcDbVertex
100
AcDb2dVertex
 10
70.92228595232152
 20
59.51195745039979
 30
0.0
  0
SEQEND
  5
39C
330
399
100
AcDbEntity
  8
cuerpo
370
    25
  0
ENDBLK
  5
398
330
395
100
AcDbEntity
  8
0
100
AcDbBlockEnd
  0
BLOCK
  5
39F
330
39D
100
AcDbEntity
  8
0
100
AcDbBlockBegin
  2
block 118
 70
     0
 71
     0
 10
0.0
 20
0.0
 30
0.0
  3
block 118
  1

  0
POLYLINE
  5
3A1
330
39D
100
AcDbEntity
  8
cuerpo
 62
     7
420
 16777215
370
    25
100
AcDb2dPolyline
 66
     1
 10
0.0
 20
0.0
 30
0.0
  0
VERTEX
  5
3A2
330
3A1
100
AcDbEntity
  8
cuerpo
 62
     7
420
 16777215
370
    25
100
AcDbVertex
100
AcDb2dVertex
 10
80.15445283369402
 20
59.51195745039979
 30
0.0
  0
VERTEX
  5
3A3
330
3A1
100
AcDbEntity
  8
cuerpo
 62
     7
420
 16777215
370
    25
100
AcDbVertex
100
AcDb2dVertex
 10
80.15445283369402
 20
62.24047307471766
 30
0.0
  0
SEQEND
  5
3A4
330
3A1
100
AcDbEntity
  8
cuerpo
370
    25
  0
ENDBLK
  5
3A0
330
39D
100
AcDbEntity
  8
0
100
AcDbBlockEnd
  0
BLOCK
  5
3A7
330
3A5
100
AcDbEntity
  8
0
100
AcDbBlockBegin
  2
block 119
 70
     0
 71
     0
 10
0.0
 20
0.0
 30
0.0
  3
block 119
  1

  0
POLYLINE
  5
3A9
330
3A5
100
AcDbEntity
  8
cuerpo
 62
     7
420
 16777215
370
    25
100
AcDb2dPolyline
 66
     1
 10
0.0
 20
0.0
 30
0.0
  0
VERTEX
  5
3AA
330
3A9
100
AcDbEntity
  8
cuerpo
 62
     7
420
 16777215
370
    25
100
AcDbVertex
100
AcDb2dVertex
 10
71.15069578299358
 20
35.79660914903696
 30
0.0
  0
VERTEX
  5
3AB
330
3A9
100
AcDbEntity
  8
cuerpo
 62
     7
420
 16777215
370
    25
100
AcDbVertex
100
AcDb2dVertex
 10
75.2636230280591
 20
35.79660914903696
 30
0.0
  0
SEQEND
  5
3AC
330
3A9
100
AcDbEntity
  8
cuerpo
370
    25
  0
ENDBLK
  5
3A8
330
3A5
100
AcDbEntity
  8
0
100
AcDbBlockEnd
  0
BLOCK
  5
3AF
330
3AD
100
AcDbEntity
  8
0
100
AcDbBlockBegin
  2
block 120
 70
     0
 71
     0
 10
0.0
 20
0.0
 30
0.0
  3
block 120
  1

  0
POLYLINE
  5
3B1
330
3AD
100
AcDbEntity
  8
cuerpo
 62
     7
420
 16777215
370
    25
100
AcDb2dPolyline
 66
     1
 10
0.0
 20
0.0
 30
0.0
  0
VERTEX
  5
3B2
330
3B1
100
AcDbEntity
  8
cuerpo
 62
     7
420
 16777215
370
    25
100
AcDbVertex
100
AcDb2dVertex
 10
70.94519583729843
 20
35.11792533844275
 30
0.0
  0
VERTEX
  5
3B3
330
3B1
100
AcDbEntity
  8
cuerpo
 62
     7
420
 16777215
370
    25
100
AcDbVertex
100
AcDb2dVertex
 10
70.94519583729843
 20
35.57061088520457
 30
0.0
  0
SEQEND
  5
3B4
330
3B1
100
AcDbEntity
  8
cuerpo
370
    25
  0
ENDBLK
  5
3B0
330
3AD
100
AcDbEntity
  8
0
100
AcDbBlockEnd
  0
BLOCK
  5
3B7
330
3B5
100
AcDbEntity
  8
0
100
AcDbBlockBegin
  2
block 121
 70
     0
 71
     0
 10
0.0
 20
0.0
 30
0.0
  3
block 121
  1

  0
POLYLINE
  5
3B9
330
3B5
100
AcDbEntity
  8
cuerpo
 62
     7
420
 16777215
370
    25
100
AcDb2dPolyline
 66
     1
 10
0.0
 20
0.0
 30
0.0
  0
VERTEX
  5
3BA
330
3B9
100
AcDbEntity
  8
cuerpo
 62
     7
420
 16777215
370
    25
100
AcDbVertex
100
AcDb2dVertex
 10
69.8141709894909
 20
35.11792533844275
 30
0.0
  0
VERTEX
  5
3BB
330
3B9
100
AcDbEntity
  8
cuerpo
 62
     7
420
 16777215
370
    25
100
AcDbVertex
100
AcDb2dVertex
 10
76.60014782156178
 20
35.11792533844275
 30
0.0
  0
SEQEND
  5
3BC
330
3B9
100
AcDbEntity
  8
cuerpo
370
    25
  0
ENDBLK
  5
3B8
330
3B5
100
AcDbEntity
  8
0
100
AcDbBlockEnd
  0
BLOCK
  5
3BF
330
3BD
100
AcDbEntity
  8
0
100
AcDbBlockBegin
  2
block 122
 70
     0
 71
     0
 10
0.0
 20
0.0
 30
0.0
  3
block 122
  1

  0
POLYLINE
  5
3C1
330
3BD
100
AcDbEntity
  8
cuerpo
 62
     7
420
 16777215
370
    25
100
AcDb2dPolyline
 66
     1
 10
0.0
 20
0.0
 30
0.0
  0
VERTEX
  5
3C2
330
3C1
100
AcDbEntity
  8
cuerpo
 62
     7
420
 16777215
370
    25
100
AcDbVertex
100
AcDb2dVertex
 10
75.46912297375425
 20
35.11792533844275
 30
0.0
  0
VERTEX
  5
3C3
330
3C1
100
AcDbEntity
  8
cuerpo
 62
     7
420
 16777215
370
    25
100
AcDbVertex
100
AcDb2dVertex
 10
75.46912297375425
 20
35.57061088520457
 30
0.0
  0
SEQEND
  5
3C4
330
3C1
100
AcDbEntity
  8
cuerpo
370
    25
  0
ENDBLK
  5
3C0
330
3BD
100
AcDbEntity
  8
0
100
AcDbBlockEnd
  0
BLOCK
  5
3C7
330
3C5
100
AcDbEntity
  8
0
100
AcDbBlockBegin
  2
block 123
 70
     0
 71
     0
 10
0.0
 20
0.0
 30
0.0
  3
block 123
  1

  0
SPLINE
  5
3C9
330
3C5
100
AcDbEntity
  8
cuerpo
 62
     7
420
 16777215
370
    25
100
AcDbSpline
210
0.0
220
0.0
230
1.0
 70
     8
 71
     3
 72
     8
 73
     4
 74
     0
 42
0.0000000001
 43
0.0000000001
 40
0.0
 40
0.0
 40
0.0
 40
0.0
 40
1.0
 40
1.0
 40
1.0
 40
1.0
 10
75.46912297375425
 20
35.57061088520457
 30
0.0
 10
75.46912297375425
 20
35.69532334177062
 30
0.0
 10
75.3678371664879
 20
35.79660914903696
 30
0.0
 10
75.2429524551476
 20
35.79660914903696
 30
0.0
  0
ENDBLK
  5
3C8
330
3C5
100
AcDbEntity
  8
0
100
AcDbBlockEnd
  0
BLOCK
  5
3CC
330
3CA
100
AcDbEntity
  8
0
100
AcDbBlockBegin
  2
block 124
 70
     0
 71
     0
 10
0.0
 20
0.0
 30
0.0
  3
block 124
  1

  0
POLYLINE
  5
3CE
330
3CA
100
AcDbEntity
  8
cuerpo
 62
     7
420
 16777215
370
    25
100
AcDb2dPolyline
 66
     1
 10
0.0
 20
0.0
 30
0.0
  0
VERTEX
  5
3CF
330
3CE
100
AcDbEntity
  8
cuerpo
 62
     7
420
 16777215
370
    25
100
AcDbVertex
100
AcDb2dVertex
 10
77.27883163215598
 20
34.72656249131836
 30
0.0
  0
VERTEX
  5
3D0
330
3CE
100
AcDbEntity
  8
cuerpo
 62
     7
420
 16777215
370
    25
100
AcDbVertex
100
AcDb2dVertex
 10
77.27883163215598
 20
30.98587781343409
 30
0.0
  0
SEQEND
  5
3D1
330
3CE
100
AcDbEntity
  8
cuerpo
370
    25
  0
ENDBLK
  5
3CD
330
3CA
100
AcDbEntity
  8
0
100
AcDbBlockEnd
  0
BLOCK
  5
3D4
330
3D2
100
AcDbEntity
  8
0
100
AcDbBlockBegin
  2
block 125
 70
     0
 71
     0
 10
0.0
 20
0.0
 30
0.0
  3
block 125
  1

  0
POLYLINE
  5
3D6
330
3D2
100
AcDbEntity
  8
cuerpo
 62
     7
420
 16777215
370
    25
100
AcDb2dPolyline
 66
     1
 10
0.0
 20
0.0
 30
0.0
  0
VERTEX
  5
3D7
330
3D6
100
AcDbEntity
  8
cuerpo
 62
     7
420
 16777215
370
    25
100
AcDbVertex
100
AcDb2dVertex
 10
76.60014782156178
 20
30.59451496630971
 30
0.0
  0
VERTEX
  5
3D8
330
3D6
100
AcDbEntity
  8
cuerpo
 62
     7
420
 16777215
370
    25
100
AcDbVertex
100
AcDb2dVertex
 10
69.8141709894909
 20
30.59451496630971
 30
0.0
  0
SEQEND
  5
3D9
330
3D6
100
AcDbEntity
  8
cuerpo
370
    25
  0
ENDBLK
  5
3D5
330
3D2
100
AcDbEntity
  8
0
100
AcDbBlockEnd
  0
BLOCK
  5
3DC
330
3DA
100
AcDbEntity
  8
0
100
AcDbBlockBegin
  2
block 126
 70
     0
 71
     0
 10
0.0
 20
0.0
 30
0.0
  3
block 126
  1

  0
SPLINE
  5
3DE
330
3DA
100
AcDbEntity
  8
cuerpo
 62
     7
420
 16777215
370
    25
100
AcDbSpline
210
0.0
220
0.0
230
1.0
 70
     8
 71
     3
 72
     8
 73
     4
 74
     0
 42
0.0000000001
 43
0.0000000001
 40
0.0
 40
0.0
 40
0.0
 40
0.0
 40
1.0
 40
1.0
 40
1.0
 40
1.0
 10
71.17136635590508
 20
35.79660914903696
 30
0.0
 10
71.04648164456478
 20
35.79660914903696
 30
0.0
 10
70.94519583729843
 20
35.69532334177062
 30
0.0
 10
70.94519583729843
 20
35.57061088520457
 30
0.0
  0
ENDBLK
  5
3DD
330
3DA
100
AcDbEntity
  8
0
100
AcDbBlockEnd
  0
BLOCK
  5
3E1
330
3DF
100
AcDbEntity
  8
0
100
AcDbBlockBegin
  2
block 127
 70
     0
 71
     0
 10
0.0
 20
0.0
 30
0.0
  3
block 127
  1

  0
POLYLINE
  5
3E3
330
3DF
100
AcDbEntity
  8
cuerpo
 62
     7
420
 16777215
370
    25
100
AcDb2dPolyline
 66
     1
 10
0.0
 20
0.0
 30
0.0
  0
VERTEX
  5
3E4
330
3E3
100
AcDbEntity
  8
cuerpo
 62
     7
420
 16777215
370
    25
100
AcDbVertex
100
AcDb2dVertex
 10
76.60014782156178
 20
35.11792533844275
 30
0.0
  0
VERTEX
  5
3E5
330
3E3
100
AcDbEntity
  8
cuerpo
 62
     7
420
 16777215
370
    25
100
AcDbVertex
100
AcDb2dVertex
 10
77.27883163215598
 20
34.72656249131836
 30
0.0
  0
SEQEND
  5
3E6
330
3E3
100
AcDbEntity
  8
cuerpo
370
    25
  0
ENDBLK
  5
3E2
330
3DF
100
AcDbEntity
  8
0
100
AcDbBlockEnd
  0
BLOCK
  5
3E9
330
3E7
100
AcDbEntity
  8
0
100
AcDbBlockBegin
  2
block 128
 70
     0
 71
     0
 10
0.0
 20
0.0
 30
0.0
  3
block 128
  1

  0
POLYLINE
  5
3EB
330
3E7
100
AcDbEntity
  8
cuerpo
 62
     7
420
 16777215
370
    25
100
AcDb2dPolyline
 66
     1
 10
0.0
 20
0.0
 30
0.0
  0
VERTEX
  5
3EC
330
3EB
100
AcDbEntity
  8
cuerpo
 62
     7
420
 16777215
370
    25
100
AcDbVertex
100
AcDb2dVertex
 10
76.60014782156178
 20
30.59451496630971
 30
0.0
  0
VERTEX
  5
3ED
330
3EB
100
AcDbEntity
  8
cuerpo
 62
     7
420
 16777215
370
    25
100
AcDbVertex
100
AcDb2dVertex
 10
77.27883163215598
 20
30.98587781343409
 30
0.0
  0
SEQEND
  5
3EE
330
3EB
100
AcDbEntity
  8
cuerpo
370
    25
  0
ENDBLK
  5
3EA
330
3E7
100
AcDbEntity
  8
0
100
AcDbBlockEnd
  0
BLOCK
  5
3F1
330
3EF
100
AcDbEntity
  8
0
100
AcDbBlockBegin
  2
block 129
 70
     0
 71
     0
 10
0.0
 20
0.0
 30
0.0
  3
block 129
  1

  0
POLYLINE
  5
3F3
330
3EF
100
AcDbEntity
  8
cuerpo
 62
     7
420
 16777215
370
    25
100
AcDb2dPolyline
 66
     1
 10
0.0
 20
0.0
 30
0.0
  0
VERTEX
  5
3F4
330
3F3
100
AcDbEntity
  8
cuerpo
 62
     7
420
 16777215
370
    25
100
AcDbVertex
100
AcDb2dVertex
 10
70.94519583729843
 20
34.72656249131836
 30
0.0
  0
VERTEX
  5
3F5
330
3F3
100
AcDbEntity
  8
cuerpo
 62
     7
420
 16777215
370
    25
100
AcDbVertex
100
AcDb2dVertex
 10
70.94519583729843
 20
30.98587781343409
 30
0.0
  0
SEQEND
  5
3F6
330
3F3
100
AcDbEntity
  8
cuerpo
370
    25
  0
ENDBLK
  5
3F2
330
3EF
100
AcDbEntity
  8
0
100
AcDbBlockEnd
  0
BLOCK
  5
3F9
330
3F7
100
AcDbEntity
  8
0
100
AcDbBlockBegin
  2
block 130
 70
     0
 71
     0
 10
0.0
 20
0.0
 30
0.0
  3
block 130
  1

  0
POLYLINE
  5
3FB
330
3F7
100
AcDbEntity
  8
cuerpo
 62
     7
420
 16777215
370
    25
100
AcDb2dPolyline
 66
     1
 10
0.0
 20
0.0
 30
0.0
  0
VERTEX
  5
3FC
330
3FB
100
AcDbEntity
  8
cuerpo
 62
     7
420
 16777215
370
    25
100
AcDbVertex
100
AcDb2dVertex
 10
75.46912297375425
 20
34.72656249131836
 30
0.0
  0
VERTEX
  5
3FD
330
3FB
100
AcDbEntity
  8
cuerpo
 62
     7
420
 16777215
370
    25
100
AcDbVertex
100
AcDb2dVertex
 10
75.46912297375425
 20
30.98587781343409
 30
0.0
  0
SEQEND
  5
3FE
330
3FB
100
AcDbEntity
  8
cuerpo
370
    25
  0
ENDBLK
  5
3FA
330
3F7
100
AcDbEntity
  8
0
100
AcDbBlockEnd
  0
BLOCK
  5
401
330
3FF
100
AcDbEntity
  8
0
100
AcDbBlockBegin
  2
block 131
 70
     0
 71
     0
 10
0.0
 20
0.0
 30
0.0
  3
block 131
  1

  0
SPLINE
  5
403
330
3FF
100
AcDbEntity
  8
cuerpo
 62
     7
420
 16777215
370
    25
100
AcDbSpline
210
0.0
220
0.0
230
1.0
 70
     8
 71
     3
 72
     8
 73
     4
 74
     0
 42
0.0000000001
 43
0.0000000001
 40
0.0
 40
0.0
 40
0.0
 40
0.0
 40
1.0
 40
1.0
 40
1.0
 40
1.0
 10
75.46912297375425
 20
34.72656249131836
 30
0.0
 10
74.00633543071717
 20
35.24883896688224
 30
0.0
 10
72.40781112556124
 20
35.24883896688224
 30
0.0
 10
70.94519583729843
 20
34.72656249131836
 30
0.0
  0
ENDBLK
  5
402
330
3FF
100
AcDbEntity
  8
0
100
AcDbBlockEnd
  0
BLOCK
  5
406
330
404
100
AcDbEntity
  8
0
100
AcDbBlockBegin
  2
block 132
 70
     0
 71
     0
 10
0.0
 20
0.0
 30
0.0
  3
block 132
  1

  0
SPLINE
  5
408
330
404
100
AcDbEntity
  8
cuerpo
 62
     7
420
 16777215
370
    25
100
AcDbSpline
210
0.0
220
0.0
230
1.0
 70
     8
 71
     3
 72
     8
 73
     4
 74
     0
 42
0.0000000001
 43
0.0000000001
 40
0.0
 40
0.0
 40
0.0
 40
0.0
 40
1.0
 40
1.0
 40
1.0
 40
1.0
 10
70.94519583729843
 20
30.98587781343409
 30
0.0
 10
72.40781112556124
 20
30.46360133787021
 30
0.0
 10
74.00633543071717
 20
30.46360133787021
 30
0.0
 10
75.46912297375425
 20
30.98587781343409
 30
0.0
  0
ENDBLK
  5
407
330
404
100
AcDbEntity
  8
0
100
AcDbBlockEnd
  0
BLOCK
  5
40B
330
409
100
AcDbEntity
  8
0
100
AcDbBlockBegin
  2
block 133
 70
     0
 71
     0
 10
0.0
 20
0.0
 30
0.0
  3
block 133
  1

  0
SPLINE
  5
40D
330
409
100
AcDbEntity
  8
cuerpo
 62
     7
420
 16777215
370
    25
100
AcDbSpline
210
0.0
220
0.0
230
1.0
 70
     8
 71
     3
 72
     8
 73
     4
 74
     0
 42
0.0000000001
 43
0.0000000001
 40
0.0
 40
0.0
 40
0.0
 40
0.0
 40
1.0
 40
1.0
 40
1.0
 40
1.0
 10
69.8141709894909
 20
30.59451496630971
 30
0.0
 10
70.22689342862384
 20
30.57797850798051
 30
0.0
 10
70.63083087426938
 20
30.71784938468165
 30
0.0
 10
70.94519583729843
 20
30.98587781343409
 30
0.0
  0
ENDBLK
  5
40C
330
409
100
AcDbEntity
  8
0
100
AcDbBlockEnd
  0
BLOCK
  5
410
330
40E
100
AcDbEntity
  8
0
100
AcDbBlockBegin
  2
block 134
 70
     0
 71
     0
 10
0.0
 20
0.0
 30
0.0
  3
block 134
  1

  0
SPLINE
  5
412
330
40E
100
AcDbEntity
  8
cuerpo
 62
     7
420
 16777215
370
    25
100
AcDbSpline
210
0.0
220
0.0
230
1.0
 70
     8
 71
     3
 72
     8
 73
     4
 74
     0
 42
0.0000000001
 43
0.0000000001
 40
0.0
 40
0.0
 40
0.0
 40
0.0
 40
1.0
 40
1.0
 40
1.0
 40
1.0
 10
70.94519583729843
 20
34.72656249131836
 30
0.0
 10
70.63083087426938
 20
34.9945909200708
 30
0.0
 10
70.22689342862384
 20
35.13446179677194
 30
0.0
 10
69.8141709894909
 20
35.11792533844275
 30
0.0
  0
ENDBLK
  5
411
330
40E
100
AcDbEntity
  8
0
100
AcDbBlockEnd
  0
BLOCK
  5
415
330
413
100
AcDbEntity
  8
0
100
AcDbBlockBegin
  2
block 135
 70
     0
 71
     0
 10
0.0
 20
0.0
 30
0.0
  3
block 135
  1

  0
SPLINE
  5
417
330
413
100
AcDbEntity
  8
cuerpo
 62
     7
420
 16777215
370
    25
100
AcDbSpline
210
0.0
220
0.0
230
1.0
 70
     8
 71
     3
 72
     8
 73
     4
 74
     0
 42
0.0000000001
 43
0.0000000001
 40
0.0
 40
0.0
 40
0.0
 40
0.0
 40
1.0
 40
1.0
 40
1.0
 40
1.0
 10
76.60014782156178
 20
35.11792533844275
 30
0.0
 10
76.18725312765459
 20
35.13446179677194
 30
0.0
 10
75.78331568200903
 20
34.9945909200708
 30
0.0
 10
75.46912297375425
 20
34.72656249131836
 30
0.0
  0
ENDBLK
  5
416
330
413
100
AcDbEntity
  8
0
100
AcDbBlockEnd
  0
BLOCK
  5
41A
330
418
100
AcDbEntity
  8
0
100
AcDbBlockBegin
  2
block 136
 70
     0
 71
     0
 10
0.0
 20
0.0
 30
0.0
  3
block 136
  1

  0
SPLINE
  5
41C
330
418
100
AcDbEntity
  8
cuerpo
 62
     7
420
 16777215
370
    25
100
AcDbSpline
210
0.0
220
0.0
230
1.0
 70
     8
 71
     3
 72
     8
 73
     4
 74
     0
 42
0.0000000001
 43
0.0000000001
 40
0.0
 40
0.0
 40
0.0
 40
0.0
 40
1.0
 40
1.0
 40
1.0
 40
1.0
 10
75.46912297375425
 20
30.98587781343409
 30
0.0
 10
75.78331568200903
 20
30.71784938468165
 30
0.0
 10
76.18725312765459
 20
30.57797850798051
 30
0.0
 10
76.60014782156178
 20
30.59451496630971
 30
0.0
  0
ENDBLK
  5
41B
330
418
100
AcDbEntity
  8
0
100
AcDbBlockEnd
  0
BLOCK
  5
41F
330
41D
100
AcDbEntity
  8
0
100
AcDbBlockBegin
  2
block 137
 70
     0
 71
     0
 10
0.0
 20
0.0
 30
0.0
  3
block 137
  1

  0
POLYLINE
  5
421
330
41D
100
AcDbEntity
  8
cuerpo
 62
     7
420
 16777215
370
    25
100
AcDb2dPolyline
 66
     1
 10
0.0
 20
0.0
 30
0.0
  0
VERTEX
  5
422
330
421
100
AcDbEntity
  8
cuerpo
 62
     7
420
 16777215
370
    25
100
AcDbVertex
100
AcDb2dVertex
 10
69.13548717889668
 20
34.72656249131836
 30
0.0
  0
VERTEX
  5
423
330
421
100
AcDbEntity
  8
cuerpo
 62
     7
420
 16777215
370
    25
100
AcDbVertex
100
AcDb2dVertex
 10
69.13548717889668
 20
30.98587781343409
 30
0.0
  0
SEQEND
  5
424
330
421
100
AcDbEntity
  8
cuerpo
370
    25
  0
ENDBLK
  5
420
330
41D
100
AcDbEntity
  8
0
100
AcDbBlockEnd
  0
BLOCK
  5
427
330
425
100
AcDbEntity
  8
0
100
AcDbBlockBegin
  2
block 138
 70
     0
 71
     0
 10
0.0
 20
0.0
 30
0.0
  3
block 138
  1

  0
POLYLINE
  5
429
330
425
100
AcDbEntity
  8
cuerpo
 62
     7
420
 16777215
370
    25
100
AcDb2dPolyline
 66
     1
 10
0.0
 20
0.0
 30
0.0
  0
VERTEX
  5
42A
330
429
100
AcDbEntity
  8
cuerpo
 62
     7
420
 16777215
370
    25
100
AcDbVertex
100
AcDb2dVertex
 10
69.8141709894909
 20
35.11792533844275
 30
0.0
  0
VERTEX
  5
42B
330
429
100
AcDbEntity
  8
cuerpo
 62
     7
420
 16777215
370
    25
100
AcDbVertex
100
AcDb2dVertex
 10
69.13548717889668
 20
34.72656249131836
 30
0.0
  0
SEQEND
  5
42C
330
429
100
AcDbEntity
  8
cuerpo
370
    25
  0
ENDBLK
  5
428
330
425
100
AcDbEntity
  8
0
100
AcDbBlockEnd
  0
BLOCK
  5
42F
330
42D
100
AcDbEntity
  8
0
100
AcDbBlockBegin
  2
block 139
 70
     0
 71
     0
 10
0.0
 20
0.0
 30
0.0
  3
block 139
  1

  0
POLYLINE
  5
431
330
42D
100
AcDbEntity
  8
cuerpo
 62
     7
420
 16777215
370
    25
100
AcDb2dPolyline
 66
     1
 10
0.0
 20
0.0
 30
0.0
  0
VERTEX
  5
432
330
431
100
AcDbEntity
  8
cuerpo
 62
     7
420
 16777215
370
    25
100
AcDbVertex
100
AcDb2dVertex
 10
69.8141709894909
 20
30.59451496630971
 30
0.0
  0
VERTEX
  5
433
330
431
100
AcDbEntity
  8
cuerpo
 62
     7
420
 16777215
370
    25
100
AcDbVertex
100
AcDb2dVertex
 10
69.13548717889668
 20
30.98587781343409
 30
0.0
  0
SEQEND
  5
434
330
431
100
AcDbEntity
  8
cuerpo
370
    25
  0
ENDBLK
  5
430
330
42D
100
AcDbEntity
  8
0
100
AcDbBlockEnd
  0
BLOCK
  5
437
330
435
100
AcDbEntity
  8
0
100
AcDbBlockBegin
  2
block 140
 70
     0
 71
     0
 10
0.0
 20
0.0
 30
0.0
  3
block 140
  1

  0
POLYLINE
  5
439
330
435
100
AcDbEntity
  8
cuerpo
 62
     7
420
 16777215
370
    25
100
AcDb2dPolyline
 66
     1
 10
0.0
 20
0.0
 30
0.0
  0
VERTEX
  5
43A
330
439
100
AcDbEntity
  8
cuerpo
 62
     7
420
 16777215
370
    25
100
AcDbVertex
100
AcDb2dVertex
 10
64.01883136420363
 20
47.46928167216046
 30
0.0
  0
VERTEX
  5
43B
330
439
100
AcDbEntity
  8
cuerpo
 62
     7
420
 16777215
370
    25
100
AcDbVertex
100
AcDb2dVertex
 10
67.63807642623284
 20
47.46928167216046
 30
0.0
  0
SEQEND
  5
43C
330
439
100
AcDbEntity
  8
cuerpo
370
    25
  0
ENDBLK
  5
438
330
435
100
AcDbEntity
  8
0
100
AcDbBlockEnd
  0
BLOCK
  5
43F
330
43D
100
AcDbEntity
  8
0
100
AcDbBlockBegin
  2
block 141
 70
     0
 71
     0
 10
0.0
 20
0.0
 30
0.0
  3
block 141
  1

  0
POLYLINE
  5
441
330
43D
100
AcDbEntity
  8
cuerpo
 62
     7
420
 16777215
370
    25
100
AcDb2dPolyline
 66
     1
 10
0.0
 20
0.0
 30
0.0
  0
VERTEX
  5
442
330
441
100
AcDbEntity
  8
cuerpo
 62
     7
420
 16777215
370
    25
100
AcDbVertex
100
AcDb2dVertex
 10
67.60724282163986
 20
47.10547958891808
 30
0.0
  0
VERTEX
  5
443
330
441
100
AcDbEntity
  8
cuerpo
 62
     7
420
 16777215
370
    25
100
AcDbVertex
100
AcDb2dVertex
 10
67.60724282163986
 20
52.72580836355466
 30
0.0
  0
SEQEND
  5
444
330
441
100
AcDbEntity
  8
cuerpo
370
    25
  0
ENDBLK
  5
440
330
43D
100
AcDbEntity
  8
0
100
AcDbBlockEnd
  0
BLOCK
  5
447
330
445
100
AcDbEntity
  8
0
100
AcDbBlockBegin
  2
block 142
 70
     0
 71
     0
 10
0.0
 20
0.0
 30
0.0
  3
block 142
  1

  0
POLYLINE
  5
449
330
445
100
AcDbEntity
  8
cuerpo
 62
     7
420
 16777215
370
    25
100
AcDb2dPolyline
 66
     1
 10
0.0
 20
0.0
 30
0.0
  0
VERTEX
  5
44A
330
449
100
AcDbEntity
  8
cuerpo
 62
     7
420
 16777215
370
    25
100
AcDbVertex
100
AcDb2dVertex
 10
64.01883136420363
 20
47.10547958891808
 30
0.0
  0
VERTEX
  5
44B
330
449
100
AcDbEntity
  8
cuerpo
 62
     7
420
 16777215
370
    25
100
AcDbVertex
100
AcDb2dVertex
 10
64.01883136420363
 20
52.72580836355466
 30
0.0
  0
SEQEND
  5
44C
330
449
100
AcDbEntity
  8
cuerpo
370
    25
  0
ENDBLK
  5
448
330
445
100
AcDbEntity
  8
0
100
AcDbBlockEnd
  0
BLOCK
  5
44F
330
44D
100
AcDbEntity
  8
0
100
AcDbBlockBegin
  2
block 143
 70
     0
 71
     0
 10
0.0
 20
0.0
 30
0.0
  3
block 143
  1

  0
POLYLINE
  5
451
330
44D
100
AcDbEntity
  8
cuerpo
 62
     7
420
 16777215
370
    25
100
AcDb2dPolyline
 66
     1
 10
0.0
 20
0.0
 30
0.0
  0
VERTEX
  5
452
330
451
100
AcDbEntity
  8
cuerpo
 62
     7
420
 16777215
370
    25
100
AcDbVertex
100
AcDb2dVertex
 10
60.54307452913507
 20
62.24047307471766
 30
0.0
  0
VERTEX
  5
453
330
451
100
AcDbEntity
  8
cuerpo
 62
     7
420
 16777215
370
    25
100
AcDbVertex
100
AcDb2dVertex
 10
80.15445283369402
 20
62.24047307471766
 30
0.0
  0
SEQEND
  5
454
330
451
100
AcDbEntity
  8
cuerpo
370
    25
  0
ENDBLK
  5
450
330
44D
100
AcDbEntity
  8
0
100
AcDbBlockEnd
  0
BLOCK
  5
457
330
455
100
AcDbEntity
  8
0
100
AcDbBlockBegin
  2
block 144
 70
     0
 71
     0
 10
0.0
 20
0.0
 30
0.0
  3
block 144
  1

  0
POLYLINE
  5
459
330
455
100
AcDbEntity
  8
cuerpo
 62
     7
420
 16777215
370
    25
100
AcDb2dPolyline
 66
     1
 10
0.0
 20
0.0
 30
0.0
  0
VERTEX
  5
45A
330
459
100
AcDbEntity
  8
cuerpo
 62
     7
420
 16777215
370
    25
100
AcDbVertex
100
AcDb2dVertex
 10
75.4918606039569
 20
62.24047307471766
 30
0.0
  0
VERTEX
  5
45B
330
459
100
AcDbEntity
  8
cuerpo
 62
     7
420
 16777215
370
    25
100
AcDbVertex
100
AcDb2dVertex
 10
75.4918606039569
 20
64.7491916070766
 30
0.0
  0
SEQEND
  5
45C
330
459
100
AcDbEntity
  8
cuerpo
370
    25
  0
ENDBLK
  5
458
330
455
100
AcDbEntity
  8
0
100
AcDbBlockEnd
  0
BLOCK
  5
45F
330
45D
100
AcDbEntity
  8
0
100
AcDbBlockBegin
  2
block 145
 70
     0
 71
     0
 10
0.0
 20
0.0
 30
0.0
  3
block 145
  1

  0
POLYLINE
  5
461
330
45D
100
AcDbEntity
  8
cuerpo
 62
     7
420
 16777215
370
    25
100
AcDb2dPolyline
 66
     1
 10
0.0
 20
0.0
 30
0.0
  0
VERTEX
  5
462
330
461
100
AcDbEntity
  8
cuerpo
 62
     7
420
 16777215
370
    25
100
AcDbVertex
100
AcDb2dVertex
 10
75.4918606039569
 20
66.10655922826503
 30
0.0
  0
VERTEX
  5
463
330
461
100
AcDbEntity
  8
cuerpo
 62
     7
420
 16777215
370
    25
100
AcDbVertex
100
AcDb2dVertex
 10
75.4918606039569
 20
72.45931530306574
 30
0.0
  0
SEQEND
  5
464
330
461
100
AcDbEntity
  8
cuerpo
370
    25
  0
ENDBLK
  5
460
330
45D
100
AcDbEntity
  8
0
100
AcDbBlockEnd
  0
BLOCK
  5
467
330
465
100
AcDbEntity
  8
0
100
AcDbBlockBegin
  2
block 146
 70
     0
 71
     0
 10
0.0
 20
0.0
 30
0.0
  3
block 146
  1

  0
POLYLINE
  5
469
330
465
100
AcDbEntity
  8
cuerpo
 62
     7
420
 16777215
370
    25
100
AcDb2dPolyline
 66
     1
 10
0.0
 20
0.0
 30
0.0
  0
VERTEX
  5
46A
330
469
100
AcDbEntity
  8
cuerpo
 62
     7
420
 16777215
370
    25
100
AcDbVertex
100
AcDb2dVertex
 10
70.92228595232152
 20
62.24047307471766
 30
0.0
  0
VERTEX
  5
46B
330
469
100
AcDbEntity
  8
cuerpo
 62
     7
420
 16777215
370
    25
100
AcDbVertex
100
AcDb2dVertex
 10
70.92228595232152
 20
64.7491916070766
 30
0.0
  0
SEQEND
  5
46C
330
469
100
AcDbEntity
  8
cuerpo
370
    25
  0
ENDBLK
  5
468
330
465
100
AcDbEntity
  8
0
100
AcDbBlockEnd
  0
BLOCK
  5
46F
330
46D
100
AcDbEntity
  8
0
100
AcDbBlockBegin
  2
block 147
 70
     0
 71
     0
 10
0.0
 20
0.0
 30
0.0
  3
block 147
  1

  0
POLYLINE
  5
471
330
46D
100
AcDbEntity
  8
cuerpo
 62
     7
420
 16777215
370
    25
100
AcDb2dPolyline
 66
     1
 10
0.0
 20
0.0
 30
0.0
  0
VERTEX
  5
472
330
471
100
AcDbEntity
  8
cuerpo
 62
     7
420
 16777215
370
    25
100
AcDbVertex
100
AcDb2dVertex
 10
70.92228595232152
 20
66.10655922826503
 30
0.0
  0
VERTEX
  5
473
330
471
100
AcDbEntity
  8
cuerpo
 62
     7
420
 16777215
370
    25
100
AcDbVertex
100
AcDb2dVertex
 10
70.92228595232152
 20
72.45931530306574
 30
0.0
  0
SEQEND
  5
474
330
471
100
AcDbEntity
  8
cuerpo
370
    25
  0
ENDBLK
  5
470
330
46D
100
AcDbEntity
  8
0
100
AcDbBlockEnd
  0
BLOCK
  5
477
330
475
100
AcDbEntity
  8
0
100
AcDbBlockBegin
  2
block 148
 70
     0
 71
     0
 10
0.0
 20
0.0
 30
0.0
  3
block 148
  1

  0
POLYLINE
  5
479
330
475
100
AcDbEntity
  8
cuerpo
 62
     7
420
 16777215
370
    25
100
AcDb2dPolyline
 66
     1
 10
0.0
 20
0.0
 30
0.0
  0
VERTEX
  5
47A
330
479
100
AcDbEntity
  8
cuerpo
 62
     7
420
 16777215
370
    25
100
AcDbVertex
100
AcDb2dVertex
 10
64.01883136420363
 20
62.24047307471766
 30
0.0
  0
VERTEX
  5
47B
330
479
100
AcDbEntity
  8
cuerpo
 62
     7
420
 16777215
370
    25
100
AcDbVertex
100
AcDb2dVertex
 10
64.01883136420363
 20
64.7491916070766
 30
0.0
  0
SEQEND
  5
47C
330
479
100
AcDbEntity
  8
cuerpo
370
    25
  0
ENDBLK
  5
478
330
475
100
AcDbEntity
  8
0
100
AcDbBlockEnd
  0
BLOCK
  5
47F
330
47D
100
AcDbEntity
  8
0
100
AcDbBlockBegin
  2
block 149
 70
     0
 71
     0
 10
0.0
 20
0.0
 30
0.0
  3
block 149
  1

  0
POLYLINE
  5
481
330
47D
100
AcDbEntity
  8
cuerpo
 62
     7
420
 16777215
370
    25
100
AcDb2dPolyline
 66
     1
 10
0.0
 20
0.0
 30
0.0
  0
VERTEX
  5
482
330
481
100
AcDbEntity
  8
cuerpo
 62
     7
420
 16777215
370
    25
100
AcDbVertex
100
AcDb2dVertex
 10
64.01883136420363
 20
66.10655922826503
 30
0.0
  0
VERTEX
  5
483
330
481
100
AcDbEntity
  8
cuerpo
 62
     7
420
 16777215
370
    25
100
AcDbVertex
100
AcDb2dVertex
 10
64.01883136420363
 20
72.45931530306574
 30
0.0
  0
SEQEND
  5
484
330
481
100
AcDbEntity
  8
cuerpo
370
    25
  0
ENDBLK
  5
480
330
47D
100
AcDbEntity
  8
0
100
AcDbBlockEnd
  0
BLOCK
  5
487
330
485
100
AcDbEntity
  8
0
100
AcDbBlockBegin
  2
block 150
 70
     0
 71
     0
 10
0.0
 20
0.0
 30
0.0
  3
block 150
  1

  0
POLYLINE
  5
489
330
485
100
AcDbEntity
  8
cuerpo
 62
     7
420
 16777215
370
    25
100
AcDb2dPolyline
 66
     1
 10
0.0
 20
0.0
 30
0.0
  0
VERTEX
  5
48A
330
489
100
AcDbEntity
  8
cuerpo
 62
     7
420
 16777215
370
    25
100
AcDbVertex
100
AcDb2dVertex
 10
67.60724282163986
 20
62.24047307471766
 30
0.0
  0
VERTEX
  5
48B
330
489
100
AcDbEntity
  8
cuerpo
 62
     7
420
 16777215
370
    25
100
AcDbVertex
100
AcDb2dVertex
 10
67.60724282163986
 20
64.7491916070766
 30
0.0
  0
SEQEND
  5
48C
330
489
100
AcDbEntity
  8
cuerpo
370
    25
  0
ENDBLK
  5
488
330
485
100
AcDbEntity
  8
0
100
AcDbBlockEnd
  0
BLOCK
  5
48F
330
48D
100
AcDbEntity
  8
0
100
AcDbBlockBegin
  2
block 151
 70
     0
 71
     0
 10
0.0
 20
0.0
 30
0.0
  3
block 151
  1

  0
POLYLINE
  5
491
330
48D
100
AcDbEntity
  8
cuerpo
 62
     7
420
 16777215
370
    25
100
AcDb2dPolyline
 66
     1
 10
0.0
 20
0.0
 30
0.0
  0
VERTEX
  5
492
330
491
100
AcDbEntity
  8
cuerpo
 62
     7
420
 16777215
370
    25
100
AcDbVertex
100
AcDb2dVertex
 10
67.60724282163986
 20
66.10655922826503
 30
0.0
  0
VERTEX
  5
493
330
491
100
AcDbEntity
  8
cuerpo
 62
     7
420
 16777215
370
    25
100
AcDbVertex
100
AcDb2dVertex
 10
67.60724282163986
 20
72.45931530306574
 30
0.0
  0
SEQEND
  5
494
330
491
100
AcDbEntity
  8
cuerpo
370
    25
  0
ENDBLK
  5
490
330
48D
100
AcDbEntity
  8
0
100
AcDbBlockEnd
  0
BLOCK
  5
498
330
496
100
AcDbEntity
  8
0
100
AcDbBlockBegin
  2
block 152
 70
     0
 71
     0
 10
0.0
 20
0.0
 30
0.0
  3
block 152
  1

  0
INSERT
  5
49B
330
496
100
AcDbEntity
  8
cotas
100
AcDbBlockReference
  2
block 153
 10
0.0
 20
0.0
 30
0.0
  0
INSERT
  5
4A3
330
496
100
AcDbEntity
  8
cotas
100
AcDbBlockReference
  2
block 154
 10
0.0
 20
0.0
 30
0.0
  0
INSERT
  5
4AB
330
496
100
AcDbEntity
  8
cotas
100
AcDbBlockReference
  2
block 155
 10
0.0
 20
0.0
 30
0.0
  0
INSERT
  5
4B3
330
496
100
AcDbEntity
  8
cotas
100
AcDbBlockReference
  2
block 156
 10
0.0
 20
0.0
 30
0.0
  0
INSERT
  5
4BB
330
496
100
AcDbEntity
  8
cotas
100
AcDbBlockReference
  2
block 157
 10
0.0
 20
0.0
 30
0.0
  0
INSERT
  5
4C6
330
496
100
AcDbEntity
  8
cotas
100
AcDbBlockReference
  2
block 158
 10
0.0
 20
0.0
 30
0.0
  0
INSERT
  5
4CE
330
496
100
AcDbEntity
  8
cotas
100
AcDbBlockReference
  2
block 159
 10
0.0
 20
0.0
 30
0.0
  0
INSERT
  5
4D9
330
496
100
AcDbEntity
  8
cotas
100
AcDbBlockReference
  2
block 160
 10
0.0
 20
0.0
 30
0.0
  0
INSERT
  5
4E1
330
496
100
AcDbEntity
  8
cotas
100
AcDbBlockReference
  2
block 161
 10
0.0
 20
0.0
 30
0.0
  0
INSERT
  5
4E6
330
496
100
AcDbEntity
  8
cotas
100
AcDbBlockReference
  2
block 162
 10
0.0
 20
0.0
 30
0.0
  0
INSERT
  5
4EE
330
496
100
AcDbEntity
  8
cotas
100
AcDbBlockReference
  2
block 163
 10
0.0
 20
0.0
 30
0.0
  0
INSERT
  5
4F6
330
496
100
AcDbEntity
  8
cotas
100
AcDbBlockReference
  2
block 164
 10
0.0
 20
0.0
 30
0.0
  0
ENDBLK
  5
499
330
496
100
AcDbEntity
  8
0
100
AcDbBlockEnd
  0
BLOCK
  5
49C
330
49A
100
AcDbEntity
  8
0
100
AcDbBlockBegin
  2
block 153
 70
     0
 71
     0
 10
0.0
 20
0.0
 30
0.0
  3
block 153
  1

  0
POLYLINE
  5
49E
330
49A
100
AcDbEntity
  8
cotas
 62
   253
420
 11382189
370
    25
100
AcDb2dPolyline
 66
     1
 10
0.0
 20
0.0
 30
0.0
  0
VERTEX
  5
49F
330
49E
100
AcDbEntity
  8
cotas
 62
   253
420
 11382189
370
    25
100
AcDbVertex
100
AcDb2dVertex
 10
60.23766681436767
 20
78.98157007574072
 30
0.0
  0
VERTEX
  5
4A0
330
49E
100
AcDbEntity
  8
cotas
 62
   253
420
 11382189
370
    25
100
AcDbVertex
100
AcDb2dVertex
 10
60.23766681436767
 20
88.44283580688236
 30
0.0
  0
SEQEND
  5
4A1
330
49E
100
AcDbEntity
  8
cotas
370
    25
  0
ENDBLK
  5
49D
330
49A
100
AcDbEntity
  8
0
100
AcDbBlockEnd
  0
BLOCK
  5
4A4
330
4A2
100
AcDbEntity
  8
0
100
AcDbBlockBegin
  2
block 154
 70
     0
 71
     0
 10
0.0
 20
0.0
 30
0.0
  3
block 154
  1

  0
POLYLINE
  5
4A6
330
4A2
100
AcDbEntity
  8
cotas
 62
   253
420
 11382189
370
    25
100
AcDb2dPolyline
 66
     1
 10
0.0
 20
0.0
 30
0.0
  0
VERTEX
  5
4A7
330
4A6
100
AcDbEntity
  8
cotas
 62
   253
420
 11382189
370
    25
100
AcDbVertex
100
AcDb2dVertex
 10
80.80144176582395
 20
78.98157007574072
 30
0.0
  0
VERTEX
  5
4A8
330
4A6
100
AcDbEntity
  8
cotas
 62
   253
420
 11382189
370
    25
100
AcDbVertex
100
AcDb2dVertex
 10
80.80144176582395
 20
88.44283580688236
 30
0.0
  0
SEQEND
  5
4A9
330
4A6
100
AcDbEntity
  8
cotas
370
    25
  0
ENDBLK
  5
4A5
330
4A2
100
AcDbEntity
  8
0
100
AcDbBlockEnd
  0
BLOCK
  5
4AC
330
4AA
100
AcDbEntity
  8
0
100
AcDbBlockBegin
  2
block 155
 70
     0
 71
     0
 10
0.0
 20
0.0
 30
0.0
  3
block 155
  1

  0
POLYLINE
  5
4AE
330
4AA
100
AcDbEntity
  8
cotas
 62
   253
420
 11382189
370
    25
100
AcDb2dPolyline
 66
     1
 10
0.0
 20
0.0
 30
0.0
  0
VERTEX
  5
4AF
330
4AE
100
AcDbEntity
  8
cotas
 62
   253
420
 11382189
370
    25
100
AcDbVertex
100
AcDb2dVertex
 10
60.23766681436767
 20
86.43882376311252
 30
0.0
  0
VERTEX
  5
4B0
330
4AE
100
AcDbEntity
  8
cotas
 62
   253
420
 11382189
370
    25
100
AcDbVertex
100
AcDb2dVertex
 10
62.06081134516188
 20
86.43882376311252
 30
0.0
  0
SEQEND
  5
4B1
330
4AE
100
AcDbEntity
  8
cotas
370
    25
  0
ENDBLK
  5
4AD
330
4AA
100
AcDbEntity
  8
0
100
AcDbBlockEnd
  0
BLOCK
  5
4B4
330
4B2
100
AcDbEntity
  8
0
100
AcDbBlockBegin
  2
block 156
 70
     0
 71
     0
 10
0.0
 20
0.0
 30
0.0
  3
block 156
  1

  0
POLYLINE
  5
4B6
330
4B2
100
AcDbEntity
  8
cotas
 62
   253
420
 11382189
370
    25
100
AcDb2dPolyline
 66
     1
 10
0.0
 20
0.0
 30
0.0
  0
VERTEX
  5
4B7
330
4B6
100
AcDbEntity
  8
cotas
 62
   253
420
 11382189
370
    25
100
AcDbVertex
100
AcDb2dVertex
 10
80.80144176582395
 20
86.43882376311252
 30
0.0
  0
VERTEX
  5
4B8
330
4B6
100
AcDbEntity
  8
cotas
 62
   253
420
 11382189
370
    25
100
AcDbVertex
100
AcDb2dVertex
 10
78.97795272548122
 20
86.43882376311252
 30
0.0
  0
SEQEND
  5
4B9
330
4B6
100
AcDbEntity
  8
cotas
370
    25
  0
ENDBLK
  5
4B5
330
4B2
100
AcDbEntity
  8
0
100
AcDbBlockEnd
  0
BLOCK
  5
4BC
330
4BA
100
AcDbEntity
  8
0
100
AcDbBlockBegin
  2
block 157
 70
     0
 71
     0
 10
0.0
 20
0.0
 30
0.0
  3
block 157
  1

  0
POLYLINE
  5
4BE
330
4BA
100
AcDbEntity
  8
cotas
370
     0
100
AcDb2dPolyline
 66
     1
 10
0.0
 20
0.0
 30
0.0
  0
VERTEX
  5
4BF
330
4BE
100
AcDbEntity
  8
cotas
370
     0
100
AcDbVertex
100
AcDb2dVertex
 10
63.0435248323294
 20
86.9059787109124
 30
0.0
  0
VERTEX
  5
4C0
330
4BE
100
AcDbEntity
  8
cotas
370
     0
100
AcDbVertex
100
AcDb2dVertex
 10
63.0435248323294
 20
85.97097979621559
 30
0.0
  0
VERTEX
  5
4C1
330
4BE
100
AcDbEntity
  8
cotas
370
     0
100
AcDbVertex
100
AcDb2dVertex
 10
60.23766681436767
 20
86.43882376311252
 30
0.0
  0
VERTEX
  5
4C2
330
4BE
100
AcDbEntity
  8
cotas
370
     0
100
AcDbVertex
100
AcDb2dVertex
 10
63.0435248323294
 20
86.9059787109124
 30
0.0
  0
SEQEND
  5
4C3
330
4BE
100
AcDbEntity
  8
cotas
370
     0
  0
HATCH
  5
4C4
330
4BA
100
AcDbEntity
  8
cotas
 62
   253
420
 11382189
100
AcDbHatch
 10
0.0
 20
0.0
 30
0.0
210
0.0
220
0.0
230
1.0
  2
SOLID
 70
     1
 71
     0
 91
        1
 92
        1
 93
        3
 72
     1
 10
63.0435248323294
 20
86.9059787109124
 11
63.0435248323294
 21
85.97097979621559
 72
     1
 10
63.0435248323294
 20
85.97097979621559
 11
60.23766681436767
 21
86.43882376311252
 72
     1
 10
60.23766681436767
 20
86.43882376311252
 11
63.0435248323294
 21
86.9059787109124
 97
        0
 75
     2
 76
     1
 98
        0
  0
ENDBLK
  5
4BD
330
4BA
100
AcDbEntity
  8
0
100
AcDbBlockEnd
  0
BLOCK
  5
4C7
330
4C5
100
AcDbEntity
  8
0
100
AcDbBlockBegin
  2
block 158
 70
     0
 71
     0
 10
0.0
 20
0.0
 30
0.0
  3
block 158
  1

  0
POLYLINE
  5
4C9
330
4C5
100
AcDbEntity
  8
cotas
 62
   253
420
 11382189
370
    25
100
AcDb2dPolyline
 66
     1
 10
0.0
 20
0.0
 30
0.0
  0
VERTEX
  5
4CA
330
4C9
100
AcDbEntity
  8
cotas
 62
   253
420
 11382189
370
    25
100
AcDbVertex
100
AcDb2dVertex
 10
63.0435248323294
 20
86.43882376311252
 30
0.0
  0
VERTEX
  5
4CB
330
4C9
100
AcDbEntity
  8
cotas
 62
   253
420
 11382189
370
    25
100
AcDbVertex
100
AcDb2dVertex
 10
65.84955510506539
 20
86.43882376311252
 30
0.0
  0
SEQEND
  5
4CC
330
4C9
100
AcDbEntity
  8
cotas
370
    25
  0
ENDBLK
  5
4C8
330
4C5
100
AcDbEntity
  8
0
100
AcDbBlockEnd
  0
BLOCK
  5
4CF
330
4CD
100
AcDbEntity
  8
0
100
AcDbBlockBegin
  2
block 159
 70
     0
 71
     0
 10
0.0
 20
0.0
 30
0.0
  3
block 159
  1

  0
POLYLINE
  5
4D1
330
4CD
100
AcDbEntity
  8
cotas
370
     0
100
AcDb2dPolyline
 66
     1
 10
0.0
 20
0.0
 30
0.0
  0
VERTEX
  5
4D2
330
4D1
100
AcDbEntity
  8
cotas
370
     0
100
AcDbVertex
100
AcDb2dVertex
 10
77.99541149308796
 20
86.9059787109124
 30
0.0
  0
VERTEX
  5
4D3
330
4D1
100
AcDbEntity
  8
cotas
370
     0
100
AcDbVertex
100
AcDb2dVertex
 10
77.99541149308796
 20
85.97097979621559
 30
0.0
  0
VERTEX
  5
4D4
330
4D1
100
AcDbEntity
  8
cotas
370
     0
100
AcDbVertex
100
AcDb2dVertex
 10
80.80144176582395
 20
86.43882376311252
 30
0.0
  0
VERTEX
  5
4D5
330
4D1
100
AcDbEntity
  8
cotas
370
     0
100
AcDbVertex
100
AcDb2dVertex
 10
77.99541149308796
 20
86.9059787109124
 30
0.0
  0
SEQEND
  5
4D6
330
4D1
100
AcDbEntity
  8
cotas
370
     0
  0
HATCH
  5
4D7
330
4CD
100
AcDbEntity
  8
cotas
 62
   253
420
 11382189
100
AcDbHatch
 10
0.0
 20
0.0
 30
0.0
210
0.0
220
0.0
230
1.0
  2
SOLID
 70
     1
 71
     0
 91
        1
 92
        1
 93
        3
 72
     1
 10
77.99541149308796
 20
86.9059787109124
 11
77.99541149308796
 21
85.97097979621559
 72
     1
 10
77.99541149308796
 20
85.97097979621559
 11
80.80144176582395
 21
86.43882376311252
 72
     1
 10
80.80144176582395
 20
86.43882376311252
 11
77.99541149308796
 21
86.9059787109124
 97
        0
 75
     2
 76
     1
 98
        0
  0
ENDBLK
  5
4D0
330
4CD
100
AcDbEntity
  8
0
100
AcDbBlockEnd
  0
BLOCK
  5
4DA
330
4D8
100
AcDbEntity
  8
0
100
AcDbBlockBegin
  2
block 160
 70
     0
 71
     0
 10
0.0
 20
0.0
 30
0.0
  3
block 160
  1

  0
POLYLINE
  5
4DC
330
4D8
100
AcDbEntity
  8
cotas
 62
   253
420
 11382189
370
    25
100
AcDb2dPolyline
 66
     1
 10
0.0
 20
0.0
 30
0.0
  0
VERTEX
  5
4DD
330
4DC
100
AcDbEntity
  8
cotas
 62
   253
420
 11382189
370
    25
100
AcDbVertex
100
AcDb2dVertex
 10
77.99541149308796
 20
86.43882376311252
 30
0.0
  0
VERTEX
  5
4DE
330
4DC
100
AcDbEntity
  8
cotas
 62
   253
420
 11382189
370
    25
100
AcDbVertex
100
AcDb2dVertex
 10
75.18938122035196
 20
86.43882376311252
 30
0.0
  0
SEQEND
  5
4DF
330
4DC
100
AcDbEntity
  8
cotas
370
    25
  0
ENDBLK
  5
4DB
330
4D8
100
AcDbEntity
  8
0
100
AcDbBlockEnd
  0
BLOCK
  5
4E2
330
4E0
100
AcDbEntity
  8
0
100
AcDbBlockBegin
  2
block 161
 70
     0
 71
     0
 10
0.0
 20
0.0
 30
0.0
  3
block 161
  1

  0
MTEXT
  5
4E4
330
4E0
100
AcDbEntity
  8
cotas
 62
   253
420
 11382189
100
AcDbMText
 10
65.96772188020947
 20
83.48362085586521
 30
0.0
 40
6.012793621679311
 41
0.0
 71
     7
 72
     1
  1
\fArial|b0|i0|c0|p34;\W1;45
 73
     1
 44
1.0
  0
ENDBLK
  5
4E3
330
4E0
100
AcDbEntity
  8
0
100
AcDbBlockEnd
  0
BLOCK
  5
4E7
330
4E5
100
AcDbEntity
  8
0
100
AcDbBlockBegin
  2
block 162
 70
     0
 71
     0
 10
0.0
 20
0.0
 30
0.0
  3
block 162
  1

  0
POLYLINE
  5
4E9
330
4E5
100
AcDbEntity
  8
cotas
 62
   253
420
 11382189
370
    25
100
AcDb2dPolyline
 66
     1
 10
0.0
 20
0.0
 30
0.0
  0
VERTEX
  5
4EA
330
4E9
100
AcDbEntity
  8
cotas
 62
   253
420
 11382189
370
    25
100
AcDbVertex
100
AcDb2dVertex
 10
60.23766681436767
 20
74.97285696910401
 30
0.0
  0
VERTEX
  5
4EB
330
4E9
100
AcDbEntity
  8
cotas
 62
   253
420
 11382189
370
    25
100
AcDbVertex
100
AcDb2dVertex
 10
60.23766681436767
 20
74.97285696910401
 30
0.0
  0
SEQEND
  5
4EC
330
4E9
100
AcDbEntity
  8
cotas
370
    25
  0
ENDBLK
  5
4E8
330
4E5
100
AcDbEntity
  8
0
100
AcDbBlockEnd
  0
BLOCK
  5
4EF
330
4ED
100
AcDbEntity
  8
0
100
AcDbBlockBegin
  2
block 163
 70
     0
 71
     0
 10
0.0
 20
0.0
 30
0.0
  3
block 163
  1

  0
POLYLINE
  5
4F1
330
4ED
100
AcDbEntity
  8
cotas
 62
   253
420
 11382189
370
    25
100
AcDb2dPolyline
 66
     1
 10
0.0
 20
0.0
 30
0.0
  0
VERTEX
  5
4F2
330
4F1
100
AcDbEntity
  8
cotas
 62
   253
420
 11382189
370
    25
100
AcDbVertex
100
AcDb2dVertex
 10
80.80144176582395
 20
74.97285696910401
 30
0.0
  0
VERTEX
  5
4F3
330
4F1
100
AcDbEntity
  8
cotas
 62
   253
420
 11382189
370
    25
100
AcDbVertex
100
AcDb2dVertex
 10
80.80144176582395
 20
74.97285696910401
 30
0.0
  0
SEQEND
  5
4F4
330
4F1
100
AcDbEntity
  8
cotas
370
    25
  0
ENDBLK
  5
4F0
330
4ED
100
AcDbEntity
  8
0
100
AcDbBlockEnd
  0
BLOCK
  5
4F7
330
4F5
100
AcDbEntity
  8
0
100
AcDbBlockBegin
  2
block 164
 70
     0
 71
     0
 10
0.0
 20
0.0
 30
0.0
  3
block 164
  1

  0
POLYLINE
  5
4F9
330
4F5
100
AcDbEntity
  8
cotas
 62
   253
420
 11382189
370
    25
100
AcDb2dPolyline
 66
     1
 10
0.0
 20
0.0
 30
0.0
  0
VERTEX
  5
4FA
330
4F9
100
AcDbEntity
  8
cotas
 62
   253
420
 11382189
370
    25
100
AcDbVertex
100
AcDb2dVertex
 10
80.80144176582395
 20
86.43882376311252
 30
0.0
  0
VERTEX
  5
4FB
330
4F9
100
AcDbEntity
  8
cotas
 62
   253
420
 11382189
370
    25
100
AcDbVertex
100
AcDb2dVertex
 10
80.80144176582395
 20
86.43882376311252
 30
0.0
  0
SEQEND
  5
4FC
330
4F9
100
AcDbEntity
  8
cotas
370
    25
  0
ENDBLK
  5
4F8
330
4F5
100
AcDbEntity
  8
0
100
AcDbBlockEnd
  0
BLOCK
  5
4FF
330
4FD
100
AcDbEntity
  8
0
100
AcDbBlockBegin
  2
block 165
 70
     0
 71
     0
 10
0.0
 20
0.0
 30
0.0
  3
block 165
  1

  0
INSERT
  5
502
330
4FD
100
AcDbEntity
  8
cotas
100
AcDbBlockReference
  2
block 166
 10
0.0
 20
0.0
 30
0.0
  0
INSERT
  5
50A
330
4FD
100
AcDbEntity
  8
cotas
100
AcDbBlockReference
  2
block 167
 10
0.0
 20
0.0
 30
0.0
  0
INSERT
  5
512
330
4FD
100
AcDbEntity
  8
cotas
100
AcDbBlockReference
  2
block 168
 10
0.0
 20
0.0
 30
0.0
  0
INSERT
  5
51A
330
4FD
100
AcDbEntity
  8
cotas
100
AcDbBlockReference
  2
block 169
 10
0.0
 20
0.0
 30
0.0
  0
INSERT
  5
522
330
4FD
100
AcDbEntity
  8
cotas
100
AcDbBlockReference
  2
block 170
 10
0.0
 20
0.0
 30
0.0
  0
INSERT
  5
52D
330
4FD
100
AcDbEntity
  8
cotas
100
AcDbBlockReference
  2
block 171
 10
0.0
 20
0.0
 30
0.0
  0
INSERT
  5
538
330
4FD
100
AcDbEntity
  8
cotas
100
AcDbBlockReference
  2
block 172
 10
0.0
 20
0.0
 30
0.0
  0
INSERT
  5
53D
330
4FD
100
AcDbEntity
  8
cotas
100
AcDbBlockReference
  2
block 173
 10
0.0
 20
0.0
 30
0.0
  0
INSERT
  5
545
330
4FD
100
AcDbEntity
  8
cotas
100
AcDbBlockReference
  2
block 174
 10
0.0
 20
0.0
 30
0.0
  0
INSERT
  5
54D
330
4FD
100
AcDbEntity
  8
cotas
100
AcDbBlockReference
  2
block 175
 10
0.0
 20
0.0
 30
0.0
  0
ENDBLK
  5
500
330
4FD
100
AcDbEntity
  8
0
100
AcDbBlockEnd
  0
BLOCK
  5
503
330
501
100
AcDbEntity
  8
0
100
AcDbBlockBegin
  2
block 166
 70
     0
 71
     0
 10
0.0
 20
0.0
 30
0.0
  3
block 166
  1

  0
POLYLINE
  5
505
330
501
100
AcDbEntity
  8
cotas
 62
   253
420
 11382189
370
    25
100
AcDb2dPolyline
 66
     1
 10
0.0
 20
0.0
 30
0.0
  0
VERTEX
  5
506
330
505
100
AcDbEntity
  8
cotas
 62
   253
420
 11382189
370
    25
100
AcDbVertex
100
AcDb2dVertex
 10
84.80981036291213
 20
72.45931530306574
 30
0.0
  0
VERTEX
  5
507
330
505
100
AcDbEntity
  8
cotas
 62
   253
420
 11382189
370
    25
100
AcDbVertex
100
AcDb2dVertex
 10
132.7899996955352
 20
72.45931530306574
 30
0.0
  0
SEQEND
  5
508
330
505
100
AcDbEntity
  8
cotas
370
    25
  0
ENDBLK
  5
504
330
501
100
AcDbEntity
  8
0
100
AcDbBlockEnd
  0
BLOCK
  5
50B
330
509
100
AcDbEntity
  8
0
100
AcDbBlockBegin
  2
block 167
 70
     0
 71
     0
 10
0.0
 20
0.0
 30
0.0
  3
block 167
  1

  0
POLYLINE
  5
50D
330
509
100
AcDbEntity
  8
cotas
 62
   253
420
 11382189
370
    25
100
AcDb2dPolyline
 66
     1
 10
0.0
 20
0.0
 30
0.0
  0
VERTEX
  5
50E
330
50D
100
AcDbEntity
  8
cotas
 62
   253
420
 11382189
370
    25
100
AcDbVertex
100
AcDb2dVertex
 10
114.3763088364233
 20
104.3602104773822
 30
0.0
  0
VERTEX
  5
50F
330
50D
100
AcDbEntity
  8
cotas
 62
   253
420
 11382189
370
    25
100
AcDbVertex
100
AcDb2dVertex
 10
132.7899996955352
 20
104.3602104773822
 30
0.0
  0
SEQEND
  5
510
330
50D
100
AcDbEntity
  8
cotas
370
    25
  0
ENDBLK
  5
50C
330
509
100
AcDbEntity
  8
0
100
AcDbBlockEnd
  0
BLOCK
  5
513
330
511
100
AcDbEntity
  8
0
100
AcDbBlockBegin
  2
block 168
 70
     0
 71
     0
 10
0.0
 20
0.0
 30
0.0
  3
block 168
  1

  0
POLYLINE
  5
515
330
511
100
AcDbEntity
  8
cotas
 62
   253
420
 11382189
370
    25
100
AcDb2dPolyline
 66
     1
 10
0.0
 20
0.0
 30
0.0
  0
VERTEX
  5
516
330
515
100
AcDbEntity
  8
cotas
 62
   253
420
 11382189
370
    25
100
AcDbVertex
100
AcDb2dVertex
 10
130.7859876517653
 20
75.26569008535024
 30
0.0
  0
VERTEX
  5
517
330
515
100
AcDbEntity
  8
cotas
 62
   253
420
 11382189
370
    25
100
AcDbVertex
100
AcDb2dVertex
 10
130.7859876517653
 20
81.33112519668111
 30
0.0
  0
SEQEND
  5
518
330
515
100
AcDbEntity
  8
cotas
370
    25
  0
ENDBLK
  5
514
330
511
100
AcDbEntity
  8
0
100
AcDbBlockEnd
  0
BLOCK
  5
51B
330
519
100
AcDbEntity
  8
0
100
AcDbBlockBegin
  2
block 169
 70
     0
 71
     0
 10
0.0
 20
0.0
 30
0.0
  3
block 169
  1

  0
POLYLINE
  5
51D
330
519
100
AcDbEntity
  8
cotas
 62
   253
420
 11382189
370
    25
100
AcDb2dPolyline
 66
     1
 10
0.0
 20
0.0
 30
0.0
  0
VERTEX
  5
51E
330
51D
100
AcDbEntity
  8
cotas
 62
   253
420
 11382189
370
    25
100
AcDbVertex
100
AcDb2dVertex
 10
130.7859876517653
 20
101.5545247141947
 30
0.0
  0
VERTEX
  5
51F
330
51D
100
AcDbEntity
  8
cotas
 62
   253
420
 11382189
370
    25
100
AcDbVertex
100
AcDb2dVertex
 10
130.7859876517653
 20
95.48840058376679
 30
0.0
  0
SEQEND
  5
520
330
51D
100
AcDbEntity
  8
cotas
370
    25
  0
ENDBLK
  5
51C
330
519
100
AcDbEntity
  8
0
100
AcDbBlockEnd
  0
BLOCK
  5
523
330
521
100
AcDbEntity
  8
0
100
AcDbBlockBegin
  2
block 170
 70
     0
 71
     0
 10
0.0
 20
0.0
 30
0.0
  3
block 170
  1

  0
POLYLINE
  5
525
330
521
100
AcDbEntity
  8
cotas
370
     0
100
AcDb2dPolyline
 66
     1
 10
0.0
 20
0.0
 30
0.0
  0
VERTEX
  5
526
330
525
100
AcDbEntity
  8
cotas
370
     0
100
AcDbVertex
100
AcDb2dVertex
 10
130.3181436848684
 20
75.26569008535024
 30
0.0
  0
VERTEX
  5
527
330
525
100
AcDbEntity
  8
cotas
370
     0
100
AcDbVertex
100
AcDb2dVertex
 10
131.2534871091137
 20
75.26569008535024
 30
0.0
  0
VERTEX
  5
528
330
525
100
AcDbEntity
  8
cotas
370
     0
100
AcDbVertex
100
AcDb2dVertex
 10
130.7859876517653
 20
72.45931530306574
 30
0.0
  0
VERTEX
  5
529
330
525
100
AcDbEntity
  8
cotas
370
     0
100
AcDbVertex
100
AcDb2dVertex
 10
130.3181436848684
 20
75.26569008535024
 30
0.0
  0
SEQEND
  5
52A
330
525
100
AcDbEntity
  8
cotas
370
     0
  0
HATCH
  5
52B
330
521
100
AcDbEntity
  8
cotas
 62
   253
420
 11382189
100
AcDbHatch
 10
0.0
 20
0.0
 30
0.0
210
0.0
220
0.0
230
1.0
  2
SOLID
 70
     1
 71
     0
 91
        1
 92
        1
 93
        3
 72
     1
 10
130.3181436848684
 20
75.26569008535024
 11
131.2534871091137
 21
75.26569008535024
 72
     1
 10
131.2534871091137
 20
75.26569008535024
 11
130.7859876517653
 21
72.45931530306574
 72
     1
 10
130.7859876517653
 20
72.45931530306574
 11
130.3181436848684
 21
75.26569008535024
 97
        0
 75
     2
 76
     1
 98
        0
  0
ENDBLK
  5
524
330
521
100
AcDbEntity
  8
0
100
AcDbBlockEnd
  0
BLOCK
  5
52E
330
52C
100
AcDbEntity
  8
0
100
AcDbBlockBegin
  2
block 171
 70
     0
 71
     0
 10
0.0
 20
0.0
 30
0.0
  3
block 171
  1

  0
POLYLINE
  5
530
330
52C
100
AcDbEntity
  8
cotas
370
     0
100
AcDb2dPolyline
 66
     1
 10
0.0
 20
0.0
 30
0.0
  0
VERTEX
  5
531
330
530
100
AcDbEntity
  8
cotas
370
     0
100
AcDbVertex
100
AcDb2dVertex
 10
130.3181436848684
 20
101.5545247141947
 30
0.0
  0
VERTEX
  5
532
330
530
100
AcDbEntity
  8
cotas
370
     0
100
AcDbVertex
100
AcDb2dVertex
 10
131.2534871091137
 20
101.5545247141947
 30
0.0
  0
VERTEX
  5
533
330
530
100
AcDbEntity
  8
cotas
370
     0
100
AcDbVertex
100
AcDb2dVertex
 10
130.7859876517653
 20
104.3602104773822
 30
0.0
  0
VERTEX
  5
534
330
530
100
AcDbEntity
  8
cotas
370
     0
100
AcDbVertex
100
AcDb2dVertex
 10
130.3181436848684
 20
101.5545247141947
 30
0.0
  0
SEQEND
  5
535
330
530
100
AcDbEntity
  8
cotas
370
     0
  0
HATCH
  5
536
330
52C
100
AcDbEntity
  8
cotas
 62
   253
420
 11382189
100
AcDbHatch
 10
0.0
 20
0.0
 30
0.0
210
0.0
220
0.0
230
1.0
  2
SOLID
 70
     1
 71
     0
 91
        1
 92
        1
 93
        3
 72
     1
 10
130.3181436848684
 20
101.5545247141947
 11
131.2534871091137
 21
101.5545247141947
 72
     1
 10
131.2534871091137
 20
101.5545247141947
 11
130.7859876517653
 21
104.3602104773822
 72
     1
 10
130.7859876517653
 20
104.3602104773822
 11
130.3181436848684
 21
101.5545247141947
 97
        0
 75
     2
 76
     1
 98
        0
  0
ENDBLK
  5
52F
330
52C
100
AcDbEntity
  8
0
100
AcDbBlockEnd
  0
BLOCK
  5
539
330
537
100
AcDbEntity
  8
0
100
AcDbBlockBegin
  2
block 172
 70
     0
 71
     0
 10
0.0
 20
0.0
 30
0.0
  3
block 172
  1

  0
MTEXT
  5
53B
330
537
100
AcDbEntity
  8
cotas
 62
   253
420
 11382189
100
AcDbMText
 10
126.1225341481569
 20
85.44250214877827
 30
0.0
 40
6.012793621679311
 41
0.0
 71
     7
 72
     1
  1
\fArial|b0|i0|c0|p34;\W1;70
 73
     1
 44
1.0
  0
ENDBLK
  5
53A
330
537
100
AcDbEntity
  8
0
100
AcDbBlockEnd
  0
BLOCK
  5
53E
330
53C
100
AcDbEntity
  8
0
100
AcDbBlockBegin
  2
block 173
 70
     0
 71
     0
 10
0.0
 20
0.0
 30
0.0
  3
block 173
  1

  0
POLYLINE
  5
540
330
53C
100
AcDbEntity
  8
cotas
 62
   253
420
 11382189
370
    25
100
AcDb2dPolyline
 66
     1
 10
0.0
 20
0.0
 30
0.0
  0
VERTEX
  5
541
330
540
100
AcDbEntity
  8
cotas
 62
   253
420
 11382189
370
    25
100
AcDbVertex
100
AcDb2dVertex
 10
80.80144176582395
 20
72.45931530306574
 30
0.0
  0
VERTEX
  5
542
330
540
100
AcDbEntity
  8
cotas
 62
   253
420
 11382189
370
    25
100
AcDbVertex
100
AcDb2dVertex
 10
80.80144176582395
 20
72.45931530306574
 30
0.0
  0
SEQEND
  5
543
330
540
100
AcDbEntity
  8
cotas
370
    25
  0
ENDBLK
  5
53F
330
53C
100
AcDbEntity
  8
0
100
AcDbBlockEnd
  0
BLOCK
  5
546
330
544
100
AcDbEntity
  8
0
100
AcDbBlockBegin
  2
block 174
 70
     0
 71
     0
 10
0.0
 20
0.0
 30
0.0
  3
block 174
  1

  0
POLYLINE
  5
548
330
544
100
AcDbEntity
  8
cotas
 62
   253
420
 11382189
370
    25
100
AcDb2dPolyline
 66
     1
 10
0.0
 20
0.0
 30
0.0
  0
VERTEX
  5
549
330
548
100
AcDbEntity
  8
cotas
 62
   253
420
 11382189
370
    25
100
AcDbVertex
100
AcDb2dVertex
 10
110.3679402393351
 20
104.3602104773822
 30
0.0
  0
VERTEX
  5
54A
330
548
100
AcDbEntity
  8
cotas
 62
   253
420
 11382189
370
    25
100
AcDbVertex
100
AcDb2dVertex
 10
110.3679402393351
 20
104.3602104773822
 30
0.0
  0
SEQEND
  5
54B
330
548
100
AcDbEntity
  8
cotas
370
    25
  0
ENDBLK
  5
547
330
544
100
AcDbEntity
  8
0
100
AcDbBlockEnd
  0
BLOCK
  5
54E
330
54C
100
AcDbEntity
  8
0
100
AcDbBlockBegin
  2
block 175
 70
     0
 71
     0
 10
0.0
 20
0.0
 30
0.0
  3
block 175
  1

  0
POLYLINE
  5
550
330
54C
100
AcDbEntity
  8
cotas
 62
   253
420
 11382189
370
    25
100
AcDb2dPolyline
 66
     1
 10
0.0
 20
0.0
 30
0.0
  0
VERTEX
  5
551
330
550
100
AcDbEntity
  8
cotas
 62
   253
420
 11382189
370
    25
100
AcDbVertex
100
AcDb2dVertex
 10
130.7859876517653
 20
104.3602104773822
 30
0.0
  0
VERTEX
  5
552
330
550
100
AcDbEntity
  8
cotas
 62
   253
420
 11382189
370
    25
100
AcDbVertex
100
AcDb2dVertex
 10
130.7859876517653
 20
104.3602104773822
 30
0.0
  0
SEQEND
  5
553
330
550
100
AcDbEntity
  8
cotas
370
    25
  0
ENDBLK
  5
54F
330
54C
100
AcDbEntity
  8
0
100
AcDbBlockEnd
  0
BLOCK
  5
556
330
554
100
AcDbEntity
  8
0
100
AcDbBlockBegin
  2
block 176
 70
     0
 71
     0
 10
0.0
 20
0.0
 30
0.0
  3
block 176
  1

  0
INSERT
  5
559
330
554
100
AcDbEntity
  8
cotas
100
AcDbBlockReference
  2
block 177
 10
0.0
 20
0.0
 30
0.0
  0
INSERT
  5
561
330
554
100
AcDbEntity
  8
cotas
100
AcDbBlockReference
  2
block 178
 10
0.0
 20
0.0
 30
0.0
  0
INSERT
  5
569
330
554
100
AcDbEntity
  8
cotas
100
AcDbBlockReference
  2
block 179
 10
0.0
 20
0.0
 30
0.0
  0
INSERT
  5
571
330
554
100
AcDbEntity
  8
cotas
100
AcDbBlockReference
  2
block 180
 10
0.0
 20
0.0
 30
0.0
  0
INSERT
  5
579
330
554
100
AcDbEntity
  8
cotas
100
AcDbBlockReference
  2
block 181
 10
0.0
 20
0.0
 30
0.0
  0
INSERT
  5
584
330
554
100
AcDbEntity
  8
cotas
100
AcDbBlockReference
  2
block 182
 10
0.0
 20
0.0
 30
0.0
  0
INSERT
  5
58F
330
554
100
AcDbEntity
  8
cotas
100
AcDbBlockReference
  2
block 183
 10
0.0
 20
0.0
 30
0.0
  0
INSERT
  5
594
330
554
100
AcDbEntity
  8
cotas
100
AcDbBlockReference
  2
block 184
 10
0.0
 20
0.0
 30
0.0
  0
INSERT
  5
59C
330
554
100
AcDbEntity
  8
cotas
100
AcDbBlockReference
  2
block 185
 10
0.0
 20
0.0
 30
0.0
  0
INSERT
  5
5A4
330
554
100
AcDbEntity
  8
cotas
100
AcDbBlockReference
  2
block 186
 10
0.0
 20
0.0
 30
0.0
  0
ENDBLK
  5
557
330
554
100
AcDbEntity
  8
0
100
AcDbBlockEnd
  0
BLOCK
  5
55A
330
558
100
AcDbEntity
  8
0
100
AcDbBlockBegin
  2
block 177
 70
     0
 71
     0
 10
0.0
 20
0.0
 30
0.0
  3
block 177
  1

  0
POLYLINE
  5
55C
330
558
100
AcDbEntity
  8
cotas
 62
   253
420
 11382189
370
    25
100
AcDb2dPolyline
 66
     1
 10
0.0
 20
0.0
 30
0.0
  0
VERTEX
  5
55D
330
55C
100
AcDbEntity
  8
cotas
 62
   253
420
 11382189
370
    25
100
AcDbVertex
100
AcDb2dVertex
 10
70.51955429009581
 20
150.0404540640524
 30
0.0
  0
VERTEX
  5
55E
330
55C
100
AcDbEntity
  8
cotas
 62
   253
420
 11382189
370
    25
100
AcDbVertex
100
AcDb2dVertex
 10
70.51955429009581
 20
156.9411525757821
 30
0.0
  0
SEQEND
  5
55F
330
55C
100
AcDbEntity
  8
cotas
370
    25
  0
ENDBLK
  5
55B
330
558
100
AcDbEntity
  8
0
100
AcDbBlockEnd
  0
BLOCK
  5
562
330
560
100
AcDbEntity
  8
0
100
AcDbBlockBegin
  2
block 178
 70
     0
 71
     0
 10
0.0
 20
0.0
 30
0.0
  3
block 178
  1

  0
POLYLINE
  5
564
330
560
100
AcDbEntity
  8
cotas
 62
   253
420
 11382189
370
    25
100
AcDb2dPolyline
 66
     1
 10
0.0
 20
0.0
 30
0.0
  0
VERTEX
  5
565
330
564
100
AcDbEntity
  8
cotas
 62
   253
420
 11382189
370
    25
100
AcDbVertex
100
AcDb2dVertex
 10
109.5724676917909
 20
111.5437513284509
 30
0.0
  0
VERTEX
  5
566
330
564
100
AcDbEntity
  8
cotas
 62
   253
420
 11382189
370
    25
100
AcDbVertex
100
AcDb2dVertex
 10
109.5724676917909
 20
156.9411525757821
 30
0.0
  0
SEQEND
  5
567
330
564
100
AcDbEntity
  8
cotas
370
    25
  0
ENDBLK
  5
563
330
560
100
AcDbEntity
  8
0
100
AcDbBlockEnd
  0
BLOCK
  5
56A
330
568
100
AcDbEntity
  8
0
100
AcDbBlockBegin
  2
block 179
 70
     0
 71
     0
 10
0.0
 20
0.0
 30
0.0
  3
block 179
  1

  0
POLYLINE
  5
56C
330
568
100
AcDbEntity
  8
cotas
 62
   253
420
 11382189
370
    25
100
AcDb2dPolyline
 66
     1
 10
0.0
 20
0.0
 30
0.0
  0
VERTEX
  5
56D
330
56C
100
AcDbEntity
  8
cotas
 62
   253
420
 11382189
370
    25
100
AcDbVertex
100
AcDb2dVertex
 10
73.32541230805754
 20
154.9367960224637
 30
0.0
  0
VERTEX
  5
56E
330
56C
100
AcDbEntity
  8
cotas
 62
   253
420
 11382189
370
    25
100
AcDbVertex
100
AcDb2dVertex
 10
81.74126381420011
 20
154.9367960224637
 30
0.0
  0
SEQEND
  5
56F
330
56C
100
AcDbEntity
  8
cotas
370
    25
  0
ENDBLK
  5
56B
330
568
100
AcDbEntity
  8
0
100
AcDbBlockEnd
  0
BLOCK
  5
572
330
570
100
AcDbEntity
  8
0
100
AcDbBlockBegin
  2
block 180
 70
     0
 71
     0
 10
0.0
 20
0.0
 30
0.0
  3
block 180
  1

  0
POLYLINE
  5
574
330
570
100
AcDbEntity
  8
cotas
 62
   253
420
 11382189
370
    25
100
AcDb2dPolyline
 66
     1
 10
0.0
 20
0.0
 30
0.0
  0
VERTEX
  5
575
330
574
100
AcDbEntity
  8
cotas
 62
   253
420
 11382189
370
    25
100
AcDbVertex
100
AcDb2dVertex
 10
106.7664374190549
 20
154.9367960224637
 30
0.0
  0
VERTEX
  5
576
330
574
100
AcDbEntity
  8
cotas
 62
   253
420
 11382189
370
    25
100
AcDbVertex
100
AcDb2dVertex
 10
98.35075816768662
 20
154.9367960224637
 30
0.0
  0
SEQEND
  5
577
330
574
100
AcDbEntity
  8
cotas
370
    25
  0
ENDBLK
  5
573
330
570
100
AcDbEntity
  8
0
100
AcDbBlockEnd
  0
BLOCK
  5
57A
330
578
100
AcDbEntity
  8
0
100
AcDbBlockBegin
  2
block 181
 70
     0
 71
     0
 10
0.0
 20
0.0
 30
0.0
  3
block 181
  1

  0
POLYLINE
  5
57C
330
578
100
AcDbEntity
  8
cotas
370
     0
100
AcDb2dPolyline
 66
     1
 10
0.0
 20
0.0
 30
0.0
  0
VERTEX
  5
57D
330
57C
100
AcDbEntity
  8
cotas
370
     0
100
AcDbVertex
100
AcDb2dVertex
 10
73.32541230805754
 20
155.4044677345864
 30
0.0
  0
VERTEX
  5
57E
330
57C
100
AcDbEntity
  8
cotas
370
     0
100
AcDbVertex
100
AcDb2dVertex
 10
73.32541230805754
 20
154.4692965651153
 30
0.0
  0
VERTEX
  5
57F
330
57C
100
AcDbEntity
  8
cotas
370
     0
100
AcDbVertex
100
AcDb2dVertex
 10
70.51955429009581
 20
154.9367960224637
 30
0.0
  0
VERTEX
  5
580
330
57C
100
AcDbEntity
  8
cotas
370
     0
100
AcDbVertex
100
AcDb2dVertex
 10
73.32541230805754
 20
155.4044677345864
 30
0.0
  0
SEQEND
  5
581
330
57C
100
AcDbEntity
  8
cotas
370
     0
  0
HATCH
  5
582
330
578
100
AcDbEntity
  8
cotas
 62
   253
420
 11382189
100
AcDbHatch
 10
0.0
 20
0.0
 30
0.0
210
0.0
220
0.0
230
1.0
  2
SOLID
 70
     1
 71
     0
 91
        1
 92
        1
 93
        3
 72
     1
 10
73.32541230805754
 20
155.4044677345864
 11
73.32541230805754
 21
154.4692965651153
 72
     1
 10
73.32541230805754
 20
154.4692965651153
 11
70.51955429009581
 21
154.9367960224637
 72
     1
 10
70.51955429009581
 20
154.9367960224637
 11
73.32541230805754
 21
155.4044677345864
 97
        0
 75
     2
 76
     1
 98
        0
  0
ENDBLK
  5
57B
330
578
100
AcDbEntity
  8
0
100
AcDbBlockEnd
  0
BLOCK
  5
585
330
583
100
AcDbEntity
  8
0
100
AcDbBlockBegin
  2
block 182
 70
     0
 71
     0
 10
0.0
 20
0.0
 30
0.0
  3
block 182
  1

  0
POLYLINE
  5
587
330
583
100
AcDbEntity
  8
cotas
370
     0
100
AcDb2dPolyline
 66
     1
 10
0.0
 20
0.0
 30
0.0
  0
VERTEX
  5
588
330
587
100
AcDbEntity
  8
cotas
370
     0
100
AcDbVertex
100
AcDb2dVertex
 10
106.7664374190549
 20
155.4044677345864
 30
0.0
  0
VERTEX
  5
589
330
587
100
AcDbEntity
  8
cotas
370
     0
100
AcDbVertex
100
AcDb2dVertex
 10
106.7664374190549
 20
154.4692965651153
 30
0.0
  0
VERTEX
  5
58A
330
587
100
AcDbEntity
  8
cotas
370
     0
100
AcDbVertex
100
AcDb2dVertex
 10
109.5724676917909
 20
154.9367960224637
 30
0.0
  0
VERTEX
  5
58B
330
587
100
AcDbEntity
  8
cotas
370
     0
100
AcDbVertex
100
AcDb2dVertex
 10
106.7664374190549
 20
155.4044677345864
 30
0.0
  0
SEQEND
  5
58C
330
587
100
AcDbEntity
  8
cotas
370
     0
  0
HATCH
  5
58D
330
583
100
AcDbEntity
  8
cotas
 62
   253
420
 11382189
100
AcDbHatch
 10
0.0
 20
0.0
 30
0.0
210
0.0
220
0.0
230
1.0
  2
SOLID
 70
     1
 71
     0
 91
        1
 92
        1
 93
        3
 72
     1
 10
106.7664374190549
 20
155.4044677345864
 11
106.7664374190549
 21
154.4692965651153
 72
     1
 10
106.7664374190549
 20
154.4692965651153
 11
109.5724676917909
 21
154.9367960224637
 72
     1
 10
109.5724676917909
 20
154.9367960224637
 11
106.7664374190549
 21
155.4044677345864
 97
        0
 75
     2
 76
     1
 98
        0
  0
ENDBLK
  5
586
330
583
100
AcDbEntity
  8
0
100
AcDbBlockEnd
  0
BLOCK
  5
590
330
58E
100
AcDbEntity
  8
0
100
AcDbBlockBegin
  2
block 183
 70
     0
 71
     0
 10
0.0
 20
0.0
 30
0.0
  3
block 183
  1

  0
MTEXT
  5
592
330
58E
100
AcDbEntity
  8
cotas
 62
   253
420
 11382189
100
AcDbMText
 10
85.4070176652802
 20
151.9697075357923
 30
0.0
 40
6.012793621679311
 41
0.0
 71
     7
 72
     1
  1
\fArial|b0|i0|c0|p34;\W1;90
 73
     1
 44
1.0
  0
ENDBLK
  5
591
330
58E
100
AcDbEntity
  8
0
100
AcDbBlockEnd
  0
BLOCK
  5
595
330
593
100
AcDbEntity
  8
0
100
AcDbBlockBegin
  2
block 184
 70
     0
 71
     0
 10
0.0
 20
0.0
 30
0.0
  3
block 184
  1

  0
POLYLINE
  5
597
330
593
100
AcDbEntity
  8
cotas
 62
   253
420
 11382189
370
    25
100
AcDb2dPolyline
 66
     1
 10
0.0
 20
0.0
 30
0.0
  0
VERTEX
  5
598
330
597
100
AcDbEntity
  8
cotas
 62
   253
420
 11382189
370
    25
100
AcDbVertex
100
AcDb2dVertex
 10
70.51955429009581
 20
146.0319132121899
 30
0.0
  0
VERTEX
  5
599
330
597
100
AcDbEntity
  8
cotas
 62
   253
420
 11382189
370
    25
100
AcDbVertex
100
AcDb2dVertex
 10
70.51955429009581
 20
146.0319132121899
 30
0.0
  0
SEQEND
  5
59A
330
597
100
AcDbEntity
  8
cotas
370
    25
  0
ENDBLK
  5
596
330
593
100
AcDbEntity
  8
0
100
AcDbBlockEnd
  0
BLOCK
  5
59D
330
59B
100
AcDbEntity
  8
0
100
AcDbBlockBegin
  2
block 185
 70
     0
 71
     0
 10
0.0
 20
0.0
 30
0.0
  3
block 185
  1

  0
POLYLINE
  5
59F
330
59B
100
AcDbEntity
  8
cotas
 62
   253
420
 11382189
370
    25
100
AcDb2dPolyline
 66
     1
 10
0.0
 20
0.0
 30
0.0
  0
VERTEX
  5
5A0
330
59F
100
AcDbEntity
  8
cotas
 62
   253
420
 11382189
370
    25
100
AcDbVertex
100
AcDb2dVertex
 10
109.5724676917909
 20
107.5352104765884
 30
0.0
  0
VERTEX
  5
5A1
330
59F
100
AcDbEntity
  8
cotas
 62
   253
420
 11382189
370
    25
100
AcDbVertex
100
AcDb2dVertex
 10
109.5724676917909
 20
107.5352104765884
 30
0.0
  0
SEQEND
  5
5A2
330
59F
100
AcDbEntity
  8
cotas
370
    25
  0
ENDBLK
  5
59E
330
59B
100
AcDbEntity
  8
0
100
AcDbBlockEnd
  0
BLOCK
  5
5A5
330
5A3
100
AcDbEntity
  8
0
100
AcDbBlockBegin
  2
block 186
 70
     0
 71
     0
 10
0.0
 20
0.0
 30
0.0
  3
block 186
  1

  0
POLYLINE
  5
5A7
330
5A3
100
AcDbEntity
  8
cotas
 62
   253
420
 11382189
370
    25
100
AcDb2dPolyline
 66
     1
 10
0.0
 20
0.0
 30
0.0
  0
VERTEX
  5
5A8
330
5A7
100
AcDbEntity
  8
cotas
 62
   253
420
 11382189
370
    25
100
AcDbVertex
100
AcDb2dVertex
 10
109.5724676917909
 20
154.9367960224637
 30
0.0
  0
VERTEX
  5
5A9
330
5A7
100
AcDbEntity
  8
cotas
 62
   253
420
 11382189
370
    25
100
AcDbVertex
100
AcDb2dVertex
 10
109.5724676917909
 20
154.9367960224637
 30
0.0
  0
SEQEND
  5
5AA
330
5A7
100
AcDbEntity
  8
cotas
370
    25
  0
ENDBLK
  5
5A6
330
5A3
100
AcDbEntity
  8
0
100
AcDbBlockEnd
  0
BLOCK
  5
5AD
330
5AB
100
AcDbEntity
  8
0
100
AcDbBlockBegin
  2
block 187
 70
     0
 71
     0
 10
0.0
 20
0.0
 30
0.0
  3
block 187
  1

  0
INSERT
  5
5B0
330
5AB
100
AcDbEntity
  8
cotas
100
AcDbBlockReference
  2
block 188
 10
0.0
 20
0.0
 30
0.0
  0
INSERT
  5
5B8
330
5AB
100
AcDbEntity
  8
cotas
100
AcDbBlockReference
  2
block 189
 10
0.0
 20
0.0
 30
0.0
  0
INSERT
  5
5C0
330
5AB
100
AcDbEntity
  8
cotas
100
AcDbBlockReference
  2
block 190
 10
0.0
 20
0.0
 30
0.0
  0
INSERT
  5
5C8
330
5AB
100
AcDbEntity
  8
cotas
100
AcDbBlockReference
  2
block 191
 10
0.0
 20
0.0
 30
0.0
  0
INSERT
  5
5D0
330
5AB
100
AcDbEntity
  8
cotas
100
AcDbBlockReference
  2
block 192
 10
0.0
 20
0.0
 30
0.0
  0
INSERT
  5
5DB
330
5AB
100
AcDbEntity
  8
cotas
100
AcDbBlockReference
  2
block 193
 10
0.0
 20
0.0
 30
0.0
  0
INSERT
  5
5E6
330
5AB
100
AcDbEntity
  8
cotas
100
AcDbBlockReference
  2
block 194
 10
0.0
 20
0.0
 30
0.0
  0
INSERT
  5
5EB
330
5AB
100
AcDbEntity
  8
cotas
100
AcDbBlockReference
  2
block 195
 10
0.0
 20
0.0
 30
0.0
  0
INSERT
  5
5F3
330
5AB
100
AcDbEntity
  8
cotas
100
AcDbBlockReference
  2
block 196
 10
0.0
 20
0.0
 30
0.0
  0
INSERT
  5
5FB
330
5AB
100
AcDbEntity
  8
cotas
100
AcDbBlockReference
  2
block 197
 10
0.0
 20
0.0
 30
0.0
  0
ENDBLK
  5
5AE
330
5AB
100
AcDbEntity
  8
0
100
AcDbBlockEnd
  0
BLOCK
  5
5B1
330
5AF
100
AcDbEntity
  8
0
100
AcDbBlockBegin
  2
block 188
 70
     0
 71
     0
 10
0.0
 20
0.0
 30
0.0
  3
block 188
  1

  0
POLYLINE
  5
5B3
330
5AF
100
AcDbEntity
  8
cotas
 62
   253
420
 11382189
370
    25
100
AcDb2dPolyline
 66
     1
 10
0.0
 20
0.0
 30
0.0
  0
VERTEX
  5
5B4
330
5B3
100
AcDbEntity
  8
cotas
 62
   253
420
 11382189
370
    25
100
AcDbVertex
100
AcDb2dVertex
 10
58.51391328832291
 20
146.0319132121899
 30
0.0
  0
VERTEX
  5
5B5
330
5B3
100
AcDbEntity
  8
cotas
 62
   253
420
 11382189
370
    25
100
AcDbVertex
100
AcDb2dVertex
 10
30.5426662792567
 20
146.0319132121899
 30
0.0
  0
SEQEND
  5
5B6
330
5B3
100
AcDbEntity
  8
cotas
370
    25
  0
ENDBLK
  5
5B2
330
5AF
100
AcDbEntity
  8
0
100
AcDbBlockEnd
  0
BLOCK
  5
5B9
330
5B7
100
AcDbEntity
  8
0
100
AcDbBlockBegin
  2
block 189
 70
     0
 71
     0
 10
0.0
 20
0.0
 30
0.0
  3
block 189
  1

  0
POLYLINE
  5
5BB
330
5B7
100
AcDbEntity
  8
cotas
 62
   253
420
 11382189
370
    25
100
AcDb2dPolyline
 66
     1
 10
0.0
 20
0.0
 30
0.0
  0
VERTEX
  5
5BC
330
5BB
100
AcDbEntity
  8
cotas
 62
   253
420
 11382189
370
    25
100
AcDbVertex
100
AcDb2dVertex
 10
56.22912596250522
 20
72.45931530306574
 30
0.0
  0
VERTEX
  5
5BD
330
5BB
100
AcDbEntity
  8
cotas
 62
   253
420
 11382189
370
    25
100
AcDbVertex
100
AcDb2dVertex
 10
30.5426662792567
 20
72.45931530306574
 30
0.0
  0
SEQEND
  5
5BE
330
5BB
100
AcDbEntity
  8
cotas
370
    25
  0
ENDBLK
  5
5BA
330
5B7
100
AcDbEntity
  8
0
100
AcDbBlockEnd
  0
BLOCK
  5
5C1
330
5BF
100
AcDbEntity
  8
0
100
AcDbBlockBegin
  2
block 190
 70
     0
 71
     0
 10
0.0
 20
0.0
 30
0.0
  3
block 190
  1

  0
POLYLINE
  5
5C3
330
5BF
100
AcDbEntity
  8
cotas
 62
   253
420
 11382189
370
    25
100
AcDb2dPolyline
 66
     1
 10
0.0
 20
0.0
 30
0.0
  0
VERTEX
  5
5C4
330
5C3
100
AcDbEntity
  8
cotas
 62
   253
420
 11382189
370
    25
100
AcDbVertex
100
AcDb2dVertex
 10
32.54702283257505
 20
143.225882939454
 30
0.0
  0
VERTEX
  5
5C5
330
5C3
100
AcDbEntity
  8
cotas
 62
   253
420
 11382189
370
    25
100
AcDbVertex
100
AcDb2dVertex
 10
32.54702283257505
 20
116.3241658237835
 30
0.0
  0
SEQEND
  5
5C6
330
5C3
100
AcDbEntity
  8
cotas
370
    25
  0
ENDBLK
  5
5C2
330
5BF
100
AcDbEntity
  8
0
100
AcDbBlockEnd
  0
BLOCK
  5
5C9
330
5C7
100
AcDbEntity
  8
0
100
AcDbBlockBegin
  2
block 191
 70
     0
 71
     0
 10
0.0
 20
0.0
 30
0.0
  3
block 191
  1

  0
POLYLINE
  5
5CB
330
5C7
100
AcDbEntity
  8
cotas
 62
   253
420
 11382189
370
    25
100
AcDb2dPolyline
 66
     1
 10
0.0
 20
0.0
 30
0.0
  0
VERTEX
  5
5CC
330
5CB
100
AcDbEntity
  8
cotas
 62
   253
420
 11382189
370
    25
100
AcDbVertex
100
AcDb2dVertex
 10
32.54702283257505
 20
75.26569008535024
 30
0.0
  0
VERTEX
  5
5CD
330
5CB
100
AcDbEntity
  8
cotas
 62
   253
420
 11382189
370
    25
100
AcDbVertex
100
AcDb2dVertex
 10
32.54702283257505
 20
102.1670626914721
 30
0.0
  0
SEQEND
  5
5CE
330
5CB
100
AcDbEntity
  8
cotas
370
    25
  0
ENDBLK
  5
5CA
330
5C7
100
AcDbEntity
  8
0
100
AcDbBlockEnd
  0
BLOCK
  5
5D1
330
5CF
100
AcDbEntity
  8
0
100
AcDbBlockBegin
  2
block 192
 70
     0
 71
     0
 10
0.0
 20
0.0
 30
0.0
  3
block 192
  1

  0
POLYLINE
  5
5D3
330
5CF
100
AcDbEntity
  8
cotas
370
     0
100
AcDb2dPolyline
 66
     1
 10
0.0
 20
0.0
 30
0.0
  0
VERTEX
  5
5D4
330
5D3
100
AcDbEntity
  8
cotas
370
     0
100
AcDbVertex
100
AcDb2dVertex
 10
32.07917886567812
 20
143.225882939454
 30
0.0
  0
VERTEX
  5
5D5
330
5D3
100
AcDbEntity
  8
cotas
370
     0
100
AcDbVertex
100
AcDb2dVertex
 10
33.01452228992346
 20
143.225882939454
 30
0.0
  0
VERTEX
  5
5D6
330
5D3
100
AcDbEntity
  8
cotas
370
     0
100
AcDbVertex
100
AcDb2dVertex
 10
32.54702283257505
 20
146.0319132121899
 30
0.0
  0
VERTEX
  5
5D7
330
5D3
100
AcDbEntity
  8
cotas
370
     0
100
AcDbVertex
100
AcDb2dVertex
 10
32.07917886567812
 20
143.225882939454
 30
0.0
  0
SEQEND
  5
5D8
330
5D3
100
AcDbEntity
  8
cotas
370
     0
  0
HATCH
  5
5D9
330
5CF
100
AcDbEntity
  8
cotas
 62
   253
420
 11382189
100
AcDbHatch
 10
0.0
 20
0.0
 30
0.0
210
0.0
220
0.0
230
1.0
  2
SOLID
 70
     1
 71
     0
 91
        1
 92
        1
 93
        3
 72
     1
 10
32.07917886567812
 20
143.225882939454
 11
33.01452228992346
 21
143.225882939454
 72
     1
 10
33.01452228992346
 20
143.225882939454
 11
32.54702283257505
 21
146.0319132121899
 72
     1
 10
32.54702283257505
 20
146.0319132121899
 11
32.07917886567812
 21
143.225882939454
 97
        0
 75
     2
 76
     1
 98
        0
  0
ENDBLK
  5
5D2
330
5CF
100
AcDbEntity
  8
0
100
AcDbBlockEnd
  0
BLOCK
  5
5DC
330
5DA
100
AcDbEntity
  8
0
100
AcDbBlockBegin
  2
block 193
 70
     0
 71
     0
 10
0.0
 20
0.0
 30
0.0
  3
block 193
  1

  0
POLYLINE
  5
5DE
330
5DA
100
AcDbEntity
  8
cotas
370
     0
100
AcDb2dPolyline
 66
     1
 10
0.0
 20
0.0
 30
0.0
  0
VERTEX
  5
5DF
330
5DE
100
AcDbEntity
  8
cotas
370
     0
100
AcDbVertex
100
AcDb2dVertex
 10
32.07917886567812
 20
75.26569008535024
 30
0.0
  0
VERTEX
  5
5E0
330
5DE
100
AcDbEntity
  8
cotas
370
     0
100
AcDbVertex
100
AcDb2dVertex
 10
33.01452228992346
 20
75.26569008535024
 30
0.0
  0
VERTEX
  5
5E1
330
5DE
100
AcDbEntity
  8
cotas
370
     0
100
AcDbVertex
100
AcDb2dVertex
 10
32.54702283257505
 20
72.45931530306574
 30
0.0
  0
VERTEX
  5
5E2
330
5DE
100
AcDbEntity
  8
cotas
370
     0
100
AcDbVertex
100
AcDb2dVertex
 10
32.07917886567812
 20
75.26569008535024
 30
0.0
  0
SEQEND
  5
5E3
330
5DE
100
AcDbEntity
  8
cotas
370
     0
  0
HATCH
  5
5E4
330
5DA
100
AcDbEntity
  8
cotas
 62
   253
420
 11382189
100
AcDbHatch
 10
0.0
 20
0.0
 30
0.0
210
0.0
220
0.0
230
1.0
  2
SOLID
 70
     1
 71
     0
 91
        1
 92
        1
 93
        3
 72
     1
 10
32.07917886567812
 20
75.26569008535024
 11
33.01452228992346
 21
75.26569008535024
 72
     1
 10
33.01452228992346
 20
75.26569008535024
 11
32.54702283257505
 21
72.45931530306574
 72
     1
 10
32.54702283257505
 20
72.45931530306574
 11
32.07917886567812
 21
75.26569008535024
 97
        0
 75
     2
 76
     1
 98
        0
  0
ENDBLK
  5
5DD
330
5DA
100
AcDbEntity
  8
0
100
AcDbBlockEnd
  0
BLOCK
  5
5E7
330
5E5
100
AcDbEntity
  8
0
100
AcDbBlockBegin
  2
block 194
 70
     0
 71
     0
 10
0.0
 20
0.0
 30
0.0
  3
block 194
  1

  0
MTEXT
  5
5E9
330
5E5
100
AcDbEntity
  8
cotas
 62
   253
420
 11382189
100
AcDbMText
 10
25.29251301451021
 20
106.278267388795
 30
0.0
 40
6.012793621679311
 41
0.0
 71
     7
 72
     1
  1
\fArial|b0|i0|c0|p34;\W1;160
 73
     1
 44
1.0
  0
ENDBLK
  5
5E8
330
5E5
100
AcDbEntity
  8
0
100
AcDbBlockEnd
  0
BLOCK
  5
5EC
330
5EA
100
AcDbEntity
  8
0
100
AcDbBlockBegin
  2
block 195
 70
     0
 71
     0
 10
0.0
 20
0.0
 30
0.0
  3
block 195
  1

  0
POLYLINE
  5
5EE
330
5EA
100
AcDbEntity
  8
cotas
 62
   253
420
 11382189
370
    25
100
AcDb2dPolyline
 66
     1
 10
0.0
 20
0.0
 30
0.0
  0
VERTEX
  5
5EF
330
5EE
100
AcDbEntity
  8
cotas
 62
   253
420
 11382189
370
    25
100
AcDbVertex
100
AcDb2dVertex
 10
62.52245414018536
 20
146.0319132121899
 30
0.0
  0
VERTEX
  5
5F0
330
5EE
100
AcDbEntity
  8
cotas
 62
   253
420
 11382189
370
    25
100
AcDbVertex
100
AcDb2dVertex
 10
62.52245414018536
 20
146.0319132121899
 30
0.0
  0
SEQEND
  5
5F1
330
5EE
100
AcDbEntity
  8
cotas
370
    25
  0
ENDBLK
  5
5ED
330
5EA
100
AcDbEntity
  8
0
100
AcDbBlockEnd
  0
BLOCK
  5
5F4
330
5F2
100
AcDbEntity
  8
0
100
AcDbBlockBegin
  2
block 196
 70
     0
 71
     0
 10
0.0
 20
0.0
 30
0.0
  3
block 196
  1

  0
POLYLINE
  5
5F6
330
5F2
100
AcDbEntity
  8
cotas
 62
   253
420
 11382189
370
    25
100
AcDb2dPolyline
 66
     1
 10
0.0
 20
0.0
 30
0.0
  0
VERTEX
  5
5F7
330
5F6
100
AcDbEntity
  8
cotas
 62
   253
420
 11382189
370
    25
100
AcDbVertex
100
AcDb2dVertex
 10
60.23766681436767
 20
72.45931530306574
 30
0.0
  0
VERTEX
  5
5F8
330
5F6
100
AcDbEntity
  8
cotas
 62
   253
420
 11382189
370
    25
100
AcDbVertex
100
AcDb2dVertex
 10
60.23766681436767
 20
72.45931530306574
 30
0.0
  0
SEQEND
  5
5F9
330
5F6
100
AcDbEntity
  8
cotas
370
    25
  0
ENDBLK
  5
5F5
330
5F2
100
AcDbEntity
  8
0
100
AcDbBlockEnd
  0
BLOCK
  5
5FC
330
5FA
100
AcDbEntity
  8
0
100
AcDbBlockBegin
  2
block 197
 70
     0
 71
     0
 10
0.0
 20
0.0
 30
0.0
  3
block 197
  1

  0
POLYLINE
  5
5FE
330
5FA
100
AcDbEntity
  8
cotas
 62
   253
420
 11382189
370
    25
100
AcDb2dPolyline
 66
     1
 10
0.0
 20
0.0
 30
0.0
  0
VERTEX
  5
5FF
330
5FE
100
AcDbEntity
  8
cotas
 62
   253
420
 11382189
370
    25
100
AcDbVertex
100
AcDb2dVertex
 10
32.54702283257505
 20
72.45931530306574
 30
0.0
  0
VERTEX
  5
600
330
5FE
100
AcDbEntity
  8
cotas
 62
   253
420
 11382189
370
    25
100
AcDbVertex
100
AcDb2dVertex
 10
32.54702283257505
 20
72.45931530306574
 30
0.0
  0
SEQEND
  5
601
330
5FE
100
AcDbEntity
  8
cotas
370
    25
  0
ENDBLK
  5
5FD
330
5FA
100
AcDbEntity
  8
0
100
AcDbBlockEnd
  0
BLOCK
  5
604
330
602
100
AcDbEntity
  8
0
100
AcDbBlockBegin
  2
block 198
 70
     0
 71
     0
 10
0.0
 20
0.0
 30
0.0
  3
block 198
  1

  0
INSERT
  5
607
330
602
100
AcDbEntity
  8
cotas
100
AcDbBlockReference
  2
block 199
 10
0.0
 20
0.0
 30
0.0
  0
INSERT
  5
60F
330
602
100
AcDbEntity
  8
cotas
100
AcDbBlockReference
  2
block 200
 10
0.0
 20
0.0
 30
0.0
  0
INSERT
  5
617
330
602
100
AcDbEntity
  8
cotas
100
AcDbBlockReference
  2
block 201
 10
0.0
 20
0.0
 30
0.0
  0
INSERT
  5
61C
330
602
100
AcDbEntity
  8
cotas
100
AcDbBlockReference
  2
block 202
 10
0.0
 20
0.0
 30
0.0
  0
INSERT
  5
621
330
602
100
AcDbEntity
  8
cotas
100
AcDbBlockReference
  2
block 203
 10
0.0
 20
0.0
 30
0.0
  0
INSERT
  5
626
330
602
100
AcDbEntity
  8
cotas
100
AcDbBlockReference
  2
block 204
 10
0.0
 20
0.0
 30
0.0
  0
INSERT
  5
631
330
602
100
AcDbEntity
  8
cotas
100
AcDbBlockReference
  2
block 205
 10
0.0
 20
0.0
 30
0.0
  0
INSERT
  5
63C
330
602
100
AcDbEntity
  8
cotas
100
AcDbBlockReference
  2
block 206
 10
0.0
 20
0.0
 30
0.0
  0
INSERT
  5
641
330
602
100
AcDbEntity
  8
cotas
100
AcDbBlockReference
  2
block 207
 10
0.0
 20
0.0
 30
0.0
  0
INSERT
  5
649
330
602
100
AcDbEntity
  8
cotas
100
AcDbBlockReference
  2
block 208
 10
0.0
 20
0.0
 30
0.0
  0
INSERT
  5
651
330
602
100
AcDbEntity
  8
cotas
100
AcDbBlockReference
  2
block 209
 10
0.0
 20
0.0
 30
0.0
  0
INSERT
  5
659
330
602
100
AcDbEntity
  8
cotas
100
AcDbBlockReference
  2
block 210
 10
0.0
 20
0.0
 30
0.0
  0
INSERT
  5
661
330
602
100
AcDbEntity
  8
cotas
100
AcDbBlockReference
  2
block 211
 10
0.0
 20
0.0
 30
0.0
  0
ENDBLK
  5
605
330
602
100
AcDbEntity
  8
0
100
AcDbBlockEnd
  0
BLOCK
  5
608
330
606
100
AcDbEntity
  8
0
100
AcDbBlockBegin
  2
block 199
 70
     0
 71
     0
 10
0.0
 20
0.0
 30
0.0
  3
block 199
  1

  0
POLYLINE
  5
60A
330
606
100
AcDbEntity
  8
cotas
 62
   253
420
 11382189
370
    25
100
AcDb2dPolyline
 66
     1
 10
0.0
 20
0.0
 30
0.0
  0
VERTEX
  5
60B
330
60A
100
AcDbEntity
  8
cotas
 62
   253
420
 11382189
370
    25
100
AcDbVertex
100
AcDb2dVertex
 10
121.1218057965425
 20
109.5376722273899
 30
0.0
  0
VERTEX
  5
60C
330
60A
100
AcDbEntity
  8
cotas
 62
   253
420
 11382189
370
    25
100
AcDbVertex
100
AcDb2dVertex
 10
136.6268025374579
 20
109.5376722273899
 30
0.0
  0
SEQEND
  5
60D
330
60A
100
AcDbEntity
  8
cotas
370
    25
  0
ENDBLK
  5
609
330
606
100
AcDbEntity
  8
0
100
AcDbBlockEnd
  0
BLOCK
  5
610
330
60E
100
AcDbEntity
  8
0
100
AcDbBlockBegin
  2
block 200
 70
     0
 71
     0
 10
0.0
 20
0.0
 30
0.0
  3
block 200
  1

  0
POLYLINE
  5
612
330
60E
100
AcDbEntity
  8
cotas
 62
   253
420
 11382189
370
    25
100
AcDb2dPolyline
 66
     1
 10
0.0
 20
0.0
 30
0.0
  0
VERTEX
  5
613
330
612
100
AcDbEntity
  8
cotas
 62
   253
420
 11382189
370
    25
100
AcDbVertex
100
AcDb2dVertex
 10
121.0156968555968
 20
111.1296508511238
 30
0.0
  0
VERTEX
  5
614
330
612
100
AcDbEntity
  8
cotas
 62
   253
420
 11382189
370
    25
100
AcDbVertex
100
AcDb2dVertex
 10
135.8923081800026
 20
115.1157985823322
 30
0.0
  0
SEQEND
  5
615
330
612
100
AcDbEntity
  8
cotas
370
    25
  0
ENDBLK
  5
611
330
60E
100
AcDbEntity
  8
0
100
AcDbBlockEnd
  0
BLOCK
  5
618
330
616
100
AcDbEntity
  8
0
100
AcDbBlockBegin
  2
block 201
 70
     0
 71
     0
 10
0.0
 20
0.0
 30
0.0
  3
block 201
  1

  0
SPLINE
  5
61A
330
616
100
AcDbEntity
  8
cotas
 62
   253
420
 11382189
370
    25
100
AcDbSpline
210
0.0
220
0.0
230
1.0
 70
     8
 71
     3
 72
     8
 73
     4
 74
     0
 42
0.0000000001
 43
0.0000000001
 40
0.0
 40
0.0
 40
0.0
 40
0.0
 40
1.0
 40
1.0
 40
1.0
 40
1.0
 10
133.8211167742704
 20
103.9977864323339
 30
0.0
 10
134.0867336361832
 20
104.8959228253385
 30
0.0
 10
134.2872381934247
 20
105.8121459696407
 30
0.0
 10
134.4212524078009
 20
106.7388766551729
 30
0.0
  0
ENDBLK
  5
619
330
616
100
AcDbEntity
  8
0
100
AcDbBlockEnd
  0
BLOCK
  5
61D
330
61B
100
AcDbEntity
  8
0
100
AcDbBlockBegin
  2
block 202
 70
     0
 71
     0
 10
0.0
 20
0.0
 30
0.0
  3
block 202
  1

  0
SPLINE
  5
61F
330
61B
100
AcDbEntity
  8
cotas
 62
   253
420
 11382189
370
    25
100
AcDbSpline
210
0.0
220
0.0
230
1.0
 70
     8
 71
     3
 72
     8
 73
     4
 74
     0
 42
0.0000000001
 43
0.0000000001
 40
0.0
 40
0.0
 40
0.0
 40
0.0
 40
1.0
 40
1.0
 40
1.0
 40
1.0
 10
133.0377020609246
 20
117.2483126877018
 30
0.0
 10
132.6683878249058
 20
118.1090697946915
 30
0.0
 10
132.2374063797011
 20
118.9419216282506
 30
0.0
 10
131.7488918398927
 20
119.7408392712801
 30
0.0
  0
ENDBLK
  5
61E
330
61B
100
AcDbEntity
  8
0
100
AcDbBlockEnd
  0
BLOCK
  5
622
330
620
100
AcDbEntity
  8
0
100
AcDbBlockBegin
  2
block 203
 70
     0
 71
     0
 10
0.0
 20
0.0
 30
0.0
  3
block 203
  1

  0
SPLINE
  5
624
330
620
100
AcDbEntity
  8
cotas
 62
   253
420
 11382189
370
    25
100
AcDbSpline
210
0.0
220
0.0
230
1.0
 70
     8
 71
     3
 72
     8
 73
     4
 74
     0
 42
0.0000000001
 43
0.0000000001
 40
0.0
 40
0.0
 40
0.0
 40
0.0
 40
1.0
 40
1.0
 40
1.0
 40
1.0
 10
134.6227904936881
 20
109.5376722273899
 30
0.0
 10
134.6227904936881
 20
111.245922823751
 30
0.0
 10
134.3988592871468
 20
112.9469387195931
 30
0.0
 10
133.9565090268407
 20
114.5971394570278
 30
0.0
  0
ENDBLK
  5
623
330
620
100
AcDbEntity
  8
0
100
AcDbBlockEnd
  0
BLOCK
  5
627
330
625
100
AcDbEntity
  8
0
100
AcDbBlockBegin
  2
block 204
 70
     0
 71
     0
 10
0.0
 20
0.0
 30
0.0
  3
block 204
  1

  0
POLYLINE
  5
629
330
625
100
AcDbEntity
  8
cotas
370
     0
100
AcDb2dPolyline
 66
     1
 10
0.0
 20
0.0
 30
0.0
  0
VERTEX
  5
62A
330
629
100
AcDbEntity
  8
cotas
370
     0
100
AcDbVertex
100
AcDb2dVertex
 10
133.9547864790981
 20
106.7724663361541
 30
0.0
  0
VERTEX
  5
62B
330
629
100
AcDbEntity
  8
cotas
370
     0
100
AcDbVertex
100
AcDb2dVertex
 10
134.8877183365038
 20
106.7052869741917
 30
0.0
  0
VERTEX
  5
62C
330
629
100
AcDbEntity
  8
cotas
370
     0
100
AcDbVertex
100
AcDb2dVertex
 10
134.6227904936881
 20
109.5376722273899
 30
0.0
  0
VERTEX
  5
62D
330
629
100
AcDbEntity
  8
cotas
370
     0
100
AcDbVertex
100
AcDb2dVertex
 10
133.9547864790981
 20
106.7724663361541
 30
0.0
  0
SEQEND
  5
62E
330
629
100
AcDbEntity
  8
cotas
370
     0
  0
HATCH
  5
62F
330
625
100
AcDbEntity
  8
cotas
 62
   253
420
 11382189
100
AcDbHatch
 10
0.0
 20
0.0
 30
0.0
210
0.0
220
0.0
230
1.0
  2
SOLID
 70
     1
 71
     0
 91
        1
 92
        1
 93
        3
 72
     1
 10
133.9547864790981
 20
106.7724663361541
 11
134.8877183365038
 21
106.7052869741917
 72
     1
 10
134.8877183365038
 20
106.7052869741917
 11
134.6227904936881
 21
109.5376722273899
 72
     1
 10
134.6227904936881
 20
109.5376722273899
 11
133.9547864790981
 21
106.7724663361541
 97
        0
 75
     2
 76
     1
 98
        0
  0
ENDBLK
  5
628
330
625
100
AcDbEntity
  8
0
100
AcDbBlockEnd
  0
BLOCK
  5
632
330
630
100
AcDbEntity
  8
0
100
AcDbBlockBegin
  2
block 205
 70
     0
 71
     0
 10
0.0
 20
0.0
 30
0.0
  3
block 205
  1

  0
POLYLINE
  5
634
330
630
100
AcDbEntity
  8
cotas
370
     0
100
AcDb2dPolyline
 66
     1
 10
0.0
 20
0.0
 30
0.0
  0
VERTEX
  5
635
330
634
100
AcDbEntity
  8
cotas
370
     0
100
AcDbVertex
100
AcDb2dVertex
 10
133.4793633021336
 20
117.4016194367954
 30
0.0
  0
VERTEX
  5
636
330
634
100
AcDbEntity
  8
cotas
370
     0
100
AcDbVertex
100
AcDb2dVertex
 10
132.5956963101671
 20
117.0951781933825
 30
0.0
  0
VERTEX
  5
637
330
634
100
AcDbEntity
  8
cotas
370
     0
100
AcDbVertex
100
AcDb2dVertex
 10
133.9565090268407
 20
114.5971394570278
 30
0.0
  0
VERTEX
  5
638
330
634
100
AcDbEntity
  8
cotas
370
     0
100
AcDbVertex
100
AcDb2dVertex
 10
133.4793633021336
 20
117.4016194367954
 30
0.0
  0
SEQEND
  5
639
330
634
100
AcDbEntity
  8
cotas
370
     0
  0
HATCH
  5
63A
330
630
100
AcDbEntity
  8
cotas
 62
   253
420
 11382189
100
AcDbHatch
 10
0.0
 20
0.0
 30
0.0
210
0.0
220
0.0
230
1.0
  2
SOLID
 70
     1
 71
     0
 91
        1
 92
        1
 93
        3
 72
     1
 10
133.4793633021336
 20
117.4016194367954
 11
132.5956963101671
 21
117.0951781933825
 72
     1
 10
132.5956963101671
 20
117.0951781933825
 11
133.9565090268407
 21
114.5971394570278
 72
     1
 10
133.9565090268407
 20
114.5971394570278
 11
133.4793633021336
 21
117.4016194367954
 97
        0
 75
     2
 76
     1
 98
        0
  0
ENDBLK
  5
633
330
630
100
AcDbEntity
  8
0
100
AcDbBlockEnd
  0
BLOCK
  5
63D
330
63B
100
AcDbEntity
  8
0
100
AcDbBlockBegin
  2
block 206
 70
     0
 71
     0
 10
0.0
 20
0.0
 30
0.0
  3
block 206
  1

  0
MTEXT
  5
63F
330
63B
100
AcDbEntity
  8
cotas
 62
   253
420
 11382189
100
AcDbMText
 10
123.0576049497044
 20
119.6366251328513
 30
0.0
 40
6.012793621679311
 41
0.0
 71
     7
 72
     1
  1
\fArial|b0|i0|c0|p34;\W1;15°
 11
0.9999999847691298
 21
0.0001745329200509578
 31
0.0
 73
     1
 44
1.0
  0
ENDBLK
  5
63E
330
63B
100
AcDbEntity
  8
0
100
AcDbBlockEnd
  0
BLOCK
  5
642
330
640
100
AcDbEntity
  8
0
100
AcDbBlockBegin
  2
block 207
 70
     0
 71
     0
 10
0.0
 20
0.0
 30
0.0
  3
block 207
  1

  0
POLYLINE
  5
644
330
640
100
AcDbEntity
  8
cotas
 62
   253
420
 11382189
370
    25
100
AcDb2dPolyline
 66
     1
 10
0.0
 20
0.0
 30
0.0
  0
VERTEX
  5
645
330
644
100
AcDbEntity
  8
cotas
 62
   253
420
 11382189
370
    25
100
AcDbVertex
100
AcDb2dVertex
 10
134.5483764312067
 20
111.2414441996202
 30
0.0
  0
VERTEX
  5
646
330
644
100
AcDbEntity
  8
cotas
 62
   253
420
 11382189
370
    25
100
AcDbVertex
100
AcDb2dVertex
 10
134.5483764312067
 20
111.2414441996202
 30
0.0
  0
SEQEND
  5
647
330
644
100
AcDbEntity
  8
cotas
370
    25
  0
ENDBLK
  5
643
330
640
100
AcDbEntity
  8
0
100
AcDbBlockEnd
  0
BLOCK
  5
64A
330
648
100
AcDbEntity
  8
0
100
AcDbBlockBegin
  2
block 208
 70
     0
 71
     0
 10
0.0
 20
0.0
 30
0.0
  3
block 208
  1

  0
POLYLINE
  5
64C
330
648
100
AcDbEntity
  8
cotas
 62
   253
420
 11382189
370
    25
100
AcDb2dPolyline
 66
     1
 10
0.0
 20
0.0
 30
0.0
  0
VERTEX
  5
64D
330
64C
100
AcDbEntity
  8
cotas
 62
   253
420
 11382189
370
    25
100
AcDbVertex
100
AcDb2dVertex
 10
115.0742851817349
 20
109.5376722273899
 30
0.0
  0
VERTEX
  5
64E
330
64C
100
AcDbEntity
  8
cotas
 62
   253
420
 11382189
370
    25
100
AcDbVertex
100
AcDb2dVertex
 10
115.0742851817349
 20
109.5376722273899
 30
0.0
  0
SEQEND
  5
64F
330
64C
100
AcDbEntity
  8
cotas
370
    25
  0
ENDBLK
  5
64B
330
648
100
AcDbEntity
  8
0
100
AcDbBlockEnd
  0
BLOCK
  5
652
330
650
100
AcDbEntity
  8
0
100
AcDbBlockBegin
  2
block 209
 70
     0
 71
     0
 10
0.0
 20
0.0
 30
0.0
  3
block 209
  1

  0
POLYLINE
  5
654
330
650
100
AcDbEntity
  8
cotas
 62
   253
420
 11382189
370
    25
100
AcDb2dPolyline
 66
     1
 10
0.0
 20
0.0
 30
0.0
  0
VERTEX
  5
655
330
654
100
AcDbEntity
  8
cotas
 62
   253
420
 11382189
370
    25
100
AcDbVertex
100
AcDb2dVertex
 10
115.0742851817349
 20
109.5376722273899
 30
0.0
  0
VERTEX
  5
656
330
654
100
AcDbEntity
  8
cotas
 62
   253
420
 11382189
370
    25
100
AcDbVertex
100
AcDb2dVertex
 10
115.0742851817349
 20
109.5376722273899
 30
0.0
  0
SEQEND
  5
657
330
654
100
AcDbEntity
  8
cotas
370
    25
  0
ENDBLK
  5
653
330
650
100
AcDbEntity
  8
0
100
AcDbBlockEnd
  0
BLOCK
  5
65A
330
658
100
AcDbEntity
  8
0
100
AcDbBlockBegin
  2
block 210
 70
     0
 71
     0
 10
0.0
 20
0.0
 30
0.0
  3
block 210
  1

  0
POLYLINE
  5
65C
330
658
100
AcDbEntity
  8
cotas
 62
   253
420
 11382189
370
    25
100
AcDb2dPolyline
 66
     1
 10
0.0
 20
0.0
 30
0.0
  0
VERTEX
  5
65D
330
65C
100
AcDbEntity
  8
cotas
 62
   253
420
 11382189
370
    25
100
AcDbVertex
100
AcDb2dVertex
 10
117.1130926899058
 20
109.5376722273899
 30
0.0
  0
VERTEX
  5
65E
330
65C
100
AcDbEntity
  8
cotas
 62
   253
420
 11382189
370
    25
100
AcDbVertex
100
AcDb2dVertex
 10
117.1130926899058
 20
109.5376722273899
 30
0.0
  0
SEQEND
  5
65F
330
65C
100
AcDbEntity
  8
cotas
370
    25
  0
ENDBLK
  5
65B
330
658
100
AcDbEntity
  8
0
100
AcDbBlockEnd
  0
BLOCK
  5
662
330
660
100
AcDbEntity
  8
0
100
AcDbBlockBegin
  2
block 211
 70
     0
 71
     0
 10
0.0
 20
0.0
 30
0.0
  3
block 211
  1

  0
POLYLINE
  5
664
330
660
100
AcDbEntity
  8
cotas
 62
   253
420
 11382189
370
    25
100
AcDb2dPolyline
 66
     1
 10
0.0
 20
0.0
 30
0.0
  0
VERTEX
  5
665
330
664
100
AcDbEntity
  8
cotas
 62
   253
420
 11382189
370
    25
100
AcDbVertex
100
AcDb2dVertex
 10
117.143409530176
 20
110.0921603457409
 30
0.0
  0
VERTEX
  5
666
330
664
100
AcDbEntity
  8
cotas
 62
   253
420
 11382189
370
    25
100
AcDbVertex
100
AcDb2dVertex
 10
117.143409530176
 20
110.0921603457409
 30
0.0
  0
SEQEND
  5
667
330
664
100
AcDbEntity
  8
cotas
370
    25
  0
ENDBLK
  5
663
330
660
100
AcDbEntity
  8
0
100
AcDbBlockEnd
  0
BLOCK
  5
66A
330
668
100
AcDbEntity
  8
0
100
AcDbBlockBegin
  2
block 212
 70
     0
 71
     0
 10
0.0
 20
0.0
 30
0.0
  3
block 212
  1

  0
INSERT
  5
66D
330
668
100
AcDbEntity
  8
cotas
100
AcDbBlockReference
  2
block 213
 10
0.0
 20
0.0
 30
0.0
  0
INSERT
  5
675
330
668
100
AcDbEntity
  8
cotas
100
AcDbBlockReference
  2
block 214
 10
0.0
 20
0.0
 30
0.0
  0
INSERT
  5
67D
330
668
100
AcDbEntity
  8
cotas
100
AcDbBlockReference
  2
block 215
 10
0.0
 20
0.0
 30
0.0
  0
INSERT
  5
685
330
668
100
AcDbEntity
  8
cotas
100
AcDbBlockReference
  2
block 216
 10
0.0
 20
0.0
 30
0.0
  0
INSERT
  5
68D
330
668
100
AcDbEntity
  8
cotas
100
AcDbBlockReference
  2
block 217
 10
0.0
 20
0.0
 30
0.0
  0
INSERT
  5
695
330
668
100
AcDbEntity
  8
cotas
100
AcDbBlockReference
  2
block 218
 10
0.0
 20
0.0
 30
0.0
  0
INSERT
  5
6A0
330
668
100
AcDbEntity
  8
cotas
100
AcDbBlockReference
  2
block 219
 10
0.0
 20
0.0
 30
0.0
  0
INSERT
  5
6AB
330
668
100
AcDbEntity
  8
cotas
100
AcDbBlockReference
  2
block 220
 10
0.0
 20
0.0
 30
0.0
  0
INSERT
  5
6B0
330
668
100
AcDbEntity
  8
cotas
100
AcDbBlockReference
  2
block 221
 10
0.0
 20
0.0
 30
0.0
  0
INSERT
  5
6B8
330
668
100
AcDbEntity
  8
cotas
100
AcDbBlockReference
  2
block 222
 10
0.0
 20
0.0
 30
0.0
  0
INSERT
  5
6C0
330
668
100
AcDbEntity
  8
cotas
100
AcDbBlockReference
  2
block 223
 10
0.0
 20
0.0
 30
0.0
  0
ENDBLK
  5
66B
330
668
100
AcDbEntity
  8
0
100
AcDbBlockEnd
  0
BLOCK
  5
66E
330
66C
100
AcDbEntity
  8
0
100
AcDbBlockBegin
  2
block 213
 70
     0
 71
     0
 10
0.0
 20
0.0
 30
0.0
  3
block 213
  1

  0
POLYLINE
  5
670
330
66C
100
AcDbEntity
  8
cotas
 62
   253
420
 11382189
370
    25
100
AcDb2dPolyline
 66
     1
 10
0.0
 20
0.0
 30
0.0
  0
VERTEX
  5
671
330
670
100
AcDbEntity
  8
cotas
 62
   253
420
 11382189
370
    25
100
AcDbVertex
100
AcDb2dVertex
 10
69.8141709894909
 20
26.58580185967299
 30
0.0
  0
VERTEX
  5
672
330
670
100
AcDbEntity
  8
cotas
 62
   253
420
 11382189
370
    25
100
AcDbVertex
100
AcDb2dVertex
 10
69.8141709894909
 20
17.88486870212601
 30
0.0
  0
SEQEND
  5
673
330
670
100
AcDbEntity
  8
cotas
370
    25
  0
ENDBLK
  5
66F
330
66C
100
AcDbEntity
  8
0
100
AcDbBlockEnd
  0
BLOCK
  5
676
330
674
100
AcDbEntity
  8
0
100
AcDbBlockBegin
  2
block 214
 70
     0
 71
     0
 10
0.0
 20
0.0
 30
0.0
  3
block 214
  1

  0
POLYLINE
  5
678
330
674
100
AcDbEntity
  8
cotas
 62
   253
420
 11382189
370
    25
100
AcDb2dPolyline
 66
     1
 10
0.0
 20
0.0
 30
0.0
  0
VERTEX
  5
679
330
678
100
AcDbEntity
  8
cotas
 62
   253
420
 11382189
370
    25
100
AcDbVertex
100
AcDb2dVertex
 10
76.49179956855066
 20
26.58511284057595
 30
0.0
  0
VERTEX
  5
67A
330
678
100
AcDbEntity
  8
cotas
 62
   253
420
 11382189
370
    25
100
AcDbVertex
100
AcDb2dVertex
 10
76.49179956855066
 20
17.88486870212601
 30
0.0
  0
SEQEND
  5
67B
330
678
100
AcDbEntity
  8
cotas
370
    25
  0
ENDBLK
  5
677
330
674
100
AcDbEntity
  8
0
100
AcDbBlockEnd
  0
BLOCK
  5
67E
330
67C
100
AcDbEntity
  8
0
100
AcDbBlockBegin
  2
block 215
 70
     0
 71
     0
 10
0.0
 20
0.0
 30
0.0
  3
block 215
  1

  0
POLYLINE
  5
680
330
67C
100
AcDbEntity
  8
cotas
 62
   253
420
 11382189
370
    25
100
AcDb2dPolyline
 66
     1
 10
0.0
 20
0.0
 30
0.0
  0
VERTEX
  5
681
330
680
100
AcDbEntity
  8
cotas
 62
   253
420
 11382189
370
    25
100
AcDbVertex
100
AcDb2dVertex
 10
67.00814071675491
 20
19.88922525544436
 30
0.0
  0
VERTEX
  5
682
330
680
100
AcDbEntity
  8
cotas
 62
   253
420
 11382189
370
    25
100
AcDbVertex
100
AcDb2dVertex
 10
64.20228269879318
 20
19.88922525544436
 30
0.0
  0
SEQEND
  5
683
330
680
100
AcDbEntity
  8
cotas
370
    25
  0
ENDBLK
  5
67F
330
67C
100
AcDbEntity
  8
0
100
AcDbBlockEnd
  0
BLOCK
  5
686
330
684
100
AcDbEntity
  8
0
100
AcDbBlockBegin
  2
block 216
 70
     0
 71
     0
 10
0.0
 20
0.0
 30
0.0
  3
block 216
  1

  0
POLYLINE
  5
688
330
684
100
AcDbEntity
  8
cotas
 62
   253
420
 11382189
370
    25
100
AcDb2dPolyline
 66
     1
 10
0.0
 20
0.0
 30
0.0
  0
VERTEX
  5
689
330
688
100
AcDbEntity
  8
cotas
 62
   253
420
 11382189
370
    25
100
AcDbVertex
100
AcDb2dVertex
 10
79.29800209606093
 20
19.88922525544436
 30
0.0
  0
VERTEX
  5
68A
330
688
100
AcDbEntity
  8
cotas
 62
   253
420
 11382189
370
    25
100
AcDbVertex
100
AcDb2dVertex
 10
82.10368785924838
 20
19.88922525544436
 30
0.0
  0
SEQEND
  5
68B
330
688
100
AcDbEntity
  8
cotas
370
    25
  0
ENDBLK
  5
687
330
684
100
AcDbEntity
  8
0
100
AcDbBlockEnd
  0
BLOCK
  5
68E
330
68C
100
AcDbEntity
  8
0
100
AcDbBlockBegin
  2
block 217
 70
     0
 71
     0
 10
0.0
 20
0.0
 30
0.0
  3
block 217
  1

  0
POLYLINE
  5
690
330
68C
100
AcDbEntity
  8
cotas
 62
   253
420
 11382189
370
    25
100
AcDb2dPolyline
 66
     1
 10
0.0
 20
0.0
 30
0.0
  0
VERTEX
  5
691
330
690
100
AcDbEntity
  8
cotas
 62
   253
420
 11382189
370
    25
100
AcDbVertex
100
AcDb2dVertex
 10
69.8141709894909
 20
19.88922525544436
 30
0.0
  0
VERTEX
  5
692
330
690
100
AcDbEntity
  8
cotas
 62
   253
420
 11382189
370
    25
100
AcDbVertex
100
AcDb2dVertex
 10
76.49179956855066
 20
19.88922525544436
 30
0.0
  0
SEQEND
  5
693
330
690
100
AcDbEntity
  8
cotas
370
    25
  0
ENDBLK
  5
68F
330
68C
100
AcDbEntity
  8
0
100
AcDbBlockEnd
  0
BLOCK
  5
696
330
694
100
AcDbEntity
  8
0
100
AcDbBlockBegin
  2
block 218
 70
     0
 71
     0
 10
0.0
 20
0.0
 30
0.0
  3
block 218
  1

  0
POLYLINE
  5
698
330
694
100
AcDbEntity
  8
cotas
370
     0
100
AcDb2dPolyline
 66
     1
 10
0.0
 20
0.0
 30
0.0
  0
VERTEX
  5
699
330
698
100
AcDbEntity
  8
cotas
370
     0
100
AcDbVertex
100
AcDb2dVertex
 10
67.00814071675491
 20
20.35706922234129
 30
0.0
  0
VERTEX
  5
69A
330
698
100
AcDbEntity
  8
cotas
370
     0
100
AcDbVertex
100
AcDb2dVertex
 10
67.00814071675491
 20
19.42207030764448
 30
0.0
  0
VERTEX
  5
69B
330
698
100
AcDbEntity
  8
cotas
370
     0
100
AcDbVertex
100
AcDb2dVertex
 10
69.8141709894909
 20
19.88922525544436
 30
0.0
  0
VERTEX
  5
69C
330
698
100
AcDbEntity
  8
cotas
370
     0
100
AcDbVertex
100
AcDb2dVertex
 10
67.00814071675491
 20
20.35706922234129
 30
0.0
  0
SEQEND
  5
69D
330
698
100
AcDbEntity
  8
cotas
370
     0
  0
HATCH
  5
69E
330
694
100
AcDbEntity
  8
cotas
 62
   253
420
 11382189
100
AcDbHatch
 10
0.0
 20
0.0
 30
0.0
210
0.0
220
0.0
230
1.0
  2
SOLID
 70
     1
 71
     0
 91
        1
 92
        1
 93
        3
 72
     1
 10
67.00814071675491
 20
20.35706922234129
 11
67.00814071675491
 21
19.42207030764448
 72
     1
 10
67.00814071675491
 20
19.42207030764448
 11
69.8141709894909
 21
19.88922525544436
 72
     1
 10
69.8141709894909
 20
19.88922525544436
 11
67.00814071675491
 21
20.35706922234129
 97
        0
 75
     2
 76
     1
 98
        0
  0
ENDBLK
  5
697
330
694
100
AcDbEntity
  8
0
100
AcDbBlockEnd
  0
BLOCK
  5
6A1
330
69F
100
AcDbEntity
  8
0
100
AcDbBlockBegin
  2
block 219
 70
     0
 71
     0
 10
0.0
 20
0.0
 30
0.0
  3
block 219
  1

  0
POLYLINE
  5
6A3
330
69F
100
AcDbEntity
  8
cotas
370
     0
100
AcDb2dPolyline
 66
     1
 10
0.0
 20
0.0
 30
0.0
  0
VERTEX
  5
6A4
330
6A3
100
AcDbEntity
  8
cotas
370
     0
100
AcDbVertex
100
AcDb2dVertex
 10
79.29800209606093
 20
20.35706922234129
 30
0.0
  0
VERTEX
  5
6A5
330
6A3
100
AcDbEntity
  8
cotas
370
     0
100
AcDbVertex
100
AcDb2dVertex
 10
79.29800209606093
 20
19.42207030764448
 30
0.0
  0
VERTEX
  5
6A6
330
6A3
100
AcDbEntity
  8
cotas
370
     0
100
AcDbVertex
100
AcDb2dVertex
 10
76.49179956855066
 20
19.88922525544436
 30
0.0
  0
VERTEX
  5
6A7
330
6A3
100
AcDbEntity
  8
cotas
370
     0
100
AcDbVertex
100
AcDb2dVertex
 10
79.29800209606093
 20
20.35706922234129
 30
0.0
  0
SEQEND
  5
6A8
330
6A3
100
AcDbEntity
  8
cotas
370
     0
  0
HATCH
  5
6A9
330
69F
100
AcDbEntity
  8
cotas
 62
   253
420
 11382189
100
AcDbHatch
 10
0.0
 20
0.0
 30
0.0
210
0.0
220
0.0
230
1.0
  2
SOLID
 70
     1
 71
     0
 91
        1
 92
        1
 93
        3
 72
     1
 10
79.29800209606093
 20
20.35706922234129
 11
79.29800209606093
 21
19.42207030764448
 72
     1
 10
79.29800209606093
 20
19.42207030764448
 11
76.49179956855066
 21
19.88922525544436
 72
     1
 10
76.49179956855066
 20
19.88922525544436
 11
79.29800209606093
 21
20.35706922234129
 97
        0
 75
     2
 76
     1
 98
        0
  0
ENDBLK
  5
6A2
330
69F
100
AcDbEntity
  8
0
100
AcDbBlockEnd
  0
BLOCK
  5
6AC
330
6AA
100
AcDbEntity
  8
0
100
AcDbBlockBegin
  2
block 220
 70
     0
 71
     0
 10
0.0
 20
0.0
 30
0.0
  3
block 220
  1

  0
MTEXT
  5
6AE
330
6AA
100
AcDbEntity
  8
cotas
 62
   253
420
 11382189
100
AcDbMText
 10
85.4616224287214
 20
16.88579101140355
 30
0.0
 40
6.012793621679311
 41
0.0
 71
     7
 72
     1
  1
\fArial|b0|i0|c0|p34;\W1;R 3/8"
 73
     1
 44
1.0
  0
ENDBLK
  5
6AD
330
6AA
100
AcDbEntity
  8
0
100
AcDbBlockEnd
  0
BLOCK
  5
6B1
330
6AF
100
AcDbEntity
  8
0
100
AcDbBlockBegin
  2
block 221
 70
     0
 71
     0
 10
0.0
 20
0.0
 30
0.0
  3
block 221
  1

  0
POLYLINE
  5
6B3
330
6AF
100
AcDbEntity
  8
cotas
 62
   253
420
 11382189
370
    25
100
AcDb2dPolyline
 66
     1
 10
0.0
 20
0.0
 30
0.0
  0
VERTEX
  5
6B4
330
6B3
100
AcDbEntity
  8
cotas
 62
   253
420
 11382189
370
    25
100
AcDbVertex
100
AcDb2dVertex
 10
69.8141709894909
 20
30.59451496630971
 30
0.0
  0
VERTEX
  5
6B5
330
6B3
100
AcDbEntity
  8
cotas
 62
   253
420
 11382189
370
    25
100
AcDbVertex
100
AcDb2dVertex
 10
69.8141709894909
 20
30.59451496630971
 30
0.0
  0
SEQEND
  5
6B6
330
6B3
100
AcDbEntity
  8
cotas
370
    25
  0
ENDBLK
  5
6B2
330
6AF
100
AcDbEntity
  8
0
100
AcDbBlockEnd
  0
BLOCK
  5
6B9
330
6B7
100
AcDbEntity
  8
0
100
AcDbBlockBegin
  2
block 222
 70
     0
 71
     0
 10
0.0
 20
0.0
 30
0.0
  3
block 222
  1

  0
POLYLINE
  5
6BB
330
6B7
100
AcDbEntity
  8
cotas
 62
   253
420
 11382189
370
    25
100
AcDb2dPolyline
 66
     1
 10
0.0
 20
0.0
 30
0.0
  0
VERTEX
  5
6BC
330
6BB
100
AcDbEntity
  8
cotas
 62
   253
420
 11382189
370
    25
100
AcDbVertex
100
AcDb2dVertex
 10
76.49179956855066
 20
30.59382594721266
 30
0.0
  0
VERTEX
  5
6BD
330
6BB
100
AcDbEntity
  8
cotas
 62
   253
420
 11382189
370
    25
100
AcDbVertex
100
AcDb2dVertex
 10
76.49179956855066
 20
30.59382594721266
 30
0.0
  0
SEQEND
  5
6BE
330
6BB
100
AcDbEntity
  8
cotas
370
    25
  0
ENDBLK
  5
6BA
330
6B7
100
AcDbEntity
  8
0
100
AcDbBlockEnd
  0
BLOCK
  5
6C1
330
6BF
100
AcDbEntity
  8
0
100
AcDbBlockBegin
  2
block 223
 70
     0
 71
     0
 10
0.0
 20
0.0
 30
0.0
  3
block 223
  1

  0
POLYLINE
  5
6C3
330
6BF
100
AcDbEntity
  8
cotas
 62
   253
420
 11382189
370
    25
100
AcDb2dPolyline
 66
     1
 10
0.0
 20
0.0
 30
0.0
  0
VERTEX
  5
6C4
330
6C3
100
AcDbEntity
  8
cotas
 62
   253
420
 11382189
370
    25
100
AcDbVertex
100
AcDb2dVertex
 10
76.49179956855066
 20
19.88922525544436
 30
0.0
  0
VERTEX
  5
6C5
330
6C3
100
AcDbEntity
  8
cotas
 62
   253
420
 11382189
370
    25
100
AcDbVertex
100
AcDb2dVertex
 10
76.49179956855066
 20
19.88922525544436
 30
0.0
  0
SEQEND
  5
6C6
330
6C3
100
AcDbEntity
  8
cotas
370
    25
  0
ENDBLK
  5
6C2
330
6BF
100
AcDbEntity
  8
0
100
AcDbBlockEnd
  0
BLOCK
  5
6C9
330
6C7
100
AcDbEntity
  8
0
100
AcDbBlockBegin
  2
block 224
 70
     0
 71
     0
 10
0.0
 20
0.0
 30
0.0
  3
block 224
  1

  0
INSERT
  5
6CC
330
6C7
100
AcDbEntity
  8
cotas
100
AcDbBlockReference
  2
block 225
 10
0.0
 20
0.0
 30
0.0
  0
INSERT
  5
6D4
330
6C7
100
AcDbEntity
  8
cotas
100
AcDbBlockReference
  2
block 226
 10
0.0
 20
0.0
 30
0.0
  0
INSERT
  5
6DC
330
6C7
100
AcDbEntity
  8
cotas
100
AcDbBlockReference
  2
block 227
 10
0.0
 20
0.0
 30
0.0
  0
INSERT
  5
6E4
330
6C7
100
AcDbEntity
  8
cotas
100
AcDbBlockReference
  2
block 228
 10
0.0
 20
0.0
 30
0.0
  0
INSERT
  5
6EC
330
6C7
100
AcDbEntity
  8
cotas
100
AcDbBlockReference
  2
block 229
 10
0.0
 20
0.0
 30
0.0
  0
INSERT
  5
6F4
330
6C7
100
AcDbEntity
  8
cotas
100
AcDbBlockReference
  2
block 230
 10
0.0
 20
0.0
 30
0.0
  0
INSERT
  5
6FC
330
6C7
100
AcDbEntity
  8
cotas
100
AcDbBlockReference
  2
block 231
 10
0.0
 20
0.0
 30
0.0
  0
INSERT
  5
707
330
6C7
100
AcDbEntity
  8
cotas
100
AcDbBlockReference
  2
block 232
 10
0.0
 20
0.0
 30
0.0
  0
INSERT
  5
712
330
6C7
100
AcDbEntity
  8
cotas
100
AcDbBlockReference
  2
block 233
 10
0.0
 20
0.0
 30
0.0
  0
INSERT
  5
717
330
6C7
100
AcDbEntity
  8
cotas
100
AcDbBlockReference
  2
block 234
 10
0.0
 20
0.0
 30
0.0
  0
INSERT
  5
71F
330
6C7
100
AcDbEntity
  8
cotas
100
AcDbBlockReference
  2
block 235
 10
0.0
 20
0.0
 30
0.0
  0
INSERT
  5
727
330
6C7
100
AcDbEntity
  8
cotas
100
AcDbBlockReference
  2
block 236
 10
0.0
 20
0.0
 30
0.0
  0
ENDBLK
  5
6CA
330
6C7
100
AcDbEntity
  8
0
100
AcDbBlockEnd
  0
BLOCK
  5
6CD
330
6CB
100
AcDbEntity
  8
0
100
AcDbBlockBegin
  2
block 225
 70
     0
 71
     0
 10
0.0
 20
0.0
 30
0.0
  3
block 225
  1

  0
POLYLINE
  5
6CF
330
6CB
100
AcDbEntity
  8
cotas
 62
   253
420
 11382189
370
    25
100
AcDb2dPolyline
 66
     1
 10
0.0
 20
0.0
 30
0.0
  0
VERTEX
  5
6D0
330
6CF
100
AcDbEntity
  8
cotas
 62
   253
420
 11382189
370
    25
100
AcDbVertex
100
AcDb2dVertex
 10
84.80981036291213
 20
72.45931530306574
 30
0.0
  0
VERTEX
  5
6D1
330
6CF
100
AcDbEntity
  8
cotas
 62
   253
420
 11382189
370
    25
100
AcDbVertex
100
AcDb2dVertex
 10
127.2371947924095
 20
72.45931530306574
 30
0.0
  0
SEQEND
  5
6D2
330
6CF
100
AcDbEntity
  8
cotas
370
    25
  0
ENDBLK
  5
6CE
330
6CB
100
AcDbEntity
  8
0
100
AcDbBlockEnd
  0
BLOCK
  5
6D5
330
6D3
100
AcDbEntity
  8
0
100
AcDbBlockBegin
  2
block 226
 70
     0
 71
     0
 10
0.0
 20
0.0
 30
0.0
  3
block 226
  1

  0
POLYLINE
  5
6D7
330
6D3
100
AcDbEntity
  8
cotas
 62
   253
420
 11382189
370
    25
100
AcDb2dPolyline
 66
     1
 10
0.0
 20
0.0
 30
0.0
  0
VERTEX
  5
6D8
330
6D7
100
AcDbEntity
  8
cotas
 62
   253
420
 11382189
370
    25
100
AcDbVertex
100
AcDb2dVertex
 10
86.10103215078378
 20
66.10655922826503
 30
0.0
  0
VERTEX
  5
6D9
330
6D7
100
AcDbEntity
  8
cotas
 62
   253
420
 11382189
370
    25
100
AcDbVertex
100
AcDb2dVertex
 10
127.2371947924095
 20
66.10655922826503
 30
0.0
  0
SEQEND
  5
6DA
330
6D7
100
AcDbEntity
  8
cotas
370
    25
  0
ENDBLK
  5
6D6
330
6D3
100
AcDbEntity
  8
0
100
AcDbBlockEnd
  0
BLOCK
  5
6DD
330
6DB
100
AcDbEntity
  8
0
100
AcDbBlockBegin
  2
block 227
 70
     0
 71
     0
 10
0.0
 20
0.0
 30
0.0
  3
block 227
  1

  0
POLYLINE
  5
6DF
330
6DB
100
AcDbEntity
  8
cotas
 62
   253
420
 11382189
370
    25
100
AcDb2dPolyline
 66
     1
 10
0.0
 20
0.0
 30
0.0
  0
VERTEX
  5
6E0
330
6DF
100
AcDbEntity
  8
cotas
 62
   253
420
 11382189
370
    25
100
AcDbVertex
100
AcDb2dVertex
 10
125.2328382390911
 20
75.26569008535024
 30
0.0
  0
VERTEX
  5
6E1
330
6DF
100
AcDbEntity
  8
cotas
 62
   253
420
 11382189
370
    25
100
AcDbVertex
100
AcDb2dVertex
 10
125.2328382390911
 20
78.07137584853771
 30
0.0
  0
SEQEND
  5
6E2
330
6DF
100
AcDbEntity
  8
cotas
370
    25
  0
ENDBLK
  5
6DE
330
6DB
100
AcDbEntity
  8
0
100
AcDbBlockEnd
  0
BLOCK
  5
6E5
330
6E3
100
AcDbEntity
  8
0
100
AcDbBlockBegin
  2
block 228
 70
     0
 71
     0
 10
0.0
 20
0.0
 30
0.0
  3
block 228
  1

  0
POLYLINE
  5
6E7
330
6E3
100
AcDbEntity
  8
cotas
 62
   253
420
 11382189
370
    25
100
AcDb2dPolyline
 66
     1
 10
0.0
 20
0.0
 30
0.0
  0
VERTEX
  5
6E8
330
6E7
100
AcDbEntity
  8
cotas
 62
   253
420
 11382189
370
    25
100
AcDbVertex
100
AcDb2dVertex
 10
125.2328382390911
 20
63.30087346507757
 30
0.0
  0
VERTEX
  5
6E9
330
6E7
100
AcDbEntity
  8
cotas
 62
   253
420
 11382189
370
    25
100
AcDbVertex
100
AcDb2dVertex
 10
125.2328382390911
 20
60.49449868279304
 30
0.0
  0
SEQEND
  5
6EA
330
6E7
100
AcDbEntity
  8
cotas
370
    25
  0
ENDBLK
  5
6E6
330
6E3
100
AcDbEntity
  8
0
100
AcDbBlockEnd
  0
BLOCK
  5
6ED
330
6EB
100
AcDbEntity
  8
0
100
AcDbBlockBegin
  2
block 229
 70
     0
 71
     0
 10
0.0
 20
0.0
 30
0.0
  3
block 229
  1

  0
POLYLINE
  5
6EF
330
6EB
100
AcDbEntity
  8
cotas
 62
   253
420
 11382189
370
    25
100
AcDb2dPolyline
 66
     1
 10
0.0
 20
0.0
 30
0.0
  0
VERTEX
  5
6F0
330
6EF
100
AcDbEntity
  8
cotas
 62
   253
420
 11382189
370
    25
100
AcDbVertex
100
AcDb2dVertex
 10
125.2328382390911
 20
60.49449868279304
 30
0.0
  0
VERTEX
  5
6F1
330
6EF
100
AcDbEntity
  8
cotas
 62
   253
420
 11382189
370
    25
100
AcDbVertex
100
AcDb2dVertex
 10
122.4268079663551
 20
60.49449868279304
 30
0.0
  0
SEQEND
  5
6F2
330
6EF
100
AcDbEntity
  8
cotas
370
    25
  0
ENDBLK
  5
6EE
330
6EB
100
AcDbEntity
  8
0
100
AcDbBlockEnd
  0
BLOCK
  5
6F5
330
6F3
100
AcDbEntity
  8
0
100
AcDbBlockBegin
  2
block 230
 70
     0
 71
     0
 10
0.0
 20
0.0
 30
0.0
  3
block 230
  1

  0
POLYLINE
  5
6F7
330
6F3
100
AcDbEntity
  8
cotas
 62
   253
420
 11382189
370
    25
100
AcDb2dPolyline
 66
     1
 10
0.0
 20
0.0
 30
0.0
  0
VERTEX
  5
6F8
330
6F7
100
AcDbEntity
  8
cotas
 62
   253
420
 11382189
370
    25
100
AcDbVertex
100
AcDb2dVertex
 10
125.2328382390911
 20
72.45931530306574
 30
0.0
  0
VERTEX
  5
6F9
330
6F7
100
AcDbEntity
  8
cotas
 62
   253
420
 11382189
370
    25
100
AcDbVertex
100
AcDb2dVertex
 10
125.2328382390911
 20
66.10655922826503
 30
0.0
  0
SEQEND
  5
6FA
330
6F7
100
AcDbEntity
  8
cotas
370
    25
  0
ENDBLK
  5
6F6
330
6F3
100
AcDbEntity
  8
0
100
AcDbBlockEnd
  0
BLOCK
  5
6FD
330
6FB
100
AcDbEntity
  8
0
100
AcDbBlockBegin
  2
block 231
 70
     0
 71
     0
 10
0.0
 20
0.0
 30
0.0
  3
block 231
  1

  0
POLYLINE
  5
6FF
330
6FB
100
AcDbEntity
  8
cotas
370
     0
100
AcDb2dPolyline
 66
     1
 10
0.0
 20
0.0
 30
0.0
  0
VERTEX
  5
700
330
6FF
100
AcDbEntity
  8
cotas
370
     0
100
AcDbVertex
100
AcDb2dVertex
 10
124.7653387817427
 20
75.26569008535024
 30
0.0
  0
VERTEX
  5
701
330
6FF
100
AcDbEntity
  8
cotas
370
     0
100
AcDbVertex
100
AcDb2dVertex
 10
125.700682205988
 20
75.26569008535024
 30
0.0
  0
VERTEX
  5
702
330
6FF
100
AcDbEntity
  8
cotas
370
     0
100
AcDbVertex
100
AcDb2dVertex
 10
125.2328382390911
 20
72.45931530306574
 30
0.0
  0
VERTEX
  5
703
330
6FF
100
AcDbEntity
  8
cotas
370
     0
100
AcDbVertex
100
AcDb2dVertex
 10
124.7653387817427
 20
75.26569008535024
 30
0.0
  0
SEQEND
  5
704
330
6FF
100
AcDbEntity
  8
cotas
370
     0
  0
HATCH
  5
705
330
6FB
100
AcDbEntity
  8
cotas
 62
   253
420
 11382189
100
AcDbHatch
 10
0.0
 20
0.0
 30
0.0
210
0.0
220
0.0
230
1.0
  2
SOLID
 70
     1
 71
     0
 91
        1
 92
        1
 93
        3
 72
     1
 10
124.7653387817427
 20
75.26569008535024
 11
125.700682205988
 21
75.26569008535024
 72
     1
 10
125.700682205988
 20
75.26569008535024
 11
125.2328382390911
 21
72.45931530306574
 72
     1
 10
125.2328382390911
 20
72.45931530306574
 11
124.7653387817427
 21
75.26569008535024
 97
        0
 75
     2
 76
     1
 98
        0
  0
ENDBLK
  5
6FE
330
6FB
100
AcDbEntity
  8
0
100
AcDbBlockEnd
  0
BLOCK
  5
708
330
706
100
AcDbEntity
  8
0
100
AcDbBlockBegin
  2
block 232
 70
     0
 71
     0
 10
0.0
 20
0.0
 30
0.0
  3
block 232
  1

  0
POLYLINE
  5
70A
330
706
100
AcDbEntity
  8
cotas
370
     0
100
AcDb2dPolyline
 66
     1
 10
0.0
 20
0.0
 30
0.0
  0
VERTEX
  5
70B
330
70A
100
AcDbEntity
  8
cotas
370
     0
100
AcDbVertex
100
AcDb2dVertex
 10
124.7653387817427
 20
63.30087346507757
 30
0.0
  0
VERTEX
  5
70C
330
70A
100
AcDbEntity
  8
cotas
370
     0
100
AcDbVertex
100
AcDb2dVertex
 10
125.700682205988
 20
63.30087346507757
 30
0.0
  0
VERTEX
  5
70D
330
70A
100
AcDbEntity
  8
cotas
370
     0
100
AcDbVertex
100
AcDb2dVertex
 10
125.2328382390911
 20
66.10655922826503
 30
0.0
  0
VERTEX
  5
70E
330
70A
100
AcDbEntity
  8
cotas
370
     0
100
AcDbVertex
100
AcDb2dVertex
 10
124.7653387817427
 20
63.30087346507757
 30
0.0
  0
SEQEND
  5
70F
330
70A
100
AcDbEntity
  8
cotas
370
     0
  0
HATCH
  5
710
330
706
100
AcDbEntity
  8
cotas
 62
   253
420
 11382189
100
AcDbHatch
 10
0.0
 20
0.0
 30
0.0
210
0.0
220
0.0
230
1.0
  2
SOLID
 70
     1
 71
     0
 91
        1
 92
        1
 93
        3
 72
     1
 10
124.7653387817427
 20
63.30087346507757
 11
125.700682205988
 21
63.30087346507757
 72
     1
 10
125.700682205988
 20
63.30087346507757
 11
125.2328382390911
 21
66.10655922826503
 72
     1
 10
125.2328382390911
 20
66.10655922826503
 11
124.7653387817427
 21
63.30087346507757
 97
        0
 75
     2
 76
     1
 98
        0
  0
ENDBLK
  5
709
330
706
100
AcDbEntity
  8
0
100
AcDbBlockEnd
  0
BLOCK
  5
713
330
711
100
AcDbEntity
  8
0
100
AcDbBlockBegin
  2
block 233
 70
     0
 71
     0
 10
0.0
 20
0.0
 30
0.0
  3
block 233
  1

  0
MTEXT
  5
715
330
711
100
AcDbEntity
  8
cotas
 62
   253
420
 11382189
100
AcDbMText
 10
91.22268335393045
 20
57.53653969915754
 30
0.0
 40
6.012793621679311
 41
0.0
 71
     7
 72
     1
  1
\fArial|b0|i0|c0|p34;\W1;max.45
 11
0.9999999847691298
 21
0.0001745329200509578
 31
0.0
 73
     1
 44
1.0
  0
ENDBLK
  5
714
330
711
100
AcDbEntity
  8
0
100
AcDbBlockEnd
  0
BLOCK
  5
718
330
716
100
AcDbEntity
  8
0
100
AcDbBlockBegin
  2
block 234
 70
     0
 71
     0
 10
0.0
 20
0.0
 30
0.0
  3
block 234
  1

  0
POLYLINE
  5
71A
330
716
100
AcDbEntity
  8
cotas
 62
   253
420
 11382189
370
    25
100
AcDb2dPolyline
 66
     1
 10
0.0
 20
0.0
 30
0.0
  0
VERTEX
  5
71B
330
71A
100
AcDbEntity
  8
cotas
 62
   253
420
 11382189
370
    25
100
AcDbVertex
100
AcDb2dVertex
 10
80.80144176582395
 20
72.45931530306574
 30
0.0
  0
VERTEX
  5
71C
330
71A
100
AcDbEntity
  8
cotas
 62
   253
420
 11382189
370
    25
100
AcDbVertex
100
AcDb2dVertex
 10
80.80144176582395
 20
72.45931530306574
 30
0.0
  0
SEQEND
  5
71D
330
71A
100
AcDbEntity
  8
cotas
370
    25
  0
ENDBLK
  5
719
330
716
100
AcDbEntity
  8
0
100
AcDbBlockEnd
  0
BLOCK
  5
720
330
71E
100
AcDbEntity
  8
0
100
AcDbBlockBegin
  2
block 235
 70
     0
 71
     0
 10
0.0
 20
0.0
 30
0.0
  3
block 235
  1

  0
POLYLINE
  5
722
330
71E
100
AcDbEntity
  8
cotas
 62
   253
420
 11382189
370
    25
100
AcDb2dPolyline
 66
     1
 10
0.0
 20
0.0
 30
0.0
  0
VERTEX
  5
723
330
722
100
AcDbEntity
  8
cotas
 62
   253
420
 11382189
370
    25
100
AcDbVertex
100
AcDb2dVertex
 10
82.09231904414706
 20
66.10655922826503
 30
0.0
  0
VERTEX
  5
724
330
722
100
AcDbEntity
  8
cotas
 62
   253
420
 11382189
370
    25
100
AcDbVertex
100
AcDb2dVertex
 10
82.09231904414706
 20
66.10655922826503
 30
0.0
  0
SEQEND
  5
725
330
722
100
AcDbEntity
  8
cotas
370
    25
  0
ENDBLK
  5
721
330
71E
100
AcDbEntity
  8
0
100
AcDbBlockEnd
  0
BLOCK
  5
728
330
726
100
AcDbEntity
  8
0
100
AcDbBlockBegin
  2
block 236
 70
     0
 71
     0
 10
0.0
 20
0.0
 30
0.0
  3
block 236
  1

  0
POLYLINE
  5
72A
330
726
100
AcDbEntity
  8
cotas
 62
   253
420
 11382189
370
    25
100
AcDb2dPolyline
 66
     1
 10
0.0
 20
0.0
 30
0.0
  0
VERTEX
  5
72B
330
72A
100
AcDbEntity
  8
cotas
 62
   253
420
 11382189
370
    25
100
AcDbVertex
100
AcDb2dVertex
 10
125.2328382390911
 20
66.10655922826503
 30
0.0
  0
VERTEX
  5
72C
330
72A
100
AcDbEntity
  8
cotas
 62
   253
420
 11382189
370
    25
100
AcDbVertex
100
AcDb2dVertex
 10
125.2328382390911
 20
66.10655922826503
 30
0.0
  0
SEQEND
  5
72D
330
72A
100
AcDbEntity
  8
cotas
370
    25
  0
ENDBLK
  5
729
330
726
100
AcDbEntity
  8
0
100
AcDbBlockEnd
  0
BLOCK
  5
730
330
72E
100
AcDbEntity
  8
0
100
AcDbBlockBegin
  2
block 237
 70
     0
 71
     0
 10
0.0
 20
0.0
 30
0.0
  3
block 237
  1

  0
INSERT
  5
733
330
72E
100
AcDbEntity
  8
cotas
100
AcDbBlockReference
  2
block 238
 10
0.0
 20
0.0
 30
0.0
  0
INSERT
  5
73B
330
72E
100
AcDbEntity
  8
cotas
100
AcDbBlockReference
  2
block 239
 10
0.0
 20
0.0
 30
0.0
  0
INSERT
  5
743
330
72E
100
AcDbEntity
  8
cotas
100
AcDbBlockReference
  2
block 240
 10
0.0
 20
0.0
 30
0.0
  0
INSERT
  5
74B
330
72E
100
AcDbEntity
  8
cotas
100
AcDbBlockReference
  2
block 241
 10
0.0
 20
0.0
 30
0.0
  0
INSERT
  5
753
330
72E
100
AcDbEntity
  8
cotas
100
AcDbBlockReference
  2
block 242
 10
0.0
 20
0.0
 30
0.0
  0
INSERT
  5
75E
330
72E
100
AcDbEntity
  8
cotas
100
AcDbBlockReference
  2
block 243
 10
0.0
 20
0.0
 30
0.0
  0
INSERT
  5
769
330
72E
100
AcDbEntity
  8
cotas
100
AcDbBlockReference
  2
block 244
 10
0.0
 20
0.0
 30
0.0
  0
INSERT
  5
76E
330
72E
100
AcDbEntity
  8
cotas
100
AcDbBlockReference
  2
block 245
 10
0.0
 20
0.0
 30
0.0
  0
INSERT
  5
776
330
72E
100
AcDbEntity
  8
cotas
100
AcDbBlockReference
  2
block 246
 10
0.0
 20
0.0
 30
0.0
  0
INSERT
  5
77E
330
72E
100
AcDbEntity
  8
cotas
100
AcDbBlockReference
  2
block 247
 10
0.0
 20
0.0
 30
0.0
  0
ENDBLK
  5
731
330
72E
100
AcDbEntity
  8
0
100
AcDbBlockEnd
  0
BLOCK
  5
734
330
732
100
AcDbEntity
  8
0
100
AcDbBlockBegin
  2
block 238
 70
     0
 71
     0
 10
0.0
 20
0.0
 30
0.0
  3
block 238
  1

  0
POLYLINE
  5
736
330
732
100
AcDbEntity
  8
cotas
 62
   253
420
 11382189
370
    25
100
AcDb2dPolyline
 66
     1
 10
0.0
 20
0.0
 30
0.0
  0
VERTEX
  5
737
330
736
100
AcDbEntity
  8
cotas
 62
   253
420
 11382189
370
    25
100
AcDbVertex
100
AcDb2dVertex
 10
56.22912596250522
 20
72.45931530306574
 30
0.0
  0
VERTEX
  5
738
330
736
100
AcDbEntity
  8
cotas
 62
   253
420
 11382189
370
    25
100
AcDbVertex
100
AcDb2dVertex
 10
30.5426662792567
 20
72.45931530306574
 30
0.0
  0
SEQEND
  5
739
330
736
100
AcDbEntity
  8
cotas
370
    25
  0
ENDBLK
  5
735
330
732
100
AcDbEntity
  8
0
100
AcDbBlockEnd
  0
BLOCK
  5
73C
330
73A
100
AcDbEntity
  8
0
100
AcDbBlockBegin
  2
block 239
 70
     0
 71
     0
 10
0.0
 20
0.0
 30
0.0
  3
block 239
  1

  0
POLYLINE
  5
73E
330
73A
100
AcDbEntity
  8
cotas
 62
   253
420
 11382189
370
    25
100
AcDb2dPolyline
 66
     1
 10
0.0
 20
0.0
 30
0.0
  0
VERTEX
  5
73F
330
73E
100
AcDbEntity
  8
cotas
 62
   253
420
 11382189
370
    25
100
AcDbVertex
100
AcDb2dVertex
 10
65.80563013762846
 20
30.59451496630971
 30
0.0
  0
VERTEX
  5
740
330
73E
100
AcDbEntity
  8
cotas
 62
   253
420
 11382189
370
    25
100
AcDbVertex
100
AcDb2dVertex
 10
30.5426662792567
 20
30.59451496630971
 30
0.0
  0
SEQEND
  5
741
330
73E
100
AcDbEntity
  8
cotas
370
    25
  0
ENDBLK
  5
73D
330
73A
100
AcDbEntity
  8
0
100
AcDbBlockEnd
  0
BLOCK
  5
744
330
742
100
AcDbEntity
  8
0
100
AcDbBlockBegin
  2
block 240
 70
     0
 71
     0
 10
0.0
 20
0.0
 30
0.0
  3
block 240
  1

  0
POLYLINE
  5
746
330
742
100
AcDbEntity
  8
cotas
 62
   253
420
 11382189
370
    25
100
AcDb2dPolyline
 66
     1
 10
0.0
 20
0.0
 30
0.0
  0
VERTEX
  5
747
330
746
100
AcDbEntity
  8
cotas
 62
   253
420
 11382189
370
    25
100
AcDbVertex
100
AcDb2dVertex
 10
32.54702283257505
 20
69.65362953987827
 30
0.0
  0
VERTEX
  5
748
330
746
100
AcDbEntity
  8
cotas
 62
   253
420
 11382189
370
    25
100
AcDbVertex
100
AcDb2dVertex
 10
32.54702283257505
 20
58.60727537597318
 30
0.0
  0
SEQEND
  5
749
330
746
100
AcDbEntity
  8
cotas
370
    25
  0
ENDBLK
  5
745
330
742
100
AcDbEntity
  8
0
100
AcDbBlockEnd
  0
BLOCK
  5
74C
330
74A
100
AcDbEntity
  8
0
100
AcDbBlockBegin
  2
block 241
 70
     0
 71
     0
 10
0.0
 20
0.0
 30
0.0
  3
block 241
  1

  0
POLYLINE
  5
74E
330
74A
100
AcDbEntity
  8
cotas
 62
   253
420
 11382189
370
    25
100
AcDb2dPolyline
 66
     1
 10
0.0
 20
0.0
 30
0.0
  0
VERTEX
  5
74F
330
74E
100
AcDbEntity
  8
cotas
 62
   253
420
 11382189
370
    25
100
AcDbVertex
100
AcDb2dVertex
 10
32.54702283257505
 20
33.40020072949717
 30
0.0
  0
VERTEX
  5
750
330
74E
100
AcDbEntity
  8
cotas
 62
   253
420
 11382189
370
    25
100
AcDbVertex
100
AcDb2dVertex
 10
32.54702283257505
 20
44.44655489340225
 30
0.0
  0
SEQEND
  5
751
330
74E
100
AcDbEntity
  8
cotas
370
    25
  0
ENDBLK
  5
74D
330
74A
100
AcDbEntity
  8
0
100
AcDbBlockEnd
  0
BLOCK
  5
754
330
752
100
AcDbEntity
  8
0
100
AcDbBlockBegin
  2
block 242
 70
     0
 71
     0
 10
0.0
 20
0.0
 30
0.0
  3
block 242
  1

  0
POLYLINE
  5
756
330
752
100
AcDbEntity
  8
cotas
370
     0
100
AcDb2dPolyline
 66
     1
 10
0.0
 20
0.0
 30
0.0
  0
VERTEX
  5
757
330
756
100
AcDbEntity
  8
cotas
370
     0
100
AcDbVertex
100
AcDb2dVertex
 10
32.07917886567812
 20
69.65362953987827
 30
0.0
  0
VERTEX
  5
758
330
756
100
AcDbEntity
  8
cotas
370
     0
100
AcDbVertex
100
AcDb2dVertex
 10
33.01452228992346
 20
69.65362953987827
 30
0.0
  0
VERTEX
  5
759
330
756
100
AcDbEntity
  8
cotas
370
     0
100
AcDbVertex
100
AcDb2dVertex
 10
32.54702283257505
 20
72.45931530306574
 30
0.0
  0
VERTEX
  5
75A
330
756
100
AcDbEntity
  8
cotas
370
     0
100
AcDbVertex
100
AcDb2dVertex
 10
32.07917886567812
 20
69.65362953987827
 30
0.0
  0
SEQEND
  5
75B
330
756
100
AcDbEntity
  8
cotas
370
     0
  0
HATCH
  5
75C
330
752
100
AcDbEntity
  8
cotas
 62
   253
420
 11382189
100
AcDbHatch
 10
0.0
 20
0.0
 30
0.0
210
0.0
220
0.0
230
1.0
  2
SOLID
 70
     1
 71
     0
 91
        1
 92
        1
 93
        3
 72
     1
 10
32.07917886567812
 20
69.65362953987827
 11
33.01452228992346
 21
69.65362953987827
 72
     1
 10
33.01452228992346
 20
69.65362953987827
 11
32.54702283257505
 21
72.45931530306574
 72
     1
 10
32.54702283257505
 20
72.45931530306574
 11
32.07917886567812
 21
69.65362953987827
 97
        0
 75
     2
 76
     1
 98
        0
  0
ENDBLK
  5
755
330
752
100
AcDbEntity
  8
0
100
AcDbBlockEnd
  0
BLOCK
  5
75F
330
75D
100
AcDbEntity
  8
0
100
AcDbBlockBegin
  2
block 243
 70
     0
 71
     0
 10
0.0
 20
0.0
 30
0.0
  3
block 243
  1

  0
POLYLINE
  5
761
330
75D
100
AcDbEntity
  8
cotas
370
     0
100
AcDb2dPolyline
 66
     1
 10
0.0
 20
0.0
 30
0.0
  0
VERTEX
  5
762
330
761
100
AcDbEntity
  8
cotas
370
     0
100
AcDbVertex
100
AcDb2dVertex
 10
32.07917886567812
 20
33.40020072949717
 30
0.0
  0
VERTEX
  5
763
330
761
100
AcDbEntity
  8
cotas
370
     0
100
AcDbVertex
100
AcDb2dVertex
 10
33.01452228992346
 20
33.40020072949717
 30
0.0
  0
VERTEX
  5
764
330
761
100
AcDbEntity
  8
cotas
370
     0
100
AcDbVertex
100
AcDb2dVertex
 10
32.54702283257505
 20
30.59451496630971
 30
0.0
  0
VERTEX
  5
765
330
761
100
AcDbEntity
  8
cotas
370
     0
100
AcDbVertex
100
AcDb2dVertex
 10
32.07917886567812
 20
33.40020072949717
 30
0.0
  0
SEQEND
  5
766
330
761
100
AcDbEntity
  8
cotas
370
     0
  0
HATCH
  5
767
330
75D
100
AcDbEntity
  8
cotas
 62
   253
420
 11382189
100
AcDbHatch
 10
0.0
 20
0.0
 30
0.0
210
0.0
220
0.0
230
1.0
  2
SOLID
 70
     1
 71
     0
 91
        1
 92
        1
 93
        3
 72
     1
 10
32.07917886567812
 20
33.40020072949717
 11
33.01452228992346
 21
33.40020072949717
 72
     1
 10
33.01452228992346
 20
33.40020072949717
 11
32.54702283257505
 21
30.59451496630971
 72
     1
 10
32.54702283257505
 20
30.59451496630971
 11
32.07917886567812
 21
33.40020072949717
 97
        0
 75
     2
 76
     1
 98
        0
  0
ENDBLK
  5
760
330
75D
100
AcDbEntity
  8
0
100
AcDbBlockEnd
  0
BLOCK
  5
76A
330
768
100
AcDbEntity
  8
0
100
AcDbBlockBegin
  2
block 244
 70
     0
 71
     0
 10
0.0
 20
0.0
 30
0.0
  3
block 244
  1

  0
MTEXT
  5
76C
330
768
100
AcDbEntity
  8
cotas
 62
   253
420
 11382189
100
AcDbMText
 10
25.57208251313823
 20
48.55999890279056
 30
0.0
 40
6.012793621679311
 41
0.0
 71
     7
 72
     1
  1
\fArial|b0|i0|c0|p34;\W1;350
 73
     1
 44
1.0
  0
ENDBLK
  5
76B
330
768
100
AcDbEntity
  8
0
100
AcDbBlockEnd
  0
BLOCK
  5
76F
330
76D
100
AcDbEntity
  8
0
100
AcDbBlockBegin
  2
block 245
 70
     0
 71
     0
 10
0.0
 20
0.0
 30
0.0
  3
block 245
  1

  0
POLYLINE
  5
771
330
76D
100
AcDbEntity
  8
cotas
 62
   253
420
 11382189
370
    25
100
AcDb2dPolyline
 66
     1
 10
0.0
 20
0.0
 30
0.0
  0
VERTEX
  5
772
330
771
100
AcDbEntity
  8
cotas
 62
   253
420
 11382189
370
    25
100
AcDbVertex
100
AcDb2dVertex
 10
60.23766681436767
 20
72.45931530306574
 30
0.0
  0
VERTEX
  5
773
330
771
100
AcDbEntity
  8
cotas
 62
   253
420
 11382189
370
    25
100
AcDbVertex
100
AcDb2dVertex
 10
60.23766681436767
 20
72.45931530306574
 30
0.0
  0
SEQEND
  5
774
330
771
100
AcDbEntity
  8
cotas
370
    25
  0
ENDBLK
  5
770
330
76D
100
AcDbEntity
  8
0
100
AcDbBlockEnd
  0
BLOCK
  5
777
330
775
100
AcDbEntity
  8
0
100
AcDbBlockBegin
  2
block 246
 70
     0
 71
     0
 10
0.0
 20
0.0
 30
0.0
  3
block 246
  1

  0
POLYLINE
  5
779
330
775
100
AcDbEntity
  8
cotas
 62
   253
420
 11382189
370
    25
100
AcDb2dPolyline
 66
     1
 10
0.0
 20
0.0
 30
0.0
  0
VERTEX
  5
77A
330
779
100
AcDbEntity
  8
cotas
 62
   253
420
 11382189
370
    25
100
AcDbVertex
100
AcDb2dVertex
 10
69.8141709894909
 20
30.59451496630971
 30
0.0
  0
VERTEX
  5
77B
330
779
100
AcDbEntity
  8
cotas
 62
   253
420
 11382189
370
    25
100
AcDbVertex
100
AcDb2dVertex
 10
69.8141709894909
 20
30.59451496630971
 30
0.0
  0
SEQEND
  5
77C
330
779
100
AcDbEntity
  8
cotas
370
    25
  0
ENDBLK
  5
778
330
775
100
AcDbEntity
  8
0
100
AcDbBlockEnd
  0
BLOCK
  5
77F
330
77D
100
AcDbEntity
  8
0
100
AcDbBlockBegin
  2
block 247
 70
     0
 71
     0
 10
0.0
 20
0.0
 30
0.0
  3
block 247
  1

  0
POLYLINE
  5
781
330
77D
100
AcDbEntity
  8
cotas
 62
   253
420
 11382189
370
    25
100
AcDb2dPolyline
 66
     1
 10
0.0
 20
0.0
 30
0.0
  0
VERTEX
  5
782
330
781
100
AcDbEntity
  8
cotas
 62
   253
420
 11382189
370
    25
100
AcDbVertex
100
AcDb2dVertex
 10
32.54702283257505
 20
30.59451496630971
 30
0.0
  0
VERTEX
  5
783
330
781
100
AcDbEntity
  8
cotas
 62
   253
420
 11382189
370
    25
100
AcDbVertex
100
AcDb2dVertex
 10
32.54702283257505
 20
30.59451496630971
 30
0.0
  0
SEQEND
  5
784
330
781
100
AcDbEntity
  8
cotas
370
    25
  0
ENDBLK
  5
780
330
77D
100
AcDbEntity
  8
0
100
AcDbBlockEnd
  0
BLOCK
  5
787
330
785
100
AcDbEntity
  8
0
100
AcDbBlockBegin
  2
block 248
 70
     0
 71
     0
 10
0.0
 20
0.0
 30
0.0
  3
block 248
  1

  0
POLYLINE
  5
789
330
785
100
AcDbEntity
  8
cotas
370
     0
100
AcDb2dPolyline
 66
     1
 10
0.0
 20
0.0
 30
0.0
  0
VERTEX
  5
78A
330
789
100
AcDbEntity
  8
cotas
370
     0
100
AcDbVertex
100
AcDb2dVertex
 10
70.92194144277299
 20
43.33516708986065
 30
0.0
  0
VERTEX
  5
78B
330
789
100
AcDbEntity
  8
cotas
370
     0
100
AcDbVertex
100
AcDb2dVertex
 10
75.49203285873116
 20
43.33516708986065
 30
0.0
  0
VERTEX
  5
78C
330
789
100
AcDbEntity
  8
cotas
370
     0
100
AcDbVertex
100
AcDb2dVertex
 10
75.49203285873116
 20
48.05977103833228
 30
0.0
  0
VERTEX
  5
78D
330
789
100
AcDbEntity
  8
cotas
370
     0
100
AcDbVertex
100
AcDb2dVertex
 10
70.92194144277299
 20
46.83469508377744
 30
0.0
  0
VERTEX
  5
78E
330
789
100
AcDbEntity
  8
cotas
370
     0
100
AcDbVertex
100
AcDb2dVertex
 10
70.92194144277299
 20
43.33516708986065
 30
0.0
  0
VERTEX
  5
78F
330
789
100
AcDbEntity
  8
cotas
370
     0
100
AcDbVertex
100
AcDb2dVertex
 10
70.92194144277299
 20
43.33516708986065
 30
0.0
  0
SEQEND
  5
790
330
789
100
AcDbEntity
  8
cotas
370
     0
  0
POLYLINE
  5
791
330
785
100
AcDbEntity
  8
cotas
370
     0
100
AcDb2dPolyline
 66
     1
 10
0.0
 20
0.0
 30
0.0
  0
VERTEX
  5
792
330
791
100
AcDbEntity
  8
cotas
370
     0
100
AcDbVertex
100
AcDb2dVertex
 10
75.49203285873116
 20
59.50989039310864
 30
0.0
  0
VERTEX
  5
793
330
791
100
AcDbEntity
  8
cotas
370
     0
100
AcDbVertex
100
AcDb2dVertex
 10
70.92194144277299
 20
59.50989039310864
 30
0.0
  0
VERTEX
  5
794
330
791
100
AcDbEntity
  8
cotas
370
     0
100
AcDbVertex
100
AcDb2dVertex
 10
70.92194144277299
 20
52.24073891923148
 30
0.0
  0
VERTEX
  5
795
330
791
100
AcDbEntity
  8
cotas
370
     0
100
AcDbVertex
100
AcDb2dVertex
 10
75.49203285873116
 20
53.46581487378633
 30
0.0
  0
VERTEX
  5
796
330
791
100
AcDbEntity
  8
cotas
370
     0
100
AcDbVertex
100
AcDb2dVertex
 10
75.49203285873116
 20
59.50989039310864
 30
0.0
  0
VERTEX
  5
797
330
791
100
AcDbEntity
  8
cotas
370
     0
100
AcDbVertex
100
AcDb2dVertex
 10
75.49203285873116
 20
59.50989039310864
 30
0.0
  0
SEQEND
  5
798
330
791
100
AcDbEntity
  8
cotas
370
     0
  0
POLYLINE
  5
799
330
785
100
AcDbEntity
  8
cotas
370
     0
100
AcDb2dPolyline
 66
     1
 10
0.0
 20
0.0
 30
0.0
  0
VERTEX
  5
79A
330
799
100
AcDbEntity
  8
cotas
370
     0
100
AcDbVertex
100
AcDb2dVertex
 10
70.92194144277299
 20
66.10655922826503
 30
0.0
  0
VERTEX
  5
79B
330
799
100
AcDbEntity
  8
cotas
370
     0
100
AcDbVertex
100
AcDb2dVertex
 10
75.49203285873116
 20
66.10655922826503
 30
0.0
  0
VERTEX
  5
79C
330
799
100
AcDbEntity
  8
cotas
370
     0
100
AcDbVertex
100
AcDb2dVertex
 10
75.49203285873116
 20
72.45931530306574
 30
0.0
  0
VERTEX
  5
79D
330
799
100
AcDbEntity
  8
cotas
370
     0
100
AcDbVertex
100
AcDb2dVertex
 10
70.92194144277299
 20
72.45931530306574
 30
0.0
  0
VERTEX
  5
79E
330
799
100
AcDbEntity
  8
cotas
370
     0
100
AcDbVertex
100
AcDb2dVertex
 10
70.92194144277299
 20
66.10655922826503
 30
0.0
  0
VERTEX
  5
79F
330
799
100
AcDbEntity
  8
cotas
370
     0
100
AcDbVertex
100
AcDb2dVertex
 10
70.92194144277299
 20
66.10655922826503
 30
0.0
  0
SEQEND
  5
7A0
330
799
100
AcDbEntity
  8
cotas
370
     0
  0
POLYLINE
  5
7A1
330
785
100
AcDbEntity
  8
cotas
370
     0
100
AcDb2dPolyline
 66
     1
 10
0.0
 20
0.0
 30
0.0
  0
VERTEX
  5
7A2
330
7A1
100
AcDbEntity
  8
cotas
370
     0
100
AcDbVertex
100
AcDb2dVertex
 10
75.49203285873116
 20
64.74781356888249
 30
0.0
  0
VERTEX
  5
7A3
330
7A1
100
AcDbEntity
  8
cotas
370
     0
100
AcDbVertex
100
AcDb2dVertex
 10
70.92194144277299
 20
64.74781356888249
 30
0.0
  0
VERTEX
  5
7A4
330
7A1
100
AcDbEntity
  8
cotas
370
     0
100
AcDbVertex
100
AcDb2dVertex
 10
70.92194144277299
 20
62.23840601742651
 30
0.0
  0
VERTEX
  5
7A5
330
7A1
100
AcDbEntity
  8
cotas
370
     0
100
AcDbVertex
100
AcDb2dVertex
 10
75.49203285873116
 20
62.23840601742651
 30
0.0
  0
VERTEX
  5
7A6
330
7A1
100
AcDbEntity
  8
cotas
370
     0
100
AcDbVertex
100
AcDb2dVertex
 10
75.49203285873116
 20
64.74781356888249
 30
0.0
  0
VERTEX
  5
7A7
330
7A1
100
AcDbEntity
  8
cotas
370
     0
100
AcDbVertex
100
AcDb2dVertex
 10
75.49203285873116
 20
64.74781356888249
 30
0.0
  0
SEQEND
  5
7A8
330
7A1
100
AcDbEntity
  8
cotas
370
     0
  0
POLYLINE
  5
7A9
330
785
100
AcDbEntity
  8
cotas
 62
   253
420
 11382189
370
    25
100
AcDb2dPolyline
 66
     1
 10
0.0
 20
0.0
 30
0.0
  0
VERTEX
  5
7AA
330
7A9
100
AcDbEntity
  8
cotas
 62
   253
420
 11382189
370
    25
100
AcDbVertex
100
AcDb2dVertex
 10
70.92194144277299
 20
70.83874238680421
 30
0.0
  0
VERTEX
  5
7AB
330
7A9
100
AcDbEntity
  8
cotas
 62
   253
420
 11382189
370
    25
100
AcDbVertex
100
AcDb2dVertex
 10
72.54251435903451
 20
72.45931530306574
 30
0.0
  0
SEQEND
  5
7AC
330
7A9
100
AcDbEntity
  8
cotas
370
    25
  0
POLYLINE
  5
7AD
330
785
100
AcDbEntity
  8
cotas
 62
   253
420
 11382189
370
    25
100
AcDb2dPolyline
 66
     1
 10
0.0
 20
0.0
 30
0.0
  0
VERTEX
  5
7AE
330
7AD
100
AcDbEntity
  8
cotas
 62
   253
420
 11382189
370
    25
100
AcDbVertex
100
AcDb2dVertex
 10
71.36015758849678
 20
66.10655922826503
 30
0.0
  0
VERTEX
  5
7AF
330
7AD
100
AcDbEntity
  8
cotas
 62
   253
420
 11382189
370
    25
100
AcDbVertex
100
AcDb2dVertex
 10
75.49203285873116
 20
70.23998479146779
 30
0.0
  0
SEQEND
  5
7B0
330
7AD
100
AcDbEntity
  8
cotas
370
    25
  0
POLYLINE
  5
7B1
330
785
100
AcDbEntity
  8
cotas
 62
   253
420
 11382189
370
    25
100
AcDb2dPolyline
 66
     1
 10
0.0
 20
0.0
 30
0.0
  0
VERTEX
  5
7B2
330
7B1
100
AcDbEntity
  8
cotas
 62
   253
420
 11382189
370
    25
100
AcDbVertex
100
AcDb2dVertex
 10
72.66378172011531
 20
62.23840601742651
 30
0.0
  0
VERTEX
  5
7B3
330
7B1
100
AcDbEntity
  8
cotas
 62
   253
420
 11382189
370
    25
100
AcDbVertex
100
AcDb2dVertex
 10
75.17301701679703
 20
64.74781356888249
 30
0.0
  0
SEQEND
  5
7B4
330
7B1
100
AcDbEntity
  8
cotas
370
    25
  0
POLYLINE
  5
7B5
330
785
100
AcDbEntity
  8
cotas
 62
   253
420
 11382189
370
    25
100
AcDb2dPolyline
 66
     1
 10
0.0
 20
0.0
 30
0.0
  0
VERTEX
  5
7B6
330
7B5
100
AcDbEntity
  8
cotas
 62
   253
420
 11382189
370
    25
100
AcDbVertex
100
AcDb2dVertex
 10
70.92194144277299
 20
55.32961153130649
 30
0.0
  0
VERTEX
  5
7B7
330
7B5
100
AcDbEntity
  8
cotas
 62
   253
420
 11382189
370
    25
100
AcDbVertex
100
AcDb2dVertex
 10
75.10445961664055
 20
59.50989039310864
 30
0.0
  0
SEQEND
  5
7B8
330
7B5
100
AcDbEntity
  8
cotas
370
    25
  0
POLYLINE
  5
7B9
330
785
100
AcDbEntity
  8
cotas
 62
   253
420
 11382189
370
    25
100
AcDb2dPolyline
 66
     1
 10
0.0
 20
0.0
 30
0.0
  0
VERTEX
  5
7BA
330
7B9
100
AcDbEntity
  8
cotas
 62
   253
420
 11382189
370
    25
100
AcDbVertex
100
AcDb2dVertex
 10
73.76776256836362
 20
53.00417207876285
 30
0.0
  0
VERTEX
  5
7BB
330
7B9
100
AcDbEntity
  8
cotas
 62
   253
420
 11382189
370
    25
100
AcDbVertex
100
AcDb2dVertex
 10
75.49203285873116
 20
54.73016491687302
 30
0.0
  0
SEQEND
  5
7BC
330
7B9
100
AcDbEntity
  8
cotas
370
    25
  0
POLYLINE
  5
7BD
330
785
100
AcDbEntity
  8
cotas
 62
   253
420
 11382189
370
    25
100
AcDb2dPolyline
 66
     1
 10
0.0
 20
0.0
 30
0.0
  0
VERTEX
  5
7BE
330
7BD
100
AcDbEntity
  8
cotas
 62
   253
420
 11382189
370
    25
100
AcDbVertex
100
AcDb2dVertex
 10
70.92194144277299
 20
44.99087998007172
 30
0.0
  0
VERTEX
  5
7BF
330
7BD
100
AcDbEntity
  8
cotas
 62
   253
420
 11382189
370
    25
100
AcDbVertex
100
AcDb2dVertex
 10
73.44289006410456
 20
47.50786674159526
 30
0.0
  0
SEQEND
  5
7C0
330
7BD
100
AcDbEntity
  8
cotas
370
    25
  0
POLYLINE
  5
7C1
330
785
100
AcDbEntity
  8
cotas
 62
   253
420
 11382189
370
    25
100
AcDb2dPolyline
 66
     1
 10
0.0
 20
0.0
 30
0.0
  0
VERTEX
  5
7C2
330
7C1
100
AcDbEntity
  8
cotas
 62
   253
420
 11382189
370
    25
100
AcDbVertex
100
AcDb2dVertex
 10
74.44093422618144
 20
43.33516708986065
 30
0.0
  0
VERTEX
  5
7C3
330
7C1
100
AcDbEntity
  8
cotas
 62
   253
420
 11382189
370
    25
100
AcDbVertex
100
AcDb2dVertex
 10
75.49203285873116
 20
44.387988270153
 30
0.0
  0
SEQEND
  5
7C4
330
7C1
100
AcDbEntity
  8
cotas
370
    25
  0
POLYLINE
  5
7C5
330
785
100
AcDbEntity
  8
cotas
 62
   253
420
 11382189
370
    25
100
AcDb2dPolyline
 66
     1
 10
0.0
 20
0.0
 30
0.0
  0
VERTEX
  5
7C6
330
7C5
100
AcDbEntity
  8
cotas
 62
   253
420
 11382189
370
    25
100
AcDbVertex
100
AcDb2dVertex
 10
75.22986109230365
 20
43.33516708986065
 30
0.0
  0
VERTEX
  5
7C7
330
7C5
100
AcDbEntity
  8
cotas
 62
   253
420
 11382189
370
    25
100
AcDbVertex
100
AcDb2dVertex
 10
71.559800871867
 20
47.00694985803993
 30
0.0
  0
SEQEND
  5
7C8
330
7C5
100
AcDbEntity
  8
cotas
370
    25
  0
POLYLINE
  5
7C9
330
785
100
AcDbEntity
  8
cotas
 62
   253
420
 11382189
370
    25
100
AcDb2dPolyline
 66
     1
 10
0.0
 20
0.0
 30
0.0
  0
VERTEX
  5
7CA
330
7C9
100
AcDbEntity
  8
cotas
 62
   253
420
 11382189
370
    25
100
AcDbVertex
100
AcDb2dVertex
 10
71.37393797043777
 20
52.36200628031228
 30
0.0
  0
VERTEX
  5
7CB
330
7C9
100
AcDbEntity
  8
cotas
 62
   253
420
 11382189
370
    25
100
AcDbVertex
100
AcDb2dVertex
 10
70.92194144277299
 20
52.8119357506859
 30
0.0
  0
SEQEND
  5
7CC
330
7C9
100
AcDbEntity
  8
cotas
370
    25
  0
POLYLINE
  5
7CD
330
785
100
AcDbEntity
  8
cotas
 62
   253
420
 11382189
370
    25
100
AcDb2dPolyline
 66
     1
 10
0.0
 20
0.0
 30
0.0
  0
VERTEX
  5
7CE
330
7CD
100
AcDbEntity
  8
cotas
 62
   253
420
 11382189
370
    25
100
AcDbVertex
100
AcDb2dVertex
 10
75.45086396768242
 20
53.45410154913647
 30
0.0
  0
VERTEX
  5
7CF
330
7CD
100
AcDbEntity
  8
cotas
 62
   253
420
 11382189
370
    25
100
AcDbVertex
100
AcDb2dVertex
 10
70.92194144277299
 20
57.98371309314296
 30
0.0
  0
SEQEND
  5
7D0
330
7CD
100
AcDbEntity
  8
cotas
370
    25
  0
POLYLINE
  5
7D1
330
785
100
AcDbEntity
  8
cotas
 62
   253
420
 11382189
370
    25
100
AcDb2dPolyline
 66
     1
 10
0.0
 20
0.0
 30
0.0
  0
VERTEX
  5
7D2
330
7D1
100
AcDbEntity
  8
cotas
 62
   253
420
 11382189
370
    25
100
AcDbVertex
100
AcDb2dVertex
 10
75.49203285873116
 20
58.58247068847938
 30
0.0
  0
VERTEX
  5
7D3
330
7D1
100
AcDbEntity
  8
cotas
 62
   253
420
 11382189
370
    25
100
AcDbVertex
100
AcDb2dVertex
 10
74.56426864455338
 20
59.50989039310864
 30
0.0
  0
SEQEND
  5
7D4
330
7D1
100
AcDbEntity
  8
cotas
370
    25
  0
POLYLINE
  5
7D5
330
785
100
AcDbEntity
  8
cotas
 62
   253
420
 11382189
370
    25
100
AcDb2dPolyline
 66
     1
 10
0.0
 20
0.0
 30
0.0
  0
VERTEX
  5
7D6
330
7D5
100
AcDbEntity
  8
cotas
 62
   253
420
 11382189
370
    25
100
AcDbVertex
100
AcDb2dVertex
 10
71.83592527500977
 20
62.23840601742651
 30
0.0
  0
VERTEX
  5
7D7
330
7D5
100
AcDbEntity
  8
cotas
 62
   253
420
 11382189
370
    25
100
AcDbVertex
100
AcDb2dVertex
 10
70.92194144277299
 20
63.15480141650297
 30
0.0
  0
SEQEND
  5
7D8
330
7D5
100
AcDbEntity
  8
cotas
370
    25
  0
POLYLINE
  5
7D9
330
785
100
AcDbEntity
  8
cotas
 62
   253
420
 11382189
370
    25
100
AcDb2dPolyline
 66
     1
 10
0.0
 20
0.0
 30
0.0
  0
VERTEX
  5
7DA
330
7D9
100
AcDbEntity
  8
cotas
 62
   253
420
 11382189
370
    25
100
AcDbVertex
100
AcDb2dVertex
 10
75.49203285873116
 20
63.75355901183939
 30
0.0
  0
VERTEX
  5
7DB
330
7D9
100
AcDbEntity
  8
cotas
 62
   253
420
 11382189
370
    25
100
AcDbVertex
100
AcDb2dVertex
 10
74.49777830168806
 20
64.74781356888249
 30
0.0
  0
SEQEND
  5
7DC
330
7D9
100
AcDbEntity
  8
cotas
370
    25
  0
POLYLINE
  5
7DD
330
785
100
AcDbEntity
  8
cotas
 62
   253
420
 11382189
370
    25
100
AcDb2dPolyline
 66
     1
 10
0.0
 20
0.0
 30
0.0
  0
VERTEX
  5
7DE
330
7DD
100
AcDbEntity
  8
cotas
 62
   253
420
 11382189
370
    25
100
AcDbVertex
100
AcDb2dVertex
 10
73.13937715185405
 20
66.10655922826503
 30
0.0
  0
VERTEX
  5
7DF
330
7DD
100
AcDbEntity
  8
cotas
 62
   253
420
 11382189
370
    25
100
AcDbVertex
100
AcDb2dVertex
 10
70.92194144277299
 20
68.32588973986297
 30
0.0
  0
SEQEND
  5
7E0
330
7DD
100
AcDbEntity
  8
cotas
370
    25
  0
POLYLINE
  5
7E1
330
785
100
AcDbEntity
  8
cotas
 62
   253
420
 11382189
370
    25
100
AcDb2dPolyline
 66
     1
 10
0.0
 20
0.0
 30
0.0
  0
VERTEX
  5
7E2
330
7E1
100
AcDbEntity
  8
cotas
 62
   253
420
 11382189
370
    25
100
AcDbVertex
100
AcDb2dVertex
 10
75.49203285873116
 20
68.9246473351994
 30
0.0
  0
VERTEX
  5
7E3
330
7E1
100
AcDbEntity
  8
cotas
 62
   253
420
 11382189
370
    25
100
AcDbVertex
100
AcDb2dVertex
 10
71.95719263609057
 20
72.45931530306574
 30
0.0
  0
SEQEND
  5
7E4
330
7E1
100
AcDbEntity
  8
cotas
370
    25
  0
ENDBLK
  5
788
330
785
100
AcDbEntity
  8
0
100
AcDbBlockEnd
  0
BLOCK
  5
7E7
330
7E5
100
AcDbEntity
  8
0
100
AcDbBlockBegin
  2
block 249
 70
     0
 71
     0
 10
0.0
 20
0.0
 30
0.0
  3
block 249
  1

  0
INSERT
  5
7EA
330
7E5
100
AcDbEntity
  8
cotas
100
AcDbBlockReference
  2
block 250
 10
0.0
 20
0.0
 30
0.0
  0
INSERT
  5
7F2
330
7E5
100
AcDbEntity
  8
cotas
100
AcDbBlockReference
  2
block 251
 10
0.0
 20
0.0
 30
0.0
  0
INSERT
  5
7FA
330
7E5
100
AcDbEntity
  8
cotas
100
AcDbBlockReference
  2
block 252
 10
0.0
 20
0.0
 30
0.0
  0
INSERT
  5
802
330
7E5
100
AcDbEntity
  8
cotas
100
AcDbBlockReference
  2
block 253
 10
0.0
 20
0.0
 30
0.0
  0
INSERT
  5
80A
330
7E5
100
AcDbEntity
  8
cotas
100
AcDbBlockReference
  2
block 254
 10
0.0
 20
0.0
 30
0.0
  0
INSERT
  5
812
330
7E5
100
AcDbEntity
  8
cotas
100
AcDbBlockReference
  2
block 255
 10
0.0
 20
0.0
 30
0.0
  0
INSERT
  5
81D
330
7E5
100
AcDbEntity
  8
cotas
100
AcDbBlockReference
  2
block 256
 10
0.0
 20
0.0
 30
0.0
  0
INSERT
  5
828
330
7E5
100
AcDbEntity
  8
cotas
100
AcDbBlockReference
  2
block 257
 10
0.0
 20
0.0
 30
0.0
  0
INSERT
  5
82D
330
7E5
100
AcDbEntity
  8
cotas
100
AcDbBlockReference
  2
block 258
 10
0.0
 20
0.0
 30
0.0
  0
INSERT
  5
835
330
7E5
100
AcDbEntity
  8
cotas
100
AcDbBlockReference
  2
block 259
 10
0.0
 20
0.0
 30
0.0
  0
INSERT
  5
83D
330
7E5
100
AcDbEntity
  8
cotas
100
AcDbBlockReference
  2
block 260
 10
0.0
 20
0.0
 30
0.0
  0
ENDBLK
  5
7E8
330
7E5
100
AcDbEntity
  8
0
100
AcDbBlockEnd
  0
BLOCK
  5
7EB
330
7E9
100
AcDbEntity
  8
0
100
AcDbBlockBegin
  2
block 250
 70
     0
 71
     0
 10
0.0
 20
0.0
 30
0.0
  3
block 250
  1

  0
POLYLINE
  5
7ED
330
7E9
100
AcDbEntity
  8
cotas
 62
   253
420
 11382189
370
    25
100
AcDb2dPolyline
 66
     1
 10
0.0
 20
0.0
 30
0.0
  0
VERTEX
  5
7EE
330
7ED
100
AcDbEntity
  8
cotas
 62
   253
420
 11382189
370
    25
100
AcDbVertex
100
AcDb2dVertex
 10
64.01883136420363
 20
43.4612575846208
 30
0.0
  0
VERTEX
  5
7EF
330
7ED
100
AcDbEntity
  8
cotas
 62
   253
420
 11382189
370
    25
100
AcDbVertex
100
AcDb2dVertex
 10
64.01883136420363
 20
17.88486870212601
 30
0.0
  0
SEQEND
  5
7F0
330
7ED
100
AcDbEntity
  8
cotas
370
    25
  0
ENDBLK
  5
7EC
330
7E9
100
AcDbEntity
  8
0
100
AcDbBlockEnd
  0
BLOCK
  5
7F3
330
7F1
100
AcDbEntity
  8
0
100
AcDbBlockBegin
  2
block 251
 70
     0
 71
     0
 10
0.0
 20
0.0
 30
0.0
  3
block 251
  1

  0
POLYLINE
  5
7F5
330
7F1
100
AcDbEntity
  8
cotas
 62
   253
420
 11382189
370
    25
100
AcDb2dPolyline
 66
     1
 10
0.0
 20
0.0
 30
0.0
  0
VERTEX
  5
7F6
330
7F5
100
AcDbEntity
  8
cotas
 62
   253
420
 11382189
370
    25
100
AcDbVertex
100
AcDb2dVertex
 10
67.63807642623284
 20
43.4612575846208
 30
0.0
  0
VERTEX
  5
7F7
330
7F5
100
AcDbEntity
  8
cotas
 62
   253
420
 11382189
370
    25
100
AcDbVertex
100
AcDb2dVertex
 10
67.63807642623284
 20
17.88486870212601
 30
0.0
  0
SEQEND
  5
7F8
330
7F5
100
AcDbEntity
  8
cotas
370
    25
  0
ENDBLK
  5
7F4
330
7F1
100
AcDbEntity
  8
0
100
AcDbBlockEnd
  0
BLOCK
  5
7FB
330
7F9
100
AcDbEntity
  8
0
100
AcDbBlockBegin
  2
block 252
 70
     0
 71
     0
 10
0.0
 20
0.0
 30
0.0
  3
block 252
  1

  0
POLYLINE
  5
7FD
330
7F9
100
AcDbEntity
  8
cotas
 62
   253
420
 11382189
370
    25
100
AcDb2dPolyline
 66
     1
 10
0.0
 20
0.0
 30
0.0
  0
VERTEX
  5
7FE
330
7FD
100
AcDbEntity
  8
cotas
 62
   253
420
 11382189
370
    25
100
AcDbVertex
100
AcDb2dVertex
 10
70.44393444419458
 20
19.88922525544436
 30
0.0
  0
VERTEX
  5
7FF
330
7FD
100
AcDbEntity
  8
cotas
 62
   253
420
 11382189
370
    25
100
AcDbVertex
100
AcDb2dVertex
 10
73.24996471693056
 20
19.88922525544436
 30
0.0
  0
SEQEND
  5
800
330
7FD
100
AcDbEntity
  8
cotas
370
    25
  0
ENDBLK
  5
7FC
330
7F9
100
AcDbEntity
  8
0
100
AcDbBlockEnd
  0
BLOCK
  5
803
330
801
100
AcDbEntity
  8
0
100
AcDbBlockBegin
  2
block 253
 70
     0
 71
     0
 10
0.0
 20
0.0
 30
0.0
  3
block 253
  1

  0
POLYLINE
  5
805
330
801
100
AcDbEntity
  8
cotas
 62
   253
420
 11382189
370
    25
100
AcDb2dPolyline
 66
     1
 10
0.0
 20
0.0
 30
0.0
  0
VERTEX
  5
806
330
805
100
AcDbEntity
  8
cotas
 62
   253
420
 11382189
370
    25
100
AcDbVertex
100
AcDb2dVertex
 10
61.2129733462419
 20
19.88922525544436
 30
0.0
  0
VERTEX
  5
807
330
805
100
AcDbEntity
  8
cotas
 62
   253
420
 11382189
370
    25
100
AcDbVertex
100
AcDb2dVertex
 10
52.10827499782363
 20
19.88922525544436
 30
0.0
  0
SEQEND
  5
808
330
805
100
AcDbEntity
  8
cotas
370
    25
  0
ENDBLK
  5
804
330
801
100
AcDbEntity
  8
0
100
AcDbBlockEnd
  0
BLOCK
  5
80B
330
809
100
AcDbEntity
  8
0
100
AcDbBlockBegin
  2
block 254
 70
     0
 71
     0
 10
0.0
 20
0.0
 30
0.0
  3
block 254
  1

  0
POLYLINE
  5
80D
330
809
100
AcDbEntity
  8
cotas
 62
   253
420
 11382189
370
    25
100
AcDb2dPolyline
 66
     1
 10
0.0
 20
0.0
 30
0.0
  0
VERTEX
  5
80E
330
80D
100
AcDbEntity
  8
cotas
 62
   253
420
 11382189
370
    25
100
AcDbVertex
100
AcDb2dVertex
 10
67.63807642623284
 20
19.88922525544436
 30
0.0
  0
VERTEX
  5
80F
330
80D
100
AcDbEntity
  8
cotas
 62
   253
420
 11382189
370
    25
100
AcDbVertex
100
AcDb2dVertex
 10
64.01883136420363
 20
19.88922525544436
 30
0.0
  0
SEQEND
  5
810
330
80D
100
AcDbEntity
  8
cotas
370
    25
  0
ENDBLK
  5
80C
330
809
100
AcDbEntity
  8
0
100
AcDbBlockEnd
  0
BLOCK
  5
813
330
811
100
AcDbEntity
  8
0
100
AcDbBlockBegin
  2
block 255
 70
     0
 71
     0
 10
0.0
 20
0.0
 30
0.0
  3
block 255
  1

  0
POLYLINE
  5
815
330
811
100
AcDbEntity
  8
cotas
370
     0
100
AcDb2dPolyline
 66
     1
 10
0.0
 20
0.0
 30
0.0
  0
VERTEX
  5
816
330
815
100
AcDbEntity
  8
cotas
370
     0
100
AcDbVertex
100
AcDb2dVertex
 10
70.44393444419458
 20
20.35706922234129
 30
0.0
  0
VERTEX
  5
817
330
815
100
AcDbEntity
  8
cotas
370
     0
100
AcDbVertex
100
AcDb2dVertex
 10
70.44393444419458
 20
19.42207030764448
 30
0.0
  0
VERTEX
  5
818
330
815
100
AcDbEntity
  8
cotas
370
     0
100
AcDbVertex
100
AcDb2dVertex
 10
67.63807642623284
 20
19.88922525544436
 30
0.0
  0
VERTEX
  5
819
330
815
100
AcDbEntity
  8
cotas
370
     0
100
AcDbVertex
100
AcDb2dVertex
 10
70.44393444419458
 20
20.35706922234129
 30
0.0
  0
SEQEND
  5
81A
330
815
100
AcDbEntity
  8
cotas
370
     0
  0
HATCH
  5
81B
330
811
100
AcDbEntity
  8
cotas
 62
   253
420
 11382189
100
AcDbHatch
 10
0.0
 20
0.0
 30
0.0
210
0.0
220
0.0
230
1.0
  2
SOLID
 70
     1
 71
     0
 91
        1
 92
        1
 93
        3
 72
     1
 10
70.44393444419458
 20
20.35706922234129
 11
70.44393444419458
 21
19.42207030764448
 72
     1
 10
70.44393444419458
 20
19.42207030764448
 11
67.63807642623284
 21
19.88922525544436
 72
     1
 10
67.63807642623284
 20
19.88922525544436
 11
70.44393444419458
 21
20.35706922234129
 97
        0
 75
     2
 76
     1
 98
        0
  0
ENDBLK
  5
814
330
811
100
AcDbEntity
  8
0
100
AcDbBlockEnd
  0
BLOCK
  5
81E
330
81C
100
AcDbEntity
  8
0
100
AcDbBlockBegin
  2
block 256
 70
     0
 71
     0
 10
0.0
 20
0.0
 30
0.0
  3
block 256
  1

  0
POLYLINE
  5
820
330
81C
100
AcDbEntity
  8
cotas
370
     0
100
AcDb2dPolyline
 66
     1
 10
0.0
 20
0.0
 30
0.0
  0
VERTEX
  5
821
330
820
100
AcDbEntity
  8
cotas
370
     0
100
AcDbVertex
100
AcDb2dVertex
 10
61.2129733462419
 20
20.35706922234129
 30
0.0
  0
VERTEX
  5
822
330
820
100
AcDbEntity
  8
cotas
370
     0
100
AcDbVertex
100
AcDb2dVertex
 10
61.2129733462419
 20
19.42207030764448
 30
0.0
  0
VERTEX
  5
823
330
820
100
AcDbEntity
  8
cotas
370
     0
100
AcDbVertex
100
AcDb2dVertex
 10
64.01883136420363
 20
19.88922525544436
 30
0.0
  0
VERTEX
  5
824
330
820
100
AcDbEntity
  8
cotas
370
     0
100
AcDbVertex
100
AcDb2dVertex
 10
61.2129733462419
 20
20.35706922234129
 30
0.0
  0
SEQEND
  5
825
330
820
100
AcDbEntity
  8
cotas
370
     0
  0
HATCH
  5
826
330
81C
100
AcDbEntity
  8
cotas
 62
   253
420
 11382189
100
AcDbHatch
 10
0.0
 20
0.0
 30
0.0
210
0.0
220
0.0
230
1.0
  2
SOLID
 70
     1
 71
     0
 91
        1
 92
        1
 93
        3
 72
     1
 10
61.2129733462419
 20
20.35706922234129
 11
61.2129733462419
 21
19.42207030764448
 72
     1
 10
61.2129733462419
 20
19.42207030764448
 11
64.01883136420363
 21
19.88922525544436
 72
     1
 10
64.01883136420363
 20
19.88922525544436
 11
61.2129733462419
 21
20.35706922234129
 97
        0
 75
     2
 76
     1
 98
        0
  0
ENDBLK
  5
81F
330
81C
100
AcDbEntity
  8
0
100
AcDbBlockEnd
  0
BLOCK
  5
829
330
827
100
AcDbEntity
  8
0
100
AcDbBlockBegin
  2
block 257
 70
     0
 71
     0
 10
0.0
 20
0.0
 30
0.0
  3
block 257
  1

  0
MTEXT
  5
82B
330
827
100
AcDbEntity
  8
cotas
 62
   253
420
 11382189
100
AcDbMText
 10
16.23363443604576
 20
16.9223090235472
 30
0.0
 40
6.012793621679311
 41
0.0
 71
     7
 72
     1
  1
\fArial|b0|i0|c0|p34;\W1;M8x1.25
 73
     1
 44
1.0
  0
ENDBLK
  5
82A
330
827
100
AcDbEntity
  8
0
100
AcDbBlockEnd
  0
BLOCK
  5
82E
330
82C
100
AcDbEntity
  8
0
100
AcDbBlockBegin
  2
block 258
 70
     0
 71
     0
 10
0.0
 20
0.0
 30
0.0
  3
block 258
  1

  0
POLYLINE
  5
830
330
82C
100
AcDbEntity
  8
cotas
 62
   253
420
 11382189
370
    25
100
AcDb2dPolyline
 66
     1
 10
0.0
 20
0.0
 30
0.0
  0
VERTEX
  5
831
330
830
100
AcDbEntity
  8
cotas
 62
   253
420
 11382189
370
    25
100
AcDbVertex
100
AcDb2dVertex
 10
64.01883136420363
 20
47.46928167216046
 30
0.0
  0
VERTEX
  5
832
330
830
100
AcDbEntity
  8
cotas
 62
   253
420
 11382189
370
    25
100
AcDbVertex
100
AcDb2dVertex
 10
64.01883136420363
 20
47.46928167216046
 30
0.0
  0
SEQEND
  5
833
330
830
100
AcDbEntity
  8
cotas
370
    25
  0
ENDBLK
  5
82F
330
82C
100
AcDbEntity
  8
0
100
AcDbBlockEnd
  0
BLOCK
  5
836
330
834
100
AcDbEntity
  8
0
100
AcDbBlockBegin
  2
block 259
 70
     0
 71
     0
 10
0.0
 20
0.0
 30
0.0
  3
block 259
  1

  0
POLYLINE
  5
838
330
834
100
AcDbEntity
  8
cotas
 62
   253
420
 11382189
370
    25
100
AcDb2dPolyline
 66
     1
 10
0.0
 20
0.0
 30
0.0
  0
VERTEX
  5
839
330
838
100
AcDbEntity
  8
cotas
 62
   253
420
 11382189
370
    25
100
AcDbVertex
100
AcDb2dVertex
 10
67.63807642623284
 20
47.46928167216046
 30
0.0
  0
VERTEX
  5
83A
330
838
100
AcDbEntity
  8
cotas
 62
   253
420
 11382189
370
    25
100
AcDbVertex
100
AcDb2dVertex
 10
67.63807642623284
 20
47.46928167216046
 30
0.0
  0
SEQEND
  5
83B
330
838
100
AcDbEntity
  8
cotas
370
    25
  0
ENDBLK
  5
837
330
834
100
AcDbEntity
  8
0
100
AcDbBlockEnd
  0
BLOCK
  5
83E
330
83C
100
AcDbEntity
  8
0
100
AcDbBlockBegin
  2
block 260
 70
     0
 71
     0
 10
0.0
 20
0.0
 30
0.0
  3
block 260
  1

  0
POLYLINE
  5
840
330
83C
100
AcDbEntity
  8
cotas
 62
   253
420
 11382189
370
    25
100
AcDb2dPolyline
 66
     1
 10
0.0
 20
0.0
 30
0.0
  0
VERTEX
  5
841
330
840
100
AcDbEntity
  8
cotas
 62
   253
420
 11382189
370
    25
100
AcDbVertex
100
AcDb2dVertex
 10
67.63807642623284
 20
19.88922525544436
 30
0.0
  0
VERTEX
  5
842
330
840
100
AcDbEntity
  8
cotas
 62
   253
420
 11382189
370
    25
100
AcDbVertex
100
AcDb2dVertex
 10
67.63807642623284
 20
19.88922525544436
 30
0.0
  0
SEQEND
  5
843
330
840
100
AcDbEntity
  8
cotas
370
    25
  0
ENDBLK
  5
83F
330
83C
100
AcDbEntity
  8
0
100
AcDbBlockEnd
  0
ENDSEC
  0
SECTION
  2
ENTITIES
  0
INSERT
  5
3D
330
1F
100
AcDbEntity
  8
cuerpo
100
AcDbBlockReference
  2
block 2
 10
0.0
 20
0.0
 30
0.0
  0
INSERT
  5
45
330
1F
100
AcDbEntity
  8
cuerpo
100
AcDbBlockReference
  2
block 3
 10
0.0
 20
0.0
 30
0.0
  0
INSERT
  5
4D
330
1F
100
AcDbEntity
  8
cuerpo
100
AcDbBlockReference
  2
block 4
 10
0.0
 20
0.0
 30
0.0
  0
INSERT
  5
55
330
1F
100
AcDbEntity
  8
cuerpo
100
AcDbBlockReference
  2
block 5
 10
0.0
 20
0.0
 30
0.0
  0
INSERT
  5
5D
330
1F
100
AcDbEntity
  8
cuerpo
100
AcDbBlockReference
  2
block 6
 10
0.0
 20
0.0
 30
0.0
  0
INSERT
  5
65
330
1F
100
AcDbEntity
  8
cuerpo
100
AcDbBlockReference
  2
block 7
 10
0.0
 20
0.0
 30
0.0
  0
INSERT
  5
6D
330
1F
100
AcDbEntity
  8
cuerpo
100
AcDbBlockReference
  2
block 8
 10
0.0
 20
0.0
 30
0.0
  0
INSERT
  5
75
330
1F
100
AcDbEntity
  8
cuerpo
100
AcDbBlockReference
  2
block 9
 10
0.0
 20
0.0
 30
0.0
  0
INSERT
  5
7D
330
1F
100
AcDbEntity
  8
cuerpo
100
AcDbBlockReference
  2
block 10
 10
0.0
 20
0.0
 30
0.0
  0
INSERT
  5
85
330
1F
100
AcDbEntity
  8
cuerpo
100
AcDbBlockReference
  2
block 11
 10
0.0
 20
0.0
 30
0.0
  0
INSERT
  5
8D
330
1F
100
AcDbEntity
  8
cuerpo
100
AcDbBlockReference
  2
block 12
 10
0.0
 20
0.0
 30
0.0
  0
INSERT
  5
95
330
1F
100
AcDbEntity
  8
cuerpo
100
AcDbBlockReference
  2
block 13
 10
0.0
 20
0.0
 30
0.0
  0
INSERT
  5
9D
330
1F
100
AcDbEntity
  8
cuerpo
100
AcDbBlockReference
  2
block 14
 10
0.0
 20
0.0
 30
0.0
  0
INSERT
  5
A5
330
1F
100
AcDbEntity
  8
cuerpo
100
AcDbBlockReference
  2
block 15
 10
0.0
 20
0.0
 30
0.0
  0
INSERT
  5
AD
330
1F
100
AcDbEntity
  8
cuerpo
100
AcDbBlockReference
  2
block 16
 10
0.0
 20
0.0
 30
0.0
  0
INSERT
  5
B5
330
1F
100
AcDbEntity
  8
cuerpo
100
AcDbBlockReference
  2
block 17
 10
0.0
 20
0.0
 30
0.0
  0
INSERT
  5
BD
330
1F
100
AcDbEntity
  8
cuerpo
100
AcDbBlockReference
  2
block 18
 10
0.0
 20
0.0
 30
0.0
  0
INSERT
  5
C5
330
1F
100
AcDbEntity
  8
cuerpo
100
AcDbBlockReference
  2
block 19
 10
0.0
 20
0.0
 30
0.0
  0
INSERT
  5
CD
330
1F
100
AcDbEntity
  8
cuerpo
100
AcDbBlockReference
  2
block 20
 10
0.0
 20
0.0
 30
0.0
  0
INSERT
  5
D5
330
1F
100
AcDbEntity
  8
cuerpo
100
AcDbBlockReference
  2
block 21
 10
0.0
 20
0.0
 30
0.0
  0
INSERT
  5
DD
330
1F
100
AcDbEntity
  8
cuerpo
100
AcDbBlockReference
  2
block 22
 10
0.0
 20
0.0
 30
0.0
  0
INSERT
  5
E5
330
1F
100
AcDbEntity
  8
cuerpo
100
AcDbBlockReference
  2
block 23
 10
0.0
 20
0.0
 30
0.0
  0
INSERT
  5
EA
330
1F
100
AcDbEntity
  8
cuerpo
100
AcDbBlockReference
  2
block 24
 10
0.0
 20
0.0
 30
0.0
  0
INSERT
  5
F2
330
1F
100
AcDbEntity
  8
cuerpo
100
AcDbBlockReference
  2
block 25
 10
0.0
 20
0.0
 30
0.0
  0
INSERT
  5
FA
330
1F
100
AcDbEntity
  8
cuerpo
100
AcDbBlockReference
  2
block 26
 10
0.0
 20
0.0
 30
0.0
  0
INSERT
  5
102
330
1F
100
AcDbEntity
  8
cuerpo
100
AcDbBlockReference
  2
block 27
 10
0.0
 20
0.0
 30
0.0
  0
INSERT
  5
10A
330
1F
100
AcDbEntity
  8
cuerpo
100
AcDbBlockReference
  2
block 28
 10
0.0
 20
0.0
 30
0.0
  0
INSERT
  5
112
330
1F
100
AcDbEntity
  8
cuerpo
100
AcDbBlockReference
  2
block 29
 10
0.0
 20
0.0
 30
0.0
  0
INSERT
  5
11A
330
1F
100
AcDbEntity
  8
cuerpo
100
AcDbBlockReference
  2
block 30
 10
0.0
 20
0.0
 30
0.0
  0
INSERT
  5
122
330
1F
100
AcDbEntity
  8
cuerpo
100
AcDbBlockReference
  2
block 31
 10
0.0
 20
0.0
 30
0.0
  0
INSERT
  5
12A
330
1F
100
AcDbEntity
  8
cuerpo
100
AcDbBlockReference
  2
block 32
 10
0.0
 20
0.0
 30
0.0
  0
INSERT
  5
132
330
1F
100
AcDbEntity
  8
cuerpo
100
AcDbBlockReference
  2
block 33
 10
0.0
 20
0.0
 30
0.0
  0
INSERT
  5
13A
330
1F
100
AcDbEntity
  8
cuerpo
100
AcDbBlockReference
  2
block 34
 10
0.0
 20
0.0
 30
0.0
  0
INSERT
  5
142
330
1F
100
AcDbEntity
  8
cuerpo
100
AcDbBlockReference
  2
block 35
 10
0.0
 20
0.0
 30
0.0
  0
INSERT
  5
14A
330
1F
100
AcDbEntity
  8
cuerpo
100
AcDbBlockReference
  2
block 36
 10
0.0
 20
0.0
 30
0.0
  0
INSERT
  5
152
330
1F
100
AcDbEntity
  8
cuerpo
100
AcDbBlockReference
  2
block 37
 10
0.0
 20
0.0
 30
0.0
  0
INSERT
  5
15A
330
1F
100
AcDbEntity
  8
cuerpo
100
AcDbBlockReference
  2
block 38
 10
0.0
 20
0.0
 30
0.0
  0
INSERT
  5
162
330
1F
100
AcDbEntity
  8
cuerpo
100
AcDbBlockReference
  2
block 39
 10
0.0
 20
0.0
 30
0.0
  0
INSERT
  5
16A
330
1F
100
AcDbEntity
  8
cuerpo
100
AcDbBlockReference
  2
block 40
 10
0.0
 20
0.0
 30
0.0
  0
INSERT
  5
172
330
1F
100
AcDbEntity
  8
cuerpo
100
AcDbBlockReference
  2
block 41
 10
0.0
 20
0.0
 30
0.0
  0
INSERT
  5
17A
330
1F
100
AcDbEntity
  8
cuerpo
100
AcDbBlockReference
  2
block 42
 10
0.0
 20
0.0
 30
0.0
  0
INSERT
  5
182
330
1F
100
AcDbEntity
  8
cuerpo
100
AcDbBlockReference
  2
block 43
 10
0.0
 20
0.0
 30
0.0
  0
INSERT
  5
18A
330
1F
100
AcDbEntity
  8
cuerpo
100
AcDbBlockReference
  2
block 44
 10
0.0
 20
0.0
 30
0.0
  0
INSERT
  5
192
330
1F
100
AcDbEntity
  8
cuerpo
100
AcDbBlockReference
  2
block 45
 10
0.0
 20
0.0
 30
0.0
  0
INSERT
  5
19A
330
1F
100
AcDbEntity
  8
cuerpo
100
AcDbBlockReference
  2
block 46
 10
0.0
 20
0.0
 30
0.0
  0
INSERT
  5
1A2
330
1F
100
AcDbEntity
  8
cuerpo
100
AcDbBlockReference
  2
block 47
 10
0.0
 20
0.0
 30
0.0
  0
INSERT
  5
1AA
330
1F
100
AcDbEntity
  8
cuerpo
100
AcDbBlockReference
  2
block 48
 10
0.0
 20
0.0
 30
0.0
  0
INSERT
  5
1B2
330
1F
100
AcDbEntity
  8
cuerpo
100
AcDbBlockReference
  2
block 49
 10
0.0
 20
0.0
 30
0.0
  0
INSERT
  5
1BA
330
1F
100
AcDbEntity
  8
cuerpo
100
AcDbBlockReference
  2
block 50
 10
0.0
 20
0.0
 30
0.0
  0
INSERT
  5
1C2
330
1F
100
AcDbEntity
  8
cuerpo
100
AcDbBlockReference
  2
block 51
 10
0.0
 20
0.0
 30
0.0
  0
INSERT
  5
1C7
330
1F
100
AcDbEntity
  8
cuerpo
100
AcDbBlockReference
  2
block 52
 10
0.0
 20
0.0
 30
0.0
  0
INSERT
  5
1CC
330
1F
100
AcDbEntity
  8
cuerpo
100
AcDbBlockReference
  2
block 53
 10
0.0
 20
0.0
 30
0.0
  0
INSERT
  5
1D4
330
1F
100
AcDbEntity
  8
cuerpo
100
AcDbBlockReference
  2
block 54
 10
0.0
 20
0.0
 30
0.0
  0
INSERT
  5
1DC
330
1F
100
AcDbEntity
  8
cuerpo
100
AcDbBlockReference
  2
block 55
 10
0.0
 20
0.0
 30
0.0
  0
INSERT
  5
1E4
330
1F
100
AcDbEntity
  8
cuerpo
100
AcDbBlockReference
  2
block 56
 10
0.0
 20
0.0
 30
0.0
  0
INSERT
  5
1EC
330
1F
100
AcDbEntity
  8
cuerpo
100
AcDbBlockReference
  2
block 57
 10
0.0
 20
0.0
 30
0.0
  0
INSERT
  5
1F1
330
1F
100
AcDbEntity
  8
cuerpo
100
AcDbBlockReference
  2
block 58
 10
0.0
 20
0.0
 30
0.0
  0
INSERT
  5
1F6
330
1F
100
AcDbEntity
  8
cuerpo
100
AcDbBlockReference
  2
block 59
 10
0.0
 20
0.0
 30
0.0
  0
INSERT
  5
1FE
330
1F
100
AcDbEntity
  8
cuerpo
100
AcDbBlockReference
  2
block 60
 10
0.0
 20
0.0
 30
0.0
  0
INSERT
  5
206
330
1F
100
AcDbEntity
  8
cuerpo
100
AcDbBlockReference
  2
block 61
 10
0.0
 20
0.0
 30
0.0
  0
INSERT
  5
20B
330
1F
100
AcDbEntity
  8
cuerpo
100
AcDbBlockReference
  2
block 62
 10
0.0
 20
0.0
 30
0.0
  0
INSERT
  5
213
330
1F
100
AcDbEntity
  8
cuerpo
100
AcDbBlockReference
  2
block 63
 10
0.0
 20
0.0
 30
0.0
  0
INSERT
  5
21B
330
1F
100
AcDbEntity
  8
cuerpo
100
AcDbBlockReference
  2
block 64
 10
0.0
 20
0.0
 30
0.0
  0
INSERT
  5
223
330
1F
100
AcDbEntity
  8
cuerpo
100
AcDbBlockReference
  2
block 65
 10
0.0
 20
0.0
 30
0.0
  0
INSERT
  5
22B
330
1F
100
AcDbEntity
  8
cuerpo
100
AcDbBlockReference
  2
block 66
 10
0.0
 20
0.0
 30
0.0
  0
INSERT
  5
233
330
1F
100
AcDbEntity
  8
cuerpo
100
AcDbBlockReference
  2
block 67
 10
0.0
 20
0.0
 30
0.0
  0
INSERT
  5
238
330
1F
100
AcDbEntity
  8
cuerpo
100
AcDbBlockReference
  2
block 68
 10
0.0
 20
0.0
 30
0.0
  0
INSERT
  5
23D
330
1F
100
AcDbEntity
  8
cuerpo
100
AcDbBlockReference
  2
block 69
 10
0.0
 20
0.0
 30
0.0
  0
INSERT
  5
242
330
1F
100
AcDbEntity
  8
cuerpo
100
AcDbBlockReference
  2
block 70
 10
0.0
 20
0.0
 30
0.0
  0
INSERT
  5
247
330
1F
100
AcDbEntity
  8
cuerpo
100
AcDbBlockReference
  2
block 71
 10
0.0
 20
0.0
 30
0.0
  0
INSERT
  5
24F
330
1F
100
AcDbEntity
  8
cuerpo
100
AcDbBlockReference
  2
block 72
 10
0.0
 20
0.0
 30
0.0
  0
INSERT
  5
254
330
1F
100
AcDbEntity
  8
cuerpo
100
AcDbBlockReference
  2
block 73
 10
0.0
 20
0.0
 30
0.0
  0
INSERT
  5
25C
330
1F
100
AcDbEntity
  8
cuerpo
100
AcDbBlockReference
  2
block 74
 10
0.0
 20
0.0
 30
0.0
  0
INSERT
  5
264
330
1F
100
AcDbEntity
  8
cuerpo
100
AcDbBlockReference
  2
block 75
 10
0.0
 20
0.0
 30
0.0
  0
INSERT
  5
26C
330
1F
100
AcDbEntity
  8
cuerpo
100
AcDbBlockReference
  2
block 76
 10
0.0
 20
0.0
 30
0.0
  0
INSERT
  5
271
330
1F
100
AcDbEntity
  8
cuerpo
100
AcDbBlockReference
  2
block 77
 10
0.0
 20
0.0
 30
0.0
  0
INSERT
  5
276
330
1F
100
AcDbEntity
  8
cuerpo
100
AcDbBlockReference
  2
block 78
 10
0.0
 20
0.0
 30
0.0
  0
INSERT
  5
27E
330
1F
100
AcDbEntity
  8
cuerpo
100
AcDbBlockReference
  2
block 79
 10
0.0
 20
0.0
 30
0.0
  0
INSERT
  5
286
330
1F
100
AcDbEntity
  8
cuerpo
100
AcDbBlockReference
  2
block 80
 10
0.0
 20
0.0
 30
0.0
  0
INSERT
  5
28E
330
1F
100
AcDbEntity
  8
cuerpo
100
AcDbBlockReference
  2
block 81
 10
0.0
 20
0.0
 30
0.0
  0
INSERT
  5
293
330
1F
100
AcDbEntity
  8
cuerpo
100
AcDbBlockReference
  2
block 82
 10
0.0
 20
0.0
 30
0.0
  0
INSERT
  5
29B
330
1F
100
AcDbEntity
  8
cuerpo
100
AcDbBlockReference
  2
block 83
 10
0.0
 20
0.0
 30
0.0
  0
INSERT
  5
2A3
330
1F
100
AcDbEntity
  8
cuerpo
100
AcDbBlockReference
  2
block 84
 10
0.0
 20
0.0
 30
0.0
  0
INSERT
  5
2AB
330
1F
100
AcDbEntity
  8
cuerpo
100
AcDbBlockReference
  2
block 85
 10
0.0
 20
0.0
 30
0.0
  0
INSERT
  5
2B3
330
1F
100
AcDbEntity
  8
cuerpo
100
AcDbBlockReference
  2
block 86
 10
0.0
 20
0.0
 30
0.0
  0
INSERT
  5
2B8
330
1F
100
AcDbEntity
  8
cuerpo
100
AcDbBlockReference
  2
block 87
 10
0.0
 20
0.0
 30
0.0
  0
INSERT
  5
2C0
330
1F
100
AcDbEntity
  8
cuerpo
100
AcDbBlockReference
  2
block 88
 10
0.0
 20
0.0
 30
0.0
  0
INSERT
  5
2C8
330
1F
100
AcDbEntity
  8
cuerpo
100
AcDbBlockReference
  2
block 89
 10
0.0
 20
0.0
 30
0.0
  0
INSERT
  5
2D0
330
1F
100
AcDbEntity
  8
cuerpo
100
AcDbBlockReference
  2
block 90
 10
0.0
 20
0.0
 30
0.0
  0
INSERT
  5
2D8
330
1F
100
AcDbEntity
  8
cuerpo
100
AcDbBlockReference
  2
block 91
 10
0.0
 20
0.0
 30
0.0
  0
INSERT
  5
2DD
330
1F
100
AcDbEntity
  8
cuerpo
100
AcDbBlockReference
  2
block 92
 10
0.0
 20
0.0
 30
0.0
  0
INSERT
  5
2E5
330
1F
100
AcDbEntity
  8
cuerpo
100
AcDbBlockReference
  2
block 93
 10
0.0
 20
0.0
 30
0.0
  0
INSERT
  5
2ED
330
1F
100
AcDbEntity
  8
cuerpo
100
AcDbBlockReference
  2
block 94
 10
0.0
 20
0.0
 30
0.0
  0
INSERT
  5
2F5
330
1F
100
AcDbEntity
  8
cuerpo
100
AcDbBlockReference
  2
block 95
 10
0.0
 20
0.0
 30
0.0
  0
INSERT
  5
2FA
330
1F
100
AcDbEntity
  8
cuerpo
100
AcDbBlockReference
  2
block 96
 10
0.0
 20
0.0
 30
0.0
  0
INSERT
  5
302
330
1F
100
AcDbEntity
  8
cuerpo
100
AcDbBlockReference
  2
block 97
 10
0.0
 20
0.0
 30
0.0
  0
INSERT
  5
30A
330
1F
100
AcDbEntity
  8
cuerpo
100
AcDbBlockReference
  2
block 98
 10
0.0
 20
0.0
 30
0.0
  0
INSERT
  5
312
330
1F
100
AcDbEntity
  8
cuerpo
100
AcDbBlockReference
  2
block 99
 10
0.0
 20
0.0
 30
0.0
  0
INSERT
  5
317
330
1F
100
AcDbEntity
  8
cuerpo
100
AcDbBlockReference
  2
block 100
 10
0.0
 20
0.0
 30
0.0
  0
INSERT
  5
31C
330
1F
100
AcDbEntity
  8
cuerpo
100
AcDbBlockReference
  2
block 101
 10
0.0
 20
0.0
 30
0.0
  0
INSERT
  5
321
330
1F
100
AcDbEntity
  8
cuerpo
100
AcDbBlockReference
  2
block 102
 10
0.0
 20
0.0
 30
0.0
  0
INSERT
  5
329
330
1F
100
AcDbEntity
  8
cuerpo
100
AcDbBlockReference
  2
block 103
 10
0.0
 20
0.0
 30
0.0
  0
INSERT
  5
331
330
1F
100
AcDbEntity
  8
cuerpo
100
AcDbBlockReference
  2
block 104
 10
0.0
 20
0.0
 30
0.0
  0
INSERT
  5
336
330
1F
100
AcDbEntity
  8
cuerpo
100
AcDbBlockReference
  2
block 105
 10
0.0
 20
0.0
 30
0.0
  0
INSERT
  5
33E
330
1F
100
AcDbEntity
  8
cuerpo
100
AcDbBlockReference
  2
block 106
 10
0.0
 20
0.0
 30
0.0
  0
INSERT
  5
346
330
1F
100
AcDbEntity
  8
cuerpo
100
AcDbBlockReference
  2
block 107
 10
0.0
 20
0.0
 30
0.0
  0
INSERT
  5
34E
330
1F
100
AcDbEntity
  8
cuerpo
100
AcDbBlockReference
  2
block 108
 10
0.0
 20
0.0
 30
0.0
  0
INSERT
  5
356
330
1F
100
AcDbEntity
  8
cuerpo
100
AcDbBlockReference
  2
block 109
 10
0.0
 20
0.0
 30
0.0
  0
INSERT
  5
35E
330
1F
100
AcDbEntity
  8
cuerpo
100
AcDbBlockReference
  2
block 110
 10
0.0
 20
0.0
 30
0.0
  0
INSERT
  5
366
330
1F
100
AcDbEntity
  8
cuerpo
100
AcDbBlockReference
  2
block 111
 10
0.0
 20
0.0
 30
0.0
  0
INSERT
  5
36E
330
1F
100
AcDbEntity
  8
cuerpo
100
AcDbBlockReference
  2
block 112
 10
0.0
 20
0.0
 30
0.0
  0
INSERT
  5
376
330
1F
100
AcDbEntity
  8
cuerpo
100
AcDbBlockReference
  2
block 113
 10
0.0
 20
0.0
 30
0.0
  0
INSERT
  5
37E
330
1F
100
AcDbEntity
  8
cuerpo
100
AcDbBlockReference
  2
block 114
 10
0.0
 20
0.0
 30
0.0
  0
INSERT
  5
386
330
1F
100
AcDbEntity
  8
cuerpo
100
AcDbBlockReference
  2
block 115
 10
0.0
 20
0.0
 30
0.0
  0
INSERT
  5
38E
330
1F
100
AcDbEntity
  8
cuerpo
100
AcDbBlockReference
  2
block 116
 10
0.0
 20
0.0
 30
0.0
  0
INSERT
  5
396
330
1F
100
AcDbEntity
  8
cuerpo
100
AcDbBlockReference
  2
block 117
 10
0.0
 20
0.0
 30
0.0
  0
INSERT
  5
39E
330
1F
100
AcDbEntity
  8
cuerpo
100
AcDbBlockReference
  2
block 118
 10
0.0
 20
0.0
 30
0.0
  0
INSERT
  5
3A6
330
1F
100
AcDbEntity
  8
cuerpo
100
AcDbBlockReference
  2
block 119
 10
0.0
 20
0.0
 30
0.0
  0
INSERT
  5
3AE
330
1F
100
AcDbEntity
  8
cuerpo
100
AcDbBlockReference
  2
block 120
 10
0.0
 20
0.0
 30
0.0
  0
INSERT
  5
3B6
330
1F
100
AcDbEntity
  8
cuerpo
100
AcDbBlockReference
  2
block 121
 10
0.0
 20
0.0
 30
0.0
  0
INSERT
  5
3BE
330
1F
100
AcDbEntity
  8
cuerpo
100
AcDbBlockReference
  2
block 122
 10
0.0
 20
0.0
 30
0.0
  0
INSERT
  5
3C6
330
1F
100
AcDbEntity
  8
cuerpo
100
AcDbBlockReference
  2
block 123
 10
0.0
 20
0.0
 30
0.0
  0
INSERT
  5
3CB
330
1F
100
AcDbEntity
  8
cuerpo
100
AcDbBlockReference
  2
block 124
 10
0.0
 20
0.0
 30
0.0
  0
INSERT
  5
3D3
330
1F
100
AcDbEntity
  8
cuerpo
100
AcDbBlockReference
  2
block 125
 10
0.0
 20
0.0
 30
0.0
  0
INSERT
  5
3DB
330
1F
100
AcDbEntity
  8
cuerpo
100
AcDbBlockReference
  2
block 126
 10
0.0
 20
0.0
 30
0.0
  0
INSERT
  5
3E0
330
1F
100
AcDbEntity
  8
cuerpo
100
AcDbBlockReference
  2
block 127
 10
0.0
 20
0.0
 30
0.0
  0
INSERT
  5
3E8
330
1F
100
AcDbEntity
  8
cuerpo
100
AcDbBlockReference
  2
block 128
 10
0.0
 20
0.0
 30
0.0
  0
INSERT
  5
3F0
330
1F
100
AcDbEntity
  8
cuerpo
100
AcDbBlockReference
  2
block 129
 10
0.0
 20
0.0
 30
0.0
  0
INSERT
  5
3F8
330
1F
100
AcDbEntity
  8
cuerpo
100
AcDbBlockReference
  2
block 130
 10
0.0
 20
0.0
 30
0.0
  0
INSERT
  5
400
330
1F
100
AcDbEntity
  8
cuerpo
100
AcDbBlockReference
  2
block 131
 10
0.0
 20
0.0
 30
0.0
  0
INSERT
  5
405
330
1F
100
AcDbEntity
  8
cuerpo
100
AcDbBlockReference
  2
block 132
 10
0.0
 20
0.0
 30
0.0
  0
INSERT
  5
40A
330
1F
100
AcDbEntity
  8
cuerpo
100
AcDbBlockReference
  2
block 133
 10
0.0
 20
0.0
 30
0.0
  0
INSERT
  5
40F
330
1F
100
AcDbEntity
  8
cuerpo
100
AcDbBlockReference
  2
block 134
 10
0.0
 20
0.0
 30
0.0
  0
INSERT
  5
414
330
1F
100
AcDbEntity
  8
cuerpo
100
AcDbBlockReference
  2
block 135
 10
0.0
 20
0.0
 30
0.0
  0
INSERT
  5
419
330
1F
100
AcDbEntity
  8
cuerpo
100
AcDbBlockReference
  2
block 136
 10
0.0
 20
0.0
 30
0.0
  0
INSERT
  5
41E
330
1F
100
AcDbEntity
  8
cuerpo
100
AcDbBlockReference
  2
block 137
 10
0.0
 20
0.0
 30
0.0
  0
INSERT
  5
426
330
1F
100
AcDbEntity
  8
cuerpo
100
AcDbBlockReference
  2
block 138
 10
0.0
 20
0.0
 30
0.0
  0
INSERT
  5
42E
330
1F
100
AcDbEntity
  8
cuerpo
100
AcDbBlockReference
  2
block 139
 10
0.0
 20
0.0
 30
0.0
  0
INSERT
  5
436
330
1F
100
AcDbEntity
  8
cuerpo
100
AcDbBlockReference
  2
block 140
 10
0.0
 20
0.0
 30
0.0
  0
INSERT
  5
43E
330
1F
100
AcDbEntity
  8
cuerpo
100
AcDbBlockReference
  2
block 141
 10
0.0
 20
0.0
 30
0.0
  0
INSERT
  5
446
330
1F
100
AcDbEntity
  8
cuerpo
100
AcDbBlockReference
  2
block 142
 10
0.0
 20
0.0
 30
0.0
  0
INSERT
  5
44E
330
1F
100
AcDbEntity
  8
cuerpo
100
AcDbBlockReference
  2
block 143
 10
0.0
 20
0.0
 30
0.0
  0
INSERT
  5
456
330
1F
100
AcDbEntity
  8
cuerpo
100
AcDbBlockReference
  2
block 144
 10
0.0
 20
0.0
 30
0.0
  0
INSERT
  5
45E
330
1F
100
AcDbEntity
  8
cuerpo
100
AcDbBlockReference
  2
block 145
 10
0.0
 20
0.0
 30
0.0
  0
INSERT
  5
466
330
1F
100
AcDbEntity
  8
cuerpo
100
AcDbBlockReference
  2
block 146
 10
0.0
 20
0.0
 30
0.0
  0
INSERT
  5
46E
330
1F
100
AcDbEntity
  8
cuerpo
100
AcDbBlockReference
  2
block 147
 10
0.0
 20
0.0
 30
0.0
  0
INSERT
  5
476
330
1F
100
AcDbEntity
  8
cuerpo
100
AcDbBlockReference
  2
block 148
 10
0.0
 20
0.0
 30
0.0
  0
INSERT
  5
47E
330
1F
100
AcDbEntity
  8
cuerpo
100
AcDbBlockReference
  2
block 149
 10
0.0
 20
0.0
 30
0.0
  0
INSERT
  5
486
330
1F
100
AcDbEntity
  8
cuerpo
100
AcDbBlockReference
  2
block 150
 10
0.0
 20
0.0
 30
0.0
  0
INSERT
  5
48E
330
1F
100
AcDbEntity
  8
cuerpo
100
AcDbBlockReference
  2
block 151
 10
0.0
 20
0.0
 30
0.0
  0
INSERT
  5
497
330
1F
100
AcDbEntity
  8
cotas
100
AcDbBlockReference
  2
block 152
 10
0.0
 20
0.0
 30
0.0
  0
INSERT
  5
4FE
330
1F
100
AcDbEntity
  8
cotas
100
AcDbBlockReference
  2
block 165
 10
0.0
 20
0.0
 30
0.0
  0
INSERT
  5
555
330
1F
100
AcDbEntity
  8
cotas
100
AcDbBlockReference
  2
block 176
 10
0.0
 20
0.0
 30
0.0
  0
INSERT
  5
5AC
330
1F
100
AcDbEntity
  8
cotas
100
AcDbBlockReference
  2
block 187
 10
0.0
 20
0.0
 30
0.0
  0
INSERT
  5
603
330
1F
100
AcDbEntity
  8
cotas
100
AcDbBlockReference
  2
block 198
 10
0.0
 20
0.0
 30
0.0
  0
INSERT
  5
669
330
1F
100
AcDbEntity
  8
cotas
100
AcDbBlockReference
  2
block 212
 10
0.0
 20
0.0
 30
0.0
  0
INSERT
  5
6C8
330
1F
100
AcDbEntity
  8
cotas
100
AcDbBlockReference
  2
block 224
 10
0.0
 20
0.0
 30
0.0
  0
INSERT
  5
72F
330
1F
100
AcDbEntity
  8
cotas
100
AcDbBlockReference
  2
block 237
 10
0.0
 20
0.0
 30
0.0
  0
INSERT
  5
786
330
1F
100
AcDbEntity
  8
cotas
100
AcDbBlockReference
  2
block 248
 10
0.0
 20
0.0
 30
0.0
  0
INSERT
  5
7E6
330
1F
100
AcDbEntity
  8
cotas
100
AcDbBlockReference
  2
block 249
 10
0.0
 20
0.0
 30
0.0
  0
ENDSEC
  0
SECTION
  2
OBJECTS
  0
DICTIONARY
  5
C
330
0
100
AcDbDictionary
281
     1
  3
ACAD_GROUP
350
D
  3
ACAD_LAYOUT
350
1A
  3
ACAD_MLINESTYLE
350
17
  3
ACAD_PLOTSETTINGS
350
19
  3
ACAD_PLOTSTYLENAME
350
E
  3
ACAD_TABLESTYLE
350
844
  3
ACAD_VISUALSTYLE
350
2A
  0
DICTIONARY
  5
D
102
{ACAD_REACTORS
330
C
102
}
330
C
100
AcDbDictionary
281
     1
  0
DICTIONARY
  5
1A
102
{ACAD_REACTORS
330
C
102
}
330
C
100
AcDbDictionary
281
     1
  3
Layout1
350
1E
  3
Layout2
350
26
  3
Model
350
22
  0
DICTIONARY
  5
17
102
{ACAD_REACTORS
330
C
102
}
330
C
100
AcDbDictionary
281
     1
  3
Standard
350
18
  0
DICTIONARY
  5
19
102
{ACAD_REACTORS
330
C
102
}
330
C
100
AcDbDictionary
281
     1
  0
ACDBDICTIONARYWDFLT
  5
E
102
{ACAD_REACTORS
330
C
102
}
330
C
100
AcDbDictionary
281
     1
  3
Normal
350
F
100
AcDbDictionaryWithDefault
340
F
  0
DICTIONARY
  5
844
102
{ACAD_REACTORS
330
C
102
}
330
C
100
AcDbDictionary
281
     1
  0
DICTIONARY
  5
2A
102
{ACAD_REACTORS
330
C
102
}
330
C
100
AcDbDictionary
281
     1
  3
2dWireframe
350
2F
  3
3D Hidden
350
31
  3
3dWireframe
350
30
  3
Basic
350
32
  3
Brighten
350
36
  3
ColorChange
350
3A
  3
Conceptual
350
34
  3
Dim
350
35
  3
Facepattern
350
39
  3
Flat
350
2B
  3
FlatWithEdges
350
2C
  3
Gouraud
350
2D
  3
GouraudWithEdges
350
2E
  3
Linepattern
350
38
  3
Realistic
350
33
  3
Thicken
350
37
  0
LAYOUT
  5
1E
102
{ACAD_REACTORS
330
1A
102
}
330
1A
100
AcDbPlotSettings
  1

  2
none_device
  4

  6

 40
0.0
 41
0.0
 42
0.0
 43
0.0
 44
0.0
 45
0.0
 46
0.0
 47
0.0
 48
0.0
 49
0.0
140
0.0
141
0.0
142
1.0
143
1.0
 70
   688
 72
     0
 73
     0
 74
     5
  7

 75
    16
 76
     0
 77
     2
 78
   300
147
1.0
148
0.0
149
0.0
100
AcDbLayout
  1
Layout1
 70
     1
 71
     1
 10
0.0
 20
0.0
 11
12.0
 21
9.0
 12
0.0
 22
0.0
 32
0.0
 14
1.000000000000000E+20
 24
1.000000000000000E+20
 34
1.000000000000000E+20
 15
-1.000000000000000E+20
 25
-1.000000000000000E+20
 35
-1.000000000000000E+20
146
0.0
 13
0.0
 23
0.0
 33
0.0
 16
1.0
 26
0.0
 36
0.0
 17
0.0
 27
1.0
 37
0.0
 76
     0
330
1B
  0
LAYOUT
  5
26
102
{ACAD_REACTORS
330
1A
102
}
330
1A
100
AcDbPlotSettings
  1

  2
none_device
  4

  6

 40
0.0
 41
0.0
 42
0.0
 43
0.0
 44
0.0
 45
0.0
 46
0.0
 47
0.0
 48
0.0
 49
0.0
140
0.0
141
0.0
142
1.0
143
1.0
 70
   688
 72
     0
 73
     0
 74
     5
  7

 75
    16
 76
     0
 77
     2
 78
   300
147
1.0
148
0.0
149
0.0
100
AcDbLayout
  1
Layout2
 70
     1
 71
     2
 10
0.0
 20
0.0
 11
0.0
 21
0.0
 12
0.0
 22
0.0
 32
0.0
 14
0.0
 24
0.0
 34
0.0
 15
0.0
 25
0.0
 35
0.0
146
0.0
 13
0.0
 23
0.0
 33
0.0
 16
1.0
 26
0.0
 36
0.0
 17
0.0
 27
1.0
 37
0.0
 76
     0
330
23
  0
LAYOUT
  5
22
102
{ACAD_REACTORS
330
1A
102
}
330
1A
100
AcDbPlotSettings
  1

  2
none_device
  4

  6

 40
0.0
 41
0.0
 42
0.0
 43
0.0
 44
0.0
 45
0.0
 46
0.0
 47
0.0
 48
0.0
 49
0.0
140
0.0
141
0.0
142
1.0
143
1.0
 70
  1712
 72
     0
 73
     0
 74
     0
  7

 75
     0
 76
     0
 77
     2
 78
   300
147
1.0
148
0.0
149
0.0
100
AcDbLayout
  1
Model
 70
     1
 71
     0
 10
0.0
 20
0.0
 11
12.0
 21
9.0
 12
0.0
 22
0.0
 32
0.0
 14
1.000000000000000E+20
 24
1.000000000000000E+20
 34
1.000000000000000E+20
 15
-1.000000000000000E+20
 25
-1.000000000000000E+20
 35
-1.000000000000000E+20
146
0.0
 13
0.0
 23
0.0
 33
0.0
 16
1.0
 26
0.0
 36
0.0
 17
0.0
 27
1.0
 37
0.0
 76
     0
330
1F
331
29
  0
MLINESTYLE
  5
18
102
{ACAD_REACTORS
330
17
102
}
330
17
100
AcDbMlineStyle
  2
Standard
 70
     0
  3

 62
   256
 51
90.0
 52
90.0
 71
     2
 49
0.5
 62
   256
  6
BYLAYER
 49
-0.5
 62
   256
  6
BYLAYER
  0
ACDBPLACEHOLDER
  5
F
102
{ACAD_REACTORS
330
E
102
}
330
E
  0
VISUALSTYLE
  5
2F
102
{ACAD_REACTORS
330
2A
102
}
330
2A
100
AcDbVisualStyle
  2
2dWireframe
 70
     4
 71
     0
 72
     2
 73
     0
 90
        0
 40
-0.6
 41
-30.0
 62
     5
 63
     7
421
 16777215
 74
     1
 91
        4
 64
     7
 65
   257
 75
     1
175
     1
 42
1.0
 92
        0
 66
   257
 43
1.0
 76
     1
 77
     6
 78
     2
 67
     7
 79
     5
170
     0
171
     0
290
     0
174
     0
 93
        1
 44
0.0
173
     0
291
     0
 45
0.0
1001
ACAD
1000
AcDbSavedByObjectVersion
1070
     0
  0
VISUALSTYLE
  5
31
102
{ACAD_REACTORS
330
2A
102
}
330
2A
100
AcDbVisualStyle
  2
3D Hidden
 70
     6
 71
     1
 72
     2
 73
     2
 90
        0
 40
-0.6
 41
-30.0
 62
     5
 63
     7
421
 16777215
 74
     2
 91
        2
 64
     7
 65
   257
 75
     2
175
     1
 42
40.0
 92
        0
 66
   257
 43
1.0
 76
     1
 77
     6
 78
     2
 67
     7
 79
     3
170
     0
171
     0
290
     0
174
     0
 93
        1
 44
0.0
173
     0
291
     0
 45
0.0
1001
ACAD
1000
AcDbSavedByObjectVersion
1070
     0
  0
VISUALSTYLE
  5
30
102
{ACAD_REACTORS
330
2A
102
}
330
2A
100
AcDbVisualStyle
  2
3dWireframe
 70
     5
 71
     0
 72
     2
 73
     0
 90
        0
 40
-0.6
 41
-30.0
 62
     5
 63
     7
421
 16777215
 74
     1
 91
        4
 64
     7
 65
   257
 75
     1
175
     1
 42
1.0
 92
        0
 66
   257
 43
1.0
 76
     1
 77
     6
 78
     2
 67
     7
 79
     5
170
     0
171
     0
290
     0
174
     0
 93
        1
 44
0.0
173
     0
291
     0
 45
0.0
1001
ACAD
1000
AcDbSavedByObjectVersion
1070
     0
  0
VISUALSTYLE
  5
32
102
{ACAD_REACTORS
330
2A
102
}
330
2A
100
AcDbVisualStyle
  2
Basic
 70
     7
 71
     1
 72
     0
 73
     1
 90
        0
 40
-0.6
 41
-30.0
 62
     5
 63
     7
421
 16777215
 74
     0
 91
        4
 64
     7
 65
   257
 75
     1
175
     1
 42
1.0
 92
        8
 66
     7
 43
1.0
 76
     1
 77
     6
 78
     2
 67
     7
 79
     5
170
     0
171
     0
290
     0
174
     0
 93
        1
 44
0.0
173
     0
291
     1
 45
0.0
1001
ACAD
1000
AcDbSavedByObjectVersion
1070
     0
  0
VISUALSTYLE
  5
36
102
{ACAD_REACTORS
330
2A
102
}
330
2A
100
AcDbVisualStyle
  2
Brighten
 70
    12
 71
     2
 72
     2
 73
     0
 90
        0
 40
-0.6
 41
-30.0
 62
     5
 63
     7
421
 16777215
 74
     1
 91
        4
 64
     7
 65
   257
 75
     1
175
     1
 42
1.0
 92
        8
 66
     7
 43
1.0
 76
     1
 77
     6
 78
     2
 67
     7
 79
     5
170
     0
171
     0
290
     0
174
     0
 93
        1
 44
50.0
173
     0
291
     1
 45
0.0
1001
ACAD
1000
AcDbSavedByObjectVersion
1070
     0
  0
VISUALSTYLE
  5
3A
102
{ACAD_REACTORS
330
2A
102
}
330
2A
100
AcDbVisualStyle
  2
ColorChange
 70
    16
 71
     2
 72
     2
 73
     3
 90
        0
 40
-0.6
 41
-30.0
 62
     5
 63
     8
421
  8421504
 74
     1
 91
        4
 64
     7
 65
   257
 75
     1
175
     1
 42
1.0
 92
        8
 66
     8
424
  8421504
 43
1.0
 76
     1
 77
     6
 78
     2
 67
     7
 79
     5
170
     0
171
     0
290
     0
174
     0
 93
        1
 44
0.0
173
     0
291
     1
 45
0.0
1001
ACAD
1000
AcDbSavedByObjectVersion
1070
     0
  0
VISUALSTYLE
  5
34
102
{ACAD_REACTORS
330
2A
102
}
330
2A
100
AcDbVisualStyle
  2
Conceptual
 70
     9
 71
     3
 72
     2
 73
     0
 90
        0
 40
-0.6
 41
-30.0
 62
     5
 63
     7
421
 16777215
 74
     2
 91
        2
 64
     7
 65
   257
 75
     1
175
     1
 42
40.0
 92
        8
 66
     7
 43
1.0
 76
     1
 77
     6
 78
     2
 67
     7
 79
     3
170
     0
171
     0
290
     0
174
     0
 93
        1
 44
0.0
173
     0
291
     0
 45
0.0
1001
ACAD
1000
AcDbSavedByObjectVersion
1070
     0
  0
VISUALSTYLE
  5
35
102
{ACAD_REACTORS
330
2A
102
}
330
2A
100
AcDbVisualStyle
  2
Dim
 70
    11
 71
     2
 72
     2
 73
     0
 90
        0
 40
-0.6
 41
-30.0
 62
     5
 63
     7
421
 16777215
 74
     1
 91
        4
 64
     7
 65
   257
 75
     1
175
     1
 42
1.0
 92
        8
 66
     7
 43
1.0
 76
     1
 77
     6
 78
     2
 67
     7
 79
     5
170
     0
171
     0
290
     0
174
     0
 93
        1
 44
-50.0
173
     0
291
     1
 45
0.0
1001
ACAD
1000
AcDbSavedByObjectVersion
1070
     0
  0
VISUALSTYLE
  5
39
102
{ACAD_REACTORS
330
2A
102
}
330
2A
100
AcDbVisualStyle
  2
Facepattern
 70
    15
 71
     2
 72
     2
 73
     0
 90
        0
 40
-0.6
 41
-30.0
 62
     5
 63
     7
421
 16777215
 74
     1
 91
        4
 64
     7
 65
   257
 75
     1
175
     1
 42
1.0
 92
        8
 66
     7
 43
1.0
 76
     1
 77
     6
 78
     2
 67
     7
 79
     5
170
     0
171
     0
290
     0
174
     0
 93
        1
 44
0.0
173
     0
291
     1
 45
0.0
1001
ACAD
1000
AcDbSavedByObjectVersion
1070
     0
  0
VISUALSTYLE
  5
2B
102
{ACAD_REACTORS
330
2A
102
}
330
2A
100
AcDbVisualStyle
  2
Flat
 70
     0
 71
     2
 72
     1
 73
     1
 90
        2
 40
-0.6
 41
30.0
 62
     5
 63
     7
421
 16777215
 74
     0
 91
        4
 64
     7
 65
   257
 75
     1
175
     1
 42
1.0
 92
        8
 66
     7
 43
1.0
 76
     1
 77
     6
 78
     2
 67
     7
 79
     5
170
     0
171
     0
290
     0
174
     0
 93
       13
 44
0.0
173
     0
291
     1
 45
0.0
1001
ACAD
1000
AcDbSavedByObjectVersion
1070
     0
  0
VISUALSTYLE
  5
2C
102
{ACAD_REACTORS
330
2A
102
}
330
2A
100
AcDbVisualStyle
  2
FlatWithEdges
 70
     1
 71
     2
 72
     1
 73
     1
 90
        2
 40
-0.6
 41
30.0
 62
     5
 63
     7
421
 16777215
 74
     1
 91
        4
 64
     7
 65
   257
 75
     1
175
     1
 42
1.0
 92
        0
 66
   257
 43
1.0
 76
     1
 77
     6
 78
     2
 67
     7
 79
     5
170
     0
171
     0
290
     0
174
     0
 93
       13
 44
0.0
173
     0
291
     1
 45
0.0
1001
ACAD
1000
AcDbSavedByObjectVersion
1070
     0
  0
VISUALSTYLE
  5
2D
102
{ACAD_REACTORS
330
2A
102
}
330
2A
100
AcDbVisualStyle
  2
Gouraud
 70
     2
 71
     2
 72
     2
 73
     1
 90
        2
 40
-0.6
 41
30.0
 62
     5
 63
     7
421
 16777215
 74
     0
 91
        4
 64
     7
 65
   257
 75
     1
175
     1
 42
1.0
 92
        0
 66
     7
 43
1.0
 76
     1
 77
     6
 78
     2
 67
     7
 79
     5
170
     0
171
     0
290
     0
174
     0
 93
       13
 44
0.0
173
     0
291
     1
 45
0.0
1001
ACAD
1000
AcDbSavedByObjectVersion
1070
     0
  0
VISUALSTYLE
  5
2E
102
{ACAD_REACTORS
330
2A
102
}
330
2A
100
AcDbVisualStyle
  2
GouraudWithEdges
 70
     3
 71
     2
 72
     2
 73
     1
 90
        2
 40
-0.6
 41
30.0
 62
     5
 63
     7
421
 16777215
 74
     1
 91
        4
 64
     7
 65
   257
 75
     1
175
     1
 42
1.0
 92
        0
 66
   257
 43
1.0
 76
     1
 77
     6
 78
     2
 67
     7
 79
     5
170
     0
171
     0
290
     0
174
     0
 93
       13
 44
0.0
173
     0
291
     1
 45
0.0
1001
ACAD
1000
AcDbSavedByObjectVersion
1070
     0
  0
VISUALSTYLE
  5
38
102
{ACAD_REACTORS
330
2A
102
}
330
2A
100
AcDbVisualStyle
  2
Linepattern
 70
    14
 71
     2
 72
     2
 73
     0
 90
        0
 40
-0.6
 41
-30.0
 62
     5
 63
     7
421
 16777215
 74
     1
 91
        4
 64
     7
 65
   257
 75
     7
175
     7
 42
1.0
 92
        8
 66
     7
 43
1.0
 76
     1
 77
     6
 78
     2
 67
     7
 79
     5
170
     0
171
     0
290
     0
174
     0
 93
        1
 44
0.0
173
     0
291
     1
 45
0.0
1001
ACAD
1000
AcDbSavedByObjectVersion
1070
     0
  0
VISUALSTYLE
  5
33
102
{ACAD_REACTORS
330
2A
102
}
330
2A
100
AcDbVisualStyle
  2
Realistic
 70
     8
 71
     2
 72
     2
 73
     0
 90
        0
 40
-0.6
 41
-30.0
 62
     5
 63
     7
421
 16777215
 74
     1
 91
        0
 64
     7
 65
   257
 75
     1
175
     1
 42
1.0
 92
        8
 66
     8
424
  7895160
 43
1.0
 76
     1
 77
     6
 78
     2
 67
     7
 79
     5
170
     0
171
     0
290
     0
174
     0
 93
       13
 44
0.0
173
     0
291
     0
 45
0.0
1001
ACAD
1000
AcDbSavedByObjectVersion
1070
     0
  0
VISUALSTYLE
  5
37
102
{ACAD_REACTORS
330
2A
102
}
330
2A
100
AcDbVisualStyle
  2
Thicken
 70
    13
 71
     2
 72
     2
 73
     0
 90
        0
 40
-0.6
 41
-30.0
 62
     5
 63
     7
421
 16777215
 74
     1
 91
        4
 64
     7
 65
   257
 75
     1
175
     1
 42
1.0
 92
       12
 66
     7
 43
1.0
 76
     1
 77
     6
 78
     2
 67
     7
 79
     5
170
     0
171
     0
290
     0
174
     0
 93
        1
 44
0.0
173
     0
291
     1
 45
0.0
1001
ACAD
1000
AcDbSavedByObjectVersion
1070
     0
  0
ENDSEC
  0
EOF
