  0
SECTION
  2
HEADER
  9
$ACADVER
  1
AC1018
  9
$ACADMAINTVER
 70
     0
  9
$DWGCODEPAGE
  3
ANSI_1252
  9
$INSBASE
 10
0.0
 20
0.0
 30
0.0
  9
$EXTMIN
 10
1.000000000000000E+20
 20
1.000000000000000E+20
 30
1.000000000000000E+20
  9
$EXTMAX
 10
-1.000000000000000E+20
 20
-1.000000000000000E+20
 30
-1.000000000000000E+20
  9
$LIMMIN
 10
0.0
 20
0.0
  9
$LIMMAX
 10
12.0
 20
9.0
  9
$ORTHOMODE
 70
     0
  9
$REGENMODE
 70
     1
  9
$FILLMODE
 70
     1
  9
$QTEXTMODE
 70
     0
  9
$MIRRTEXT
 70
     1
  9
$LTSCALE
 40
1.0
  9
$ATTMODE
 70
     1
  9
$TEXTSIZE
 40
0.2
  9
$TRACEWID
 40
0.05
  9
$TEXTSTYLE
  7
Standard
  9
$CLAYER
  8
0
  9
$CELTYPE
  6
ByLayer
  9
$CECOLOR
 62
   256
  9
$CELTSCALE
 40
1.0
  9
$DISPSILH
 70
     0
  9
$DIMSCALE
 40
1.0
  9
$DIMASZ
 40
0.18
  9
$DIMEXO
 40
0.0625
  9
$DIMDLI
 40
0.38
  9
$DIMRND
 40
0.0
  9
$DIMDLE
 40
0.0
  9
$DIMEXE
 40
0.18
  9
$DIMTP
 40
0.0
  9
$DIMTM
 40
0.0
  9
$DIMTXT
 40
0.18
  9
$DIMCEN
 40
0.09
  9
$DIMTSZ
 40
0.0
  9
$DIMTOL
 70
     0
  9
$DIMLIM
 70
     0
  9
$DIMTIH
 70
     1
  9
$DIMTOH
 70
     1
  9
$DIMSE1
 70
     0
  9
$DIMSE2
 70
     0
  9
$DIMTAD
 70
     0
  9
$DIMZIN
 70
     0
  9
$DIMBLK
  1

  9
$DIMASO
 70
     1
  9
$DIMSHO
 70
     1
  9
$DIMPOST
  1

  9
$DIMAPOST
  1

  9
$DIMALT
 70
     0
  9
$DIMALTD
 70
     2
  9
$DIMALTF
 40
25.4
  9
$DIMLFAC
 40
1.0
  9
$DIMTOFL
 70
     0
  9
$DIMTVP
 40
0.0
  9
$DIMTIX
 70
     0
  9
$DIMSOXD
 70
     0
  9
$DIMSAH
 70
     0
  9
$DIMBLK1
  1

  9
$DIMBLK2
  1

  9
$DIMSTYLE
  2
Standard
  9
$DIMCLRD
 70
     0
  9
$DIMCLRE
 70
     0
  9
$DIMCLRT
 70
     0
  9
$DIMTFAC
 40
1.0
  9
$DIMGAP
 40
0.09
  9
$DIMJUST
 70
     0
  9
$DIMSD1
 70
     0
  9
$DIMSD2
 70
     0
  9
$DIMTOLJ
 70
     1
  9
$DIMTZIN
 70
     0
  9
$DIMALTZ
 70
     0
  9
$DIMALTTZ
 70
     0
  9
$DIMUPT
 70
     0
  9
$DIMDEC
 70
     4
  9
$DIMTDEC
 70
     4
  9
$DIMALTU
 70
     2
  9
$DIMALTTD
 70
     2
  9
$DIMTXSTY
  7
Standard
  9
$DIMAUNIT
 70
     0
  9
$DIMADEC
 70
     0
  9
$DIMALTRND
 40
0.0
  9
$DIMAZIN
 70
     0
  9
$DIMDSEP
 70
    46
  9
$DIMATFIT
 70
     3
  9
$DIMFRAC
 70
     0
  9
$DIMLDRBLK
  1

  9
$DIMLUNIT
 70
     2
  9
$DIMLWD
 70
    -2
  9
$DIMLWE
 70
    -2
  9
$DIMTMOVE
 70
     0
  9
$LUNITS
 70
     2
  9
$LUPREC
 70
     4
  9
$SKETCHINC
 40
0.1
  9
$FILLETRAD
 40
0.5
  9
$AUNITS
 70
     0
  9
$AUPREC
 70
     0
  9
$MENU
  1
.
  9
$ELEVATION
 40
0.0
  9
$PELEVATION
 40
0.0
  9
$THICKNESS
 40
0.0
  9
$LIMCHECK
 70
     0
  9
$CHAMFERA
 40
0.5
  9
$CHAMFERB
 40
0.5
  9
$CHAMFERC
 40
1.0
  9
$CHAMFERD
 40
0.0
  9
$SKPOLY
 70
     0
  9
$TDCREATE
 40
2457547.453582257
  9
$TDUCREATE
 40
2457547.370248924
  9
$TDUPDATE
 40
2457547.453582269
  9
$TDUUPDATE
 40
2457547.370248935
  9
$TDINDWG
 40
0.0000000116
  9
$TDUSRTIMER
 40
0.0000000116
  9
$USRTIMER
 70
     1
  9
$ANGBASE
 50
0.0
  9
$ANGDIR
 70
     0
  9
$PDMODE
 70
     0
  9
$PDSIZE
 40
0.0
  9
$PLINEWID
 40
0.0
  9
$SPLFRAME
 70
     0
  9
$SPLINETYPE
 70
     6
  9
$SPLINESEGS
 70
     8
  9
$HANDSEED
  5
491
  9
$SURFTAB1
 70
     6
  9
$SURFTAB2
 70
     6
  9
$SURFTYPE
 70
     6
  9
$SURFU
 70
     6
  9
$SURFV
 70
     6
  9
$UCSBASE
  2

  9
$UCSNAME
  2

  9
$UCSORG
 10
0.0
 20
0.0
 30
0.0
  9
$UCSXDIR
 10
1.0
 20
0.0
 30
0.0
  9
$UCSYDIR
 10
0.0
 20
1.0
 30
0.0
  9
$UCSORTHOREF
  2

  9
$UCSORTHOVIEW
 70
     0
  9
$UCSORGTOP
 10
0.0
 20
0.0
 30
0.0
  9
$UCSORGBOTTOM
 10
0.0
 20
0.0
 30
0.0
  9
$UCSORGLEFT
 10
0.0
 20
0.0
 30
0.0
  9
$UCSORGRIGHT
 10
0.0
 20
0.0
 30
0.0
  9
$UCSORGFRONT
 10
0.0
 20
0.0
 30
0.0
  9
$UCSORGBACK
 10
0.0
 20
0.0
 30
0.0
  9
$PUCSBASE
  2

  9
$PUCSNAME
  2

  9
$PUCSORG
 10
0.0
 20
0.0
 30
0.0
  9
$PUCSXDIR
 10
1.0
 20
0.0
 30
0.0
  9
$PUCSYDIR
 10
0.0
 20
1.0
 30
0.0
  9
$PUCSORTHOREF
  2

  9
$PUCSORTHOVIEW
 70
     0
  9
$PUCSORGTOP
 10
0.0
 20
0.0
 30
0.0
  9
$PUCSORGBOTTOM
 10
0.0
 20
0.0
 30
0.0
  9
$PUCSORGLEFT
 10
0.0
 20
0.0
 30
0.0
  9
$PUCSORGRIGHT
 10
0.0
 20
0.0
 30
0.0
  9
$PUCSORGFRONT
 10
0.0
 20
0.0
 30
0.0
  9
$PUCSORGBACK
 10
0.0
 20
0.0
 30
0.0
  9
$USERI1
 70
     0
  9
$USERI2
 70
     0
  9
$USERI3
 70
     0
  9
$USERI4
 70
     0
  9
$USERI5
 70
     0
  9
$USERR1
 40
0.0
  9
$USERR2
 40
0.0
  9
$USERR3
 40
0.0
  9
$USERR4
 40
0.0
  9
$USERR5
 40
0.0
  9
$WORLDVIEW
 70
     1
  9
$SHADEDGE
 70
     3
  9
$SHADEDIF
 70
    70
  9
$TILEMODE
 70
     1
  9
$MAXACTVP
 70
    64
  9
$PINSBASE
 10
0.0
 20
0.0
 30
0.0
  9
$PLIMCHECK
 70
     0
  9
$PEXTMIN
 10
1.000000000000000E+20
 20
1.000000000000000E+20
 30
1.000000000000000E+20
  9
$PEXTMAX
 10
-1.000000000000000E+20
 20
-1.000000000000000E+20
 30
-1.000000000000000E+20
  9
$PLIMMIN
 10
0.0
 20
0.0
  9
$PLIMMAX
 10
12.0
 20
9.0
  9
$UNITMODE
 70
     0
  9
$VISRETAIN
 70
     1
  9
$PLINEGEN
 70
     0
  9
$PSLTSCALE
 70
     1
  9
$TREEDEPTH
 70
  3020
  9
$CMLSTYLE
  2
Standard
  9
$CMLJUST
 70
     0
  9
$CMLSCALE
 40
1.0
  9
$PROXYGRAPHICS
 70
     1
  9
$MEASUREMENT
 70
     0
  9
$CELWEIGHT
370
    -1
  9
$ENDCAPS
280
     0
  9
$JOINSTYLE
280
     0
  9
$LWDISPLAY
290
     1
  9
$INSUNITS
 70
     1
  9
$HYPERLINKBASE
  1

  9
$STYLESHEET
  1

  9
$XEDIT
290
     1
  9
$CEPSNTYPE
380
     0
  9
$PSTYLEMODE
290
     1
  9
$FINGERPRINTGUID
  2
{361107AD-1E25-4054-927B-AB021F931B14}
  9
$VERSIONGUID
  2
{FAEB1C32-E019-11D5-929B-00C0DF256EC4}
  9
$EXTNAMES
290
     1
  9
$PSVPSCALE
 40
0.0
  9
$OLESTARTUP
290
     0
  9
$SORTENTS
280
   127
  9
$INDEXCTL
280
     0
  9
$HIDETEXT
280
     1
  9
$XCLIPFRAME
290
     0
  9
$HALOGAP
280
     0
  9
$OBSCOLOR
 70
   257
  9
$OBSLTYPE
280
     0
  9
$INTERSECTIONDISPLAY
280
     0
  9
$INTERSECTIONCOLOR
 70
   257
  9
$DIMASSOC
280
     2
  9
$PROJECTNAME
  1

  0
ENDSEC
  0
SECTION
  2
CLASSES
  0
CLASS
  1
ACDBDICTIONARYWDFLT
  2
AcDbDictionaryWithDefault
  3
ObjectDBX Classes
 90
        0
 91
        3
280
     0
281
     0
  0
CLASS
  1
VISUALSTYLE
  2
AcDbVisualStyle
  3
ObjectDBX Classes
 90
     4095
 91
        3
280
     0
281
     0
  0
ENDSEC
  0
SECTION
  2
TABLES
  0
TABLE
  2
VPORT
  5
8
330
0
100
AcDbSymbolTable
 70
     1
  0
VPORT
  5
29
330
8
100
AcDbSymbolTableRecord
100
AcDbViewportTableRecord
  2
*Active
 70
     0
 10
0.0
 20
0.0
 11
1.0
 21
1.0
 12
0.0
 22
0.0
 13
0.0
 23
0.0
 14
0.5
 24
0.5
 15
0.5
 25
0.5
 16
0.0
 26
0.0
 36
1.0
 17
38.29413112106883
 27
-35.64735038713851
 37
0.0
 40
71.29470077427702
 41
1.074249017253335
 42
50.0
 43
0.0
 44
0.0
 50
0.0
 51
0.0
 71
     0
 72
   100
 73
     1
 74
     3
 75
     0
 76
     0
 77
     0
 78
     0
281
     0
 65
     1
110
0.0
120
0.0
130
0.0
111
1.0
121
0.0
131
0.0
112
0.0
122
1.0
132
0.0
 79
     0
146
0.0
  0
ENDTAB
  0
TABLE
  2
LTYPE
  5
5
330
0
100
AcDbSymbolTable
 70
     9
  0
LTYPE
  5
14
330
5
100
AcDbSymbolTableRecord
100
AcDbLinetypeTableRecord
  2
ByBlock
 70
     0
  3

 72
    65
 73
     0
 40
0.0
  0
LTYPE
  5
15
330
5
100
AcDbSymbolTableRecord
100
AcDbLinetypeTableRecord
  2
ByLayer
 70
     0
  3

 72
    65
 73
     0
 40
0.0
  0
LTYPE
  5
16
330
5
100
AcDbSymbolTableRecord
100
AcDbLinetypeTableRecord
  2
Continuous
 70
     0
  3
Solid line
 72
    65
 73
     0
 40
0.0
  0
LTYPE
  5
37E
330
5
100
AcDbSymbolTableRecord
100
AcDbLinetypeTableRecord
  2
AI-Linetype-1
 70
     0
  3
Adobe Illustrator Linetype No. 1
 72
    65
 73
     4
 40
3.003525168913699
 49
0.7499984646617606
 74
     0
 49
-1.500000461892134
 74
     0
 49
0.7499984646617606
 74
     0
 49
-0.0035277776980439
 74
     0
  0
LTYPE
  5
383
330
5
100
AcDbSymbolTableRecord
100
AcDbLinetypeTableRecord
  2
AI-Linetype-2
 70
     0
  3
Adobe Illustrator Linetype No. 2
 72
    65
 73
     4
 40
3.003525168913699
 49
0.7499984646617606
 74
     0
 49
-1.500000461892134
 74
     0
 49
0.7499984646617606
 74
     0
 49
-0.0035277776980439
 74
     0
  0
LTYPE
  5
388
330
5
100
AcDbSymbolTableRecord
100
AcDbLinetypeTableRecord
  2
AI-Linetype-3
 70
     0
  3
Adobe Illustrator Linetype No. 3
 72
    65
 73
     4
 40
3.003525168913699
 49
0.7499984646617606
 74
     0
 49
-1.500000461892134
 74
     0
 49
0.7499984646617606
 74
     0
 49
-0.0035277776980439
 74
     0
  0
LTYPE
  5
38D
330
5
100
AcDbSymbolTableRecord
100
AcDbLinetypeTableRecord
  2
AI-Linetype-4
 70
     0
  3
Adobe Illustrator Linetype No. 4
 72
    65
 73
     4
 40
3.003525168913699
 49
0.7499984646617606
 74
     0
 49
-1.500000461892134
 74
     0
 49
0.7499984646617606
 74
     0
 49
-0.0035277776980439
 74
     0
  0
LTYPE
  5
3D8
330
5
100
AcDbSymbolTableRecord
100
AcDbLinetypeTableRecord
  2
AI-Linetype-5
 70
     0
  3
Adobe Illustrator Linetype No. 5
 72
    65
 73
     4
 40
3.003525168913699
 49
0.7499984646617606
 74
     0
 49
-1.500000461892134
 74
     0
 49
0.7499984646617606
 74
     0
 49
-0.0035277776980439
 74
     0
  0
LTYPE
  5
3DD
330
5
100
AcDbSymbolTableRecord
100
AcDbLinetypeTableRecord
  2
AI-Linetype-6
 70
     0
  3
Adobe Illustrator Linetype No. 6
 72
    65
 73
     4
 40
3.003525168913699
 49
0.7499984646617606
 74
     0
 49
-1.500000461892134
 74
     0
 49
0.7499984646617606
 74
     0
 49
-0.0035277776980439
 74
     0
  0
LTYPE
  5
3E2
330
5
100
AcDbSymbolTableRecord
100
AcDbLinetypeTableRecord
  2
AI-Linetype-7
 70
     0
  3
Adobe Illustrator Linetype No. 7
 72
    65
 73
     4
 40
3.003525168913699
 49
0.7499984646617606
 74
     0
 49
-1.500000461892134
 74
     0
 49
0.7499984646617606
 74
     0
 49
-0.0035277776980439
 74
     0
  0
LTYPE
  5
3E7
330
5
100
AcDbSymbolTableRecord
100
AcDbLinetypeTableRecord
  2
AI-Linetype-8
 70
     0
  3
Adobe Illustrator Linetype No. 8
 72
    65
 73
     4
 40
3.003525168913699
 49
0.7499984646617606
 74
     0
 49
-1.500000461892134
 74
     0
 49
0.7499984646617606
 74
     0
 49
-0.0035277776980439
 74
     0
  0
ENDTAB
  0
TABLE
  2
LAYER
  5
2
330
0
100
AcDbSymbolTable
 70
     2
  0
LAYER
  5
10
330
2
100
AcDbSymbolTableRecord
100
AcDbLayerTableRecord
  2
0
 70
     0
 62
     7
  6
Continuous
370
    -3
390
F
  0
LAYER
  5
3B
330
2
100
AcDbSymbolTableRecord
100
AcDbLayerTableRecord
  2
Capa 1
 70
     0
 62
     7
  6
Continuous
370
    -3
390
F
  0
ENDTAB
  0
TABLE
  2
STYLE
  5
3
330
0
100
AcDbSymbolTable
 70
     1
  0
STYLE
  5
11
330
3
100
AcDbSymbolTableRecord
100
AcDbTextStyleTableRecord
  2
Standard
 70
     0
 40
0.0
 41
1.0
 50
0.0
 71
     0
 42
0.2
  3
txt
  4

  0
ENDTAB
  0
TABLE
  2
VIEW
  5
6
330
0
100
AcDbSymbolTable
 70
     0
  0
ENDTAB
  0
TABLE
  2
UCS
  5
7
330
0
100
AcDbSymbolTable
 70
     0
  0
ENDTAB
  0
TABLE
  2
APPID
  5
9
330
0
100
AcDbSymbolTable
 70
     1
  0
APPID
  5
12
330
9
100
AcDbSymbolTableRecord
100
AcDbRegAppTableRecord
  2
ACAD
 70
     0
  0
ENDTAB
  0
TABLE
  2
DIMSTYLE
  5
A
330
0
100
AcDbSymbolTable
 70
     1
100
AcDbDimStyleTable
  0
DIMSTYLE
105
27
330
A
100
AcDbSymbolTableRecord
100
AcDbDimStyleTableRecord
  2
Standard
 70
     0
340
11
  0
ENDTAB
  0
TABLE
  2
BLOCK_RECORD
  5
1
330
0
100
AcDbSymbolTable
 70
    22
  0
BLOCK_RECORD
  5
1F
330
1
100
AcDbSymbolTableRecord
100
AcDbBlockTableRecord
  2
*Model_Space
340
22
  0
BLOCK_RECORD
  5
1B
330
1
100
AcDbSymbolTableRecord
100
AcDbBlockTableRecord
  2
*Paper_Space
340
1E
  0
BLOCK_RECORD
  5
23
330
1
100
AcDbSymbolTableRecord
100
AcDbBlockTableRecord
  2
*Paper_Space0
340
26
  0
BLOCK_RECORD
  5
3E8
330
1
100
AcDbSymbolTableRecord
100
AcDbBlockTableRecord
  2
block 2
340
0
102
{BLKREFS
331
3E9
102
}
  0
BLOCK_RECORD
  5
3F0
330
1
100
AcDbSymbolTableRecord
100
AcDbBlockTableRecord
  2
block 3
340
0
102
{BLKREFS
331
3F1
102
}
  0
BLOCK_RECORD
  5
3F8
330
1
100
AcDbSymbolTableRecord
100
AcDbBlockTableRecord
  2
block 4
340
0
102
{BLKREFS
331
3F9
102
}
  0
BLOCK_RECORD
  5
400
330
1
100
AcDbSymbolTableRecord
100
AcDbBlockTableRecord
  2
block 5
340
0
102
{BLKREFS
331
401
102
}
  0
BLOCK_RECORD
  5
408
330
1
100
AcDbSymbolTableRecord
100
AcDbBlockTableRecord
  2
block 6
340
0
102
{BLKREFS
331
409
102
}
  0
BLOCK_RECORD
  5
410
330
1
100
AcDbSymbolTableRecord
100
AcDbBlockTableRecord
  2
block 7
340
0
102
{BLKREFS
331
411
102
}
  0
BLOCK_RECORD
  5
418
330
1
100
AcDbSymbolTableRecord
100
AcDbBlockTableRecord
  2
block 8
340
0
102
{BLKREFS
331
419
102
}
  0
BLOCK_RECORD
  5
420
330
1
100
AcDbSymbolTableRecord
100
AcDbBlockTableRecord
  2
block 9
340
0
102
{BLKREFS
331
421
102
}
  0
BLOCK_RECORD
  5
428
330
1
100
AcDbSymbolTableRecord
100
AcDbBlockTableRecord
  2
block 10
340
0
102
{BLKREFS
331
429
102
}
  0
BLOCK_RECORD
  5
430
330
1
100
AcDbSymbolTableRecord
100
AcDbBlockTableRecord
  2
block 11
340
0
102
{BLKREFS
331
431
102
}
  0
BLOCK_RECORD
  5
438
330
1
100
AcDbSymbolTableRecord
100
AcDbBlockTableRecord
  2
block 12
340
0
102
{BLKREFS
331
439
102
}
  0
BLOCK_RECORD
  5
440
330
1
100
AcDbSymbolTableRecord
100
AcDbBlockTableRecord
  2
block 13
340
0
102
{BLKREFS
331
441
102
}
  0
BLOCK_RECORD
  5
448
330
1
100
AcDbSymbolTableRecord
100
AcDbBlockTableRecord
  2
block 14
340
0
102
{BLKREFS
331
449
102
}
  0
BLOCK_RECORD
  5
450
330
1
100
AcDbSymbolTableRecord
100
AcDbBlockTableRecord
  2
block 15
340
0
102
{BLKREFS
331
451
102
}
  0
BLOCK_RECORD
  5
458
330
1
100
AcDbSymbolTableRecord
100
AcDbBlockTableRecord
  2
block 16
340
0
102
{BLKREFS
331
459
102
}
  0
BLOCK_RECORD
  5
460
330
1
100
AcDbSymbolTableRecord
100
AcDbBlockTableRecord
  2
block 17
340
0
102
{BLKREFS
331
461
102
}
  0
BLOCK_RECORD
  5
468
330
1
100
AcDbSymbolTableRecord
100
AcDbBlockTableRecord
  2
block 18
340
0
102
{BLKREFS
331
469
102
}
  0
BLOCK_RECORD
  5
470
330
1
100
AcDbSymbolTableRecord
100
AcDbBlockTableRecord
  2
block 19
340
0
102
{BLKREFS
331
471
102
}
  0
BLOCK_RECORD
  5
478
330
1
100
AcDbSymbolTableRecord
100
AcDbBlockTableRecord
  2
block 20
340
0
102
{BLKREFS
331
479
102
}
  0
BLOCK_RECORD
  5
480
330
1
100
AcDbSymbolTableRecord
100
AcDbBlockTableRecord
  2
block 21
340
0
102
{BLKREFS
331
481
102
}
  0
BLOCK_RECORD
  5
488
330
1
100
AcDbSymbolTableRecord
100
AcDbBlockTableRecord
  2
block 22
340
0
102
{BLKREFS
331
489
102
}
  0
ENDTAB
  0
ENDSEC
  0
SECTION
  2
BLOCKS
  0
BLOCK
  5
20
330
1F
100
AcDbEntity
  8
0
100
AcDbBlockBegin
  2
*Model_Space
 70
     0
 71
     0
 10
0.0
 20
0.0
 30
0.0
  3
*Model_Space
  1

  0
ENDBLK
  5
21
330
1F
100
AcDbEntity
  8
0
100
AcDbBlockEnd
  0
BLOCK
  5
1C
330
1B
100
AcDbEntity
 67
     1
  8
0
100
AcDbBlockBegin
  2
*Paper_Space
 70
     0
 71
     0
 10
0.0
 20
0.0
 30
0.0
  3
*Paper_Space
  1

  0
ENDBLK
  5
1D
330
1B
100
AcDbEntity
 67
     1
  8
0
100
AcDbBlockEnd
  0
BLOCK
  5
24
330
23
100
AcDbEntity
  8
0
100
AcDbBlockBegin
  2
*Paper_Space0
 70
     0
 71
     0
 10
0.0
 20
0.0
 30
0.0
  3
*Paper_Space0
  1

  0
ENDBLK
  5
25
330
23
100
AcDbEntity
  8
0
100
AcDbBlockEnd
  0
BLOCK
  5
3EA
330
3E8
100
AcDbEntity
  8
0
100
AcDbBlockBegin
  2
block 2
 70
     0
 71
     0
 10
0.0
 20
0.0
 30
0.0
  3
block 2
  1

  0
POLYLINE
  5
3EC
330
3E8
100
AcDbEntity
  8
Capa 1
 62
   253
420
 11711154
370
    18
100
AcDb2dPolyline
 66
     1
 10
0.0
 20
0.0
 30
0.0
  0
VERTEX
  5
3ED
330
3EC
100
AcDbEntity
  8
Capa 1
 62
   253
420
 11711154
370
    18
100
AcDbVertex
100
AcDb2dVertex
 10
37.26163600413945
 20
-19.54350992349954
 30
0.0
  0
VERTEX
  5
3EE
330
3EC
100
AcDbEntity
  8
Capa 1
 62
   253
420
 11711154
370
    18
100
AcDbVertex
100
AcDb2dVertex
 10
37.26163600413945
 20
-19.54350992349954
 30
0.0
  0
SEQEND
  5
3EF
330
3EC
100
AcDbEntity
  8
Capa 1
370
    18
  0
ENDBLK
  5
3EB
330
3E8
100
AcDbEntity
  8
0
100
AcDbBlockEnd
  0
BLOCK
  5
3F2
330
3F0
100
AcDbEntity
  8
0
100
AcDbBlockBegin
  2
block 3
 70
     0
 71
     0
 10
0.0
 20
0.0
 30
0.0
  3
block 3
  1

  0
POLYLINE
  5
3F4
330
3F0
100
AcDbEntity
  8
Capa 1
 62
   253
420
 11711154
370
    18
100
AcDb2dPolyline
 66
     1
 10
0.0
 20
0.0
 30
0.0
  0
VERTEX
  5
3F5
330
3F4
100
AcDbEntity
  8
Capa 1
 62
   253
420
 11711154
370
    18
100
AcDbVertex
100
AcDb2dVertex
 10
25.96051702910015
 20
-36.23413627566369
 30
0.0
  0
VERTEX
  5
3F6
330
3F4
100
AcDbEntity
  8
Capa 1
 62
   253
420
 11711154
370
    18
100
AcDbVertex
100
AcDb2dVertex
 10
25.96051702910015
 20
-36.23413627566369
 30
0.0
  0
SEQEND
  5
3F7
330
3F4
100
AcDbEntity
  8
Capa 1
370
    18
  0
ENDBLK
  5
3F3
330
3F0
100
AcDbEntity
  8
0
100
AcDbBlockEnd
  0
BLOCK
  5
3FA
330
3F8
100
AcDbEntity
  8
0
100
AcDbBlockBegin
  2
block 4
 70
     0
 71
     0
 10
0.0
 20
0.0
 30
0.0
  3
block 4
  1

  0
POLYLINE
  5
3FC
330
3F8
100
AcDbEntity
  8
Capa 1
 62
   253
420
 11711154
370
    18
100
AcDb2dPolyline
 66
     1
 10
0.0
 20
0.0
 30
0.0
  0
VERTEX
  5
3FD
330
3FC
100
AcDbEntity
  8
Capa 1
 62
   253
420
 11711154
370
    18
100
AcDbVertex
100
AcDb2dVertex
 10
25.75157198791975
 20
-36.23413627566369
 30
0.0
  0
VERTEX
  5
3FE
330
3FC
100
AcDbEntity
  8
Capa 1
 62
   253
420
 11711154
370
    18
100
AcDbVertex
100
AcDb2dVertex
 10
25.75157198791975
 20
-36.23413627566369
 30
0.0
  0
SEQEND
  5
3FF
330
3FC
100
AcDbEntity
  8
Capa 1
370
    18
  0
ENDBLK
  5
3FB
330
3F8
100
AcDbEntity
  8
0
100
AcDbBlockEnd
  0
BLOCK
  5
402
330
400
100
AcDbEntity
  8
0
100
AcDbBlockBegin
  2
block 5
 70
     0
 71
     0
 10
0.0
 20
0.0
 30
0.0
  3
block 5
  1

  0
POLYLINE
  5
404
330
400
100
AcDbEntity
  8
Capa 1
 62
   253
420
 11711154
370
    18
100
AcDb2dPolyline
 66
     1
 10
0.0
 20
0.0
 30
0.0
  0
VERTEX
  5
405
330
404
100
AcDbEntity
  8
Capa 1
 62
   253
420
 11711154
370
    18
100
AcDbVertex
100
AcDb2dVertex
 10
27.32580836990466
 20
-54.39237330454427
 30
0.0
  0
VERTEX
  5
406
330
404
100
AcDbEntity
  8
Capa 1
 62
   253
420
 11711154
370
    18
100
AcDbVertex
100
AcDb2dVertex
 10
27.32580836990466
 20
-54.39237330454427
 30
0.0
  0
SEQEND
  5
407
330
404
100
AcDbEntity
  8
Capa 1
370
    18
  0
ENDBLK
  5
403
330
400
100
AcDbEntity
  8
0
100
AcDbBlockEnd
  0
BLOCK
  5
40A
330
408
100
AcDbEntity
  8
0
100
AcDbBlockBegin
  2
block 6
 70
     0
 71
     0
 10
0.0
 20
0.0
 30
0.0
  3
block 6
  1

  0
POLYLINE
  5
40C
330
408
100
AcDbEntity
  8
Capa 1
 62
   253
420
 11711154
370
    18
100
AcDb2dPolyline
 66
     1
 10
0.0
 20
0.0
 30
0.0
  0
VERTEX
  5
40D
330
40C
100
AcDbEntity
  8
Capa 1
 62
   253
420
 11711154
370
    18
100
AcDbVertex
100
AcDb2dVertex
 10
29.58544649868003
 20
-54.43113062875333
 30
0.0
  0
VERTEX
  5
40E
330
40C
100
AcDbEntity
  8
Capa 1
 62
   253
420
 11711154
370
    18
100
AcDbVertex
100
AcDb2dVertex
 10
29.58544649868003
 20
-54.43113062875333
 30
0.0
  0
SEQEND
  5
40F
330
40C
100
AcDbEntity
  8
Capa 1
370
    18
  0
ENDBLK
  5
40B
330
408
100
AcDbEntity
  8
0
100
AcDbBlockEnd
  0
BLOCK
  5
412
330
410
100
AcDbEntity
  8
0
100
AcDbBlockBegin
  2
block 7
 70
     0
 71
     0
 10
0.0
 20
0.0
 30
0.0
  3
block 7
  1

  0
POLYLINE
  5
414
330
410
100
AcDbEntity
  8
Capa 1
 62
   253
420
 11711154
370
    18
100
AcDb2dPolyline
 66
     1
 10
0.0
 20
0.0
 30
0.0
  0
VERTEX
  5
415
330
414
100
AcDbEntity
  8
Capa 1
 62
   253
420
 11711154
370
    18
100
AcDbVertex
100
AcDb2dVertex
 10
31.27095946483851
 20
-54.43113062875333
 30
0.0
  0
VERTEX
  5
416
330
414
100
AcDbEntity
  8
Capa 1
 62
   253
420
 11711154
370
    18
100
AcDbVertex
100
AcDb2dVertex
 10
31.27095946483851
 20
-54.43113062875333
 30
0.0
  0
SEQEND
  5
417
330
414
100
AcDbEntity
  8
Capa 1
370
    18
  0
ENDBLK
  5
413
330
410
100
AcDbEntity
  8
0
100
AcDbBlockEnd
  0
BLOCK
  5
41A
330
418
100
AcDbEntity
  8
0
100
AcDbBlockBegin
  2
block 8
 70
     0
 71
     0
 10
0.0
 20
0.0
 30
0.0
  3
block 8
  1

  0
POLYLINE
  5
41C
330
418
100
AcDbEntity
  8
Capa 1
 62
   253
420
 11711154
370
    18
100
AcDb2dPolyline
 66
     1
 10
0.0
 20
0.0
 30
0.0
  0
VERTEX
  5
41D
330
41C
100
AcDbEntity
  8
Capa 1
 62
   253
420
 11711154
370
    18
100
AcDbVertex
100
AcDb2dVertex
 10
54.15276691354514
 20
-35.84484048583046
 30
0.0
  0
VERTEX
  5
41E
330
41C
100
AcDbEntity
  8
Capa 1
 62
   253
420
 11711154
370
    18
100
AcDbVertex
100
AcDb2dVertex
 10
54.15276691354514
 20
-35.84484048583046
 30
0.0
  0
SEQEND
  5
41F
330
41C
100
AcDbEntity
  8
Capa 1
370
    18
  0
ENDBLK
  5
41B
330
418
100
AcDbEntity
  8
0
100
AcDbBlockEnd
  0
BLOCK
  5
422
330
420
100
AcDbEntity
  8
0
100
AcDbBlockBegin
  2
block 9
 70
     0
 71
     0
 10
0.0
 20
0.0
 30
0.0
  3
block 9
  1

  0
POLYLINE
  5
424
330
420
100
AcDbEntity
  8
Capa 1
 62
   253
420
 11711154
370
    18
100
AcDb2dPolyline
 66
     1
 10
0.0
 20
0.0
 30
0.0
  0
VERTEX
  5
425
330
424
100
AcDbEntity
  8
Capa 1
 62
   253
420
 11711154
370
    18
100
AcDbVertex
100
AcDb2dVertex
 10
52.38078205070689
 20
-39.51507296104137
 30
0.0
  0
VERTEX
  5
426
330
424
100
AcDbEntity
  8
Capa 1
 62
   253
420
 11711154
370
    18
100
AcDbVertex
100
AcDb2dVertex
 10
52.38078205070689
 20
-39.51507296104137
 30
0.0
  0
SEQEND
  5
427
330
424
100
AcDbEntity
  8
Capa 1
370
    18
  0
ENDBLK
  5
423
330
420
100
AcDbEntity
  8
0
100
AcDbBlockEnd
  0
BLOCK
  5
42A
330
428
100
AcDbEntity
  8
0
100
AcDbBlockBegin
  2
block 10
 70
     0
 71
     0
 10
0.0
 20
0.0
 30
0.0
  3
block 10
  1

  0
POLYLINE
  5
42C
330
428
100
AcDbEntity
  8
Capa 1
 62
   253
420
 11711154
370
    18
100
AcDb2dPolyline
 66
     1
 10
0.0
 20
0.0
 30
0.0
  0
VERTEX
  5
42D
330
42C
100
AcDbEntity
  8
Capa 1
 62
   253
420
 11711154
370
    18
100
AcDbVertex
100
AcDb2dVertex
 10
48.33141681734423
 20
-35.84484048583046
 30
0.0
  0
VERTEX
  5
42E
330
42C
100
AcDbEntity
  8
Capa 1
 62
   253
420
 11711154
370
    18
100
AcDbVertex
100
AcDb2dVertex
 10
48.33141681734423
 20
-35.84484048583046
 30
0.0
  0
SEQEND
  5
42F
330
42C
100
AcDbEntity
  8
Capa 1
370
    18
  0
ENDBLK
  5
42B
330
428
100
AcDbEntity
  8
0
100
AcDbBlockEnd
  0
BLOCK
  5
432
330
430
100
AcDbEntity
  8
0
100
AcDbBlockBegin
  2
block 11
 70
     0
 71
     0
 10
0.0
 20
0.0
 30
0.0
  3
block 11
  1

  0
POLYLINE
  5
434
330
430
100
AcDbEntity
  8
Capa 1
 62
   253
420
 11711154
370
    18
100
AcDb2dPolyline
 66
     1
 10
0.0
 20
0.0
 30
0.0
  0
VERTEX
  5
435
330
434
100
AcDbEntity
  8
Capa 1
 62
   253
420
 11711154
370
    18
100
AcDbVertex
100
AcDb2dVertex
 10
48.96410860321036
 20
-37.11039631233699
 30
0.0
  0
VERTEX
  5
436
330
434
100
AcDbEntity
  8
Capa 1
 62
   253
420
 11711154
370
    18
100
AcDbVertex
100
AcDb2dVertex
 10
48.96410860321036
 20
-37.11039631233699
 30
0.0
  0
SEQEND
  5
437
330
434
100
AcDbEntity
  8
Capa 1
370
    18
  0
ENDBLK
  5
433
330
430
100
AcDbEntity
  8
0
100
AcDbBlockEnd
  0
BLOCK
  5
43A
330
438
100
AcDbEntity
  8
0
100
AcDbBlockBegin
  2
block 12
 70
     0
 71
     0
 10
0.0
 20
0.0
 30
0.0
  3
block 12
  1

  0
POLYLINE
  5
43C
330
438
100
AcDbEntity
  8
Capa 1
 62
   253
420
 11711154
370
    18
100
AcDb2dPolyline
 66
     1
 10
0.0
 20
0.0
 30
0.0
  0
VERTEX
  5
43D
330
43C
100
AcDbEntity
  8
Capa 1
 62
   253
420
 11711154
370
    18
100
AcDbVertex
100
AcDb2dVertex
 10
25.75157198791975
 20
-33.95589463126797
 30
0.0
  0
VERTEX
  5
43E
330
43C
100
AcDbEntity
  8
Capa 1
 62
   253
420
 11711154
370
    18
100
AcDbVertex
100
AcDb2dVertex
 10
25.75157198791975
 20
-33.95589463126797
 30
0.0
  0
SEQEND
  5
43F
330
43C
100
AcDbEntity
  8
Capa 1
370
    18
  0
ENDBLK
  5
43B
330
438
100
AcDbEntity
  8
0
100
AcDbBlockEnd
  0
BLOCK
  5
442
330
440
100
AcDbEntity
  8
0
100
AcDbBlockBegin
  2
block 13
 70
     0
 71
     0
 10
0.0
 20
0.0
 30
0.0
  3
block 13
  1

  0
POLYLINE
  5
444
330
440
100
AcDbEntity
  8
Capa 1
 62
   253
420
 11711154
370
    18
100
AcDb2dPolyline
 66
     1
 10
0.0
 20
0.0
 30
0.0
  0
VERTEX
  5
445
330
444
100
AcDbEntity
  8
Capa 1
 62
   253
420
 11711154
370
    18
100
AcDbVertex
100
AcDb2dVertex
 10
32.71187065154425
 20
-34.33571640851677
 30
0.0
  0
VERTEX
  5
446
330
444
100
AcDbEntity
  8
Capa 1
 62
   253
420
 11711154
370
    18
100
AcDbVertex
100
AcDb2dVertex
 10
32.71187065154425
 20
-34.33571640851677
 30
0.0
  0
SEQEND
  5
447
330
444
100
AcDbEntity
  8
Capa 1
370
    18
  0
ENDBLK
  5
443
330
440
100
AcDbEntity
  8
0
100
AcDbBlockEnd
  0
BLOCK
  5
44A
330
448
100
AcDbEntity
  8
0
100
AcDbBlockBegin
  2
block 14
 70
     0
 71
     0
 10
0.0
 20
0.0
 30
0.0
  3
block 14
  1

  0
POLYLINE
  5
44C
330
448
100
AcDbEntity
  8
Capa 1
 62
   253
420
 11711154
370
    18
100
AcDb2dPolyline
 66
     1
 10
0.0
 20
0.0
 30
0.0
  0
VERTEX
  5
44D
330
44C
100
AcDbEntity
  8
Capa 1
 62
   253
420
 11711154
370
    18
100
AcDbVertex
100
AcDb2dVertex
 10
32.71187065154425
 20
-30.66324462124044
 30
0.0
  0
VERTEX
  5
44E
330
44C
100
AcDbEntity
  8
Capa 1
 62
   253
420
 11711154
370
    18
100
AcDbVertex
100
AcDb2dVertex
 10
32.71187065154425
 20
-30.66324462124044
 30
0.0
  0
SEQEND
  5
44F
330
44C
100
AcDbEntity
  8
Capa 1
370
    18
  0
ENDBLK
  5
44B
330
448
100
AcDbEntity
  8
0
100
AcDbBlockEnd
  0
BLOCK
  5
452
330
450
100
AcDbEntity
  8
0
100
AcDbBlockBegin
  2
block 15
 70
     0
 71
     0
 10
0.0
 20
0.0
 30
0.0
  3
block 15
  1

  0
POLYLINE
  5
454
330
450
100
AcDbEntity
  8
Capa 1
 62
   253
420
 11711154
370
    18
100
AcDb2dPolyline
 66
     1
 10
0.0
 20
0.0
 30
0.0
  0
VERTEX
  5
455
330
454
100
AcDbEntity
  8
Capa 1
 62
   253
420
 11711154
370
    18
100
AcDbVertex
100
AcDb2dVertex
 10
32.66777342933306
 20
-36.23413627566369
 30
0.0
  0
VERTEX
  5
456
330
454
100
AcDbEntity
  8
Capa 1
 62
   253
420
 11711154
370
    18
100
AcDbVertex
100
AcDb2dVertex
 10
32.66777342933306
 20
-36.23413627566369
 30
0.0
  0
SEQEND
  5
457
330
454
100
AcDbEntity
  8
Capa 1
370
    18
  0
ENDBLK
  5
453
330
450
100
AcDbEntity
  8
0
100
AcDbBlockEnd
  0
BLOCK
  5
45A
330
458
100
AcDbEntity
  8
0
100
AcDbBlockBegin
  2
block 16
 70
     0
 71
     0
 10
0.0
 20
0.0
 30
0.0
  3
block 16
  1

  0
POLYLINE
  5
45C
330
458
100
AcDbEntity
  8
Capa 1
 62
   253
420
 11711154
370
    18
100
AcDb2dPolyline
 66
     1
 10
0.0
 20
0.0
 30
0.0
  0
VERTEX
  5
45D
330
45C
100
AcDbEntity
  8
Capa 1
 62
   253
420
 11711154
370
    18
100
AcDbVertex
100
AcDb2dVertex
 10
31.38292506810913
 20
-38.51186115573662
 30
0.0
  0
VERTEX
  5
45E
330
45C
100
AcDbEntity
  8
Capa 1
 62
   253
420
 11711154
370
    18
100
AcDbVertex
100
AcDb2dVertex
 10
31.38292506810913
 20
-38.51186115573662
 30
0.0
  0
SEQEND
  5
45F
330
45C
100
AcDbEntity
  8
Capa 1
370
    18
  0
ENDBLK
  5
45B
330
458
100
AcDbEntity
  8
0
100
AcDbBlockEnd
  0
BLOCK
  5
462
330
460
100
AcDbEntity
  8
0
100
AcDbBlockBegin
  2
block 17
 70
     0
 71
     0
 10
0.0
 20
0.0
 30
0.0
  3
block 17
  1

  0
POLYLINE
  5
464
330
460
100
AcDbEntity
  8
Capa 1
 62
   253
420
 11711154
370
    18
100
AcDb2dPolyline
 66
     1
 10
0.0
 20
0.0
 30
0.0
  0
VERTEX
  5
465
330
464
100
AcDbEntity
  8
Capa 1
 62
   253
420
 11711154
370
    18
100
AcDbVertex
100
AcDb2dVertex
 10
27.56403672270969
 20
-54.43113062875333
 30
0.0
  0
VERTEX
  5
466
330
464
100
AcDbEntity
  8
Capa 1
 62
   253
420
 11711154
370
    18
100
AcDbVertex
100
AcDb2dVertex
 10
27.56403672270969
 20
-54.43113062875333
 30
0.0
  0
SEQEND
  5
467
330
464
100
AcDbEntity
  8
Capa 1
370
    18
  0
ENDBLK
  5
463
330
460
100
AcDbEntity
  8
0
100
AcDbBlockEnd
  0
BLOCK
  5
46A
330
468
100
AcDbEntity
  8
0
100
AcDbBlockBegin
  2
block 18
 70
     0
 71
     0
 10
0.0
 20
0.0
 30
0.0
  3
block 18
  1

  0
POLYLINE
  5
46C
330
468
100
AcDbEntity
  8
Capa 1
 62
   253
420
 11711154
370
    18
100
AcDb2dPolyline
 66
     1
 10
0.0
 20
0.0
 30
0.0
  0
VERTEX
  5
46D
330
46C
100
AcDbEntity
  8
Capa 1
 62
   253
420
 11711154
370
    18
100
AcDbVertex
100
AcDb2dVertex
 10
28.62357583919827
 20
-54.39237330454427
 30
0.0
  0
VERTEX
  5
46E
330
46C
100
AcDbEntity
  8
Capa 1
 62
   253
420
 11711154
370
    18
100
AcDbVertex
100
AcDb2dVertex
 10
28.62357583919827
 20
-54.39237330454427
 30
0.0
  0
SEQEND
  5
46F
330
46C
100
AcDbEntity
  8
Capa 1
370
    18
  0
ENDBLK
  5
46B
330
468
100
AcDbEntity
  8
0
100
AcDbBlockEnd
  0
BLOCK
  5
472
330
470
100
AcDbEntity
  8
0
100
AcDbBlockBegin
  2
block 19
 70
     0
 71
     0
 10
0.0
 20
0.0
 30
0.0
  3
block 19
  1

  0
POLYLINE
  5
474
330
470
100
AcDbEntity
  8
Capa 1
 62
   253
420
 11711154
370
    18
100
AcDb2dPolyline
 66
     1
 10
0.0
 20
0.0
 30
0.0
  0
VERTEX
  5
475
330
474
100
AcDbEntity
  8
Capa 1
 62
   253
420
 11711154
370
    18
100
AcDbVertex
100
AcDb2dVertex
 10
32.71187065154425
 20
-36.23413627566369
 30
0.0
  0
VERTEX
  5
476
330
474
100
AcDbEntity
  8
Capa 1
 62
   253
420
 11711154
370
    18
100
AcDbVertex
100
AcDb2dVertex
 10
32.71187065154425
 20
-36.23413627566369
 30
0.0
  0
SEQEND
  5
477
330
474
100
AcDbEntity
  8
Capa 1
370
    18
  0
ENDBLK
  5
473
330
470
100
AcDbEntity
  8
0
100
AcDbBlockEnd
  0
BLOCK
  5
47A
330
478
100
AcDbEntity
  8
0
100
AcDbBlockBegin
  2
block 20
 70
     0
 71
     0
 10
0.0
 20
0.0
 30
0.0
  3
block 20
  1

  0
POLYLINE
  5
47C
330
478
100
AcDbEntity
  8
Capa 1
 62
   253
420
 11711154
370
    18
100
AcDb2dPolyline
 66
     1
 10
0.0
 20
0.0
 30
0.0
  0
VERTEX
  5
47D
330
47C
100
AcDbEntity
  8
Capa 1
 62
   253
420
 11711154
370
    18
100
AcDbVertex
100
AcDb2dVertex
 10
31.27095946483851
 20
-54.43113062875333
 30
0.0
  0
VERTEX
  5
47E
330
47C
100
AcDbEntity
  8
Capa 1
 62
   253
420
 11711154
370
    18
100
AcDbVertex
100
AcDb2dVertex
 10
31.27095946483851
 20
-54.43113062875333
 30
0.0
  0
SEQEND
  5
47F
330
47C
100
AcDbEntity
  8
Capa 1
370
    18
  0
ENDBLK
  5
47B
330
478
100
AcDbEntity
  8
0
100
AcDbBlockEnd
  0
BLOCK
  5
482
330
480
100
AcDbEntity
  8
0
100
AcDbBlockBegin
  2
block 21
 70
     0
 71
     0
 10
0.0
 20
0.0
 30
0.0
  3
block 21
  1

  0
POLYLINE
  5
484
330
480
100
AcDbEntity
  8
Capa 1
 62
   253
420
 11711154
370
    18
100
AcDb2dPolyline
 66
     1
 10
0.0
 20
0.0
 30
0.0
  0
VERTEX
  5
485
330
484
100
AcDbEntity
  8
Capa 1
 62
   253
420
 11711154
370
    18
100
AcDbVertex
100
AcDb2dVertex
 10
50.10305717063396
 20
-39.51507296104137
 30
0.0
  0
VERTEX
  5
486
330
484
100
AcDbEntity
  8
Capa 1
 62
   253
420
 11711154
370
    18
100
AcDbVertex
100
AcDb2dVertex
 10
50.10305717063396
 20
-39.51507296104137
 30
0.0
  0
SEQEND
  5
487
330
484
100
AcDbEntity
  8
Capa 1
370
    18
  0
ENDBLK
  5
483
330
480
100
AcDbEntity
  8
0
100
AcDbBlockEnd
  0
BLOCK
  5
48A
330
488
100
AcDbEntity
  8
0
100
AcDbBlockBegin
  2
block 22
 70
     0
 71
     0
 10
0.0
 20
0.0
 30
0.0
  3
block 22
  1

  0
POLYLINE
  5
48C
330
488
100
AcDbEntity
  8
Capa 1
 62
   253
420
 11711154
370
    18
100
AcDb2dPolyline
 66
     1
 10
0.0
 20
0.0
 30
0.0
  0
VERTEX
  5
48D
330
48C
100
AcDbEntity
  8
Capa 1
 62
   253
420
 11711154
370
    18
100
AcDbVertex
100
AcDb2dVertex
 10
52.38078205070689
 20
-39.51507296104137
 30
0.0
  0
VERTEX
  5
48E
330
48C
100
AcDbEntity
  8
Capa 1
 62
   253
420
 11711154
370
    18
100
AcDbVertex
100
AcDb2dVertex
 10
52.38078205070689
 20
-39.51507296104137
 30
0.0
  0
SEQEND
  5
48F
330
48C
100
AcDbEntity
  8
Capa 1
370
    18
  0
ENDBLK
  5
48B
330
488
100
AcDbEntity
  8
0
100
AcDbBlockEnd
  0
ENDSEC
  0
SECTION
  2
ENTITIES
  0
POLYLINE
  5
3C
330
1F
100
AcDbEntity
  8
Capa 1
 62
     7
420
 16777215
370
    18
100
AcDb2dPolyline
 66
     1
 10
0.0
 20
0.0
 30
0.0
  0
VERTEX
  5
3D
330
3C
100
AcDbEntity
  8
Capa 1
 62
     7
420
 16777215
370
    18
100
AcDbVertex
100
AcDb2dVertex
 10
27.08034531658061
 20
-36.23413627566369
 30
0.0
  0
VERTEX
  5
3E
330
3C
100
AcDbEntity
  8
Capa 1
 62
     7
420
 16777215
370
    18
100
AcDbVertex
100
AcDb2dVertex
 10
27.08034531658061
 20
-38.51186115573662
 30
0.0
  0
SEQEND
  5
3F
330
3C
100
AcDbEntity
  8
Capa 1
370
    18
  0
POLYLINE
  5
40
330
1F
100
AcDbEntity
  8
Capa 1
 62
     7
420
 16777215
370
    18
100
AcDb2dPolyline
 66
     1
 10
0.0
 20
0.0
 30
0.0
  0
VERTEX
  5
41
330
40
100
AcDbEntity
  8
Capa 1
 62
     7
420
 16777215
370
    18
100
AcDbVertex
100
AcDb2dVertex
 10
31.38292506810913
 20
-36.23413627566369
 30
0.0
  0
VERTEX
  5
42
330
40
100
AcDbEntity
  8
Capa 1
 62
     7
420
 16777215
370
    18
100
AcDbVertex
100
AcDb2dVertex
 10
31.38292506810913
 20
-38.51186115573662
 30
0.0
  0
SEQEND
  5
43
330
40
100
AcDbEntity
  8
Capa 1
370
    18
  0
POLYLINE
  5
44
330
1F
100
AcDbEntity
  8
Capa 1
 62
     7
420
 16777215
370
    18
100
AcDb2dPolyline
 66
     1
 10
0.0
 20
0.0
 30
0.0
  0
VERTEX
  5
45
330
44
100
AcDbEntity
  8
Capa 1
 62
     7
420
 16777215
370
    18
100
AcDbVertex
100
AcDb2dVertex
 10
30.95435518974405
 20
-47.16352944784454
 30
0.0
  0
VERTEX
  5
46
330
44
100
AcDbEntity
  8
Capa 1
 62
     7
420
 16777215
370
    18
100
AcDbVertex
100
AcDb2dVertex
 10
30.95435518974405
 20
-46.07901338908789
 30
0.0
  0
SEQEND
  5
47
330
44
100
AcDbEntity
  8
Capa 1
370
    18
  0
POLYLINE
  5
48
330
1F
100
AcDbEntity
  8
Capa 1
 62
     7
420
 16777215
370
    18
100
AcDb2dPolyline
 66
     1
 10
0.0
 20
0.0
 30
0.0
  0
VERTEX
  5
49
330
48
100
AcDbEntity
  8
Capa 1
 62
     7
420
 16777215
370
    18
100
AcDbVertex
100
AcDb2dVertex
 10
29.68897161801179
 20
-47.50287135314164
 30
0.0
  0
VERTEX
  5
4A
330
48
100
AcDbEntity
  8
Capa 1
 62
     7
420
 16777215
370
    18
100
AcDbVertex
100
AcDb2dVertex
 10
29.68897161801179
 20
-46.07901338908789
 30
0.0
  0
SEQEND
  5
4B
330
48
100
AcDbEntity
  8
Capa 1
370
    18
  0
POLYLINE
  5
4C
330
1F
100
AcDbEntity
  8
Capa 1
 62
     7
420
 16777215
370
    18
100
AcDb2dPolyline
 66
     1
 10
0.0
 20
0.0
 30
0.0
  0
VERTEX
  5
4D
330
4C
100
AcDbEntity
  8
Capa 1
 62
     7
420
 16777215
370
    18
100
AcDbVertex
100
AcDb2dVertex
 10
28.86817761865101
 20
-47.72249619032632
 30
0.0
  0
VERTEX
  5
4E
330
4C
100
AcDbEntity
  8
Capa 1
 62
     7
420
 16777215
370
    18
100
AcDbVertex
100
AcDb2dVertex
 10
32.14739175628607
 20
-46.84399684158761
 30
0.0
  0
SEQEND
  5
4F
330
4C
100
AcDbEntity
  8
Capa 1
370
    18
  0
POLYLINE
  5
50
330
1F
100
AcDbEntity
  8
Capa 1
 62
     7
420
 16777215
370
    18
100
AcDb2dPolyline
 66
     1
 10
0.0
 20
0.0
 30
0.0
  0
VERTEX
  5
51
330
50
100
AcDbEntity
  8
Capa 1
 62
     7
420
 16777215
370
    18
100
AcDbVertex
100
AcDb2dVertex
 10
28.80409884262536
 20
-48.94929469262379
 30
0.0
  0
VERTEX
  5
52
330
50
100
AcDbEntity
  8
Capa 1
 62
     7
420
 16777215
370
    18
100
AcDbVertex
100
AcDb2dVertex
 10
32.19665662172514
 20
-48.0399617392921
 30
0.0
  0
SEQEND
  5
53
330
50
100
AcDbEntity
  8
Capa 1
370
    18
  0
POLYLINE
  5
54
330
1F
100
AcDbEntity
  8
Capa 1
 62
     7
420
 16777215
370
    18
100
AcDb2dPolyline
 66
     1
 10
0.0
 20
0.0
 30
0.0
  0
VERTEX
  5
55
330
54
100
AcDbEntity
  8
Capa 1
 62
     7
420
 16777215
370
    18
100
AcDbVertex
100
AcDb2dVertex
 10
29.68897161801179
 20
-53.16540254747254
 30
0.0
  0
VERTEX
  5
56
330
54
100
AcDbEntity
  8
Capa 1
 62
     7
420
 16777215
370
    18
100
AcDbVertex
100
AcDb2dVertex
 10
29.68897161801179
 20
-53.03896754316387
 30
0.0
  0
SEQEND
  5
57
330
54
100
AcDbEntity
  8
Capa 1
370
    18
  0
SPLINE
  5
58
330
1F
100
AcDbEntity
  8
Capa 1
 62
     7
420
 16777215
370
    18
100
AcDbSpline
210
0.0
220
0.0
230
1.0
 70
     8
 71
     3
 72
    11
 73
     7
 74
     0
 42
0.0000000001
 43
0.0000000001
 40
0.0
 40
0.0
 40
0.0
 40
0.0
 40
1.0
 40
1.0
 40
1.0
 40
2.0
 40
2.0
 40
2.0
 40
2.0
 10
30.89113768758972
 20
-52.97575004100954
 30
0.0
 10
31.00430907428018
 20
-52.96696504752215
 30
0.0
 10
31.08888616844306
 20
-52.86877982619253
 30
0.0
 10
31.08044568450419
 20
-52.75560843950207
 30
0.0
 10
31.07837862721304
 20
-52.72925345903991
 30
0.0
 10
31.07131618146828
 20
-52.70307073335201
 30
0.0
 10
31.05925834726991
 20
-52.67912731972952
 30
0.0
  0
SPLINE
  5
59
330
1F
100
AcDbEntity
  8
Capa 1
 62
     7
420
 16777215
370
    18
100
AcDbSpline
210
0.0
220
0.0
230
1.0
 70
     8
 71
     3
 72
    11
 73
     7
 74
     0
 42
0.0000000001
 43
0.0000000001
 40
0.0
 40
0.0
 40
0.0
 40
0.0
 40
1.0
 40
1.0
 40
1.0
 40
2.0
 40
2.0
 40
2.0
 40
2.0
 10
29.58406846048593
 20
-52.67912731972952
 30
0.0
 10
29.53342555685276
 20
-52.78058538177013
 30
0.0
 10
29.57424993835297
 20
-52.90409205491634
 30
0.0
 10
29.67570800039357
 20
-52.95473495854952
 30
0.0
 10
29.6994791592418
 20
-52.96644828319936
 30
0.0
 10
29.7256618849297
 20
-52.97385523849265
 30
0.0
 10
29.75218912016612
 20
-52.97575004100954
 30
0.0
  0
POLYLINE
  5
5A
330
1F
100
AcDbEntity
  8
Capa 1
 62
     7
420
 16777215
370
    18
100
AcDb2dPolyline
 66
     1
 10
0.0
 20
0.0
 30
0.0
  0
VERTEX
  5
5B
330
5A
100
AcDbEntity
  8
Capa 1
 62
     7
420
 16777215
370
    18
100
AcDbVertex
100
AcDb2dVertex
 10
29.56253661370312
 20
-50.88750541262535
 30
0.0
  0
VERTEX
  5
5C
330
5A
100
AcDbEntity
  8
Capa 1
 62
     7
420
 16777215
370
    18
100
AcDbVertex
100
AcDb2dVertex
 10
31.08096244882698
 20
-50.88750541262535
 30
0.0
  0
SEQEND
  5
5D
330
5A
100
AcDbEntity
  8
Capa 1
370
    18
  0
POLYLINE
  5
5E
330
1F
100
AcDbEntity
  8
Capa 1
 62
     7
420
 16777215
370
    18
100
AcDb2dPolyline
 66
     1
 10
0.0
 20
0.0
 30
0.0
  0
VERTEX
  5
5F
330
5E
100
AcDbEntity
  8
Capa 1
 62
     7
420
 16777215
370
    18
100
AcDbVertex
100
AcDb2dVertex
 10
30.95435518974405
 20
-52.46949325945207
 30
0.0
  0
VERTEX
  5
60
330
5E
100
AcDbEntity
  8
Capa 1
 62
     7
420
 16777215
370
    18
100
AcDbVertex
100
AcDb2dVertex
 10
30.95435518974405
 20
-51.58375921019434
 30
0.0
  0
SEQEND
  5
61
330
5E
100
AcDbEntity
  8
Capa 1
370
    18
  0
POLYLINE
  5
62
330
1F
100
AcDbEntity
  8
Capa 1
 62
     7
420
 16777215
370
    18
100
AcDb2dPolyline
 66
     1
 10
0.0
 20
0.0
 30
0.0
  0
VERTEX
  5
63
330
62
100
AcDbEntity
  8
Capa 1
 62
     7
420
 16777215
370
    18
100
AcDbVertex
100
AcDb2dVertex
 10
31.08096244882698
 20
-51.09334986786902
 30
0.0
  0
VERTEX
  5
64
330
62
100
AcDbEntity
  8
Capa 1
 62
     7
420
 16777215
370
    18
100
AcDbVertex
100
AcDb2dVertex
 10
31.08096244882698
 20
-50.88750541262535
 30
0.0
  0
SEQEND
  5
65
330
62
100
AcDbEntity
  8
Capa 1
370
    18
  0
SPLINE
  5
66
330
1F
100
AcDbEntity
  8
Capa 1
 62
     7
420
 16777215
370
    18
100
AcDbSpline
210
0.0
220
0.0
230
1.0
 70
     8
 71
     3
 72
     8
 73
     4
 74
     0
 42
0.0000000001
 43
0.0000000001
 40
0.0
 40
0.0
 40
0.0
 40
0.0
 40
1.0
 40
1.0
 40
1.0
 40
1.0
 10
30.95435518974405
 20
-51.58375921019434
 30
0.0
 10
31.03755424571284
 20
-51.43355304703745
 30
0.0
 10
31.08096244882698
 20
-51.26508787780873
 30
0.0
 10
31.08096244882698
 20
-51.09334986786902
 30
0.0
  0
POLYLINE
  5
67
330
1F
100
AcDbEntity
  8
Capa 1
 62
     7
420
 16777215
370
    18
100
AcDb2dPolyline
 66
     1
 10
0.0
 20
0.0
 30
0.0
  0
VERTEX
  5
68
330
67
100
AcDbEntity
  8
Capa 1
 62
     7
420
 16777215
370
    18
100
AcDbVertex
100
AcDb2dVertex
 10
30.95435518974405
 20
-52.46949325945207
 30
0.0
  0
VERTEX
  5
69
330
67
100
AcDbEntity
  8
Capa 1
 62
     7
420
 16777215
370
    18
100
AcDbVertex
100
AcDb2dVertex
 10
31.05925834726991
 20
-52.67912731972952
 30
0.0
  0
SEQEND
  5
6A
330
67
100
AcDbEntity
  8
Capa 1
370
    18
  0
POLYLINE
  5
6B
330
1F
100
AcDbEntity
  8
Capa 1
 62
     7
420
 16777215
370
    18
100
AcDb2dPolyline
 66
     1
 10
0.0
 20
0.0
 30
0.0
  0
VERTEX
  5
6C
330
6B
100
AcDbEntity
  8
Capa 1
 62
     7
420
 16777215
370
    18
100
AcDbVertex
100
AcDb2dVertex
 10
30.85961506389968
 20
-52.46949325945207
 30
0.0
  0
VERTEX
  5
6D
330
6B
100
AcDbEntity
  8
Capa 1
 62
     7
420
 16777215
370
    18
100
AcDbVertex
100
AcDb2dVertex
 10
30.85961506389968
 20
-51.58375921019434
 30
0.0
  0
SEQEND
  5
6E
330
6B
100
AcDbEntity
  8
Capa 1
370
    18
  0
POLYLINE
  5
6F
330
1F
100
AcDbEntity
  8
Capa 1
 62
     7
420
 16777215
370
    18
100
AcDb2dPolyline
 66
     1
 10
0.0
 20
0.0
 30
0.0
  0
VERTEX
  5
70
330
6F
100
AcDbEntity
  8
Capa 1
 62
     7
420
 16777215
370
    18
100
AcDbVertex
100
AcDb2dVertex
 10
30.47979328665089
 20
-52.46949325945207
 30
0.0
  0
VERTEX
  5
71
330
6F
100
AcDbEntity
  8
Capa 1
 62
     7
420
 16777215
370
    18
100
AcDbVertex
100
AcDb2dVertex
 10
30.47979328665089
 20
-51.58375921019434
 30
0.0
  0
SEQEND
  5
72
330
6F
100
AcDbEntity
  8
Capa 1
370
    18
  0
POLYLINE
  5
73
330
1F
100
AcDbEntity
  8
Capa 1
 62
     7
420
 16777215
370
    18
100
AcDb2dPolyline
 66
     1
 10
0.0
 20
0.0
 30
0.0
  0
VERTEX
  5
74
330
73
100
AcDbEntity
  8
Capa 1
 62
     7
420
 16777215
370
    18
100
AcDbVertex
100
AcDb2dVertex
 10
30.16353352110495
 20
-52.46949325945207
 30
0.0
  0
VERTEX
  5
75
330
73
100
AcDbEntity
  8
Capa 1
 62
     7
420
 16777215
370
    18
100
AcDbVertex
100
AcDb2dVertex
 10
30.16353352110495
 20
-51.58375921019434
 30
0.0
  0
SEQEND
  5
76
330
73
100
AcDbEntity
  8
Capa 1
370
    18
  0
POLYLINE
  5
77
330
1F
100
AcDbEntity
  8
Capa 1
 62
     7
420
 16777215
370
    18
100
AcDb2dPolyline
 66
     1
 10
0.0
 20
0.0
 30
0.0
  0
VERTEX
  5
78
330
77
100
AcDbEntity
  8
Capa 1
 62
     7
420
 16777215
370
    18
100
AcDbVertex
100
AcDb2dVertex
 10
30.63792316942385
 20
-52.46949325945207
 30
0.0
  0
VERTEX
  5
79
330
77
100
AcDbEntity
  8
Capa 1
 62
     7
420
 16777215
370
    18
100
AcDbVertex
100
AcDb2dVertex
 10
30.63792316942385
 20
-51.58375921019434
 30
0.0
  0
SEQEND
  5
7A
330
77
100
AcDbEntity
  8
Capa 1
370
    18
  0
SPLINE
  5
7B
330
1F
100
AcDbEntity
  8
Capa 1
 62
     7
420
 16777215
370
    18
100
AcDbSpline
210
0.0
220
0.0
230
1.0
 70
     8
 71
     3
 72
    11
 73
     7
 74
     0
 42
0.0000000001
 43
0.0000000001
 40
0.0
 40
0.0
 40
0.0
 40
0.0
 40
1.0
 40
1.0
 40
1.0
 40
2.0
 40
2.0
 40
2.0
 40
2.0
 10
30.16353352110495
 20
-52.46949325945207
 30
0.0
 10
30.16353352110495
 20
-52.55682643000316
 30
0.0
 10
30.23433023332684
 20
-52.6277953969993
 30
0.0
 10
30.32166340387792
 20
-52.6277953969993
 30
0.0
 10
30.408996574429
 20
-52.6277953969993
 30
0.0
 10
30.47979328665089
 20
-52.55682643000316
 30
0.0
 10
30.47979328665089
 20
-52.46949325945207
 30
0.0
  0
SPLINE
  5
7C
330
1F
100
AcDbEntity
  8
Capa 1
 62
     7
420
 16777215
370
    18
100
AcDbSpline
210
0.0
220
0.0
230
1.0
 70
     8
 71
     3
 72
    11
 73
     7
 74
     0
 42
0.0000000001
 43
0.0000000001
 40
0.0
 40
0.0
 40
0.0
 40
0.0
 40
1.0
 40
1.0
 40
1.0
 40
2.0
 40
2.0
 40
2.0
 40
2.0
 10
30.63792316942385
 20
-52.46949325945207
 30
0.0
 10
30.63792316942385
 20
-52.55682643000316
 30
0.0
 10
30.68770479918571
 20
-52.6277953969993
 30
0.0
 10
30.7488552440489
 20
-52.6277953969993
 30
0.0
 10
30.81000568891209
 20
-52.6277953969993
 30
0.0
 10
30.85961506389968
 20
-52.55682643000316
 30
0.0
 10
30.85961506389968
 20
-52.46949325945207
 30
0.0
  0
SPLINE
  5
7D
330
1F
100
AcDbEntity
  8
Capa 1
 62
     7
420
 16777215
370
    18
100
AcDbSpline
210
0.0
220
0.0
230
1.0
 70
     8
 71
     3
 72
    11
 73
     7
 74
     0
 42
0.0000000001
 43
0.0000000001
 40
0.0
 40
0.0
 40
0.0
 40
0.0
 40
1.0
 40
1.0
 40
1.0
 40
2.0
 40
2.0
 40
2.0
 40
2.0
 10
30.85961506389968
 20
-51.58375921019434
 30
0.0
 10
30.85961506389968
 20
-51.49608153009473
 30
0.0
 10
30.81000568891209
 20
-51.42528481787285
 30
0.0
 10
30.7488552440489
 20
-51.42528481787285
 30
0.0
 10
30.68770479918571
 20
-51.42528481787285
 30
0.0
 10
30.63792316942385
 20
-51.49608153009473
 30
0.0
 10
30.63792316942385
 20
-51.58375921019434
 30
0.0
  0
SPLINE
  5
7E
330
1F
100
AcDbEntity
  8
Capa 1
 62
     7
420
 16777215
370
    18
100
AcDbSpline
210
0.0
220
0.0
230
1.0
 70
     8
 71
     3
 72
    11
 73
     7
 74
     0
 42
0.0000000001
 43
0.0000000001
 40
0.0
 40
0.0
 40
0.0
 40
0.0
 40
1.0
 40
1.0
 40
1.0
 40
2.0
 40
2.0
 40
2.0
 40
2.0
 10
30.47979328665089
 20
-51.58375921019434
 30
0.0
 10
30.47979328665089
 20
-51.49608153009473
 30
0.0
 10
30.408996574429
 20
-51.42528481787285
 30
0.0
 10
30.32166340387792
 20
-51.42528481787285
 30
0.0
 10
30.23433023332684
 20
-51.42528481787285
 30
0.0
 10
30.16353352110495
 20
-51.49608153009473
 30
0.0
 10
30.16353352110495
 20
-51.58375921019434
 30
0.0
  0
POLYLINE
  5
7F
330
1F
100
AcDbEntity
  8
Capa 1
 62
     7
420
 16777215
370
    18
100
AcDb2dPolyline
 66
     1
 10
0.0
 20
0.0
 30
0.0
  0
VERTEX
  5
80
330
7F
100
AcDbEntity
  8
Capa 1
 62
     7
420
 16777215
370
    18
100
AcDbVertex
100
AcDb2dVertex
 10
29.56253661370312
 20
-51.09334986786902
 30
0.0
  0
VERTEX
  5
81
330
7F
100
AcDbEntity
  8
Capa 1
 62
     7
420
 16777215
370
    18
100
AcDbVertex
100
AcDb2dVertex
 10
29.56253661370312
 20
-50.88750541262535
 30
0.0
  0
SEQEND
  5
82
330
7F
100
AcDbEntity
  8
Capa 1
370
    18
  0
SPLINE
  5
83
330
1F
100
AcDbEntity
  8
Capa 1
 62
     7
420
 16777215
370
    18
100
AcDbSpline
210
0.0
220
0.0
230
1.0
 70
     8
 71
     3
 72
     8
 73
     4
 74
     0
 42
0.0000000001
 43
0.0000000001
 40
0.0
 40
0.0
 40
0.0
 40
0.0
 40
1.0
 40
1.0
 40
1.0
 40
1.0
 10
29.56253661370312
 20
-51.09334986786902
 30
0.0
 10
29.56253661370312
 20
-51.26508787780873
 30
0.0
 10
29.605772562043
 20
-51.43355304703745
 30
0.0
 10
29.68897161801179
 20
-51.58375921019434
 30
0.0
  0
POLYLINE
  5
84
330
1F
100
AcDbEntity
  8
Capa 1
 62
     7
420
 16777215
370
    18
100
AcDb2dPolyline
 66
     1
 10
0.0
 20
0.0
 30
0.0
  0
VERTEX
  5
85
330
84
100
AcDbEntity
  8
Capa 1
 62
     7
420
 16777215
370
    18
100
AcDbVertex
100
AcDb2dVertex
 10
29.68897161801179
 20
-52.46949325945207
 30
0.0
  0
VERTEX
  5
86
330
84
100
AcDbEntity
  8
Capa 1
 62
     7
420
 16777215
370
    18
100
AcDbVertex
100
AcDb2dVertex
 10
29.58406846048593
 20
-52.67912731972952
 30
0.0
  0
SEQEND
  5
87
330
84
100
AcDbEntity
  8
Capa 1
370
    18
  0
POLYLINE
  5
88
330
1F
100
AcDbEntity
  8
Capa 1
 62
     7
420
 16777215
370
    18
100
AcDb2dPolyline
 66
     1
 10
0.0
 20
0.0
 30
0.0
  0
VERTEX
  5
89
330
88
100
AcDbEntity
  8
Capa 1
 62
     7
420
 16777215
370
    18
100
AcDbVertex
100
AcDb2dVertex
 10
29.78388399863042
 20
-52.46949325945207
 30
0.0
  0
VERTEX
  5
8A
330
88
100
AcDbEntity
  8
Capa 1
 62
     7
420
 16777215
370
    18
100
AcDbVertex
100
AcDb2dVertex
 10
29.78388399863042
 20
-51.58375921019434
 30
0.0
  0
SEQEND
  5
8B
330
88
100
AcDbEntity
  8
Capa 1
370
    18
  0
POLYLINE
  5
8C
330
1F
100
AcDbEntity
  8
Capa 1
 62
     7
420
 16777215
370
    18
100
AcDb2dPolyline
 66
     1
 10
0.0
 20
0.0
 30
0.0
  0
VERTEX
  5
8D
330
8C
100
AcDbEntity
  8
Capa 1
 62
     7
420
 16777215
370
    18
100
AcDbVertex
100
AcDb2dVertex
 10
30.00523138355772
 20
-52.46949325945207
 30
0.0
  0
VERTEX
  5
8E
330
8C
100
AcDbEntity
  8
Capa 1
 62
     7
420
 16777215
370
    18
100
AcDbVertex
100
AcDb2dVertex
 10
30.00523138355772
 20
-51.58375921019434
 30
0.0
  0
SEQEND
  5
8F
330
8C
100
AcDbEntity
  8
Capa 1
370
    18
  0
SPLINE
  5
90
330
1F
100
AcDbEntity
  8
Capa 1
 62
     7
420
 16777215
370
    18
100
AcDbSpline
210
0.0
220
0.0
230
1.0
 70
     8
 71
     3
 72
    11
 73
     7
 74
     0
 42
0.0000000001
 43
0.0000000001
 40
0.0
 40
0.0
 40
0.0
 40
0.0
 40
1.0
 40
1.0
 40
1.0
 40
2.0
 40
2.0
 40
2.0
 40
2.0
 10
29.78388399863042
 20
-52.46949325945207
 30
0.0
 10
29.78388399863042
 20
-52.55682643000316
 30
0.0
 10
29.83332111884376
 20
-52.6277953969993
 30
0.0
 10
29.89481607325546
 20
-52.6277953969993
 30
0.0
 10
29.95596651811865
 20
-52.6277953969993
 30
0.0
 10
30.00523138355772
 20
-52.55682643000316
 30
0.0
 10
30.00523138355772
 20
-52.46949325945207
 30
0.0
  0
SPLINE
  5
91
330
1F
100
AcDbEntity
  8
Capa 1
 62
     7
420
 16777215
370
    18
100
AcDbSpline
210
0.0
220
0.0
230
1.0
 70
     8
 71
     3
 72
    11
 73
     7
 74
     0
 42
0.0000000001
 43
0.0000000001
 40
0.0
 40
0.0
 40
0.0
 40
0.0
 40
1.0
 40
1.0
 40
1.0
 40
2.0
 40
2.0
 40
2.0
 40
2.0
 10
30.00523138355772
 20
-51.58375921019434
 30
0.0
 10
30.00523138355772
 20
-51.49608153009473
 30
0.0
 10
29.95596651811865
 20
-51.42528481787285
 30
0.0
 10
29.89481607325546
 20
-51.42528481787285
 30
0.0
 10
29.83332111884376
 20
-51.42528481787285
 30
0.0
 10
29.78388399863042
 20
-51.49608153009473
 30
0.0
 10
29.78388399863042
 20
-51.58375921019434
 30
0.0
  0
POLYLINE
  5
92
330
1F
100
AcDbEntity
  8
Capa 1
 62
     7
420
 16777215
370
    18
100
AcDb2dPolyline
 66
     1
 10
0.0
 20
0.0
 30
0.0
  0
VERTEX
  5
93
330
92
100
AcDbEntity
  8
Capa 1
 62
     7
420
 16777215
370
    18
100
AcDbVertex
100
AcDb2dVertex
 10
29.68897161801179
 20
-52.46949325945207
 30
0.0
  0
VERTEX
  5
94
330
92
100
AcDbEntity
  8
Capa 1
 62
     7
420
 16777215
370
    18
100
AcDbVertex
100
AcDb2dVertex
 10
29.68897161801179
 20
-51.58375921019434
 30
0.0
  0
SEQEND
  5
95
330
92
100
AcDbEntity
  8
Capa 1
370
    18
  0
POLYLINE
  5
96
330
1F
100
AcDbEntity
  8
Capa 1
 62
     7
420
 16777215
370
    18
100
AcDb2dPolyline
 66
     1
 10
0.0
 20
0.0
 30
0.0
  0
VERTEX
  5
97
330
96
100
AcDbEntity
  8
Capa 1
 62
     7
420
 16777215
370
    18
100
AcDbVertex
100
AcDb2dVertex
 10
29.75218912016612
 20
-52.97575004100954
 30
0.0
  0
VERTEX
  5
98
330
96
100
AcDbEntity
  8
Capa 1
 62
     7
420
 16777215
370
    18
100
AcDbVertex
100
AcDb2dVertex
 10
30.89113768758972
 20
-52.97575004100954
 30
0.0
  0
SEQEND
  5
99
330
96
100
AcDbEntity
  8
Capa 1
370
    18
  0
POLYLINE
  5
9A
330
1F
100
AcDbEntity
  8
Capa 1
 62
     7
420
 16777215
370
    18
100
AcDb2dPolyline
 66
     1
 10
0.0
 20
0.0
 30
0.0
  0
VERTEX
  5
9B
330
9A
100
AcDbEntity
  8
Capa 1
 62
     7
420
 16777215
370
    18
100
AcDbVertex
100
AcDb2dVertex
 10
29.37253959769159
 20
-53.16540254747254
 30
0.0
  0
VERTEX
  5
9C
330
9A
100
AcDbEntity
  8
Capa 1
 62
     7
420
 16777215
370
    18
100
AcDbVertex
100
AcDb2dVertex
 10
31.27095946483851
 20
-53.16540254747254
 30
0.0
  0
SEQEND
  5
9D
330
9A
100
AcDbEntity
  8
Capa 1
370
    18
  0
POLYLINE
  5
9E
330
1F
100
AcDbEntity
  8
Capa 1
 62
     7
420
 16777215
370
    18
100
AcDb2dPolyline
 66
     1
 10
0.0
 20
0.0
 30
0.0
  0
VERTEX
  5
9F
330
9E
100
AcDbEntity
  8
Capa 1
 62
     7
420
 16777215
370
    18
100
AcDbVertex
100
AcDb2dVertex
 10
30.95435518974405
 20
-53.16540254747254
 30
0.0
  0
VERTEX
  5
A0
330
9E
100
AcDbEntity
  8
Capa 1
 62
     7
420
 16777215
370
    18
100
AcDbVertex
100
AcDb2dVertex
 10
30.95435518974405
 20
-53.03896754316387
 30
0.0
  0
SEQEND
  5
A1
330
9E
100
AcDbEntity
  8
Capa 1
370
    18
  0
SPLINE
  5
A2
330
1F
100
AcDbEntity
  8
Capa 1
 62
     7
420
 16777215
370
    18
100
AcDbSpline
210
0.0
220
0.0
230
1.0
 70
     8
 71
     3
 72
     8
 73
     4
 74
     0
 42
0.0000000001
 43
0.0000000001
 40
0.0
 40
0.0
 40
0.0
 40
0.0
 40
1.0
 40
1.0
 40
1.0
 40
1.0
 10
30.95435518974405
 20
-53.03896754316387
 30
0.0
 10
30.95435518974405
 20
-53.00399982398859
 30
0.0
 10
30.926105406765
 20
-52.97575004100954
 30
0.0
 10
30.89113768758972
 20
-52.97575004100954
 30
0.0
  0
POLYLINE
  5
A3
330
1F
100
AcDbEntity
  8
Capa 1
 62
     7
420
 16777215
370
    18
100
AcDb2dPolyline
 66
     1
 10
0.0
 20
0.0
 30
0.0
  0
VERTEX
  5
A4
330
A3
100
AcDbEntity
  8
Capa 1
 62
     7
420
 16777215
370
    18
100
AcDbVertex
100
AcDb2dVertex
 10
31.46061197130151
 20
-53.27512883867774
 30
0.0
  0
VERTEX
  5
A5
330
A3
100
AcDbEntity
  8
Capa 1
 62
     7
420
 16777215
370
    18
100
AcDbVertex
100
AcDb2dVertex
 10
31.46061197130151
 20
-54.32140433754812
 30
0.0
  0
SEQEND
  5
A6
330
A3
100
AcDbEntity
  8
Capa 1
370
    18
  0
POLYLINE
  5
A7
330
1F
100
AcDbEntity
  8
Capa 1
 62
     7
420
 16777215
370
    18
100
AcDb2dPolyline
 66
     1
 10
0.0
 20
0.0
 30
0.0
  0
VERTEX
  5
A8
330
A7
100
AcDbEntity
  8
Capa 1
 62
     7
420
 16777215
370
    18
100
AcDbVertex
100
AcDb2dVertex
 10
31.27095946483851
 20
-54.43113062875333
 30
0.0
  0
VERTEX
  5
A9
330
A7
100
AcDbEntity
  8
Capa 1
 62
     7
420
 16777215
370
    18
100
AcDbVertex
100
AcDb2dVertex
 10
29.37253959769159
 20
-54.43113062875333
 30
0.0
  0
SEQEND
  5
AA
330
A7
100
AcDbEntity
  8
Capa 1
370
    18
  0
SPLINE
  5
AB
330
1F
100
AcDbEntity
  8
Capa 1
 62
     7
420
 16777215
370
    18
100
AcDbSpline
210
0.0
220
0.0
230
1.0
 70
     8
 71
     3
 72
     8
 73
     4
 74
     0
 42
0.0000000001
 43
0.0000000001
 40
0.0
 40
0.0
 40
0.0
 40
0.0
 40
1.0
 40
1.0
 40
1.0
 40
1.0
 10
29.75218912016612
 20
-52.97575004100954
 30
0.0
 10
29.71722140099083
 20
-52.97575004100954
 30
0.0
 10
29.68897161801179
 20
-53.00399982398859
 30
0.0
 10
29.68897161801179
 20
-53.03896754316387
 30
0.0
  0
POLYLINE
  5
AC
330
1F
100
AcDbEntity
  8
Capa 1
 62
     7
420
 16777215
370
    18
100
AcDb2dPolyline
 66
     1
 10
0.0
 20
0.0
 30
0.0
  0
VERTEX
  5
AD
330
AC
100
AcDbEntity
  8
Capa 1
 62
     7
420
 16777215
370
    18
100
AcDbVertex
100
AcDb2dVertex
 10
31.27095946483851
 20
-53.16540254747254
 30
0.0
  0
VERTEX
  5
AE
330
AC
100
AcDbEntity
  8
Capa 1
 62
     7
420
 16777215
370
    18
100
AcDbVertex
100
AcDb2dVertex
 10
31.46061197130151
 20
-53.27512883867774
 30
0.0
  0
SEQEND
  5
AF
330
AC
100
AcDbEntity
  8
Capa 1
370
    18
  0
POLYLINE
  5
B0
330
1F
100
AcDbEntity
  8
Capa 1
 62
     7
420
 16777215
370
    18
100
AcDb2dPolyline
 66
     1
 10
0.0
 20
0.0
 30
0.0
  0
VERTEX
  5
B1
330
B0
100
AcDbEntity
  8
Capa 1
 62
     7
420
 16777215
370
    18
100
AcDbVertex
100
AcDb2dVertex
 10
31.27095946483851
 20
-54.43113062875333
 30
0.0
  0
VERTEX
  5
B2
330
B0
100
AcDbEntity
  8
Capa 1
 62
     7
420
 16777215
370
    18
100
AcDbVertex
100
AcDb2dVertex
 10
31.46061197130151
 20
-54.32140433754812
 30
0.0
  0
SEQEND
  5
B3
330
B0
100
AcDbEntity
  8
Capa 1
370
    18
  0
POLYLINE
  5
B4
330
1F
100
AcDbEntity
  8
Capa 1
 62
     7
420
 16777215
370
    18
100
AcDb2dPolyline
 66
     1
 10
0.0
 20
0.0
 30
0.0
  0
VERTEX
  5
B5
330
B4
100
AcDbEntity
  8
Capa 1
 62
     7
420
 16777215
370
    18
100
AcDbVertex
100
AcDb2dVertex
 10
29.68897161801179
 20
-53.27512883867774
 30
0.0
  0
VERTEX
  5
B6
330
B4
100
AcDbEntity
  8
Capa 1
 62
     7
420
 16777215
370
    18
100
AcDbVertex
100
AcDb2dVertex
 10
29.68897161801179
 20
-54.32140433754812
 30
0.0
  0
SEQEND
  5
B7
330
B4
100
AcDbEntity
  8
Capa 1
370
    18
  0
POLYLINE
  5
B8
330
1F
100
AcDbEntity
  8
Capa 1
 62
     7
420
 16777215
370
    18
100
AcDb2dPolyline
 66
     1
 10
0.0
 20
0.0
 30
0.0
  0
VERTEX
  5
B9
330
B8
100
AcDbEntity
  8
Capa 1
 62
     7
420
 16777215
370
    18
100
AcDbVertex
100
AcDb2dVertex
 10
30.95435518974405
 20
-53.27512883867774
 30
0.0
  0
VERTEX
  5
BA
330
B8
100
AcDbEntity
  8
Capa 1
 62
     7
420
 16777215
370
    18
100
AcDbVertex
100
AcDb2dVertex
 10
30.95435518974405
 20
-54.32140433754812
 30
0.0
  0
SEQEND
  5
BB
330
B8
100
AcDbEntity
  8
Capa 1
370
    18
  0
SPLINE
  5
BC
330
1F
100
AcDbEntity
  8
Capa 1
 62
     7
420
 16777215
370
    18
100
AcDbSpline
210
0.0
220
0.0
230
1.0
 70
     8
 71
     3
 72
     8
 73
     4
 74
     0
 42
0.0000000001
 43
0.0000000001
 40
0.0
 40
0.0
 40
0.0
 40
0.0
 40
1.0
 40
1.0
 40
1.0
 40
1.0
 10
30.95435518974405
 20
-53.27512883867774
 30
0.0
 10
30.5454223556449
 20
-53.12905679010316
 30
0.0
 10
30.09824896165947
 20
-53.12905679010316
 30
0.0
 10
29.68897161801179
 20
-53.27512883867774
 30
0.0
  0
SPLINE
  5
BD
330
1F
100
AcDbEntity
  8
Capa 1
 62
     7
420
 16777215
370
    18
100
AcDbSpline
210
0.0
220
0.0
230
1.0
 70
     8
 71
     3
 72
     8
 73
     4
 74
     0
 42
0.0000000001
 43
0.0000000001
 40
0.0
 40
0.0
 40
0.0
 40
0.0
 40
1.0
 40
1.0
 40
1.0
 40
1.0
 10
29.68897161801179
 20
-54.32140433754812
 30
0.0
 10
30.09824896165947
 20
-54.46747638612272
 30
0.0
 10
30.5454223556449
 20
-54.46747638612272
 30
0.0
 10
30.95435518974405
 20
-54.32140433754812
 30
0.0
  0
SPLINE
  5
BE
330
1F
100
AcDbEntity
  8
Capa 1
 62
     7
420
 16777215
370
    18
100
AcDbSpline
210
0.0
220
0.0
230
1.0
 70
     8
 71
     3
 72
     8
 73
     4
 74
     0
 42
0.0000000001
 43
0.0000000001
 40
0.0
 40
0.0
 40
0.0
 40
0.0
 40
1.0
 40
1.0
 40
1.0
 40
1.0
 10
29.37253959769159
 20
-54.43113062875333
 30
0.0
 10
29.48812255122172
 20
-54.43578150765842
 30
0.0
 10
29.60112168313792
 20
-54.39633516435231
 30
0.0
 10
29.68897161801179
 20
-54.32140433754812
 30
0.0
  0
SPLINE
  5
BF
330
1F
100
AcDbEntity
  8
Capa 1
 62
     7
420
 16777215
370
    18
100
AcDbSpline
210
0.0
220
0.0
230
1.0
 70
     8
 71
     3
 72
     8
 73
     4
 74
     0
 42
0.0000000001
 43
0.0000000001
 40
0.0
 40
0.0
 40
0.0
 40
0.0
 40
1.0
 40
1.0
 40
1.0
 40
1.0
 10
29.68897161801179
 20
-53.27512883867774
 30
0.0
 10
29.60112168313792
 20
-53.20019801187357
 30
0.0
 10
29.48812255122172
 20
-53.16109617811598
 30
0.0
 10
29.37253959769159
 20
-53.16540254747254
 30
0.0
  0
SPLINE
  5
C0
330
1F
100
AcDbEntity
  8
Capa 1
 62
     7
420
 16777215
370
    18
100
AcDbSpline
210
0.0
220
0.0
230
1.0
 70
     8
 71
     3
 72
     8
 73
     4
 74
     0
 42
0.0000000001
 43
0.0000000001
 40
0.0
 40
0.0
 40
0.0
 40
0.0
 40
1.0
 40
1.0
 40
1.0
 40
1.0
 10
31.27095946483851
 20
-53.16540254747254
 30
0.0
 10
31.15537651130838
 20
-53.16109617811598
 30
0.0
 10
31.04254963416645
 20
-53.20019801187357
 30
0.0
 10
30.95435518974405
 20
-53.27512883867774
 30
0.0
  0
SPLINE
  5
C1
330
1F
100
AcDbEntity
  8
Capa 1
 62
     7
420
 16777215
370
    18
100
AcDbSpline
210
0.0
220
0.0
230
1.0
 70
     8
 71
     3
 72
     8
 73
     4
 74
     0
 42
0.0000000001
 43
0.0000000001
 40
0.0
 40
0.0
 40
0.0
 40
0.0
 40
1.0
 40
1.0
 40
1.0
 40
1.0
 10
30.95435518974405
 20
-54.32140433754812
 30
0.0
 10
31.04254963416645
 20
-54.39633516435231
 30
0.0
 10
31.15537651130838
 20
-54.43578150765842
 30
0.0
 10
31.27095946483851
 20
-54.43113062875333
 30
0.0
  0
POLYLINE
  5
C2
330
1F
100
AcDbEntity
  8
Capa 1
 62
     7
420
 16777215
370
    18
100
AcDb2dPolyline
 66
     1
 10
0.0
 20
0.0
 30
0.0
  0
VERTEX
  5
C3
330
C2
100
AcDbEntity
  8
Capa 1
 62
     7
420
 16777215
370
    18
100
AcDbVertex
100
AcDb2dVertex
 10
29.18271483645432
 20
-53.27512883867774
 30
0.0
  0
VERTEX
  5
C4
330
C2
100
AcDbEntity
  8
Capa 1
 62
     7
420
 16777215
370
    18
100
AcDbVertex
100
AcDb2dVertex
 10
29.18271483645432
 20
-54.32140433754812
 30
0.0
  0
SEQEND
  5
C5
330
C2
100
AcDbEntity
  8
Capa 1
370
    18
  0
POLYLINE
  5
C6
330
1F
100
AcDbEntity
  8
Capa 1
 62
     7
420
 16777215
370
    18
100
AcDb2dPolyline
 66
     1
 10
0.0
 20
0.0
 30
0.0
  0
VERTEX
  5
C7
330
C6
100
AcDbEntity
  8
Capa 1
 62
     7
420
 16777215
370
    18
100
AcDbVertex
100
AcDb2dVertex
 10
29.37253959769159
 20
-53.16540254747254
 30
0.0
  0
VERTEX
  5
C8
330
C6
100
AcDbEntity
  8
Capa 1
 62
     7
420
 16777215
370
    18
100
AcDbVertex
100
AcDb2dVertex
 10
29.18271483645432
 20
-53.27512883867774
 30
0.0
  0
SEQEND
  5
C9
330
C6
100
AcDbEntity
  8
Capa 1
370
    18
  0
POLYLINE
  5
CA
330
1F
100
AcDbEntity
  8
Capa 1
 62
     7
420
 16777215
370
    18
100
AcDb2dPolyline
 66
     1
 10
0.0
 20
0.0
 30
0.0
  0
VERTEX
  5
CB
330
CA
100
AcDbEntity
  8
Capa 1
 62
     7
420
 16777215
370
    18
100
AcDbVertex
100
AcDb2dVertex
 10
29.37253959769159
 20
-54.43113062875333
 30
0.0
  0
VERTEX
  5
CC
330
CA
100
AcDbEntity
  8
Capa 1
 62
     7
420
 16777215
370
    18
100
AcDbVertex
100
AcDb2dVertex
 10
29.18271483645432
 20
-54.32140433754812
 30
0.0
  0
SEQEND
  5
CD
330
CA
100
AcDbEntity
  8
Capa 1
370
    18
  0
POLYLINE
  5
CE
330
1F
100
AcDbEntity
  8
Capa 1
 62
     7
420
 16777215
370
    18
100
AcDb2dPolyline
 66
     1
 10
0.0
 20
0.0
 30
0.0
  0
VERTEX
  5
CF
330
CE
100
AcDbEntity
  8
Capa 1
 62
     7
420
 16777215
370
    18
100
AcDbVertex
100
AcDb2dVertex
 10
30.95435518974405
 20
-50.88750541262535
 30
0.0
  0
VERTEX
  5
D0
330
CE
100
AcDbEntity
  8
Capa 1
 62
     7
420
 16777215
370
    18
100
AcDbVertex
100
AcDb2dVertex
 10
30.95435518974405
 20
-48.37310247271576
 30
0.0
  0
SEQEND
  5
D1
330
CE
100
AcDbEntity
  8
Capa 1
370
    18
  0
POLYLINE
  5
D2
330
1F
100
AcDbEntity
  8
Capa 1
 62
     7
420
 16777215
370
    18
100
AcDb2dPolyline
 66
     1
 10
0.0
 20
0.0
 30
0.0
  0
VERTEX
  5
D3
330
D2
100
AcDbEntity
  8
Capa 1
 62
     7
420
 16777215
370
    18
100
AcDbVertex
100
AcDb2dVertex
 10
29.68897161801179
 20
-48.71209986846434
 30
0.0
  0
VERTEX
  5
D4
330
D2
100
AcDbEntity
  8
Capa 1
 62
     7
420
 16777215
370
    18
100
AcDbVertex
100
AcDb2dVertex
 10
29.68897161801179
 20
-50.88750541262535
 30
0.0
  0
SEQEND
  5
D5
330
D2
100
AcDbEntity
  8
Capa 1
370
    18
  0
POLYLINE
  5
D6
330
1F
100
AcDbEntity
  8
Capa 1
 62
     7
420
 16777215
370
    18
100
AcDb2dPolyline
 66
     1
 10
0.0
 20
0.0
 30
0.0
  0
VERTEX
  5
D7
330
D6
100
AcDbEntity
  8
Capa 1
 62
     7
420
 16777215
370
    18
100
AcDbVertex
100
AcDb2dVertex
 10
29.18736571535941
 20
-40.03045924563475
 30
0.0
  0
VERTEX
  5
D8
330
D6
100
AcDbEntity
  8
Capa 1
 62
     7
420
 16777215
370
    18
100
AcDbVertex
100
AcDb2dVertex
 10
25.39104274538835
 20
-40.03045924563475
 30
0.0
  0
SEQEND
  5
D9
330
D6
100
AcDbEntity
  8
Capa 1
370
    18
  0
POLYLINE
  5
DA
330
1F
100
AcDbEntity
  8
Capa 1
 62
     7
420
 16777215
370
    18
100
AcDb2dPolyline
 66
     1
 10
0.0
 20
0.0
 30
0.0
  0
VERTEX
  5
DB
330
DA
100
AcDbEntity
  8
Capa 1
 62
     7
420
 16777215
370
    18
100
AcDbVertex
100
AcDb2dVertex
 10
32.984033194879
 20
-40.03045924563475
 30
0.0
  0
VERTEX
  5
DC
330
DA
100
AcDbEntity
  8
Capa 1
 62
     7
420
 16777215
370
    18
100
AcDbVertex
100
AcDb2dVertex
 10
29.18736571535941
 20
-40.03045924563475
 30
0.0
  0
SEQEND
  5
DD
330
DA
100
AcDbEntity
  8
Capa 1
370
    18
  0
POLYLINE
  5
DE
330
1F
100
AcDbEntity
  8
Capa 1
 62
     7
420
 16777215
370
    18
100
AcDb2dPolyline
 66
     1
 10
0.0
 20
0.0
 30
0.0
  0
VERTEX
  5
DF
330
DE
100
AcDbEntity
  8
Capa 1
 62
     7
420
 16777215
370
    18
100
AcDbVertex
100
AcDb2dVertex
 10
25.39104274538835
 20
-40.03045924563475
 30
0.0
  0
VERTEX
  5
E0
330
DE
100
AcDbEntity
  8
Capa 1
 62
     7
420
 16777215
370
    18
100
AcDbVertex
100
AcDb2dVertex
 10
25.39104274538835
 20
-39.77724472746888
 30
0.0
  0
SEQEND
  5
E1
330
DE
100
AcDbEntity
  8
Capa 1
370
    18
  0
POLYLINE
  5
E2
330
1F
100
AcDbEntity
  8
Capa 1
 62
     7
420
 16777215
370
    18
100
AcDb2dPolyline
 66
     1
 10
0.0
 20
0.0
 30
0.0
  0
VERTEX
  5
E3
330
E2
100
AcDbEntity
  8
Capa 1
 62
     7
420
 16777215
370
    18
100
AcDbVertex
100
AcDb2dVertex
 10
25.39104274538835
 20
-39.77724472746888
 30
0.0
  0
VERTEX
  5
E4
330
E2
100
AcDbEntity
  8
Capa 1
 62
     7
420
 16777215
370
    18
100
AcDbVertex
100
AcDb2dVertex
 10
27.08034531658061
 20
-38.51186115573662
 30
0.0
  0
SEQEND
  5
E5
330
E2
100
AcDbEntity
  8
Capa 1
370
    18
  0
POLYLINE
  5
E6
330
1F
100
AcDbEntity
  8
Capa 1
 62
     7
420
 16777215
370
    18
100
AcDb2dPolyline
 66
     1
 10
0.0
 20
0.0
 30
0.0
  0
VERTEX
  5
E7
330
E6
100
AcDbEntity
  8
Capa 1
 62
     7
420
 16777215
370
    18
100
AcDbVertex
100
AcDb2dVertex
 10
25.39104274538835
 20
-39.77724472746888
 30
0.0
  0
VERTEX
  5
E8
330
E6
100
AcDbEntity
  8
Capa 1
 62
     7
420
 16777215
370
    18
100
AcDbVertex
100
AcDb2dVertex
 10
32.984033194879
 20
-39.77724472746888
 30
0.0
  0
SEQEND
  5
E9
330
E6
100
AcDbEntity
  8
Capa 1
370
    18
  0
POLYLINE
  5
EA
330
1F
100
AcDbEntity
  8
Capa 1
 62
     7
420
 16777215
370
    18
100
AcDb2dPolyline
 66
     1
 10
0.0
 20
0.0
 30
0.0
  0
VERTEX
  5
EB
330
EA
100
AcDbEntity
  8
Capa 1
 62
     7
420
 16777215
370
    18
100
AcDbVertex
100
AcDb2dVertex
 10
32.984033194879
 20
-39.77724472746888
 30
0.0
  0
VERTEX
  5
EC
330
EA
100
AcDbEntity
  8
Capa 1
 62
     7
420
 16777215
370
    18
100
AcDbVertex
100
AcDb2dVertex
 10
32.984033194879
 20
-40.03045924563475
 30
0.0
  0
SEQEND
  5
ED
330
EA
100
AcDbEntity
  8
Capa 1
370
    18
  0
POLYLINE
  5
EE
330
1F
100
AcDbEntity
  8
Capa 1
 62
     7
420
 16777215
370
    18
100
AcDb2dPolyline
 66
     1
 10
0.0
 20
0.0
 30
0.0
  0
VERTEX
  5
EF
330
EE
100
AcDbEntity
  8
Capa 1
 62
     7
420
 16777215
370
    18
100
AcDbVertex
100
AcDb2dVertex
 10
32.984033194879
 20
-39.77724472746888
 30
0.0
  0
VERTEX
  5
F0
330
EE
100
AcDbEntity
  8
Capa 1
 62
     7
420
 16777215
370
    18
100
AcDbVertex
100
AcDb2dVertex
 10
31.38292506810913
 20
-38.51186115573662
 30
0.0
  0
SEQEND
  5
F1
330
EE
100
AcDbEntity
  8
Capa 1
370
    18
  0
POLYLINE
  5
F2
330
1F
100
AcDbEntity
  8
Capa 1
 62
     7
420
 16777215
370
    18
100
AcDb2dPolyline
 66
     1
 10
0.0
 20
0.0
 30
0.0
  0
VERTEX
  5
F3
330
F2
100
AcDbEntity
  8
Capa 1
 62
     7
420
 16777215
370
    18
100
AcDbVertex
100
AcDb2dVertex
 10
31.38292506810913
 20
-38.51186115573662
 30
0.0
  0
VERTEX
  5
F4
330
F2
100
AcDbEntity
  8
Capa 1
 62
     7
420
 16777215
370
    18
100
AcDbVertex
100
AcDb2dVertex
 10
27.08034531658061
 20
-38.51186115573662
 30
0.0
  0
SEQEND
  5
F5
330
F2
100
AcDbEntity
  8
Capa 1
370
    18
  0
POLYLINE
  5
F6
330
1F
100
AcDbEntity
  8
Capa 1
 62
     7
420
 16777215
370
    18
100
AcDb2dPolyline
 66
     1
 10
0.0
 20
0.0
 30
0.0
  0
VERTEX
  5
F7
330
F6
100
AcDbEntity
  8
Capa 1
 62
     7
420
 16777215
370
    18
100
AcDbVertex
100
AcDb2dVertex
 10
25.39104274538835
 20
-40.56513806494552
 30
0.0
  0
VERTEX
  5
F8
330
F6
100
AcDbEntity
  8
Capa 1
 62
     7
420
 16777215
370
    18
100
AcDbVertex
100
AcDb2dVertex
 10
32.984033194879
 20
-40.56513806494552
 30
0.0
  0
SEQEND
  5
F9
330
F6
100
AcDbEntity
  8
Capa 1
370
    18
  0
POLYLINE
  5
FA
330
1F
100
AcDbEntity
  8
Capa 1
 62
     7
420
 16777215
370
    18
100
AcDb2dPolyline
 66
     1
 10
0.0
 20
0.0
 30
0.0
  0
VERTEX
  5
FB
330
FA
100
AcDbEntity
  8
Capa 1
 62
     7
420
 16777215
370
    18
100
AcDbVertex
100
AcDb2dVertex
 10
32.984033194879
 20
-40.56513806494552
 30
0.0
  0
VERTEX
  5
FC
330
FA
100
AcDbEntity
  8
Capa 1
 62
     7
420
 16777215
370
    18
100
AcDbVertex
100
AcDb2dVertex
 10
32.984033194879
 20
-40.81835258311138
 30
0.0
  0
SEQEND
  5
FD
330
FA
100
AcDbEntity
  8
Capa 1
370
    18
  0
POLYLINE
  5
FE
330
1F
100
AcDbEntity
  8
Capa 1
 62
     7
420
 16777215
370
    18
100
AcDb2dPolyline
 66
     1
 10
0.0
 20
0.0
 30
0.0
  0
VERTEX
  5
FF
330
FE
100
AcDbEntity
  8
Capa 1
 62
     7
420
 16777215
370
    18
100
AcDbVertex
100
AcDb2dVertex
 10
32.984033194879
 20
-40.81835258311138
 30
0.0
  0
VERTEX
  5
100
330
FE
100
AcDbEntity
  8
Capa 1
 62
     7
420
 16777215
370
    18
100
AcDbVertex
100
AcDb2dVertex
 10
25.39104274538835
 20
-40.81835258311138
 30
0.0
  0
SEQEND
  5
101
330
FE
100
AcDbEntity
  8
Capa 1
370
    18
  0
POLYLINE
  5
102
330
1F
100
AcDbEntity
  8
Capa 1
 62
     7
420
 16777215
370
    18
100
AcDb2dPolyline
 66
     1
 10
0.0
 20
0.0
 30
0.0
  0
VERTEX
  5
103
330
102
100
AcDbEntity
  8
Capa 1
 62
     7
420
 16777215
370
    18
100
AcDbVertex
100
AcDb2dVertex
 10
25.39104274538835
 20
-40.81835258311138
 30
0.0
  0
VERTEX
  5
104
330
102
100
AcDbEntity
  8
Capa 1
 62
     7
420
 16777215
370
    18
100
AcDbVertex
100
AcDb2dVertex
 10
25.39104274538835
 20
-40.56513806494552
 30
0.0
  0
SEQEND
  5
105
330
102
100
AcDbEntity
  8
Capa 1
370
    18
  0
POLYLINE
  5
106
330
1F
100
AcDbEntity
  8
Capa 1
 62
     7
420
 16777215
370
    18
100
AcDb2dPolyline
 66
     1
 10
0.0
 20
0.0
 30
0.0
  0
VERTEX
  5
107
330
106
100
AcDbEntity
  8
Capa 1
 62
     7
420
 16777215
370
    18
100
AcDbVertex
100
AcDb2dVertex
 10
27.08034531658061
 20
-40.03045924563475
 30
0.0
  0
VERTEX
  5
108
330
106
100
AcDbEntity
  8
Capa 1
 62
     7
420
 16777215
370
    18
100
AcDbVertex
100
AcDb2dVertex
 10
27.08034531658061
 20
-40.56513806494552
 30
0.0
  0
SEQEND
  5
109
330
106
100
AcDbEntity
  8
Capa 1
370
    18
  0
POLYLINE
  5
10A
330
1F
100
AcDbEntity
  8
Capa 1
 62
     7
420
 16777215
370
    18
100
AcDb2dPolyline
 66
     1
 10
0.0
 20
0.0
 30
0.0
  0
VERTEX
  5
10B
330
10A
100
AcDbEntity
  8
Capa 1
 62
     7
420
 16777215
370
    18
100
AcDbVertex
100
AcDb2dVertex
 10
31.38292506810913
 20
-40.03045924563475
 30
0.0
  0
VERTEX
  5
10C
330
10A
100
AcDbEntity
  8
Capa 1
 62
     7
420
 16777215
370
    18
100
AcDbVertex
100
AcDb2dVertex
 10
31.38292506810913
 20
-40.56513806494552
 30
0.0
  0
SEQEND
  5
10D
330
10A
100
AcDbEntity
  8
Capa 1
370
    18
  0
POLYLINE
  5
10E
330
1F
100
AcDbEntity
  8
Capa 1
 62
     7
420
 16777215
370
    18
100
AcDb2dPolyline
 66
     1
 10
0.0
 20
0.0
 30
0.0
  0
VERTEX
  5
10F
330
10E
100
AcDbEntity
  8
Capa 1
 62
     7
420
 16777215
370
    18
100
AcDbVertex
100
AcDb2dVertex
 10
31.8450846274554
 20
-40.81835258311138
 30
0.0
  0
VERTEX
  5
110
330
10E
100
AcDbEntity
  8
Capa 1
 62
     7
420
 16777215
370
    18
100
AcDbVertex
100
AcDb2dVertex
 10
31.8450846274554
 20
-41.83052163667779
 30
0.0
  0
SEQEND
  5
111
330
10E
100
AcDbEntity
  8
Capa 1
370
    18
  0
POLYLINE
  5
112
330
1F
100
AcDbEntity
  8
Capa 1
 62
     7
420
 16777215
370
    18
100
AcDb2dPolyline
 66
     1
 10
0.0
 20
0.0
 30
0.0
  0
VERTEX
  5
113
330
112
100
AcDbEntity
  8
Capa 1
 62
     7
420
 16777215
370
    18
100
AcDbVertex
100
AcDb2dVertex
 10
31.8450846274554
 20
-41.83052163667779
 30
0.0
  0
VERTEX
  5
114
330
112
100
AcDbEntity
  8
Capa 1
 62
     7
420
 16777215
370
    18
100
AcDbVertex
100
AcDb2dVertex
 10
26.52999131281195
 20
-41.83052163667779
 30
0.0
  0
SEQEND
  5
115
330
112
100
AcDbEntity
  8
Capa 1
370
    18
  0
POLYLINE
  5
116
330
1F
100
AcDbEntity
  8
Capa 1
 62
     7
420
 16777215
370
    18
100
AcDb2dPolyline
 66
     1
 10
0.0
 20
0.0
 30
0.0
  0
VERTEX
  5
117
330
116
100
AcDbEntity
  8
Capa 1
 62
     7
420
 16777215
370
    18
100
AcDbVertex
100
AcDb2dVertex
 10
26.52999131281195
 20
-41.83052163667779
 30
0.0
  0
VERTEX
  5
118
330
116
100
AcDbEntity
  8
Capa 1
 62
     7
420
 16777215
370
    18
100
AcDbVertex
100
AcDb2dVertex
 10
26.52999131281195
 20
-40.81835258311138
 30
0.0
  0
SEQEND
  5
119
330
116
100
AcDbEntity
  8
Capa 1
370
    18
  0
POLYLINE
  5
11A
330
1F
100
AcDbEntity
  8
Capa 1
 62
     7
420
 16777215
370
    18
100
AcDb2dPolyline
 66
     1
 10
0.0
 20
0.0
 30
0.0
  0
VERTEX
  5
11B
330
11A
100
AcDbEntity
  8
Capa 1
 62
     7
420
 16777215
370
    18
100
AcDbVertex
100
AcDb2dVertex
 10
28.03170843483235
 20
-41.83052163667779
 30
0.0
  0
VERTEX
  5
11C
330
11A
100
AcDbEntity
  8
Capa 1
 62
     7
420
 16777215
370
    18
100
AcDbVertex
100
AcDb2dVertex
 10
28.03170843483235
 20
-40.81835258311138
 30
0.0
  0
SEQEND
  5
11D
330
11A
100
AcDbEntity
  8
Capa 1
370
    18
  0
POLYLINE
  5
11E
330
1F
100
AcDbEntity
  8
Capa 1
 62
     7
420
 16777215
370
    18
100
AcDb2dPolyline
 66
     1
 10
0.0
 20
0.0
 30
0.0
  0
VERTEX
  5
11F
330
11E
100
AcDbEntity
  8
Capa 1
 62
     7
420
 16777215
370
    18
100
AcDbVertex
100
AcDb2dVertex
 10
30.38901502061455
 20
-41.83052163667779
 30
0.0
  0
VERTEX
  5
120
330
11E
100
AcDbEntity
  8
Capa 1
 62
     7
420
 16777215
370
    18
100
AcDbVertex
100
AcDb2dVertex
 10
30.38901502061455
 20
-40.81835258311138
 30
0.0
  0
SEQEND
  5
121
330
11E
100
AcDbEntity
  8
Capa 1
370
    18
  0
POLYLINE
  5
122
330
1F
100
AcDbEntity
  8
Capa 1
 62
     7
420
 16777215
370
    18
100
AcDb2dPolyline
 66
     1
 10
0.0
 20
0.0
 30
0.0
  0
VERTEX
  5
123
330
122
100
AcDbEntity
  8
Capa 1
 62
     7
420
 16777215
370
    18
100
AcDbVertex
100
AcDb2dVertex
 10
27.08034531658061
 20
-41.83052163667779
 30
0.0
  0
VERTEX
  5
124
330
122
100
AcDbEntity
  8
Capa 1
 62
     7
420
 16777215
370
    18
100
AcDbVertex
100
AcDb2dVertex
 10
27.08034531658061
 20
-42.81461316203941
 30
0.0
  0
SEQEND
  5
125
330
122
100
AcDbEntity
  8
Capa 1
370
    18
  0
POLYLINE
  5
126
330
1F
100
AcDbEntity
  8
Capa 1
 62
     7
420
 16777215
370
    18
100
AcDb2dPolyline
 66
     1
 10
0.0
 20
0.0
 30
0.0
  0
VERTEX
  5
127
330
126
100
AcDbEntity
  8
Capa 1
 62
     7
420
 16777215
370
    18
100
AcDbVertex
100
AcDb2dVertex
 10
31.38292506810913
 20
-41.83052163667779
 30
0.0
  0
VERTEX
  5
128
330
126
100
AcDbEntity
  8
Capa 1
 62
     7
420
 16777215
370
    18
100
AcDbVertex
100
AcDb2dVertex
 10
31.38292506810913
 20
-42.81461316203941
 30
0.0
  0
SEQEND
  5
129
330
126
100
AcDbEntity
  8
Capa 1
370
    18
  0
POLYLINE
  5
12A
330
1F
100
AcDbEntity
  8
Capa 1
 62
     7
420
 16777215
370
    18
100
AcDb2dPolyline
 66
     1
 10
0.0
 20
0.0
 30
0.0
  0
VERTEX
  5
12B
330
12A
100
AcDbEntity
  8
Capa 1
 62
     7
420
 16777215
370
    18
100
AcDbVertex
100
AcDb2dVertex
 10
27.08034531658061
 20
-42.81461316203941
 30
0.0
  0
VERTEX
  5
12C
330
12A
100
AcDbEntity
  8
Capa 1
 62
     7
420
 16777215
370
    18
100
AcDbVertex
100
AcDb2dVertex
 10
31.38292506810913
 20
-42.81461316203941
 30
0.0
  0
SEQEND
  5
12D
330
12A
100
AcDbEntity
  8
Capa 1
370
    18
  0
SPLINE
  5
12E
330
1F
100
AcDbEntity
  8
Capa 1
 62
     7
420
 16777215
370
    18
100
AcDbSpline
210
0.0
220
0.0
230
1.0
 70
     8
 71
     3
 72
    11
 73
     7
 74
     0
 42
0.0000000001
 43
0.0000000001
 40
0.0
 40
0.0
 40
0.0
 40
0.0
 40
1.0
 40
1.0
 40
1.0
 40
2.0
 40
2.0
 40
2.0
 40
2.0
 10
28.66405571114996
 20
-44.06638860660493
 30
0.0
 10
28.70694714994132
 20
-43.98026121947369
 30
0.0
 10
28.67232394031456
 20
-43.87553031672209
 30
0.0
 10
28.58585204363479
 20
-43.83229436838221
 30
0.0
 10
28.56552598027181
 20
-43.82195908192646
 30
0.0
 10
28.54347736916622
 20
-43.81610241960153
 30
0.0
 10
28.52125650328635
 20
-43.8143798718589
 30
0.0
  0
SPLINE
  5
12F
330
1F
100
AcDbEntity
  8
Capa 1
 62
     7
420
 16777215
370
    18
100
AcDbSpline
210
0.0
220
0.0
230
1.0
 70
     8
 71
     3
 72
    11
 73
     7
 74
     0
 42
0.0000000001
 43
0.0000000001
 40
0.0
 40
0.0
 40
0.0
 40
0.0
 40
1.0
 40
1.0
 40
1.0
 40
2.0
 40
2.0
 40
2.0
 40
2.0
 10
27.55284016238263
 20
-43.8143798718589
 30
0.0
 10
27.45689425311842
 20
-43.8217868271522
 30
0.0
 10
27.38489175747669
 20
-43.90550264744377
 30
0.0
 10
27.39229871276998
 20
-44.00144855670797
 30
0.0
 10
27.39367675096408
 20
-44.02401393213636
 30
0.0
 10
27.39987792283753
 20
-44.04606254324196
 30
0.0
 10
27.41021320929328
 20
-44.06638860660493
 30
0.0
  0
POLYLINE
  5
130
330
1F
100
AcDbEntity
  8
Capa 1
 62
     7
420
 16777215
370
    18
100
AcDb2dPolyline
 66
     1
 10
0.0
 20
0.0
 30
0.0
  0
VERTEX
  5
131
330
130
100
AcDbEntity
  8
Capa 1
 62
     7
420
 16777215
370
    18
100
AcDbVertex
100
AcDb2dVertex
 10
27.39160969367293
 20
-45.58929306585962
 30
0.0
  0
VERTEX
  5
132
330
130
100
AcDbEntity
  8
Capa 1
 62
     7
420
 16777215
370
    18
100
AcDbVertex
100
AcDb2dVertex
 10
28.68265922677031
 20
-45.58929306585962
 30
0.0
  0
SEQEND
  5
133
330
130
100
AcDbEntity
  8
Capa 1
370
    18
  0
POLYLINE
  5
134
330
1F
100
AcDbEntity
  8
Capa 1
 62
     7
420
 16777215
370
    18
100
AcDb2dPolyline
 66
     1
 10
0.0
 20
0.0
 30
0.0
  0
VERTEX
  5
135
330
134
100
AcDbEntity
  8
Capa 1
 62
     7
420
 16777215
370
    18
100
AcDbVertex
100
AcDb2dVertex
 10
28.57465548330773
 20
-44.24484455274087
 30
0.0
  0
VERTEX
  5
136
330
134
100
AcDbEntity
  8
Capa 1
 62
     7
420
 16777215
370
    18
100
AcDbVertex
100
AcDb2dVertex
 10
28.57465548330773
 20
-44.99777017104223
 30
0.0
  0
SEQEND
  5
137
330
134
100
AcDbEntity
  8
Capa 1
370
    18
  0
POLYLINE
  5
138
330
1F
100
AcDbEntity
  8
Capa 1
 62
     7
420
 16777215
370
    18
100
AcDb2dPolyline
 66
     1
 10
0.0
 20
0.0
 30
0.0
  0
VERTEX
  5
139
330
138
100
AcDbEntity
  8
Capa 1
 62
     7
420
 16777215
370
    18
100
AcDbVertex
100
AcDb2dVertex
 10
28.68265922677031
 20
-45.41428221520893
 30
0.0
  0
VERTEX
  5
13A
330
138
100
AcDbEntity
  8
Capa 1
 62
     7
420
 16777215
370
    18
100
AcDbVertex
100
AcDb2dVertex
 10
28.68265922677031
 20
-45.58929306585962
 30
0.0
  0
SEQEND
  5
13B
330
138
100
AcDbEntity
  8
Capa 1
370
    18
  0
SPLINE
  5
13C
330
1F
100
AcDbEntity
  8
Capa 1
 62
     7
420
 16777215
370
    18
100
AcDbSpline
210
0.0
220
0.0
230
1.0
 70
     8
 71
     3
 72
     8
 73
     4
 74
     0
 42
0.0000000001
 43
0.0000000001
 40
0.0
 40
0.0
 40
0.0
 40
0.0
 40
1.0
 40
1.0
 40
1.0
 40
1.0
 10
28.68265922677031
 20
-45.41428221520893
 30
0.0
 10
28.68265922677031
 20
-45.26855467618287
 30
0.0
 10
28.64562445030387
 20
-45.12506644922221
 30
0.0
 10
28.57465548330773
 20
-44.99777017104223
 30
0.0
  0
POLYLINE
  5
13D
330
1F
100
AcDbEntity
  8
Capa 1
 62
     7
420
 16777215
370
    18
100
AcDb2dPolyline
 66
     1
 10
0.0
 20
0.0
 30
0.0
  0
VERTEX
  5
13E
330
13D
100
AcDbEntity
  8
Capa 1
 62
     7
420
 16777215
370
    18
100
AcDbVertex
100
AcDb2dVertex
 10
28.57465548330773
 20
-44.24484455274087
 30
0.0
  0
VERTEX
  5
13F
330
13D
100
AcDbEntity
  8
Capa 1
 62
     7
420
 16777215
370
    18
100
AcDbVertex
100
AcDb2dVertex
 10
28.66405571114996
 20
-44.06638860660493
 30
0.0
  0
SEQEND
  5
140
330
13D
100
AcDbEntity
  8
Capa 1
370
    18
  0
POLYLINE
  5
141
330
1F
100
AcDbEntity
  8
Capa 1
 62
     7
420
 16777215
370
    18
100
AcDb2dPolyline
 66
     1
 10
0.0
 20
0.0
 30
0.0
  0
VERTEX
  5
142
330
141
100
AcDbEntity
  8
Capa 1
 62
     7
420
 16777215
370
    18
100
AcDbVertex
100
AcDb2dVertex
 10
28.49421250372714
 20
-44.24484455274087
 30
0.0
  0
VERTEX
  5
143
330
141
100
AcDbEntity
  8
Capa 1
 62
     7
420
 16777215
370
    18
100
AcDbVertex
100
AcDb2dVertex
 10
28.49421250372714
 20
-44.99777017104223
 30
0.0
  0
SEQEND
  5
144
330
141
100
AcDbEntity
  8
Capa 1
370
    18
  0
POLYLINE
  5
145
330
1F
100
AcDbEntity
  8
Capa 1
 62
     7
420
 16777215
370
    18
100
AcDb2dPolyline
 66
     1
 10
0.0
 20
0.0
 30
0.0
  0
VERTEX
  5
146
330
145
100
AcDbEntity
  8
Capa 1
 62
     7
420
 16777215
370
    18
100
AcDbVertex
100
AcDb2dVertex
 10
28.17140705675923
 20
-44.24484455274087
 30
0.0
  0
VERTEX
  5
147
330
145
100
AcDbEntity
  8
Capa 1
 62
     7
420
 16777215
370
    18
100
AcDbVertex
100
AcDb2dVertex
 10
28.17140705675923
 20
-44.99777017104223
 30
0.0
  0
SEQEND
  5
148
330
145
100
AcDbEntity
  8
Capa 1
370
    18
  0
POLYLINE
  5
149
330
1F
100
AcDbEntity
  8
Capa 1
 62
     7
420
 16777215
370
    18
100
AcDb2dPolyline
 66
     1
 10
0.0
 20
0.0
 30
0.0
  0
VERTEX
  5
14A
330
149
100
AcDbEntity
  8
Capa 1
 62
     7
420
 16777215
370
    18
100
AcDbVertex
100
AcDb2dVertex
 10
27.90268960890975
 20
-44.24484455274087
 30
0.0
  0
VERTEX
  5
14B
330
149
100
AcDbEntity
  8
Capa 1
 62
     7
420
 16777215
370
    18
100
AcDbVertex
100
AcDb2dVertex
 10
27.90268960890975
 20
-44.99777017104223
 30
0.0
  0
SEQEND
  5
14C
330
149
100
AcDbEntity
  8
Capa 1
370
    18
  0
POLYLINE
  5
14D
330
1F
100
AcDbEntity
  8
Capa 1
 62
     7
420
 16777215
370
    18
100
AcDb2dPolyline
 66
     1
 10
0.0
 20
0.0
 30
0.0
  0
VERTEX
  5
14E
330
14D
100
AcDbEntity
  8
Capa 1
 62
     7
420
 16777215
370
    18
100
AcDbVertex
100
AcDb2dVertex
 10
28.30593803545824
 20
-44.24484455274087
 30
0.0
  0
VERTEX
  5
14F
330
14D
100
AcDbEntity
  8
Capa 1
 62
     7
420
 16777215
370
    18
100
AcDbVertex
100
AcDb2dVertex
 10
28.30593803545824
 20
-44.99777017104223
 30
0.0
  0
SEQEND
  5
150
330
14D
100
AcDbEntity
  8
Capa 1
370
    18
  0
SPLINE
  5
151
330
1F
100
AcDbEntity
  8
Capa 1
 62
     7
420
 16777215
370
    18
100
AcDbSpline
210
0.0
220
0.0
230
1.0
 70
     8
 71
     3
 72
    11
 73
     7
 74
     0
 42
0.0000000001
 43
0.0000000001
 40
0.0
 40
0.0
 40
0.0
 40
0.0
 40
1.0
 40
1.0
 40
1.0
 40
2.0
 40
2.0
 40
2.0
 40
2.0
 10
28.17140705675923
 20
-44.24484455274087
 30
0.0
 10
28.17140705675923
 20
-44.17043049025948
 30
0.0
 10
28.11146239531589
 20
-44.1101413192676
 30
0.0
 10
28.03704833283449
 20
-44.1101413192676
 30
0.0
 10
27.96263427035309
 20
-44.1101413192676
 30
0.0
 10
27.90268960890975
 20
-44.17043049025948
 30
0.0
 10
27.90268960890975
 20
-44.24484455274087
 30
0.0
  0
SPLINE
  5
152
330
1F
100
AcDbEntity
  8
Capa 1
 62
     7
420
 16777215
370
    18
100
AcDbSpline
210
0.0
220
0.0
230
1.0
 70
     8
 71
     3
 72
    11
 73
     7
 74
     0
 42
0.0000000001
 43
0.0000000001
 40
0.0
 40
0.0
 40
0.0
 40
0.0
 40
1.0
 40
1.0
 40
1.0
 40
2.0
 40
2.0
 40
2.0
 40
2.0
 10
28.30593803545824
 20
-44.24484455274087
 30
0.0
 10
28.30593803545824
 20
-44.17043049025948
 30
0.0
 10
28.34796820037829
 20
-44.1101413192676
 30
0.0
 10
28.40016139697982
 20
-44.1101413192676
 30
0.0
 10
28.45218233880709
 20
-44.1101413192676
 30
0.0
 10
28.49421250372714
 20
-44.17043049025948
 30
0.0
 10
28.49421250372714
 20
-44.24484455274087
 30
0.0
  0
SPLINE
  5
153
330
1F
100
AcDbEntity
  8
Capa 1
 62
     7
420
 16777215
370
    18
100
AcDbSpline
210
0.0
220
0.0
230
1.0
 70
     8
 71
     3
 72
    11
 73
     7
 74
     0
 42
0.0000000001
 43
0.0000000001
 40
0.0
 40
0.0
 40
0.0
 40
0.0
 40
1.0
 40
1.0
 40
1.0
 40
2.0
 40
2.0
 40
2.0
 40
2.0
 10
28.49421250372714
 20
-44.99777017104223
 30
0.0
 10
28.49421250372714
 20
-45.07218423352362
 30
0.0
 10
28.45218233880709
 20
-45.13212889496697
 30
0.0
 10
28.40016139697982
 20
-45.13212889496697
 30
0.0
 10
28.34796820037829
 20
-45.13212889496697
 30
0.0
 10
28.30593803545824
 20
-45.07218423352362
 30
0.0
 10
28.30593803545824
 20
-44.99777017104223
 30
0.0
  0
SPLINE
  5
154
330
1F
100
AcDbEntity
  8
Capa 1
 62
     7
420
 16777215
370
    18
100
AcDbSpline
210
0.0
220
0.0
230
1.0
 70
     8
 71
     3
 72
    11
 73
     7
 74
     0
 42
0.0000000001
 43
0.0000000001
 40
0.0
 40
0.0
 40
0.0
 40
0.0
 40
1.0
 40
1.0
 40
1.0
 40
2.0
 40
2.0
 40
2.0
 40
2.0
 10
27.90268960890975
 20
-44.99777017104223
 30
0.0
 10
27.90268960890975
 20
-45.07218423352362
 30
0.0
 10
27.96263427035309
 20
-45.13212889496697
 30
0.0
 10
28.03704833283449
 20
-45.13212889496697
 30
0.0
 10
28.11146239531589
 20
-45.13212889496697
 30
0.0
 10
28.17140705675923
 20
-45.07218423352362
 30
0.0
 10
28.17140705675923
 20
-44.99777017104223
 30
0.0
  0
POLYLINE
  5
155
330
1F
100
AcDbEntity
  8
Capa 1
 62
     7
420
 16777215
370
    18
100
AcDb2dPolyline
 66
     1
 10
0.0
 20
0.0
 30
0.0
  0
VERTEX
  5
156
330
155
100
AcDbEntity
  8
Capa 1
 62
     7
420
 16777215
370
    18
100
AcDbVertex
100
AcDb2dVertex
 10
27.39160969367293
 20
-45.41428221520893
 30
0.0
  0
VERTEX
  5
157
330
155
100
AcDbEntity
  8
Capa 1
 62
     7
420
 16777215
370
    18
100
AcDbVertex
100
AcDb2dVertex
 10
27.39160969367293
 20
-45.58929306585962
 30
0.0
  0
SEQEND
  5
158
330
155
100
AcDbEntity
  8
Capa 1
370
    18
  0
SPLINE
  5
159
330
1F
100
AcDbEntity
  8
Capa 1
 62
     7
420
 16777215
370
    18
100
AcDbSpline
210
0.0
220
0.0
230
1.0
 70
     8
 71
     3
 72
     8
 73
     4
 74
     0
 42
0.0000000001
 43
0.0000000001
 40
0.0
 40
0.0
 40
0.0
 40
0.0
 40
1.0
 40
1.0
 40
1.0
 40
1.0
 10
27.49926892758699
 20
-44.99777017104223
 30
0.0
 10
27.42881672491363
 20
-45.12506644922221
 30
0.0
 10
27.39160969367293
 20
-45.26855467618287
 30
0.0
 10
27.39160969367293
 20
-45.41428221520893
 30
0.0
  0
POLYLINE
  5
15A
330
1F
100
AcDbEntity
  8
Capa 1
 62
     7
420
 16777215
370
    18
100
AcDb2dPolyline
 66
     1
 10
0.0
 20
0.0
 30
0.0
  0
VERTEX
  5
15B
330
15A
100
AcDbEntity
  8
Capa 1
 62
     7
420
 16777215
370
    18
100
AcDbVertex
100
AcDb2dVertex
 10
27.49926892758699
 20
-44.24484455274087
 30
0.0
  0
VERTEX
  5
15C
330
15A
100
AcDbEntity
  8
Capa 1
 62
     7
420
 16777215
370
    18
100
AcDbVertex
100
AcDb2dVertex
 10
27.41021320929328
 20
-44.06638860660493
 30
0.0
  0
SEQEND
  5
15D
330
15A
100
AcDbEntity
  8
Capa 1
370
    18
  0
POLYLINE
  5
15E
330
1F
100
AcDbEntity
  8
Capa 1
 62
     7
420
 16777215
370
    18
100
AcDb2dPolyline
 66
     1
 10
0.0
 20
0.0
 30
0.0
  0
VERTEX
  5
15F
330
15E
100
AcDbEntity
  8
Capa 1
 62
     7
420
 16777215
370
    18
100
AcDbVertex
100
AcDb2dVertex
 10
27.57988416194183
 20
-44.24484455274087
 30
0.0
  0
VERTEX
  5
160
330
15E
100
AcDbEntity
  8
Capa 1
 62
     7
420
 16777215
370
    18
100
AcDbVertex
100
AcDb2dVertex
 10
27.57988416194183
 20
-44.99777017104223
 30
0.0
  0
SEQEND
  5
161
330
15E
100
AcDbEntity
  8
Capa 1
370
    18
  0
POLYLINE
  5
162
330
1F
100
AcDbEntity
  8
Capa 1
 62
     7
420
 16777215
370
    18
100
AcDb2dPolyline
 66
     1
 10
0.0
 20
0.0
 30
0.0
  0
VERTEX
  5
163
330
162
100
AcDbEntity
  8
Capa 1
 62
     7
420
 16777215
370
    18
100
AcDbVertex
100
AcDb2dVertex
 10
27.76798637543648
 20
-44.24484455274087
 30
0.0
  0
VERTEX
  5
164
330
162
100
AcDbEntity
  8
Capa 1
 62
     7
420
 16777215
370
    18
100
AcDbVertex
100
AcDb2dVertex
 10
27.76798637543648
 20
-44.99777017104223
 30
0.0
  0
SEQEND
  5
165
330
162
100
AcDbEntity
  8
Capa 1
370
    18
  0
SPLINE
  5
166
330
1F
100
AcDbEntity
  8
Capa 1
 62
     7
420
 16777215
370
    18
100
AcDbSpline
210
0.0
220
0.0
230
1.0
 70
     8
 71
     3
 72
    11
 73
     7
 74
     0
 42
0.0000000001
 43
0.0000000001
 40
0.0
 40
0.0
 40
0.0
 40
0.0
 40
1.0
 40
1.0
 40
1.0
 40
2.0
 40
2.0
 40
2.0
 40
2.0
 10
27.57988416194183
 20
-44.24484455274087
 30
0.0
 10
27.57988416194183
 20
-44.17043049025948
 30
0.0
 10
27.62191432686188
 20
-44.1101413192676
 30
0.0
 10
27.67393526868916
 20
-44.1101413192676
 30
0.0
 10
27.72595621051643
 20
-44.1101413192676
 30
0.0
 10
27.76798637543648
 20
-44.17043049025948
 30
0.0
 10
27.76798637543648
 20
-44.24484455274087
 30
0.0
  0
SPLINE
  5
167
330
1F
100
AcDbEntity
  8
Capa 1
 62
     7
420
 16777215
370
    18
100
AcDbSpline
210
0.0
220
0.0
230
1.0
 70
     8
 71
     3
 72
    11
 73
     7
 74
     0
 42
0.0000000001
 43
0.0000000001
 40
0.0
 40
0.0
 40
0.0
 40
0.0
 40
1.0
 40
1.0
 40
1.0
 40
2.0
 40
2.0
 40
2.0
 40
2.0
 10
27.76798637543648
 20
-44.99777017104223
 30
0.0
 10
27.76798637543648
 20
-45.07218423352362
 30
0.0
 10
27.72595621051643
 20
-45.13212889496697
 30
0.0
 10
27.67393526868916
 20
-45.13212889496697
 30
0.0
 10
27.62191432686188
 20
-45.13212889496697
 30
0.0
 10
27.57988416194183
 20
-45.07218423352362
 30
0.0
 10
27.57988416194183
 20
-44.99777017104223
 30
0.0
  0
POLYLINE
  5
168
330
1F
100
AcDbEntity
  8
Capa 1
 62
     7
420
 16777215
370
    18
100
AcDb2dPolyline
 66
     1
 10
0.0
 20
0.0
 30
0.0
  0
VERTEX
  5
169
330
168
100
AcDbEntity
  8
Capa 1
 62
     7
420
 16777215
370
    18
100
AcDbVertex
100
AcDb2dVertex
 10
27.49926892758699
 20
-44.24484455274087
 30
0.0
  0
VERTEX
  5
16A
330
168
100
AcDbEntity
  8
Capa 1
 62
     7
420
 16777215
370
    18
100
AcDbVertex
100
AcDb2dVertex
 10
27.49926892758699
 20
-44.99777017104223
 30
0.0
  0
SEQEND
  5
16B
330
168
100
AcDbEntity
  8
Capa 1
370
    18
  0
POLYLINE
  5
16C
330
1F
100
AcDbEntity
  8
Capa 1
 62
     7
420
 16777215
370
    18
100
AcDb2dPolyline
 66
     1
 10
0.0
 20
0.0
 30
0.0
  0
VERTEX
  5
16D
330
16C
100
AcDbEntity
  8
Capa 1
 62
     7
420
 16777215
370
    18
100
AcDbVertex
100
AcDb2dVertex
 10
27.55284016238263
 20
-43.8143798718589
 30
0.0
  0
VERTEX
  5
16E
330
16C
100
AcDbEntity
  8
Capa 1
 62
     7
420
 16777215
370
    18
100
AcDbVertex
100
AcDb2dVertex
 10
28.52125650328635
 20
-43.8143798718589
 30
0.0
  0
SEQEND
  5
16F
330
16C
100
AcDbEntity
  8
Capa 1
370
    18
  0
SPLINE
  5
170
330
1F
100
AcDbEntity
  8
Capa 1
 62
     7
420
 16777215
370
    18
100
AcDbSpline
210
0.0
220
0.0
230
1.0
 70
     8
 71
     3
 72
    11
 73
     7
 74
     0
 42
0.0000000001
 43
0.0000000001
 40
0.0
 40
0.0
 40
0.0
 40
0.0
 40
1.0
 40
1.0
 40
1.0
 40
2.0
 40
2.0
 40
2.0
 40
2.0
 10
31.05925834726991
 20
-44.28739148198371
 30
0.0
 10
31.10990125090308
 20
-44.1859334199431
 30
0.0
 10
31.06890461462861
 20
-44.06277125634542
 30
0.0
 10
30.96761880736226
 20
-44.01195609793798
 30
0.0
 10
30.94367539373978
 20
-43.99989826373961
 30
0.0
 10
30.9178371776004
 20
-43.99283581799485
 30
0.0
 10
30.89113768758972
 20
-43.99111327025222
 30
0.0
  0
SPLINE
  5
171
330
1F
100
AcDbEntity
  8
Capa 1
 62
     7
420
 16777215
370
    18
100
AcDbSpline
210
0.0
220
0.0
230
1.0
 70
     8
 71
     3
 72
    11
 73
     7
 74
     0
 42
0.0000000001
 43
0.0000000001
 40
0.0
 40
0.0
 40
0.0
 40
0.0
 40
1.0
 40
1.0
 40
1.0
 40
2.0
 40
2.0
 40
2.0
 40
2.0
 10
29.75218912016612
 20
-43.99111327025222
 30
0.0
 10
29.63918998824992
 20
-43.99938149941682
 30
0.0
 10
29.55426838453852
 20
-44.09808348506923
 30
0.0
 10
29.56288112325164
 20
-44.21108261698543
 30
0.0
 10
29.56494818054279
 20
-44.23743759744759
 30
0.0
 10
29.57201062628755
 20
-44.26362032313548
 30
0.0
 10
29.58406846048593
 20
-44.28739148198371
 30
0.0
  0
POLYLINE
  5
172
330
1F
100
AcDbEntity
  8
Capa 1
 62
     7
420
 16777215
370
    18
100
AcDb2dPolyline
 66
     1
 10
0.0
 20
0.0
 30
0.0
  0
VERTEX
  5
173
330
172
100
AcDbEntity
  8
Capa 1
 62
     7
420
 16777215
370
    18
100
AcDbVertex
100
AcDb2dVertex
 10
29.56253661370312
 20
-46.07901338908789
 30
0.0
  0
VERTEX
  5
174
330
172
100
AcDbEntity
  8
Capa 1
 62
     7
420
 16777215
370
    18
100
AcDbVertex
100
AcDb2dVertex
 10
31.08096244882698
 20
-46.07901338908789
 30
0.0
  0
SEQEND
  5
175
330
172
100
AcDbEntity
  8
Capa 1
370
    18
  0
POLYLINE
  5
176
330
1F
100
AcDbEntity
  8
Capa 1
 62
     7
420
 16777215
370
    18
100
AcDb2dPolyline
 66
     1
 10
0.0
 20
0.0
 30
0.0
  0
VERTEX
  5
177
330
176
100
AcDbEntity
  8
Capa 1
 62
     7
420
 16777215
370
    18
100
AcDbVertex
100
AcDb2dVertex
 10
30.95435518974405
 20
-44.49702554226116
 30
0.0
  0
VERTEX
  5
178
330
176
100
AcDbEntity
  8
Capa 1
 62
     7
420
 16777215
370
    18
100
AcDbVertex
100
AcDb2dVertex
 10
30.95435518974405
 20
-45.38293184629316
 30
0.0
  0
SEQEND
  5
179
330
176
100
AcDbEntity
  8
Capa 1
370
    18
  0
POLYLINE
  5
17A
330
1F
100
AcDbEntity
  8
Capa 1
 62
     7
420
 16777215
370
    18
100
AcDb2dPolyline
 66
     1
 10
0.0
 20
0.0
 30
0.0
  0
VERTEX
  5
17B
330
17A
100
AcDbEntity
  8
Capa 1
 62
     7
420
 16777215
370
    18
100
AcDbVertex
100
AcDb2dVertex
 10
31.08096244882698
 20
-45.87299667906995
 30
0.0
  0
VERTEX
  5
17C
330
17A
100
AcDbEntity
  8
Capa 1
 62
     7
420
 16777215
370
    18
100
AcDbVertex
100
AcDb2dVertex
 10
31.08096244882698
 20
-46.07901338908789
 30
0.0
  0
SEQEND
  5
17D
330
17A
100
AcDbEntity
  8
Capa 1
370
    18
  0
SPLINE
  5
17E
330
1F
100
AcDbEntity
  8
Capa 1
 62
     7
420
 16777215
370
    18
100
AcDbSpline
210
0.0
220
0.0
230
1.0
 70
     8
 71
     3
 72
     8
 73
     4
 74
     0
 42
0.0000000001
 43
0.0000000001
 40
0.0
 40
0.0
 40
0.0
 40
0.0
 40
1.0
 40
1.0
 40
1.0
 40
1.0
 10
31.08096244882698
 20
-45.87299667906995
 30
0.0
 10
31.08096244882698
 20
-45.70160317867877
 30
0.0
 10
31.03755424571284
 20
-45.53313800945005
 30
0.0
 10
30.95435518974405
 20
-45.38293184629316
 30
0.0
  0
POLYLINE
  5
17F
330
1F
100
AcDbEntity
  8
Capa 1
 62
     7
420
 16777215
370
    18
100
AcDb2dPolyline
 66
     1
 10
0.0
 20
0.0
 30
0.0
  0
VERTEX
  5
180
330
17F
100
AcDbEntity
  8
Capa 1
 62
     7
420
 16777215
370
    18
100
AcDbVertex
100
AcDb2dVertex
 10
30.95435518974405
 20
-44.49702554226116
 30
0.0
  0
VERTEX
  5
181
330
17F
100
AcDbEntity
  8
Capa 1
 62
     7
420
 16777215
370
    18
100
AcDbVertex
100
AcDb2dVertex
 10
31.05925834726991
 20
-44.28739148198371
 30
0.0
  0
SEQEND
  5
182
330
17F
100
AcDbEntity
  8
Capa 1
370
    18
  0
POLYLINE
  5
183
330
1F
100
AcDbEntity
  8
Capa 1
 62
     7
420
 16777215
370
    18
100
AcDb2dPolyline
 66
     1
 10
0.0
 20
0.0
 30
0.0
  0
VERTEX
  5
184
330
183
100
AcDbEntity
  8
Capa 1
 62
     7
420
 16777215
370
    18
100
AcDbVertex
100
AcDb2dVertex
 10
30.85961506389968
 20
-44.49702554226116
 30
0.0
  0
VERTEX
  5
185
330
183
100
AcDbEntity
  8
Capa 1
 62
     7
420
 16777215
370
    18
100
AcDbVertex
100
AcDb2dVertex
 10
30.85961506389968
 20
-45.38293184629316
 30
0.0
  0
SEQEND
  5
186
330
183
100
AcDbEntity
  8
Capa 1
370
    18
  0
POLYLINE
  5
187
330
1F
100
AcDbEntity
  8
Capa 1
 62
     7
420
 16777215
370
    18
100
AcDb2dPolyline
 66
     1
 10
0.0
 20
0.0
 30
0.0
  0
VERTEX
  5
188
330
187
100
AcDbEntity
  8
Capa 1
 62
     7
420
 16777215
370
    18
100
AcDbVertex
100
AcDb2dVertex
 10
30.47979328665089
 20
-44.49702554226116
 30
0.0
  0
VERTEX
  5
189
330
187
100
AcDbEntity
  8
Capa 1
 62
     7
420
 16777215
370
    18
100
AcDbVertex
100
AcDb2dVertex
 10
30.47979328665089
 20
-45.38293184629316
 30
0.0
  0
SEQEND
  5
18A
330
187
100
AcDbEntity
  8
Capa 1
370
    18
  0
POLYLINE
  5
18B
330
1F
100
AcDbEntity
  8
Capa 1
 62
     7
420
 16777215
370
    18
100
AcDb2dPolyline
 66
     1
 10
0.0
 20
0.0
 30
0.0
  0
VERTEX
  5
18C
330
18B
100
AcDbEntity
  8
Capa 1
 62
     7
420
 16777215
370
    18
100
AcDbVertex
100
AcDb2dVertex
 10
30.16353352110495
 20
-44.49702554226116
 30
0.0
  0
VERTEX
  5
18D
330
18B
100
AcDbEntity
  8
Capa 1
 62
     7
420
 16777215
370
    18
100
AcDbVertex
100
AcDb2dVertex
 10
30.16353352110495
 20
-45.38293184629316
 30
0.0
  0
SEQEND
  5
18E
330
18B
100
AcDbEntity
  8
Capa 1
370
    18
  0
POLYLINE
  5
18F
330
1F
100
AcDbEntity
  8
Capa 1
 62
     7
420
 16777215
370
    18
100
AcDb2dPolyline
 66
     1
 10
0.0
 20
0.0
 30
0.0
  0
VERTEX
  5
190
330
18F
100
AcDbEntity
  8
Capa 1
 62
     7
420
 16777215
370
    18
100
AcDbVertex
100
AcDb2dVertex
 10
30.63792316942385
 20
-44.49702554226116
 30
0.0
  0
VERTEX
  5
191
330
18F
100
AcDbEntity
  8
Capa 1
 62
     7
420
 16777215
370
    18
100
AcDbVertex
100
AcDb2dVertex
 10
30.63792316942385
 20
-45.38293184629316
 30
0.0
  0
SEQEND
  5
192
330
18F
100
AcDbEntity
  8
Capa 1
370
    18
  0
SPLINE
  5
193
330
1F
100
AcDbEntity
  8
Capa 1
 62
     7
420
 16777215
370
    18
100
AcDbSpline
210
0.0
220
0.0
230
1.0
 70
     8
 71
     3
 72
    11
 73
     7
 74
     0
 42
0.0000000001
 43
0.0000000001
 40
0.0
 40
0.0
 40
0.0
 40
0.0
 40
1.0
 40
1.0
 40
1.0
 40
2.0
 40
2.0
 40
2.0
 40
2.0
 10
30.47979328665089
 20
-44.49702554226116
 30
0.0
 10
30.47979328665089
 20
-44.40969237171008
 30
0.0
 10
30.408996574429
 20
-44.33889565948819
 30
0.0
 10
30.32166340387792
 20
-44.33889565948819
 30
0.0
 10
30.23433023332684
 20
-44.33889565948819
 30
0.0
 10
30.16353352110495
 20
-44.40969237171008
 30
0.0
 10
30.16353352110495
 20
-44.49702554226116
 30
0.0
  0
SPLINE
  5
194
330
1F
100
AcDbEntity
  8
Capa 1
 62
     7
420
 16777215
370
    18
100
AcDbSpline
210
0.0
220
0.0
230
1.0
 70
     8
 71
     3
 72
    11
 73
     7
 74
     0
 42
0.0000000001
 43
0.0000000001
 40
0.0
 40
0.0
 40
0.0
 40
0.0
 40
1.0
 40
1.0
 40
1.0
 40
2.0
 40
2.0
 40
2.0
 40
2.0
 10
30.63792316942385
 20
-44.49702554226116
 30
0.0
 10
30.63792316942385
 20
-44.40969237171008
 30
0.0
 10
30.68770479918571
 20
-44.33889565948819
 30
0.0
 10
30.7488552440489
 20
-44.33889565948819
 30
0.0
 10
30.81000568891209
 20
-44.33889565948819
 30
0.0
 10
30.85961506389968
 20
-44.40969237171008
 30
0.0
 10
30.85961506389968
 20
-44.49702554226116
 30
0.0
  0
SPLINE
  5
195
330
1F
100
AcDbEntity
  8
Capa 1
 62
     7
420
 16777215
370
    18
100
AcDbSpline
210
0.0
220
0.0
230
1.0
 70
     8
 71
     3
 72
    11
 73
     7
 74
     0
 42
0.0000000001
 43
0.0000000001
 40
0.0
 40
0.0
 40
0.0
 40
0.0
 40
1.0
 40
1.0
 40
1.0
 40
2.0
 40
2.0
 40
2.0
 40
2.0
 10
30.85961506389968
 20
-45.38293184629316
 30
0.0
 10
30.85961506389968
 20
-45.47009276206998
 30
0.0
 10
30.81000568891209
 20
-45.54140623861465
 30
0.0
 10
30.7488552440489
 20
-45.54140623861465
 30
0.0
 10
30.68770479918571
 20
-45.54140623861465
 30
0.0
 10
30.63792316942385
 20
-45.47009276206998
 30
0.0
 10
30.63792316942385
 20
-45.38293184629316
 30
0.0
  0
SPLINE
  5
196
330
1F
100
AcDbEntity
  8
Capa 1
 62
     7
420
 16777215
370
    18
100
AcDbSpline
210
0.0
220
0.0
230
1.0
 70
     8
 71
     3
 72
    11
 73
     7
 74
     0
 42
0.0000000001
 43
0.0000000001
 40
0.0
 40
0.0
 40
0.0
 40
0.0
 40
1.0
 40
1.0
 40
1.0
 40
2.0
 40
2.0
 40
2.0
 40
2.0
 10
30.16353352110495
 20
-45.38293184629316
 30
0.0
 10
30.16353352110495
 20
-45.47009276206998
 30
0.0
 10
30.23433023332684
 20
-45.54140623861465
 30
0.0
 10
30.32166340387792
 20
-45.54140623861465
 30
0.0
 10
30.408996574429
 20
-45.54140623861465
 30
0.0
 10
30.47979328665089
 20
-45.47009276206998
 30
0.0
 10
30.47979328665089
 20
-45.38293184629316
 30
0.0
  0
POLYLINE
  5
197
330
1F
100
AcDbEntity
  8
Capa 1
 62
     7
420
 16777215
370
    18
100
AcDb2dPolyline
 66
     1
 10
0.0
 20
0.0
 30
0.0
  0
VERTEX
  5
198
330
197
100
AcDbEntity
  8
Capa 1
 62
     7
420
 16777215
370
    18
100
AcDbVertex
100
AcDb2dVertex
 10
29.56253661370312
 20
-45.87299667906995
 30
0.0
  0
VERTEX
  5
199
330
197
100
AcDbEntity
  8
Capa 1
 62
     7
420
 16777215
370
    18
100
AcDbVertex
100
AcDb2dVertex
 10
29.56253661370312
 20
-46.07901338908789
 30
0.0
  0
SEQEND
  5
19A
330
197
100
AcDbEntity
  8
Capa 1
370
    18
  0
SPLINE
  5
19B
330
1F
100
AcDbEntity
  8
Capa 1
 62
     7
420
 16777215
370
    18
100
AcDbSpline
210
0.0
220
0.0
230
1.0
 70
     8
 71
     3
 72
     8
 73
     4
 74
     0
 42
0.0000000001
 43
0.0000000001
 40
0.0
 40
0.0
 40
0.0
 40
0.0
 40
1.0
 40
1.0
 40
1.0
 40
1.0
 10
29.68897161801179
 20
-45.38293184629316
 30
0.0
 10
29.605772562043
 20
-45.53313800945005
 30
0.0
 10
29.56253661370312
 20
-45.70160317867877
 30
0.0
 10
29.56253661370312
 20
-45.87299667906995
 30
0.0
  0
POLYLINE
  5
19C
330
1F
100
AcDbEntity
  8
Capa 1
 62
     7
420
 16777215
370
    18
100
AcDb2dPolyline
 66
     1
 10
0.0
 20
0.0
 30
0.0
  0
VERTEX
  5
19D
330
19C
100
AcDbEntity
  8
Capa 1
 62
     7
420
 16777215
370
    18
100
AcDbVertex
100
AcDb2dVertex
 10
29.68897161801179
 20
-44.49702554226116
 30
0.0
  0
VERTEX
  5
19E
330
19C
100
AcDbEntity
  8
Capa 1
 62
     7
420
 16777215
370
    18
100
AcDbVertex
100
AcDb2dVertex
 10
29.58406846048593
 20
-44.28739148198371
 30
0.0
  0
SEQEND
  5
19F
330
19C
100
AcDbEntity
  8
Capa 1
370
    18
  0
POLYLINE
  5
1A0
330
1F
100
AcDbEntity
  8
Capa 1
 62
     7
420
 16777215
370
    18
100
AcDb2dPolyline
 66
     1
 10
0.0
 20
0.0
 30
0.0
  0
VERTEX
  5
1A1
330
1A0
100
AcDbEntity
  8
Capa 1
 62
     7
420
 16777215
370
    18
100
AcDbVertex
100
AcDb2dVertex
 10
29.78388399863042
 20
-44.49702554226116
 30
0.0
  0
VERTEX
  5
1A2
330
1A0
100
AcDbEntity
  8
Capa 1
 62
     7
420
 16777215
370
    18
100
AcDbVertex
100
AcDb2dVertex
 10
29.78388399863042
 20
-45.38293184629316
 30
0.0
  0
SEQEND
  5
1A3
330
1A0
100
AcDbEntity
  8
Capa 1
370
    18
  0
POLYLINE
  5
1A4
330
1F
100
AcDbEntity
  8
Capa 1
 62
     7
420
 16777215
370
    18
100
AcDb2dPolyline
 66
     1
 10
0.0
 20
0.0
 30
0.0
  0
VERTEX
  5
1A5
330
1A4
100
AcDbEntity
  8
Capa 1
 62
     7
420
 16777215
370
    18
100
AcDbVertex
100
AcDb2dVertex
 10
30.00523138355772
 20
-44.49702554226116
 30
0.0
  0
VERTEX
  5
1A6
330
1A4
100
AcDbEntity
  8
Capa 1
 62
     7
420
 16777215
370
    18
100
AcDbVertex
100
AcDb2dVertex
 10
30.00523138355772
 20
-45.38293184629316
 30
0.0
  0
SEQEND
  5
1A7
330
1A4
100
AcDbEntity
  8
Capa 1
370
    18
  0
SPLINE
  5
1A8
330
1F
100
AcDbEntity
  8
Capa 1
 62
     7
420
 16777215
370
    18
100
AcDbSpline
210
0.0
220
0.0
230
1.0
 70
     8
 71
     3
 72
    11
 73
     7
 74
     0
 42
0.0000000001
 43
0.0000000001
 40
0.0
 40
0.0
 40
0.0
 40
0.0
 40
1.0
 40
1.0
 40
1.0
 40
2.0
 40
2.0
 40
2.0
 40
2.0
 10
29.78388399863042
 20
-44.49702554226116
 30
0.0
 10
29.78388399863042
 20
-44.40969237171008
 30
0.0
 10
29.83332111884376
 20
-44.33889565948819
 30
0.0
 10
29.89481607325546
 20
-44.33889565948819
 30
0.0
 10
29.95596651811865
 20
-44.33889565948819
 30
0.0
 10
30.00523138355772
 20
-44.40969237171008
 30
0.0
 10
30.00523138355772
 20
-44.49702554226116
 30
0.0
  0
SPLINE
  5
1A9
330
1F
100
AcDbEntity
  8
Capa 1
 62
     7
420
 16777215
370
    18
100
AcDbSpline
210
0.0
220
0.0
230
1.0
 70
     8
 71
     3
 72
    11
 73
     7
 74
     0
 42
0.0000000001
 43
0.0000000001
 40
0.0
 40
0.0
 40
0.0
 40
0.0
 40
1.0
 40
1.0
 40
1.0
 40
2.0
 40
2.0
 40
2.0
 40
2.0
 10
30.00523138355772
 20
-45.38293184629316
 30
0.0
 10
30.00523138355772
 20
-45.47009276206998
 30
0.0
 10
29.95596651811865
 20
-45.54140623861465
 30
0.0
 10
29.89481607325546
 20
-45.54140623861465
 30
0.0
 10
29.83332111884376
 20
-45.54140623861465
 30
0.0
 10
29.78388399863042
 20
-45.47009276206998
 30
0.0
 10
29.78388399863042
 20
-45.38293184629316
 30
0.0
  0
POLYLINE
  5
1AA
330
1F
100
AcDbEntity
  8
Capa 1
 62
     7
420
 16777215
370
    18
100
AcDb2dPolyline
 66
     1
 10
0.0
 20
0.0
 30
0.0
  0
VERTEX
  5
1AB
330
1AA
100
AcDbEntity
  8
Capa 1
 62
     7
420
 16777215
370
    18
100
AcDbVertex
100
AcDb2dVertex
 10
29.68897161801179
 20
-44.49702554226116
 30
0.0
  0
VERTEX
  5
1AC
330
1AA
100
AcDbEntity
  8
Capa 1
 62
     7
420
 16777215
370
    18
100
AcDbVertex
100
AcDb2dVertex
 10
29.68897161801179
 20
-45.38293184629316
 30
0.0
  0
SEQEND
  5
1AD
330
1AA
100
AcDbEntity
  8
Capa 1
370
    18
  0
POLYLINE
  5
1AE
330
1F
100
AcDbEntity
  8
Capa 1
 62
     7
420
 16777215
370
    18
100
AcDb2dPolyline
 66
     1
 10
0.0
 20
0.0
 30
0.0
  0
VERTEX
  5
1AF
330
1AE
100
AcDbEntity
  8
Capa 1
 62
     7
420
 16777215
370
    18
100
AcDbVertex
100
AcDb2dVertex
 10
29.75218912016612
 20
-43.99111327025222
 30
0.0
  0
VERTEX
  5
1B0
330
1AE
100
AcDbEntity
  8
Capa 1
 62
     7
420
 16777215
370
    18
100
AcDbVertex
100
AcDb2dVertex
 10
30.89113768758972
 20
-43.99111327025222
 30
0.0
  0
SEQEND
  5
1B1
330
1AE
100
AcDbEntity
  8
Capa 1
370
    18
  0
POLYLINE
  5
1B2
330
1F
100
AcDbEntity
  8
Capa 1
 62
     7
420
 16777215
370
    18
100
AcDb2dPolyline
 66
     1
 10
0.0
 20
0.0
 30
0.0
  0
VERTEX
  5
1B3
330
1B2
100
AcDbEntity
  8
Capa 1
 62
     7
420
 16777215
370
    18
100
AcDbVertex
100
AcDb2dVertex
 10
29.75218912016612
 20
-43.99111327025222
 30
0.0
  0
VERTEX
  5
1B4
330
1B2
100
AcDbEntity
  8
Capa 1
 62
     7
420
 16777215
370
    18
100
AcDbVertex
100
AcDb2dVertex
 10
29.75218912016612
 20
-43.00943331173028
 30
0.0
  0
SEQEND
  5
1B5
330
1B2
100
AcDbEntity
  8
Capa 1
370
    18
  0
POLYLINE
  5
1B6
330
1F
100
AcDbEntity
  8
Capa 1
 62
     7
420
 16777215
370
    18
100
AcDb2dPolyline
 66
     1
 10
0.0
 20
0.0
 30
0.0
  0
VERTEX
  5
1B7
330
1B6
100
AcDbEntity
  8
Capa 1
 62
     7
420
 16777215
370
    18
100
AcDbVertex
100
AcDb2dVertex
 10
29.75218912016612
 20
-43.00943331173028
 30
0.0
  0
VERTEX
  5
1B8
330
1B6
100
AcDbEntity
  8
Capa 1
 62
     7
420
 16777215
370
    18
100
AcDbVertex
100
AcDb2dVertex
 10
30.89113768758972
 20
-43.00943331173028
 30
0.0
  0
SEQEND
  5
1B9
330
1B6
100
AcDbEntity
  8
Capa 1
370
    18
  0
POLYLINE
  5
1BA
330
1F
100
AcDbEntity
  8
Capa 1
 62
     7
420
 16777215
370
    18
100
AcDb2dPolyline
 66
     1
 10
0.0
 20
0.0
 30
0.0
  0
VERTEX
  5
1BB
330
1BA
100
AcDbEntity
  8
Capa 1
 62
     7
420
 16777215
370
    18
100
AcDbVertex
100
AcDb2dVertex
 10
30.89113768758972
 20
-43.00943331173028
 30
0.0
  0
VERTEX
  5
1BC
330
1BA
100
AcDbEntity
  8
Capa 1
 62
     7
420
 16777215
370
    18
100
AcDbVertex
100
AcDb2dVertex
 10
30.89113768758972
 20
-43.99111327025222
 30
0.0
  0
SEQEND
  5
1BD
330
1BA
100
AcDbEntity
  8
Capa 1
370
    18
  0
POLYLINE
  5
1BE
330
1F
100
AcDbEntity
  8
Capa 1
 62
     7
420
 16777215
370
    18
100
AcDb2dPolyline
 66
     1
 10
0.0
 20
0.0
 30
0.0
  0
VERTEX
  5
1BF
330
1BE
100
AcDbEntity
  8
Capa 1
 62
     7
420
 16777215
370
    18
100
AcDbVertex
100
AcDb2dVertex
 10
30.58883055875904
 20
-43.00943331173028
 30
0.0
  0
VERTEX
  5
1C0
330
1BE
100
AcDbEntity
  8
Capa 1
 62
     7
420
 16777215
370
    18
100
AcDbVertex
100
AcDb2dVertex
 10
30.58883055875904
 20
-43.99111327025222
 30
0.0
  0
SEQEND
  5
1C1
330
1BE
100
AcDbEntity
  8
Capa 1
370
    18
  0
POLYLINE
  5
1C2
330
1F
100
AcDbEntity
  8
Capa 1
 62
     7
420
 16777215
370
    18
100
AcDb2dPolyline
 66
     1
 10
0.0
 20
0.0
 30
0.0
  0
VERTEX
  5
1C3
330
1C2
100
AcDbEntity
  8
Capa 1
 62
     7
420
 16777215
370
    18
100
AcDbVertex
100
AcDb2dVertex
 10
30.13080511399508
 20
-43.00943331173028
 30
0.0
  0
VERTEX
  5
1C4
330
1C2
100
AcDbEntity
  8
Capa 1
 62
     7
420
 16777215
370
    18
100
AcDbVertex
100
AcDb2dVertex
 10
30.13080511399508
 20
-43.99111327025222
 30
0.0
  0
SEQEND
  5
1C5
330
1C2
100
AcDbEntity
  8
Capa 1
370
    18
  0
POLYLINE
  5
1C6
330
1F
100
AcDbEntity
  8
Capa 1
 62
     7
420
 16777215
370
    18
100
AcDb2dPolyline
 66
     1
 10
0.0
 20
0.0
 30
0.0
  0
VERTEX
  5
1C7
330
1C6
100
AcDbEntity
  8
Capa 1
 62
     7
420
 16777215
370
    18
100
AcDbVertex
100
AcDb2dVertex
 10
29.94942083669667
 20
-43.00943331173028
 30
0.0
  0
VERTEX
  5
1C8
330
1C6
100
AcDbEntity
  8
Capa 1
 62
     7
420
 16777215
370
    18
100
AcDbVertex
100
AcDb2dVertex
 10
29.94942083669667
 20
-42.81461316203941
 30
0.0
  0
SEQEND
  5
1C9
330
1C6
100
AcDbEntity
  8
Capa 1
370
    18
  0
POLYLINE
  5
1CA
330
1F
100
AcDbEntity
  8
Capa 1
 62
     7
420
 16777215
370
    18
100
AcDb2dPolyline
 66
     1
 10
0.0
 20
0.0
 30
0.0
  0
VERTEX
  5
1CB
330
1CA
100
AcDbEntity
  8
Capa 1
 62
     7
420
 16777215
370
    18
100
AcDbVertex
100
AcDb2dVertex
 10
30.68115911776374
 20
-43.00943331173028
 30
0.0
  0
VERTEX
  5
1CC
330
1CA
100
AcDbEntity
  8
Capa 1
 62
     7
420
 16777215
370
    18
100
AcDbVertex
100
AcDb2dVertex
 10
30.68115911776374
 20
-42.81461316203941
 30
0.0
  0
SEQEND
  5
1CD
330
1CA
100
AcDbEntity
  8
Capa 1
370
    18
  0
POLYLINE
  5
1CE
330
1F
100
AcDbEntity
  8
Capa 1
 62
     7
420
 16777215
370
    18
100
AcDb2dPolyline
 66
     1
 10
0.0
 20
0.0
 30
0.0
  0
VERTEX
  5
1CF
330
1CE
100
AcDbEntity
  8
Capa 1
 62
     7
420
 16777215
370
    18
100
AcDbVertex
100
AcDb2dVertex
 10
27.55284016238263
 20
-43.8143798718589
 30
0.0
  0
VERTEX
  5
1D0
330
1CE
100
AcDbEntity
  8
Capa 1
 62
     7
420
 16777215
370
    18
100
AcDbVertex
100
AcDb2dVertex
 10
27.55284016238263
 20
-42.98032225487992
 30
0.0
  0
SEQEND
  5
1D1
330
1CE
100
AcDbEntity
  8
Capa 1
370
    18
  0
POLYLINE
  5
1D2
330
1F
100
AcDbEntity
  8
Capa 1
 62
     7
420
 16777215
370
    18
100
AcDb2dPolyline
 66
     1
 10
0.0
 20
0.0
 30
0.0
  0
VERTEX
  5
1D3
330
1D2
100
AcDbEntity
  8
Capa 1
 62
     7
420
 16777215
370
    18
100
AcDbVertex
100
AcDb2dVertex
 10
27.55284016238263
 20
-42.98032225487992
 30
0.0
  0
VERTEX
  5
1D4
330
1D2
100
AcDbEntity
  8
Capa 1
 62
     7
420
 16777215
370
    18
100
AcDbVertex
100
AcDb2dVertex
 10
28.52125650328635
 20
-42.98032225487992
 30
0.0
  0
SEQEND
  5
1D5
330
1D2
100
AcDbEntity
  8
Capa 1
370
    18
  0
POLYLINE
  5
1D6
330
1F
100
AcDbEntity
  8
Capa 1
 62
     7
420
 16777215
370
    18
100
AcDb2dPolyline
 66
     1
 10
0.0
 20
0.0
 30
0.0
  0
VERTEX
  5
1D7
330
1D6
100
AcDbEntity
  8
Capa 1
 62
     7
420
 16777215
370
    18
100
AcDbVertex
100
AcDb2dVertex
 10
28.52125650328635
 20
-42.98032225487992
 30
0.0
  0
VERTEX
  5
1D8
330
1D6
100
AcDbEntity
  8
Capa 1
 62
     7
420
 16777215
370
    18
100
AcDbVertex
100
AcDb2dVertex
 10
28.52125650328635
 20
-43.8143798718589
 30
0.0
  0
SEQEND
  5
1D9
330
1D6
100
AcDbEntity
  8
Capa 1
370
    18
  0
POLYLINE
  5
1DA
330
1F
100
AcDbEntity
  8
Capa 1
 62
     7
420
 16777215
370
    18
100
AcDb2dPolyline
 66
     1
 10
0.0
 20
0.0
 30
0.0
  0
VERTEX
  5
1DB
330
1DA
100
AcDbEntity
  8
Capa 1
 62
     7
420
 16777215
370
    18
100
AcDbVertex
100
AcDb2dVertex
 10
28.26425238008672
 20
-42.98032225487992
 30
0.0
  0
VERTEX
  5
1DC
330
1DA
100
AcDbEntity
  8
Capa 1
 62
     7
420
 16777215
370
    18
100
AcDbVertex
100
AcDb2dVertex
 10
28.26425238008672
 20
-43.8143798718589
 30
0.0
  0
SEQEND
  5
1DD
330
1DA
100
AcDbEntity
  8
Capa 1
370
    18
  0
POLYLINE
  5
1DE
330
1F
100
AcDbEntity
  8
Capa 1
 62
     7
420
 16777215
370
    18
100
AcDb2dPolyline
 66
     1
 10
0.0
 20
0.0
 30
0.0
  0
VERTEX
  5
1DF
330
1DE
100
AcDbEntity
  8
Capa 1
 62
     7
420
 16777215
370
    18
100
AcDbVertex
100
AcDb2dVertex
 10
27.87495659025348
 20
-42.98032225487992
 30
0.0
  0
VERTEX
  5
1E0
330
1DE
100
AcDbEntity
  8
Capa 1
 62
     7
420
 16777215
370
    18
100
AcDbVertex
100
AcDb2dVertex
 10
27.87495659025348
 20
-43.8143798718589
 30
0.0
  0
SEQEND
  5
1E1
330
1DE
100
AcDbEntity
  8
Capa 1
370
    18
  0
POLYLINE
  5
1E2
330
1F
100
AcDbEntity
  8
Capa 1
 62
     7
420
 16777215
370
    18
100
AcDb2dPolyline
 66
     1
 10
0.0
 20
0.0
 30
0.0
  0
VERTEX
  5
1E3
330
1E2
100
AcDbEntity
  8
Capa 1
 62
     7
420
 16777215
370
    18
100
AcDbVertex
100
AcDb2dVertex
 10
27.72061631251429
 20
-42.98032225487992
 30
0.0
  0
VERTEX
  5
1E4
330
1E2
100
AcDbEntity
  8
Capa 1
 62
     7
420
 16777215
370
    18
100
AcDbVertex
100
AcDb2dVertex
 10
27.72061631251429
 20
-42.81461316203941
 30
0.0
  0
SEQEND
  5
1E5
330
1E2
100
AcDbEntity
  8
Capa 1
370
    18
  0
POLYLINE
  5
1E6
330
1F
100
AcDbEntity
  8
Capa 1
 62
     7
420
 16777215
370
    18
100
AcDb2dPolyline
 66
     1
 10
0.0
 20
0.0
 30
0.0
  0
VERTEX
  5
1E7
330
1E6
100
AcDbEntity
  8
Capa 1
 62
     7
420
 16777215
370
    18
100
AcDbVertex
100
AcDb2dVertex
 10
28.34280055715041
 20
-42.98032225487992
 30
0.0
  0
VERTEX
  5
1E8
330
1E6
100
AcDbEntity
  8
Capa 1
 62
     7
420
 16777215
370
    18
100
AcDbVertex
100
AcDb2dVertex
 10
28.34280055715041
 20
-42.81461316203941
 30
0.0
  0
SEQEND
  5
1E9
330
1E6
100
AcDbEntity
  8
Capa 1
370
    18
  0
POLYLINE
  5
1EA
330
1F
100
AcDbEntity
  8
Capa 1
 62
     7
420
 16777215
370
    18
100
AcDb2dPolyline
 66
     1
 10
0.0
 20
0.0
 30
0.0
  0
VERTEX
  5
1EB
330
1EA
100
AcDbEntity
  8
Capa 1
 62
     7
420
 16777215
370
    18
100
AcDbVertex
100
AcDb2dVertex
 10
28.45821125590628
 20
-45.58929306585962
 30
0.0
  0
VERTEX
  5
1EC
330
1EA
100
AcDbEntity
  8
Capa 1
 62
     7
420
 16777215
370
    18
100
AcDbVertex
100
AcDb2dVertex
 10
28.45821125590628
 20
-49.60610214688667
 30
0.0
  0
SEQEND
  5
1ED
330
1EA
100
AcDbEntity
  8
Capa 1
370
    18
  0
POLYLINE
  5
1EE
330
1F
100
AcDbEntity
  8
Capa 1
 62
     7
420
 16777215
370
    18
100
AcDb2dPolyline
 66
     1
 10
0.0
 20
0.0
 30
0.0
  0
VERTEX
  5
1EF
330
1EE
100
AcDbEntity
  8
Capa 1
 62
     7
420
 16777215
370
    18
100
AcDbVertex
100
AcDb2dVertex
 10
27.12271999104918
 20
-50.16679143711108
 30
0.0
  0
VERTEX
  5
1F0
330
1EE
100
AcDbEntity
  8
Capa 1
 62
     7
420
 16777215
370
    18
100
AcDbVertex
100
AcDb2dVertex
 10
29.08074001009093
 20
-49.34496390910473
 30
0.0
  0
SEQEND
  5
1F1
330
1EE
100
AcDbEntity
  8
Capa 1
370
    18
  0
POLYLINE
  5
1F2
330
1F
100
AcDbEntity
  8
Capa 1
 62
     7
420
 16777215
370
    18
100
AcDb2dPolyline
 66
     1
 10
0.0
 20
0.0
 30
0.0
  0
VERTEX
  5
1F3
330
1F2
100
AcDbEntity
  8
Capa 1
 62
     7
420
 16777215
370
    18
100
AcDbVertex
100
AcDb2dVertex
 10
27.65136989326077
 20
-45.58929306585962
 30
0.0
  0
VERTEX
  5
1F4
330
1F2
100
AcDbEntity
  8
Capa 1
 62
     7
420
 16777215
370
    18
100
AcDbVertex
100
AcDb2dVertex
 10
27.65136989326077
 20
-49.94509954263525
 30
0.0
  0
SEQEND
  5
1F5
330
1F2
100
AcDbEntity
  8
Capa 1
370
    18
  0
POLYLINE
  5
1F6
330
1F
100
AcDbEntity
  8
Capa 1
 62
     7
420
 16777215
370
    18
100
AcDb2dPolyline
 66
     1
 10
0.0
 20
0.0
 30
0.0
  0
VERTEX
  5
1F7
330
1F6
100
AcDbEntity
  8
Capa 1
 62
     7
420
 16777215
370
    18
100
AcDbVertex
100
AcDb2dVertex
 10
50.10305717063396
 20
-34.70589191840686
 30
0.0
  0
VERTEX
  5
1F8
330
1F6
100
AcDbEntity
  8
Capa 1
 62
     7
420
 16777215
370
    18
100
AcDbVertex
100
AcDb2dVertex
 10
52.38078205070689
 20
-34.70589191840686
 30
0.0
  0
SEQEND
  5
1F9
330
1F6
100
AcDbEntity
  8
Capa 1
370
    18
  0
POLYLINE
  5
1FA
330
1F
100
AcDbEntity
  8
Capa 1
 62
     7
420
 16777215
370
    18
100
AcDb2dPolyline
 66
     1
 10
0.0
 20
0.0
 30
0.0
  0
VERTEX
  5
1FB
330
1FA
100
AcDbEntity
  8
Capa 1
 62
     7
420
 16777215
370
    18
100
AcDbVertex
100
AcDb2dVertex
 10
52.38078205070689
 20
-34.70589191840686
 30
0.0
  0
VERTEX
  5
1FC
330
1FA
100
AcDbEntity
  8
Capa 1
 62
     7
420
 16777215
370
    18
100
AcDbVertex
100
AcDb2dVertex
 10
52.38078205070689
 20
-34.95893418179846
 30
0.0
  0
SEQEND
  5
1FD
330
1FA
100
AcDbEntity
  8
Capa 1
370
    18
  0
POLYLINE
  5
1FE
330
1F
100
AcDbEntity
  8
Capa 1
 62
     7
420
 16777215
370
    18
100
AcDb2dPolyline
 66
     1
 10
0.0
 20
0.0
 30
0.0
  0
VERTEX
  5
1FF
330
1FE
100
AcDbEntity
  8
Capa 1
 62
     7
420
 16777215
370
    18
100
AcDbVertex
100
AcDb2dVertex
 10
50.10305717063396
 20
-34.95893418179846
 30
0.0
  0
VERTEX
  5
200
330
1FE
100
AcDbEntity
  8
Capa 1
 62
     7
420
 16777215
370
    18
100
AcDbVertex
100
AcDb2dVertex
 10
50.10305717063396
 20
-34.70589191840686
 30
0.0
  0
SEQEND
  5
201
330
1FE
100
AcDbEntity
  8
Capa 1
370
    18
  0
POLYLINE
  5
202
330
1F
100
AcDbEntity
  8
Capa 1
 62
     7
420
 16777215
370
    18
100
AcDb2dPolyline
 66
     1
 10
0.0
 20
0.0
 30
0.0
  0
VERTEX
  5
203
330
202
100
AcDbEntity
  8
Capa 1
 62
     7
420
 16777215
370
    18
100
AcDbVertex
100
AcDb2dVertex
 10
49.72340764815943
 20
-34.95893418179846
 30
0.0
  0
VERTEX
  5
204
330
202
100
AcDbEntity
  8
Capa 1
 62
     7
420
 16777215
370
    18
100
AcDbVertex
100
AcDb2dVertex
 10
52.76043157318142
 20
-34.95893418179846
 30
0.0
  0
SEQEND
  5
205
330
202
100
AcDbEntity
  8
Capa 1
370
    18
  0
POLYLINE
  5
206
330
1F
100
AcDbEntity
  8
Capa 1
 62
     7
420
 16777215
370
    18
100
AcDb2dPolyline
 66
     1
 10
0.0
 20
0.0
 30
0.0
  0
VERTEX
  5
207
330
206
100
AcDbEntity
  8
Capa 1
 62
     7
420
 16777215
370
    18
100
AcDbVertex
100
AcDb2dVertex
 10
48.33141681734423
 20
-35.84484048583046
 30
0.0
  0
VERTEX
  5
208
330
206
100
AcDbEntity
  8
Capa 1
 62
     7
420
 16777215
370
    18
100
AcDbVertex
100
AcDb2dVertex
 10
54.15276691354514
 20
-35.84484048583046
 30
0.0
  0
SEQEND
  5
209
330
206
100
AcDbEntity
  8
Capa 1
370
    18
  0
SPLINE
  5
20A
330
1F
100
AcDbEntity
  8
Capa 1
 62
     7
420
 16777215
370
    18
100
AcDbSpline
210
0.0
220
0.0
230
1.0
 70
     8
 71
     3
 72
     8
 73
     4
 74
     0
 42
0.0000000001
 43
0.0000000001
 40
0.0
 40
0.0
 40
0.0
 40
0.0
 40
1.0
 40
1.0
 40
1.0
 40
1.0
 10
54.15276691354514
 20
-35.84484048583046
 30
0.0
 10
53.90368650996158
 20
-35.30120441825803
 30
0.0
 10
53.35867240419505
 20
-34.95428330289337
 30
0.0
 10
52.76043157318142
 20
-34.95893418179846
 30
0.0
  0
SPLINE
  5
20B
330
1F
100
AcDbEntity
  8
Capa 1
 62
     7
420
 16777215
370
    18
100
AcDbSpline
210
0.0
220
0.0
230
1.0
 70
     8
 71
     3
 72
     8
 73
     4
 74
     0
 42
0.0000000001
 43
0.0000000001
 40
0.0
 40
0.0
 40
0.0
 40
0.0
 40
1.0
 40
1.0
 40
1.0
 40
1.0
 10
49.72340764815943
 20
-34.95893418179846
 30
0.0
 10
49.12551132669432
 20
-34.95428330289337
 30
0.0
 10
48.58032496615353
 20
-35.30120441825803
 30
0.0
 10
48.33141681734423
 20
-35.84484048583046
 30
0.0
  0
POLYLINE
  5
20C
330
1F
100
AcDbEntity
  8
Capa 1
 62
     7
420
 16777215
370
    18
100
AcDb2dPolyline
 66
     1
 10
0.0
 20
0.0
 30
0.0
  0
VERTEX
  5
20D
330
20C
100
AcDbEntity
  8
Capa 1
 62
     7
420
 16777215
370
    18
100
AcDbVertex
100
AcDb2dVertex
 10
52.38078205070689
 20
-35.84484048583046
 30
0.0
  0
VERTEX
  5
20E
330
20C
100
AcDbEntity
  8
Capa 1
 62
     7
420
 16777215
370
    18
100
AcDbVertex
100
AcDb2dVertex
 10
52.38078205070689
 20
-37.11039631233699
 30
0.0
  0
SEQEND
  5
20F
330
20C
100
AcDbEntity
  8
Capa 1
370
    18
  0
POLYLINE
  5
210
330
1F
100
AcDbEntity
  8
Capa 1
 62
     7
420
 16777215
370
    18
100
AcDb2dPolyline
 66
     1
 10
0.0
 20
0.0
 30
0.0
  0
VERTEX
  5
211
330
210
100
AcDbEntity
  8
Capa 1
 62
     7
420
 16777215
370
    18
100
AcDbVertex
100
AcDb2dVertex
 10
52.38078205070689
 20
-37.11039631233699
 30
0.0
  0
VERTEX
  5
212
330
210
100
AcDbEntity
  8
Capa 1
 62
     7
420
 16777215
370
    18
100
AcDbVertex
100
AcDb2dVertex
 10
50.10305717063396
 20
-37.11039631233699
 30
0.0
  0
SEQEND
  5
213
330
210
100
AcDbEntity
  8
Capa 1
370
    18
  0
POLYLINE
  5
214
330
1F
100
AcDbEntity
  8
Capa 1
 62
     7
420
 16777215
370
    18
100
AcDb2dPolyline
 66
     1
 10
0.0
 20
0.0
 30
0.0
  0
VERTEX
  5
215
330
214
100
AcDbEntity
  8
Capa 1
 62
     7
420
 16777215
370
    18
100
AcDbVertex
100
AcDb2dVertex
 10
50.10305717063396
 20
-37.11039631233699
 30
0.0
  0
VERTEX
  5
216
330
214
100
AcDbEntity
  8
Capa 1
 62
     7
420
 16777215
370
    18
100
AcDbVertex
100
AcDb2dVertex
 10
50.10305717063396
 20
-35.84484048583046
 30
0.0
  0
SEQEND
  5
217
330
214
100
AcDbEntity
  8
Capa 1
370
    18
  0
POLYLINE
  5
218
330
1F
100
AcDbEntity
  8
Capa 1
 62
     7
420
 16777215
370
    18
100
AcDb2dPolyline
 66
     1
 10
0.0
 20
0.0
 30
0.0
  0
VERTEX
  5
219
330
218
100
AcDbEntity
  8
Capa 1
 62
     7
420
 16777215
370
    18
100
AcDbVertex
100
AcDb2dVertex
 10
53.51973061813049
 20
-37.11039631233699
 30
0.0
  0
VERTEX
  5
21A
330
218
100
AcDbEntity
  8
Capa 1
 62
     7
420
 16777215
370
    18
100
AcDbVertex
100
AcDb2dVertex
 10
48.96410860321036
 20
-37.11039631233699
 30
0.0
  0
SEQEND
  5
21B
330
218
100
AcDbEntity
  8
Capa 1
370
    18
  0
POLYLINE
  5
21C
330
1F
100
AcDbEntity
  8
Capa 1
 62
     7
420
 16777215
370
    18
100
AcDb2dPolyline
 66
     1
 10
0.0
 20
0.0
 30
0.0
  0
VERTEX
  5
21D
330
21C
100
AcDbEntity
  8
Capa 1
 62
     7
420
 16777215
370
    18
100
AcDbVertex
100
AcDb2dVertex
 10
48.96410860321036
 20
-37.11039631233699
 30
0.0
  0
VERTEX
  5
21E
330
21C
100
AcDbEntity
  8
Capa 1
 62
     7
420
 16777215
370
    18
100
AcDbVertex
100
AcDb2dVertex
 10
48.96410860321036
 20
-37.49004583481152
 30
0.0
  0
SEQEND
  5
21F
330
21C
100
AcDbEntity
  8
Capa 1
370
    18
  0
POLYLINE
  5
220
330
1F
100
AcDbEntity
  8
Capa 1
 62
     7
420
 16777215
370
    18
100
AcDb2dPolyline
 66
     1
 10
0.0
 20
0.0
 30
0.0
  0
VERTEX
  5
221
330
220
100
AcDbEntity
  8
Capa 1
 62
     7
420
 16777215
370
    18
100
AcDbVertex
100
AcDb2dVertex
 10
53.51973061813049
 20
-37.49004583481152
 30
0.0
  0
VERTEX
  5
222
330
220
100
AcDbEntity
  8
Capa 1
 62
     7
420
 16777215
370
    18
100
AcDbVertex
100
AcDb2dVertex
 10
53.51973061813049
 20
-37.11039631233699
 30
0.0
  0
SEQEND
  5
223
330
220
100
AcDbEntity
  8
Capa 1
370
    18
  0
POLYLINE
  5
224
330
1F
100
AcDbEntity
  8
Capa 1
 62
     7
420
 16777215
370
    18
100
AcDb2dPolyline
 66
     1
 10
0.0
 20
0.0
 30
0.0
  0
VERTEX
  5
225
330
224
100
AcDbEntity
  8
Capa 1
 62
     7
420
 16777215
370
    18
100
AcDbVertex
100
AcDb2dVertex
 10
53.77294513629635
 20
-37.49004583481152
 30
0.0
  0
VERTEX
  5
226
330
224
100
AcDbEntity
  8
Capa 1
 62
     7
420
 16777215
370
    18
100
AcDbVertex
100
AcDb2dVertex
 10
48.7108940850445
 20
-37.49004583481152
 30
0.0
  0
SEQEND
  5
227
330
224
100
AcDbEntity
  8
Capa 1
370
    18
  0
POLYLINE
  5
228
330
1F
100
AcDbEntity
  8
Capa 1
 62
     7
420
 16777215
370
    18
100
AcDb2dPolyline
 66
     1
 10
0.0
 20
0.0
 30
0.0
  0
VERTEX
  5
229
330
228
100
AcDbEntity
  8
Capa 1
 62
     7
420
 16777215
370
    18
100
AcDbVertex
100
AcDb2dVertex
 10
53.77294513629635
 20
-37.49004583481152
 30
0.0
  0
VERTEX
  5
22A
330
228
100
AcDbEntity
  8
Capa 1
 62
     7
420
 16777215
370
    18
100
AcDbVertex
100
AcDb2dVertex
 10
53.77294513629635
 20
-37.74308809820312
 30
0.0
  0
SEQEND
  5
22B
330
228
100
AcDbEntity
  8
Capa 1
370
    18
  0
POLYLINE
  5
22C
330
1F
100
AcDbEntity
  8
Capa 1
 62
     7
420
 16777215
370
    18
100
AcDb2dPolyline
 66
     1
 10
0.0
 20
0.0
 30
0.0
  0
VERTEX
  5
22D
330
22C
100
AcDbEntity
  8
Capa 1
 62
     7
420
 16777215
370
    18
100
AcDbVertex
100
AcDb2dVertex
 10
53.77294513629635
 20
-37.74308809820312
 30
0.0
  0
VERTEX
  5
22E
330
22C
100
AcDbEntity
  8
Capa 1
 62
     7
420
 16777215
370
    18
100
AcDbVertex
100
AcDb2dVertex
 10
48.7108940850445
 20
-37.74308809820312
 30
0.0
  0
SEQEND
  5
22F
330
22C
100
AcDbEntity
  8
Capa 1
370
    18
  0
POLYLINE
  5
230
330
1F
100
AcDbEntity
  8
Capa 1
 62
     7
420
 16777215
370
    18
100
AcDb2dPolyline
 66
     1
 10
0.0
 20
0.0
 30
0.0
  0
VERTEX
  5
231
330
230
100
AcDbEntity
  8
Capa 1
 62
     7
420
 16777215
370
    18
100
AcDbVertex
100
AcDb2dVertex
 10
48.7108940850445
 20
-37.74308809820312
 30
0.0
  0
VERTEX
  5
232
330
230
100
AcDbEntity
  8
Capa 1
 62
     7
420
 16777215
370
    18
100
AcDbVertex
100
AcDb2dVertex
 10
48.7108940850445
 20
-37.49004583481152
 30
0.0
  0
SEQEND
  5
233
330
230
100
AcDbEntity
  8
Capa 1
370
    18
  0
POLYLINE
  5
234
330
1F
100
AcDbEntity
  8
Capa 1
 62
     7
420
 16777215
370
    18
100
AcDb2dPolyline
 66
     1
 10
0.0
 20
0.0
 30
0.0
  0
VERTEX
  5
235
330
234
100
AcDbEntity
  8
Capa 1
 62
     7
420
 16777215
370
    18
100
AcDbVertex
100
AcDb2dVertex
 10
52.38078205070689
 20
-37.74308809820312
 30
0.0
  0
VERTEX
  5
236
330
234
100
AcDbEntity
  8
Capa 1
 62
     7
420
 16777215
370
    18
100
AcDbVertex
100
AcDb2dVertex
 10
52.38078205070689
 20
-38.28017848435357
 30
0.0
  0
SEQEND
  5
237
330
234
100
AcDbEntity
  8
Capa 1
370
    18
  0
POLYLINE
  5
238
330
1F
100
AcDbEntity
  8
Capa 1
 62
     7
420
 16777215
370
    18
100
AcDb2dPolyline
 66
     1
 10
0.0
 20
0.0
 30
0.0
  0
VERTEX
  5
239
330
238
100
AcDbEntity
  8
Capa 1
 62
     7
420
 16777215
370
    18
100
AcDbVertex
100
AcDb2dVertex
 10
52.38078205070689
 20
-38.78643526591103
 30
0.0
  0
VERTEX
  5
23A
330
238
100
AcDbEntity
  8
Capa 1
 62
     7
420
 16777215
370
    18
100
AcDbVertex
100
AcDb2dVertex
 10
52.38078205070689
 20
-39.51507296104137
 30
0.0
  0
SEQEND
  5
23B
330
238
100
AcDbEntity
  8
Capa 1
370
    18
  0
POLYLINE
  5
23C
330
1F
100
AcDbEntity
  8
Capa 1
 62
     7
420
 16777215
370
    18
100
AcDb2dPolyline
 66
     1
 10
0.0
 20
0.0
 30
0.0
  0
VERTEX
  5
23D
330
23C
100
AcDbEntity
  8
Capa 1
 62
     7
420
 16777215
370
    18
100
AcDbVertex
100
AcDb2dVertex
 10
50.10305717063396
 20
-39.51507296104137
 30
0.0
  0
VERTEX
  5
23E
330
23C
100
AcDbEntity
  8
Capa 1
 62
     7
420
 16777215
370
    18
100
AcDbVertex
100
AcDb2dVertex
 10
50.10305717063396
 20
-38.78643526591103
 30
0.0
  0
SEQEND
  5
23F
330
23C
100
AcDbEntity
  8
Capa 1
370
    18
  0
POLYLINE
  5
240
330
1F
100
AcDbEntity
  8
Capa 1
 62
     7
420
 16777215
370
    18
100
AcDb2dPolyline
 66
     1
 10
0.0
 20
0.0
 30
0.0
  0
VERTEX
  5
241
330
240
100
AcDbEntity
  8
Capa 1
 62
     7
420
 16777215
370
    18
100
AcDbVertex
100
AcDb2dVertex
 10
50.10305717063396
 20
-38.28017848435357
 30
0.0
  0
VERTEX
  5
242
330
240
100
AcDbEntity
  8
Capa 1
 62
     7
420
 16777215
370
    18
100
AcDbVertex
100
AcDb2dVertex
 10
50.10305717063396
 20
-37.74308809820312
 30
0.0
  0
SEQEND
  5
243
330
240
100
AcDbEntity
  8
Capa 1
370
    18
  0
POLYLINE
  5
244
330
1F
100
AcDbEntity
  8
Capa 1
 62
     7
420
 16777215
370
    18
100
AcDb2dPolyline
 66
     1
 10
0.0
 20
0.0
 30
0.0
  0
VERTEX
  5
245
330
244
100
AcDbEntity
  8
Capa 1
 62
     7
420
 16777215
370
    18
100
AcDbVertex
100
AcDb2dVertex
 10
51.24200573805756
 20
-38.28017848435357
 30
0.0
  0
VERTEX
  5
246
330
244
100
AcDbEntity
  8
Capa 1
 62
     7
420
 16777215
370
    18
100
AcDbVertex
100
AcDb2dVertex
 10
52.69755858057561
 20
-38.28017848435357
 30
0.0
  0
SEQEND
  5
247
330
244
100
AcDbEntity
  8
Capa 1
370
    18
  0
POLYLINE
  5
248
330
1F
100
AcDbEntity
  8
Capa 1
 62
     7
420
 16777215
370
    18
100
AcDb2dPolyline
 66
     1
 10
0.0
 20
0.0
 30
0.0
  0
VERTEX
  5
249
330
248
100
AcDbEntity
  8
Capa 1
 62
     7
420
 16777215
370
    18
100
AcDbVertex
100
AcDb2dVertex
 10
52.69755858057561
 20
-38.28017848435357
 30
0.0
  0
VERTEX
  5
24A
330
248
100
AcDbEntity
  8
Capa 1
 62
     7
420
 16777215
370
    18
100
AcDbVertex
100
AcDb2dVertex
 10
52.69755858057561
 20
-38.78643526591103
 30
0.0
  0
SEQEND
  5
24B
330
248
100
AcDbEntity
  8
Capa 1
370
    18
  0
POLYLINE
  5
24C
330
1F
100
AcDbEntity
  8
Capa 1
 62
     7
420
 16777215
370
    18
100
AcDb2dPolyline
 66
     1
 10
0.0
 20
0.0
 30
0.0
  0
VERTEX
  5
24D
330
24C
100
AcDbEntity
  8
Capa 1
 62
     7
420
 16777215
370
    18
100
AcDbVertex
100
AcDb2dVertex
 10
52.69755858057561
 20
-38.78643526591103
 30
0.0
  0
VERTEX
  5
24E
330
24C
100
AcDbEntity
  8
Capa 1
 62
     7
420
 16777215
370
    18
100
AcDbVertex
100
AcDb2dVertex
 10
49.78662515031376
 20
-38.78643526591103
 30
0.0
  0
SEQEND
  5
24F
330
24C
100
AcDbEntity
  8
Capa 1
370
    18
  0
POLYLINE
  5
250
330
1F
100
AcDbEntity
  8
Capa 1
 62
     7
420
 16777215
370
    18
100
AcDb2dPolyline
 66
     1
 10
0.0
 20
0.0
 30
0.0
  0
VERTEX
  5
251
330
250
100
AcDbEntity
  8
Capa 1
 62
     7
420
 16777215
370
    18
100
AcDbVertex
100
AcDb2dVertex
 10
49.78662515031376
 20
-38.78643526591103
 30
0.0
  0
VERTEX
  5
252
330
250
100
AcDbEntity
  8
Capa 1
 62
     7
420
 16777215
370
    18
100
AcDbVertex
100
AcDb2dVertex
 10
49.78662515031376
 20
-38.28017848435357
 30
0.0
  0
SEQEND
  5
253
330
250
100
AcDbEntity
  8
Capa 1
370
    18
  0
POLYLINE
  5
254
330
1F
100
AcDbEntity
  8
Capa 1
 62
     7
420
 16777215
370
    18
100
AcDb2dPolyline
 66
     1
 10
0.0
 20
0.0
 30
0.0
  0
VERTEX
  5
255
330
254
100
AcDbEntity
  8
Capa 1
 62
     7
420
 16777215
370
    18
100
AcDbVertex
100
AcDb2dVertex
 10
49.78662515031376
 20
-38.28017848435357
 30
0.0
  0
VERTEX
  5
256
330
254
100
AcDbEntity
  8
Capa 1
 62
     7
420
 16777215
370
    18
100
AcDbVertex
100
AcDb2dVertex
 10
51.24200573805756
 20
-38.28017848435357
 30
0.0
  0
SEQEND
  5
257
330
254
100
AcDbEntity
  8
Capa 1
370
    18
  0
POLYLINE
  5
258
330
1F
100
AcDbEntity
  8
Capa 1
 62
     7
420
 16777215
370
    18
100
AcDb2dPolyline
 66
     1
 10
0.0
 20
0.0
 30
0.0
  0
VERTEX
  5
259
330
258
100
AcDbEntity
  8
Capa 1
 62
     7
420
 16777215
370
    18
100
AcDbVertex
100
AcDb2dVertex
 10
50.10305717063396
 20
-39.51507296104137
 30
0.0
  0
VERTEX
  5
25A
330
258
100
AcDbEntity
  8
Capa 1
 62
     7
420
 16777215
370
    18
100
AcDbVertex
100
AcDb2dVertex
 10
52.38078205070689
 20
-39.51507296104137
 30
0.0
  0
SEQEND
  5
25B
330
258
100
AcDbEntity
  8
Capa 1
370
    18
  0
POLYLINE
  5
25C
330
1F
100
AcDbEntity
  8
Capa 1
 62
     7
420
 16777215
370
    18
100
AcDb2dPolyline
 66
     1
 10
0.0
 20
0.0
 30
0.0
  0
VERTEX
  5
25D
330
25C
100
AcDbEntity
  8
Capa 1
 62
     7
420
 16777215
370
    18
100
AcDbVertex
100
AcDb2dVertex
 10
50.67046439705461
 20
-38.78643526591103
 30
0.0
  0
VERTEX
  5
25E
330
25C
100
AcDbEntity
  8
Capa 1
 62
     7
420
 16777215
370
    18
100
AcDbVertex
100
AcDb2dVertex
 10
50.67046439705461
 20
-38.28017848435357
 30
0.0
  0
SEQEND
  5
25F
330
25C
100
AcDbEntity
  8
Capa 1
370
    18
  0
POLYLINE
  5
260
330
1F
100
AcDbEntity
  8
Capa 1
 62
     7
420
 16777215
370
    18
100
AcDb2dPolyline
 66
     1
 10
0.0
 20
0.0
 30
0.0
  0
VERTEX
  5
261
330
260
100
AcDbEntity
  8
Capa 1
 62
     7
420
 16777215
370
    18
100
AcDbVertex
100
AcDb2dVertex
 10
51.77375622620587
 20
-38.78643526591103
 30
0.0
  0
VERTEX
  5
262
330
260
100
AcDbEntity
  8
Capa 1
 62
     7
420
 16777215
370
    18
100
AcDbVertex
100
AcDb2dVertex
 10
51.77375622620587
 20
-38.28017848435357
 30
0.0
  0
SEQEND
  5
263
330
260
100
AcDbEntity
  8
Capa 1
370
    18
  0
POLYLINE
  5
264
330
1F
100
AcDbEntity
  8
Capa 1
 62
     7
420
 16777215
370
    18
100
AcDb2dPolyline
 66
     1
 10
0.0
 20
0.0
 30
0.0
  0
VERTEX
  5
265
330
264
100
AcDbEntity
  8
Capa 1
 62
     7
420
 16777215
370
    18
100
AcDbVertex
100
AcDb2dVertex
 10
52.08708766058934
 20
-34.70589191840686
 30
0.0
  0
VERTEX
  5
266
330
264
100
AcDbEntity
  8
Capa 1
 62
     7
420
 16777215
370
    18
100
AcDbVertex
100
AcDb2dVertex
 10
52.08708766058934
 20
-34.95893418179846
 30
0.0
  0
SEQEND
  5
267
330
264
100
AcDbEntity
  8
Capa 1
370
    18
  0
POLYLINE
  5
268
330
1F
100
AcDbEntity
  8
Capa 1
 62
     7
420
 16777215
370
    18
100
AcDb2dPolyline
 66
     1
 10
0.0
 20
0.0
 30
0.0
  0
VERTEX
  5
269
330
268
100
AcDbEntity
  8
Capa 1
 62
     7
420
 16777215
370
    18
100
AcDbVertex
100
AcDb2dVertex
 10
51.79373778002032
 20
-34.70589191840686
 30
0.0
  0
VERTEX
  5
26A
330
268
100
AcDbEntity
  8
Capa 1
 62
     7
420
 16777215
370
    18
100
AcDbVertex
100
AcDb2dVertex
 10
51.79373778002032
 20
-34.95893418179846
 30
0.0
  0
SEQEND
  5
26B
330
268
100
AcDbEntity
  8
Capa 1
370
    18
  0
POLYLINE
  5
26C
330
1F
100
AcDbEntity
  8
Capa 1
 62
     7
420
 16777215
370
    18
100
AcDb2dPolyline
 66
     1
 10
0.0
 20
0.0
 30
0.0
  0
VERTEX
  5
26D
330
26C
100
AcDbEntity
  8
Capa 1
 62
     7
420
 16777215
370
    18
100
AcDbVertex
100
AcDb2dVertex
 10
51.49969888035425
 20
-34.70589191840686
 30
0.0
  0
VERTEX
  5
26E
330
26C
100
AcDbEntity
  8
Capa 1
 62
     7
420
 16777215
370
    18
100
AcDbVertex
100
AcDb2dVertex
 10
51.49969888035425
 20
-34.95893418179846
 30
0.0
  0
SEQEND
  5
26F
330
26C
100
AcDbEntity
  8
Capa 1
370
    18
  0
POLYLINE
  5
270
330
1F
100
AcDbEntity
  8
Capa 1
 62
     7
420
 16777215
370
    18
100
AcDb2dPolyline
 66
     1
 10
0.0
 20
0.0
 30
0.0
  0
VERTEX
  5
271
330
270
100
AcDbEntity
  8
Capa 1
 62
     7
420
 16777215
370
    18
100
AcDbVertex
100
AcDb2dVertex
 10
50.61896021955013
 20
-34.70589191840686
 30
0.0
  0
VERTEX
  5
272
330
270
100
AcDbEntity
  8
Capa 1
 62
     7
420
 16777215
370
    18
100
AcDbVertex
100
AcDb2dVertex
 10
50.61896021955013
 20
-34.95893418179846
 30
0.0
  0
SEQEND
  5
273
330
270
100
AcDbEntity
  8
Capa 1
370
    18
  0
POLYLINE
  5
274
330
1F
100
AcDbEntity
  8
Capa 1
 62
     7
420
 16777215
370
    18
100
AcDb2dPolyline
 66
     1
 10
0.0
 20
0.0
 30
0.0
  0
VERTEX
  5
275
330
274
100
AcDbEntity
  8
Capa 1
 62
     7
420
 16777215
370
    18
100
AcDbVertex
100
AcDb2dVertex
 10
50.32526582943257
 20
-34.70589191840686
 30
0.0
  0
VERTEX
  5
276
330
274
100
AcDbEntity
  8
Capa 1
 62
     7
420
 16777215
370
    18
100
AcDbVertex
100
AcDb2dVertex
 10
50.32526582943257
 20
-34.95893418179846
 30
0.0
  0
SEQEND
  5
277
330
274
100
AcDbEntity
  8
Capa 1
370
    18
  0
POLYLINE
  5
278
330
1F
100
AcDbEntity
  8
Capa 1
 62
     7
420
 16777215
370
    18
100
AcDb2dPolyline
 66
     1
 10
0.0
 20
0.0
 30
0.0
  0
VERTEX
  5
279
330
278
100
AcDbEntity
  8
Capa 1
 62
     7
420
 16777215
370
    18
100
AcDbVertex
100
AcDb2dVertex
 10
50.91265460966767
 20
-34.70589191840686
 30
0.0
  0
VERTEX
  5
27A
330
278
100
AcDbEntity
  8
Capa 1
 62
     7
420
 16777215
370
    18
100
AcDbVertex
100
AcDb2dVertex
 10
50.91265460966767
 20
-34.95893418179846
 30
0.0
  0
SEQEND
  5
27B
330
278
100
AcDbEntity
  8
Capa 1
370
    18
  0
POLYLINE
  5
27C
330
1F
100
AcDbEntity
  8
Capa 1
 62
     7
420
 16777215
370
    18
100
AcDb2dPolyline
 66
     1
 10
0.0
 20
0.0
 30
0.0
  0
VERTEX
  5
27D
330
27C
100
AcDbEntity
  8
Capa 1
 62
     7
420
 16777215
370
    18
100
AcDbVertex
100
AcDb2dVertex
 10
51.20634899978522
 20
-34.70589191840686
 30
0.0
  0
VERTEX
  5
27E
330
27C
100
AcDbEntity
  8
Capa 1
 62
     7
420
 16777215
370
    18
100
AcDbVertex
100
AcDb2dVertex
 10
51.20634899978522
 20
-34.95893418179846
 30
0.0
  0
SEQEND
  5
27F
330
27C
100
AcDbEntity
  8
Capa 1
370
    18
  0
POLYLINE
  5
280
330
1F
100
AcDbEntity
  8
Capa 1
 62
     7
420
 16777215
370
    18
100
AcDb2dPolyline
 66
     1
 10
0.0
 20
0.0
 30
0.0
  0
VERTEX
  5
281
330
280
100
AcDbEntity
  8
Capa 1
 62
     7
420
 16777215
370
    18
100
AcDbVertex
100
AcDb2dVertex
 10
27.56403672270969
 20
-53.31664223927501
 30
0.0
  0
VERTEX
  5
282
330
280
100
AcDbEntity
  8
Capa 1
 62
     7
420
 16777215
370
    18
100
AcDbVertex
100
AcDb2dVertex
 10
27.56403672270969
 20
-53.20898300536095
 30
0.0
  0
SEQEND
  5
283
330
280
100
AcDbEntity
  8
Capa 1
370
    18
  0
SPLINE
  5
284
330
1F
100
AcDbEntity
  8
Capa 1
 62
     7
420
 16777215
370
    18
100
AcDbSpline
210
0.0
220
0.0
230
1.0
 70
     8
 71
     3
 72
    11
 73
     7
 74
     0
 42
0.0000000001
 43
0.0000000001
 40
0.0
 40
0.0
 40
0.0
 40
0.0
 40
1.0
 40
1.0
 40
1.0
 40
2.0
 40
2.0
 40
2.0
 40
2.0
 10
28.58567978886052
 20
-53.15523951579105
 30
0.0
 10
28.681797952899
 20
-53.14817707004629
 30
0.0
 10
28.75380044854072
 20
-53.06428899498046
 30
0.0
 10
28.74639349324743
 20
-52.96817083094199
 30
0.0
 10
28.74501545505333
 20
-52.9456054555136
 30
0.0
 10
28.73881428317988
 20
-52.923556844408
 30
0.0
 10
28.72882350627266
 20
-52.90323078104502
 30
0.0
  0
SPLINE
  5
285
330
1F
100
AcDbEntity
  8
Capa 1
 62
     7
420
 16777215
370
    18
100
AcDbSpline
210
0.0
220
0.0
230
1.0
 70
     8
 71
     3
 72
    11
 73
     7
 74
     0
 42
0.0000000001
 43
0.0000000001
 40
0.0
 40
0.0
 40
0.0
 40
0.0
 40
1.0
 40
1.0
 40
1.0
 40
2.0
 40
2.0
 40
2.0
 40
2.0
 10
27.47463649486745
 20
-52.90323078104502
 30
0.0
 10
27.43174505607609
 20
-52.98935816817627
 30
0.0
 10
27.46671277525138
 20
-53.09408907092787
 30
0.0
 10
27.55284016238263
 20
-53.13715276449349
 30
0.0
 10
27.57282171619707
 20
-53.14748805094924
 30
0.0
 10
27.59487032730267
 20
-53.15368922282269
 30
0.0
 10
27.61743570273106
 20
-53.15523951579105
 30
0.0
  0
POLYLINE
  5
286
330
1F
100
AcDbEntity
  8
Capa 1
 62
     7
420
 16777215
370
    18
100
AcDb2dPolyline
 66
     1
 10
0.0
 20
0.0
 30
0.0
  0
VERTEX
  5
287
330
286
100
AcDbEntity
  8
Capa 1
 62
     7
420
 16777215
370
    18
100
AcDbVertex
100
AcDb2dVertex
 10
27.45637748879563
 20
-51.38032632179033
 30
0.0
  0
VERTEX
  5
288
330
286
100
AcDbEntity
  8
Capa 1
 62
     7
420
 16777215
370
    18
100
AcDbVertex
100
AcDb2dVertex
 10
28.74691025757022
 20
-51.38032632179033
 30
0.0
  0
SEQEND
  5
289
330
286
100
AcDbEntity
  8
Capa 1
370
    18
  0
POLYLINE
  5
28A
330
1F
100
AcDbEntity
  8
Capa 1
 62
     7
420
 16777215
370
    18
100
AcDb2dPolyline
 66
     1
 10
0.0
 20
0.0
 30
0.0
  0
VERTEX
  5
28B
330
28A
100
AcDbEntity
  8
Capa 1
 62
     7
420
 16777215
370
    18
100
AcDbVertex
100
AcDb2dVertex
 10
28.63942327843042
 20
-52.72511934445761
 30
0.0
  0
VERTEX
  5
28C
330
28A
100
AcDbEntity
  8
Capa 1
 62
     7
420
 16777215
370
    18
100
AcDbVertex
100
AcDb2dVertex
 10
28.63942327843042
 20
-51.97219372615626
 30
0.0
  0
SEQEND
  5
28D
330
28A
100
AcDbEntity
  8
Capa 1
370
    18
  0
POLYLINE
  5
28E
330
1F
100
AcDbEntity
  8
Capa 1
 62
     7
420
 16777215
370
    18
100
AcDb2dPolyline
 66
     1
 10
0.0
 20
0.0
 30
0.0
  0
VERTEX
  5
28F
330
28E
100
AcDbEntity
  8
Capa 1
 62
     7
420
 16777215
370
    18
100
AcDbVertex
100
AcDb2dVertex
 10
28.74691025757022
 20
-51.55533717244103
 30
0.0
  0
VERTEX
  5
290
330
28E
100
AcDbEntity
  8
Capa 1
 62
     7
420
 16777215
370
    18
100
AcDbVertex
100
AcDb2dVertex
 10
28.74691025757022
 20
-51.38032632179033
 30
0.0
  0
SEQEND
  5
291
330
28E
100
AcDbEntity
  8
Capa 1
370
    18
  0
SPLINE
  5
292
330
1F
100
AcDbEntity
  8
Capa 1
 62
     7
420
 16777215
370
    18
100
AcDbSpline
210
0.0
220
0.0
230
1.0
 70
     8
 71
     3
 72
     8
 73
     4
 74
     0
 42
0.0000000001
 43
0.0000000001
 40
0.0
 40
0.0
 40
0.0
 40
0.0
 40
1.0
 40
1.0
 40
1.0
 40
1.0
 10
28.63942327843042
 20
-51.97219372615626
 30
0.0
 10
28.70987548110378
 20
-51.84455293842775
 30
0.0
 10
28.74691025757022
 20
-51.7010647114671
 30
0.0
 10
28.74691025757022
 20
-51.55533717244103
 30
0.0
  0
POLYLINE
  5
293
330
1F
100
AcDbEntity
  8
Capa 1
 62
     7
420
 16777215
370
    18
100
AcDb2dPolyline
 66
     1
 10
0.0
 20
0.0
 30
0.0
  0
VERTEX
  5
294
330
293
100
AcDbEntity
  8
Capa 1
 62
     7
420
 16777215
370
    18
100
AcDbVertex
100
AcDb2dVertex
 10
28.63942327843042
 20
-52.72511934445761
 30
0.0
  0
VERTEX
  5
295
330
293
100
AcDbEntity
  8
Capa 1
 62
     7
420
 16777215
370
    18
100
AcDbVertex
100
AcDb2dVertex
 10
28.72882350627266
 20
-52.90323078104502
 30
0.0
  0
SEQEND
  5
296
330
293
100
AcDbEntity
  8
Capa 1
370
    18
  0
POLYLINE
  5
297
330
1F
100
AcDbEntity
  8
Capa 1
 62
     7
420
 16777215
370
    18
100
AcDb2dPolyline
 66
     1
 10
0.0
 20
0.0
 30
0.0
  0
VERTEX
  5
298
330
297
100
AcDbEntity
  8
Capa 1
 62
     7
420
 16777215
370
    18
100
AcDbVertex
100
AcDb2dVertex
 10
28.55880804407558
 20
-52.72511934445761
 30
0.0
  0
VERTEX
  5
299
330
297
100
AcDbEntity
  8
Capa 1
 62
     7
420
 16777215
370
    18
100
AcDbVertex
100
AcDb2dVertex
 10
28.55880804407558
 20
-51.97219372615626
 30
0.0
  0
SEQEND
  5
29A
330
297
100
AcDbEntity
  8
Capa 1
370
    18
  0
POLYLINE
  5
29B
330
1F
100
AcDbEntity
  8
Capa 1
 62
     7
420
 16777215
370
    18
100
AcDb2dPolyline
 66
     1
 10
0.0
 20
0.0
 30
0.0
  0
VERTEX
  5
29C
330
29B
100
AcDbEntity
  8
Capa 1
 62
     7
420
 16777215
370
    18
100
AcDbVertex
100
AcDb2dVertex
 10
28.23600259710767
 20
-52.72511934445761
 30
0.0
  0
VERTEX
  5
29D
330
29B
100
AcDbEntity
  8
Capa 1
 62
     7
420
 16777215
370
    18
100
AcDbVertex
100
AcDb2dVertex
 10
28.23600259710767
 20
-51.97219372615626
 30
0.0
  0
SEQEND
  5
29E
330
29B
100
AcDbEntity
  8
Capa 1
370
    18
  0
POLYLINE
  5
29F
330
1F
100
AcDbEntity
  8
Capa 1
 62
     7
420
 16777215
370
    18
100
AcDb2dPolyline
 66
     1
 10
0.0
 20
0.0
 30
0.0
  0
VERTEX
  5
2A0
330
29F
100
AcDbEntity
  8
Capa 1
 62
     7
420
 16777215
370
    18
100
AcDbVertex
100
AcDb2dVertex
 10
27.96711289448392
 20
-52.72511934445761
 30
0.0
  0
VERTEX
  5
2A1
330
29F
100
AcDbEntity
  8
Capa 1
 62
     7
420
 16777215
370
    18
100
AcDbVertex
100
AcDb2dVertex
 10
27.96711289448392
 20
-51.97219372615626
 30
0.0
  0
SEQEND
  5
2A2
330
29F
100
AcDbEntity
  8
Capa 1
370
    18
  0
POLYLINE
  5
2A3
330
1F
100
AcDbEntity
  8
Capa 1
 62
     7
420
 16777215
370
    18
100
AcDb2dPolyline
 66
     1
 10
0.0
 20
0.0
 30
0.0
  0
VERTEX
  5
2A4
330
2A3
100
AcDbEntity
  8
Capa 1
 62
     7
420
 16777215
370
    18
100
AcDbVertex
100
AcDb2dVertex
 10
28.37070583058093
 20
-52.72511934445761
 30
0.0
  0
VERTEX
  5
2A5
330
2A3
100
AcDbEntity
  8
Capa 1
 62
     7
420
 16777215
370
    18
100
AcDbVertex
100
AcDb2dVertex
 10
28.37070583058093
 20
-51.97219372615626
 30
0.0
  0
SEQEND
  5
2A6
330
2A3
100
AcDbEntity
  8
Capa 1
370
    18
  0
SPLINE
  5
2A7
330
1F
100
AcDbEntity
  8
Capa 1
 62
     7
420
 16777215
370
    18
100
AcDbSpline
210
0.0
220
0.0
230
1.0
 70
     8
 71
     3
 72
    11
 73
     7
 74
     0
 42
0.0000000001
 43
0.0000000001
 40
0.0
 40
0.0
 40
0.0
 40
0.0
 40
1.0
 40
1.0
 40
1.0
 40
2.0
 40
2.0
 40
2.0
 40
2.0
 10
27.96711289448392
 20
-52.72511934445761
 30
0.0
 10
27.96711289448392
 20
-52.79918889739049
 30
0.0
 10
28.02722981070153
 20
-52.85947806838236
 30
0.0
 10
28.10164387318292
 20
-52.85947806838236
 30
0.0
 10
28.1757134261158
 20
-52.85947806838236
 30
0.0
 10
28.23600259710767
 20
-52.79918889739049
 30
0.0
 10
28.23600259710767
 20
-52.72511934445761
 30
0.0
  0
SPLINE
  5
2A8
330
1F
100
AcDbEntity
  8
Capa 1
 62
     7
420
 16777215
370
    18
100
AcDbSpline
210
0.0
220
0.0
230
1.0
 70
     8
 71
     3
 72
    11
 73
     7
 74
     0
 42
0.0000000001
 43
0.0000000001
 40
0.0
 40
0.0
 40
0.0
 40
0.0
 40
1.0
 40
1.0
 40
1.0
 40
2.0
 40
2.0
 40
2.0
 40
2.0
 10
28.37070583058093
 20
-52.72511934445761
 30
0.0
 10
28.37070583058093
 20
-52.79918889739049
 30
0.0
 10
28.41273599550098
 20
-52.85947806838236
 30
0.0
 10
28.46475693732826
 20
-52.85947806838236
 30
0.0
 10
28.51677787915553
 20
-52.85947806838236
 30
0.0
 10
28.55880804407558
 20
-52.79918889739049
 30
0.0
 10
28.55880804407558
 20
-52.72511934445761
 30
0.0
  0
SPLINE
  5
2A9
330
1F
100
AcDbEntity
  8
Capa 1
 62
     7
420
 16777215
370
    18
100
AcDbSpline
210
0.0
220
0.0
230
1.0
 70
     8
 71
     3
 72
    11
 73
     7
 74
     0
 42
0.0000000001
 43
0.0000000001
 40
0.0
 40
0.0
 40
0.0
 40
0.0
 40
1.0
 40
1.0
 40
1.0
 40
2.0
 40
2.0
 40
2.0
 40
2.0
 10
28.55880804407558
 20
-51.97219372615626
 30
0.0
 10
28.55880804407558
 20
-51.89777966367486
 30
0.0
 10
28.51677787915553
 20
-51.83749049268299
 30
0.0
 10
28.46475693732826
 20
-51.83749049268299
 30
0.0
 10
28.41273599550098
 20
-51.83749049268299
 30
0.0
 10
28.37070583058093
 20
-51.89777966367486
 30
0.0
 10
28.37070583058093
 20
-51.97219372615626
 30
0.0
  0
SPLINE
  5
2AA
330
1F
100
AcDbEntity
  8
Capa 1
 62
     7
420
 16777215
370
    18
100
AcDbSpline
210
0.0
220
0.0
230
1.0
 70
     8
 71
     3
 72
    11
 73
     7
 74
     0
 42
0.0000000001
 43
0.0000000001
 40
0.0
 40
0.0
 40
0.0
 40
0.0
 40
1.0
 40
1.0
 40
1.0
 40
2.0
 40
2.0
 40
2.0
 40
2.0
 10
28.23600259710767
 20
-51.97219372615626
 30
0.0
 10
28.23600259710767
 20
-51.89777966367486
 30
0.0
 10
28.1757134261158
 20
-51.83749049268299
 30
0.0
 10
28.10164387318292
 20
-51.83749049268299
 30
0.0
 10
28.02722981070153
 20
-51.83749049268299
 30
0.0
 10
27.96711289448392
 20
-51.89777966367486
 30
0.0
 10
27.96711289448392
 20
-51.97219372615626
 30
0.0
  0
POLYLINE
  5
2AB
330
1F
100
AcDbEntity
  8
Capa 1
 62
     7
420
 16777215
370
    18
100
AcDb2dPolyline
 66
     1
 10
0.0
 20
0.0
 30
0.0
  0
VERTEX
  5
2AC
330
2AB
100
AcDbEntity
  8
Capa 1
 62
     7
420
 16777215
370
    18
100
AcDbVertex
100
AcDb2dVertex
 10
27.45637748879563
 20
-51.55533717244103
 30
0.0
  0
VERTEX
  5
2AD
330
2AB
100
AcDbEntity
  8
Capa 1
 62
     7
420
 16777215
370
    18
100
AcDbVertex
100
AcDb2dVertex
 10
27.45637748879563
 20
-51.38032632179033
 30
0.0
  0
SEQEND
  5
2AE
330
2AB
100
AcDbEntity
  8
Capa 1
370
    18
  0
SPLINE
  5
2AF
330
1F
100
AcDbEntity
  8
Capa 1
 62
     7
420
 16777215
370
    18
100
AcDbSpline
210
0.0
220
0.0
230
1.0
 70
     8
 71
     3
 72
     8
 73
     4
 74
     0
 42
0.0000000001
 43
0.0000000001
 40
0.0
 40
0.0
 40
0.0
 40
0.0
 40
1.0
 40
1.0
 40
1.0
 40
1.0
 10
27.45637748879563
 20
-51.55533717244103
 30
0.0
 10
27.45637748879563
 20
-51.7010647114671
 30
0.0
 10
27.49306775571354
 20
-51.84455293842775
 30
0.0
 10
27.56403672270969
 20
-51.97219372615626
 30
0.0
  0
POLYLINE
  5
2B0
330
1F
100
AcDbEntity
  8
Capa 1
 62
     7
420
 16777215
370
    18
100
AcDb2dPolyline
 66
     1
 10
0.0
 20
0.0
 30
0.0
  0
VERTEX
  5
2B1
330
2B0
100
AcDbEntity
  8
Capa 1
 62
     7
420
 16777215
370
    18
100
AcDbVertex
100
AcDb2dVertex
 10
27.56403672270969
 20
-52.72511934445761
 30
0.0
  0
VERTEX
  5
2B2
330
2B0
100
AcDbEntity
  8
Capa 1
 62
     7
420
 16777215
370
    18
100
AcDbVertex
100
AcDb2dVertex
 10
27.47463649486745
 20
-52.90323078104502
 30
0.0
  0
SEQEND
  5
2B3
330
2B0
100
AcDbEntity
  8
Capa 1
370
    18
  0
POLYLINE
  5
2B4
330
1F
100
AcDbEntity
  8
Capa 1
 62
     7
420
 16777215
370
    18
100
AcDb2dPolyline
 66
     1
 10
0.0
 20
0.0
 30
0.0
  0
VERTEX
  5
2B5
330
2B4
100
AcDbEntity
  8
Capa 1
 62
     7
420
 16777215
370
    18
100
AcDbVertex
100
AcDb2dVertex
 10
27.64447970229027
 20
-52.72511934445761
 30
0.0
  0
VERTEX
  5
2B6
330
2B4
100
AcDbEntity
  8
Capa 1
 62
     7
420
 16777215
370
    18
100
AcDbVertex
100
AcDb2dVertex
 10
27.64447970229027
 20
-51.97219372615626
 30
0.0
  0
SEQEND
  5
2B7
330
2B4
100
AcDbEntity
  8
Capa 1
370
    18
  0
POLYLINE
  5
2B8
330
1F
100
AcDbEntity
  8
Capa 1
 62
     7
420
 16777215
370
    18
100
AcDb2dPolyline
 66
     1
 10
0.0
 20
0.0
 30
0.0
  0
VERTEX
  5
2B9
330
2B8
100
AcDbEntity
  8
Capa 1
 62
     7
420
 16777215
370
    18
100
AcDbVertex
100
AcDb2dVertex
 10
27.83275417055917
 20
-52.72511934445761
 30
0.0
  0
VERTEX
  5
2BA
330
2B8
100
AcDbEntity
  8
Capa 1
 62
     7
420
 16777215
370
    18
100
AcDbVertex
100
AcDb2dVertex
 10
27.83275417055917
 20
-51.97219372615626
 30
0.0
  0
SEQEND
  5
2BB
330
2B8
100
AcDbEntity
  8
Capa 1
370
    18
  0
SPLINE
  5
2BC
330
1F
100
AcDbEntity
  8
Capa 1
 62
     7
420
 16777215
370
    18
100
AcDbSpline
210
0.0
220
0.0
230
1.0
 70
     8
 71
     3
 72
    11
 73
     7
 74
     0
 42
0.0000000001
 43
0.0000000001
 40
0.0
 40
0.0
 40
0.0
 40
0.0
 40
1.0
 40
1.0
 40
1.0
 40
2.0
 40
2.0
 40
2.0
 40
2.0
 10
27.64447970229027
 20
-52.72511934445761
 30
0.0
 10
27.64447970229027
 20
-52.79918889739049
 30
0.0
 10
27.68650986721032
 20
-52.85947806838236
 30
0.0
 10
27.73853080903759
 20
-52.85947806838236
 30
0.0
 10
27.79055175086486
 20
-52.85947806838236
 30
0.0
 10
27.83275417055917
 20
-52.79918889739049
 30
0.0
 10
27.83275417055917
 20
-52.72511934445761
 30
0.0
  0
SPLINE
  5
2BD
330
1F
100
AcDbEntity
  8
Capa 1
 62
     7
420
 16777215
370
    18
100
AcDbSpline
210
0.0
220
0.0
230
1.0
 70
     8
 71
     3
 72
    11
 73
     7
 74
     0
 42
0.0000000001
 43
0.0000000001
 40
0.0
 40
0.0
 40
0.0
 40
0.0
 40
1.0
 40
1.0
 40
1.0
 40
2.0
 40
2.0
 40
2.0
 40
2.0
 10
27.83275417055917
 20
-51.97219372615626
 30
0.0
 10
27.83275417055917
 20
-51.89777966367486
 30
0.0
 10
27.79055175086486
 20
-51.83749049268299
 30
0.0
 10
27.73853080903759
 20
-51.83749049268299
 30
0.0
 10
27.68650986721032
 20
-51.83749049268299
 30
0.0
 10
27.64447970229027
 20
-51.89777966367486
 30
0.0
 10
27.64447970229027
 20
-51.97219372615626
 30
0.0
  0
POLYLINE
  5
2BE
330
1F
100
AcDbEntity
  8
Capa 1
 62
     7
420
 16777215
370
    18
100
AcDb2dPolyline
 66
     1
 10
0.0
 20
0.0
 30
0.0
  0
VERTEX
  5
2BF
330
2BE
100
AcDbEntity
  8
Capa 1
 62
     7
420
 16777215
370
    18
100
AcDbVertex
100
AcDb2dVertex
 10
27.56403672270969
 20
-52.72511934445761
 30
0.0
  0
VERTEX
  5
2C0
330
2BE
100
AcDbEntity
  8
Capa 1
 62
     7
420
 16777215
370
    18
100
AcDbVertex
100
AcDb2dVertex
 10
27.56403672270969
 20
-51.97219372615626
 30
0.0
  0
SEQEND
  5
2C1
330
2BE
100
AcDbEntity
  8
Capa 1
370
    18
  0
POLYLINE
  5
2C2
330
1F
100
AcDbEntity
  8
Capa 1
 62
     7
420
 16777215
370
    18
100
AcDb2dPolyline
 66
     1
 10
0.0
 20
0.0
 30
0.0
  0
VERTEX
  5
2C3
330
2C2
100
AcDbEntity
  8
Capa 1
 62
     7
420
 16777215
370
    18
100
AcDbVertex
100
AcDb2dVertex
 10
27.61743570273106
 20
-53.15523951579105
 30
0.0
  0
VERTEX
  5
2C4
330
2C2
100
AcDbEntity
  8
Capa 1
 62
     7
420
 16777215
370
    18
100
AcDbVertex
100
AcDb2dVertex
 10
28.58567978886052
 20
-53.15523951579105
 30
0.0
  0
SEQEND
  5
2C5
330
2C2
100
AcDbEntity
  8
Capa 1
370
    18
  0
POLYLINE
  5
2C6
330
1F
100
AcDbEntity
  8
Capa 1
 62
     7
420
 16777215
370
    18
100
AcDb2dPolyline
 66
     1
 10
0.0
 20
0.0
 30
0.0
  0
VERTEX
  5
2C7
330
2C6
100
AcDbEntity
  8
Capa 1
 62
     7
420
 16777215
370
    18
100
AcDbVertex
100
AcDb2dVertex
 10
27.29497476531168
 20
-53.31664223927501
 30
0.0
  0
VERTEX
  5
2C8
330
2C6
100
AcDbEntity
  8
Capa 1
 62
     7
420
 16777215
370
    18
100
AcDbVertex
100
AcDb2dVertex
 10
28.90848523582844
 20
-53.31664223927501
 30
0.0
  0
SEQEND
  5
2C9
330
2C6
100
AcDbEntity
  8
Capa 1
370
    18
  0
POLYLINE
  5
2CA
330
1F
100
AcDbEntity
  8
Capa 1
 62
     7
420
 16777215
370
    18
100
AcDb2dPolyline
 66
     1
 10
0.0
 20
0.0
 30
0.0
  0
VERTEX
  5
2CB
330
2CA
100
AcDbEntity
  8
Capa 1
 62
     7
420
 16777215
370
    18
100
AcDbVertex
100
AcDb2dVertex
 10
28.63942327843042
 20
-53.31664223927501
 30
0.0
  0
VERTEX
  5
2CC
330
2CA
100
AcDbEntity
  8
Capa 1
 62
     7
420
 16777215
370
    18
100
AcDbVertex
100
AcDb2dVertex
 10
28.63942327843042
 20
-53.20898300536095
 30
0.0
  0
SEQEND
  5
2CD
330
2CA
100
AcDbEntity
  8
Capa 1
370
    18
  0
SPLINE
  5
2CE
330
1F
100
AcDbEntity
  8
Capa 1
 62
     7
420
 16777215
370
    18
100
AcDbSpline
210
0.0
220
0.0
230
1.0
 70
     8
 71
     3
 72
     8
 73
     4
 74
     0
 42
0.0000000001
 43
0.0000000001
 40
0.0
 40
0.0
 40
0.0
 40
0.0
 40
1.0
 40
1.0
 40
1.0
 40
1.0
 10
28.63942327843042
 20
-53.20898300536095
 30
0.0
 10
28.63942327843042
 20
-53.17935518418781
 30
0.0
 10
28.61530761003367
 20
-53.15523951579105
 30
0.0
 10
28.58567978886052
 20
-53.15523951579105
 30
0.0
  0
POLYLINE
  5
2CF
330
1F
100
AcDbEntity
  8
Capa 1
 62
     7
420
 16777215
370
    18
100
AcDb2dPolyline
 66
     1
 10
0.0
 20
0.0
 30
0.0
  0
VERTEX
  5
2D0
330
2CF
100
AcDbEntity
  8
Capa 1
 62
     7
420
 16777215
370
    18
100
AcDbVertex
100
AcDb2dVertex
 10
29.06971570453813
 20
-53.40983207215102
 30
0.0
  0
VERTEX
  5
2D1
330
2CF
100
AcDbEntity
  8
Capa 1
 62
     7
420
 16777215
370
    18
100
AcDbVertex
100
AcDb2dVertex
 10
29.06971570453813
 20
-54.29918347166826
 30
0.0
  0
SEQEND
  5
2D2
330
2CF
100
AcDbEntity
  8
Capa 1
370
    18
  0
POLYLINE
  5
2D3
330
1F
100
AcDbEntity
  8
Capa 1
 62
     7
420
 16777215
370
    18
100
AcDb2dPolyline
 66
     1
 10
0.0
 20
0.0
 30
0.0
  0
VERTEX
  5
2D4
330
2D3
100
AcDbEntity
  8
Capa 1
 62
     7
420
 16777215
370
    18
100
AcDbVertex
100
AcDb2dVertex
 10
28.90848523582844
 20
-54.39237330454427
 30
0.0
  0
VERTEX
  5
2D5
330
2D3
100
AcDbEntity
  8
Capa 1
 62
     7
420
 16777215
370
    18
100
AcDbVertex
100
AcDb2dVertex
 10
27.29497476531168
 20
-54.39237330454427
 30
0.0
  0
SEQEND
  5
2D6
330
2D3
100
AcDbEntity
  8
Capa 1
370
    18
  0
SPLINE
  5
2D7
330
1F
100
AcDbEntity
  8
Capa 1
 62
     7
420
 16777215
370
    18
100
AcDbSpline
210
0.0
220
0.0
230
1.0
 70
     8
 71
     3
 72
     8
 73
     4
 74
     0
 42
0.0000000001
 43
0.0000000001
 40
0.0
 40
0.0
 40
0.0
 40
0.0
 40
1.0
 40
1.0
 40
1.0
 40
1.0
 10
27.61743570273106
 20
-53.15523951579105
 30
0.0
 10
27.58780788155791
 20
-53.15523951579105
 30
0.0
 10
27.56403672270969
 20
-53.17935518418781
 30
0.0
 10
27.56403672270969
 20
-53.20898300536095
 30
0.0
  0
POLYLINE
  5
2D8
330
1F
100
AcDbEntity
  8
Capa 1
 62
     7
420
 16777215
370
    18
100
AcDb2dPolyline
 66
     1
 10
0.0
 20
0.0
 30
0.0
  0
VERTEX
  5
2D9
330
2D8
100
AcDbEntity
  8
Capa 1
 62
     7
420
 16777215
370
    18
100
AcDbVertex
100
AcDb2dVertex
 10
28.90848523582844
 20
-53.31664223927501
 30
0.0
  0
VERTEX
  5
2DA
330
2D8
100
AcDbEntity
  8
Capa 1
 62
     7
420
 16777215
370
    18
100
AcDbVertex
100
AcDb2dVertex
 10
29.06971570453813
 20
-53.40983207215102
 30
0.0
  0
SEQEND
  5
2DB
330
2D8
100
AcDbEntity
  8
Capa 1
370
    18
  0
POLYLINE
  5
2DC
330
1F
100
AcDbEntity
  8
Capa 1
 62
     7
420
 16777215
370
    18
100
AcDb2dPolyline
 66
     1
 10
0.0
 20
0.0
 30
0.0
  0
VERTEX
  5
2DD
330
2DC
100
AcDbEntity
  8
Capa 1
 62
     7
420
 16777215
370
    18
100
AcDbVertex
100
AcDb2dVertex
 10
28.90848523582844
 20
-54.39237330454427
 30
0.0
  0
VERTEX
  5
2DE
330
2DC
100
AcDbEntity
  8
Capa 1
 62
     7
420
 16777215
370
    18
100
AcDbVertex
100
AcDb2dVertex
 10
29.06971570453813
 20
-54.29918347166826
 30
0.0
  0
SEQEND
  5
2DF
330
2DC
100
AcDbEntity
  8
Capa 1
370
    18
  0
POLYLINE
  5
2E0
330
1F
100
AcDbEntity
  8
Capa 1
 62
     7
420
 16777215
370
    18
100
AcDb2dPolyline
 66
     1
 10
0.0
 20
0.0
 30
0.0
  0
VERTEX
  5
2E1
330
2E0
100
AcDbEntity
  8
Capa 1
 62
     7
420
 16777215
370
    18
100
AcDbVertex
100
AcDb2dVertex
 10
27.56403672270969
 20
-53.40983207215102
 30
0.0
  0
VERTEX
  5
2E2
330
2E0
100
AcDbEntity
  8
Capa 1
 62
     7
420
 16777215
370
    18
100
AcDbVertex
100
AcDb2dVertex
 10
27.56403672270969
 20
-54.29918347166826
 30
0.0
  0
SEQEND
  5
2E3
330
2E0
100
AcDbEntity
  8
Capa 1
370
    18
  0
POLYLINE
  5
2E4
330
1F
100
AcDbEntity
  8
Capa 1
 62
     7
420
 16777215
370
    18
100
AcDb2dPolyline
 66
     1
 10
0.0
 20
0.0
 30
0.0
  0
VERTEX
  5
2E5
330
2E4
100
AcDbEntity
  8
Capa 1
 62
     7
420
 16777215
370
    18
100
AcDbVertex
100
AcDb2dVertex
 10
28.63942327843042
 20
-53.40983207215102
 30
0.0
  0
VERTEX
  5
2E6
330
2E4
100
AcDbEntity
  8
Capa 1
 62
     7
420
 16777215
370
    18
100
AcDbVertex
100
AcDb2dVertex
 10
28.63942327843042
 20
-54.29918347166826
 30
0.0
  0
SEQEND
  5
2E7
330
2E4
100
AcDbEntity
  8
Capa 1
370
    18
  0
SPLINE
  5
2E8
330
1F
100
AcDbEntity
  8
Capa 1
 62
     7
420
 16777215
370
    18
100
AcDbSpline
210
0.0
220
0.0
230
1.0
 70
     8
 71
     3
 72
     8
 73
     4
 74
     0
 42
0.0000000001
 43
0.0000000001
 40
0.0
 40
0.0
 40
0.0
 40
0.0
 40
1.0
 40
1.0
 40
1.0
 40
1.0
 10
28.63942327843042
 20
-53.40983207215102
 30
0.0
 10
28.29164088919445
 20
-53.2854641251335
 30
0.0
 10
27.91181911194566
 20
-53.2854641251335
 30
0.0
 10
27.56403672270969
 20
-53.40983207215102
 30
0.0
  0
SPLINE
  5
2E9
330
1F
100
AcDbEntity
  8
Capa 1
 62
     7
420
 16777215
370
    18
100
AcDbSpline
210
0.0
220
0.0
230
1.0
 70
     8
 71
     3
 72
     8
 73
     4
 74
     0
 42
0.0000000001
 43
0.0000000001
 40
0.0
 40
0.0
 40
0.0
 40
0.0
 40
1.0
 40
1.0
 40
1.0
 40
1.0
 10
27.56403672270969
 20
-54.29918347166826
 30
0.0
 10
27.91181911194566
 20
-54.42320690913726
 30
0.0
 10
28.29164088919445
 20
-54.42320690913726
 30
0.0
 10
28.63942327843042
 20
-54.29918347166826
 30
0.0
  0
SPLINE
  5
2EA
330
1F
100
AcDbEntity
  8
Capa 1
 62
     7
420
 16777215
370
    18
100
AcDbSpline
210
0.0
220
0.0
230
1.0
 70
     8
 71
     3
 72
     8
 73
     4
 74
     0
 42
0.0000000001
 43
0.0000000001
 40
0.0
 40
0.0
 40
0.0
 40
0.0
 40
1.0
 40
1.0
 40
1.0
 40
1.0
 10
27.29497476531168
 20
-54.39237330454427
 30
0.0
 10
27.39315998664129
 20
-54.39616290957805
 30
0.0
 10
27.48893364113124
 20
-54.36291773814538
 30
0.0
 10
27.56403672270969
 20
-54.29918347166826
 30
0.0
  0
SPLINE
  5
2EB
330
1F
100
AcDbEntity
  8
Capa 1
 62
     7
420
 16777215
370
    18
100
AcDbSpline
210
0.0
220
0.0
230
1.0
 70
     8
 71
     3
 72
     8
 73
     4
 74
     0
 42
0.0000000001
 43
0.0000000001
 40
0.0
 40
0.0
 40
0.0
 40
0.0
 40
1.0
 40
1.0
 40
1.0
 40
1.0
 10
27.56403672270969
 20
-53.40983207215102
 30
0.0
 10
27.48893364113124
 20
-53.34592555089963
 30
0.0
 10
27.39315998664129
 20
-53.31268037946697
 30
0.0
 10
27.29497476531168
 20
-53.31664223927501
 30
0.0
  0
SPLINE
  5
2EC
330
1F
100
AcDbEntity
  8
Capa 1
 62
     7
420
 16777215
370
    18
100
AcDbSpline
210
0.0
220
0.0
230
1.0
 70
     8
 71
     3
 72
     8
 73
     4
 74
     0
 42
0.0000000001
 43
0.0000000001
 40
0.0
 40
0.0
 40
0.0
 40
0.0
 40
1.0
 40
1.0
 40
1.0
 40
1.0
 10
28.90848523582844
 20
-53.31664223927501
 30
0.0
 10
28.81012775972455
 20
-53.31268037946697
 30
0.0
 10
28.71400959568608
 20
-53.34592555089963
 30
0.0
 10
28.63942327843042
 20
-53.40983207215102
 30
0.0
  0
SPLINE
  5
2ED
330
1F
100
AcDbEntity
  8
Capa 1
 62
     7
420
 16777215
370
    18
100
AcDbSpline
210
0.0
220
0.0
230
1.0
 70
     8
 71
     3
 72
     8
 73
     4
 74
     0
 42
0.0000000001
 43
0.0000000001
 40
0.0
 40
0.0
 40
0.0
 40
0.0
 40
1.0
 40
1.0
 40
1.0
 40
1.0
 10
28.63942327843042
 20
-54.29918347166826
 30
0.0
 10
28.71400959568608
 20
-54.36291773814538
 30
0.0
 10
28.81012775972455
 20
-54.39616290957805
 30
0.0
 10
28.90848523582844
 20
-54.39237330454427
 30
0.0
  0
POLYLINE
  5
2EE
330
1F
100
AcDbEntity
  8
Capa 1
 62
     7
420
 16777215
370
    18
100
AcDb2dPolyline
 66
     1
 10
0.0
 20
0.0
 30
0.0
  0
VERTEX
  5
2EF
330
2EE
100
AcDbEntity
  8
Capa 1
 62
     7
420
 16777215
370
    18
100
AcDbVertex
100
AcDb2dVertex
 10
27.13357204182772
 20
-53.40983207215102
 30
0.0
  0
VERTEX
  5
2F0
330
2EE
100
AcDbEntity
  8
Capa 1
 62
     7
420
 16777215
370
    18
100
AcDbVertex
100
AcDb2dVertex
 10
27.13357204182772
 20
-54.29918347166826
 30
0.0
  0
SEQEND
  5
2F1
330
2EE
100
AcDbEntity
  8
Capa 1
370
    18
  0
POLYLINE
  5
2F2
330
1F
100
AcDbEntity
  8
Capa 1
 62
     7
420
 16777215
370
    18
100
AcDb2dPolyline
 66
     1
 10
0.0
 20
0.0
 30
0.0
  0
VERTEX
  5
2F3
330
2F2
100
AcDbEntity
  8
Capa 1
 62
     7
420
 16777215
370
    18
100
AcDbVertex
100
AcDb2dVertex
 10
27.29497476531168
 20
-53.31664223927501
 30
0.0
  0
VERTEX
  5
2F4
330
2F2
100
AcDbEntity
  8
Capa 1
 62
     7
420
 16777215
370
    18
100
AcDbVertex
100
AcDb2dVertex
 10
27.13357204182772
 20
-53.40983207215102
 30
0.0
  0
SEQEND
  5
2F5
330
2F2
100
AcDbEntity
  8
Capa 1
370
    18
  0
POLYLINE
  5
2F6
330
1F
100
AcDbEntity
  8
Capa 1
 62
     7
420
 16777215
370
    18
100
AcDb2dPolyline
 66
     1
 10
0.0
 20
0.0
 30
0.0
  0
VERTEX
  5
2F7
330
2F6
100
AcDbEntity
  8
Capa 1
 62
     7
420
 16777215
370
    18
100
AcDbVertex
100
AcDb2dVertex
 10
27.29497476531168
 20
-54.39237330454427
 30
0.0
  0
VERTEX
  5
2F8
330
2F6
100
AcDbEntity
  8
Capa 1
 62
     7
420
 16777215
370
    18
100
AcDbVertex
100
AcDb2dVertex
 10
27.13357204182772
 20
-54.29918347166826
 30
0.0
  0
SEQEND
  5
2F9
330
2F6
100
AcDbEntity
  8
Capa 1
370
    18
  0
POLYLINE
  5
2FA
330
1F
100
AcDbEntity
  8
Capa 1
 62
     7
420
 16777215
370
    18
100
AcDb2dPolyline
 66
     1
 10
0.0
 20
0.0
 30
0.0
  0
VERTEX
  5
2FB
330
2FA
100
AcDbEntity
  8
Capa 1
 62
     7
420
 16777215
370
    18
100
AcDbVertex
100
AcDb2dVertex
 10
27.12271999104918
 20
-50.76933863748128
 30
0.0
  0
VERTEX
  5
2FC
330
2FA
100
AcDbEntity
  8
Capa 1
 62
     7
420
 16777215
370
    18
100
AcDbVertex
100
AcDb2dVertex
 10
29.08074001009093
 20
-49.94768336424919
 30
0.0
  0
SEQEND
  5
2FD
330
2FA
100
AcDbEntity
  8
Capa 1
370
    18
  0
POLYLINE
  5
2FE
330
1F
100
AcDbEntity
  8
Capa 1
 62
     7
420
 16777215
370
    18
100
AcDb2dPolyline
 66
     1
 10
0.0
 20
0.0
 30
0.0
  0
VERTEX
  5
2FF
330
2FE
100
AcDbEntity
  8
Capa 1
 62
     7
420
 16777215
370
    18
100
AcDbVertex
100
AcDb2dVertex
 10
28.45821125590628
 20
-50.20882160203113
 30
0.0
  0
VERTEX
  5
300
330
2FE
100
AcDbEntity
  8
Capa 1
 62
     7
420
 16777215
370
    18
100
AcDbVertex
100
AcDb2dVertex
 10
28.45821125590628
 20
-51.38032632179033
 30
0.0
  0
SEQEND
  5
301
330
2FE
100
AcDbEntity
  8
Capa 1
370
    18
  0
POLYLINE
  5
302
330
1F
100
AcDbEntity
  8
Capa 1
 62
     7
420
 16777215
370
    18
100
AcDb2dPolyline
 66
     1
 10
0.0
 20
0.0
 30
0.0
  0
VERTEX
  5
303
330
302
100
AcDbEntity
  8
Capa 1
 62
     7
420
 16777215
370
    18
100
AcDbVertex
100
AcDb2dVertex
 10
27.65136989326077
 20
-50.54747448823119
 30
0.0
  0
VERTEX
  5
304
330
302
100
AcDbEntity
  8
Capa 1
 62
     7
420
 16777215
370
    18
100
AcDbVertex
100
AcDb2dVertex
 10
27.65136989326077
 20
-51.38032632179033
 30
0.0
  0
SEQEND
  5
305
330
302
100
AcDbEntity
  8
Capa 1
370
    18
  0
POLYLINE
  5
306
330
1F
100
AcDbEntity
  8
Capa 1
 62
     7
420
 16777215
370
    18
100
AcDb2dPolyline
 66
     1
 10
0.0
 20
0.0
 30
0.0
  0
VERTEX
  5
307
330
306
100
AcDbEntity
  8
Capa 1
 62
     7
420
 16777215
370
    18
100
AcDbVertex
100
AcDb2dVertex
 10
32.71187065154425
 20
-36.23413627566369
 30
0.0
  0
VERTEX
  5
308
330
306
100
AcDbEntity
  8
Capa 1
 62
     7
420
 16777215
370
    18
100
AcDbVertex
100
AcDb2dVertex
 10
32.71187065154425
 20
-33.70302462265064
 30
0.0
  0
SEQEND
  5
309
330
306
100
AcDbEntity
  8
Capa 1
370
    18
  0
POLYLINE
  5
30A
330
1F
100
AcDbEntity
  8
Capa 1
 62
     7
420
 16777215
370
    18
100
AcDb2dPolyline
 66
     1
 10
0.0
 20
0.0
 30
0.0
  0
VERTEX
  5
30B
330
30A
100
AcDbEntity
  8
Capa 1
 62
     7
420
 16777215
370
    18
100
AcDbVertex
100
AcDb2dVertex
 10
25.75157198791975
 20
-36.23413627566369
 30
0.0
  0
VERTEX
  5
30C
330
30A
100
AcDbEntity
  8
Capa 1
 62
     7
420
 16777215
370
    18
100
AcDbVertex
100
AcDb2dVertex
 10
25.75157198791975
 20
-33.70302462265064
 30
0.0
  0
SEQEND
  5
30D
330
30A
100
AcDbEntity
  8
Capa 1
370
    18
  0
POLYLINE
  5
30E
330
1F
100
AcDbEntity
  8
Capa 1
 62
     7
420
 16777215
370
    18
100
AcDb2dPolyline
 66
     1
 10
0.0
 20
0.0
 30
0.0
  0
VERTEX
  5
30F
330
30E
100
AcDbEntity
  8
Capa 1
 62
     7
420
 16777215
370
    18
100
AcDbVertex
100
AcDb2dVertex
 10
25.75157198791975
 20
-36.23413627566369
 30
0.0
  0
VERTEX
  5
310
330
30E
100
AcDbEntity
  8
Capa 1
 62
     7
420
 16777215
370
    18
100
AcDbVertex
100
AcDb2dVertex
 10
32.71187065154425
 20
-36.23413627566369
 30
0.0
  0
SEQEND
  5
311
330
30E
100
AcDbEntity
  8
Capa 1
370
    18
  0
POLYLINE
  5
312
330
1F
100
AcDbEntity
  8
Capa 1
 62
     7
420
 16777215
370
    18
100
AcDb2dPolyline
 66
     1
 10
0.0
 20
0.0
 30
0.0
  0
VERTEX
  5
313
330
312
100
AcDbEntity
  8
Capa 1
 62
     7
420
 16777215
370
    18
100
AcDbVertex
100
AcDb2dVertex
 10
32.71187065154425
 20
-33.70302462265064
 30
0.0
  0
VERTEX
  5
314
330
312
100
AcDbEntity
  8
Capa 1
 62
     7
420
 16777215
370
    18
100
AcDbVertex
100
AcDb2dVertex
 10
32.26900362691539
 20
-26.74255370425186
 30
0.0
  0
SEQEND
  5
315
330
312
100
AcDbEntity
  8
Capa 1
370
    18
  0
POLYLINE
  5
316
330
1F
100
AcDbEntity
  8
Capa 1
 62
     7
420
 16777215
370
    18
100
AcDb2dPolyline
 66
     1
 10
0.0
 20
0.0
 30
0.0
  0
VERTEX
  5
317
330
316
100
AcDbEntity
  8
Capa 1
 62
     7
420
 16777215
370
    18
100
AcDbVertex
100
AcDb2dVertex
 10
25.75157198791975
 20
-33.70302462265064
 30
0.0
  0
VERTEX
  5
318
330
316
100
AcDbEntity
  8
Capa 1
 62
     7
420
 16777215
370
    18
100
AcDbVertex
100
AcDb2dVertex
 10
26.19461126732288
 20
-26.74255370425186
 30
0.0
  0
SEQEND
  5
319
330
316
100
AcDbEntity
  8
Capa 1
370
    18
  0
SPLINE
  5
31A
330
1F
100
AcDbEntity
  8
Capa 1
 62
     7
420
 16777215
370
    18
100
AcDbSpline
210
0.0
220
0.0
230
1.0
 70
    11
 71
     3
 72
    20
 73
    16
 74
     0
 42
0.0000000001
 43
0.0000000001
 40
0.0
 40
0.0
 40
0.0
 40
0.0
 40
1.0
 40
1.0
 40
1.0
 40
2.0
 40
2.0
 40
2.0
 40
3.0
 40
3.0
 40
3.0
 40
4.0
 40
4.0
 40
4.0
 40
5.0
 40
5.0
 40
5.0
 40
5.0
 10
29.9277167351396
 20
-34.3989339106711
 30
0.0
 10
29.9277167351396
 20
-34.01446125451722
 30
0.0
 10
29.61610784849875
 20
-33.70302462265064
 30
0.0
 10
29.23146293757061
 20
-33.70302462265064
 30
0.0
 10
28.84716253619099
 20
-33.70302462265064
 30
0.0
 10
28.53555364955014
 20
-34.01446125451722
 30
0.0
 10
28.53555364955014
 20
-34.3989339106711
 30
0.0
 10
28.53555364955014
 20
-34.78323431205072
 30
0.0
 10
28.84716253619099
 20
-35.09484319869157
 30
0.0
 10
29.23146293757061
 20
-35.09484319869157
 30
0.0
 10
29.61610784849875
 20
-35.09484319869157
 30
0.0
 10
29.9277167351396
 20
-34.78323431205072
 30
0.0
 10
29.9277167351396
 20
-34.3989339106711
 30
0.0
 10
29.9277167351396
 20
-34.3989339106711
 30
0.0
 10
29.9277167351396
 20
-34.3989339106711
 30
0.0
 10
29.9277167351396
 20
-34.3989339106711
 30
0.0
  0
SPLINE
  5
31B
330
1F
100
AcDbEntity
  8
Capa 1
 62
     7
420
 16777215
370
    18
100
AcDbSpline
210
0.0
220
0.0
230
1.0
 70
    11
 71
     3
 72
    20
 73
    16
 74
     0
 42
0.0000000001
 43
0.0000000001
 40
0.0
 40
0.0
 40
0.0
 40
0.0
 40
1.0
 40
1.0
 40
1.0
 40
2.0
 40
2.0
 40
2.0
 40
3.0
 40
3.0
 40
3.0
 40
4.0
 40
4.0
 40
4.0
 40
5.0
 40
5.0
 40
5.0
 40
5.0
 10
29.39734428518539
 20
-34.3989339106711
 30
0.0
 10
29.39734428518539
 20
-34.30746662553772
 30
0.0
 10
29.32327473225251
 20
-34.23322481783058
 30
0.0
 10
29.23146293757061
 20
-34.23322481783058
 30
0.0
 10
29.13999565243723
 20
-34.23322481783058
 30
0.0
 10
29.06592609950435
 20
-34.30746662553772
 30
0.0
 10
29.06592609950435
 20
-34.3989339106711
 30
0.0
 10
29.06592609950435
 20
-34.49040119580449
 30
0.0
 10
29.13999565243723
 20
-34.56447074873736
 30
0.0
 10
29.23146293757061
 20
-34.56447074873736
 30
0.0
 10
29.32327473225251
 20
-34.56447074873736
 30
0.0
 10
29.39734428518539
 20
-34.49040119580449
 30
0.0
 10
29.39734428518539
 20
-34.3989339106711
 30
0.0
 10
29.39734428518539
 20
-34.3989339106711
 30
0.0
 10
29.39734428518539
 20
-34.3989339106711
 30
0.0
 10
29.39734428518539
 20
-34.3989339106711
 30
0.0
  0
SPLINE
  5
31C
330
1F
100
AcDbEntity
  8
Capa 1
 62
     7
420
 16777215
370
    18
100
AcDbSpline
210
0.0
220
0.0
230
1.0
 70
     8
 71
     3
 72
     8
 73
     4
 74
     0
 42
0.0000000001
 43
0.0000000001
 40
0.0
 40
0.0
 40
0.0
 40
0.0
 40
1.0
 40
1.0
 40
1.0
 40
1.0
 10
32.26900362691539
 20
-26.74255370425186
 30
0.0
 10
32.26486951233309
 20
-26.61542968084614
 30
0.0
 10
32.25367295200603
 20
-26.48882242176321
 30
0.0
 10
32.23472492683715
 20
-26.36290418177733
 30
0.0
  0
SPLINE
  5
31D
330
1F
100
AcDbEntity
  8
Capa 1
 62
     7
420
 16777215
370
    18
100
AcDbSpline
210
0.0
220
0.0
230
1.0
 70
     8
 71
     3
 72
     8
 73
     4
 74
     0
 42
0.0000000001
 43
0.0000000001
 40
0.0
 40
0.0
 40
0.0
 40
0.0
 40
1.0
 40
1.0
 40
1.0
 40
1.0
 10
26.22871771262685
 20
-26.36290418177733
 30
0.0
 10
26.20959743268371
 20
-26.48882242176321
 30
0.0
 10
26.19805636280812
 20
-26.61542968084614
 30
0.0
 10
26.19461126732288
 20
-26.74255370425186
 30
0.0
  0
POLYLINE
  5
31E
330
1F
100
AcDbEntity
  8
Capa 1
 62
     7
420
 16777215
370
    18
100
AcDb2dPolyline
 66
     1
 10
0.0
 20
0.0
 30
0.0
  0
VERTEX
  5
31F
330
31E
100
AcDbEntity
  8
Capa 1
 62
     7
420
 16777215
370
    18
100
AcDbVertex
100
AcDb2dVertex
 10
26.22871771262685
 20
-26.36290418177733
 30
0.0
  0
VERTEX
  5
320
330
31E
100
AcDbEntity
  8
Capa 1
 62
     7
420
 16777215
370
    18
100
AcDbVertex
100
AcDb2dVertex
 10
32.23472492683715
 20
-26.36290418177733
 30
0.0
  0
SEQEND
  5
321
330
31E
100
AcDbEntity
  8
Capa 1
370
    18
  0
SPLINE
  5
322
330
1F
100
AcDbEntity
  8
Capa 1
 62
     7
420
 16777215
370
    18
100
AcDbSpline
210
0.0
220
0.0
230
1.0
 70
     8
 71
     3
 72
     8
 73
     4
 74
     0
 42
0.0000000001
 43
0.0000000001
 40
0.0
 40
0.0
 40
0.0
 40
0.0
 40
1.0
 40
1.0
 40
1.0
 40
1.0
 10
32.20561386998679
 20
-26.36290418177733
 30
0.0
 10
32.20165201017875
 20
-26.23595241314587
 30
0.0
 10
32.19062770462595
 20
-26.10900064451442
 30
0.0
 10
32.17150742468282
 20
-25.98342691407706
 30
0.0
  0
SPLINE
  5
323
330
1F
100
AcDbEntity
  8
Capa 1
 62
     7
420
 16777215
370
    18
100
AcDbSpline
210
0.0
220
0.0
230
1.0
 70
     8
 71
     3
 72
   119
 73
   115
 74
     0
 42
0.0000000001
 43
0.0000000001
 40
0.0
 40
0.0
 40
0.0
 40
0.0
 40
1.0
 40
1.0
 40
1.0
 40
2.0
 40
2.0
 40
2.0
 40
3.0
 40
3.0
 40
3.0
 40
4.0
 40
4.0
 40
4.0
 40
5.0
 40
5.0
 40
5.0
 40
6.0
 40
6.0
 40
6.0
 40
7.0
 40
7.0
 40
7.0
 40
8.0
 40
8.0
 40
8.0
 40
9.0
 40
9.0
 40
9.0
 40
10.0
 40
10.0
 40
10.0
 40
11.0
 40
11.0
 40
11.0
 40
12.0
 40
12.0
 40
12.0
 40
13.0
 40
13.0
 40
13.0
 40
14.0
 40
14.0
 40
14.0
 40
15.0
 40
15.0
 40
15.0
 40
16.0
 40
16.0
 40
16.0
 40
17.0
 40
17.0
 40
17.0
 40
18.0
 40
18.0
 40
18.0
 40
19.0
 40
19.0
 40
19.0
 40
20.0
 40
20.0
 40
20.0
 40
21.0
 40
21.0
 40
21.0
 40
22.0
 40
22.0
 40
22.0
 40
23.0
 40
23.0
 40
23.0
 40
24.0
 40
24.0
 40
24.0
 40
25.0
 40
25.0
 40
25.0
 40
26.0
 40
26.0
 40
26.0
 40
27.0
 40
27.0
 40
27.0
 40
28.0
 40
28.0
 40
28.0
 40
29.0
 40
29.0
 40
29.0
 40
30.0
 40
30.0
 40
30.0
 40
31.0
 40
31.0
 40
31.0
 40
32.0
 40
32.0
 40
32.0
 40
33.0
 40
33.0
 40
33.0
 40
34.0
 40
34.0
 40
34.0
 40
35.0
 40
35.0
 40
35.0
 40
36.0
 40
36.0
 40
36.0
 40
37.0
 40
37.0
 40
37.0
 40
38.0
 40
38.0
 40
38.0
 40
38.0
 10
26.73790282534678
 20
-21.43383381625613
 30
0.0
 10
26.73790282534678
 20
-21.43383381625613
 30
0.0
 10
26.69638942474952
 20
-21.54252657881576
 30
0.0
 10
26.69638942474952
 20
-21.54252657881576
 30
0.0
 10
26.68295355235704
 20
-21.57870008141088
 30
0.0
 10
26.6693454251903
 20
-21.61521809355453
 30
0.0
 10
26.65608180757209
 20
-21.65173610569818
 30
0.0
 10
26.64281818995388
 20
-21.68808186306756
 30
0.0
 10
26.62972682710993
 20
-21.72459987521121
 30
0.0
 10
26.61663546426598
 20
-21.76111788735486
 30
0.0
 10
26.60371635619629
 20
-21.79780815427277
 30
0.0
 10
26.59079724812661
 20
-21.83432616641642
 30
0.0
 10
26.57856715915397
 20
-21.87101643333433
 30
0.0
 10
26.56582030585855
 20
-21.90770670025224
 30
0.0
 10
26.55324570733739
 20
-21.94456922194441
 30
0.0
 10
26.54118787313901
 20
-21.98125948886232
 30
0.0
 10
26.52878552939211
 20
-22.01794975578024
 30
0.0
 10
26.51672769519374
 20
-22.05481227747241
 30
0.0
 10
26.50501437054389
 20
-22.09184705393885
 30
0.0
 10
26.49295653634551
 20
-22.12853732085675
 30
0.0
 10
26.48124321169566
 20
-22.16557209732319
 30
0.0
 10
26.46935763227155
 20
-22.20260687378963
 30
0.0
 10
26.45798881717023
 20
-22.23964165025606
 30
0.0
 10
26.44644774729464
 20
-22.2766764267225
 30
0.0
 10
26.43525118696758
 20
-22.31371120318893
 30
0.0
 10
26.42422688141478
 20
-22.35074597965537
 30
0.0
 10
26.41303032108772
 20
-22.38778075612181
 30
0.0
 10
26.40217827030918
 20
-22.42516004213677
 30
0.0
 10
26.39115396475638
 20
-22.46253932815173
 30
0.0
 10
26.38030191397784
 20
-22.49991861416669
 30
0.0
 10
26.37013888229636
 20
-22.53695339063312
 30
0.0
 10
26.35945908629208
 20
-22.57450493142235
 30
0.0
 10
26.34912379983633
 20
-22.61188421743731
 30
0.0
 10
26.33896076815484
 20
-22.64926350345227
 30
0.0
 10
26.3286254816991
 20
-22.68647053469297
 30
0.0
 10
26.31863470479187
 20
-22.72419433025645
 30
0.0
 10
26.30864392788465
 20
-22.76157361627141
 30
0.0
 10
26.29882540575169
 20
-22.79912515706064
 30
0.0
 10
26.28917913839298
 20
-22.8365044430756
 30
0.0
 10
26.27953287103428
 20
-22.87405598386482
 30
0.0
 10
26.27005885844985
 20
-22.91177977942831
 30
0.0
 10
26.26075710063967
 20
-22.94933132021753
 30
0.0
 10
26.25162759760376
 20
-22.98705511578101
 30
0.0
 10
26.24249809456785
 20
-23.02495116611876
 30
0.0
 10
26.23336859153194
 20
-23.06250270690798
 30
0.0
 10
26.22458359804455
 20
-23.10022650247147
 30
0.0
 10
26.21579860455716
 20
-23.13812255280922
 30
0.0
 10
26.20684135629551
 20
-23.17567409359845
 30
0.0
 10
26.19857312713091
 20
-23.21374239871045
 30
0.0
 10
26.19013264319205
 20
-23.2516384490482
 30
0.0
 10
26.18169215925319
 20
-23.28953449938595
 30
0.0
 10
26.17359618486285
 20
-23.3274305497237
 30
0.0
 10
26.16550021047252
 20
-23.36532660006145
 30
0.0
 10
26.15757649085644
 20
-23.4032226503992
 30
0.0
 10
26.14982502601463
 20
-23.44129095551121
 30
0.0
 10
26.14190130639856
 20
-23.47918700584895
 30
0.0
 10
26.134322096331
 20
-23.5170830561867
 30
0.0
 10
26.12691514103772
 20
-23.55532361607298
 30
0.0
 10
26.11933593097017
 20
-23.59321966641073
 30
0.0
 10
26.1122734852254
 20
-23.631460226297
 30
0.0
 10
26.10521103948064
 20
-23.66970078618327
 30
0.0
 10
26.09780408418736
 20
-23.70759683652102
 30
0.0
 10
26.09108614799112
 20
-23.74583739640729
 30
0.0
 10
26.08436821179488
 20
-23.78407795629357
 30
0.0
 10
26.07747802082438
 20
-23.82231851617984
 30
0.0
 10
26.07110459417667
 20
-23.86038682129185
 30
0.0
 10
26.06455891275469
 20
-23.89862738117812
 30
0.0
 10
26.05818548610698
 20
-23.9368679410644
 30
0.0
 10
26.05198431423353
 20
-23.97510850095067
 30
0.0
 10
26.04578314236008
 20
-24.01369357038547
 30
0.0
 10
26.03992648003516
 20
-24.05193413027174
 30
0.0
 10
26.03406981771023
 20
-24.09000243538375
 30
0.0
 10
26.02838541015957
 20
-24.12858750481855
 30
0.0
 10
26.02252874783465
 20
-24.16717257425335
 30
0.0
 10
26.01718884983251
 20
-24.20524087936536
 30
0.0
 10
26.01167669705611
 20
-24.24382594880015
 30
0.0
 10
26.00633679905397
 20
-24.28206650868643
 30
0.0
 10
26.0011691558261
 20
-24.32047932334697
 30
0.0
 10
25.99634602214675
 20
-24.35906439278176
 30
0.0
 10
25.99135063369313
 20
-24.39764946221656
 30
0.0
 10
25.98669975478805
 20
-24.43571776732857
 30
0.0
 10
25.98204887588296
 20
-24.47430283676337
 30
0.0
 10
25.97722574220361
 20
-24.51288790619817
 30
0.0
 10
25.97291937284705
 20
-24.5513007208587
 30
0.0
 10
25.96844074871623
 20
-24.5898857902935
 30
0.0
 10
25.96430663413392
 20
-24.62864311450256
 30
0.0
 10
25.96017251955162
 20
-24.66722818393736
 30
0.0
 10
25.95603840496932
 20
-24.70598550814642
 30
0.0
 10
25.95224879993555
 20
-24.74457057758122
 30
0.0
 10
25.94845919490178
 20
-24.78298339224176
 30
0.0
 10
25.94501409941653
 20
-24.82156846167655
 30
0.0
 10
25.94139674915701
 20
-24.85980902156283
 30
0.0
 10
25.93812390844603
 20
-24.8980495814491
 30
0.0
 10
25.9350233225093
 20
-24.93646239610964
 30
0.0
 10
25.93175048179831
 20
-24.97521972031869
 30
0.0
 10
25.92847764108733
 20
-25.01432155407628
 30
0.0
 10
25.92589381947339
 20
-25.05342338783387
 30
0.0
 10
25.92296548831093
 20
-25.0932142406885
 30
0.0
 10
25.92020941192273
 20
-25.1331773483174
 30
0.0
 10
25.91762559030879
 20
-25.1731404559463
 30
0.0
 10
25.91521402346912
 20
-25.21069199673552
 30
0.0
 10
25.9129747114037
 20
-25.24807128275048
 30
0.0
 10
25.91056314456403
 20
-25.28579507831397
 30
0.0
 10
25.9088405968214
 20
-25.31955701406942
 30
0.0
 10
25.90677353953025
 20
-25.35331894982487
 30
0.0
 10
25.90487873701337
 20
-25.38725314035458
 30
0.0
 10
25.90298393449648
 20
-25.43100585301725
 30
0.0
 10
25.90143364152812
 20
-25.4744140561314
 30
0.0
 10
25.89988334855975
 20
-25.51799451401981
 30
0.0
 10
25.8978162912686
 20
-25.58500162120792
 30
0.0
 10
25.8964382530745
 20
-25.65235323794455
 30
0.0
 10
25.89557697920319
 20
-25.71936034513266
 30
0.0
 10
25.89385443146056
 20
-25.80721028000653
 30
0.0
 10
25.8923041384922
 20
-25.89523246965467
 30
0.0
 10
25.89178737416941
 20
-25.98342691407706
 30
0.0
  0
POLYLINE
  5
324
330
1F
100
AcDbEntity
  8
Capa 1
 62
     7
420
 16777215
370
    18
100
AcDb2dPolyline
 66
     1
 10
0.0
 20
0.0
 30
0.0
  0
VERTEX
  5
325
330
324
100
AcDbEntity
  8
Capa 1
 62
     7
420
 16777215
370
    18
100
AcDbVertex
100
AcDb2dVertex
 10
32.66036647403977
 20
-22.717993158383
 30
0.0
  0
VERTEX
  5
326
330
324
100
AcDbEntity
  8
Capa 1
 62
     7
420
 16777215
370
    18
100
AcDbVertex
100
AcDb2dVertex
 10
32.63745658906286
 20
-24.0217895447758
 30
0.0
  0
SEQEND
  5
327
330
324
100
AcDbEntity
  8
Capa 1
370
    18
  0
POLYLINE
  5
328
330
1F
100
AcDbEntity
  8
Capa 1
 62
     7
420
 16777215
370
    18
100
AcDb2dPolyline
 66
     1
 10
0.0
 20
0.0
 30
0.0
  0
VERTEX
  5
329
330
328
100
AcDbEntity
  8
Capa 1
 62
     7
420
 16777215
370
    18
100
AcDbVertex
100
AcDb2dVertex
 10
32.63745658906286
 20
-24.0217895447758
 30
0.0
  0
VERTEX
  5
32A
330
328
100
AcDbEntity
  8
Capa 1
 62
     7
420
 16777215
370
    18
100
AcDbVertex
100
AcDb2dVertex
 10
32.60300563421036
 20
-25.98342691407706
 30
0.0
  0
SEQEND
  5
32B
330
328
100
AcDbEntity
  8
Capa 1
370
    18
  0
SPLINE
  5
32C
330
1F
100
AcDbEntity
  8
Capa 1
 62
     7
420
 16777215
370
    18
100
AcDbSpline
210
0.0
220
0.0
230
1.0
 70
     8
 71
     3
 72
    89
 73
    85
 74
     0
 42
0.0000000001
 43
0.0000000001
 40
0.0
 40
0.0
 40
0.0
 40
0.0
 40
1.0
 40
1.0
 40
1.0
 40
2.0
 40
2.0
 40
2.0
 40
3.0
 40
3.0
 40
3.0
 40
4.0
 40
4.0
 40
4.0
 40
5.0
 40
5.0
 40
5.0
 40
6.0
 40
6.0
 40
6.0
 40
7.0
 40
7.0
 40
7.0
 40
8.0
 40
8.0
 40
8.0
 40
9.0
 40
9.0
 40
9.0
 40
10.0
 40
10.0
 40
10.0
 40
11.0
 40
11.0
 40
11.0
 40
12.0
 40
12.0
 40
12.0
 40
13.0
 40
13.0
 40
13.0
 40
14.0
 40
14.0
 40
14.0
 40
15.0
 40
15.0
 40
15.0
 40
16.0
 40
16.0
 40
16.0
 40
17.0
 40
17.0
 40
17.0
 40
18.0
 40
18.0
 40
18.0
 40
19.0
 40
19.0
 40
19.0
 40
20.0
 40
20.0
 40
20.0
 40
21.0
 40
21.0
 40
21.0
 40
22.0
 40
22.0
 40
22.0
 40
23.0
 40
23.0
 40
23.0
 40
24.0
 40
24.0
 40
24.0
 40
25.0
 40
25.0
 40
25.0
 40
26.0
 40
26.0
 40
26.0
 40
27.0
 40
27.0
 40
27.0
 40
28.0
 40
28.0
 40
28.0
 40
28.0
 10
41.01920164990145
 20
-19.62670897946832
 30
0.0
 10
41.01920164990145
 20
-19.62670897946832
 30
0.0
 10
41.02333576448375
 20
-19.62688123424259
 30
0.0
 10
41.02333576448375
 20
-19.62688123424259
 30
0.0
 10
41.02471380267785
 20
-19.62722574379111
 30
0.0
 10
41.02591958609769
 20
-19.62722574379111
 30
0.0
 10
41.02746987906605
 20
-19.62757025333964
 30
0.0
 10
41.02850340771163
 20
-19.62791476288816
 30
0.0
 10
41.03005370067999
 20
-19.62808701766242
 30
0.0
 10
41.03125948409983
 20
-19.62877603675947
 30
0.0
 10
41.03263752229392
 20
-19.62894829153374
 30
0.0
 10
41.03418781526229
 20
-19.62929280108226
 30
0.0
 10
41.03556585345639
 20
-19.62980956540505
 30
0.0
 10
41.03711614642475
 20
-19.6304985845021
 30
0.0
 10
41.03866643939311
 20
-19.63101534882489
 30
0.0
 10
41.04004447758722
 20
-19.63135985837341
 30
0.0
 10
41.04125026100705
 20
-19.63222113224472
 30
0.0
 10
41.04262829920115
 20
-19.63291015134177
 30
0.0
 10
41.04417859216952
 20
-19.63377142521309
 30
0.0
 10
41.04555663036361
 20
-19.63428818953587
 30
0.0
 10
41.04676241378345
 20
-19.63514946340718
 30
0.0
 10
41.04831270675182
 20
-19.6360107372785
 30
0.0
 10
41.04969074494591
 20
-19.63687201114981
 30
0.0
 10
41.05124103791427
 20
-19.63790553979539
 30
0.0
 10
41.05244682133412
 20
-19.6387668136667
 30
0.0
 10
41.05382485952821
 20
-19.63980034231227
 30
0.0
 10
41.05503064294805
 20
-19.64083387095785
 30
0.0
 10
41.05658093591641
 20
-19.64186739960342
 30
0.0
 10
41.05761446456199
 20
-19.64307318302326
 30
0.0
 10
41.05882024798183
 20
-19.6442789664431
 30
0.0
 10
41.06037054095019
 20
-19.64582925941146
 30
0.0
 10
41.06157632437002
 20
-19.64686278805704
 30
0.0
 10
41.0626098530156
 20
-19.64806857147687
 30
0.0
 10
41.06381563643544
 20
-19.64961886444523
 30
0.0
 10
41.06467691030675
 20
-19.65099690263933
 30
0.0
 10
41.06588269372659
 20
-19.6525471956077
 30
0.0
 10
41.06708847714643
 20
-19.6539252338018
 30
0.0
 10
41.06794975101774
 20
-19.65547552677016
 30
0.0
 10
41.06881102488905
 20
-19.65685356496426
 30
0.0
 10
41.07001680830889
 20
-19.65874836748115
 30
0.0
 10
41.0708780821802
 20
-19.66012640567525
 30
0.0
 10
41.07156710127725
 20
-19.66184895341787
 30
0.0
 10
41.07242837514856
 20
-19.66374375593476
 30
0.0
 10
41.07328964901988
 20
-19.66512179412886
 30
0.0
 10
41.07380641334266
 20
-19.66701659664575
 30
0.0
 10
41.07449543243971
 20
-19.66873914438837
 30
0.0
 10
41.0750121967625
 20
-19.670461692131
 30
0.0
 10
41.07570121585955
 20
-19.67218423987362
 30
0.0
 10
41.07587347063381
 20
-19.67390678761625
 30
0.0
 10
41.07656248973086
 20
-19.67580159013313
 30
0.0
 10
41.07673474450512
 20
-19.67752413787576
 30
0.0
 10
41.07707925405365
 20
-19.67924668561838
 30
0.0
 10
41.07759601837644
 20
-19.68131374290953
 30
0.0
 10
41.07759601837644
 20
-19.68286403587789
 30
0.0
 10
41.07759601837644
 20
-19.68458658362052
 30
0.0
 10
41.07794052792496
 20
-19.68665364091167
 30
0.0
 10
41.07794052792496
 20
-19.6883761886543
 30
0.0
 10
41.07794052792496
 20
-19.69009873639692
 30
0.0
 10
41.07794052792496
 20
-19.69199353891381
 30
0.0
 10
41.07794052792496
 20
-19.69371608665643
 30
0.0
 10
41.07759601837644
 20
-19.69543863439906
 30
0.0
 10
41.07759601837644
 20
-19.69716118214168
 30
0.0
 10
41.07742376360218
 20
-19.69905598465857
 30
0.0
 10
41.07707925405365
 20
-19.70043402285267
 30
0.0
 10
41.07673474450512
 20
-19.7021565705953
 30
0.0
 10
41.07656248973086
 20
-19.70405137311218
 30
0.0
 10
41.07587347063381
 20
-19.70542941130628
 30
0.0
 10
41.07535670631103
 20
-19.70715195904891
 30
0.0
 10
41.0750121967625
 20
-19.70904676156579
 30
0.0
 10
41.07449543243971
 20
-19.7104247997599
 30
0.0
 10
41.07380641334266
 20
-19.71197509272826
 30
0.0
 10
41.07328964901988
 20
-19.71335313092236
 30
0.0
 10
41.07260062992282
 20
-19.71490342389072
 30
0.0
 10
41.07208386560004
 20
-19.71628146208482
 30
0.0
 10
41.07156710127725
 20
-19.71783175505318
 30
0.0
 10
41.0708780821802
 20
-19.71869302892449
 30
0.0
 10
41.07036131785741
 20
-19.72041557666712
 30
0.0
 10
41.0695000439861
 20
-19.72196586963548
 30
0.0
 10
41.06863877011479
 20
-19.72299939828106
 30
0.0
 10
41.06708847714643
 20
-19.72506645557221
 30
0.0
 10
41.06571043895232
 20
-19.72713351286336
 30
0.0
 10
41.06381563643544
 20
-19.72902831538024
 30
0.0
 10
41.06209308869281
 20
-19.73126762744566
 30
0.0
 10
41.06002603140166
 20
-19.73367919428533
 30
0.0
 10
41.05761446456199
 20
-19.73609076112501
 30
0.0
  0
SPLINE
  5
32D
330
1F
100
AcDbEntity
  8
Capa 1
 62
     7
420
 16777215
370
    18
100
AcDbSpline
210
0.0
220
0.0
230
1.0
 70
     8
 71
     3
 72
   119
 73
   115
 74
     0
 42
0.0000000001
 43
0.0000000001
 40
0.0
 40
0.0
 40
0.0
 40
0.0
 40
1.0
 40
1.0
 40
1.0
 40
2.0
 40
2.0
 40
2.0
 40
3.0
 40
3.0
 40
3.0
 40
4.0
 40
4.0
 40
4.0
 40
5.0
 40
5.0
 40
5.0
 40
6.0
 40
6.0
 40
6.0
 40
7.0
 40
7.0
 40
7.0
 40
8.0
 40
8.0
 40
8.0
 40
9.0
 40
9.0
 40
9.0
 40
10.0
 40
10.0
 40
10.0
 40
11.0
 40
11.0
 40
11.0
 40
12.0
 40
12.0
 40
12.0
 40
13.0
 40
13.0
 40
13.0
 40
14.0
 40
14.0
 40
14.0
 40
15.0
 40
15.0
 40
15.0
 40
16.0
 40
16.0
 40
16.0
 40
17.0
 40
17.0
 40
17.0
 40
18.0
 40
18.0
 40
18.0
 40
19.0
 40
19.0
 40
19.0
 40
20.0
 40
20.0
 40
20.0
 40
21.0
 40
21.0
 40
21.0
 40
22.0
 40
22.0
 40
22.0
 40
23.0
 40
23.0
 40
23.0
 40
24.0
 40
24.0
 40
24.0
 40
25.0
 40
25.0
 40
25.0
 40
26.0
 40
26.0
 40
26.0
 40
27.0
 40
27.0
 40
27.0
 40
28.0
 40
28.0
 40
28.0
 40
29.0
 40
29.0
 40
29.0
 40
30.0
 40
30.0
 40
30.0
 40
31.0
 40
31.0
 40
31.0
 40
32.0
 40
32.0
 40
32.0
 40
33.0
 40
33.0
 40
33.0
 40
34.0
 40
34.0
 40
34.0
 40
35.0
 40
35.0
 40
35.0
 40
36.0
 40
36.0
 40
36.0
 40
37.0
 40
37.0
 40
37.0
 40
38.0
 40
38.0
 40
38.0
 40
38.0
 10
26.73790282534678
 20
-21.43383381625613
 30
0.0
 10
26.73790282534678
 20
-21.43383381625613
 30
0.0
 10
26.73996988263793
 20
-21.42849391825399
 30
0.0
 10
26.73996988263793
 20
-21.42849391825399
 30
0.0
 10
26.74048664696071
 20
-21.42677137051136
 30
0.0
 10
26.74134792083203
 20
-21.42504882276874
 30
0.0
 10
26.74220919470334
 20
-21.42332627502611
 30
0.0
 10
26.74289821380039
 20
-21.42143147250923
 30
0.0
 10
26.7437594876717
 20
-21.4197089247666
 30
0.0
 10
26.74427625199449
 20
-21.41798637702398
 30
0.0
 10
26.7451375258658
 20
-21.41626382928135
 30
0.0
 10
26.74599879973711
 20
-21.41436902676447
 30
0.0
 10
26.74668781883416
 20
-21.41299098857036
 30
0.0
 10
26.747893602254
 20
-21.41126844082774
 30
0.0
 10
26.74841036657679
 20
-21.40937363831085
 30
0.0
 10
26.7492716404481
 20
-21.40799560011675
 30
0.0
 10
26.75013291431941
 20
-21.40627305237413
 30
0.0
 10
26.75099418819072
 20
-21.40437824985724
 30
0.0
 10
26.7520277168363
 20
-21.40300021166314
 30
0.0
 10
26.75306124548187
 20
-21.40127766392051
 30
0.0
 10
26.75409477412745
 20
-21.39938286140363
 30
0.0
 10
26.75495604799876
 20
-21.39800482320953
 30
0.0
 10
26.75581732187008
 20
-21.3962822754669
 30
0.0
 10
26.75667859574139
 20
-21.39473198249854
 30
0.0
 10
26.75788437916123
 20
-21.39300943475591
 30
0.0
 10
26.75874565303254
 20
-21.39145914178755
 30
0.0
 10
26.75995143645238
 20
-21.38973659404493
 30
0.0
 10
26.76081271032369
 20
-21.38818630107657
 30
0.0
 10
26.76201849374353
 20
-21.38646375333394
 30
0.0
 10
26.76287976761484
 20
-21.38508571513984
 30
0.0
 10
26.76408555103468
 20
-21.38353542217148
 30
0.0
 10
26.76494682490599
 20
-21.38181287442885
 30
0.0
 10
26.76598035355156
 20
-21.38026258146049
 30
0.0
 10
26.7671861369714
 20
-21.37854003371787
 30
0.0
 10
26.76804741084271
 20
-21.37733425029803
 30
0.0
 10
26.76925319426255
 20
-21.3756117025554
 30
0.0
 10
26.77045897768239
 20
-21.3742336643613
 30
0.0
 10
26.77166476110222
 20
-21.37268337139294
 30
0.0
 10
26.77287054452206
 20
-21.37113307842458
 30
0.0
 10
26.7740763279419
 20
-21.36975504023048
 30
0.0
 10
26.77510985658747
 20
-21.36820474726212
 30
0.0
 10
26.77631564000731
 20
-21.36682670906802
 30
0.0
 10
26.77752142342715
 20
-21.36527641609965
 30
0.0
 10
26.77872720684699
 20
-21.36389837790555
 30
0.0
 10
26.77993299026682
 20
-21.36234808493719
 30
0.0
 10
26.78113877368666
 20
-21.36097004674309
 30
0.0
 10
26.78217230233223
 20
-21.35941975377473
 30
0.0
 10
26.7837225953006
 20
-21.35804171558063
 30
0.0
 10
26.78492837872044
 20
-21.35649142261227
 30
0.0
 10
26.78613416214027
 20
-21.35528563919243
 30
0.0
 10
26.78751220033437
 20
-21.35390760099833
 30
0.0
 10
26.78871798375421
 20
-21.35235730802997
 30
0.0
 10
26.78992376717405
 20
-21.35097926983587
 30
0.0
 10
26.79130180536815
 20
-21.34977348641603
 30
0.0
 10
26.79250758878798
 20
-21.34822319344767
 30
0.0
 10
26.79405788175635
 20
-21.34718966480209
 30
0.0
 10
26.79509141040192
 20
-21.34563937183373
 30
0.0
 10
26.79664170337028
 20
-21.34443358841389
 30
0.0
 10
26.79784748679012
 20
-21.34305555021979
 30
0.0
 10
26.79922552498422
 20
-21.34184976679996
 30
0.0
 10
26.80077581795258
 20
-21.34029947383159
 30
0.0
 10
26.80198160137242
 20
-21.33909369041175
 30
0.0
 10
26.80335963956652
 20
-21.33771565221766
 30
0.0
 10
26.80490993253488
 20
-21.33650986879782
 30
0.0
 10
26.80628797072898
 20
-21.33530408537798
 30
0.0
 10
26.80783826369735
 20
-21.33392604718388
 30
0.0
 10
26.80904404711718
 20
-21.33272026376404
 30
0.0
 10
26.81076659485981
 20
-21.33151448034421
 30
0.0
 10
26.81197237827965
 20
-21.33030869692437
 30
0.0
 10
26.81335041647375
 20
-21.32910291350453
 30
0.0
 10
26.81490070944211
 20
-21.32772487531043
 30
0.0
 10
26.81627874763621
 20
-21.32686360143912
 30
0.0
 10
26.81782904060457
 20
-21.32565781801928
 30
0.0
 10
26.8195515883472
 20
-21.32445203459944
 30
0.0
 10
26.82075737176703
 20
-21.3232462511796
 30
0.0
 10
26.82213540996113
 20
-21.32204046775977
 30
0.0
 10
26.82403021247802
 20
-21.32117919388845
 30
0.0
 10
26.82540825067212
 20
-21.31997341046862
 30
0.0
 10
26.82695854364048
 20
-21.31893988182305
 30
0.0
 10
26.82833658183458
 20
-21.31773409840321
 30
0.0
 10
26.83023138435147
 20
-21.31652831498337
 30
0.0
 10
26.83160942254557
 20
-21.31566704111206
 30
0.0
 10
26.83315971551393
 20
-21.31446125769222
 30
0.0
 10
26.83488226325656
 20
-21.31325547427238
 30
0.0
 10
26.83626030145066
 20
-21.31239420040107
 30
0.0
 10
26.83781059441902
 20
-21.31118841698123
 30
0.0
 10
26.83953314216165
 20
-21.31032714310992
 30
0.0
 10
26.84108343513001
 20
-21.30946586923861
 30
0.0
 10
26.84280598287263
 20
-21.30826008581877
 30
0.0
 10
26.84418402106673
 20
-21.30739881194746
 30
0.0
 10
26.84607882358362
 20
-21.30619302852762
 30
0.0
 10
26.84745686177772
 20
-21.30533175465631
 30
0.0
 10
26.84935166429461
 20
-21.304470480785
 30
0.0
 10
26.85107421203723
 20
-21.30360920691368
 30
0.0
 10
26.85245225023133
 20
-21.30274793304237
 30
0.0
 10
26.85434705274822
 20
-21.30188665917106
 30
0.0
 10
26.85606960049084
 20
-21.30102538529975
 30
0.0
 10
26.85779214823347
 20
-21.29999185665417
 30
0.0
 10
26.85934244120183
 20
-21.29913058278286
 30
0.0
 10
26.86106498894446
 20
-21.29826930891155
 30
0.0
 10
26.86278753668708
 20
-21.29740803504023
 30
0.0
 10
26.86451008442971
 20
-21.29654676116892
 30
0.0
 10
26.86606037739807
 20
-21.29568548729761
 30
0.0
 10
26.86743841559217
 20
-21.29499646820056
 30
0.0
 10
26.86933321810906
 20
-21.29447970387777
 30
0.0
 10
26.87036674675463
 20
-21.29361843000646
 30
0.0
 10
26.87243380404578
 20
-21.29275715613515
 30
0.0
 10
26.87450086133693
 20
-21.29189588226383
 30
0.0
 10
26.87656791862808
 20
-21.29120686316678
 30
0.0
 10
26.87949624979055
 20
-21.29000107974694
 30
0.0
 10
26.88242458095301
 20
-21.28896755110137
 30
0.0
 10
26.88569742166399
 20
-21.28776176768153
 30
0.0
 10
26.88983153624629
 20
-21.28621147471317
 30
0.0
 10
26.89362114128007
 20
-21.28483343651907
 30
0.0
 10
26.89775525586237
 20
-21.28362765309923
 30
0.0
  0
SPLINE
  5
32E
330
1F
100
AcDbEntity
  8
Capa 1
 62
     7
420
 16777215
370
    18
100
AcDbSpline
210
0.0
220
0.0
230
1.0
 70
     8
 71
     3
 72
     8
 73
     4
 74
     0
 42
0.0000000001
 43
0.0000000001
 40
0.0
 40
0.0
 40
0.0
 40
0.0
 40
1.0
 40
1.0
 40
1.0
 40
1.0
 10
37.90259601917018
 20
-20.26939154224168
 30
0.0
 10
38.4426147364831
 20
-20.51692165285688
 30
0.0
 10
39.0658325097648
 20
-20.50572509252982
 30
0.0
 10
39.59654946926753
 20
-20.23838568287443
 30
0.0
  0
SPLINE
  5
32F
330
1F
100
AcDbEntity
  8
Capa 1
 62
     7
420
 16777215
370
    18
100
AcDbSpline
210
0.0
220
0.0
230
1.0
 70
     8
 71
     3
 72
     8
 73
     4
 74
     0
 42
0.0000000001
 43
0.0000000001
 40
0.0
 40
0.0
 40
0.0
 40
0.0
 40
1.0
 40
1.0
 40
1.0
 40
1.0
 10
37.90259601917018
 20
-20.26939154224168
 30
0.0
 10
36.59845512322886
 20
-20.35224608866194
 30
0.0
 10
35.30637206148591
 20
-20.57118190674957
 30
0.0
 10
34.04736191640136
 20
-20.92292615579358
 30
0.0
  0
SPLINE
  5
330
330
1F
100
AcDbEntity
  8
Capa 1
 62
     7
420
 16777215
370
    18
100
AcDbSpline
210
0.0
220
0.0
230
1.0
 70
     8
 71
     3
 72
   269
 73
   265
 74
     0
 42
0.0000000001
 43
0.0000000001
 40
0.0
 40
0.0
 40
0.0
 40
0.0
 40
1.0
 40
1.0
 40
1.0
 40
2.0
 40
2.0
 40
2.0
 40
3.0
 40
3.0
 40
3.0
 40
4.0
 40
4.0
 40
4.0
 40
5.0
 40
5.0
 40
5.0
 40
6.0
 40
6.0
 40
6.0
 40
7.0
 40
7.0
 40
7.0
 40
8.0
 40
8.0
 40
8.0
 40
9.0
 40
9.0
 40
9.0
 40
10.0
 40
10.0
 40
10.0
 40
11.0
 40
11.0
 40
11.0
 40
12.0
 40
12.0
 40
12.0
 40
13.0
 40
13.0
 40
13.0
 40
14.0
 40
14.0
 40
14.0
 40
15.0
 40
15.0
 40
15.0
 40
16.0
 40
16.0
 40
16.0
 40
17.0
 40
17.0
 40
17.0
 40
18.0
 40
18.0
 40
18.0
 40
19.0
 40
19.0
 40
19.0
 40
20.0
 40
20.0
 40
20.0
 40
21.0
 40
21.0
 40
21.0
 40
22.0
 40
22.0
 40
22.0
 40
23.0
 40
23.0
 40
23.0
 40
24.0
 40
24.0
 40
24.0
 40
25.0
 40
25.0
 40
25.0
 40
26.0
 40
26.0
 40
26.0
 40
27.0
 40
27.0
 40
27.0
 40
28.0
 40
28.0
 40
28.0
 40
29.0
 40
29.0
 40
29.0
 40
30.0
 40
30.0
 40
30.0
 40
31.0
 40
31.0
 40
31.0
 40
32.0
 40
32.0
 40
32.0
 40
33.0
 40
33.0
 40
33.0
 40
34.0
 40
34.0
 40
34.0
 40
35.0
 40
35.0
 40
35.0
 40
36.0
 40
36.0
 40
36.0
 40
37.0
 40
37.0
 40
37.0
 40
38.0
 40
38.0
 40
38.0
 40
39.0
 40
39.0
 40
39.0
 40
40.0
 40
40.0
 40
40.0
 40
41.0
 40
41.0
 40
41.0
 40
42.0
 40
42.0
 40
42.0
 40
43.0
 40
43.0
 40
43.0
 40
44.0
 40
44.0
 40
44.0
 40
45.0
 40
45.0
 40
45.0
 40
46.0
 40
46.0
 40
46.0
 40
47.0
 40
47.0
 40
47.0
 40
48.0
 40
48.0
 40
48.0
 40
49.0
 40
49.0
 40
49.0
 40
50.0
 40
50.0
 40
50.0
 40
51.0
 40
51.0
 40
51.0
 40
52.0
 40
52.0
 40
52.0
 40
53.0
 40
53.0
 40
53.0
 40
54.0
 40
54.0
 40
54.0
 40
55.0
 40
55.0
 40
55.0
 40
56.0
 40
56.0
 40
56.0
 40
57.0
 40
57.0
 40
57.0
 40
58.0
 40
58.0
 40
58.0
 40
59.0
 40
59.0
 40
59.0
 40
60.0
 40
60.0
 40
60.0
 40
61.0
 40
61.0
 40
61.0
 40
62.0
 40
62.0
 40
62.0
 40
63.0
 40
63.0
 40
63.0
 40
64.0
 40
64.0
 40
64.0
 40
65.0
 40
65.0
 40
65.0
 40
66.0
 40
66.0
 40
66.0
 40
67.0
 40
67.0
 40
67.0
 40
68.0
 40
68.0
 40
68.0
 40
69.0
 40
69.0
 40
69.0
 40
70.0
 40
70.0
 40
70.0
 40
71.0
 40
71.0
 40
71.0
 40
72.0
 40
72.0
 40
72.0
 40
73.0
 40
73.0
 40
73.0
 40
74.0
 40
74.0
 40
74.0
 40
75.0
 40
75.0
 40
75.0
 40
76.0
 40
76.0
 40
76.0
 40
77.0
 40
77.0
 40
77.0
 40
78.0
 40
78.0
 40
78.0
 40
79.0
 40
79.0
 40
79.0
 40
80.0
 40
80.0
 40
80.0
 40
81.0
 40
81.0
 40
81.0
 40
82.0
 40
82.0
 40
82.0
 40
83.0
 40
83.0
 40
83.0
 40
84.0
 40
84.0
 40
84.0
 40
85.0
 40
85.0
 40
85.0
 40
86.0
 40
86.0
 40
86.0
 40
87.0
 40
87.0
 40
87.0
 40
88.0
 40
88.0
 40
88.0
 40
88.0
 10
41.05761446456199
 20
-19.73609076112501
 30
0.0
 10
41.05761446456199
 20
-19.73609076112501
 30
0.0
 10
41.0446953564923
 20
-19.74814859532338
 30
0.0
 10
41.0446953564923
 20
-19.74814859532338
 30
0.0
 10
41.04038898713574
 20
-19.75193820035716
 30
0.0
 10
41.03591036300492
 20
-19.75572780539093
 30
0.0
 10
41.03177624842262
 20
-19.75986191997323
 30
0.0
 10
41.02746987906605
 20
-19.76365152500701
 30
0.0
 10
41.02299125493523
 20
-19.76744113004078
 30
0.0
 10
41.0185126308044
 20
-19.77157524462308
 30
0.0
 10
41.01386175189931
 20
-19.77536484965685
 30
0.0
 10
41.00955538254275
 20
-19.77915445469063
 30
0.0
 10
41.00507675841192
 20
-19.78311631449867
 30
0.0
 10
41.00059813428111
 20
-19.78690591953244
 30
0.0
 10
40.99629176492454
 20
-19.79069552456622
 30
0.0
 10
40.99146863124519
 20
-19.79448512959999
 30
0.0
 10
40.98716226188863
 20
-19.79827473463376
 30
0.0
 10
40.9826836377578
 20
-19.8022365944418
 30
0.0
 10
40.97837726840124
 20
-19.80602619947558
 30
0.0
 10
40.97355413472189
 20
-19.80947129496083
 30
0.0
 10
40.96890325581681
 20
-19.8132608999946
 30
0.0
 10
40.96442463168598
 20
-19.81722275980264
 30
0.0
 10
40.95977375278089
 20
-19.82066785528789
 30
0.0
 10
40.95529512865006
 20
-19.82445746032166
 30
0.0
 10
40.95064424974498
 20
-19.82807481058118
 30
0.0
 10
40.94633788038842
 20
-19.83186441561495
 30
0.0
 10
40.94151474670907
 20
-19.8353095111002
 30
0.0
 10
40.93686386780398
 20
-19.83927137090824
 30
0.0
 10
40.93221298889889
 20
-19.84271646639349
 30
0.0
 10
40.92738985521954
 20
-19.846333816653
 30
0.0
 10
40.92308348586298
 20
-19.85012342168677
 30
0.0
 10
40.91826035218363
 20
-19.85356851717203
 30
0.0
 10
40.91360947327854
 20
-19.85718586743154
 30
0.0
 10
40.90861408482493
 20
-19.86063096291679
 30
0.0
 10
40.90430771546837
 20
-19.8642483131763
 30
0.0
 10
40.89948458178902
 20
-19.86769340866155
 30
0.0
 10
40.89483370288393
 20
-19.87131075892106
 30
0.0
 10
40.88983831443032
 20
-19.87475585440631
 30
0.0
 10
40.88518743552523
 20
-19.87837320466582
 30
0.0
 10
40.88036430184588
 20
-19.88147379060255
 30
0.0
 10
40.8757134229408
 20
-19.88509114086206
 30
0.0
 10
40.87106254403571
 20
-19.88853623634731
 30
0.0
 10
40.86606715558209
 20
-19.89215358660682
 30
0.0
 10
40.86124402190275
 20
-19.89542642731781
 30
0.0
 10
40.85659314299766
 20
-19.89887152280306
 30
0.0
 10
40.85159775454404
 20
-19.90214436351405
 30
0.0
 10
40.84694687563896
 20
-19.90541720422504
 30
0.0
 10
40.84195148718535
 20
-19.90886229971029
 30
0.0
 10
40.83695609873173
 20
-19.91213514042127
 30
0.0
 10
40.83213296505239
 20
-19.91540798113226
 30
0.0
 10
40.82713757659877
 20
-19.91850856706899
 30
0.0
 10
40.82248669769368
 20
-19.92178140777997
 30
0.0
 10
40.81749130924008
 20
-19.92539875803948
 30
0.0
 10
40.81249592078646
 20
-19.92849934397621
 30
0.0
 10
40.80784504188137
 20
-19.9317721846872
 30
0.0
 10
40.80284965342776
 20
-19.93504502539819
 30
0.0
 10
40.79785426497415
 20
-19.93831786610917
 30
0.0
 10
40.79285887652054
 20
-19.94159070682016
 30
0.0
 10
40.78786348806693
 20
-19.94469129275688
 30
0.0
 10
40.78286809961331
 20
-19.94761962391935
 30
0.0
 10
40.77804496593397
 20
-19.95089246463033
 30
0.0
 10
40.77287732270609
 20
-19.9538207957928
 30
0.0
 10
40.76805418902673
 20
-19.95709363650378
 30
0.0
 10
40.76288654579886
 20
-19.96036647721477
 30
0.0
 10
40.75789115734525
 20
-19.96329480837723
 30
0.0
 10
40.7530680236659
 20
-19.9662231395397
 30
0.0
 10
40.74790038043803
 20
-19.96949598025068
 30
0.0
 10
40.74290499198442
 20
-19.97242431141315
 30
0.0
 10
40.7379096035308
 20
-19.97569715212413
 30
0.0
 10
40.73274196030292
 20
-19.97828097373807
 30
0.0
 10
40.72757431707505
 20
-19.98155381444906
 30
0.0
 10
40.72257892862144
 20
-19.98448214561152
 30
0.0
 10
40.71758354016783
 20
-19.98741047677398
 30
0.0
 10
40.71224364216569
 20
-19.99033880793644
 30
0.0
 10
40.70724825371208
 20
-19.99326713909891
 30
0.0
 10
40.70190835570994
 20
-19.99619547026137
 30
0.0
 10
40.69691296725633
 20
-19.99912380142383
 30
0.0
 10
40.69191757880272
 20
-20.00170762303777
 30
0.0
 10
40.68674993557484
 20
-20.00480820897449
 30
0.0
 10
40.68175454712123
 20
-20.00773654013696
 30
0.0
 10
40.6764146491191
 20
-20.01032036175089
 30
0.0
 10
40.67141926066548
 20
-20.01324869291335
 30
0.0
 10
40.66607936266335
 20
-20.01617702407582
 30
0.0
 10
40.66073946466121
 20
-20.01876084568976
 30
0.0
 10
40.6557440762076
 20
-20.02151692207795
 30
0.0
 10
40.65057643297972
 20
-20.02444525324042
 30
0.0
 10
40.64523653497758
 20
-20.02702907485435
 30
0.0
 10
40.63989663697544
 20
-20.02978515124255
 30
0.0
 10
40.63490124852184
 20
-20.03236897285649
 30
0.0
 10
40.62938909574543
 20
-20.03529730401895
 30
0.0
 10
40.62439370729182
 20
-20.03788112563289
 30
0.0
 10
40.61905380928968
 20
-20.04063720202109
 30
0.0
 10
40.61371391128755
 20
-20.04322102363503
 30
0.0
 10
40.60854626805967
 20
-20.0456325904747
 30
0.0
 10
40.60320637005753
 20
-20.04821641208864
 30
0.0
 10
40.59786647205539
 20
-20.0511447432511
 30
0.0
 10
40.59252657405326
 20
-20.05355631009078
 30
0.0
 10
40.58735893082538
 20
-20.05614013170472
 30
0.0
 10
40.58201903282325
 20
-20.05855169854439
 30
0.0
 10
40.57667913482111
 20
-20.06113552015833
 30
0.0
 10
40.57151149159323
 20
-20.063547086998
 30
0.0
 10
40.56582708404257
 20
-20.06613090861194
 30
0.0
 10
40.56048718604043
 20
-20.06854247545161
 30
0.0
 10
40.55531954281256
 20
-20.07112629706555
 30
0.0
 10
40.54997964481042
 20
-20.07353786390523
 30
0.0
 10
40.54429523725976
 20
-20.0759494307449
 30
0.0
 10
40.53912759403189
 20
-20.07853325235884
 30
0.0
 10
40.53378769602975
 20
-20.08094481919851
 30
0.0
 10
40.52844779802761
 20
-20.08318413126393
 30
0.0
 10
40.52293564525121
 20
-20.08525118855508
 30
0.0
 10
40.51759574724908
 20
-20.08766275539475
 30
0.0
 10
40.51208359447268
 20
-20.09024657700869
 30
0.0
 10
40.50674369647054
 20
-20.09231363429984
 30
0.0
 10
40.50123154369414
 20
-20.09472520113951
 30
0.0
 10
40.495891645692
 20
-20.09696451320493
 30
0.0
 10
40.49020723814134
 20
-20.09903157049608
 30
0.0
 10
40.48503959491347
 20
-20.10144313733575
 30
0.0
 10
40.47969969691133
 20
-20.10385470417543
 30
0.0
 10
40.47418754413493
 20
-20.10592176146658
 30
0.0
 10
40.46850313658427
 20
-20.10816107353199
 30
0.0
 10
40.46316323858213
 20
-20.11022813082314
 30
0.0
 10
40.45765108580573
 20
-20.11229518811429
 30
0.0
 10
40.45213893302933
 20
-20.11470675495396
 30
0.0
 10
40.44679903502719
 20
-20.11677381224511
 30
0.0
 10
40.44111462747653
 20
-20.11884086953626
 30
0.0
 10
40.43560247470013
 20
-20.12090792682741
 30
0.0
 10
40.43009032192373
 20
-20.12297498411856
 30
0.0
 10
40.42475042392159
 20
-20.12504204140971
 30
0.0
 10
40.41906601637093
 20
-20.12710909870086
 30
0.0
 10
40.41355386359453
 20
-20.12900390121775
 30
0.0
 10
40.40804171081813
 20
-20.1310709585089
 30
0.0
 10
40.40235730326746
 20
-20.13296576102579
 30
0.0
 10
40.39684515049107
 20
-20.13503281831694
 30
0.0
 10
40.39116074294041
 20
-20.13709987560809
 30
0.0
 10
40.38564859016401
 20
-20.13882242335071
 30
0.0
 10
40.38030869216187
 20
-20.14088948064186
 30
0.0
 10
40.37479653938547
 20
-20.14295653793301
 30
0.0
 10
40.3691121318348
 20
-20.14467908567564
 30
0.0
 10
40.36325546950988
 20
-20.14640163341826
 30
0.0
 10
40.35774331673348
 20
-20.14812418116089
 30
0.0
 10
40.35205890918282
 20
-20.15001898367777
 30
0.0
 10
40.34654675640642
 20
-20.1517415314204
 30
0.0
 10
40.34086234885576
 20
-20.15380858871155
 30
0.0
 10
40.33535019607936
 20
-20.15553113645417
 30
0.0
 10
40.32983804330296
 20
-20.15708142942254
 30
0.0
 10
40.3241536357523
 20
-20.15914848671369
 30
0.0
 10
40.3186414829759
 20
-20.16052652490779
 30
0.0
 10
40.31278482065098
 20
-20.16224907265041
 30
0.0
 10
40.30710041310031
 20
-20.1641438751673
 30
0.0
 10
40.30158826032391
 20
-20.16586642290992
 30
0.0
 10
40.29590385277325
 20
-20.16724446110402
 30
0.0
 10
40.29039169999685
 20
-20.16913926362091
 30
0.0
 10
40.28470729244619
 20
-20.17051730181501
 30
0.0
 10
40.27885063012126
 20
-20.17223984955763
 30
0.0
 10
40.27333847734486
 20
-20.173790142526
 30
0.0
 10
40.26748181501993
 20
-20.1751681807201
 30
0.0
 10
40.26179740746927
 20
-20.17706298323699
 30
0.0
 10
40.25628525469288
 20
-20.17844102143108
 30
0.0
 10
40.25042859236795
 20
-20.17999131439945
 30
0.0
 10
40.24474418481729
 20
-20.18136935259355
 30
0.0
 10
40.23923203204089
 20
-20.18291964556191
 30
0.0
 10
40.23337536971597
 20
-20.18429768375601
 30
0.0
 10
40.2276909621653
 20
-20.18584797672437
 30
0.0
 10
40.22183429984037
 20
-20.18722601491847
 30
0.0
 10
40.21632214706398
 20
-20.18877630788683
 30
0.0
 10
40.21063773951332
 20
-20.18998209130667
 30
0.0
 10
40.20478107718839
 20
-20.19136012950077
 30
0.0
 10
40.19926892441199
 20
-20.19256591292061
 30
0.0
 10
40.19341226208707
 20
-20.19411620588897
 30
0.0
 10
40.18738334498788
 20
-20.19532198930881
 30
0.0
 10
40.18187119221148
 20
-20.19670002750291
 30
0.0
 10
40.17601452988655
 20
-20.19790581092275
 30
0.0
 10
40.17050237711015
 20
-20.19911159434258
 30
0.0
 10
40.16447346001097
 20
-20.20031737776242
 30
0.0
 10
40.15861679768604
 20
-20.20169541595652
 30
0.0
 10
40.15310464490964
 20
-20.20290119937636
 30
0.0
 10
40.14724798258472
 20
-20.2041069827962
 30
0.0
 10
40.14156357503406
 20
-20.20531276621603
 30
0.0
 10
40.13570691270913
 20
-20.20634629486161
 30
0.0
 10
40.13019475993273
 20
-20.20755207828145
 30
0.0
 10
40.1243380976078
 20
-20.20841335215276
 30
0.0
 10
40.11830918050862
 20
-20.20961913557259
 30
0.0
 10
40.11245251818369
 20
-20.21082491899243
 30
0.0
 10
40.1069403654073
 20
-20.21203070241227
 30
0.0
 10
40.10108370308237
 20
-20.21289197628358
 30
0.0
 10
40.09522704075744
 20
-20.21409775970342
 30
0.0
 10
40.08919812365826
 20
-20.21495903357473
 30
0.0
 10
40.08368597088186
 20
-20.21582030744604
 30
0.0
 10
40.07782930855694
 20
-20.21702609086588
 30
0.0
 10
40.07197264623201
 20
-20.21788736473719
 30
0.0
 10
40.06611598390708
 20
-20.21874863860851
 30
0.0
 10
40.06043157635642
 20
-20.21960991247982
 30
0.0
 10
40.0545749140315
 20
-20.22047118635113
 30
0.0
 10
40.04871825170657
 20
-20.22133246022245
 30
0.0
 10
40.04286158938164
 20
-20.22236598886802
 30
0.0
 10
40.03717718183098
 20
-20.22322726273933
 30
0.0
 10
40.03132051950606
 20
-20.22408853661064
 30
0.0
 10
40.02546385718114
 20
-20.22494981048196
 30
0.0
 10
40.01960719485621
 20
-20.22546657480475
 30
0.0
 10
40.01375053253128
 20
-20.22632784867606
 30
0.0
 10
40.00789387020636
 20
-20.22736137732163
 30
0.0
 10
40.00203720788144
 20
-20.22787814164442
 30
0.0
 10
39.99635280033078
 20
-20.22873941551573
 30
0.0
 10
39.99049613800585
 20
-20.22925617983852
 30
0.0
 10
39.98463947568092
 20
-20.22994519893557
 30
0.0
 10
39.978782813356
 20
-20.23080647280688
 30
0.0
 10
39.97292615103107
 20
-20.23132323712967
 30
0.0
 10
39.96689723393189
 20
-20.23201225622672
 30
0.0
 10
39.96104057160696
 20
-20.23252902054951
 30
0.0
 10
39.95518390928204
 20
-20.23321803964656
 30
0.0
 10
39.94932724695711
 20
-20.23373480396934
 30
0.0
 10
39.94347058463219
 20
-20.23442382306639
 30
0.0
 10
39.93778617708153
 20
-20.23494058738918
 30
0.0
 10
39.93175725998234
 20
-20.23545735171197
 30
0.0
 10
39.92590059765742
 20
-20.23580186126049
 30
0.0
 10
39.92021619010675
 20
-20.23631862558328
 30
0.0
 10
39.9140150182333
 20
-20.23666313513181
 30
0.0
 10
39.90815835590838
 20
-20.23735215422886
 30
0.0
 10
39.90264620313198
 20
-20.23786891855164
 30
0.0
 10
39.89678954080706
 20
-20.23821342810017
 30
0.0
 10
39.89076062370787
 20
-20.23838568287443
 30
0.0
 10
39.88490396138294
 20
-20.23873019242296
 30
0.0
 10
39.87904729905802
 20
-20.23941921152001
 30
0.0
 10
39.87319063673309
 20
-20.23959146629427
 30
0.0
 10
39.86733397440817
 20
-20.23993597584279
 30
0.0
 10
39.86147731208325
 20
-20.24028048539132
 30
0.0
 10
39.85562064975832
 20
-20.24045274016558
 30
0.0
 10
39.84959173265913
 20
-20.24079724971411
 30
0.0
 10
39.8437350703342
 20
-20.24114175926263
 30
0.0
 10
39.83787840800928
 20
-20.24114175926263
 30
0.0
 10
39.83167723613583
 20
-20.2413140140369
 30
0.0
 10
39.82616508335943
 20
-20.24165852358542
 30
0.0
 10
39.82030842103451
 20
-20.24200303313394
 30
0.0
 10
39.81410724916106
 20
-20.24200303313394
 30
0.0
 10
39.80859509638466
 20
-20.24234754268247
 30
0.0
 10
39.80239392451121
 20
-20.24234754268247
 30
0.0
 10
39.79653726218628
 20
-20.24234754268247
 30
0.0
 10
39.7905083450871
 20
-20.24251979745673
 30
0.0
 10
39.78465168276217
 20
-20.24251979745673
 30
0.0
 10
39.77879502043725
 20
-20.24251979745673
 30
0.0
 10
39.77293835811232
 20
-20.24251979745673
 30
0.0
 10
39.76742620533592
 20
-20.24251979745673
 30
0.0
 10
39.76122503346247
 20
-20.24251979745673
 30
0.0
 10
39.75554062591181
 20
-20.24251979745673
 30
0.0
 10
39.74968396358689
 20
-20.24251979745673
 30
0.0
 10
39.74348279171344
 20
-20.24251979745673
 30
0.0
 10
39.73762612938851
 20
-20.24234754268247
 30
0.0
 10
39.73142495751506
 20
-20.24234754268247
 30
0.0
 10
39.72556829519014
 20
-20.24234754268247
 30
0.0
 10
39.71936712331669
 20
-20.24200303313394
 30
0.0
 10
39.71385497054029
 20
-20.24200303313394
 30
0.0
 10
39.70834281776389
 20
-20.24165852358542
 30
0.0
 10
39.7023139006647
 20
-20.24165852358542
 30
0.0
 10
39.69714625743683
 20
-20.2413140140369
 30
0.0
 10
39.69215086898321
 20
-20.24114175926263
 30
0.0
 10
39.68681097098108
 20
-20.24114175926263
 30
0.0
 10
39.6802652895591
 20
-20.24079724971411
 30
0.0
 10
39.67354735336286
 20
-20.24045274016558
 30
0.0
 10
39.66717392671515
 20
-20.24045274016558
 30
0.0
 10
39.6568386402594
 20
-20.23993597584279
 30
0.0
 10
39.64650335380365
 20
-20.23993597584279
 30
0.0
 10
39.63651257689643
 20
-20.23959146629427
 30
0.0
 10
39.62324895927821
 20
-20.23907470197148
 30
0.0
 10
39.60981308688574
 20
-20.23873019242296
 30
0.0
 10
39.59654946926753
 20
-20.23838568287443
 30
0.0
  0
SPLINE
  5
331
330
1F
100
AcDbEntity
  8
Capa 1
 62
     7
420
 16777215
370
    18
100
AcDbSpline
210
0.0
220
0.0
230
1.0
 70
     8
 71
     3
 72
     8
 73
     4
 74
     0
 42
0.0000000001
 43
0.0000000001
 40
0.0
 40
0.0
 40
0.0
 40
0.0
 40
1.0
 40
1.0
 40
1.0
 40
1.0
 10
34.04736191640136
 20
-20.92292615579358
 30
0.0
 10
33.23914251556175
 20
-21.14857991007744
 30
0.0
 10
32.67483587507782
 20
-21.87859564340188
 30
0.0
 10
32.66036647403977
 20
-22.717993158383
 30
0.0
  0
SPLINE
  5
332
330
1F
100
AcDbEntity
  8
Capa 1
 62
     7
420
 16777215
370
    18
100
AcDbSpline
210
0.0
220
0.0
230
1.0
 70
     8
 71
     3
 72
   119
 73
   115
 74
     0
 42
0.0000000001
 43
0.0000000001
 40
0.0
 40
0.0
 40
0.0
 40
0.0
 40
1.0
 40
1.0
 40
1.0
 40
2.0
 40
2.0
 40
2.0
 40
3.0
 40
3.0
 40
3.0
 40
4.0
 40
4.0
 40
4.0
 40
5.0
 40
5.0
 40
5.0
 40
6.0
 40
6.0
 40
6.0
 40
7.0
 40
7.0
 40
7.0
 40
8.0
 40
8.0
 40
8.0
 40
9.0
 40
9.0
 40
9.0
 40
10.0
 40
10.0
 40
10.0
 40
11.0
 40
11.0
 40
11.0
 40
12.0
 40
12.0
 40
12.0
 40
13.0
 40
13.0
 40
13.0
 40
14.0
 40
14.0
 40
14.0
 40
15.0
 40
15.0
 40
15.0
 40
16.0
 40
16.0
 40
16.0
 40
17.0
 40
17.0
 40
17.0
 40
18.0
 40
18.0
 40
18.0
 40
19.0
 40
19.0
 40
19.0
 40
20.0
 40
20.0
 40
20.0
 40
21.0
 40
21.0
 40
21.0
 40
22.0
 40
22.0
 40
22.0
 40
23.0
 40
23.0
 40
23.0
 40
24.0
 40
24.0
 40
24.0
 40
25.0
 40
25.0
 40
25.0
 40
26.0
 40
26.0
 40
26.0
 40
27.0
 40
27.0
 40
27.0
 40
28.0
 40
28.0
 40
28.0
 40
29.0
 40
29.0
 40
29.0
 40
30.0
 40
30.0
 40
30.0
 40
31.0
 40
31.0
 40
31.0
 40
32.0
 40
32.0
 40
32.0
 40
33.0
 40
33.0
 40
33.0
 40
34.0
 40
34.0
 40
34.0
 40
35.0
 40
35.0
 40
35.0
 40
36.0
 40
36.0
 40
36.0
 40
37.0
 40
37.0
 40
37.0
 40
38.0
 40
38.0
 40
38.0
 40
38.0
 10
41.01920164990145
 20
-19.62670897946832
 30
0.0
 10
41.01920164990145
 20
-19.62670897946832
 30
0.0
 10
40.66142848375826
 20
-19.60259331107158
 30
0.0
 10
40.66142848375826
 20
-19.60259331107158
 30
0.0
 10
40.54205592519435
 20
-19.59518635577829
 30
0.0
 10
40.42268336663044
 20
-19.58846841958205
 30
0.0
 10
40.30331080806653
 20
-19.58192273816007
 30
0.0
 10
40.18393824950263
 20
-19.57554931151236
 30
0.0
 10
40.06456569093872
 20
-19.5698649039617
 30
0.0
 10
39.94519313237481
 20
-19.56469726073383
 30
0.0
 10
39.82582057381091
 20
-19.55970187228021
 30
0.0
 10
39.706448015247
 20
-19.55487873860087
 30
0.0
 10
39.5870754566831
 20
-19.55074462401857
 30
0.0
 10
39.46770289811919
 20
-19.54661050943626
 30
0.0
 10
39.34833033955528
 20
-19.54350992349954
 30
0.0
 10
39.22913003576564
 20
-19.54058159233708
 30
0.0
 10
39.10975747720173
 20
-19.53765326117461
 30
0.0
 10
38.99055717341209
 20
-19.53524169433494
 30
0.0
 10
38.87118461484818
 20
-19.53351914659232
 30
0.0
 10
38.75181205628427
 20
-19.53162434407543
 30
0.0
 10
38.63278400726889
 20
-19.53059081542985
 30
0.0
 10
38.51341144870499
 20
-19.5299017963328
 30
0.0
 10
38.39403889014108
 20
-19.52904052246149
 30
0.0
 10
38.27466633157717
 20
-19.52869601291297
 30
0.0
 10
38.15546602778753
 20
-19.52938503201002
 30
0.0
 10
38.03626572399788
 20
-19.5299017963328
 30
0.0
 10
37.91689316543398
 20
-19.53110757975264
 30
0.0
 10
37.79786511641859
 20
-19.532657872721
 30
0.0
 10
37.67883706740321
 20
-19.5340359109151
 30
0.0
 10
37.55980901838782
 20
-19.53644747775478
 30
0.0
 10
37.44043645982392
 20
-19.53868678982019
 30
0.0
 10
37.32140841080854
 20
-19.54161512098265
 30
0.0
 10
37.2022081070189
 20
-19.54488796169364
 30
0.0
 10
37.08318005800351
 20
-19.54867756672741
 30
0.0
 10
36.96415200898813
 20
-19.55263942653545
 30
0.0
 10
36.84512395997275
 20
-19.55694579589202
 30
0.0
 10
36.72592365618311
 20
-19.56194118434563
 30
0.0
 10
36.60689560716772
 20
-19.56693657279924
 30
0.0
 10
36.48786755815234
 20
-19.5726209803499
 30
0.0
 10
36.36901176391122
 20
-19.57847764267483
 30
0.0
 10
36.24998371489584
 20
-19.58467881454828
 30
0.0
 10
36.13130017542898
 20
-19.59105224119599
 30
0.0
 10
36.01244438118786
 20
-19.59845919648928
 30
0.0
 10
35.893760841721
 20
-19.60552164223404
 30
0.0
 10
35.77456053793136
 20
-19.61310085230159
 30
0.0
 10
35.65587699846451
 20
-19.62171359101471
 30
0.0
 10
35.53702120422339
 20
-19.62980956540505
 30
0.0
 10
35.41868217430505
 20
-19.6387668136667
 30
0.0
 10
35.29982638006393
 20
-19.64806857147687
 30
0.0
 10
35.18097058582281
 20
-19.65754258406131
 30
0.0
 10
35.06263155590448
 20
-19.66753336096853
 30
0.0
 10
34.94412027121189
 20
-19.67804090219855
 30
0.0
 10
34.82560898651929
 20
-19.68872069820282
 30
0.0
 10
34.70675319227817
 20
-19.69991725852988
 30
0.0
 10
34.5885864171341
 20
-19.71128607363121
 30
0.0
 10
34.47024738721577
 20
-19.72299939828106
 30
0.0
 10
34.35173610252318
 20
-19.73505723247943
 30
0.0
 10
34.23356932737911
 20
-19.74814859532338
 30
0.0
 10
34.11505804268651
 20
-19.76072319384454
 30
0.0
 10
33.99689126754244
 20
-19.77398681146276
 30
0.0
 10
33.87872449239838
 20
-19.78776719340375
 30
0.0
 10
33.76055771725431
 20
-19.80189208489328
 30
0.0
 10
33.64221868733598
 20
-19.81636148593133
 30
0.0
 10
33.52405191219191
 20
-19.83134765129216
 30
0.0
 10
33.40622964659636
 20
-19.846333816653
 30
0.0
 10
33.28806287145229
 20
-19.86183674633662
 30
0.0
 10
33.17041286063101
 20
-19.87768418556877
 30
0.0
 10
33.05224608548694
 20
-19.89387613434945
 30
0.0
 10
32.93459607466566
 20
-19.91058484745291
 30
0.0
 10
32.81677380907011
 20
-19.9276380701049
 30
0.0
 10
32.69877928870031
 20
-19.94503580230541
 30
0.0
 10
32.58130153265328
 20
-19.96260578928018
 30
0.0
 10
32.46365152183201
 20
-19.98086479535201
 30
0.0
 10
32.34600151101073
 20
-19.99946831097236
 30
0.0
 10
32.2285237549637
 20
-20.01824408136697
 30
0.0
 10
32.11121825369095
 20
-20.03770887085863
 30
0.0
 10
31.99391275241819
 20
-20.05700140557603
 30
0.0
 10
31.87626274159691
 20
-20.07698295939048
 30
0.0
 10
31.75930174987268
 20
-20.09765353230198
 30
0.0
 10
31.64199624859992
 20
-20.11797959566495
 30
0.0
 10
31.52486300210142
 20
-20.13916693289924
 30
0.0
 10
31.40790201037719
 20
-20.16087103445631
 30
0.0
 10
31.29094101865296
 20
-20.18257513601338
 30
0.0
 10
31.17398002692873
 20
-20.20462374711898
 30
0.0
 10
31.05684678043023
 20
-20.22736137732163
 30
0.0
 10
30.93954127915748
 20
-20.25027126229854
 30
0.0
 10
30.82258028743324
 20
-20.27352565682398
 30
0.0
 10
30.70561929570901
 20
-20.29746907044647
 30
0.0
 10
30.58917506830757
 20
-20.32106797452043
 30
0.0
 10
30.47307535045465
 20
-20.3455281524657
 30
0.0
 10
30.35697563260173
 20
-20.37050509473376
 30
0.0
 10
30.24104816952307
 20
-20.3951375274533
 30
0.0
 10
30.12580972554147
 20
-20.42045897926988
 30
0.0
 10
30.01022677201133
 20
-20.44595268586074
 30
0.0
 10
29.8932657802871
 20
-20.47247992109716
 30
0.0
 10
29.77596027901435
 20
-20.49917941110785
 30
0.0
 10
29.65934379683864
 20
-20.52656792021558
 30
0.0
 10
29.5396267287262
 20
-20.55481770319463
 30
0.0
 10
29.41990966061377
 20
-20.58358425049646
 30
0.0
 10
29.30053710204987
 20
-20.61303981689535
 30
0.0
 10
29.18822698923072
 20
-20.64042832600309
 30
0.0
 10
29.0762613859601
 20
-20.66798908988509
 30
0.0
 10
28.96429578268948
 20
-20.69623887286414
 30
0.0
 10
28.8631822301974
 20
-20.72156032468072
 30
0.0
 10
28.76206867770532
 20
-20.74705403127157
 30
0.0
 10
28.66061061566471
 20
-20.77289224741094
 30
0.0
 10
28.53124728019358
 20
-20.80734320226344
 30
0.0
 10
28.40153943517392
 20
-20.84265543098725
 30
0.0
 10
28.27252060925132
 20
-20.87882893358238
 30
0.0
 10
28.07322183542961
 20
-20.9342949708949
 30
0.0
 10
27.87478433547922
 20
-20.99200032027283
 30
0.0
 10
27.67651909030309
 20
-21.05160047216766
 30
0.0
 10
27.41675889071526
 20
-21.12756482761742
 30
0.0
 10
27.15699869112742
 20
-21.20473496648701
 30
0.0
 10
26.89775525586237
 20
-21.28362765309923
 30
0.0
  0
POLYLINE
  5
333
330
1F
100
AcDbEntity
  8
Capa 1
 62
     7
420
 16777215
370
    18
100
AcDb2dPolyline
 66
     1
 10
0.0
 20
0.0
 30
0.0
  0
VERTEX
  5
334
330
333
100
AcDbEntity
  8
Capa 1
 62
     7
420
 16777215
370
    18
100
AcDbVertex
100
AcDb2dVertex
 10
25.89178737416941
 20
-25.98342691407706
 30
0.0
  0
VERTEX
  5
335
330
333
100
AcDbEntity
  8
Capa 1
 62
     7
420
 16777215
370
    18
100
AcDbVertex
100
AcDb2dVertex
 10
32.60300563421036
 20
-25.98342691407706
 30
0.0
  0
SEQEND
  5
336
330
333
100
AcDbEntity
  8
Capa 1
370
    18
  0
SPLINE
  5
337
330
1F
100
AcDbEntity
  8
Capa 1
 62
     7
420
 16777215
370
    18
100
AcDbSpline
210
0.0
220
0.0
230
1.0
 70
     8
 71
     3
 72
     8
 73
     4
 74
     0
 42
0.0000000001
 43
0.0000000001
 40
0.0
 40
0.0
 40
0.0
 40
0.0
 40
1.0
 40
1.0
 40
1.0
 40
1.0
 10
26.29193521478118
 20
-25.98342691407706
 30
0.0
 10
26.27281493483805
 20
-26.10900064451442
 30
0.0
 10
26.26161837451098
 20
-26.23595241314587
 30
0.0
 10
26.25782876947721
 20
-26.36290418177733
 30
0.0
  0
POLYLINE
  5
338
330
1F
100
AcDbEntity
  8
Capa 1
370
     0
100
AcDb2dPolyline
 66
     1
 10
0.0
 20
0.0
 30
0.0
  0
VERTEX
  5
339
330
338
100
AcDbEntity
  8
Capa 1
370
     0
100
AcDbVertex
100
AcDb2dVertex
 10
30.95435518974405
 20
-48.37310247271576
 30
0.0
  0
VERTEX
  5
33A
330
338
100
AcDbEntity
  8
Capa 1
370
     0
100
AcDbVertex
100
AcDb2dVertex
 10
29.68897161801179
 20
-48.71209986846434
 30
0.0
  0
VERTEX
  5
33B
330
338
100
AcDbEntity
  8
Capa 1
370
     0
100
AcDbVertex
100
AcDb2dVertex
 10
29.68897161801179
 20
-50.88750541262535
 30
0.0
  0
VERTEX
  5
33C
330
338
100
AcDbEntity
  8
Capa 1
370
     0
100
AcDbVertex
100
AcDb2dVertex
 10
30.95435518974405
 20
-50.88750541262535
 30
0.0
  0
VERTEX
  5
33D
330
338
100
AcDbEntity
  8
Capa 1
370
     0
100
AcDbVertex
100
AcDb2dVertex
 10
30.95435518974405
 20
-48.37310247271576
 30
0.0
  0
SEQEND
  5
33E
330
338
100
AcDbEntity
  8
Capa 1
370
     0
  0
POLYLINE
  5
33F
330
1F
100
AcDbEntity
  8
Capa 1
370
     0
100
AcDb2dPolyline
 66
     1
 10
0.0
 20
0.0
 30
0.0
  0
VERTEX
  5
340
330
33F
100
AcDbEntity
  8
Capa 1
370
     0
100
AcDbVertex
100
AcDb2dVertex
 10
30.95435518974405
 20
-47.16352944784454
 30
0.0
  0
VERTEX
  5
341
330
33F
100
AcDbEntity
  8
Capa 1
370
     0
100
AcDbVertex
100
AcDb2dVertex
 10
30.95435518974405
 20
-46.07901338908789
 30
0.0
  0
VERTEX
  5
342
330
33F
100
AcDbEntity
  8
Capa 1
370
     0
100
AcDbVertex
100
AcDb2dVertex
 10
29.68897161801179
 20
-46.07901338908789
 30
0.0
  0
VERTEX
  5
343
330
33F
100
AcDbEntity
  8
Capa 1
370
     0
100
AcDbVertex
100
AcDb2dVertex
 10
29.68897161801179
 20
-47.50287135314164
 30
0.0
  0
VERTEX
  5
344
330
33F
100
AcDbEntity
  8
Capa 1
370
     0
100
AcDbVertex
100
AcDb2dVertex
 10
30.95435518974405
 20
-47.16352944784454
 30
0.0
  0
SEQEND
  5
345
330
33F
100
AcDbEntity
  8
Capa 1
370
     0
  0
POLYLINE
  5
346
330
1F
100
AcDbEntity
  8
Capa 1
 62
   254
420
 14079702
370
    18
100
AcDb2dPolyline
 66
     1
 10
0.0
 20
0.0
 30
0.0
  0
VERTEX
  5
347
330
346
100
AcDbEntity
  8
Capa 1
 62
   254
420
 14079702
370
    18
100
AcDbVertex
100
AcDb2dVertex
 10
29.68897161801179
 20
-46.75614690671375
 30
0.0
  0
VERTEX
  5
348
330
346
100
AcDbEntity
  8
Capa 1
 62
   254
420
 14079702
370
    18
100
AcDbVertex
100
AcDb2dVertex
 10
30.36610513563764
 20
-46.07901338908789
 30
0.0
  0
SEQEND
  5
349
330
346
100
AcDbEntity
  8
Capa 1
370
    18
  0
POLYLINE
  5
34A
330
1F
100
AcDbEntity
  8
Capa 1
 62
   254
420
 14079702
370
    18
100
AcDb2dPolyline
 66
     1
 10
0.0
 20
0.0
 30
0.0
  0
VERTEX
  5
34B
330
34A
100
AcDbEntity
  8
Capa 1
 62
   254
420
 14079702
370
    18
100
AcDbVertex
100
AcDb2dVertex
 10
30.04416096254105
 20
-47.40726995342596
 30
0.0
  0
VERTEX
  5
34C
330
34A
100
AcDbEntity
  8
Capa 1
 62
   254
420
 14079702
370
    18
100
AcDbVertex
100
AcDb2dVertex
 10
30.95435518974405
 20
-46.49742023577148
 30
0.0
  0
SEQEND
  5
34D
330
34A
100
AcDbEntity
  8
Capa 1
370
    18
  0
POLYLINE
  5
34E
330
1F
100
AcDbEntity
  8
Capa 1
 62
   254
420
 14079702
370
    18
100
AcDb2dPolyline
 66
     1
 10
0.0
 20
0.0
 30
0.0
  0
VERTEX
  5
34F
330
34E
100
AcDbEntity
  8
Capa 1
 62
   254
420
 14079702
370
    18
100
AcDbVertex
100
AcDb2dVertex
 10
29.68897161801179
 20
-48.76946070829375
 30
0.0
  0
VERTEX
  5
350
330
34E
100
AcDbEntity
  8
Capa 1
 62
   254
420
 14079702
370
    18
100
AcDbVertex
100
AcDb2dVertex
 10
29.76751979507548
 20
-48.69125704077857
 30
0.0
  0
SEQEND
  5
351
330
34E
100
AcDbEntity
  8
Capa 1
370
    18
  0
POLYLINE
  5
352
330
1F
100
AcDbEntity
  8
Capa 1
 62
   254
420
 14079702
370
    18
100
AcDb2dPolyline
 66
     1
 10
0.0
 20
0.0
 30
0.0
  0
VERTEX
  5
353
330
352
100
AcDbEntity
  8
Capa 1
 62
   254
420
 14079702
370
    18
100
AcDbVertex
100
AcDb2dVertex
 10
29.68897161801179
 20
-49.77594535430948
 30
0.0
  0
VERTEX
  5
354
330
352
100
AcDbEntity
  8
Capa 1
 62
   254
420
 14079702
370
    18
100
AcDbVertex
100
AcDb2dVertex
 10
30.95435518974405
 20
-48.51073403735148
 30
0.0
  0
SEQEND
  5
355
330
352
100
AcDbEntity
  8
Capa 1
370
    18
  0
POLYLINE
  5
356
330
1F
100
AcDbEntity
  8
Capa 1
 62
   254
420
 14079702
370
    18
100
AcDb2dPolyline
 66
     1
 10
0.0
 20
0.0
 30
0.0
  0
VERTEX
  5
357
330
356
100
AcDbEntity
  8
Capa 1
 62
   254
420
 14079702
370
    18
100
AcDbVertex
100
AcDb2dVertex
 10
29.68897161801179
 20
-50.78294676464802
 30
0.0
  0
VERTEX
  5
358
330
356
100
AcDbEntity
  8
Capa 1
 62
   254
420
 14079702
370
    18
100
AcDbVertex
100
AcDb2dVertex
 10
30.95435518974405
 20
-49.51721868336723
 30
0.0
  0
SEQEND
  5
359
330
356
100
AcDbEntity
  8
Capa 1
370
    18
  0
POLYLINE
  5
35A
330
1F
100
AcDbEntity
  8
Capa 1
 62
   254
420
 14079702
370
    18
100
AcDb2dPolyline
 66
     1
 10
0.0
 20
0.0
 30
0.0
  0
VERTEX
  5
35B
330
35A
100
AcDbEntity
  8
Capa 1
 62
   254
420
 14079702
370
    18
100
AcDbVertex
100
AcDb2dVertex
 10
30.59089761605019
 20
-50.88750541262535
 30
0.0
  0
VERTEX
  5
35C
330
35A
100
AcDbEntity
  8
Capa 1
 62
   254
420
 14079702
370
    18
100
AcDbVertex
100
AcDb2dVertex
 10
30.95435518974405
 20
-50.52422009370575
 30
0.0
  0
SEQEND
  5
35D
330
35A
100
AcDbEntity
  8
Capa 1
370
    18
  0
POLYLINE
  5
35E
330
1F
100
AcDbEntity
  8
Capa 1
 62
   254
420
 14079702
370
    18
100
AcDb2dPolyline
 66
     1
 10
0.0
 20
0.0
 30
0.0
  0
VERTEX
  5
35F
330
35E
100
AcDbEntity
  8
Capa 1
 62
   254
420
 14079702
370
    18
100
AcDbVertex
100
AcDb2dVertex
 10
30.2496609082362
 20
-50.88750541262535
 30
0.0
  0
VERTEX
  5
360
330
35E
100
AcDbEntity
  8
Capa 1
 62
   254
420
 14079702
370
    18
100
AcDbVertex
100
AcDb2dVertex
 10
29.68897161801179
 20
-50.3269883771752
 30
0.0
  0
SEQEND
  5
361
330
35E
100
AcDbEntity
  8
Capa 1
370
    18
  0
POLYLINE
  5
362
330
1F
100
AcDbEntity
  8
Capa 1
 62
   254
420
 14079702
370
    18
100
AcDb2dPolyline
 66
     1
 10
0.0
 20
0.0
 30
0.0
  0
VERTEX
  5
363
330
362
100
AcDbEntity
  8
Capa 1
 62
   254
420
 14079702
370
    18
100
AcDbVertex
100
AcDb2dVertex
 10
30.95435518974405
 20
-50.58571504811746
 30
0.0
  0
VERTEX
  5
364
330
362
100
AcDbEntity
  8
Capa 1
 62
   254
420
 14079702
370
    18
100
AcDbVertex
100
AcDb2dVertex
 10
29.68897161801179
 20
-49.3203314763852
 30
0.0
  0
SEQEND
  5
365
330
362
100
AcDbEntity
  8
Capa 1
370
    18
  0
POLYLINE
  5
366
330
1F
100
AcDbEntity
  8
Capa 1
 62
   254
420
 14079702
370
    18
100
AcDb2dPolyline
 66
     1
 10
0.0
 20
0.0
 30
0.0
  0
VERTEX
  5
367
330
366
100
AcDbEntity
  8
Capa 1
 62
   254
420
 14079702
370
    18
100
AcDbVertex
100
AcDb2dVertex
 10
30.95435518974405
 20
-49.57905814732746
 30
0.0
  0
VERTEX
  5
368
330
366
100
AcDbEntity
  8
Capa 1
 62
   254
420
 14079702
370
    18
100
AcDbVertex
100
AcDb2dVertex
 10
30.00316432626657
 20
-48.62803953862424
 30
0.0
  0
SEQEND
  5
369
330
366
100
AcDbEntity
  8
Capa 1
370
    18
  0
POLYLINE
  5
36A
330
1F
100
AcDbEntity
  8
Capa 1
 62
   254
420
 14079702
370
    18
100
AcDb2dPolyline
 66
     1
 10
0.0
 20
0.0
 30
0.0
  0
VERTEX
  5
36B
330
36A
100
AcDbEntity
  8
Capa 1
 62
   254
420
 14079702
370
    18
100
AcDbVertex
100
AcDb2dVertex
 10
30.95435518974405
 20
-48.57240124653746
 30
0.0
  0
VERTEX
  5
36C
330
36A
100
AcDbEntity
  8
Capa 1
 62
   254
420
 14079702
370
    18
100
AcDbVertex
100
AcDb2dVertex
 10
30.79725883561666
 20
-48.4151326376358
 30
0.0
  0
SEQEND
  5
36D
330
36A
100
AcDbEntity
  8
Capa 1
370
    18
  0
POLYLINE
  5
36E
330
1F
100
AcDbEntity
  8
Capa 1
 62
   254
420
 14079702
370
    18
100
AcDb2dPolyline
 66
     1
 10
0.0
 20
0.0
 30
0.0
  0
VERTEX
  5
36F
330
36E
100
AcDbEntity
  8
Capa 1
 62
   254
420
 14079702
370
    18
100
AcDbVertex
100
AcDb2dVertex
 10
29.84331189575098
 20
-47.46135795254438
 30
0.0
  0
VERTEX
  5
370
330
36E
100
AcDbEntity
  8
Capa 1
 62
   254
420
 14079702
370
    18
100
AcDbVertex
100
AcDb2dVertex
 10
29.68897161801179
 20
-47.30667316525667
 30
0.0
  0
SEQEND
  5
371
330
36E
100
AcDbEntity
  8
Capa 1
370
    18
  0
POLYLINE
  5
372
330
1F
100
AcDbEntity
  8
Capa 1
 62
   254
420
 14079702
370
    18
100
AcDb2dPolyline
 66
     1
 10
0.0
 20
0.0
 30
0.0
  0
VERTEX
  5
373
330
372
100
AcDbEntity
  8
Capa 1
 62
   254
420
 14079702
370
    18
100
AcDbVertex
100
AcDb2dVertex
 10
30.63740640510107
 20
-47.24845105155595
 30
0.0
  0
VERTEX
  5
374
330
372
100
AcDbEntity
  8
Capa 1
 62
   254
420
 14079702
370
    18
100
AcDbVertex
100
AcDb2dVertex
 10
29.68897161801179
 20
-46.30018851924093
 30
0.0
  0
SEQEND
  5
375
330
372
100
AcDbEntity
  8
Capa 1
370
    18
  0
POLYLINE
  5
376
330
1F
100
AcDbEntity
  8
Capa 1
 62
   254
420
 14079702
370
    18
100
AcDb2dPolyline
 66
     1
 10
0.0
 20
0.0
 30
0.0
  0
VERTEX
  5
377
330
376
100
AcDbEntity
  8
Capa 1
 62
   254
420
 14079702
370
    18
100
AcDbVertex
100
AcDb2dVertex
 10
30.95435518974405
 20
-46.55874293540893
 30
0.0
  0
VERTEX
  5
378
330
376
100
AcDbEntity
  8
Capa 1
 62
   254
420
 14079702
370
    18
100
AcDbVertex
100
AcDb2dVertex
 10
30.47445338864875
 20
-46.07901338908789
 30
0.0
  0
SEQEND
  5
379
330
376
100
AcDbEntity
  8
Capa 1
370
    18
  0
POLYLINE
  5
37A
330
1F
100
AcDbEntity
  8
Capa 1
  6
AI-Linetype-1
 62
   254
420
 14079702
370
    18
100
AcDb2dPolyline
 66
     1
 10
0.0
 20
0.0
 30
0.0
  0
VERTEX
  5
37B
330
37A
100
AcDbEntity
  8
Capa 1
  6
AI-Linetype-1
 62
   254
420
 14079702
370
    18
100
AcDbVertex
100
AcDb2dVertex
 10
27.33338757997221
 20
-40.03045924563475
 30
0.0
  0
VERTEX
  5
37C
330
37A
100
AcDbEntity
  8
Capa 1
  6
AI-Linetype-1
 62
   254
420
 14079702
370
    18
100
AcDbVertex
100
AcDb2dVertex
 10
27.33338757997221
 20
-40.56513806494552
 30
0.0
  0
SEQEND
  5
37D
330
37A
100
AcDbEntity
  8
Capa 1
  6
AI-Linetype-1
370
    18
  0
POLYLINE
  5
37F
330
1F
100
AcDbEntity
  8
Capa 1
  6
AI-Linetype-2
 62
   254
420
 14079702
370
    18
100
AcDb2dPolyline
 66
     1
 10
0.0
 20
0.0
 30
0.0
  0
VERTEX
  5
380
330
37F
100
AcDbEntity
  8
Capa 1
  6
AI-Linetype-2
 62
   254
420
 14079702
370
    18
100
AcDbVertex
100
AcDb2dVertex
 10
27.33338757997221
 20
-41.83052163667779
 30
0.0
  0
VERTEX
  5
381
330
37F
100
AcDbEntity
  8
Capa 1
  6
AI-Linetype-2
 62
   254
420
 14079702
370
    18
100
AcDbVertex
100
AcDb2dVertex
 10
27.33338757997221
 20
-42.81461316203941
 30
0.0
  0
SEQEND
  5
382
330
37F
100
AcDbEntity
  8
Capa 1
  6
AI-Linetype-2
370
    18
  0
POLYLINE
  5
384
330
1F
100
AcDbEntity
  8
Capa 1
  6
AI-Linetype-3
 62
   254
420
 14079702
370
    18
100
AcDb2dPolyline
 66
     1
 10
0.0
 20
0.0
 30
0.0
  0
VERTEX
  5
385
330
384
100
AcDbEntity
  8
Capa 1
  6
AI-Linetype-3
 62
   254
420
 14079702
370
    18
100
AcDbVertex
100
AcDb2dVertex
 10
31.12988280471753
 20
-40.03045924563475
 30
0.0
  0
VERTEX
  5
386
330
384
100
AcDbEntity
  8
Capa 1
  6
AI-Linetype-3
 62
   254
420
 14079702
370
    18
100
AcDbVertex
100
AcDb2dVertex
 10
31.12988280471753
 20
-40.56513806494552
 30
0.0
  0
SEQEND
  5
387
330
384
100
AcDbEntity
  8
Capa 1
  6
AI-Linetype-3
370
    18
  0
POLYLINE
  5
389
330
1F
100
AcDbEntity
  8
Capa 1
  6
AI-Linetype-4
 62
   254
420
 14079702
370
    18
100
AcDb2dPolyline
 66
     1
 10
0.0
 20
0.0
 30
0.0
  0
VERTEX
  5
38A
330
389
100
AcDbEntity
  8
Capa 1
  6
AI-Linetype-4
 62
   254
420
 14079702
370
    18
100
AcDbVertex
100
AcDb2dVertex
 10
31.12988280471753
 20
-41.83052163667779
 30
0.0
  0
VERTEX
  5
38B
330
389
100
AcDbEntity
  8
Capa 1
  6
AI-Linetype-4
 62
   254
420
 14079702
370
    18
100
AcDbVertex
100
AcDb2dVertex
 10
31.12988280471753
 20
-42.81461316203941
 30
0.0
  0
SEQEND
  5
38C
330
389
100
AcDbEntity
  8
Capa 1
  6
AI-Linetype-4
370
    18
  0
POLYLINE
  5
38E
330
1F
100
AcDbEntity
  8
Capa 1
370
     0
100
AcDb2dPolyline
 66
     1
 10
0.0
 20
0.0
 30
0.0
  0
VERTEX
  5
38F
330
38E
100
AcDbEntity
  8
Capa 1
370
     0
100
AcDbVertex
100
AcDb2dVertex
 10
27.65136989326077
 20
-50.54781899777971
 30
0.0
  0
VERTEX
  5
390
330
38E
100
AcDbEntity
  8
Capa 1
370
     0
100
AcDbVertex
100
AcDb2dVertex
 10
27.65136989326077
 20
-51.38032632179033
 30
0.0
  0
VERTEX
  5
391
330
38E
100
AcDbEntity
  8
Capa 1
370
     0
100
AcDbVertex
100
AcDb2dVertex
 10
28.45821125590628
 20
-51.38032632179033
 30
0.0
  0
VERTEX
  5
392
330
38E
100
AcDbEntity
  8
Capa 1
370
     0
100
AcDbVertex
100
AcDb2dVertex
 10
28.45821125590628
 20
-50.20882160203113
 30
0.0
  0
VERTEX
  5
393
330
38E
100
AcDbEntity
  8
Capa 1
370
     0
100
AcDbVertex
100
AcDb2dVertex
 10
27.65136989326077
 20
-50.54781899777971
 30
0.0
  0
SEQEND
  5
394
330
38E
100
AcDbEntity
  8
Capa 1
370
     0
  0
POLYLINE
  5
395
330
1F
100
AcDbEntity
  8
Capa 1
370
     0
100
AcDb2dPolyline
 66
     1
 10
0.0
 20
0.0
 30
0.0
  0
VERTEX
  5
396
330
395
100
AcDbEntity
  8
Capa 1
370
     0
100
AcDbVertex
100
AcDb2dVertex
 10
28.45821125590628
 20
-45.58929306585962
 30
0.0
  0
VERTEX
  5
397
330
395
100
AcDbEntity
  8
Capa 1
370
     0
100
AcDbVertex
100
AcDb2dVertex
 10
27.65136989326077
 20
-45.58929306585962
 30
0.0
  0
VERTEX
  5
398
330
395
100
AcDbEntity
  8
Capa 1
370
     0
100
AcDbVertex
100
AcDb2dVertex
 10
27.65136989326077
 20
-49.94509954263525
 30
0.0
  0
VERTEX
  5
399
330
395
100
AcDbEntity
  8
Capa 1
370
     0
100
AcDbVertex
100
AcDb2dVertex
 10
28.45821125590628
 20
-49.60610214688667
 30
0.0
  0
VERTEX
  5
39A
330
395
100
AcDbEntity
  8
Capa 1
370
     0
100
AcDbVertex
100
AcDb2dVertex
 10
28.45821125590628
 20
-45.58929306585962
 30
0.0
  0
SEQEND
  5
39B
330
395
100
AcDbEntity
  8
Capa 1
370
     0
  0
POLYLINE
  5
39C
330
1F
100
AcDbEntity
  8
Capa 1
 62
   254
420
 14079702
370
    18
100
AcDb2dPolyline
 66
     1
 10
0.0
 20
0.0
 30
0.0
  0
VERTEX
  5
39D
330
39C
100
AcDbEntity
  8
Capa 1
 62
   254
420
 14079702
370
    18
100
AcDbVertex
100
AcDb2dVertex
 10
27.65136989326077
 20
-45.88970539217341
 30
0.0
  0
VERTEX
  5
39E
330
39C
100
AcDbEntity
  8
Capa 1
 62
   254
420
 14079702
370
    18
100
AcDbVertex
100
AcDb2dVertex
 10
27.95178221957456
 20
-45.58929306585962
 30
0.0
  0
SEQEND
  5
39F
330
39C
100
AcDbEntity
  8
Capa 1
370
    18
  0
POLYLINE
  5
3A0
330
1F
100
AcDbEntity
  8
Capa 1
 62
   254
420
 14079702
370
    18
100
AcDb2dPolyline
 66
     1
 10
0.0
 20
0.0
 30
0.0
  0
VERTEX
  5
3A1
330
3A0
100
AcDbEntity
  8
Capa 1
 62
   254
420
 14079702
370
    18
100
AcDbVertex
100
AcDb2dVertex
 10
27.65136989326077
 20
-46.89636229296341
 30
0.0
  0
VERTEX
  5
3A2
330
3A0
100
AcDbEntity
  8
Capa 1
 62
   254
420
 14079702
370
    18
100
AcDbVertex
100
AcDb2dVertex
 10
28.45821125590628
 20
-46.08934867554364
 30
0.0
  0
SEQEND
  5
3A3
330
3A0
100
AcDbEntity
  8
Capa 1
370
    18
  0
POLYLINE
  5
3A4
330
1F
100
AcDbEntity
  8
Capa 1
 62
   254
420
 14079702
370
    18
100
AcDb2dPolyline
 66
     1
 10
0.0
 20
0.0
 30
0.0
  0
VERTEX
  5
3A5
330
3A4
100
AcDbEntity
  8
Capa 1
 62
   254
420
 14079702
370
    18
100
AcDbVertex
100
AcDb2dVertex
 10
27.65136989326077
 20
-47.90301919375342
 30
0.0
  0
VERTEX
  5
3A6
330
3A4
100
AcDbEntity
  8
Capa 1
 62
   254
420
 14079702
370
    18
100
AcDbVertex
100
AcDb2dVertex
 10
28.45821125590628
 20
-47.09600557633364
 30
0.0
  0
SEQEND
  5
3A7
330
3A4
100
AcDbEntity
  8
Capa 1
370
    18
  0
POLYLINE
  5
3A8
330
1F
100
AcDbEntity
  8
Capa 1
 62
   254
420
 14079702
370
    18
100
AcDb2dPolyline
 66
     1
 10
0.0
 20
0.0
 30
0.0
  0
VERTEX
  5
3A9
330
3A8
100
AcDbEntity
  8
Capa 1
 62
   254
420
 14079702
370
    18
100
AcDbVertex
100
AcDb2dVertex
 10
27.65136989326077
 20
-48.90967609454341
 30
0.0
  0
VERTEX
  5
3AA
330
3A8
100
AcDbEntity
  8
Capa 1
 62
   254
420
 14079702
370
    18
100
AcDbVertex
100
AcDb2dVertex
 10
28.45821125590628
 20
-48.10266247712364
 30
0.0
  0
SEQEND
  5
3AB
330
3A8
100
AcDbEntity
  8
Capa 1
370
    18
  0
POLYLINE
  5
3AC
330
1F
100
AcDbEntity
  8
Capa 1
 62
   254
420
 14079702
370
    18
100
AcDb2dPolyline
 66
     1
 10
0.0
 20
0.0
 30
0.0
  0
VERTEX
  5
3AD
330
3AC
100
AcDbEntity
  8
Capa 1
 62
   254
420
 14079702
370
    18
100
AcDbVertex
100
AcDb2dVertex
 10
27.65136989326077
 20
-49.91650525010768
 30
0.0
  0
VERTEX
  5
3AE
330
3AC
100
AcDbEntity
  8
Capa 1
 62
   254
420
 14079702
370
    18
100
AcDbVertex
100
AcDb2dVertex
 10
28.45821125590628
 20
-49.10949163268791
 30
0.0
  0
SEQEND
  5
3AF
330
3AC
100
AcDbEntity
  8
Capa 1
370
    18
  0
POLYLINE
  5
3B0
330
1F
100
AcDbEntity
  8
Capa 1
 62
   254
420
 14079702
370
    18
100
AcDb2dPolyline
 66
     1
 10
0.0
 20
0.0
 30
0.0
  0
VERTEX
  5
3B1
330
3B0
100
AcDbEntity
  8
Capa 1
 62
   254
420
 14079702
370
    18
100
AcDbVertex
100
AcDb2dVertex
 10
27.65136989326077
 20
-50.92316215089768
 30
0.0
  0
VERTEX
  5
3B2
330
3B0
100
AcDbEntity
  8
Capa 1
 62
   254
420
 14079702
370
    18
100
AcDbVertex
100
AcDb2dVertex
 10
28.29870333493922
 20
-50.27582870921924
 30
0.0
  0
SEQEND
  5
3B3
330
3B0
100
AcDbEntity
  8
Capa 1
370
    18
  0
POLYLINE
  5
3B4
330
1F
100
AcDbEntity
  8
Capa 1
 62
   254
420
 14079702
370
    18
100
AcDb2dPolyline
 66
     1
 10
0.0
 20
0.0
 30
0.0
  0
VERTEX
  5
3B5
330
3B4
100
AcDbEntity
  8
Capa 1
 62
   254
420
 14079702
370
    18
100
AcDbVertex
100
AcDb2dVertex
 10
28.20103487793238
 20
-51.38032632179033
 30
0.0
  0
VERTEX
  5
3B6
330
3B4
100
AcDbEntity
  8
Capa 1
 62
   254
420
 14079702
370
    18
100
AcDbVertex
100
AcDb2dVertex
 10
28.45821125590628
 20
-51.12280543426791
 30
0.0
  0
SEQEND
  5
3B7
330
3B4
100
AcDbEntity
  8
Capa 1
370
    18
  0
POLYLINE
  5
3B8
330
1F
100
AcDbEntity
  8
Capa 1
 62
   254
420
 14079702
370
    18
100
AcDb2dPolyline
 66
     1
 10
0.0
 20
0.0
 30
0.0
  0
VERTEX
  5
3B9
330
3B8
100
AcDbEntity
  8
Capa 1
 62
   254
420
 14079702
370
    18
100
AcDbVertex
100
AcDb2dVertex
 10
27.85204670527657
 20
-51.38032632179033
 30
0.0
  0
VERTEX
  5
3BA
330
3B8
100
AcDbEntity
  8
Capa 1
 62
   254
420
 14079702
370
    18
100
AcDbVertex
100
AcDb2dVertex
 10
27.65136989326077
 20
-51.17947725500027
 30
0.0
  0
SEQEND
  5
3BB
330
3B8
100
AcDbEntity
  8
Capa 1
370
    18
  0
POLYLINE
  5
3BC
330
1F
100
AcDbEntity
  8
Capa 1
 62
   254
420
 14079702
370
    18
100
AcDb2dPolyline
 66
     1
 10
0.0
 20
0.0
 30
0.0
  0
VERTEX
  5
3BD
330
3BC
100
AcDbEntity
  8
Capa 1
 62
   254
420
 14079702
370
    18
100
AcDbVertex
100
AcDb2dVertex
 10
28.45821125590628
 20
-50.97983397163004
 30
0.0
  0
VERTEX
  5
3BE
330
3BC
100
AcDbEntity
  8
Capa 1
 62
   254
420
 14079702
370
    18
100
AcDbVertex
100
AcDb2dVertex
 10
27.91526420743091
 20
-50.43688692315467
 30
0.0
  0
SEQEND
  5
3BF
330
3BC
100
AcDbEntity
  8
Capa 1
370
    18
  0
POLYLINE
  5
3C0
330
1F
100
AcDbEntity
  8
Capa 1
 62
   254
420
 14079702
370
    18
100
AcDb2dPolyline
 66
     1
 10
0.0
 20
0.0
 30
0.0
  0
VERTEX
  5
3C1
330
3C0
100
AcDbEntity
  8
Capa 1
 62
   254
420
 14079702
370
    18
100
AcDbVertex
100
AcDb2dVertex
 10
28.19982909451254
 20
-49.7147949094463
 30
0.0
  0
VERTEX
  5
3C2
330
3C0
100
AcDbEntity
  8
Capa 1
 62
   254
420
 14079702
370
    18
100
AcDbVertex
100
AcDb2dVertex
 10
27.65136989326077
 20
-49.16633570819453
 30
0.0
  0
SEQEND
  5
3C3
330
3C0
100
AcDbEntity
  8
Capa 1
370
    18
  0
POLYLINE
  5
3C4
330
1F
100
AcDbEntity
  8
Capa 1
 62
   254
420
 14079702
370
    18
100
AcDb2dPolyline
 66
     1
 10
0.0
 20
0.0
 30
0.0
  0
VERTEX
  5
3C5
330
3C4
100
AcDbEntity
  8
Capa 1
 62
   254
420
 14079702
370
    18
100
AcDbVertex
100
AcDb2dVertex
 10
28.45821125590628
 20
-48.9666924248243
 30
0.0
  0
VERTEX
  5
3C6
330
3C4
100
AcDbEntity
  8
Capa 1
 62
   254
420
 14079702
370
    18
100
AcDbVertex
100
AcDb2dVertex
 10
27.65136989326077
 20
-48.15967880740453
 30
0.0
  0
SEQEND
  5
3C7
330
3C4
100
AcDbEntity
  8
Capa 1
370
    18
  0
POLYLINE
  5
3C8
330
1F
100
AcDbEntity
  8
Capa 1
 62
   254
420
 14079702
370
    18
100
AcDb2dPolyline
 66
     1
 10
0.0
 20
0.0
 30
0.0
  0
VERTEX
  5
3C9
330
3C8
100
AcDbEntity
  8
Capa 1
 62
   254
420
 14079702
370
    18
100
AcDbVertex
100
AcDb2dVertex
 10
28.45821125590628
 20
-47.9600355240343
 30
0.0
  0
VERTEX
  5
3CA
330
3C8
100
AcDbEntity
  8
Capa 1
 62
   254
420
 14079702
370
    18
100
AcDbVertex
100
AcDb2dVertex
 10
27.65136989326077
 20
-47.152677397066
 30
0.0
  0
SEQEND
  5
3CB
330
3C8
100
AcDbEntity
  8
Capa 1
370
    18
  0
POLYLINE
  5
3CC
330
1F
100
AcDbEntity
  8
Capa 1
 62
   254
420
 14079702
370
    18
100
AcDb2dPolyline
 66
     1
 10
0.0
 20
0.0
 30
0.0
  0
VERTEX
  5
3CD
330
3CC
100
AcDbEntity
  8
Capa 1
 62
   254
420
 14079702
370
    18
100
AcDbVertex
100
AcDb2dVertex
 10
28.45821125590628
 20
-46.95303411369577
 30
0.0
  0
VERTEX
  5
3CE
330
3CC
100
AcDbEntity
  8
Capa 1
 62
   254
420
 14079702
370
    18
100
AcDbVertex
100
AcDb2dVertex
 10
27.65136989326077
 20
-46.14602049627599
 30
0.0
  0
SEQEND
  5
3CF
330
3CC
100
AcDbEntity
  8
Capa 1
370
    18
  0
POLYLINE
  5
3D0
330
1F
100
AcDbEntity
  8
Capa 1
 62
   254
420
 14079702
370
    18
100
AcDb2dPolyline
 66
     1
 10
0.0
 20
0.0
 30
0.0
  0
VERTEX
  5
3D1
330
3D0
100
AcDbEntity
  8
Capa 1
 62
   254
420
 14079702
370
    18
100
AcDbVertex
100
AcDb2dVertex
 10
28.45821125590628
 20
-45.94637721290577
 30
0.0
  0
VERTEX
  5
3D2
330
3D0
100
AcDbEntity
  8
Capa 1
 62
   254
420
 14079702
370
    18
100
AcDbVertex
100
AcDb2dVertex
 10
28.10112710886014
 20
-45.58929306585962
 30
0.0
  0
SEQEND
  5
3D3
330
3D0
100
AcDbEntity
  8
Capa 1
370
    18
  0
POLYLINE
  5
3D4
330
1F
100
AcDbEntity
  8
Capa 1
  6
AI-Linetype-5
 62
   254
420
 14079702
370
    18
100
AcDb2dPolyline
 66
     1
 10
0.0
 20
0.0
 30
0.0
  0
VERTEX
  5
3D5
330
3D4
100
AcDbEntity
  8
Capa 1
  6
AI-Linetype-5
 62
   254
420
 14079702
370
    18
100
AcDbVertex
100
AcDb2dVertex
 10
50.35609943402556
 20
-37.74308809820312
 30
0.0
  0
VERTEX
  5
3D6
330
3D4
100
AcDbEntity
  8
Capa 1
  6
AI-Linetype-5
 62
   254
420
 14079702
370
    18
100
AcDbVertex
100
AcDb2dVertex
 10
50.35609943402556
 20
-38.28017848435357
 30
0.0
  0
SEQEND
  5
3D7
330
3D4
100
AcDbEntity
  8
Capa 1
  6
AI-Linetype-5
370
    18
  0
POLYLINE
  5
3D9
330
1F
100
AcDbEntity
  8
Capa 1
  6
AI-Linetype-6
 62
   254
420
 14079702
370
    18
100
AcDb2dPolyline
 66
     1
 10
0.0
 20
0.0
 30
0.0
  0
VERTEX
  5
3DA
330
3D9
100
AcDbEntity
  8
Capa 1
  6
AI-Linetype-6
 62
   254
420
 14079702
370
    18
100
AcDbVertex
100
AcDb2dVertex
 10
50.35609943402556
 20
-38.78643526591103
 30
0.0
  0
VERTEX
  5
3DB
330
3D9
100
AcDbEntity
  8
Capa 1
  6
AI-Linetype-6
 62
   254
420
 14079702
370
    18
100
AcDbVertex
100
AcDb2dVertex
 10
50.35609943402556
 20
-39.51507296104137
 30
0.0
  0
SEQEND
  5
3DC
330
3D9
100
AcDbEntity
  8
Capa 1
  6
AI-Linetype-6
370
    18
  0
POLYLINE
  5
3DE
330
1F
100
AcDbEntity
  8
Capa 1
  6
AI-Linetype-7
 62
   254
420
 14079702
370
    18
100
AcDb2dPolyline
 66
     1
 10
0.0
 20
0.0
 30
0.0
  0
VERTEX
  5
3DF
330
3DE
100
AcDbEntity
  8
Capa 1
  6
AI-Linetype-7
 62
   254
420
 14079702
370
    18
100
AcDbVertex
100
AcDb2dVertex
 10
52.12773978731529
 20
-37.74308809820312
 30
0.0
  0
VERTEX
  5
3E0
330
3DE
100
AcDbEntity
  8
Capa 1
  6
AI-Linetype-7
 62
   254
420
 14079702
370
    18
100
AcDbVertex
100
AcDb2dVertex
 10
52.12773978731529
 20
-38.28017848435357
 30
0.0
  0
SEQEND
  5
3E1
330
3DE
100
AcDbEntity
  8
Capa 1
  6
AI-Linetype-7
370
    18
  0
POLYLINE
  5
3E3
330
1F
100
AcDbEntity
  8
Capa 1
  6
AI-Linetype-8
 62
   254
420
 14079702
370
    18
100
AcDb2dPolyline
 66
     1
 10
0.0
 20
0.0
 30
0.0
  0
VERTEX
  5
3E4
330
3E3
100
AcDbEntity
  8
Capa 1
  6
AI-Linetype-8
 62
   254
420
 14079702
370
    18
100
AcDbVertex
100
AcDb2dVertex
 10
52.12773978731529
 20
-38.78643526591103
 30
0.0
  0
VERTEX
  5
3E5
330
3E3
100
AcDbEntity
  8
Capa 1
  6
AI-Linetype-8
 62
   254
420
 14079702
370
    18
100
AcDbVertex
100
AcDb2dVertex
 10
52.12773978731529
 20
-39.51507296104137
 30
0.0
  0
SEQEND
  5
3E6
330
3E3
100
AcDbEntity
  8
Capa 1
  6
AI-Linetype-8
370
    18
  0
INSERT
  5
3E9
330
1F
100
AcDbEntity
  8
Capa 1
100
AcDbBlockReference
  2
block 2
 10
0.0
 20
0.0
 30
0.0
  0
INSERT
  5
3F1
330
1F
100
AcDbEntity
  8
Capa 1
100
AcDbBlockReference
  2
block 3
 10
0.0
 20
0.0
 30
0.0
  0
INSERT
  5
3F9
330
1F
100
AcDbEntity
  8
Capa 1
100
AcDbBlockReference
  2
block 4
 10
0.0
 20
0.0
 30
0.0
  0
INSERT
  5
401
330
1F
100
AcDbEntity
  8
Capa 1
100
AcDbBlockReference
  2
block 5
 10
0.0
 20
0.0
 30
0.0
  0
INSERT
  5
409
330
1F
100
AcDbEntity
  8
Capa 1
100
AcDbBlockReference
  2
block 6
 10
0.0
 20
0.0
 30
0.0
  0
INSERT
  5
411
330
1F
100
AcDbEntity
  8
Capa 1
100
AcDbBlockReference
  2
block 7
 10
0.0
 20
0.0
 30
0.0
  0
INSERT
  5
419
330
1F
100
AcDbEntity
  8
Capa 1
100
AcDbBlockReference
  2
block 8
 10
0.0
 20
0.0
 30
0.0
  0
INSERT
  5
421
330
1F
100
AcDbEntity
  8
Capa 1
100
AcDbBlockReference
  2
block 9
 10
0.0
 20
0.0
 30
0.0
  0
INSERT
  5
429
330
1F
100
AcDbEntity
  8
Capa 1
100
AcDbBlockReference
  2
block 10
 10
0.0
 20
0.0
 30
0.0
  0
INSERT
  5
431
330
1F
100
AcDbEntity
  8
Capa 1
100
AcDbBlockReference
  2
block 11
 10
0.0
 20
0.0
 30
0.0
  0
INSERT
  5
439
330
1F
100
AcDbEntity
  8
Capa 1
100
AcDbBlockReference
  2
block 12
 10
0.0
 20
0.0
 30
0.0
  0
INSERT
  5
441
330
1F
100
AcDbEntity
  8
Capa 1
100
AcDbBlockReference
  2
block 13
 10
0.0
 20
0.0
 30
0.0
  0
INSERT
  5
449
330
1F
100
AcDbEntity
  8
Capa 1
100
AcDbBlockReference
  2
block 14
 10
0.0
 20
0.0
 30
0.0
  0
INSERT
  5
451
330
1F
100
AcDbEntity
  8
Capa 1
100
AcDbBlockReference
  2
block 15
 10
0.0
 20
0.0
 30
0.0
  0
INSERT
  5
459
330
1F
100
AcDbEntity
  8
Capa 1
100
AcDbBlockReference
  2
block 16
 10
0.0
 20
0.0
 30
0.0
  0
INSERT
  5
461
330
1F
100
AcDbEntity
  8
Capa 1
100
AcDbBlockReference
  2
block 17
 10
0.0
 20
0.0
 30
0.0
  0
INSERT
  5
469
330
1F
100
AcDbEntity
  8
Capa 1
100
AcDbBlockReference
  2
block 18
 10
0.0
 20
0.0
 30
0.0
  0
INSERT
  5
471
330
1F
100
AcDbEntity
  8
Capa 1
100
AcDbBlockReference
  2
block 19
 10
0.0
 20
0.0
 30
0.0
  0
INSERT
  5
479
330
1F
100
AcDbEntity
  8
Capa 1
100
AcDbBlockReference
  2
block 20
 10
0.0
 20
0.0
 30
0.0
  0
INSERT
  5
481
330
1F
100
AcDbEntity
  8
Capa 1
100
AcDbBlockReference
  2
block 21
 10
0.0
 20
0.0
 30
0.0
  0
INSERT
  5
489
330
1F
100
AcDbEntity
  8
Capa 1
100
AcDbBlockReference
  2
block 22
 10
0.0
 20
0.0
 30
0.0
  0
ENDSEC
  0
SECTION
  2
OBJECTS
  0
DICTIONARY
  5
C
330
0
100
AcDbDictionary
281
     1
  3
ACAD_GROUP
350
D
  3
ACAD_LAYOUT
350
1A
  3
ACAD_MLINESTYLE
350
17
  3
ACAD_PLOTSETTINGS
350
19
  3
ACAD_PLOTSTYLENAME
350
E
  3
ACAD_TABLESTYLE
350
490
  3
ACAD_VISUALSTYLE
350
2A
  0
DICTIONARY
  5
D
102
{ACAD_REACTORS
330
C
102
}
330
C
100
AcDbDictionary
281
     1
  0
DICTIONARY
  5
1A
102
{ACAD_REACTORS
330
C
102
}
330
C
100
AcDbDictionary
281
     1
  3
Layout1
350
1E
  3
Layout2
350
26
  3
Model
350
22
  0
DICTIONARY
  5
17
102
{ACAD_REACTORS
330
C
102
}
330
C
100
AcDbDictionary
281
     1
  3
Standard
350
18
  0
DICTIONARY
  5
19
102
{ACAD_REACTORS
330
C
102
}
330
C
100
AcDbDictionary
281
     1
  0
ACDBDICTIONARYWDFLT
  5
E
102
{ACAD_REACTORS
330
C
102
}
330
C
100
AcDbDictionary
281
     1
  3
Normal
350
F
100
AcDbDictionaryWithDefault
340
F
  0
DICTIONARY
  5
490
102
{ACAD_REACTORS
330
C
102
}
330
C
100
AcDbDictionary
281
     1
  0
DICTIONARY
  5
2A
102
{ACAD_REACTORS
330
C
102
}
330
C
100
AcDbDictionary
281
     1
  3
2dWireframe
350
2F
  3
3D Hidden
350
31
  3
3dWireframe
350
30
  3
Basic
350
32
  3
Brighten
350
36
  3
ColorChange
350
3A
  3
Conceptual
350
34
  3
Dim
350
35
  3
Facepattern
350
39
  3
Flat
350
2B
  3
FlatWithEdges
350
2C
  3
Gouraud
350
2D
  3
GouraudWithEdges
350
2E
  3
Linepattern
350
38
  3
Realistic
350
33
  3
Thicken
350
37
  0
LAYOUT
  5
1E
102
{ACAD_REACTORS
330
1A
102
}
330
1A
100
AcDbPlotSettings
  1

  2
none_device
  4

  6

 40
0.0
 41
0.0
 42
0.0
 43
0.0
 44
0.0
 45
0.0
 46
0.0
 47
0.0
 48
0.0
 49
0.0
140
0.0
141
0.0
142
1.0
143
1.0
 70
   688
 72
     0
 73
     0
 74
     5
  7

 75
    16
 76
     0
 77
     2
 78
   300
147
1.0
148
0.0
149
0.0
100
AcDbLayout
  1
Layout1
 70
     1
 71
     1
 10
0.0
 20
0.0
 11
12.0
 21
9.0
 12
0.0
 22
0.0
 32
0.0
 14
1.000000000000000E+20
 24
1.000000000000000E+20
 34
1.000000000000000E+20
 15
-1.000000000000000E+20
 25
-1.000000000000000E+20
 35
-1.000000000000000E+20
146
0.0
 13
0.0
 23
0.0
 33
0.0
 16
1.0
 26
0.0
 36
0.0
 17
0.0
 27
1.0
 37
0.0
 76
     0
330
1B
  0
LAYOUT
  5
26
102
{ACAD_REACTORS
330
1A
102
}
330
1A
100
AcDbPlotSettings
  1

  2
none_device
  4

  6

 40
0.0
 41
0.0
 42
0.0
 43
0.0
 44
0.0
 45
0.0
 46
0.0
 47
0.0
 48
0.0
 49
0.0
140
0.0
141
0.0
142
1.0
143
1.0
 70
   688
 72
     0
 73
     0
 74
     5
  7

 75
    16
 76
     0
 77
     2
 78
   300
147
1.0
148
0.0
149
0.0
100
AcDbLayout
  1
Layout2
 70
     1
 71
     2
 10
0.0
 20
0.0
 11
0.0
 21
0.0
 12
0.0
 22
0.0
 32
0.0
 14
0.0
 24
0.0
 34
0.0
 15
0.0
 25
0.0
 35
0.0
146
0.0
 13
0.0
 23
0.0
 33
0.0
 16
1.0
 26
0.0
 36
0.0
 17
0.0
 27
1.0
 37
0.0
 76
     0
330
23
  0
LAYOUT
  5
22
102
{ACAD_REACTORS
330
1A
102
}
330
1A
100
AcDbPlotSettings
  1

  2
none_device
  4

  6

 40
0.0
 41
0.0
 42
0.0
 43
0.0
 44
0.0
 45
0.0
 46
0.0
 47
0.0
 48
0.0
 49
0.0
140
0.0
141
0.0
142
1.0
143
1.0
 70
  1712
 72
     0
 73
     0
 74
     0
  7

 75
     0
 76
     0
 77
     2
 78
   300
147
1.0
148
0.0
149
0.0
100
AcDbLayout
  1
Model
 70
     1
 71
     0
 10
0.0
 20
0.0
 11
12.0
 21
9.0
 12
0.0
 22
0.0
 32
0.0
 14
1.000000000000000E+20
 24
1.000000000000000E+20
 34
1.000000000000000E+20
 15
-1.000000000000000E+20
 25
-1.000000000000000E+20
 35
-1.000000000000000E+20
146
0.0
 13
0.0
 23
0.0
 33
0.0
 16
1.0
 26
0.0
 36
0.0
 17
0.0
 27
1.0
 37
0.0
 76
     0
330
1F
331
29
  0
MLINESTYLE
  5
18
102
{ACAD_REACTORS
330
17
102
}
330
17
100
AcDbMlineStyle
  2
Standard
 70
     0
  3

 62
   256
 51
90.0
 52
90.0
 71
     2
 49
0.5
 62
   256
  6
BYLAYER
 49
-0.5
 62
   256
  6
BYLAYER
  0
ACDBPLACEHOLDER
  5
F
102
{ACAD_REACTORS
330
E
102
}
330
E
  0
VISUALSTYLE
  5
2F
102
{ACAD_REACTORS
330
2A
102
}
330
2A
100
AcDbVisualStyle
  2
2dWireframe
 70
     4
 71
     0
 72
     2
 73
     0
 90
        0
 40
-0.6
 41
-30.0
 62
     5
 63
     7
421
 16777215
 74
     1
 91
        4
 64
     7
 65
   257
 75
     1
175
     1
 42
1.0
 92
        0
 66
   257
 43
1.0
 76
     1
 77
     6
 78
     2
 67
     7
 79
     5
170
     0
171
     0
290
     0
174
     0
 93
        1
 44
0.0
173
     0
291
     0
 45
0.0
1001
ACAD
1000
AcDbSavedByObjectVersion
1070
     0
  0
VISUALSTYLE
  5
31
102
{ACAD_REACTORS
330
2A
102
}
330
2A
100
AcDbVisualStyle
  2
3D Hidden
 70
     6
 71
     1
 72
     2
 73
     2
 90
        0
 40
-0.6
 41
-30.0
 62
     5
 63
     7
421
 16777215
 74
     2
 91
        2
 64
     7
 65
   257
 75
     2
175
     1
 42
40.0
 92
        0
 66
   257
 43
1.0
 76
     1
 77
     6
 78
     2
 67
     7
 79
     3
170
     0
171
     0
290
     0
174
     0
 93
        1
 44
0.0
173
     0
291
     0
 45
0.0
1001
ACAD
1000
AcDbSavedByObjectVersion
1070
     0
  0
VISUALSTYLE
  5
30
102
{ACAD_REACTORS
330
2A
102
}
330
2A
100
AcDbVisualStyle
  2
3dWireframe
 70
     5
 71
     0
 72
     2
 73
     0
 90
        0
 40
-0.6
 41
-30.0
 62
     5
 63
     7
421
 16777215
 74
     1
 91
        4
 64
     7
 65
   257
 75
     1
175
     1
 42
1.0
 92
        0
 66
   257
 43
1.0
 76
     1
 77
     6
 78
     2
 67
     7
 79
     5
170
     0
171
     0
290
     0
174
     0
 93
        1
 44
0.0
173
     0
291
     0
 45
0.0
1001
ACAD
1000
AcDbSavedByObjectVersion
1070
     0
  0
VISUALSTYLE
  5
32
102
{ACAD_REACTORS
330
2A
102
}
330
2A
100
AcDbVisualStyle
  2
Basic
 70
     7
 71
     1
 72
     0
 73
     1
 90
        0
 40
-0.6
 41
-30.0
 62
     5
 63
     7
421
 16777215
 74
     0
 91
        4
 64
     7
 65
   257
 75
     1
175
     1
 42
1.0
 92
        8
 66
     7
 43
1.0
 76
     1
 77
     6
 78
     2
 67
     7
 79
     5
170
     0
171
     0
290
     0
174
     0
 93
        1
 44
0.0
173
     0
291
     1
 45
0.0
1001
ACAD
1000
AcDbSavedByObjectVersion
1070
     0
  0
VISUALSTYLE
  5
36
102
{ACAD_REACTORS
330
2A
102
}
330
2A
100
AcDbVisualStyle
  2
Brighten
 70
    12
 71
     2
 72
     2
 73
     0
 90
        0
 40
-0.6
 41
-30.0
 62
     5
 63
     7
421
 16777215
 74
     1
 91
        4
 64
     7
 65
   257
 75
     1
175
     1
 42
1.0
 92
        8
 66
     7
 43
1.0
 76
     1
 77
     6
 78
     2
 67
     7
 79
     5
170
     0
171
     0
290
     0
174
     0
 93
        1
 44
50.0
173
     0
291
     1
 45
0.0
1001
ACAD
1000
AcDbSavedByObjectVersion
1070
     0
  0
VISUALSTYLE
  5
3A
102
{ACAD_REACTORS
330
2A
102
}
330
2A
100
AcDbVisualStyle
  2
ColorChange
 70
    16
 71
     2
 72
     2
 73
     3
 90
        0
 40
-0.6
 41
-30.0
 62
     5
 63
     8
421
  8421504
 74
     1
 91
        4
 64
     7
 65
   257
 75
     1
175
     1
 42
1.0
 92
        8
 66
     8
424
  8421504
 43
1.0
 76
     1
 77
     6
 78
     2
 67
     7
 79
     5
170
     0
171
     0
290
     0
174
     0
 93
        1
 44
0.0
173
     0
291
     1
 45
0.0
1001
ACAD
1000
AcDbSavedByObjectVersion
1070
     0
  0
VISUALSTYLE
  5
34
102
{ACAD_REACTORS
330
2A
102
}
330
2A
100
AcDbVisualStyle
  2
Conceptual
 70
     9
 71
     3
 72
     2
 73
     0
 90
        0
 40
-0.6
 41
-30.0
 62
     5
 63
     7
421
 16777215
 74
     2
 91
        2
 64
     7
 65
   257
 75
     1
175
     1
 42
40.0
 92
        8
 66
     7
 43
1.0
 76
     1
 77
     6
 78
     2
 67
     7
 79
     3
170
     0
171
     0
290
     0
174
     0
 93
        1
 44
0.0
173
     0
291
     0
 45
0.0
1001
ACAD
1000
AcDbSavedByObjectVersion
1070
     0
  0
VISUALSTYLE
  5
35
102
{ACAD_REACTORS
330
2A
102
}
330
2A
100
AcDbVisualStyle
  2
Dim
 70
    11
 71
     2
 72
     2
 73
     0
 90
        0
 40
-0.6
 41
-30.0
 62
     5
 63
     7
421
 16777215
 74
     1
 91
        4
 64
     7
 65
   257
 75
     1
175
     1
 42
1.0
 92
        8
 66
     7
 43
1.0
 76
     1
 77
     6
 78
     2
 67
     7
 79
     5
170
     0
171
     0
290
     0
174
     0
 93
        1
 44
-50.0
173
     0
291
     1
 45
0.0
1001
ACAD
1000
AcDbSavedByObjectVersion
1070
     0
  0
VISUALSTYLE
  5
39
102
{ACAD_REACTORS
330
2A
102
}
330
2A
100
AcDbVisualStyle
  2
Facepattern
 70
    15
 71
     2
 72
     2
 73
     0
 90
        0
 40
-0.6
 41
-30.0
 62
     5
 63
     7
421
 16777215
 74
     1
 91
        4
 64
     7
 65
   257
 75
     1
175
     1
 42
1.0
 92
        8
 66
     7
 43
1.0
 76
     1
 77
     6
 78
     2
 67
     7
 79
     5
170
     0
171
     0
290
     0
174
     0
 93
        1
 44
0.0
173
     0
291
     1
 45
0.0
1001
ACAD
1000
AcDbSavedByObjectVersion
1070
     0
  0
VISUALSTYLE
  5
2B
102
{ACAD_REACTORS
330
2A
102
}
330
2A
100
AcDbVisualStyle
  2
Flat
 70
     0
 71
     2
 72
     1
 73
     1
 90
        2
 40
-0.6
 41
30.0
 62
     5
 63
     7
421
 16777215
 74
     0
 91
        4
 64
     7
 65
   257
 75
     1
175
     1
 42
1.0
 92
        8
 66
     7
 43
1.0
 76
     1
 77
     6
 78
     2
 67
     7
 79
     5
170
     0
171
     0
290
     0
174
     0
 93
       13
 44
0.0
173
     0
291
     1
 45
0.0
1001
ACAD
1000
AcDbSavedByObjectVersion
1070
     0
  0
VISUALSTYLE
  5
2C
102
{ACAD_REACTORS
330
2A
102
}
330
2A
100
AcDbVisualStyle
  2
FlatWithEdges
 70
     1
 71
     2
 72
     1
 73
     1
 90
        2
 40
-0.6
 41
30.0
 62
     5
 63
     7
421
 16777215
 74
     1
 91
        4
 64
     7
 65
   257
 75
     1
175
     1
 42
1.0
 92
        0
 66
   257
 43
1.0
 76
     1
 77
     6
 78
     2
 67
     7
 79
     5
170
     0
171
     0
290
     0
174
     0
 93
       13
 44
0.0
173
     0
291
     1
 45
0.0
1001
ACAD
1000
AcDbSavedByObjectVersion
1070
     0
  0
VISUALSTYLE
  5
2D
102
{ACAD_REACTORS
330
2A
102
}
330
2A
100
AcDbVisualStyle
  2
Gouraud
 70
     2
 71
     2
 72
     2
 73
     1
 90
        2
 40
-0.6
 41
30.0
 62
     5
 63
     7
421
 16777215
 74
     0
 91
        4
 64
     7
 65
   257
 75
     1
175
     1
 42
1.0
 92
        0
 66
     7
 43
1.0
 76
     1
 77
     6
 78
     2
 67
     7
 79
     5
170
     0
171
     0
290
     0
174
     0
 93
       13
 44
0.0
173
     0
291
     1
 45
0.0
1001
ACAD
1000
AcDbSavedByObjectVersion
1070
     0
  0
VISUALSTYLE
  5
2E
102
{ACAD_REACTORS
330
2A
102
}
330
2A
100
AcDbVisualStyle
  2
GouraudWithEdges
 70
     3
 71
     2
 72
     2
 73
     1
 90
        2
 40
-0.6
 41
30.0
 62
     5
 63
     7
421
 16777215
 74
     1
 91
        4
 64
     7
 65
   257
 75
     1
175
     1
 42
1.0
 92
        0
 66
   257
 43
1.0
 76
     1
 77
     6
 78
     2
 67
     7
 79
     5
170
     0
171
     0
290
     0
174
     0
 93
       13
 44
0.0
173
     0
291
     1
 45
0.0
1001
ACAD
1000
AcDbSavedByObjectVersion
1070
     0
  0
VISUALSTYLE
  5
38
102
{ACAD_REACTORS
330
2A
102
}
330
2A
100
AcDbVisualStyle
  2
Linepattern
 70
    14
 71
     2
 72
     2
 73
     0
 90
        0
 40
-0.6
 41
-30.0
 62
     5
 63
     7
421
 16777215
 74
     1
 91
        4
 64
     7
 65
   257
 75
     7
175
     7
 42
1.0
 92
        8
 66
     7
 43
1.0
 76
     1
 77
     6
 78
     2
 67
     7
 79
     5
170
     0
171
     0
290
     0
174
     0
 93
        1
 44
0.0
173
     0
291
     1
 45
0.0
1001
ACAD
1000
AcDbSavedByObjectVersion
1070
     0
  0
VISUALSTYLE
  5
33
102
{ACAD_REACTORS
330
2A
102
}
330
2A
100
AcDbVisualStyle
  2
Realistic
 70
     8
 71
     2
 72
     2
 73
     0
 90
        0
 40
-0.6
 41
-30.0
 62
     5
 63
     7
421
 16777215
 74
     1
 91
        0
 64
     7
 65
   257
 75
     1
175
     1
 42
1.0
 92
        8
 66
     8
424
  7895160
 43
1.0
 76
     1
 77
     6
 78
     2
 67
     7
 79
     5
170
     0
171
     0
290
     0
174
     0
 93
       13
 44
0.0
173
     0
291
     0
 45
0.0
1001
ACAD
1000
AcDbSavedByObjectVersion
1070
     0
  0
VISUALSTYLE
  5
37
102
{ACAD_REACTORS
330
2A
102
}
330
2A
100
AcDbVisualStyle
  2
Thicken
 70
    13
 71
     2
 72
     2
 73
     0
 90
        0
 40
-0.6
 41
-30.0
 62
     5
 63
     7
421
 16777215
 74
     1
 91
        4
 64
     7
 65
   257
 75
     1
175
     1
 42
1.0
 92
       12
 66
     7
 43
1.0
 76
     1
 77
     6
 78
     2
 67
     7
 79
     5
170
     0
171
     0
290
     0
174
     0
 93
        1
 44
0.0
173
     0
291
     1
 45
0.0
1001
ACAD
1000
AcDbSavedByObjectVersion
1070
     0
  0
ENDSEC
  0
EOF
