  0
SECTION
  2
HEADER
  9
$ACADVER
  1
AC1018
  9
$ACADMAINTVER
 70
     0
  9
$DWGCODEPAGE
  3
ANSI_1252
  9
$INSBASE
 10
0.0
 20
0.0
 30
0.0
  9
$EXTMIN
 10
1.000000000000000E+20
 20
1.000000000000000E+20
 30
1.000000000000000E+20
  9
$EXTMAX
 10
-1.000000000000000E+20
 20
-1.000000000000000E+20
 30
-1.000000000000000E+20
  9
$LIMMIN
 10
0.0
 20
0.0
  9
$LIMMAX
 10
12.0
 20
9.0
  9
$ORTHOMODE
 70
     0
  9
$REGENMODE
 70
     1
  9
$FILLMODE
 70
     1
  9
$QTEXTMODE
 70
     0
  9
$MIRRTEXT
 70
     1
  9
$LTSCALE
 40
1.0
  9
$ATTMODE
 70
     1
  9
$TEXTSIZE
 40
0.2
  9
$TRACEWID
 40
0.05
  9
$TEXTSTYLE
  7
Standard
  9
$CLAYER
  8
0
  9
$CELTYPE
  6
ByLayer
  9
$CECOLOR
 62
   256
  9
$CELTSCALE
 40
1.0
  9
$DISPSILH
 70
     0
  9
$DIMSCALE
 40
1.0
  9
$DIMASZ
 40
0.18
  9
$DIMEXO
 40
0.0625
  9
$DIMDLI
 40
0.38
  9
$DIMRND
 40
0.0
  9
$DIMDLE
 40
0.0
  9
$DIMEXE
 40
0.18
  9
$DIMTP
 40
0.0
  9
$DIMTM
 40
0.0
  9
$DIMTXT
 40
0.18
  9
$DIMCEN
 40
0.09
  9
$DIMTSZ
 40
0.0
  9
$DIMTOL
 70
     0
  9
$DIMLIM
 70
     0
  9
$DIMTIH
 70
     1
  9
$DIMTOH
 70
     1
  9
$DIMSE1
 70
     0
  9
$DIMSE2
 70
     0
  9
$DIMTAD
 70
     0
  9
$DIMZIN
 70
     0
  9
$DIMBLK
  1

  9
$DIMASO
 70
     1
  9
$DIMSHO
 70
     1
  9
$DIMPOST
  1

  9
$DIMAPOST
  1

  9
$DIMALT
 70
     0
  9
$DIMALTD
 70
     2
  9
$DIMALTF
 40
25.4
  9
$DIMLFAC
 40
1.0
  9
$DIMTOFL
 70
     0
  9
$DIMTVP
 40
0.0
  9
$DIMTIX
 70
     0
  9
$DIMSOXD
 70
     0
  9
$DIMSAH
 70
     0
  9
$DIMBLK1
  1

  9
$DIMBLK2
  1

  9
$DIMSTYLE
  2
Standard
  9
$DIMCLRD
 70
     0
  9
$DIMCLRE
 70
     0
  9
$DIMCLRT
 70
     0
  9
$DIMTFAC
 40
1.0
  9
$DIMGAP
 40
0.09
  9
$DIMJUST
 70
     0
  9
$DIMSD1
 70
     0
  9
$DIMSD2
 70
     0
  9
$DIMTOLJ
 70
     1
  9
$DIMTZIN
 70
     0
  9
$DIMALTZ
 70
     0
  9
$DIMALTTZ
 70
     0
  9
$DIMUPT
 70
     0
  9
$DIMDEC
 70
     4
  9
$DIMTDEC
 70
     4
  9
$DIMALTU
 70
     2
  9
$DIMALTTD
 70
     2
  9
$DIMTXSTY
  7
Standard
  9
$DIMAUNIT
 70
     0
  9
$DIMADEC
 70
     0
  9
$DIMALTRND
 40
0.0
  9
$DIMAZIN
 70
     0
  9
$DIMDSEP
 70
    46
  9
$DIMATFIT
 70
     3
  9
$DIMFRAC
 70
     0
  9
$DIMLDRBLK
  1

  9
$DIMLUNIT
 70
     2
  9
$DIMLWD
 70
    -2
  9
$DIMLWE
 70
    -2
  9
$DIMTMOVE
 70
     0
  9
$LUNITS
 70
     2
  9
$LUPREC
 70
     4
  9
$SKETCHINC
 40
0.1
  9
$FILLETRAD
 40
0.5
  9
$AUNITS
 70
     0
  9
$AUPREC
 70
     0
  9
$MENU
  1
.
  9
$ELEVATION
 40
0.0
  9
$PELEVATION
 40
0.0
  9
$THICKNESS
 40
0.0
  9
$LIMCHECK
 70
     0
  9
$CHAMFERA
 40
0.5
  9
$CHAMFERB
 40
0.5
  9
$CHAMFERC
 40
1.0
  9
$CHAMFERD
 40
0.0
  9
$SKPOLY
 70
     0
  9
$TDCREATE
 40
2457578.418915926
  9
$TDUCREATE
 40
2457578.335582593
  9
$TDUPDATE
 40
2457578.418915938
  9
$TDUUPDATE
 40
2457578.335582604
  9
$TDINDWG
 40
0.0000000116
  9
$TDUSRTIMER
 40
0.0000000116
  9
$USRTIMER
 70
     1
  9
$ANGBASE
 50
0.0
  9
$ANGDIR
 70
     0
  9
$PDMODE
 70
     0
  9
$PDSIZE
 40
0.0
  9
$PLINEWID
 40
0.0
  9
$SPLFRAME
 70
     0
  9
$SPLINETYPE
 70
     6
  9
$SPLINESEGS
 70
     8
  9
$HANDSEED
  5
8A8
  9
$SURFTAB1
 70
     6
  9
$SURFTAB2
 70
     6
  9
$SURFTYPE
 70
     6
  9
$SURFU
 70
     6
  9
$SURFV
 70
     6
  9
$UCSBASE
  2

  9
$UCSNAME
  2

  9
$UCSORG
 10
0.0
 20
0.0
 30
0.0
  9
$UCSXDIR
 10
1.0
 20
0.0
 30
0.0
  9
$UCSYDIR
 10
0.0
 20
1.0
 30
0.0
  9
$UCSORTHOREF
  2

  9
$UCSORTHOVIEW
 70
     0
  9
$UCSORGTOP
 10
0.0
 20
0.0
 30
0.0
  9
$UCSORGBOTTOM
 10
0.0
 20
0.0
 30
0.0
  9
$UCSORGLEFT
 10
0.0
 20
0.0
 30
0.0
  9
$UCSORGRIGHT
 10
0.0
 20
0.0
 30
0.0
  9
$UCSORGFRONT
 10
0.0
 20
0.0
 30
0.0
  9
$UCSORGBACK
 10
0.0
 20
0.0
 30
0.0
  9
$PUCSBASE
  2

  9
$PUCSNAME
  2

  9
$PUCSORG
 10
0.0
 20
0.0
 30
0.0
  9
$PUCSXDIR
 10
1.0
 20
0.0
 30
0.0
  9
$PUCSYDIR
 10
0.0
 20
1.0
 30
0.0
  9
$PUCSORTHOREF
  2

  9
$PUCSORTHOVIEW
 70
     0
  9
$PUCSORGTOP
 10
0.0
 20
0.0
 30
0.0
  9
$PUCSORGBOTTOM
 10
0.0
 20
0.0
 30
0.0
  9
$PUCSORGLEFT
 10
0.0
 20
0.0
 30
0.0
  9
$PUCSORGRIGHT
 10
0.0
 20
0.0
 30
0.0
  9
$PUCSORGFRONT
 10
0.0
 20
0.0
 30
0.0
  9
$PUCSORGBACK
 10
0.0
 20
0.0
 30
0.0
  9
$USERI1
 70
     0
  9
$USERI2
 70
     0
  9
$USERI3
 70
     0
  9
$USERI4
 70
     0
  9
$USERI5
 70
     0
  9
$USERR1
 40
0.0
  9
$USERR2
 40
0.0
  9
$USERR3
 40
0.0
  9
$USERR4
 40
0.0
  9
$USERR5
 40
0.0
  9
$WORLDVIEW
 70
     1
  9
$SHADEDGE
 70
     3
  9
$SHADEDIF
 70
    70
  9
$TILEMODE
 70
     1
  9
$MAXACTVP
 70
    64
  9
$PINSBASE
 10
0.0
 20
0.0
 30
0.0
  9
$PLIMCHECK
 70
     0
  9
$PEXTMIN
 10
1.000000000000000E+20
 20
1.000000000000000E+20
 30
1.000000000000000E+20
  9
$PEXTMAX
 10
-1.000000000000000E+20
 20
-1.000000000000000E+20
 30
-1.000000000000000E+20
  9
$PLIMMIN
 10
0.0
 20
0.0
  9
$PLIMMAX
 10
12.0
 20
9.0
  9
$UNITMODE
 70
     0
  9
$VISRETAIN
 70
     1
  9
$PLINEGEN
 70
     0
  9
$PSLTSCALE
 70
     1
  9
$TREEDEPTH
 70
  3020
  9
$CMLSTYLE
  2
Standard
  9
$CMLJUST
 70
     0
  9
$CMLSCALE
 40
1.0
  9
$PROXYGRAPHICS
 70
     1
  9
$MEASUREMENT
 70
     0
  9
$CELWEIGHT
370
    -1
  9
$ENDCAPS
280
     0
  9
$JOINSTYLE
280
     0
  9
$LWDISPLAY
290
     1
  9
$INSUNITS
 70
     1
  9
$HYPERLINKBASE
  1

  9
$STYLESHEET
  1

  9
$XEDIT
290
     1
  9
$CEPSNTYPE
380
     0
  9
$PSTYLEMODE
290
     1
  9
$FINGERPRINTGUID
  2
{7C1D0028-B70B-4C20-A292-509E90FB54C0}
  9
$VERSIONGUID
  2
{FAEB1C32-E019-11D5-929B-00C0DF256EC4}
  9
$EXTNAMES
290
     1
  9
$PSVPSCALE
 40
0.0
  9
$OLESTARTUP
290
     0
  9
$SORTENTS
280
   127
  9
$INDEXCTL
280
     0
  9
$HIDETEXT
280
     1
  9
$XCLIPFRAME
290
     0
  9
$HALOGAP
280
     0
  9
$OBSCOLOR
 70
   257
  9
$OBSLTYPE
280
     0
  9
$INTERSECTIONDISPLAY
280
     0
  9
$INTERSECTIONCOLOR
 70
   257
  9
$DIMASSOC
280
     2
  9
$PROJECTNAME
  1

  0
ENDSEC
  0
SECTION
  2
CLASSES
  0
CLASS
  1
ACDBDICTIONARYWDFLT
  2
AcDbDictionaryWithDefault
  3
ObjectDBX Classes
 90
        0
 91
        3
280
     0
281
     0
  0
CLASS
  1
VISUALSTYLE
  2
AcDbVisualStyle
  3
ObjectDBX Classes
 90
     4095
 91
        3
280
     0
281
     0
  0
ENDSEC
  0
SECTION
  2
TABLES
  0
TABLE
  2
VPORT
  5
8
330
0
100
AcDbSymbolTable
 70
     1
  0
VPORT
  5
29
330
8
100
AcDbSymbolTableRecord
100
AcDbViewportTableRecord
  2
*Active
 70
     0
 10
0.0
 20
0.0
 11
1.0
 21
1.0
 12
0.0
 22
0.0
 13
0.0
 23
0.0
 14
0.5
 24
0.5
 15
0.5
 25
0.5
 16
0.0
 26
0.0
 36
1.0
 17
-100.2770833082641
 27
-54.76874998630782
 37
0.0
 40
103.1874999742031
 41
0.7948717948717947
 42
50.0
 43
0.0
 44
0.0
 50
0.0
 51
0.0
 71
     0
 72
   100
 73
     1
 74
     3
 75
     0
 76
     0
 77
     0
 78
     0
281
     0
 65
     1
110
0.0
120
0.0
130
0.0
111
1.0
121
0.0
131
0.0
112
0.0
122
1.0
132
0.0
 79
     0
146
0.0
  0
ENDTAB
  0
TABLE
  2
LTYPE
  5
5
330
0
100
AcDbSymbolTable
 70
     1
  0
LTYPE
  5
14
330
5
100
AcDbSymbolTableRecord
100
AcDbLinetypeTableRecord
  2
ByBlock
 70
     0
  3

 72
    65
 73
     0
 40
0.0
  0
LTYPE
  5
15
330
5
100
AcDbSymbolTableRecord
100
AcDbLinetypeTableRecord
  2
ByLayer
 70
     0
  3

 72
    65
 73
     0
 40
0.0
  0
LTYPE
  5
16
330
5
100
AcDbSymbolTableRecord
100
AcDbLinetypeTableRecord
  2
Continuous
 70
     0
  3
Solid line
 72
    65
 73
     0
 40
0.0
  0
ENDTAB
  0
TABLE
  2
LAYER
  5
2
330
0
100
AcDbSymbolTable
 70
     3
  0
LAYER
  5
10
330
2
100
AcDbSymbolTableRecord
100
AcDbLayerTableRecord
  2
0
 70
     0
 62
     7
  6
Continuous
370
    -3
390
F
  0
LAYER
  5
3B
330
2
100
AcDbSymbolTableRecord
100
AcDbLayerTableRecord
  2
cuerpo
 70
     0
 62
     7
  6
Continuous
370
    -3
390
F
  0
LAYER
  5
4DE
330
2
100
AcDbSymbolTableRecord
100
AcDbLayerTableRecord
  2
cotas
 70
     1
 62
     7
  6
Continuous
370
    -3
390
F
  0
ENDTAB
  0
TABLE
  2
STYLE
  5
3
330
0
100
AcDbSymbolTable
 70
     1
  0
STYLE
  5
11
330
3
100
AcDbSymbolTableRecord
100
AcDbTextStyleTableRecord
  2
Standard
 70
     0
 40
0.0
 41
1.0
 50
0.0
 71
     0
 42
0.2
  3
txt
  4

  0
ENDTAB
  0
TABLE
  2
VIEW
  5
6
330
0
100
AcDbSymbolTable
 70
     0
  0
ENDTAB
  0
TABLE
  2
UCS
  5
7
330
0
100
AcDbSymbolTable
 70
     0
  0
ENDTAB
  0
TABLE
  2
APPID
  5
9
330
0
100
AcDbSymbolTable
 70
     1
  0
APPID
  5
12
330
9
100
AcDbSymbolTableRecord
100
AcDbRegAppTableRecord
  2
ACAD
 70
     0
  0
ENDTAB
  0
TABLE
  2
DIMSTYLE
  5
A
330
0
100
AcDbSymbolTable
 70
     1
100
AcDbDimStyleTable
  0
DIMSTYLE
105
27
330
A
100
AcDbSymbolTableRecord
100
AcDbDimStyleTableRecord
  2
Standard
 70
     0
340
11
  0
ENDTAB
  0
TABLE
  2
BLOCK_RECORD
  5
1
330
0
100
AcDbSymbolTable
 70
   281
  0
BLOCK_RECORD
  5
1F
330
1
100
AcDbSymbolTableRecord
100
AcDbBlockTableRecord
  2
*Model_Space
340
22
  0
BLOCK_RECORD
  5
1B
330
1
100
AcDbSymbolTableRecord
100
AcDbBlockTableRecord
  2
*Paper_Space
340
1E
  0
BLOCK_RECORD
  5
23
330
1
100
AcDbSymbolTableRecord
100
AcDbBlockTableRecord
  2
*Paper_Space0
340
26
  0
BLOCK_RECORD
  5
3C
330
1
100
AcDbSymbolTableRecord
100
AcDbBlockTableRecord
  2
block 2
340
0
102
{BLKREFS
331
3D
102
}
  0
BLOCK_RECORD
  5
44
330
1
100
AcDbSymbolTableRecord
100
AcDbBlockTableRecord
  2
block 3
340
0
102
{BLKREFS
331
45
102
}
  0
BLOCK_RECORD
  5
4C
330
1
100
AcDbSymbolTableRecord
100
AcDbBlockTableRecord
  2
block 4
340
0
102
{BLKREFS
331
4D
102
}
  0
BLOCK_RECORD
  5
54
330
1
100
AcDbSymbolTableRecord
100
AcDbBlockTableRecord
  2
block 5
340
0
102
{BLKREFS
331
55
102
}
  0
BLOCK_RECORD
  5
5C
330
1
100
AcDbSymbolTableRecord
100
AcDbBlockTableRecord
  2
block 6
340
0
102
{BLKREFS
331
5D
102
}
  0
BLOCK_RECORD
  5
64
330
1
100
AcDbSymbolTableRecord
100
AcDbBlockTableRecord
  2
block 7
340
0
102
{BLKREFS
331
65
102
}
  0
BLOCK_RECORD
  5
6C
330
1
100
AcDbSymbolTableRecord
100
AcDbBlockTableRecord
  2
block 8
340
0
102
{BLKREFS
331
6D
102
}
  0
BLOCK_RECORD
  5
74
330
1
100
AcDbSymbolTableRecord
100
AcDbBlockTableRecord
  2
block 9
340
0
102
{BLKREFS
331
75
102
}
  0
BLOCK_RECORD
  5
7C
330
1
100
AcDbSymbolTableRecord
100
AcDbBlockTableRecord
  2
block 10
340
0
102
{BLKREFS
331
7D
102
}
  0
BLOCK_RECORD
  5
84
330
1
100
AcDbSymbolTableRecord
100
AcDbBlockTableRecord
  2
block 11
340
0
102
{BLKREFS
331
85
102
}
  0
BLOCK_RECORD
  5
8C
330
1
100
AcDbSymbolTableRecord
100
AcDbBlockTableRecord
  2
block 12
340
0
102
{BLKREFS
331
8D
102
}
  0
BLOCK_RECORD
  5
91
330
1
100
AcDbSymbolTableRecord
100
AcDbBlockTableRecord
  2
block 13
340
0
102
{BLKREFS
331
92
102
}
  0
BLOCK_RECORD
  5
99
330
1
100
AcDbSymbolTableRecord
100
AcDbBlockTableRecord
  2
block 14
340
0
102
{BLKREFS
331
9A
102
}
  0
BLOCK_RECORD
  5
A1
330
1
100
AcDbSymbolTableRecord
100
AcDbBlockTableRecord
  2
block 15
340
0
102
{BLKREFS
331
A2
102
}
  0
BLOCK_RECORD
  5
A9
330
1
100
AcDbSymbolTableRecord
100
AcDbBlockTableRecord
  2
block 16
340
0
102
{BLKREFS
331
AA
102
}
  0
BLOCK_RECORD
  5
B1
330
1
100
AcDbSymbolTableRecord
100
AcDbBlockTableRecord
  2
block 17
340
0
102
{BLKREFS
331
B2
102
}
  0
BLOCK_RECORD
  5
B6
330
1
100
AcDbSymbolTableRecord
100
AcDbBlockTableRecord
  2
block 18
340
0
102
{BLKREFS
331
B7
102
}
  0
BLOCK_RECORD
  5
BB
330
1
100
AcDbSymbolTableRecord
100
AcDbBlockTableRecord
  2
block 19
340
0
102
{BLKREFS
331
BC
102
}
  0
BLOCK_RECORD
  5
C3
330
1
100
AcDbSymbolTableRecord
100
AcDbBlockTableRecord
  2
block 20
340
0
102
{BLKREFS
331
C4
102
}
  0
BLOCK_RECORD
  5
C8
330
1
100
AcDbSymbolTableRecord
100
AcDbBlockTableRecord
  2
block 21
340
0
102
{BLKREFS
331
C9
102
}
  0
BLOCK_RECORD
  5
D0
330
1
100
AcDbSymbolTableRecord
100
AcDbBlockTableRecord
  2
block 22
340
0
102
{BLKREFS
331
D1
102
}
  0
BLOCK_RECORD
  5
D8
330
1
100
AcDbSymbolTableRecord
100
AcDbBlockTableRecord
  2
block 23
340
0
102
{BLKREFS
331
D9
102
}
  0
BLOCK_RECORD
  5
E0
330
1
100
AcDbSymbolTableRecord
100
AcDbBlockTableRecord
  2
block 24
340
0
102
{BLKREFS
331
E1
102
}
  0
BLOCK_RECORD
  5
E8
330
1
100
AcDbSymbolTableRecord
100
AcDbBlockTableRecord
  2
block 25
340
0
102
{BLKREFS
331
E9
102
}
  0
BLOCK_RECORD
  5
ED
330
1
100
AcDbSymbolTableRecord
100
AcDbBlockTableRecord
  2
block 26
340
0
102
{BLKREFS
331
EE
102
}
  0
BLOCK_RECORD
  5
F2
330
1
100
AcDbSymbolTableRecord
100
AcDbBlockTableRecord
  2
block 27
340
0
102
{BLKREFS
331
F3
102
}
  0
BLOCK_RECORD
  5
FA
330
1
100
AcDbSymbolTableRecord
100
AcDbBlockTableRecord
  2
block 28
340
0
102
{BLKREFS
331
FB
102
}
  0
BLOCK_RECORD
  5
102
330
1
100
AcDbSymbolTableRecord
100
AcDbBlockTableRecord
  2
block 29
340
0
102
{BLKREFS
331
103
102
}
  0
BLOCK_RECORD
  5
10A
330
1
100
AcDbSymbolTableRecord
100
AcDbBlockTableRecord
  2
block 30
340
0
102
{BLKREFS
331
10B
102
}
  0
BLOCK_RECORD
  5
10F
330
1
100
AcDbSymbolTableRecord
100
AcDbBlockTableRecord
  2
block 31
340
0
102
{BLKREFS
331
110
102
}
  0
BLOCK_RECORD
  5
117
330
1
100
AcDbSymbolTableRecord
100
AcDbBlockTableRecord
  2
block 32
340
0
102
{BLKREFS
331
118
102
}
  0
BLOCK_RECORD
  5
11F
330
1
100
AcDbSymbolTableRecord
100
AcDbBlockTableRecord
  2
block 33
340
0
102
{BLKREFS
331
120
102
}
  0
BLOCK_RECORD
  5
127
330
1
100
AcDbSymbolTableRecord
100
AcDbBlockTableRecord
  2
block 34
340
0
102
{BLKREFS
331
128
102
}
  0
BLOCK_RECORD
  5
12F
330
1
100
AcDbSymbolTableRecord
100
AcDbBlockTableRecord
  2
block 35
340
0
102
{BLKREFS
331
130
102
}
  0
BLOCK_RECORD
  5
137
330
1
100
AcDbSymbolTableRecord
100
AcDbBlockTableRecord
  2
block 36
340
0
102
{BLKREFS
331
138
102
}
  0
BLOCK_RECORD
  5
13C
330
1
100
AcDbSymbolTableRecord
100
AcDbBlockTableRecord
  2
block 37
340
0
102
{BLKREFS
331
13D
102
}
  0
BLOCK_RECORD
  5
141
330
1
100
AcDbSymbolTableRecord
100
AcDbBlockTableRecord
  2
block 38
340
0
102
{BLKREFS
331
142
102
}
  0
BLOCK_RECORD
  5
146
330
1
100
AcDbSymbolTableRecord
100
AcDbBlockTableRecord
  2
block 39
340
0
102
{BLKREFS
331
147
102
}
  0
BLOCK_RECORD
  5
14B
330
1
100
AcDbSymbolTableRecord
100
AcDbBlockTableRecord
  2
block 40
340
0
102
{BLKREFS
331
14C
102
}
  0
BLOCK_RECORD
  5
153
330
1
100
AcDbSymbolTableRecord
100
AcDbBlockTableRecord
  2
block 41
340
0
102
{BLKREFS
331
154
102
}
  0
BLOCK_RECORD
  5
158
330
1
100
AcDbSymbolTableRecord
100
AcDbBlockTableRecord
  2
block 42
340
0
102
{BLKREFS
331
159
102
}
  0
BLOCK_RECORD
  5
160
330
1
100
AcDbSymbolTableRecord
100
AcDbBlockTableRecord
  2
block 43
340
0
102
{BLKREFS
331
161
102
}
  0
BLOCK_RECORD
  5
168
330
1
100
AcDbSymbolTableRecord
100
AcDbBlockTableRecord
  2
block 44
340
0
102
{BLKREFS
331
169
102
}
  0
BLOCK_RECORD
  5
170
330
1
100
AcDbSymbolTableRecord
100
AcDbBlockTableRecord
  2
block 45
340
0
102
{BLKREFS
331
171
102
}
  0
BLOCK_RECORD
  5
175
330
1
100
AcDbSymbolTableRecord
100
AcDbBlockTableRecord
  2
block 46
340
0
102
{BLKREFS
331
176
102
}
  0
BLOCK_RECORD
  5
17A
330
1
100
AcDbSymbolTableRecord
100
AcDbBlockTableRecord
  2
block 47
340
0
102
{BLKREFS
331
17B
102
}
  0
BLOCK_RECORD
  5
182
330
1
100
AcDbSymbolTableRecord
100
AcDbBlockTableRecord
  2
block 48
340
0
102
{BLKREFS
331
183
102
}
  0
BLOCK_RECORD
  5
18A
330
1
100
AcDbSymbolTableRecord
100
AcDbBlockTableRecord
  2
block 49
340
0
102
{BLKREFS
331
18B
102
}
  0
BLOCK_RECORD
  5
192
330
1
100
AcDbSymbolTableRecord
100
AcDbBlockTableRecord
  2
block 50
340
0
102
{BLKREFS
331
193
102
}
  0
BLOCK_RECORD
  5
19A
330
1
100
AcDbSymbolTableRecord
100
AcDbBlockTableRecord
  2
block 51
340
0
102
{BLKREFS
331
19B
102
}
  0
BLOCK_RECORD
  5
19F
330
1
100
AcDbSymbolTableRecord
100
AcDbBlockTableRecord
  2
block 52
340
0
102
{BLKREFS
331
1A0
102
}
  0
BLOCK_RECORD
  5
1A7
330
1
100
AcDbSymbolTableRecord
100
AcDbBlockTableRecord
  2
block 53
340
0
102
{BLKREFS
331
1A8
102
}
  0
BLOCK_RECORD
  5
1AF
330
1
100
AcDbSymbolTableRecord
100
AcDbBlockTableRecord
  2
block 54
340
0
102
{BLKREFS
331
1B0
102
}
  0
BLOCK_RECORD
  5
1B4
330
1
100
AcDbSymbolTableRecord
100
AcDbBlockTableRecord
  2
block 55
340
0
102
{BLKREFS
331
1B5
102
}
  0
BLOCK_RECORD
  5
1BC
330
1
100
AcDbSymbolTableRecord
100
AcDbBlockTableRecord
  2
block 56
340
0
102
{BLKREFS
331
1BD
102
}
  0
BLOCK_RECORD
  5
1C4
330
1
100
AcDbSymbolTableRecord
100
AcDbBlockTableRecord
  2
block 57
340
0
102
{BLKREFS
331
1C5
102
}
  0
BLOCK_RECORD
  5
1CC
330
1
100
AcDbSymbolTableRecord
100
AcDbBlockTableRecord
  2
block 58
340
0
102
{BLKREFS
331
1CD
102
}
  0
BLOCK_RECORD
  5
1D4
330
1
100
AcDbSymbolTableRecord
100
AcDbBlockTableRecord
  2
block 59
340
0
102
{BLKREFS
331
1D5
102
}
  0
BLOCK_RECORD
  5
1D9
330
1
100
AcDbSymbolTableRecord
100
AcDbBlockTableRecord
  2
block 60
340
0
102
{BLKREFS
331
1DA
102
}
  0
BLOCK_RECORD
  5
1DE
330
1
100
AcDbSymbolTableRecord
100
AcDbBlockTableRecord
  2
block 61
340
0
102
{BLKREFS
331
1DF
102
}
  0
BLOCK_RECORD
  5
1E3
330
1
100
AcDbSymbolTableRecord
100
AcDbBlockTableRecord
  2
block 62
340
0
102
{BLKREFS
331
1E4
102
}
  0
BLOCK_RECORD
  5
1E8
330
1
100
AcDbSymbolTableRecord
100
AcDbBlockTableRecord
  2
block 63
340
0
102
{BLKREFS
331
1E9
102
}
  0
BLOCK_RECORD
  5
1ED
330
1
100
AcDbSymbolTableRecord
100
AcDbBlockTableRecord
  2
block 64
340
0
102
{BLKREFS
331
1EE
102
}
  0
BLOCK_RECORD
  5
1F2
330
1
100
AcDbSymbolTableRecord
100
AcDbBlockTableRecord
  2
block 65
340
0
102
{BLKREFS
331
1F3
102
}
  0
BLOCK_RECORD
  5
1FA
330
1
100
AcDbSymbolTableRecord
100
AcDbBlockTableRecord
  2
block 66
340
0
102
{BLKREFS
331
1FB
102
}
  0
BLOCK_RECORD
  5
202
330
1
100
AcDbSymbolTableRecord
100
AcDbBlockTableRecord
  2
block 67
340
0
102
{BLKREFS
331
203
102
}
  0
BLOCK_RECORD
  5
20A
330
1
100
AcDbSymbolTableRecord
100
AcDbBlockTableRecord
  2
block 68
340
0
102
{BLKREFS
331
20B
102
}
  0
BLOCK_RECORD
  5
212
330
1
100
AcDbSymbolTableRecord
100
AcDbBlockTableRecord
  2
block 69
340
0
102
{BLKREFS
331
213
102
}
  0
BLOCK_RECORD
  5
21A
330
1
100
AcDbSymbolTableRecord
100
AcDbBlockTableRecord
  2
block 70
340
0
102
{BLKREFS
331
21B
102
}
  0
BLOCK_RECORD
  5
222
330
1
100
AcDbSymbolTableRecord
100
AcDbBlockTableRecord
  2
block 71
340
0
102
{BLKREFS
331
223
102
}
  0
BLOCK_RECORD
  5
22A
330
1
100
AcDbSymbolTableRecord
100
AcDbBlockTableRecord
  2
block 72
340
0
102
{BLKREFS
331
22B
102
}
  0
BLOCK_RECORD
  5
232
330
1
100
AcDbSymbolTableRecord
100
AcDbBlockTableRecord
  2
block 73
340
0
102
{BLKREFS
331
233
102
}
  0
BLOCK_RECORD
  5
23A
330
1
100
AcDbSymbolTableRecord
100
AcDbBlockTableRecord
  2
block 74
340
0
102
{BLKREFS
331
23B
102
}
  0
BLOCK_RECORD
  5
23F
330
1
100
AcDbSymbolTableRecord
100
AcDbBlockTableRecord
  2
block 75
340
0
102
{BLKREFS
331
240
102
}
  0
BLOCK_RECORD
  5
244
330
1
100
AcDbSymbolTableRecord
100
AcDbBlockTableRecord
  2
block 76
340
0
102
{BLKREFS
331
245
102
}
  0
BLOCK_RECORD
  5
249
330
1
100
AcDbSymbolTableRecord
100
AcDbBlockTableRecord
  2
block 77
340
0
102
{BLKREFS
331
24A
102
}
  0
BLOCK_RECORD
  5
251
330
1
100
AcDbSymbolTableRecord
100
AcDbBlockTableRecord
  2
block 78
340
0
102
{BLKREFS
331
252
102
}
  0
BLOCK_RECORD
  5
256
330
1
100
AcDbSymbolTableRecord
100
AcDbBlockTableRecord
  2
block 79
340
0
102
{BLKREFS
331
257
102
}
  0
BLOCK_RECORD
  5
25E
330
1
100
AcDbSymbolTableRecord
100
AcDbBlockTableRecord
  2
block 80
340
0
102
{BLKREFS
331
25F
102
}
  0
BLOCK_RECORD
  5
266
330
1
100
AcDbSymbolTableRecord
100
AcDbBlockTableRecord
  2
block 81
340
0
102
{BLKREFS
331
267
102
}
  0
BLOCK_RECORD
  5
26E
330
1
100
AcDbSymbolTableRecord
100
AcDbBlockTableRecord
  2
block 82
340
0
102
{BLKREFS
331
26F
102
}
  0
BLOCK_RECORD
  5
276
330
1
100
AcDbSymbolTableRecord
100
AcDbBlockTableRecord
  2
block 83
340
0
102
{BLKREFS
331
277
102
}
  0
BLOCK_RECORD
  5
27E
330
1
100
AcDbSymbolTableRecord
100
AcDbBlockTableRecord
  2
block 84
340
0
102
{BLKREFS
331
27F
102
}
  0
BLOCK_RECORD
  5
283
330
1
100
AcDbSymbolTableRecord
100
AcDbBlockTableRecord
  2
block 85
340
0
102
{BLKREFS
331
284
102
}
  0
BLOCK_RECORD
  5
288
330
1
100
AcDbSymbolTableRecord
100
AcDbBlockTableRecord
  2
block 86
340
0
102
{BLKREFS
331
289
102
}
  0
BLOCK_RECORD
  5
28D
330
1
100
AcDbSymbolTableRecord
100
AcDbBlockTableRecord
  2
block 87
340
0
102
{BLKREFS
331
28E
102
}
  0
BLOCK_RECORD
  5
295
330
1
100
AcDbSymbolTableRecord
100
AcDbBlockTableRecord
  2
block 88
340
0
102
{BLKREFS
331
296
102
}
  0
BLOCK_RECORD
  5
29A
330
1
100
AcDbSymbolTableRecord
100
AcDbBlockTableRecord
  2
block 89
340
0
102
{BLKREFS
331
29B
102
}
  0
BLOCK_RECORD
  5
2A2
330
1
100
AcDbSymbolTableRecord
100
AcDbBlockTableRecord
  2
block 90
340
0
102
{BLKREFS
331
2A3
102
}
  0
BLOCK_RECORD
  5
2AA
330
1
100
AcDbSymbolTableRecord
100
AcDbBlockTableRecord
  2
block 91
340
0
102
{BLKREFS
331
2AB
102
}
  0
BLOCK_RECORD
  5
2B2
330
1
100
AcDbSymbolTableRecord
100
AcDbBlockTableRecord
  2
block 92
340
0
102
{BLKREFS
331
2B3
102
}
  0
BLOCK_RECORD
  5
2BA
330
1
100
AcDbSymbolTableRecord
100
AcDbBlockTableRecord
  2
block 93
340
0
102
{BLKREFS
331
2BB
102
}
  0
BLOCK_RECORD
  5
2C2
330
1
100
AcDbSymbolTableRecord
100
AcDbBlockTableRecord
  2
block 94
340
0
102
{BLKREFS
331
2C3
102
}
  0
BLOCK_RECORD
  5
2C7
330
1
100
AcDbSymbolTableRecord
100
AcDbBlockTableRecord
  2
block 95
340
0
102
{BLKREFS
331
2C8
102
}
  0
BLOCK_RECORD
  5
2CF
330
1
100
AcDbSymbolTableRecord
100
AcDbBlockTableRecord
  2
block 96
340
0
102
{BLKREFS
331
2D0
102
}
  0
BLOCK_RECORD
  5
2D4
330
1
100
AcDbSymbolTableRecord
100
AcDbBlockTableRecord
  2
block 97
340
0
102
{BLKREFS
331
2D5
102
}
  0
BLOCK_RECORD
  5
2DC
330
1
100
AcDbSymbolTableRecord
100
AcDbBlockTableRecord
  2
block 98
340
0
102
{BLKREFS
331
2DD
102
}
  0
BLOCK_RECORD
  5
2E4
330
1
100
AcDbSymbolTableRecord
100
AcDbBlockTableRecord
  2
block 99
340
0
102
{BLKREFS
331
2E5
102
}
  0
BLOCK_RECORD
  5
2E9
330
1
100
AcDbSymbolTableRecord
100
AcDbBlockTableRecord
  2
block 100
340
0
102
{BLKREFS
331
2EA
102
}
  0
BLOCK_RECORD
  5
2EE
330
1
100
AcDbSymbolTableRecord
100
AcDbBlockTableRecord
  2
block 101
340
0
102
{BLKREFS
331
2EF
102
}
  0
BLOCK_RECORD
  5
2F3
330
1
100
AcDbSymbolTableRecord
100
AcDbBlockTableRecord
  2
block 102
340
0
102
{BLKREFS
331
2F4
102
}
  0
BLOCK_RECORD
  5
2F8
330
1
100
AcDbSymbolTableRecord
100
AcDbBlockTableRecord
  2
block 103
340
0
102
{BLKREFS
331
2F9
102
}
  0
BLOCK_RECORD
  5
2FD
330
1
100
AcDbSymbolTableRecord
100
AcDbBlockTableRecord
  2
block 104
340
0
102
{BLKREFS
331
2FE
102
}
  0
BLOCK_RECORD
  5
305
330
1
100
AcDbSymbolTableRecord
100
AcDbBlockTableRecord
  2
block 105
340
0
102
{BLKREFS
331
306
102
}
  0
BLOCK_RECORD
  5
30A
330
1
100
AcDbSymbolTableRecord
100
AcDbBlockTableRecord
  2
block 106
340
0
102
{BLKREFS
331
30B
102
}
  0
BLOCK_RECORD
  5
312
330
1
100
AcDbSymbolTableRecord
100
AcDbBlockTableRecord
  2
block 107
340
0
102
{BLKREFS
331
313
102
}
  0
BLOCK_RECORD
  5
31A
330
1
100
AcDbSymbolTableRecord
100
AcDbBlockTableRecord
  2
block 108
340
0
102
{BLKREFS
331
31B
102
}
  0
BLOCK_RECORD
  5
322
330
1
100
AcDbSymbolTableRecord
100
AcDbBlockTableRecord
  2
block 109
340
0
102
{BLKREFS
331
323
102
}
  0
BLOCK_RECORD
  5
32A
330
1
100
AcDbSymbolTableRecord
100
AcDbBlockTableRecord
  2
block 110
340
0
102
{BLKREFS
331
32B
102
}
  0
BLOCK_RECORD
  5
32F
330
1
100
AcDbSymbolTableRecord
100
AcDbBlockTableRecord
  2
block 111
340
0
102
{BLKREFS
331
330
102
}
  0
BLOCK_RECORD
  5
337
330
1
100
AcDbSymbolTableRecord
100
AcDbBlockTableRecord
  2
block 112
340
0
102
{BLKREFS
331
338
102
}
  0
BLOCK_RECORD
  5
33C
330
1
100
AcDbSymbolTableRecord
100
AcDbBlockTableRecord
  2
block 113
340
0
102
{BLKREFS
331
33D
102
}
  0
BLOCK_RECORD
  5
344
330
1
100
AcDbSymbolTableRecord
100
AcDbBlockTableRecord
  2
block 114
340
0
102
{BLKREFS
331
345
102
}
  0
BLOCK_RECORD
  5
34C
330
1
100
AcDbSymbolTableRecord
100
AcDbBlockTableRecord
  2
block 115
340
0
102
{BLKREFS
331
34D
102
}
  0
BLOCK_RECORD
  5
354
330
1
100
AcDbSymbolTableRecord
100
AcDbBlockTableRecord
  2
block 116
340
0
102
{BLKREFS
331
355
102
}
  0
BLOCK_RECORD
  5
35C
330
1
100
AcDbSymbolTableRecord
100
AcDbBlockTableRecord
  2
block 117
340
0
102
{BLKREFS
331
35D
102
}
  0
BLOCK_RECORD
  5
364
330
1
100
AcDbSymbolTableRecord
100
AcDbBlockTableRecord
  2
block 118
340
0
102
{BLKREFS
331
365
102
}
  0
BLOCK_RECORD
  5
369
330
1
100
AcDbSymbolTableRecord
100
AcDbBlockTableRecord
  2
block 119
340
0
102
{BLKREFS
331
36A
102
}
  0
BLOCK_RECORD
  5
371
330
1
100
AcDbSymbolTableRecord
100
AcDbBlockTableRecord
  2
block 120
340
0
102
{BLKREFS
331
372
102
}
  0
BLOCK_RECORD
  5
379
330
1
100
AcDbSymbolTableRecord
100
AcDbBlockTableRecord
  2
block 121
340
0
102
{BLKREFS
331
37A
102
}
  0
BLOCK_RECORD
  5
37E
330
1
100
AcDbSymbolTableRecord
100
AcDbBlockTableRecord
  2
block 122
340
0
102
{BLKREFS
331
37F
102
}
  0
BLOCK_RECORD
  5
386
330
1
100
AcDbSymbolTableRecord
100
AcDbBlockTableRecord
  2
block 123
340
0
102
{BLKREFS
331
387
102
}
  0
BLOCK_RECORD
  5
38B
330
1
100
AcDbSymbolTableRecord
100
AcDbBlockTableRecord
  2
block 124
340
0
102
{BLKREFS
331
38C
102
}
  0
BLOCK_RECORD
  5
390
330
1
100
AcDbSymbolTableRecord
100
AcDbBlockTableRecord
  2
block 125
340
0
102
{BLKREFS
331
391
102
}
  0
BLOCK_RECORD
  5
395
330
1
100
AcDbSymbolTableRecord
100
AcDbBlockTableRecord
  2
block 126
340
0
102
{BLKREFS
331
396
102
}
  0
BLOCK_RECORD
  5
39D
330
1
100
AcDbSymbolTableRecord
100
AcDbBlockTableRecord
  2
block 127
340
0
102
{BLKREFS
331
39E
102
}
  0
BLOCK_RECORD
  5
3A2
330
1
100
AcDbSymbolTableRecord
100
AcDbBlockTableRecord
  2
block 128
340
0
102
{BLKREFS
331
3A3
102
}
  0
BLOCK_RECORD
  5
3A7
330
1
100
AcDbSymbolTableRecord
100
AcDbBlockTableRecord
  2
block 129
340
0
102
{BLKREFS
331
3A8
102
}
  0
BLOCK_RECORD
  5
3AF
330
1
100
AcDbSymbolTableRecord
100
AcDbBlockTableRecord
  2
block 130
340
0
102
{BLKREFS
331
3B0
102
}
  0
BLOCK_RECORD
  5
3B7
330
1
100
AcDbSymbolTableRecord
100
AcDbBlockTableRecord
  2
block 131
340
0
102
{BLKREFS
331
3B8
102
}
  0
BLOCK_RECORD
  5
3BF
330
1
100
AcDbSymbolTableRecord
100
AcDbBlockTableRecord
  2
block 132
340
0
102
{BLKREFS
331
3C0
102
}
  0
BLOCK_RECORD
  5
3C7
330
1
100
AcDbSymbolTableRecord
100
AcDbBlockTableRecord
  2
block 133
340
0
102
{BLKREFS
331
3C8
102
}
  0
BLOCK_RECORD
  5
3CF
330
1
100
AcDbSymbolTableRecord
100
AcDbBlockTableRecord
  2
block 134
340
0
102
{BLKREFS
331
3D0
102
}
  0
BLOCK_RECORD
  5
3D7
330
1
100
AcDbSymbolTableRecord
100
AcDbBlockTableRecord
  2
block 135
340
0
102
{BLKREFS
331
3D8
102
}
  0
BLOCK_RECORD
  5
3DC
330
1
100
AcDbSymbolTableRecord
100
AcDbBlockTableRecord
  2
block 136
340
0
102
{BLKREFS
331
3DD
102
}
  0
BLOCK_RECORD
  5
3E4
330
1
100
AcDbSymbolTableRecord
100
AcDbBlockTableRecord
  2
block 137
340
0
102
{BLKREFS
331
3E5
102
}
  0
BLOCK_RECORD
  5
3EC
330
1
100
AcDbSymbolTableRecord
100
AcDbBlockTableRecord
  2
block 138
340
0
102
{BLKREFS
331
3ED
102
}
  0
BLOCK_RECORD
  5
3F1
330
1
100
AcDbSymbolTableRecord
100
AcDbBlockTableRecord
  2
block 139
340
0
102
{BLKREFS
331
3F2
102
}
  0
BLOCK_RECORD
  5
3F9
330
1
100
AcDbSymbolTableRecord
100
AcDbBlockTableRecord
  2
block 140
340
0
102
{BLKREFS
331
3FA
102
}
  0
BLOCK_RECORD
  5
401
330
1
100
AcDbSymbolTableRecord
100
AcDbBlockTableRecord
  2
block 141
340
0
102
{BLKREFS
331
402
102
}
  0
BLOCK_RECORD
  5
409
330
1
100
AcDbSymbolTableRecord
100
AcDbBlockTableRecord
  2
block 142
340
0
102
{BLKREFS
331
40A
102
}
  0
BLOCK_RECORD
  5
411
330
1
100
AcDbSymbolTableRecord
100
AcDbBlockTableRecord
  2
block 143
340
0
102
{BLKREFS
331
412
102
}
  0
BLOCK_RECORD
  5
416
330
1
100
AcDbSymbolTableRecord
100
AcDbBlockTableRecord
  2
block 144
340
0
102
{BLKREFS
331
417
102
}
  0
BLOCK_RECORD
  5
41E
330
1
100
AcDbSymbolTableRecord
100
AcDbBlockTableRecord
  2
block 145
340
0
102
{BLKREFS
331
41F
102
}
  0
BLOCK_RECORD
  5
426
330
1
100
AcDbSymbolTableRecord
100
AcDbBlockTableRecord
  2
block 146
340
0
102
{BLKREFS
331
427
102
}
  0
BLOCK_RECORD
  5
42B
330
1
100
AcDbSymbolTableRecord
100
AcDbBlockTableRecord
  2
block 147
340
0
102
{BLKREFS
331
42C
102
}
  0
BLOCK_RECORD
  5
430
330
1
100
AcDbSymbolTableRecord
100
AcDbBlockTableRecord
  2
block 148
340
0
102
{BLKREFS
331
431
102
}
  0
BLOCK_RECORD
  5
438
330
1
100
AcDbSymbolTableRecord
100
AcDbBlockTableRecord
  2
block 149
340
0
102
{BLKREFS
331
439
102
}
  0
BLOCK_RECORD
  5
440
330
1
100
AcDbSymbolTableRecord
100
AcDbBlockTableRecord
  2
block 150
340
0
102
{BLKREFS
331
441
102
}
  0
BLOCK_RECORD
  5
448
330
1
100
AcDbSymbolTableRecord
100
AcDbBlockTableRecord
  2
block 151
340
0
102
{BLKREFS
331
449
102
}
  0
BLOCK_RECORD
  5
450
330
1
100
AcDbSymbolTableRecord
100
AcDbBlockTableRecord
  2
block 152
340
0
102
{BLKREFS
331
451
102
}
  0
BLOCK_RECORD
  5
458
330
1
100
AcDbSymbolTableRecord
100
AcDbBlockTableRecord
  2
block 153
340
0
102
{BLKREFS
331
459
102
}
  0
BLOCK_RECORD
  5
460
330
1
100
AcDbSymbolTableRecord
100
AcDbBlockTableRecord
  2
block 154
340
0
102
{BLKREFS
331
461
102
}
  0
BLOCK_RECORD
  5
468
330
1
100
AcDbSymbolTableRecord
100
AcDbBlockTableRecord
  2
block 155
340
0
102
{BLKREFS
331
469
102
}
  0
BLOCK_RECORD
  5
46D
330
1
100
AcDbSymbolTableRecord
100
AcDbBlockTableRecord
  2
block 156
340
0
102
{BLKREFS
331
46E
102
}
  0
BLOCK_RECORD
  5
472
330
1
100
AcDbSymbolTableRecord
100
AcDbBlockTableRecord
  2
block 157
340
0
102
{BLKREFS
331
473
102
}
  0
BLOCK_RECORD
  5
47A
330
1
100
AcDbSymbolTableRecord
100
AcDbBlockTableRecord
  2
block 158
340
0
102
{BLKREFS
331
47B
102
}
  0
BLOCK_RECORD
  5
482
330
1
100
AcDbSymbolTableRecord
100
AcDbBlockTableRecord
  2
block 159
340
0
102
{BLKREFS
331
483
102
}
  0
BLOCK_RECORD
  5
48A
330
1
100
AcDbSymbolTableRecord
100
AcDbBlockTableRecord
  2
block 160
340
0
102
{BLKREFS
331
48B
102
}
  0
BLOCK_RECORD
  5
492
330
1
100
AcDbSymbolTableRecord
100
AcDbBlockTableRecord
  2
block 161
340
0
102
{BLKREFS
331
493
102
}
  0
BLOCK_RECORD
  5
49A
330
1
100
AcDbSymbolTableRecord
100
AcDbBlockTableRecord
  2
block 162
340
0
102
{BLKREFS
331
49B
102
}
  0
BLOCK_RECORD
  5
4A2
330
1
100
AcDbSymbolTableRecord
100
AcDbBlockTableRecord
  2
block 163
340
0
102
{BLKREFS
331
4A3
102
}
  0
BLOCK_RECORD
  5
4AA
330
1
100
AcDbSymbolTableRecord
100
AcDbBlockTableRecord
  2
block 164
340
0
102
{BLKREFS
331
4AB
102
}
  0
BLOCK_RECORD
  5
4B2
330
1
100
AcDbSymbolTableRecord
100
AcDbBlockTableRecord
  2
block 165
340
0
102
{BLKREFS
331
4B3
102
}
  0
BLOCK_RECORD
  5
4BA
330
1
100
AcDbSymbolTableRecord
100
AcDbBlockTableRecord
  2
block 166
340
0
102
{BLKREFS
331
4BB
102
}
  0
BLOCK_RECORD
  5
4C2
330
1
100
AcDbSymbolTableRecord
100
AcDbBlockTableRecord
  2
block 167
340
0
102
{BLKREFS
331
4C3
102
}
  0
BLOCK_RECORD
  5
4CA
330
1
100
AcDbSymbolTableRecord
100
AcDbBlockTableRecord
  2
block 168
340
0
102
{BLKREFS
331
4CB
102
}
  0
BLOCK_RECORD
  5
4CF
330
1
100
AcDbSymbolTableRecord
100
AcDbBlockTableRecord
  2
block 169
340
0
102
{BLKREFS
331
4D0
102
}
  0
BLOCK_RECORD
  5
4D4
330
1
100
AcDbSymbolTableRecord
100
AcDbBlockTableRecord
  2
block 170
340
0
102
{BLKREFS
331
4D5
102
}
  0
BLOCK_RECORD
  5
4D9
330
1
100
AcDbSymbolTableRecord
100
AcDbBlockTableRecord
  2
block 171
340
0
102
{BLKREFS
331
4DA
102
}
  0
BLOCK_RECORD
  5
4DF
330
1
100
AcDbSymbolTableRecord
100
AcDbBlockTableRecord
  2
block 172
340
0
102
{BLKREFS
331
4E0
102
}
  0
BLOCK_RECORD
  5
54B
330
1
100
AcDbSymbolTableRecord
100
AcDbBlockTableRecord
  2
block 173
340
0
102
{BLKREFS
331
54C
102
}
  0
BLOCK_RECORD
  5
54F
330
1
100
AcDbSymbolTableRecord
100
AcDbBlockTableRecord
  2
block 174
340
0
102
{BLKREFS
331
550
102
}
  0
BLOCK_RECORD
  5
557
330
1
100
AcDbSymbolTableRecord
100
AcDbBlockTableRecord
  2
block 175
340
0
102
{BLKREFS
331
558
102
}
  0
BLOCK_RECORD
  5
55F
330
1
100
AcDbSymbolTableRecord
100
AcDbBlockTableRecord
  2
block 176
340
0
102
{BLKREFS
331
560
102
}
  0
BLOCK_RECORD
  5
567
330
1
100
AcDbSymbolTableRecord
100
AcDbBlockTableRecord
  2
block 177
340
0
102
{BLKREFS
331
568
102
}
  0
BLOCK_RECORD
  5
56F
330
1
100
AcDbSymbolTableRecord
100
AcDbBlockTableRecord
  2
block 178
340
0
102
{BLKREFS
331
570
102
}
  0
BLOCK_RECORD
  5
57A
330
1
100
AcDbSymbolTableRecord
100
AcDbBlockTableRecord
  2
block 179
340
0
102
{BLKREFS
331
57B
102
}
  0
BLOCK_RECORD
  5
585
330
1
100
AcDbSymbolTableRecord
100
AcDbBlockTableRecord
  2
block 180
340
0
102
{BLKREFS
331
586
102
}
  0
BLOCK_RECORD
  5
58A
330
1
100
AcDbSymbolTableRecord
100
AcDbBlockTableRecord
  2
block 181
340
0
102
{BLKREFS
331
58B
102
}
  0
BLOCK_RECORD
  5
592
330
1
100
AcDbSymbolTableRecord
100
AcDbBlockTableRecord
  2
block 182
340
0
102
{BLKREFS
331
593
102
}
  0
BLOCK_RECORD
  5
59A
330
1
100
AcDbSymbolTableRecord
100
AcDbBlockTableRecord
  2
block 183
340
0
102
{BLKREFS
331
59B
102
}
  0
BLOCK_RECORD
  5
5A2
330
1
100
AcDbSymbolTableRecord
100
AcDbBlockTableRecord
  2
block 184
340
0
102
{BLKREFS
331
5A3
102
}
  0
BLOCK_RECORD
  5
5A6
330
1
100
AcDbSymbolTableRecord
100
AcDbBlockTableRecord
  2
block 185
340
0
102
{BLKREFS
331
5A7
102
}
  0
BLOCK_RECORD
  5
5AE
330
1
100
AcDbSymbolTableRecord
100
AcDbBlockTableRecord
  2
block 186
340
0
102
{BLKREFS
331
5AF
102
}
  0
BLOCK_RECORD
  5
5B6
330
1
100
AcDbSymbolTableRecord
100
AcDbBlockTableRecord
  2
block 187
340
0
102
{BLKREFS
331
5B7
102
}
  0
BLOCK_RECORD
  5
5BE
330
1
100
AcDbSymbolTableRecord
100
AcDbBlockTableRecord
  2
block 188
340
0
102
{BLKREFS
331
5BF
102
}
  0
BLOCK_RECORD
  5
5C6
330
1
100
AcDbSymbolTableRecord
100
AcDbBlockTableRecord
  2
block 189
340
0
102
{BLKREFS
331
5C7
102
}
  0
BLOCK_RECORD
  5
5D1
330
1
100
AcDbSymbolTableRecord
100
AcDbBlockTableRecord
  2
block 190
340
0
102
{BLKREFS
331
5D2
102
}
  0
BLOCK_RECORD
  5
5DC
330
1
100
AcDbSymbolTableRecord
100
AcDbBlockTableRecord
  2
block 191
340
0
102
{BLKREFS
331
5DD
102
}
  0
BLOCK_RECORD
  5
5E1
330
1
100
AcDbSymbolTableRecord
100
AcDbBlockTableRecord
  2
block 192
340
0
102
{BLKREFS
331
5E2
102
}
  0
BLOCK_RECORD
  5
5E9
330
1
100
AcDbSymbolTableRecord
100
AcDbBlockTableRecord
  2
block 193
340
0
102
{BLKREFS
331
5EA
102
}
  0
BLOCK_RECORD
  5
5F1
330
1
100
AcDbSymbolTableRecord
100
AcDbBlockTableRecord
  2
block 194
340
0
102
{BLKREFS
331
5F2
102
}
  0
BLOCK_RECORD
  5
5F9
330
1
100
AcDbSymbolTableRecord
100
AcDbBlockTableRecord
  2
block 195
340
0
102
{BLKREFS
331
5FA
102
}
  0
BLOCK_RECORD
  5
5FD
330
1
100
AcDbSymbolTableRecord
100
AcDbBlockTableRecord
  2
block 196
340
0
102
{BLKREFS
331
5FE
102
}
  0
BLOCK_RECORD
  5
605
330
1
100
AcDbSymbolTableRecord
100
AcDbBlockTableRecord
  2
block 197
340
0
102
{BLKREFS
331
606
102
}
  0
BLOCK_RECORD
  5
60D
330
1
100
AcDbSymbolTableRecord
100
AcDbBlockTableRecord
  2
block 198
340
0
102
{BLKREFS
331
60E
102
}
  0
BLOCK_RECORD
  5
615
330
1
100
AcDbSymbolTableRecord
100
AcDbBlockTableRecord
  2
block 199
340
0
102
{BLKREFS
331
616
102
}
  0
BLOCK_RECORD
  5
61D
330
1
100
AcDbSymbolTableRecord
100
AcDbBlockTableRecord
  2
block 200
340
0
102
{BLKREFS
331
61E
102
}
  0
BLOCK_RECORD
  5
628
330
1
100
AcDbSymbolTableRecord
100
AcDbBlockTableRecord
  2
block 201
340
0
102
{BLKREFS
331
629
102
}
  0
BLOCK_RECORD
  5
633
330
1
100
AcDbSymbolTableRecord
100
AcDbBlockTableRecord
  2
block 202
340
0
102
{BLKREFS
331
634
102
}
  0
BLOCK_RECORD
  5
638
330
1
100
AcDbSymbolTableRecord
100
AcDbBlockTableRecord
  2
block 203
340
0
102
{BLKREFS
331
639
102
}
  0
BLOCK_RECORD
  5
640
330
1
100
AcDbSymbolTableRecord
100
AcDbBlockTableRecord
  2
block 204
340
0
102
{BLKREFS
331
641
102
}
  0
BLOCK_RECORD
  5
648
330
1
100
AcDbSymbolTableRecord
100
AcDbBlockTableRecord
  2
block 205
340
0
102
{BLKREFS
331
649
102
}
  0
BLOCK_RECORD
  5
650
330
1
100
AcDbSymbolTableRecord
100
AcDbBlockTableRecord
  2
block 206
340
0
102
{BLKREFS
331
651
102
}
  0
BLOCK_RECORD
  5
654
330
1
100
AcDbSymbolTableRecord
100
AcDbBlockTableRecord
  2
block 207
340
0
102
{BLKREFS
331
655
102
}
  0
BLOCK_RECORD
  5
65C
330
1
100
AcDbSymbolTableRecord
100
AcDbBlockTableRecord
  2
block 208
340
0
102
{BLKREFS
331
65D
102
}
  0
BLOCK_RECORD
  5
664
330
1
100
AcDbSymbolTableRecord
100
AcDbBlockTableRecord
  2
block 209
340
0
102
{BLKREFS
331
665
102
}
  0
BLOCK_RECORD
  5
66C
330
1
100
AcDbSymbolTableRecord
100
AcDbBlockTableRecord
  2
block 210
340
0
102
{BLKREFS
331
66D
102
}
  0
BLOCK_RECORD
  5
674
330
1
100
AcDbSymbolTableRecord
100
AcDbBlockTableRecord
  2
block 211
340
0
102
{BLKREFS
331
675
102
}
  0
BLOCK_RECORD
  5
67F
330
1
100
AcDbSymbolTableRecord
100
AcDbBlockTableRecord
  2
block 212
340
0
102
{BLKREFS
331
680
102
}
  0
BLOCK_RECORD
  5
687
330
1
100
AcDbSymbolTableRecord
100
AcDbBlockTableRecord
  2
block 213
340
0
102
{BLKREFS
331
688
102
}
  0
BLOCK_RECORD
  5
68F
330
1
100
AcDbSymbolTableRecord
100
AcDbBlockTableRecord
  2
block 214
340
0
102
{BLKREFS
331
690
102
}
  0
BLOCK_RECORD
  5
69A
330
1
100
AcDbSymbolTableRecord
100
AcDbBlockTableRecord
  2
block 215
340
0
102
{BLKREFS
331
69B
102
}
  0
BLOCK_RECORD
  5
6A2
330
1
100
AcDbSymbolTableRecord
100
AcDbBlockTableRecord
  2
block 216
340
0
102
{BLKREFS
331
6A3
102
}
  0
BLOCK_RECORD
  5
6AA
330
1
100
AcDbSymbolTableRecord
100
AcDbBlockTableRecord
  2
block 217
340
0
102
{BLKREFS
331
6AB
102
}
  0
BLOCK_RECORD
  5
6AF
330
1
100
AcDbSymbolTableRecord
100
AcDbBlockTableRecord
  2
block 218
340
0
102
{BLKREFS
331
6B0
102
}
  0
BLOCK_RECORD
  5
6B7
330
1
100
AcDbSymbolTableRecord
100
AcDbBlockTableRecord
  2
block 219
340
0
102
{BLKREFS
331
6B8
102
}
  0
BLOCK_RECORD
  5
6BF
330
1
100
AcDbSymbolTableRecord
100
AcDbBlockTableRecord
  2
block 220
340
0
102
{BLKREFS
331
6C0
102
}
  0
BLOCK_RECORD
  5
6C7
330
1
100
AcDbSymbolTableRecord
100
AcDbBlockTableRecord
  2
block 221
340
0
102
{BLKREFS
331
6C8
102
}
  0
BLOCK_RECORD
  5
6CB
330
1
100
AcDbSymbolTableRecord
100
AcDbBlockTableRecord
  2
block 222
340
0
102
{BLKREFS
331
6CC
102
}
  0
BLOCK_RECORD
  5
6D3
330
1
100
AcDbSymbolTableRecord
100
AcDbBlockTableRecord
  2
block 223
340
0
102
{BLKREFS
331
6D4
102
}
  0
BLOCK_RECORD
  5
6DB
330
1
100
AcDbSymbolTableRecord
100
AcDbBlockTableRecord
  2
block 224
340
0
102
{BLKREFS
331
6DC
102
}
  0
BLOCK_RECORD
  5
6E3
330
1
100
AcDbSymbolTableRecord
100
AcDbBlockTableRecord
  2
block 225
340
0
102
{BLKREFS
331
6E4
102
}
  0
BLOCK_RECORD
  5
6EB
330
1
100
AcDbSymbolTableRecord
100
AcDbBlockTableRecord
  2
block 226
340
0
102
{BLKREFS
331
6EC
102
}
  0
BLOCK_RECORD
  5
6F3
330
1
100
AcDbSymbolTableRecord
100
AcDbBlockTableRecord
  2
block 227
340
0
102
{BLKREFS
331
6F4
102
}
  0
BLOCK_RECORD
  5
6FE
330
1
100
AcDbSymbolTableRecord
100
AcDbBlockTableRecord
  2
block 228
340
0
102
{BLKREFS
331
6FF
102
}
  0
BLOCK_RECORD
  5
709
330
1
100
AcDbSymbolTableRecord
100
AcDbBlockTableRecord
  2
block 229
340
0
102
{BLKREFS
331
70A
102
}
  0
BLOCK_RECORD
  5
70E
330
1
100
AcDbSymbolTableRecord
100
AcDbBlockTableRecord
  2
block 230
340
0
102
{BLKREFS
331
70F
102
}
  0
BLOCK_RECORD
  5
716
330
1
100
AcDbSymbolTableRecord
100
AcDbBlockTableRecord
  2
block 231
340
0
102
{BLKREFS
331
717
102
}
  0
BLOCK_RECORD
  5
71E
330
1
100
AcDbSymbolTableRecord
100
AcDbBlockTableRecord
  2
block 232
340
0
102
{BLKREFS
331
71F
102
}
  0
BLOCK_RECORD
  5
726
330
1
100
AcDbSymbolTableRecord
100
AcDbBlockTableRecord
  2
block 233
340
0
102
{BLKREFS
331
727
102
}
  0
BLOCK_RECORD
  5
72A
330
1
100
AcDbSymbolTableRecord
100
AcDbBlockTableRecord
  2
block 234
340
0
102
{BLKREFS
331
72B
102
}
  0
BLOCK_RECORD
  5
732
330
1
100
AcDbSymbolTableRecord
100
AcDbBlockTableRecord
  2
block 235
340
0
102
{BLKREFS
331
733
102
}
  0
BLOCK_RECORD
  5
73A
330
1
100
AcDbSymbolTableRecord
100
AcDbBlockTableRecord
  2
block 236
340
0
102
{BLKREFS
331
73B
102
}
  0
BLOCK_RECORD
  5
742
330
1
100
AcDbSymbolTableRecord
100
AcDbBlockTableRecord
  2
block 237
340
0
102
{BLKREFS
331
743
102
}
  0
BLOCK_RECORD
  5
74A
330
1
100
AcDbSymbolTableRecord
100
AcDbBlockTableRecord
  2
block 238
340
0
102
{BLKREFS
331
74B
102
}
  0
BLOCK_RECORD
  5
752
330
1
100
AcDbSymbolTableRecord
100
AcDbBlockTableRecord
  2
block 239
340
0
102
{BLKREFS
331
753
102
}
  0
BLOCK_RECORD
  5
75D
330
1
100
AcDbSymbolTableRecord
100
AcDbBlockTableRecord
  2
block 240
340
0
102
{BLKREFS
331
75E
102
}
  0
BLOCK_RECORD
  5
768
330
1
100
AcDbSymbolTableRecord
100
AcDbBlockTableRecord
  2
block 241
340
0
102
{BLKREFS
331
769
102
}
  0
BLOCK_RECORD
  5
76D
330
1
100
AcDbSymbolTableRecord
100
AcDbBlockTableRecord
  2
block 242
340
0
102
{BLKREFS
331
76E
102
}
  0
BLOCK_RECORD
  5
775
330
1
100
AcDbSymbolTableRecord
100
AcDbBlockTableRecord
  2
block 243
340
0
102
{BLKREFS
331
776
102
}
  0
BLOCK_RECORD
  5
77D
330
1
100
AcDbSymbolTableRecord
100
AcDbBlockTableRecord
  2
block 244
340
0
102
{BLKREFS
331
77E
102
}
  0
BLOCK_RECORD
  5
785
330
1
100
AcDbSymbolTableRecord
100
AcDbBlockTableRecord
  2
block 245
340
0
102
{BLKREFS
331
786
102
}
  0
BLOCK_RECORD
  5
789
330
1
100
AcDbSymbolTableRecord
100
AcDbBlockTableRecord
  2
block 246
340
0
102
{BLKREFS
331
78A
102
}
  0
BLOCK_RECORD
  5
791
330
1
100
AcDbSymbolTableRecord
100
AcDbBlockTableRecord
  2
block 247
340
0
102
{BLKREFS
331
792
102
}
  0
BLOCK_RECORD
  5
799
330
1
100
AcDbSymbolTableRecord
100
AcDbBlockTableRecord
  2
block 248
340
0
102
{BLKREFS
331
79A
102
}
  0
BLOCK_RECORD
  5
7A1
330
1
100
AcDbSymbolTableRecord
100
AcDbBlockTableRecord
  2
block 249
340
0
102
{BLKREFS
331
7A2
102
}
  0
BLOCK_RECORD
  5
7A9
330
1
100
AcDbSymbolTableRecord
100
AcDbBlockTableRecord
  2
block 250
340
0
102
{BLKREFS
331
7AA
102
}
  0
BLOCK_RECORD
  5
7B1
330
1
100
AcDbSymbolTableRecord
100
AcDbBlockTableRecord
  2
block 251
340
0
102
{BLKREFS
331
7B2
102
}
  0
BLOCK_RECORD
  5
7BC
330
1
100
AcDbSymbolTableRecord
100
AcDbBlockTableRecord
  2
block 252
340
0
102
{BLKREFS
331
7BD
102
}
  0
BLOCK_RECORD
  5
7C7
330
1
100
AcDbSymbolTableRecord
100
AcDbBlockTableRecord
  2
block 253
340
0
102
{BLKREFS
331
7C8
102
}
  0
BLOCK_RECORD
  5
7CC
330
1
100
AcDbSymbolTableRecord
100
AcDbBlockTableRecord
  2
block 254
340
0
102
{BLKREFS
331
7CD
102
}
  0
BLOCK_RECORD
  5
7D4
330
1
100
AcDbSymbolTableRecord
100
AcDbBlockTableRecord
  2
block 255
340
0
102
{BLKREFS
331
7D5
102
}
  0
BLOCK_RECORD
  5
7DC
330
1
100
AcDbSymbolTableRecord
100
AcDbBlockTableRecord
  2
block 256
340
0
102
{BLKREFS
331
7DD
102
}
  0
BLOCK_RECORD
  5
7E4
330
1
100
AcDbSymbolTableRecord
100
AcDbBlockTableRecord
  2
block 257
340
0
102
{BLKREFS
331
7E5
102
}
  0
BLOCK_RECORD
  5
7E8
330
1
100
AcDbSymbolTableRecord
100
AcDbBlockTableRecord
  2
block 258
340
0
102
{BLKREFS
331
7E9
102
}
  0
BLOCK_RECORD
  5
7F0
330
1
100
AcDbSymbolTableRecord
100
AcDbBlockTableRecord
  2
block 259
340
0
102
{BLKREFS
331
7F1
102
}
  0
BLOCK_RECORD
  5
7F8
330
1
100
AcDbSymbolTableRecord
100
AcDbBlockTableRecord
  2
block 260
340
0
102
{BLKREFS
331
7F9
102
}
  0
BLOCK_RECORD
  5
800
330
1
100
AcDbSymbolTableRecord
100
AcDbBlockTableRecord
  2
block 261
340
0
102
{BLKREFS
331
801
102
}
  0
BLOCK_RECORD
  5
808
330
1
100
AcDbSymbolTableRecord
100
AcDbBlockTableRecord
  2
block 262
340
0
102
{BLKREFS
331
809
102
}
  0
BLOCK_RECORD
  5
813
330
1
100
AcDbSymbolTableRecord
100
AcDbBlockTableRecord
  2
block 263
340
0
102
{BLKREFS
331
814
102
}
  0
BLOCK_RECORD
  5
81E
330
1
100
AcDbSymbolTableRecord
100
AcDbBlockTableRecord
  2
block 264
340
0
102
{BLKREFS
331
81F
102
}
  0
BLOCK_RECORD
  5
823
330
1
100
AcDbSymbolTableRecord
100
AcDbBlockTableRecord
  2
block 265
340
0
102
{BLKREFS
331
824
102
}
  0
BLOCK_RECORD
  5
82B
330
1
100
AcDbSymbolTableRecord
100
AcDbBlockTableRecord
  2
block 266
340
0
102
{BLKREFS
331
82C
102
}
  0
BLOCK_RECORD
  5
833
330
1
100
AcDbSymbolTableRecord
100
AcDbBlockTableRecord
  2
block 267
340
0
102
{BLKREFS
331
834
102
}
  0
BLOCK_RECORD
  5
83B
330
1
100
AcDbSymbolTableRecord
100
AcDbBlockTableRecord
  2
block 268
340
0
102
{BLKREFS
331
83C
102
}
  0
BLOCK_RECORD
  5
843
330
1
100
AcDbSymbolTableRecord
100
AcDbBlockTableRecord
  2
block 269
340
0
102
{BLKREFS
331
844
102
}
  0
BLOCK_RECORD
  5
84B
330
1
100
AcDbSymbolTableRecord
100
AcDbBlockTableRecord
  2
block 270
340
0
102
{BLKREFS
331
84C
102
}
  0
BLOCK_RECORD
  5
84F
330
1
100
AcDbSymbolTableRecord
100
AcDbBlockTableRecord
  2
block 271
340
0
102
{BLKREFS
331
850
102
}
  0
BLOCK_RECORD
  5
857
330
1
100
AcDbSymbolTableRecord
100
AcDbBlockTableRecord
  2
block 272
340
0
102
{BLKREFS
331
858
102
}
  0
BLOCK_RECORD
  5
85F
330
1
100
AcDbSymbolTableRecord
100
AcDbBlockTableRecord
  2
block 273
340
0
102
{BLKREFS
331
860
102
}
  0
BLOCK_RECORD
  5
864
330
1
100
AcDbSymbolTableRecord
100
AcDbBlockTableRecord
  2
block 274
340
0
102
{BLKREFS
331
865
102
}
  0
BLOCK_RECORD
  5
86F
330
1
100
AcDbSymbolTableRecord
100
AcDbBlockTableRecord
  2
block 275
340
0
102
{BLKREFS
331
870
102
}
  0
BLOCK_RECORD
  5
87A
330
1
100
AcDbSymbolTableRecord
100
AcDbBlockTableRecord
  2
block 276
340
0
102
{BLKREFS
331
87B
102
}
  0
BLOCK_RECORD
  5
87F
330
1
100
AcDbSymbolTableRecord
100
AcDbBlockTableRecord
  2
block 277
340
0
102
{BLKREFS
331
880
102
}
  0
BLOCK_RECORD
  5
887
330
1
100
AcDbSymbolTableRecord
100
AcDbBlockTableRecord
  2
block 278
340
0
102
{BLKREFS
331
888
102
}
  0
BLOCK_RECORD
  5
88F
330
1
100
AcDbSymbolTableRecord
100
AcDbBlockTableRecord
  2
block 279
340
0
102
{BLKREFS
331
890
102
}
  0
BLOCK_RECORD
  5
897
330
1
100
AcDbSymbolTableRecord
100
AcDbBlockTableRecord
  2
block 280
340
0
102
{BLKREFS
331
898
102
}
  0
BLOCK_RECORD
  5
89F
330
1
100
AcDbSymbolTableRecord
100
AcDbBlockTableRecord
  2
block 281
340
0
102
{BLKREFS
331
8A0
102
}
  0
ENDTAB
  0
ENDSEC
  0
SECTION
  2
BLOCKS
  0
BLOCK
  5
20
330
1F
100
AcDbEntity
  8
0
100
AcDbBlockBegin
  2
*Model_Space
 70
     0
 71
     0
 10
0.0
 20
0.0
 30
0.0
  3
*Model_Space
  1

  0
ENDBLK
  5
21
330
1F
100
AcDbEntity
  8
0
100
AcDbBlockEnd
  0
BLOCK
  5
1C
330
1B
100
AcDbEntity
 67
     1
  8
0
100
AcDbBlockBegin
  2
*Paper_Space
 70
     0
 71
     0
 10
0.0
 20
0.0
 30
0.0
  3
*Paper_Space
  1

  0
ENDBLK
  5
1D
330
1B
100
AcDbEntity
 67
     1
  8
0
100
AcDbBlockEnd
  0
BLOCK
  5
24
330
23
100
AcDbEntity
  8
0
100
AcDbBlockBegin
  2
*Paper_Space0
 70
     0
 71
     0
 10
0.0
 20
0.0
 30
0.0
  3
*Paper_Space0
  1

  0
ENDBLK
  5
25
330
23
100
AcDbEntity
  8
0
100
AcDbBlockEnd
  0
BLOCK
  5
3E
330
3C
100
AcDbEntity
  8
0
100
AcDbBlockBegin
  2
block 2
 70
     0
 71
     0
 10
0.0
 20
0.0
 30
0.0
  3
block 2
  1

  0
POLYLINE
  5
40
330
3C
100
AcDbEntity
  8
cuerpo
 62
     7
420
 16777215
370
    30
100
AcDb2dPolyline
 66
     1
 10
0.0
 20
0.0
 30
0.0
  0
VERTEX
  5
41
330
40
100
AcDbEntity
  8
cuerpo
 62
     7
420
 16777215
370
    30
100
AcDbVertex
100
AcDb2dVertex
 10
-105.5322319614642
 20
-64.01366372097576
 30
0.0
  0
VERTEX
  5
42
330
40
100
AcDbEntity
  8
cuerpo
 62
     7
420
 16777215
370
    30
100
AcDbVertex
100
AcDb2dVertex
 10
-105.5322319614642
 20
-64.78054197599236
 30
0.0
  0
SEQEND
  5
43
330
40
100
AcDbEntity
  8
cuerpo
370
    30
  0
ENDBLK
  5
3F
330
3C
100
AcDbEntity
  8
0
100
AcDbBlockEnd
  0
BLOCK
  5
46
330
44
100
AcDbEntity
  8
0
100
AcDbBlockBegin
  2
block 3
 70
     0
 71
     0
 10
0.0
 20
0.0
 30
0.0
  3
block 3
  1

  0
POLYLINE
  5
48
330
44
100
AcDbEntity
  8
cuerpo
 62
     7
420
 16777215
370
    30
100
AcDb2dPolyline
 66
     1
 10
0.0
 20
0.0
 30
0.0
  0
VERTEX
  5
49
330
48
100
AcDbEntity
  8
cuerpo
 62
     7
420
 16777215
370
    30
100
AcDbVertex
100
AcDb2dVertex
 10
-117.5478637401443
 20
-64.01366372097576
 30
0.0
  0
VERTEX
  5
4A
330
48
100
AcDbEntity
  8
cuerpo
 62
     7
420
 16777215
370
    30
100
AcDbVertex
100
AcDb2dVertex
 10
-117.5478637401443
 20
-64.78054197599236
 30
0.0
  0
SEQEND
  5
4B
330
48
100
AcDbEntity
  8
cuerpo
370
    30
  0
ENDBLK
  5
47
330
44
100
AcDbEntity
  8
0
100
AcDbBlockEnd
  0
BLOCK
  5
4E
330
4C
100
AcDbEntity
  8
0
100
AcDbBlockBegin
  2
block 4
 70
     0
 71
     0
 10
0.0
 20
0.0
 30
0.0
  3
block 4
  1

  0
POLYLINE
  5
50
330
4C
100
AcDbEntity
  8
cuerpo
 62
     7
420
 16777215
370
    30
100
AcDb2dPolyline
 66
     1
 10
0.0
 20
0.0
 30
0.0
  0
VERTEX
  5
51
330
50
100
AcDbEntity
  8
cuerpo
 62
     7
420
 16777215
370
    30
100
AcDbVertex
100
AcDb2dVertex
 10
-117.5478637401443
 20
-64.78054197599236
 30
0.0
  0
VERTEX
  5
52
330
50
100
AcDbEntity
  8
cuerpo
 62
     7
420
 16777215
370
    30
100
AcDbVertex
100
AcDb2dVertex
 10
-105.5322319614642
 20
-64.78054197599236
 30
0.0
  0
SEQEND
  5
53
330
50
100
AcDbEntity
  8
cuerpo
370
    30
  0
ENDBLK
  5
4F
330
4C
100
AcDbEntity
  8
0
100
AcDbBlockEnd
  0
BLOCK
  5
56
330
54
100
AcDbEntity
  8
0
100
AcDbBlockBegin
  2
block 5
 70
     0
 71
     0
 10
0.0
 20
0.0
 30
0.0
  3
block 5
  1

  0
POLYLINE
  5
58
330
54
100
AcDbEntity
  8
cuerpo
 62
     7
420
 16777215
370
    30
100
AcDb2dPolyline
 66
     1
 10
0.0
 20
0.0
 30
0.0
  0
VERTEX
  5
59
330
58
100
AcDbEntity
  8
cuerpo
 62
     7
420
 16777215
370
    30
100
AcDbVertex
100
AcDb2dVertex
 10
-117.5478637401443
 20
-64.01366372097576
 30
0.0
  0
VERTEX
  5
5A
330
58
100
AcDbEntity
  8
cuerpo
 62
     7
420
 16777215
370
    30
100
AcDbVertex
100
AcDb2dVertex
 10
-105.5322319614642
 20
-64.01366372097576
 30
0.0
  0
SEQEND
  5
5B
330
58
100
AcDbEntity
  8
cuerpo
370
    30
  0
ENDBLK
  5
57
330
54
100
AcDbEntity
  8
0
100
AcDbBlockEnd
  0
BLOCK
  5
5E
330
5C
100
AcDbEntity
  8
0
100
AcDbBlockBegin
  2
block 6
 70
     0
 71
     0
 10
0.0
 20
0.0
 30
0.0
  3
block 6
  1

  0
POLYLINE
  5
60
330
5C
100
AcDbEntity
  8
cuerpo
 62
     7
420
 16777215
370
    30
100
AcDb2dPolyline
 66
     1
 10
0.0
 20
0.0
 30
0.0
  0
VERTEX
  5
61
330
60
100
AcDbEntity
  8
cuerpo
 62
     7
420
 16777215
370
    30
100
AcDbVertex
100
AcDb2dVertex
 10
-111.6989528800614
 20
-71.97011174416025
 30
0.0
  0
VERTEX
  5
62
330
60
100
AcDbEntity
  8
cuerpo
 62
     7
420
 16777215
370
    30
100
AcDbVertex
100
AcDb2dVertex
 10
-111.6989528800614
 20
-72.73630098007982
 30
0.0
  0
SEQEND
  5
63
330
60
100
AcDbEntity
  8
cuerpo
370
    30
  0
ENDBLK
  5
5F
330
5C
100
AcDbEntity
  8
0
100
AcDbBlockEnd
  0
BLOCK
  5
66
330
64
100
AcDbEntity
  8
0
100
AcDbBlockBegin
  2
block 7
 70
     0
 71
     0
 10
0.0
 20
0.0
 30
0.0
  3
block 7
  1

  0
POLYLINE
  5
68
330
64
100
AcDbEntity
  8
cuerpo
 62
     7
420
 16777215
370
    30
100
AcDb2dPolyline
 66
     1
 10
0.0
 20
0.0
 30
0.0
  0
VERTEX
  5
69
330
68
100
AcDbEntity
  8
cuerpo
 62
     7
420
 16777215
370
    30
100
AcDbVertex
100
AcDb2dVertex
 10
-109.142003010909
 20
-71.97011174416025
 30
0.0
  0
VERTEX
  5
6A
330
68
100
AcDbEntity
  8
cuerpo
 62
     7
420
 16777215
370
    30
100
AcDbVertex
100
AcDb2dVertex
 10
-109.142003010909
 20
-72.73630098007982
 30
0.0
  0
SEQEND
  5
6B
330
68
100
AcDbEntity
  8
cuerpo
370
    30
  0
ENDBLK
  5
67
330
64
100
AcDbEntity
  8
0
100
AcDbBlockEnd
  0
BLOCK
  5
6E
330
6C
100
AcDbEntity
  8
0
100
AcDbBlockBegin
  2
block 8
 70
     0
 71
     0
 10
0.0
 20
0.0
 30
0.0
  3
block 8
  1

  0
POLYLINE
  5
70
330
6C
100
AcDbEntity
  8
cuerpo
 62
     7
420
 16777215
370
    30
100
AcDb2dPolyline
 66
     1
 10
0.0
 20
0.0
 30
0.0
  0
VERTEX
  5
71
330
70
100
AcDbEntity
  8
cuerpo
 62
     7
420
 16777215
370
    30
100
AcDbVertex
100
AcDb2dVertex
 10
-109.142003010909
 20
-73.75880532010197
 30
0.0
  0
VERTEX
  5
72
330
70
100
AcDbEntity
  8
cuerpo
 62
     7
420
 16777215
370
    30
100
AcDbVertex
100
AcDb2dVertex
 10
-109.142003010909
 20
-81.37074379476148
 30
0.0
  0
SEQEND
  5
73
330
70
100
AcDbEntity
  8
cuerpo
370
    30
  0
ENDBLK
  5
6F
330
6C
100
AcDbEntity
  8
0
100
AcDbBlockEnd
  0
BLOCK
  5
76
330
74
100
AcDbEntity
  8
0
100
AcDbBlockBegin
  2
block 9
 70
     0
 71
     0
 10
0.0
 20
0.0
 30
0.0
  3
block 9
  1

  0
POLYLINE
  5
78
330
74
100
AcDbEntity
  8
cuerpo
 62
     7
420
 16777215
370
    30
100
AcDb2dPolyline
 66
     1
 10
0.0
 20
0.0
 30
0.0
  0
VERTEX
  5
79
330
78
100
AcDbEntity
  8
cuerpo
 62
     7
420
 16777215
370
    30
100
AcDbVertex
100
AcDb2dVertex
 10
-111.6989528800614
 20
-73.75880532010197
 30
0.0
  0
VERTEX
  5
7A
330
78
100
AcDbEntity
  8
cuerpo
 62
     7
420
 16777215
370
    30
100
AcDbVertex
100
AcDb2dVertex
 10
-111.6989528800614
 20
-82.0852565984023
 30
0.0
  0
SEQEND
  5
7B
330
78
100
AcDbEntity
  8
cuerpo
370
    30
  0
ENDBLK
  5
77
330
74
100
AcDbEntity
  8
0
100
AcDbBlockEnd
  0
BLOCK
  5
7E
330
7C
100
AcDbEntity
  8
0
100
AcDbBlockBegin
  2
block 10
 70
     0
 71
     0
 10
0.0
 20
0.0
 30
0.0
  3
block 10
  1

  0
POLYLINE
  5
80
330
7C
100
AcDbEntity
  8
cuerpo
 62
     7
420
 16777215
370
    30
100
AcDb2dPolyline
 66
     1
 10
0.0
 20
0.0
 30
0.0
  0
VERTEX
  5
81
330
80
100
AcDbEntity
  8
cuerpo
 62
     7
420
 16777215
370
    30
100
AcDbVertex
100
AcDb2dVertex
 10
-109.142003010909
 20
-65.54707572146046
 30
0.0
  0
VERTEX
  5
82
330
80
100
AcDbEntity
  8
cuerpo
 62
     7
420
 16777215
370
    30
100
AcDbVertex
100
AcDb2dVertex
 10
-109.142003010909
 20
-67.33680282604774
 30
0.0
  0
SEQEND
  5
83
330
80
100
AcDbEntity
  8
cuerpo
370
    30
  0
ENDBLK
  5
7F
330
7C
100
AcDbEntity
  8
0
100
AcDbBlockEnd
  0
BLOCK
  5
86
330
84
100
AcDbEntity
  8
0
100
AcDbBlockBegin
  2
block 11
 70
     0
 71
     0
 10
0.0
 20
0.0
 30
0.0
  3
block 11
  1

  0
POLYLINE
  5
88
330
84
100
AcDbEntity
  8
cuerpo
 62
     7
420
 16777215
370
    30
100
AcDb2dPolyline
 66
     1
 10
0.0
 20
0.0
 30
0.0
  0
VERTEX
  5
89
330
88
100
AcDbEntity
  8
cuerpo
 62
     7
420
 16777215
370
    30
100
AcDbVertex
100
AcDb2dVertex
 10
-108.8868936902262
 20
-68.32726777805708
 30
0.0
  0
VERTEX
  5
8A
330
88
100
AcDbEntity
  8
cuerpo
 62
     7
420
 16777215
370
    30
100
AcDbVertex
100
AcDb2dVertex
 10
-108.8868936902262
 20
-68.74309080312673
 30
0.0
  0
SEQEND
  5
8B
330
88
100
AcDbEntity
  8
cuerpo
370
    30
  0
ENDBLK
  5
87
330
84
100
AcDbEntity
  8
0
100
AcDbBlockEnd
  0
BLOCK
  5
8E
330
8C
100
AcDbEntity
  8
0
100
AcDbBlockBegin
  2
block 12
 70
     0
 71
     0
 10
0.0
 20
0.0
 30
0.0
  3
block 12
  1

  0
SPLINE
  5
90
330
8C
100
AcDbEntity
  8
cuerpo
 62
     7
420
 16777215
370
    30
100
AcDbSpline
210
0.0
220
0.0
230
1.0
 70
     8
 71
     3
 72
     8
 73
     4
 74
     0
 42
0.0000000001
 43
0.0000000001
 40
0.0
 40
0.0
 40
0.0
 40
0.0
 40
1.0
 40
1.0
 40
1.0
 40
1.0
 10
-108.8868936902262
 20
-68.32726777805708
 30
0.0
 10
-108.8868936902262
 20
-67.98069117224094
 30
0.0
 10
-108.9749158798743
 20
-67.64031573829826
 30
0.0
 10
-109.142003010909
 20
-67.33680282604774
 30
0.0
  0
ENDBLK
  5
8F
330
8C
100
AcDbEntity
  8
0
100
AcDbBlockEnd
  0
BLOCK
  5
93
330
91
100
AcDbEntity
  8
0
100
AcDbBlockBegin
  2
block 13
 70
     0
 71
     0
 10
0.0
 20
0.0
 30
0.0
  3
block 13
  1

  0
POLYLINE
  5
95
330
91
100
AcDbEntity
  8
cuerpo
 62
     7
420
 16777215
370
    30
100
AcDb2dPolyline
 66
     1
 10
0.0
 20
0.0
 30
0.0
  0
VERTEX
  5
96
330
95
100
AcDbEntity
  8
cuerpo
 62
     7
420
 16777215
370
    30
100
AcDbVertex
100
AcDb2dVertex
 10
-109.3340670842116
 20
-65.54707572146046
 30
0.0
  0
VERTEX
  5
97
330
95
100
AcDbEntity
  8
cuerpo
 62
     7
420
 16777215
370
    30
100
AcDbVertex
100
AcDb2dVertex
 10
-109.3340670842116
 20
-67.33680282604774
 30
0.0
  0
SEQEND
  5
98
330
95
100
AcDbEntity
  8
cuerpo
370
    30
  0
ENDBLK
  5
94
330
91
100
AcDbEntity
  8
0
100
AcDbBlockEnd
  0
BLOCK
  5
9B
330
99
100
AcDbEntity
  8
0
100
AcDbBlockBegin
  2
block 14
 70
     0
 71
     0
 10
0.0
 20
0.0
 30
0.0
  3
block 14
  1

  0
POLYLINE
  5
9D
330
99
100
AcDbEntity
  8
cuerpo
 62
     7
420
 16777215
370
    30
100
AcDb2dPolyline
 66
     1
 10
0.0
 20
0.0
 30
0.0
  0
VERTEX
  5
9E
330
9D
100
AcDbEntity
  8
cuerpo
 62
     7
420
 16777215
370
    30
100
AcDbVertex
100
AcDb2dVertex
 10
-110.101462103551
 20
-65.54707572146046
 30
0.0
  0
VERTEX
  5
9F
330
9D
100
AcDbEntity
  8
cuerpo
 62
     7
420
 16777215
370
    30
100
AcDbVertex
100
AcDb2dVertex
 10
-110.101462103551
 20
-67.33680282604774
 30
0.0
  0
SEQEND
  5
A0
330
9D
100
AcDbEntity
  8
cuerpo
370
    30
  0
ENDBLK
  5
9C
330
99
100
AcDbEntity
  8
0
100
AcDbBlockEnd
  0
BLOCK
  5
A3
330
A1
100
AcDbEntity
  8
0
100
AcDbBlockBegin
  2
block 15
 70
     0
 71
     0
 10
0.0
 20
0.0
 30
0.0
  3
block 15
  1

  0
POLYLINE
  5
A5
330
A1
100
AcDbEntity
  8
cuerpo
 62
     7
420
 16777215
370
    30
100
AcDb2dPolyline
 66
     1
 10
0.0
 20
0.0
 30
0.0
  0
VERTEX
  5
A6
330
A5
100
AcDbEntity
  8
cuerpo
 62
     7
420
 16777215
370
    30
100
AcDbVertex
100
AcDb2dVertex
 10
-110.7403550612906
 20
-65.54707572146046
 30
0.0
  0
VERTEX
  5
A7
330
A5
100
AcDbEntity
  8
cuerpo
 62
     7
420
 16777215
370
    30
100
AcDbVertex
100
AcDb2dVertex
 10
-110.7403550612906
 20
-67.33680282604774
 30
0.0
  0
SEQEND
  5
A8
330
A5
100
AcDbEntity
  8
cuerpo
370
    30
  0
ENDBLK
  5
A4
330
A1
100
AcDbEntity
  8
0
100
AcDbBlockEnd
  0
BLOCK
  5
AB
330
A9
100
AcDbEntity
  8
0
100
AcDbBlockBegin
  2
block 16
 70
     0
 71
     0
 10
0.0
 20
0.0
 30
0.0
  3
block 16
  1

  0
POLYLINE
  5
AD
330
A9
100
AcDbEntity
  8
cuerpo
 62
     7
420
 16777215
370
    30
100
AcDb2dPolyline
 66
     1
 10
0.0
 20
0.0
 30
0.0
  0
VERTEX
  5
AE
330
AD
100
AcDbEntity
  8
cuerpo
 62
     7
420
 16777215
370
    30
100
AcDbVertex
100
AcDb2dVertex
 10
-109.7812404781971
 20
-65.54707572146046
 30
0.0
  0
VERTEX
  5
AF
330
AD
100
AcDbEntity
  8
cuerpo
 62
     7
420
 16777215
370
    30
100
AcDbVertex
100
AcDb2dVertex
 10
-109.7812404781971
 20
-67.33680282604774
 30
0.0
  0
SEQEND
  5
B0
330
AD
100
AcDbEntity
  8
cuerpo
370
    30
  0
ENDBLK
  5
AC
330
A9
100
AcDbEntity
  8
0
100
AcDbBlockEnd
  0
BLOCK
  5
B3
330
B1
100
AcDbEntity
  8
0
100
AcDbBlockBegin
  2
block 17
 70
     0
 71
     0
 10
0.0
 20
0.0
 30
0.0
  3
block 17
  1

  0
SPLINE
  5
B5
330
B1
100
AcDbEntity
  8
cuerpo
 62
     7
420
 16777215
370
    30
100
AcDbSpline
210
0.0
220
0.0
230
1.0
 70
     8
 71
     3
 72
    11
 73
     7
 74
     0
 42
0.0000000001
 43
0.0000000001
 40
0.0
 40
0.0
 40
0.0
 40
0.0
 40
1.0
 40
1.0
 40
1.0
 40
2.0
 40
2.0
 40
2.0
 40
2.0
 10
-109.7812404781971
 20
-67.33680282604774
 30
0.0
 10
-109.7812404781971
 20
-67.51284720534402
 30
0.0
 10
-109.6815049638991
 20
-67.65650768707893
 30
0.0
 10
-109.5578260359786
 20
-67.65650768707893
 30
0.0
 10
-109.4343193628324
 20
-67.65650768707893
 30
0.0
 10
-109.3340670842116
 20
-67.51284720534402
 30
0.0
 10
-109.3340670842116
 20
-67.33680282604774
 30
0.0
  0
ENDBLK
  5
B4
330
B1
100
AcDbEntity
  8
0
100
AcDbBlockEnd
  0
BLOCK
  5
B8
330
B6
100
AcDbEntity
  8
0
100
AcDbBlockBegin
  2
block 18
 70
     0
 71
     0
 10
0.0
 20
0.0
 30
0.0
  3
block 18
  1

  0
SPLINE
  5
BA
330
B6
100
AcDbEntity
  8
cuerpo
 62
     7
420
 16777215
370
    30
100
AcDbSpline
210
0.0
220
0.0
230
1.0
 70
     8
 71
     3
 72
    11
 73
     7
 74
     0
 42
0.0000000001
 43
0.0000000001
 40
0.0
 40
0.0
 40
0.0
 40
0.0
 40
1.0
 40
1.0
 40
1.0
 40
2.0
 40
2.0
 40
2.0
 40
2.0
 10
-110.7403550612906
 20
-67.33680282604774
 30
0.0
 10
-110.7403550612906
 20
-67.51284720534402
 30
0.0
 10
-110.5970390891042
 20
-67.65650768707893
 30
0.0
 10
-110.420994709808
 20
-67.65650768707893
 30
0.0
 10
-110.2442613114146
 20
-67.65650768707893
 30
0.0
 10
-110.101462103551
 20
-67.51284720534402
 30
0.0
 10
-110.101462103551
 20
-67.33680282604774
 30
0.0
  0
ENDBLK
  5
B9
330
B6
100
AcDbEntity
  8
0
100
AcDbBlockEnd
  0
BLOCK
  5
BD
330
BB
100
AcDbEntity
  8
0
100
AcDbBlockBegin
  2
block 19
 70
     0
 71
     0
 10
0.0
 20
0.0
 30
0.0
  3
block 19
  1

  0
POLYLINE
  5
BF
330
BB
100
AcDbEntity
  8
cuerpo
 62
     7
420
 16777215
370
    30
100
AcDb2dPolyline
 66
     1
 10
0.0
 20
0.0
 30
0.0
  0
VERTEX
  5
C0
330
BF
100
AcDbEntity
  8
cuerpo
 62
     7
420
 16777215
370
    30
100
AcDbVertex
100
AcDb2dVertex
 10
-111.9542344555184
 20
-68.32726777805708
 30
0.0
  0
VERTEX
  5
C1
330
BF
100
AcDbEntity
  8
cuerpo
 62
     7
420
 16777215
370
    30
100
AcDbVertex
100
AcDb2dVertex
 10
-111.9542344555184
 20
-68.74309080312673
 30
0.0
  0
SEQEND
  5
C2
330
BF
100
AcDbEntity
  8
cuerpo
370
    30
  0
ENDBLK
  5
BE
330
BB
100
AcDbEntity
  8
0
100
AcDbBlockEnd
  0
BLOCK
  5
C5
330
C3
100
AcDbEntity
  8
0
100
AcDbBlockBegin
  2
block 20
 70
     0
 71
     0
 10
0.0
 20
0.0
 30
0.0
  3
block 20
  1

  0
SPLINE
  5
C7
330
C3
100
AcDbEntity
  8
cuerpo
 62
     7
420
 16777215
370
    30
100
AcDbSpline
210
0.0
220
0.0
230
1.0
 70
     8
 71
     3
 72
     8
 73
     4
 74
     0
 42
0.0000000001
 43
0.0000000001
 40
0.0
 40
0.0
 40
0.0
 40
0.0
 40
1.0
 40
1.0
 40
1.0
 40
1.0
 10
-111.9444159333854
 20
-68.12435165397586
 30
0.0
 10
-111.9507893600331
 20
-68.19187552548675
 30
0.0
 10
-111.9542344555184
 20
-68.25905488744912
 30
0.0
 10
-111.9542344555184
 20
-68.32726777805708
 30
0.0
  0
ENDBLK
  5
C6
330
C3
100
AcDbEntity
  8
0
100
AcDbBlockEnd
  0
BLOCK
  5
CA
330
C8
100
AcDbEntity
  8
0
100
AcDbBlockBegin
  2
block 21
 70
     0
 71
     0
 10
0.0
 20
0.0
 30
0.0
  3
block 21
  1

  0
POLYLINE
  5
CC
330
C8
100
AcDbEntity
  8
cuerpo
 62
     7
420
 16777215
370
    30
100
AcDb2dPolyline
 66
     1
 10
0.0
 20
0.0
 30
0.0
  0
VERTEX
  5
CD
330
CC
100
AcDbEntity
  8
cuerpo
 62
     7
420
 16777215
370
    30
100
AcDbVertex
100
AcDb2dVertex
 10
-111.9542344555184
 20
-68.74309080312673
 30
0.0
  0
VERTEX
  5
CE
330
CC
100
AcDbEntity
  8
cuerpo
 62
     7
420
 16777215
370
    30
100
AcDbVertex
100
AcDb2dVertex
 10
-111.5106784117925
 20
-68.74309080312673
 30
0.0
  0
SEQEND
  5
CF
330
CC
100
AcDbEntity
  8
cuerpo
370
    30
  0
ENDBLK
  5
CB
330
C8
100
AcDbEntity
  8
0
100
AcDbBlockEnd
  0
BLOCK
  5
D2
330
D0
100
AcDbEntity
  8
0
100
AcDbBlockBegin
  2
block 22
 70
     0
 71
     0
 10
0.0
 20
0.0
 30
0.0
  3
block 22
  1

  0
POLYLINE
  5
D4
330
D0
100
AcDbEntity
  8
cuerpo
 62
     7
420
 16777215
370
    30
100
AcDb2dPolyline
 66
     1
 10
0.0
 20
0.0
 30
0.0
  0
VERTEX
  5
D5
330
D4
100
AcDbEntity
  8
cuerpo
 62
     7
420
 16777215
370
    30
100
AcDbVertex
100
AcDb2dVertex
 10
-109.142003010909
 20
-71.20254447004659
 30
0.0
  0
VERTEX
  5
D6
330
D4
100
AcDbEntity
  8
cuerpo
 62
     7
420
 16777215
370
    30
100
AcDbVertex
100
AcDb2dVertex
 10
-109.142003010909
 20
-68.74309080312673
 30
0.0
  0
SEQEND
  5
D7
330
D4
100
AcDbEntity
  8
cuerpo
370
    30
  0
ENDBLK
  5
D3
330
D0
100
AcDbEntity
  8
0
100
AcDbBlockEnd
  0
BLOCK
  5
DA
330
D8
100
AcDbEntity
  8
0
100
AcDbBlockBegin
  2
block 23
 70
     0
 71
     0
 10
0.0
 20
0.0
 30
0.0
  3
block 23
  1

  0
POLYLINE
  5
DC
330
D8
100
AcDbEntity
  8
cuerpo
 62
     7
420
 16777215
370
    30
100
AcDb2dPolyline
 66
     1
 10
0.0
 20
0.0
 30
0.0
  0
VERTEX
  5
DD
330
DC
100
AcDbEntity
  8
cuerpo
 62
     7
420
 16777215
370
    30
100
AcDbVertex
100
AcDb2dVertex
 10
-111.6989528800614
 20
-71.20254447004659
 30
0.0
  0
VERTEX
  5
DE
330
DC
100
AcDbEntity
  8
cuerpo
 62
     7
420
 16777215
370
    30
100
AcDbVertex
100
AcDb2dVertex
 10
-111.6989528800614
 20
-68.74309080312673
 30
0.0
  0
SEQEND
  5
DF
330
DC
100
AcDbEntity
  8
cuerpo
370
    30
  0
ENDBLK
  5
DB
330
D8
100
AcDbEntity
  8
0
100
AcDbBlockEnd
  0
BLOCK
  5
E2
330
E0
100
AcDbEntity
  8
0
100
AcDbBlockBegin
  2
block 24
 70
     0
 71
     0
 10
0.0
 20
0.0
 30
0.0
  3
block 24
  1

  0
POLYLINE
  5
E4
330
E0
100
AcDbEntity
  8
cuerpo
 62
     7
420
 16777215
370
    30
100
AcDb2dPolyline
 66
     1
 10
0.0
 20
0.0
 30
0.0
  0
VERTEX
  5
E5
330
E4
100
AcDbEntity
  8
cuerpo
 62
     7
420
 16777215
370
    30
100
AcDbVertex
100
AcDb2dVertex
 10
-111.6989528800614
 20
-90.0527289271396
 30
0.0
  0
VERTEX
  5
E6
330
E4
100
AcDbEntity
  8
cuerpo
 62
     7
420
 16777215
370
    30
100
AcDbVertex
100
AcDb2dVertex
 10
-111.6989528800614
 20
-89.79744735168259
 30
0.0
  0
SEQEND
  5
E7
330
E4
100
AcDbEntity
  8
cuerpo
370
    30
  0
ENDBLK
  5
E3
330
E0
100
AcDbEntity
  8
0
100
AcDbBlockEnd
  0
BLOCK
  5
EA
330
E8
100
AcDbEntity
  8
0
100
AcDbBlockBegin
  2
block 25
 70
     0
 71
     0
 10
0.0
 20
0.0
 30
0.0
  3
block 25
  1

  0
SPLINE
  5
EC
330
E8
100
AcDbEntity
  8
cuerpo
 62
     7
420
 16777215
370
    30
100
AcDbSpline
210
0.0
220
0.0
230
1.0
 70
     8
 71
     3
 72
    11
 73
     7
 74
     0
 42
0.0000000001
 43
0.0000000001
 40
0.0
 40
0.0
 40
0.0
 40
0.0
 40
1.0
 40
1.0
 40
1.0
 40
2.0
 40
2.0
 40
2.0
 40
2.0
 10
-109.2703328177345
 20
-89.67032332827687
 30
0.0
 10
-109.0419229870624
 20
-89.65309785085061
 30
0.0
 10
-108.870357231897
 20
-89.4529378031576
 30
0.0
 10
-108.8879272188718
 20
-89.22487248203406
 30
0.0
 10
-108.8918890786798
 20
-89.17112899246416
 30
0.0
 10
-108.9067029892664
 20
-89.11876354108837
 30
0.0
 10
-108.9304741481146
 20
-89.07053220429488
 30
0.0
  0
ENDBLK
  5
EB
330
E8
100
AcDbEntity
  8
0
100
AcDbBlockEnd
  0
BLOCK
  5
EF
330
ED
100
AcDbEntity
  8
0
100
AcDbBlockBegin
  2
block 26
 70
     0
 71
     0
 10
0.0
 20
0.0
 30
0.0
  3
block 26
  1

  0
SPLINE
  5
F1
330
ED
100
AcDbEntity
  8
cuerpo
 62
     7
420
 16777215
370
    30
100
AcDbSpline
210
0.0
220
0.0
230
1.0
 70
     8
 71
     3
 72
    11
 73
     7
 74
     0
 42
0.0000000001
 43
0.0000000001
 40
0.0
 40
0.0
 40
0.0
 40
0.0
 40
1.0
 40
1.0
 40
1.0
 40
2.0
 40
2.0
 40
2.0
 40
2.0
 10
-111.91065399763
 20
-89.07053220429488
 30
0.0
 10
-112.0131455883162
 20
-89.27620440476429
 30
0.0
 10
-111.9299465323474
 20
-89.5245957892508
 30
0.0
 10
-111.7253078605235
 20
-89.62725963471125
 30
0.0
 10
-111.6772487785043
 20
-89.651375303108
 30
0.0
 10
-111.6248833271285
 20
-89.66550019459751
 30
0.0
 10
-111.5713120923329
 20
-89.67032332827687
 30
0.0
  0
ENDBLK
  5
F0
330
ED
100
AcDbEntity
  8
0
100
AcDbBlockEnd
  0
BLOCK
  5
F4
330
F2
100
AcDbEntity
  8
0
100
AcDbBlockBegin
  2
block 27
 70
     0
 71
     0
 10
0.0
 20
0.0
 30
0.0
  3
block 27
  1

  0
POLYLINE
  5
F6
330
F2
100
AcDbEntity
  8
cuerpo
 62
     7
420
 16777215
370
    30
100
AcDb2dPolyline
 66
     1
 10
0.0
 20
0.0
 30
0.0
  0
VERTEX
  5
F7
330
F6
100
AcDbEntity
  8
cuerpo
 62
     7
420
 16777215
370
    30
100
AcDbVertex
100
AcDb2dVertex
 10
-111.9542344555184
 20
-85.45077037794287
 30
0.0
  0
VERTEX
  5
F8
330
F6
100
AcDbEntity
  8
cuerpo
 62
     7
420
 16777215
370
    30
100
AcDbVertex
100
AcDb2dVertex
 10
-108.8868936902262
 20
-85.45077037794287
 30
0.0
  0
SEQEND
  5
F9
330
F6
100
AcDbEntity
  8
cuerpo
370
    30
  0
ENDBLK
  5
F5
330
F2
100
AcDbEntity
  8
0
100
AcDbBlockEnd
  0
BLOCK
  5
FC
330
FA
100
AcDbEntity
  8
0
100
AcDbBlockBegin
  2
block 28
 70
     0
 71
     0
 10
0.0
 20
0.0
 30
0.0
  3
block 28
  1

  0
POLYLINE
  5
FE
330
FA
100
AcDbEntity
  8
cuerpo
 62
     7
420
 16777215
370
    30
100
AcDb2dPolyline
 66
     1
 10
0.0
 20
0.0
 30
0.0
  0
VERTEX
  5
FF
330
FE
100
AcDbEntity
  8
cuerpo
 62
     7
420
 16777215
370
    30
100
AcDbVertex
100
AcDb2dVertex
 10
-109.142003010909
 20
-88.64747447870619
 30
0.0
  0
VERTEX
  5
100
330
FE
100
AcDbEntity
  8
cuerpo
 62
     7
420
 16777215
370
    30
100
AcDbVertex
100
AcDb2dVertex
 10
-109.142003010909
 20
-86.85705835502185
 30
0.0
  0
SEQEND
  5
101
330
FE
100
AcDbEntity
  8
cuerpo
370
    30
  0
ENDBLK
  5
FD
330
FA
100
AcDbEntity
  8
0
100
AcDbBlockEnd
  0
BLOCK
  5
104
330
102
100
AcDbEntity
  8
0
100
AcDbBlockBegin
  2
block 29
 70
     0
 71
     0
 10
0.0
 20
0.0
 30
0.0
  3
block 29
  1

  0
POLYLINE
  5
106
330
102
100
AcDbEntity
  8
cuerpo
 62
     7
420
 16777215
370
    30
100
AcDb2dPolyline
 66
     1
 10
0.0
 20
0.0
 30
0.0
  0
VERTEX
  5
107
330
106
100
AcDbEntity
  8
cuerpo
 62
     7
420
 16777215
370
    30
100
AcDbVertex
100
AcDb2dVertex
 10
-108.8868936902262
 20
-85.86728242210957
 30
0.0
  0
VERTEX
  5
108
330
106
100
AcDbEntity
  8
cuerpo
 62
     7
420
 16777215
370
    30
100
AcDbVertex
100
AcDb2dVertex
 10
-108.8868936902262
 20
-85.45077037794287
 30
0.0
  0
SEQEND
  5
109
330
106
100
AcDbEntity
  8
cuerpo
370
    30
  0
ENDBLK
  5
105
330
102
100
AcDbEntity
  8
0
100
AcDbBlockEnd
  0
BLOCK
  5
10C
330
10A
100
AcDbEntity
  8
0
100
AcDbBlockBegin
  2
block 30
 70
     0
 71
     0
 10
0.0
 20
0.0
 30
0.0
  3
block 30
  1

  0
SPLINE
  5
10E
330
10A
100
AcDbEntity
  8
cuerpo
 62
     7
420
 16777215
370
    30
100
AcDbSpline
210
0.0
220
0.0
230
1.0
 70
     8
 71
     3
 72
     8
 73
     4
 74
     0
 42
0.0000000001
 43
0.0000000001
 40
0.0
 40
0.0
 40
0.0
 40
0.0
 40
1.0
 40
1.0
 40
1.0
 40
1.0
 10
-109.142003010909
 20
-86.85705835502185
 30
0.0
 10
-108.9749158798743
 20
-86.55423446186839
 30
0.0
 10
-108.8868936902262
 20
-86.21385902792571
 30
0.0
 10
-108.8868936902262
 20
-85.86728242210957
 30
0.0
  0
ENDBLK
  5
10D
330
10A
100
AcDbEntity
  8
0
100
AcDbBlockEnd
  0
BLOCK
  5
111
330
10F
100
AcDbEntity
  8
0
100
AcDbBlockBegin
  2
block 31
 70
     0
 71
     0
 10
0.0
 20
0.0
 30
0.0
  3
block 31
  1

  0
POLYLINE
  5
113
330
10F
100
AcDbEntity
  8
cuerpo
 62
     7
420
 16777215
370
    30
100
AcDb2dPolyline
 66
     1
 10
0.0
 20
0.0
 30
0.0
  0
VERTEX
  5
114
330
113
100
AcDbEntity
  8
cuerpo
 62
     7
420
 16777215
370
    30
100
AcDbVertex
100
AcDb2dVertex
 10
-109.142003010909
 20
-88.64747447870619
 30
0.0
  0
VERTEX
  5
115
330
113
100
AcDbEntity
  8
cuerpo
 62
     7
420
 16777215
370
    30
100
AcDbVertex
100
AcDb2dVertex
 10
-108.9304741481146
 20
-89.07053220429488
 30
0.0
  0
SEQEND
  5
116
330
113
100
AcDbEntity
  8
cuerpo
370
    30
  0
ENDBLK
  5
112
330
10F
100
AcDbEntity
  8
0
100
AcDbBlockEnd
  0
BLOCK
  5
119
330
117
100
AcDbEntity
  8
0
100
AcDbBlockBegin
  2
block 32
 70
     0
 71
     0
 10
0.0
 20
0.0
 30
0.0
  3
block 32
  1

  0
POLYLINE
  5
11B
330
117
100
AcDbEntity
  8
cuerpo
 62
     7
420
 16777215
370
    30
100
AcDb2dPolyline
 66
     1
 10
0.0
 20
0.0
 30
0.0
  0
VERTEX
  5
11C
330
11B
100
AcDbEntity
  8
cuerpo
 62
     7
420
 16777215
370
    30
100
AcDbVertex
100
AcDb2dVertex
 10
-109.3340670842116
 20
-88.64747447870619
 30
0.0
  0
VERTEX
  5
11D
330
11B
100
AcDbEntity
  8
cuerpo
 62
     7
420
 16777215
370
    30
100
AcDbVertex
100
AcDb2dVertex
 10
-109.3340670842116
 20
-86.85705835502185
 30
0.0
  0
SEQEND
  5
11E
330
11B
100
AcDbEntity
  8
cuerpo
370
    30
  0
ENDBLK
  5
11A
330
117
100
AcDbEntity
  8
0
100
AcDbBlockEnd
  0
BLOCK
  5
121
330
11F
100
AcDbEntity
  8
0
100
AcDbBlockBegin
  2
block 33
 70
     0
 71
     0
 10
0.0
 20
0.0
 30
0.0
  3
block 33
  1

  0
POLYLINE
  5
123
330
11F
100
AcDbEntity
  8
cuerpo
 62
     7
420
 16777215
370
    30
100
AcDb2dPolyline
 66
     1
 10
0.0
 20
0.0
 30
0.0
  0
VERTEX
  5
124
330
123
100
AcDbEntity
  8
cuerpo
 62
     7
420
 16777215
370
    30
100
AcDbVertex
100
AcDb2dVertex
 10
-110.101462103551
 20
-88.64747447870619
 30
0.0
  0
VERTEX
  5
125
330
123
100
AcDbEntity
  8
cuerpo
 62
     7
420
 16777215
370
    30
100
AcDbVertex
100
AcDb2dVertex
 10
-110.101462103551
 20
-86.85705835502185
 30
0.0
  0
SEQEND
  5
126
330
123
100
AcDbEntity
  8
cuerpo
370
    30
  0
ENDBLK
  5
122
330
11F
100
AcDbEntity
  8
0
100
AcDbBlockEnd
  0
BLOCK
  5
129
330
127
100
AcDbEntity
  8
0
100
AcDbBlockBegin
  2
block 34
 70
     0
 71
     0
 10
0.0
 20
0.0
 30
0.0
  3
block 34
  1

  0
POLYLINE
  5
12B
330
127
100
AcDbEntity
  8
cuerpo
 62
     7
420
 16777215
370
    30
100
AcDb2dPolyline
 66
     1
 10
0.0
 20
0.0
 30
0.0
  0
VERTEX
  5
12C
330
12B
100
AcDbEntity
  8
cuerpo
 62
     7
420
 16777215
370
    30
100
AcDbVertex
100
AcDb2dVertex
 10
-110.7403550612906
 20
-88.64747447870619
 30
0.0
  0
VERTEX
  5
12D
330
12B
100
AcDbEntity
  8
cuerpo
 62
     7
420
 16777215
370
    30
100
AcDbVertex
100
AcDb2dVertex
 10
-110.7403550612906
 20
-86.85705835502185
 30
0.0
  0
SEQEND
  5
12E
330
12B
100
AcDbEntity
  8
cuerpo
370
    30
  0
ENDBLK
  5
12A
330
127
100
AcDbEntity
  8
0
100
AcDbBlockEnd
  0
BLOCK
  5
131
330
12F
100
AcDbEntity
  8
0
100
AcDbBlockBegin
  2
block 35
 70
     0
 71
     0
 10
0.0
 20
0.0
 30
0.0
  3
block 35
  1

  0
POLYLINE
  5
133
330
12F
100
AcDbEntity
  8
cuerpo
 62
     7
420
 16777215
370
    30
100
AcDb2dPolyline
 66
     1
 10
0.0
 20
0.0
 30
0.0
  0
VERTEX
  5
134
330
133
100
AcDbEntity
  8
cuerpo
 62
     7
420
 16777215
370
    30
100
AcDbVertex
100
AcDb2dVertex
 10
-109.7812404781971
 20
-88.64747447870619
 30
0.0
  0
VERTEX
  5
135
330
133
100
AcDbEntity
  8
cuerpo
 62
     7
420
 16777215
370
    30
100
AcDbVertex
100
AcDb2dVertex
 10
-109.7812404781971
 20
-86.85705835502185
 30
0.0
  0
SEQEND
  5
136
330
133
100
AcDbEntity
  8
cuerpo
370
    30
  0
ENDBLK
  5
132
330
12F
100
AcDbEntity
  8
0
100
AcDbBlockEnd
  0
BLOCK
  5
139
330
137
100
AcDbEntity
  8
0
100
AcDbBlockBegin
  2
block 36
 70
     0
 71
     0
 10
0.0
 20
0.0
 30
0.0
  3
block 36
  1

  0
SPLINE
  5
13B
330
137
100
AcDbEntity
  8
cuerpo
 62
     7
420
 16777215
370
    30
100
AcDbSpline
210
0.0
220
0.0
230
1.0
 70
     8
 71
     3
 72
    11
 73
     7
 74
     0
 42
0.0000000001
 43
0.0000000001
 40
0.0
 40
0.0
 40
0.0
 40
0.0
 40
1.0
 40
1.0
 40
1.0
 40
2.0
 40
2.0
 40
2.0
 40
2.0
 10
-110.7403550612906
 20
-88.64747447870619
 30
0.0
 10
-110.7403550612906
 20
-88.82351885800246
 30
0.0
 10
-110.5970390891042
 20
-88.96717933973737
 30
0.0
 10
-110.420994709808
 20
-88.96717933973737
 30
0.0
 10
-110.2442613114146
 20
-88.96717933973737
 30
0.0
 10
-110.101462103551
 20
-88.82351885800246
 30
0.0
 10
-110.101462103551
 20
-88.64747447870619
 30
0.0
  0
ENDBLK
  5
13A
330
137
100
AcDbEntity
  8
0
100
AcDbBlockEnd
  0
BLOCK
  5
13E
330
13C
100
AcDbEntity
  8
0
100
AcDbBlockBegin
  2
block 37
 70
     0
 71
     0
 10
0.0
 20
0.0
 30
0.0
  3
block 37
  1

  0
SPLINE
  5
140
330
13C
100
AcDbEntity
  8
cuerpo
 62
     7
420
 16777215
370
    30
100
AcDbSpline
210
0.0
220
0.0
230
1.0
 70
     8
 71
     3
 72
    11
 73
     7
 74
     0
 42
0.0000000001
 43
0.0000000001
 40
0.0
 40
0.0
 40
0.0
 40
0.0
 40
1.0
 40
1.0
 40
1.0
 40
2.0
 40
2.0
 40
2.0
 40
2.0
 10
-109.7812404781971
 20
-88.64747447870619
 30
0.0
 10
-109.7812404781971
 20
-88.82351885800246
 30
0.0
 10
-109.6815049638991
 20
-88.96717933973737
 30
0.0
 10
-109.5578260359786
 20
-88.96717933973737
 30
0.0
 10
-109.4343193628324
 20
-88.96717933973737
 30
0.0
 10
-109.3340670842116
 20
-88.82351885800246
 30
0.0
 10
-109.3340670842116
 20
-88.64747447870619
 30
0.0
  0
ENDBLK
  5
13F
330
13C
100
AcDbEntity
  8
0
100
AcDbBlockEnd
  0
BLOCK
  5
143
330
141
100
AcDbEntity
  8
0
100
AcDbBlockBegin
  2
block 38
 70
     0
 71
     0
 10
0.0
 20
0.0
 30
0.0
  3
block 38
  1

  0
SPLINE
  5
145
330
141
100
AcDbEntity
  8
cuerpo
 62
     7
420
 16777215
370
    30
100
AcDbSpline
210
0.0
220
0.0
230
1.0
 70
     8
 71
     3
 72
    11
 73
     7
 74
     0
 42
0.0000000001
 43
0.0000000001
 40
0.0
 40
0.0
 40
0.0
 40
0.0
 40
1.0
 40
1.0
 40
1.0
 40
2.0
 40
2.0
 40
2.0
 40
2.0
 10
-109.3340670842116
 20
-86.85705835502185
 30
0.0
 10
-109.3340670842116
 20
-86.68101397572558
 30
0.0
 10
-109.4343193628324
 20
-86.53804251308772
 30
0.0
 10
-109.5578260359786
 20
-86.53804251308772
 30
0.0
 10
-109.6815049638991
 20
-86.53804251308772
 30
0.0
 10
-109.7812404781971
 20
-86.68101397572558
 30
0.0
 10
-109.7812404781971
 20
-86.85705835502185
 30
0.0
  0
ENDBLK
  5
144
330
141
100
AcDbEntity
  8
0
100
AcDbBlockEnd
  0
BLOCK
  5
148
330
146
100
AcDbEntity
  8
0
100
AcDbBlockBegin
  2
block 39
 70
     0
 71
     0
 10
0.0
 20
0.0
 30
0.0
  3
block 39
  1

  0
SPLINE
  5
14A
330
146
100
AcDbEntity
  8
cuerpo
 62
     7
420
 16777215
370
    30
100
AcDbSpline
210
0.0
220
0.0
230
1.0
 70
     8
 71
     3
 72
    11
 73
     7
 74
     0
 42
0.0000000001
 43
0.0000000001
 40
0.0
 40
0.0
 40
0.0
 40
0.0
 40
1.0
 40
1.0
 40
1.0
 40
2.0
 40
2.0
 40
2.0
 40
2.0
 10
-110.101462103551
 20
-86.85705835502185
 30
0.0
 10
-110.101462103551
 20
-86.68101397572558
 30
0.0
 10
-110.2442613114146
 20
-86.53804251308772
 30
0.0
 10
-110.420994709808
 20
-86.53804251308772
 30
0.0
 10
-110.5970390891042
 20
-86.53804251308772
 30
0.0
 10
-110.7403550612906
 20
-86.68101397572558
 30
0.0
 10
-110.7403550612906
 20
-86.85705835502185
 30
0.0
  0
ENDBLK
  5
149
330
146
100
AcDbEntity
  8
0
100
AcDbBlockEnd
  0
BLOCK
  5
14D
330
14B
100
AcDbEntity
  8
0
100
AcDbBlockBegin
  2
block 40
 70
     0
 71
     0
 10
0.0
 20
0.0
 30
0.0
  3
block 40
  1

  0
POLYLINE
  5
14F
330
14B
100
AcDbEntity
  8
cuerpo
 62
     7
420
 16777215
370
    30
100
AcDb2dPolyline
 66
     1
 10
0.0
 20
0.0
 30
0.0
  0
VERTEX
  5
150
330
14F
100
AcDbEntity
  8
cuerpo
 62
     7
420
 16777215
370
    30
100
AcDbVertex
100
AcDb2dVertex
 10
-111.9542344555184
 20
-85.86728242210957
 30
0.0
  0
VERTEX
  5
151
330
14F
100
AcDbEntity
  8
cuerpo
 62
     7
420
 16777215
370
    30
100
AcDbVertex
100
AcDb2dVertex
 10
-111.9542344555184
 20
-85.45077037794287
 30
0.0
  0
SEQEND
  5
152
330
14F
100
AcDbEntity
  8
cuerpo
370
    30
  0
ENDBLK
  5
14E
330
14B
100
AcDbEntity
  8
0
100
AcDbBlockEnd
  0
BLOCK
  5
155
330
153
100
AcDbEntity
  8
0
100
AcDbBlockBegin
  2
block 41
 70
     0
 71
     0
 10
0.0
 20
0.0
 30
0.0
  3
block 41
  1

  0
SPLINE
  5
157
330
153
100
AcDbEntity
  8
cuerpo
 62
     7
420
 16777215
370
    30
100
AcDbSpline
210
0.0
220
0.0
230
1.0
 70
     8
 71
     3
 72
     8
 73
     4
 74
     0
 42
0.0000000001
 43
0.0000000001
 40
0.0
 40
0.0
 40
0.0
 40
0.0
 40
1.0
 40
1.0
 40
1.0
 40
1.0
 10
-111.9542344555184
 20
-85.86728242210957
 30
0.0
 10
-111.9542344555184
 20
-86.21385902792571
 30
0.0
 10
-111.8663845206445
 20
-86.55423446186839
 30
0.0
 10
-111.6989528800614
 20
-86.85705835502185
 30
0.0
  0
ENDBLK
  5
156
330
153
100
AcDbEntity
  8
0
100
AcDbBlockEnd
  0
BLOCK
  5
15A
330
158
100
AcDbEntity
  8
0
100
AcDbBlockBegin
  2
block 42
 70
     0
 71
     0
 10
0.0
 20
0.0
 30
0.0
  3
block 42
  1

  0
POLYLINE
  5
15C
330
158
100
AcDbEntity
  8
cuerpo
 62
     7
420
 16777215
370
    30
100
AcDb2dPolyline
 66
     1
 10
0.0
 20
0.0
 30
0.0
  0
VERTEX
  5
15D
330
15C
100
AcDbEntity
  8
cuerpo
 62
     7
420
 16777215
370
    30
100
AcDbVertex
100
AcDb2dVertex
 10
-111.6989528800614
 20
-88.64747447870619
 30
0.0
  0
VERTEX
  5
15E
330
15C
100
AcDbEntity
  8
cuerpo
 62
     7
420
 16777215
370
    30
100
AcDbVertex
100
AcDb2dVertex
 10
-111.91065399763
 20
-89.07053220429488
 30
0.0
  0
SEQEND
  5
15F
330
15C
100
AcDbEntity
  8
cuerpo
370
    30
  0
ENDBLK
  5
15B
330
158
100
AcDbEntity
  8
0
100
AcDbBlockEnd
  0
BLOCK
  5
162
330
160
100
AcDbEntity
  8
0
100
AcDbBlockBegin
  2
block 43
 70
     0
 71
     0
 10
0.0
 20
0.0
 30
0.0
  3
block 43
  1

  0
POLYLINE
  5
164
330
160
100
AcDbEntity
  8
cuerpo
 62
     7
420
 16777215
370
    30
100
AcDb2dPolyline
 66
     1
 10
0.0
 20
0.0
 30
0.0
  0
VERTEX
  5
165
330
164
100
AcDbEntity
  8
cuerpo
 62
     7
420
 16777215
370
    30
100
AcDbVertex
100
AcDb2dVertex
 10
-111.507061061533
 20
-88.64747447870619
 30
0.0
  0
VERTEX
  5
166
330
164
100
AcDbEntity
  8
cuerpo
 62
     7
420
 16777215
370
    30
100
AcDbVertex
100
AcDb2dVertex
 10
-111.507061061533
 20
-86.85705835502185
 30
0.0
  0
SEQEND
  5
167
330
164
100
AcDbEntity
  8
cuerpo
370
    30
  0
ENDBLK
  5
163
330
160
100
AcDbEntity
  8
0
100
AcDbBlockEnd
  0
BLOCK
  5
16A
330
168
100
AcDbEntity
  8
0
100
AcDbBlockBegin
  2
block 44
 70
     0
 71
     0
 10
0.0
 20
0.0
 30
0.0
  3
block 44
  1

  0
POLYLINE
  5
16C
330
168
100
AcDbEntity
  8
cuerpo
 62
     7
420
 16777215
370
    30
100
AcDb2dPolyline
 66
     1
 10
0.0
 20
0.0
 30
0.0
  0
VERTEX
  5
16D
330
16C
100
AcDbEntity
  8
cuerpo
 62
     7
420
 16777215
370
    30
100
AcDbVertex
100
AcDb2dVertex
 10
-111.0598876675475
 20
-88.64747447870619
 30
0.0
  0
VERTEX
  5
16E
330
16C
100
AcDbEntity
  8
cuerpo
 62
     7
420
 16777215
370
    30
100
AcDbVertex
100
AcDb2dVertex
 10
-111.0598876675475
 20
-86.85705835502185
 30
0.0
  0
SEQEND
  5
16F
330
16C
100
AcDbEntity
  8
cuerpo
370
    30
  0
ENDBLK
  5
16B
330
168
100
AcDbEntity
  8
0
100
AcDbBlockEnd
  0
BLOCK
  5
172
330
170
100
AcDbEntity
  8
0
100
AcDbBlockBegin
  2
block 45
 70
     0
 71
     0
 10
0.0
 20
0.0
 30
0.0
  3
block 45
  1

  0
SPLINE
  5
174
330
170
100
AcDbEntity
  8
cuerpo
 62
     7
420
 16777215
370
    30
100
AcDbSpline
210
0.0
220
0.0
230
1.0
 70
     8
 71
     3
 72
    11
 73
     7
 74
     0
 42
0.0000000001
 43
0.0000000001
 40
0.0
 40
0.0
 40
0.0
 40
0.0
 40
1.0
 40
1.0
 40
1.0
 40
2.0
 40
2.0
 40
2.0
 40
2.0
 10
-111.507061061533
 20
-88.64747447870619
 30
0.0
 10
-111.507061061533
 20
-88.82351885800246
 30
0.0
 10
-111.4069810376864
 20
-88.96717933973737
 30
0.0
 10
-111.2831298549917
 20
-88.96717933973737
 30
0.0
 10
-111.1596231818455
 20
-88.96717933973737
 30
0.0
 10
-111.0598876675475
 20
-88.82351885800246
 30
0.0
 10
-111.0598876675475
 20
-88.64747447870619
 30
0.0
  0
ENDBLK
  5
173
330
170
100
AcDbEntity
  8
0
100
AcDbBlockEnd
  0
BLOCK
  5
177
330
175
100
AcDbEntity
  8
0
100
AcDbBlockBegin
  2
block 46
 70
     0
 71
     0
 10
0.0
 20
0.0
 30
0.0
  3
block 46
  1

  0
SPLINE
  5
179
330
175
100
AcDbEntity
  8
cuerpo
 62
     7
420
 16777215
370
    30
100
AcDbSpline
210
0.0
220
0.0
230
1.0
 70
     8
 71
     3
 72
    11
 73
     7
 74
     0
 42
0.0000000001
 43
0.0000000001
 40
0.0
 40
0.0
 40
0.0
 40
0.0
 40
1.0
 40
1.0
 40
1.0
 40
2.0
 40
2.0
 40
2.0
 40
2.0
 10
-111.0598876675475
 20
-86.85705835502185
 30
0.0
 10
-111.0598876675475
 20
-86.68101397572558
 30
0.0
 10
-111.1596231818455
 20
-86.53804251308772
 30
0.0
 10
-111.2831298549917
 20
-86.53804251308772
 30
0.0
 10
-111.4069810376864
 20
-86.53804251308772
 30
0.0
 10
-111.507061061533
 20
-86.68101397572558
 30
0.0
 10
-111.507061061533
 20
-86.85705835502185
 30
0.0
  0
ENDBLK
  5
178
330
175
100
AcDbEntity
  8
0
100
AcDbBlockEnd
  0
BLOCK
  5
17C
330
17A
100
AcDbEntity
  8
0
100
AcDbBlockBegin
  2
block 47
 70
     0
 71
     0
 10
0.0
 20
0.0
 30
0.0
  3
block 47
  1

  0
POLYLINE
  5
17E
330
17A
100
AcDbEntity
  8
cuerpo
 62
     7
420
 16777215
370
    30
100
AcDb2dPolyline
 66
     1
 10
0.0
 20
0.0
 30
0.0
  0
VERTEX
  5
17F
330
17E
100
AcDbEntity
  8
cuerpo
 62
     7
420
 16777215
370
    30
100
AcDbVertex
100
AcDb2dVertex
 10
-111.6989528800614
 20
-88.64747447870619
 30
0.0
  0
VERTEX
  5
180
330
17E
100
AcDbEntity
  8
cuerpo
 62
     7
420
 16777215
370
    30
100
AcDbVertex
100
AcDb2dVertex
 10
-111.6989528800614
 20
-86.85705835502185
 30
0.0
  0
SEQEND
  5
181
330
17E
100
AcDbEntity
  8
cuerpo
370
    30
  0
ENDBLK
  5
17D
330
17A
100
AcDbEntity
  8
0
100
AcDbBlockEnd
  0
BLOCK
  5
184
330
182
100
AcDbEntity
  8
0
100
AcDbBlockBegin
  2
block 48
 70
     0
 71
     0
 10
0.0
 20
0.0
 30
0.0
  3
block 48
  1

  0
POLYLINE
  5
186
330
182
100
AcDbEntity
  8
cuerpo
 62
     7
420
 16777215
370
    30
100
AcDb2dPolyline
 66
     1
 10
0.0
 20
0.0
 30
0.0
  0
VERTEX
  5
187
330
186
100
AcDbEntity
  8
cuerpo
 62
     7
420
 16777215
370
    30
100
AcDbVertex
100
AcDb2dVertex
 10
-111.5713120923329
 20
-89.67032332827687
 30
0.0
  0
VERTEX
  5
188
330
186
100
AcDbEntity
  8
cuerpo
 62
     7
420
 16777215
370
    30
100
AcDbVertex
100
AcDb2dVertex
 10
-109.2703328177345
 20
-89.67032332827687
 30
0.0
  0
SEQEND
  5
189
330
186
100
AcDbEntity
  8
cuerpo
370
    30
  0
ENDBLK
  5
185
330
182
100
AcDbEntity
  8
0
100
AcDbBlockEnd
  0
BLOCK
  5
18C
330
18A
100
AcDbEntity
  8
0
100
AcDbBlockBegin
  2
block 49
 70
     0
 71
     0
 10
0.0
 20
0.0
 30
0.0
  3
block 49
  1

  0
POLYLINE
  5
18E
330
18A
100
AcDbEntity
  8
cuerpo
 62
     7
420
 16777215
370
    30
100
AcDb2dPolyline
 66
     1
 10
0.0
 20
0.0
 30
0.0
  0
VERTEX
  5
18F
330
18E
100
AcDbEntity
  8
cuerpo
 62
     7
420
 16777215
370
    30
100
AcDbVertex
100
AcDb2dVertex
 10
-112.3380180925752
 20
-90.0527289271396
 30
0.0
  0
VERTEX
  5
190
330
18E
100
AcDbEntity
  8
cuerpo
 62
     7
420
 16777215
370
    30
100
AcDbVertex
100
AcDb2dVertex
 10
-108.5031100531694
 20
-90.0527289271396
 30
0.0
  0
SEQEND
  5
191
330
18E
100
AcDbEntity
  8
cuerpo
370
    30
  0
ENDBLK
  5
18D
330
18A
100
AcDbEntity
  8
0
100
AcDbBlockEnd
  0
BLOCK
  5
194
330
192
100
AcDbEntity
  8
0
100
AcDbBlockBegin
  2
block 50
 70
     0
 71
     0
 10
0.0
 20
0.0
 30
0.0
  3
block 50
  1

  0
POLYLINE
  5
196
330
192
100
AcDbEntity
  8
cuerpo
 62
     7
420
 16777215
370
    30
100
AcDb2dPolyline
 66
     1
 10
0.0
 20
0.0
 30
0.0
  0
VERTEX
  5
197
330
196
100
AcDbEntity
  8
cuerpo
 62
     7
420
 16777215
370
    30
100
AcDbVertex
100
AcDb2dVertex
 10
-109.142003010909
 20
-90.0527289271396
 30
0.0
  0
VERTEX
  5
198
330
196
100
AcDbEntity
  8
cuerpo
 62
     7
420
 16777215
370
    30
100
AcDbVertex
100
AcDb2dVertex
 10
-109.142003010909
 20
-89.79744735168259
 30
0.0
  0
SEQEND
  5
199
330
196
100
AcDbEntity
  8
cuerpo
370
    30
  0
ENDBLK
  5
195
330
192
100
AcDbEntity
  8
0
100
AcDbBlockEnd
  0
BLOCK
  5
19C
330
19A
100
AcDbEntity
  8
0
100
AcDbBlockBegin
  2
block 51
 70
     0
 71
     0
 10
0.0
 20
0.0
 30
0.0
  3
block 51
  1

  0
SPLINE
  5
19E
330
19A
100
AcDbEntity
  8
cuerpo
 62
     7
420
 16777215
370
    30
100
AcDbSpline
210
0.0
220
0.0
230
1.0
 70
     8
 71
     3
 72
     8
 73
     4
 74
     0
 42
0.0000000001
 43
0.0000000001
 40
0.0
 40
0.0
 40
0.0
 40
0.0
 40
1.0
 40
1.0
 40
1.0
 40
1.0
 10
-109.142003010909
 20
-89.79744735168259
 30
0.0
 10
-109.142003010909
 20
-89.72751191333201
 30
0.0
 10
-109.1993638507384
 20
-89.67032332827687
 30
0.0
 10
-109.2703328177345
 20
-89.67032332827687
 30
0.0
  0
ENDBLK
  5
19D
330
19A
100
AcDbEntity
  8
0
100
AcDbBlockEnd
  0
BLOCK
  5
1A1
330
19F
100
AcDbEntity
  8
0
100
AcDbBlockBegin
  2
block 52
 70
     0
 71
     0
 10
0.0
 20
0.0
 30
0.0
  3
block 52
  1

  0
POLYLINE
  5
1A3
330
19F
100
AcDbEntity
  8
cuerpo
 62
     7
420
 16777215
370
    30
100
AcDb2dPolyline
 66
     1
 10
0.0
 20
0.0
 30
0.0
  0
VERTEX
  5
1A4
330
1A3
100
AcDbEntity
  8
cuerpo
 62
     7
420
 16777215
370
    30
100
AcDbVertex
100
AcDb2dVertex
 10
-108.1200154352096
 20
-90.27459307638969
 30
0.0
  0
VERTEX
  5
1A5
330
1A3
100
AcDbEntity
  8
cuerpo
 62
     7
420
 16777215
370
    30
100
AcDbVertex
100
AcDb2dVertex
 10
-108.1200154352096
 20
-92.38850366613899
 30
0.0
  0
SEQEND
  5
1A6
330
1A3
100
AcDbEntity
  8
cuerpo
370
    30
  0
ENDBLK
  5
1A2
330
19F
100
AcDbEntity
  8
0
100
AcDbBlockEnd
  0
BLOCK
  5
1A9
330
1A7
100
AcDbEntity
  8
0
100
AcDbBlockBegin
  2
block 53
 70
     0
 71
     0
 10
0.0
 20
0.0
 30
0.0
  3
block 53
  1

  0
POLYLINE
  5
1AB
330
1A7
100
AcDbEntity
  8
cuerpo
 62
     7
420
 16777215
370
    30
100
AcDb2dPolyline
 66
     1
 10
0.0
 20
0.0
 30
0.0
  0
VERTEX
  5
1AC
330
1AB
100
AcDbEntity
  8
cuerpo
 62
     7
420
 16777215
370
    30
100
AcDbVertex
100
AcDb2dVertex
 10
-108.5031100531694
 20
-92.61002330584056
 30
0.0
  0
VERTEX
  5
1AD
330
1AB
100
AcDbEntity
  8
cuerpo
 62
     7
420
 16777215
370
    30
100
AcDbVertex
100
AcDb2dVertex
 10
-112.3380180925752
 20
-92.61002330584056
 30
0.0
  0
SEQEND
  5
1AE
330
1AB
100
AcDbEntity
  8
cuerpo
370
    30
  0
ENDBLK
  5
1AA
330
1A7
100
AcDbEntity
  8
0
100
AcDbBlockEnd
  0
BLOCK
  5
1B1
330
1AF
100
AcDbEntity
  8
0
100
AcDbBlockBegin
  2
block 54
 70
     0
 71
     0
 10
0.0
 20
0.0
 30
0.0
  3
block 54
  1

  0
SPLINE
  5
1B3
330
1AF
100
AcDbEntity
  8
cuerpo
 62
     7
420
 16777215
370
    30
100
AcDbSpline
210
0.0
220
0.0
230
1.0
 70
     8
 71
     3
 72
     8
 73
     4
 74
     0
 42
0.0000000001
 43
0.0000000001
 40
0.0
 40
0.0
 40
0.0
 40
0.0
 40
1.0
 40
1.0
 40
1.0
 40
1.0
 10
-111.5713120923329
 20
-89.67032332827687
 30
0.0
 10
-111.6417642950062
 20
-89.67032332827687
 30
0.0
 10
-111.6989528800614
 20
-89.72751191333201
 30
0.0
 10
-111.6989528800614
 20
-89.79744735168259
 30
0.0
  0
ENDBLK
  5
1B2
330
1AF
100
AcDbEntity
  8
0
100
AcDbBlockEnd
  0
BLOCK
  5
1B6
330
1B4
100
AcDbEntity
  8
0
100
AcDbBlockBegin
  2
block 55
 70
     0
 71
     0
 10
0.0
 20
0.0
 30
0.0
  3
block 55
  1

  0
POLYLINE
  5
1B8
330
1B4
100
AcDbEntity
  8
cuerpo
 62
     7
420
 16777215
370
    30
100
AcDb2dPolyline
 66
     1
 10
0.0
 20
0.0
 30
0.0
  0
VERTEX
  5
1B9
330
1B8
100
AcDbEntity
  8
cuerpo
 62
     7
420
 16777215
370
    30
100
AcDbVertex
100
AcDb2dVertex
 10
-108.5031100531694
 20
-90.0527289271396
 30
0.0
  0
VERTEX
  5
1BA
330
1B8
100
AcDbEntity
  8
cuerpo
 62
     7
420
 16777215
370
    30
100
AcDbVertex
100
AcDb2dVertex
 10
-108.1200154352096
 20
-90.27459307638969
 30
0.0
  0
SEQEND
  5
1BB
330
1B8
100
AcDbEntity
  8
cuerpo
370
    30
  0
ENDBLK
  5
1B7
330
1B4
100
AcDbEntity
  8
0
100
AcDbBlockEnd
  0
BLOCK
  5
1BE
330
1BC
100
AcDbEntity
  8
0
100
AcDbBlockBegin
  2
block 56
 70
     0
 71
     0
 10
0.0
 20
0.0
 30
0.0
  3
block 56
  1

  0
POLYLINE
  5
1C0
330
1BC
100
AcDbEntity
  8
cuerpo
 62
     7
420
 16777215
370
    30
100
AcDb2dPolyline
 66
     1
 10
0.0
 20
0.0
 30
0.0
  0
VERTEX
  5
1C1
330
1C0
100
AcDbEntity
  8
cuerpo
 62
     7
420
 16777215
370
    30
100
AcDbVertex
100
AcDb2dVertex
 10
-108.5031100531694
 20
-92.61002330584056
 30
0.0
  0
VERTEX
  5
1C2
330
1C0
100
AcDbEntity
  8
cuerpo
 62
     7
420
 16777215
370
    30
100
AcDbVertex
100
AcDb2dVertex
 10
-108.1200154352096
 20
-92.38850366613899
 30
0.0
  0
SEQEND
  5
1C3
330
1C0
100
AcDbEntity
  8
cuerpo
370
    30
  0
ENDBLK
  5
1BF
330
1BC
100
AcDbEntity
  8
0
100
AcDbBlockEnd
  0
BLOCK
  5
1C6
330
1C4
100
AcDbEntity
  8
0
100
AcDbBlockBegin
  2
block 57
 70
     0
 71
     0
 10
0.0
 20
0.0
 30
0.0
  3
block 57
  1

  0
POLYLINE
  5
1C8
330
1C4
100
AcDbEntity
  8
cuerpo
 62
     7
420
 16777215
370
    30
100
AcDb2dPolyline
 66
     1
 10
0.0
 20
0.0
 30
0.0
  0
VERTEX
  5
1C9
330
1C8
100
AcDbEntity
  8
cuerpo
 62
     7
420
 16777215
370
    30
100
AcDbVertex
100
AcDb2dVertex
 10
-111.6989528800614
 20
-90.27459307638969
 30
0.0
  0
VERTEX
  5
1CA
330
1C8
100
AcDbEntity
  8
cuerpo
 62
     7
420
 16777215
370
    30
100
AcDbVertex
100
AcDb2dVertex
 10
-111.6989528800614
 20
-92.38850366613899
 30
0.0
  0
SEQEND
  5
1CB
330
1C8
100
AcDbEntity
  8
cuerpo
370
    30
  0
ENDBLK
  5
1C7
330
1C4
100
AcDbEntity
  8
0
100
AcDbBlockEnd
  0
BLOCK
  5
1CE
330
1CC
100
AcDbEntity
  8
0
100
AcDbBlockBegin
  2
block 58
 70
     0
 71
     0
 10
0.0
 20
0.0
 30
0.0
  3
block 58
  1

  0
POLYLINE
  5
1D0
330
1CC
100
AcDbEntity
  8
cuerpo
 62
     7
420
 16777215
370
    30
100
AcDb2dPolyline
 66
     1
 10
0.0
 20
0.0
 30
0.0
  0
VERTEX
  5
1D1
330
1D0
100
AcDbEntity
  8
cuerpo
 62
     7
420
 16777215
370
    30
100
AcDbVertex
100
AcDb2dVertex
 10
-109.142003010909
 20
-90.27459307638969
 30
0.0
  0
VERTEX
  5
1D2
330
1D0
100
AcDbEntity
  8
cuerpo
 62
     7
420
 16777215
370
    30
100
AcDbVertex
100
AcDb2dVertex
 10
-109.142003010909
 20
-92.38850366613899
 30
0.0
  0
SEQEND
  5
1D3
330
1D0
100
AcDbEntity
  8
cuerpo
370
    30
  0
ENDBLK
  5
1CF
330
1CC
100
AcDbEntity
  8
0
100
AcDbBlockEnd
  0
BLOCK
  5
1D6
330
1D4
100
AcDbEntity
  8
0
100
AcDbBlockBegin
  2
block 59
 70
     0
 71
     0
 10
0.0
 20
0.0
 30
0.0
  3
block 59
  1

  0
SPLINE
  5
1D8
330
1D4
100
AcDbEntity
  8
cuerpo
 62
     7
420
 16777215
370
    30
100
AcDbSpline
210
0.0
220
0.0
230
1.0
 70
     8
 71
     3
 72
     8
 73
     4
 74
     0
 42
0.0000000001
 43
0.0000000001
 40
0.0
 40
0.0
 40
0.0
 40
0.0
 40
1.0
 40
1.0
 40
1.0
 40
1.0
 10
-109.142003010909
 20
-90.27459307638969
 30
0.0
 10
-109.9689981821432
 20
-89.97900388375525
 30
0.0
 10
-110.8723022183757
 20
-89.97900388375525
 30
0.0
 10
-111.6989528800614
 20
-90.27459307638969
 30
0.0
  0
ENDBLK
  5
1D7
330
1D4
100
AcDbEntity
  8
0
100
AcDbBlockEnd
  0
BLOCK
  5
1DB
330
1D9
100
AcDbEntity
  8
0
100
AcDbBlockBegin
  2
block 60
 70
     0
 71
     0
 10
0.0
 20
0.0
 30
0.0
  3
block 60
  1

  0
SPLINE
  5
1DD
330
1D9
100
AcDbEntity
  8
cuerpo
 62
     7
420
 16777215
370
    30
100
AcDbSpline
210
0.0
220
0.0
230
1.0
 70
     8
 71
     3
 72
     8
 73
     4
 74
     0
 42
0.0000000001
 43
0.0000000001
 40
0.0
 40
0.0
 40
0.0
 40
0.0
 40
1.0
 40
1.0
 40
1.0
 40
1.0
 10
-111.6989528800614
 20
-92.38850366613899
 30
0.0
 10
-110.8723022183757
 20
-92.6837483492249
 30
0.0
 10
-109.9689981821432
 20
-92.6837483492249
 30
0.0
 10
-109.142003010909
 20
-92.38850366613899
 30
0.0
  0
ENDBLK
  5
1DC
330
1D9
100
AcDbEntity
  8
0
100
AcDbBlockEnd
  0
BLOCK
  5
1E0
330
1DE
100
AcDbEntity
  8
0
100
AcDbBlockBegin
  2
block 61
 70
     0
 71
     0
 10
0.0
 20
0.0
 30
0.0
  3
block 61
  1

  0
SPLINE
  5
1E2
330
1DE
100
AcDbEntity
  8
cuerpo
 62
     7
420
 16777215
370
    30
100
AcDbSpline
210
0.0
220
0.0
230
1.0
 70
     8
 71
     3
 72
     8
 73
     4
 74
     0
 42
0.0000000001
 43
0.0000000001
 40
0.0
 40
0.0
 40
0.0
 40
0.0
 40
1.0
 40
1.0
 40
1.0
 40
1.0
 10
-112.3380180925752
 20
-92.61002330584056
 30
0.0
 10
-112.1047851282238
 20
-92.61966957319926
 30
0.0
 10
-111.8762030427775
 20
-92.54008786748999
 30
0.0
 10
-111.6989528800614
 20
-92.38850366613899
 30
0.0
  0
ENDBLK
  5
1E1
330
1DE
100
AcDbEntity
  8
0
100
AcDbBlockEnd
  0
BLOCK
  5
1E5
330
1E3
100
AcDbEntity
  8
0
100
AcDbBlockBegin
  2
block 62
 70
     0
 71
     0
 10
0.0
 20
0.0
 30
0.0
  3
block 62
  1

  0
SPLINE
  5
1E7
330
1E3
100
AcDbEntity
  8
cuerpo
 62
     7
420
 16777215
370
    30
100
AcDbSpline
210
0.0
220
0.0
230
1.0
 70
     8
 71
     3
 72
     8
 73
     4
 74
     0
 42
0.0000000001
 43
0.0000000001
 40
0.0
 40
0.0
 40
0.0
 40
0.0
 40
1.0
 40
1.0
 40
1.0
 40
1.0
 10
-111.6989528800614
 20
-90.27459307638969
 30
0.0
 10
-111.8762030427775
 20
-90.12266436549017
 30
0.0
 10
-112.1047851282238
 20
-90.04342716932942
 30
0.0
 10
-112.3380180925752
 20
-90.0527289271396
 30
0.0
  0
ENDBLK
  5
1E6
330
1E3
100
AcDbEntity
  8
0
100
AcDbBlockEnd
  0
BLOCK
  5
1EA
330
1E8
100
AcDbEntity
  8
0
100
AcDbBlockBegin
  2
block 63
 70
     0
 71
     0
 10
0.0
 20
0.0
 30
0.0
  3
block 63
  1

  0
SPLINE
  5
1EC
330
1E8
100
AcDbEntity
  8
cuerpo
 62
     7
420
 16777215
370
    30
100
AcDbSpline
210
0.0
220
0.0
230
1.0
 70
     8
 71
     3
 72
     8
 73
     4
 74
     0
 42
0.0000000001
 43
0.0000000001
 40
0.0
 40
0.0
 40
0.0
 40
0.0
 40
1.0
 40
1.0
 40
1.0
 40
1.0
 10
-108.5031100531694
 20
-90.0527289271396
 30
0.0
 10
-108.7361707627465
 20
-90.04342716932942
 30
0.0
 10
-108.9649251029671
 20
-90.12266436549017
 30
0.0
 10
-109.142003010909
 20
-90.27459307638969
 30
0.0
  0
ENDBLK
  5
1EB
330
1E8
100
AcDbEntity
  8
0
100
AcDbBlockEnd
  0
BLOCK
  5
1EF
330
1ED
100
AcDbEntity
  8
0
100
AcDbBlockBegin
  2
block 64
 70
     0
 71
     0
 10
0.0
 20
0.0
 30
0.0
  3
block 64
  1

  0
SPLINE
  5
1F1
330
1ED
100
AcDbEntity
  8
cuerpo
 62
     7
420
 16777215
370
    30
100
AcDbSpline
210
0.0
220
0.0
230
1.0
 70
     8
 71
     3
 72
     8
 73
     4
 74
     0
 42
0.0000000001
 43
0.0000000001
 40
0.0
 40
0.0
 40
0.0
 40
0.0
 40
1.0
 40
1.0
 40
1.0
 40
1.0
 10
-109.142003010909
 20
-92.38850366613899
 30
0.0
 10
-108.9649251029671
 20
-92.54008786748999
 30
0.0
 10
-108.7361707627465
 20
-92.61966957319926
 30
0.0
 10
-108.5031100531694
 20
-92.61002330584056
 30
0.0
  0
ENDBLK
  5
1F0
330
1ED
100
AcDbEntity
  8
0
100
AcDbBlockEnd
  0
BLOCK
  5
1F4
330
1F2
100
AcDbEntity
  8
0
100
AcDbBlockBegin
  2
block 65
 70
     0
 71
     0
 10
0.0
 20
0.0
 30
0.0
  3
block 65
  1

  0
POLYLINE
  5
1F6
330
1F2
100
AcDbEntity
  8
cuerpo
 62
     7
420
 16777215
370
    30
100
AcDb2dPolyline
 66
     1
 10
0.0
 20
0.0
 30
0.0
  0
VERTEX
  5
1F7
330
1F6
100
AcDbEntity
  8
cuerpo
 62
     7
420
 16777215
370
    30
100
AcDbVertex
100
AcDb2dVertex
 10
-112.7216294748578
 20
-90.27459307638969
 30
0.0
  0
VERTEX
  5
1F8
330
1F6
100
AcDbEntity
  8
cuerpo
 62
     7
420
 16777215
370
    30
100
AcDbVertex
100
AcDb2dVertex
 10
-112.7216294748578
 20
-92.38850366613899
 30
0.0
  0
SEQEND
  5
1F9
330
1F6
100
AcDbEntity
  8
cuerpo
370
    30
  0
ENDBLK
  5
1F5
330
1F2
100
AcDbEntity
  8
0
100
AcDbBlockEnd
  0
BLOCK
  5
1FC
330
1FA
100
AcDbEntity
  8
0
100
AcDbBlockBegin
  2
block 66
 70
     0
 71
     0
 10
0.0
 20
0.0
 30
0.0
  3
block 66
  1

  0
POLYLINE
  5
1FE
330
1FA
100
AcDbEntity
  8
cuerpo
 62
     7
420
 16777215
370
    30
100
AcDb2dPolyline
 66
     1
 10
0.0
 20
0.0
 30
0.0
  0
VERTEX
  5
1FF
330
1FE
100
AcDbEntity
  8
cuerpo
 62
     7
420
 16777215
370
    30
100
AcDbVertex
100
AcDb2dVertex
 10
-112.3380180925752
 20
-90.0527289271396
 30
0.0
  0
VERTEX
  5
200
330
1FE
100
AcDbEntity
  8
cuerpo
 62
     7
420
 16777215
370
    30
100
AcDbVertex
100
AcDb2dVertex
 10
-112.7216294748578
 20
-90.27459307638969
 30
0.0
  0
SEQEND
  5
201
330
1FE
100
AcDbEntity
  8
cuerpo
370
    30
  0
ENDBLK
  5
1FD
330
1FA
100
AcDbEntity
  8
0
100
AcDbBlockEnd
  0
BLOCK
  5
204
330
202
100
AcDbEntity
  8
0
100
AcDbBlockBegin
  2
block 67
 70
     0
 71
     0
 10
0.0
 20
0.0
 30
0.0
  3
block 67
  1

  0
POLYLINE
  5
206
330
202
100
AcDbEntity
  8
cuerpo
 62
     7
420
 16777215
370
    30
100
AcDb2dPolyline
 66
     1
 10
0.0
 20
0.0
 30
0.0
  0
VERTEX
  5
207
330
206
100
AcDbEntity
  8
cuerpo
 62
     7
420
 16777215
370
    30
100
AcDbVertex
100
AcDb2dVertex
 10
-112.3380180925752
 20
-92.61002330584056
 30
0.0
  0
VERTEX
  5
208
330
206
100
AcDbEntity
  8
cuerpo
 62
     7
420
 16777215
370
    30
100
AcDbVertex
100
AcDb2dVertex
 10
-112.7216294748578
 20
-92.38850366613899
 30
0.0
  0
SEQEND
  5
209
330
206
100
AcDbEntity
  8
cuerpo
370
    30
  0
ENDBLK
  5
205
330
202
100
AcDbEntity
  8
0
100
AcDbBlockEnd
  0
BLOCK
  5
20C
330
20A
100
AcDbEntity
  8
0
100
AcDbBlockBegin
  2
block 68
 70
     0
 71
     0
 10
0.0
 20
0.0
 30
0.0
  3
block 68
  1

  0
POLYLINE
  5
20E
330
20A
100
AcDbEntity
  8
cuerpo
 62
     7
420
 16777215
370
    30
100
AcDb2dPolyline
 66
     1
 10
0.0
 20
0.0
 30
0.0
  0
VERTEX
  5
20F
330
20E
100
AcDbEntity
  8
cuerpo
 62
     7
420
 16777215
370
    30
100
AcDbVertex
100
AcDb2dVertex
 10
-109.142003010909
 20
-85.45077037794287
 30
0.0
  0
VERTEX
  5
210
330
20E
100
AcDbEntity
  8
cuerpo
 62
     7
420
 16777215
370
    30
100
AcDbVertex
100
AcDb2dVertex
 10
-109.142003010909
 20
-83.38371308679297
 30
0.0
  0
SEQEND
  5
211
330
20E
100
AcDbEntity
  8
cuerpo
370
    30
  0
ENDBLK
  5
20D
330
20A
100
AcDbEntity
  8
0
100
AcDbBlockEnd
  0
BLOCK
  5
214
330
212
100
AcDbEntity
  8
0
100
AcDbBlockBegin
  2
block 69
 70
     0
 71
     0
 10
0.0
 20
0.0
 30
0.0
  3
block 69
  1

  0
POLYLINE
  5
216
330
212
100
AcDbEntity
  8
cuerpo
 62
     7
420
 16777215
370
    30
100
AcDb2dPolyline
 66
     1
 10
0.0
 20
0.0
 30
0.0
  0
VERTEX
  5
217
330
216
100
AcDbEntity
  8
cuerpo
 62
     7
420
 16777215
370
    30
100
AcDbVertex
100
AcDb2dVertex
 10
-111.6989528800614
 20
-84.06894257880916
 30
0.0
  0
VERTEX
  5
218
330
216
100
AcDbEntity
  8
cuerpo
 62
     7
420
 16777215
370
    30
100
AcDbVertex
100
AcDb2dVertex
 10
-111.6989528800614
 20
-85.45077037794287
 30
0.0
  0
SEQEND
  5
219
330
216
100
AcDbEntity
  8
cuerpo
370
    30
  0
ENDBLK
  5
215
330
212
100
AcDbEntity
  8
0
100
AcDbBlockEnd
  0
BLOCK
  5
21C
330
21A
100
AcDbEntity
  8
0
100
AcDbBlockBegin
  2
block 70
 70
     0
 71
     0
 10
0.0
 20
0.0
 30
0.0
  3
block 70
  1

  0
POLYLINE
  5
21E
330
21A
100
AcDbEntity
  8
cuerpo
 62
     7
420
 16777215
370
    30
100
AcDb2dPolyline
 66
     1
 10
0.0
 20
0.0
 30
0.0
  0
VERTEX
  5
21F
330
21E
100
AcDbEntity
  8
cuerpo
 62
     7
420
 16777215
370
    30
100
AcDbVertex
100
AcDb2dVertex
 10
-105.7935424540204
 20
-73.75880532010197
 30
0.0
  0
VERTEX
  5
220
330
21E
100
AcDbEntity
  8
cuerpo
 62
     7
420
 16777215
370
    30
100
AcDbVertex
100
AcDb2dVertex
 10
-117.6556952288326
 20
-73.75880532010197
 30
0.0
  0
SEQEND
  5
221
330
21E
100
AcDbEntity
  8
cuerpo
370
    30
  0
ENDBLK
  5
21D
330
21A
100
AcDbEntity
  8
0
100
AcDbBlockEnd
  0
BLOCK
  5
224
330
222
100
AcDbEntity
  8
0
100
AcDbBlockBegin
  2
block 71
 70
     0
 71
     0
 10
0.0
 20
0.0
 30
0.0
  3
block 71
  1

  0
POLYLINE
  5
226
330
222
100
AcDbEntity
  8
cuerpo
 62
     7
420
 16777215
370
    30
100
AcDb2dPolyline
 66
     1
 10
0.0
 20
0.0
 30
0.0
  0
VERTEX
  5
227
330
226
100
AcDbEntity
  8
cuerpo
 62
     7
420
 16777215
370
    30
100
AcDbVertex
100
AcDb2dVertex
 10
-105.7678764926553
 20
-72.73630098007982
 30
0.0
  0
VERTEX
  5
228
330
226
100
AcDbEntity
  8
cuerpo
 62
     7
420
 16777215
370
    30
100
AcDbVertex
100
AcDb2dVertex
 10
-117.6813611901977
 20
-72.73630098007982
 30
0.0
  0
SEQEND
  5
229
330
226
100
AcDbEntity
  8
cuerpo
370
    30
  0
ENDBLK
  5
225
330
222
100
AcDbEntity
  8
0
100
AcDbBlockEnd
  0
BLOCK
  5
22C
330
22A
100
AcDbEntity
  8
0
100
AcDbBlockBegin
  2
block 72
 70
     0
 71
     0
 10
0.0
 20
0.0
 30
0.0
  3
block 72
  1

  0
POLYLINE
  5
22E
330
22A
100
AcDbEntity
  8
cuerpo
 62
     7
420
 16777215
370
    30
100
AcDb2dPolyline
 66
     1
 10
0.0
 20
0.0
 30
0.0
  0
VERTEX
  5
22F
330
22E
100
AcDbEntity
  8
cuerpo
 62
     7
420
 16777215
370
    30
100
AcDbVertex
100
AcDb2dVertex
 10
-105.7678764926553
 20
-71.97011174416025
 30
0.0
  0
VERTEX
  5
230
330
22E
100
AcDbEntity
  8
cuerpo
 62
     7
420
 16777215
370
    30
100
AcDbVertex
100
AcDb2dVertex
 10
-117.6813611901977
 20
-71.97011174416025
 30
0.0
  0
SEQEND
  5
231
330
22E
100
AcDbEntity
  8
cuerpo
370
    30
  0
ENDBLK
  5
22D
330
22A
100
AcDbEntity
  8
0
100
AcDbBlockEnd
  0
BLOCK
  5
234
330
232
100
AcDbEntity
  8
0
100
AcDbBlockBegin
  2
block 73
 70
     0
 71
     0
 10
0.0
 20
0.0
 30
0.0
  3
block 73
  1

  0
POLYLINE
  5
236
330
232
100
AcDbEntity
  8
cuerpo
 62
     7
420
 16777215
370
    30
100
AcDb2dPolyline
 66
     1
 10
0.0
 20
0.0
 30
0.0
  0
VERTEX
  5
237
330
236
100
AcDbEntity
  8
cuerpo
 62
     7
420
 16777215
370
    30
100
AcDbVertex
100
AcDb2dVertex
 10
-105.7678764926553
 20
-71.20254447004659
 30
0.0
  0
VERTEX
  5
238
330
236
100
AcDbEntity
  8
cuerpo
 62
     7
420
 16777215
370
    30
100
AcDbVertex
100
AcDb2dVertex
 10
-117.6813611901977
 20
-71.20254447004659
 30
0.0
  0
SEQEND
  5
239
330
236
100
AcDbEntity
  8
cuerpo
370
    30
  0
ENDBLK
  5
235
330
232
100
AcDbEntity
  8
0
100
AcDbBlockEnd
  0
BLOCK
  5
23C
330
23A
100
AcDbEntity
  8
0
100
AcDbBlockBegin
  2
block 74
 70
     0
 71
     0
 10
0.0
 20
0.0
 30
0.0
  3
block 74
  1

  0
SPLINE
  5
23E
330
23A
100
AcDbEntity
  8
cuerpo
 62
     7
420
 16777215
370
    30
100
AcDbSpline
210
0.0
220
0.0
230
1.0
 70
     8
 71
     3
 72
     8
 73
     4
 74
     0
 42
0.0000000001
 43
0.0000000001
 40
0.0
 40
0.0
 40
0.0
 40
0.0
 40
1.0
 40
1.0
 40
1.0
 40
1.0
 10
-117.7320040938309
 20
-73.68197969078089
 30
0.0
 10
-117.7320040938309
 20
-73.72538789389505
 30
0.0
 10
-117.6978976485269
 20
-73.75880532010197
 30
0.0
 10
-117.6556952288326
 20
-73.75880532010197
 30
0.0
  0
ENDBLK
  5
23D
330
23A
100
AcDbEntity
  8
0
100
AcDbBlockEnd
  0
BLOCK
  5
241
330
23F
100
AcDbEntity
  8
0
100
AcDbBlockBegin
  2
block 75
 70
     0
 71
     0
 10
0.0
 20
0.0
 30
0.0
  3
block 75
  1

  0
SPLINE
  5
243
330
23F
100
AcDbEntity
  8
cuerpo
 62
     7
420
 16777215
370
    30
100
AcDbSpline
210
0.0
220
0.0
230
1.0
 70
     8
 71
     3
 72
     8
 73
     4
 74
     0
 42
0.0000000001
 43
0.0000000001
 40
0.0
 40
0.0
 40
0.0
 40
0.0
 40
1.0
 40
1.0
 40
1.0
 40
1.0
 10
-117.6813611901977
 20
-72.73630098007982
 30
0.0
 10
-117.7094387184025
 20
-72.73630098007982
 30
0.0
 10
-117.7320040938309
 20
-72.75938311983099
 30
0.0
 10
-117.7320040938309
 20
-72.78728839326152
 30
0.0
  0
ENDBLK
  5
242
330
23F
100
AcDbEntity
  8
0
100
AcDbBlockEnd
  0
BLOCK
  5
246
330
244
100
AcDbEntity
  8
0
100
AcDbBlockBegin
  2
block 76
 70
     0
 71
     0
 10
0.0
 20
0.0
 30
0.0
  3
block 76
  1

  0
SPLINE
  5
248
330
244
100
AcDbEntity
  8
cuerpo
 62
     7
420
 16777215
370
    30
100
AcDbSpline
210
0.0
220
0.0
230
1.0
 70
     8
 71
     3
 72
     8
 73
     4
 74
     0
 42
0.0000000001
 43
0.0000000001
 40
0.0
 40
0.0
 40
0.0
 40
0.0
 40
1.0
 40
1.0
 40
1.0
 40
1.0
 10
-117.7320040938309
 20
-71.91877982143004
 30
0.0
 10
-117.7320040938309
 20
-71.94668509486056
 30
0.0
 10
-117.7094387184025
 20
-71.97011174416025
 30
0.0
 10
-117.6813611901977
 20
-71.97011174416025
 30
0.0
  0
ENDBLK
  5
247
330
244
100
AcDbEntity
  8
0
100
AcDbBlockEnd
  0
BLOCK
  5
24B
330
249
100
AcDbEntity
  8
0
100
AcDbBlockBegin
  2
block 77
 70
     0
 71
     0
 10
0.0
 20
0.0
 30
0.0
  3
block 77
  1

  0
POLYLINE
  5
24D
330
249
100
AcDbEntity
  8
cuerpo
 62
     7
420
 16777215
370
    30
100
AcDb2dPolyline
 66
     1
 10
0.0
 20
0.0
 30
0.0
  0
VERTEX
  5
24E
330
24D
100
AcDbEntity
  8
cuerpo
 62
     7
420
 16777215
370
    30
100
AcDbVertex
100
AcDb2dVertex
 10
-117.7320040938309
 20
-71.91877982143004
 30
0.0
  0
VERTEX
  5
24F
330
24D
100
AcDbEntity
  8
cuerpo
 62
     7
420
 16777215
370
    30
100
AcDbVertex
100
AcDb2dVertex
 10
-117.7320040938309
 20
-71.25422090232534
 30
0.0
  0
SEQEND
  5
250
330
24D
100
AcDbEntity
  8
cuerpo
370
    30
  0
ENDBLK
  5
24C
330
249
100
AcDbEntity
  8
0
100
AcDbBlockEnd
  0
BLOCK
  5
253
330
251
100
AcDbEntity
  8
0
100
AcDbBlockBegin
  2
block 78
 70
     0
 71
     0
 10
0.0
 20
0.0
 30
0.0
  3
block 78
  1

  0
SPLINE
  5
255
330
251
100
AcDbEntity
  8
cuerpo
 62
     7
420
 16777215
370
    30
100
AcDbSpline
210
0.0
220
0.0
230
1.0
 70
     8
 71
     3
 72
     8
 73
     4
 74
     0
 42
0.0000000001
 43
0.0000000001
 40
0.0
 40
0.0
 40
0.0
 40
0.0
 40
1.0
 40
1.0
 40
1.0
 40
1.0
 10
-117.6813611901977
 20
-71.20254447004659
 30
0.0
 10
-117.7094387184025
 20
-71.20254447004659
 30
0.0
 10
-117.7320040938309
 20
-71.22597111934628
 30
0.0
 10
-117.7320040938309
 20
-71.25422090232534
 30
0.0
  0
ENDBLK
  5
254
330
251
100
AcDbEntity
  8
0
100
AcDbBlockEnd
  0
BLOCK
  5
258
330
256
100
AcDbEntity
  8
0
100
AcDbBlockBegin
  2
block 79
 70
     0
 71
     0
 10
0.0
 20
0.0
 30
0.0
  3
block 79
  1

  0
POLYLINE
  5
25A
330
256
100
AcDbEntity
  8
cuerpo
 62
     7
420
 16777215
370
    30
100
AcDb2dPolyline
 66
     1
 10
0.0
 20
0.0
 30
0.0
  0
VERTEX
  5
25B
330
25A
100
AcDbEntity
  8
cuerpo
 62
     7
420
 16777215
370
    30
100
AcDbVertex
100
AcDb2dVertex
 10
-117.7320040938309
 20
-73.68197969078089
 30
0.0
  0
VERTEX
  5
25C
330
25A
100
AcDbEntity
  8
cuerpo
 62
     7
420
 16777215
370
    30
100
AcDbVertex
100
AcDb2dVertex
 10
-117.7320040938309
 20
-72.78728839326152
 30
0.0
  0
SEQEND
  5
25D
330
25A
100
AcDbEntity
  8
cuerpo
370
    30
  0
ENDBLK
  5
259
330
256
100
AcDbEntity
  8
0
100
AcDbBlockEnd
  0
BLOCK
  5
260
330
25E
100
AcDbEntity
  8
0
100
AcDbBlockBegin
  2
block 80
 70
     0
 71
     0
 10
0.0
 20
0.0
 30
0.0
  3
block 80
  1

  0
POLYLINE
  5
262
330
25E
100
AcDbEntity
  8
cuerpo
 62
     7
420
 16777215
370
    30
100
AcDb2dPolyline
 66
     1
 10
0.0
 20
0.0
 30
0.0
  0
VERTEX
  5
263
330
262
100
AcDbEntity
  8
cuerpo
 62
     7
420
 16777215
370
    30
100
AcDbVertex
100
AcDb2dVertex
 10
-113.130562308957
 20
-71.20254447004659
 30
0.0
  0
VERTEX
  5
264
330
262
100
AcDbEntity
  8
cuerpo
 62
     7
420
 16777215
370
    30
100
AcDbVertex
100
AcDb2dVertex
 10
-113.130562308957
 20
-64.78054197599236
 30
0.0
  0
SEQEND
  5
265
330
262
100
AcDbEntity
  8
cuerpo
370
    30
  0
ENDBLK
  5
261
330
25E
100
AcDbEntity
  8
0
100
AcDbBlockEnd
  0
BLOCK
  5
268
330
266
100
AcDbEntity
  8
0
100
AcDbBlockBegin
  2
block 81
 70
     0
 71
     0
 10
0.0
 20
0.0
 30
0.0
  3
block 81
  1

  0
POLYLINE
  5
26A
330
266
100
AcDbEntity
  8
cuerpo
 62
     7
420
 16777215
370
    30
100
AcDb2dPolyline
 66
     1
 10
0.0
 20
0.0
 30
0.0
  0
VERTEX
  5
26B
330
26A
100
AcDbEntity
  8
cuerpo
 62
     7
420
 16777215
370
    30
100
AcDbVertex
100
AcDb2dVertex
 10
-115.0475856917242
 20
-71.20254447004659
 30
0.0
  0
VERTEX
  5
26C
330
26A
100
AcDbEntity
  8
cuerpo
 62
     7
420
 16777215
370
    30
100
AcDbVertex
100
AcDb2dVertex
 10
-115.0475856917242
 20
-64.78054197599236
 30
0.0
  0
SEQEND
  5
26D
330
26A
100
AcDbEntity
  8
cuerpo
370
    30
  0
ENDBLK
  5
269
330
266
100
AcDbEntity
  8
0
100
AcDbBlockEnd
  0
BLOCK
  5
270
330
26E
100
AcDbEntity
  8
0
100
AcDbBlockBegin
  2
block 82
 70
     0
 71
     0
 10
0.0
 20
0.0
 30
0.0
  3
block 82
  1

  0
POLYLINE
  5
272
330
26E
100
AcDbEntity
  8
cuerpo
 62
     7
420
 16777215
370
    30
100
AcDb2dPolyline
 66
     1
 10
0.0
 20
0.0
 30
0.0
  0
VERTEX
  5
273
330
272
100
AcDbEntity
  8
cuerpo
 62
     7
420
 16777215
370
    30
100
AcDbVertex
100
AcDb2dVertex
 10
-113.130562308957
 20
-72.73630098007982
 30
0.0
  0
VERTEX
  5
274
330
272
100
AcDbEntity
  8
cuerpo
 62
     7
420
 16777215
370
    30
100
AcDbVertex
100
AcDb2dVertex
 10
-113.130562308957
 20
-71.97011174416025
 30
0.0
  0
SEQEND
  5
275
330
272
100
AcDbEntity
  8
cuerpo
370
    30
  0
ENDBLK
  5
271
330
26E
100
AcDbEntity
  8
0
100
AcDbBlockEnd
  0
BLOCK
  5
278
330
276
100
AcDbEntity
  8
0
100
AcDbBlockBegin
  2
block 83
 70
     0
 71
     0
 10
0.0
 20
0.0
 30
0.0
  3
block 83
  1

  0
POLYLINE
  5
27A
330
276
100
AcDbEntity
  8
cuerpo
 62
     7
420
 16777215
370
    30
100
AcDb2dPolyline
 66
     1
 10
0.0
 20
0.0
 30
0.0
  0
VERTEX
  5
27B
330
27A
100
AcDbEntity
  8
cuerpo
 62
     7
420
 16777215
370
    30
100
AcDbVertex
100
AcDb2dVertex
 10
-115.0475856917242
 20
-72.73630098007982
 30
0.0
  0
VERTEX
  5
27C
330
27A
100
AcDbEntity
  8
cuerpo
 62
     7
420
 16777215
370
    30
100
AcDbVertex
100
AcDb2dVertex
 10
-115.0475856917242
 20
-71.97011174416025
 30
0.0
  0
SEQEND
  5
27D
330
27A
100
AcDbEntity
  8
cuerpo
370
    30
  0
ENDBLK
  5
279
330
276
100
AcDbEntity
  8
0
100
AcDbBlockEnd
  0
BLOCK
  5
280
330
27E
100
AcDbEntity
  8
0
100
AcDbBlockBegin
  2
block 84
 70
     0
 71
     0
 10
0.0
 20
0.0
 30
0.0
  3
block 84
  1

  0
SPLINE
  5
282
330
27E
100
AcDbEntity
  8
cuerpo
 62
     7
420
 16777215
370
    30
100
AcDbSpline
210
0.0
220
0.0
230
1.0
 70
     8
 71
     3
 72
     8
 73
     4
 74
     0
 42
0.0000000001
 43
0.0000000001
 40
0.0
 40
0.0
 40
0.0
 40
0.0
 40
1.0
 40
1.0
 40
1.0
 40
1.0
 10
-105.7935424540204
 20
-73.75880532010197
 30
0.0
 10
-105.7509955247775
 20
-73.75880532010197
 30
0.0
 10
-105.7163723151508
 20
-73.72538789389505
 30
0.0
 10
-105.7163723151508
 20
-73.68197969078089
 30
0.0
  0
ENDBLK
  5
281
330
27E
100
AcDbEntity
  8
0
100
AcDbBlockEnd
  0
BLOCK
  5
285
330
283
100
AcDbEntity
  8
0
100
AcDbBlockBegin
  2
block 85
 70
     0
 71
     0
 10
0.0
 20
0.0
 30
0.0
  3
block 85
  1

  0
SPLINE
  5
287
330
283
100
AcDbEntity
  8
cuerpo
 62
     7
420
 16777215
370
    30
100
AcDbSpline
210
0.0
220
0.0
230
1.0
 70
     8
 71
     3
 72
     8
 73
     4
 74
     0
 42
0.0000000001
 43
0.0000000001
 40
0.0
 40
0.0
 40
0.0
 40
0.0
 40
1.0
 40
1.0
 40
1.0
 40
1.0
 10
-105.7163723151508
 20
-72.78728839326152
 30
0.0
 10
-105.7163723151508
 20
-72.75938311983099
 30
0.0
 10
-105.7392822001277
 20
-72.73630098007982
 30
0.0
 10
-105.7678764926553
 20
-72.73630098007982
 30
0.0
  0
ENDBLK
  5
286
330
283
100
AcDbEntity
  8
0
100
AcDbBlockEnd
  0
BLOCK
  5
28A
330
288
100
AcDbEntity
  8
0
100
AcDbBlockBegin
  2
block 86
 70
     0
 71
     0
 10
0.0
 20
0.0
 30
0.0
  3
block 86
  1

  0
SPLINE
  5
28C
330
288
100
AcDbEntity
  8
cuerpo
 62
     7
420
 16777215
370
    30
100
AcDbSpline
210
0.0
220
0.0
230
1.0
 70
     8
 71
     3
 72
     8
 73
     4
 74
     0
 42
0.0000000001
 43
0.0000000001
 40
0.0
 40
0.0
 40
0.0
 40
0.0
 40
1.0
 40
1.0
 40
1.0
 40
1.0
 10
-105.7678764926553
 20
-71.97011174416025
 30
0.0
 10
-105.7392822001277
 20
-71.97011174416025
 30
0.0
 10
-105.7163723151508
 20
-71.94668509486056
 30
0.0
 10
-105.7163723151508
 20
-71.91877982143004
 30
0.0
  0
ENDBLK
  5
28B
330
288
100
AcDbEntity
  8
0
100
AcDbBlockEnd
  0
BLOCK
  5
28F
330
28D
100
AcDbEntity
  8
0
100
AcDbBlockBegin
  2
block 87
 70
     0
 71
     0
 10
0.0
 20
0.0
 30
0.0
  3
block 87
  1

  0
POLYLINE
  5
291
330
28D
100
AcDbEntity
  8
cuerpo
 62
     7
420
 16777215
370
    30
100
AcDb2dPolyline
 66
     1
 10
0.0
 20
0.0
 30
0.0
  0
VERTEX
  5
292
330
291
100
AcDbEntity
  8
cuerpo
 62
     7
420
 16777215
370
    30
100
AcDbVertex
100
AcDb2dVertex
 10
-105.7163723151508
 20
-71.91877982143004
 30
0.0
  0
VERTEX
  5
293
330
291
100
AcDbEntity
  8
cuerpo
 62
     7
420
 16777215
370
    30
100
AcDbVertex
100
AcDb2dVertex
 10
-105.7163723151508
 20
-71.25422090232534
 30
0.0
  0
SEQEND
  5
294
330
291
100
AcDbEntity
  8
cuerpo
370
    30
  0
ENDBLK
  5
290
330
28D
100
AcDbEntity
  8
0
100
AcDbBlockEnd
  0
BLOCK
  5
297
330
295
100
AcDbEntity
  8
0
100
AcDbBlockBegin
  2
block 88
 70
     0
 71
     0
 10
0.0
 20
0.0
 30
0.0
  3
block 88
  1

  0
SPLINE
  5
299
330
295
100
AcDbEntity
  8
cuerpo
 62
     7
420
 16777215
370
    30
100
AcDbSpline
210
0.0
220
0.0
230
1.0
 70
     8
 71
     3
 72
     8
 73
     4
 74
     0
 42
0.0000000001
 43
0.0000000001
 40
0.0
 40
0.0
 40
0.0
 40
0.0
 40
1.0
 40
1.0
 40
1.0
 40
1.0
 10
-105.7163723151508
 20
-71.25422090232534
 30
0.0
 10
-105.7163723151508
 20
-71.22597111934628
 30
0.0
 10
-105.7392822001277
 20
-71.20254447004659
 30
0.0
 10
-105.7678764926553
 20
-71.20254447004659
 30
0.0
  0
ENDBLK
  5
298
330
295
100
AcDbEntity
  8
0
100
AcDbBlockEnd
  0
BLOCK
  5
29C
330
29A
100
AcDbEntity
  8
0
100
AcDbBlockBegin
  2
block 89
 70
     0
 71
     0
 10
0.0
 20
0.0
 30
0.0
  3
block 89
  1

  0
POLYLINE
  5
29E
330
29A
100
AcDbEntity
  8
cuerpo
 62
     7
420
 16777215
370
    30
100
AcDb2dPolyline
 66
     1
 10
0.0
 20
0.0
 30
0.0
  0
VERTEX
  5
29F
330
29E
100
AcDbEntity
  8
cuerpo
 62
     7
420
 16777215
370
    30
100
AcDbVertex
100
AcDb2dVertex
 10
-105.7163723151508
 20
-73.68197969078089
 30
0.0
  0
VERTEX
  5
2A0
330
29E
100
AcDbEntity
  8
cuerpo
 62
     7
420
 16777215
370
    30
100
AcDbVertex
100
AcDb2dVertex
 10
-105.7163723151508
 20
-72.78728839326152
 30
0.0
  0
SEQEND
  5
2A1
330
29E
100
AcDbEntity
  8
cuerpo
370
    30
  0
ENDBLK
  5
29D
330
29A
100
AcDbEntity
  8
0
100
AcDbBlockEnd
  0
BLOCK
  5
2A4
330
2A2
100
AcDbEntity
  8
0
100
AcDbBlockBegin
  2
block 90
 70
     0
 71
     0
 10
0.0
 20
0.0
 30
0.0
  3
block 90
  1

  0
POLYLINE
  5
2A6
330
2A2
100
AcDbEntity
  8
cuerpo
 62
     7
420
 16777215
370
    30
100
AcDb2dPolyline
 66
     1
 10
0.0
 20
0.0
 30
0.0
  0
VERTEX
  5
2A7
330
2A6
100
AcDbEntity
  8
cuerpo
 62
     7
420
 16777215
370
    30
100
AcDbVertex
100
AcDb2dVertex
 10
-112.3543822961302
 20
-84.24395342945985
 30
0.0
  0
VERTEX
  5
2A8
330
2A6
100
AcDbEntity
  8
cuerpo
 62
     7
420
 16777215
370
    30
100
AcDbVertex
100
AcDb2dVertex
 10
-108.4187052137807
 20
-83.1897542109734
 30
0.0
  0
SEQEND
  5
2A9
330
2A6
100
AcDbEntity
  8
cuerpo
370
    30
  0
ENDBLK
  5
2A5
330
2A2
100
AcDbEntity
  8
0
100
AcDbBlockEnd
  0
BLOCK
  5
2AC
330
2AA
100
AcDbEntity
  8
0
100
AcDbBlockBegin
  2
block 91
 70
     0
 71
     0
 10
0.0
 20
0.0
 30
0.0
  3
block 91
  1

  0
POLYLINE
  5
2AE
330
2AA
100
AcDbEntity
  8
cuerpo
 62
     7
420
 16777215
370
    30
100
AcDb2dPolyline
 66
     1
 10
0.0
 20
0.0
 30
0.0
  0
VERTEX
  5
2AF
330
2AE
100
AcDbEntity
  8
cuerpo
 62
     7
420
 16777215
370
    30
100
AcDbVertex
100
AcDb2dVertex
 10
-108.4908799641967
 20
-81.18849824359177
 30
0.0
  0
VERTEX
  5
2B0
330
2AE
100
AcDbEntity
  8
cuerpo
 62
     7
420
 16777215
370
    30
100
AcDbVertex
100
AcDb2dVertex
 10
-112.4622137848185
 20
-82.29885251848779
 30
0.0
  0
SEQEND
  5
2B1
330
2AE
100
AcDbEntity
  8
cuerpo
370
    30
  0
ENDBLK
  5
2AD
330
2AA
100
AcDbEntity
  8
0
100
AcDbBlockEnd
  0
BLOCK
  5
2B4
330
2B2
100
AcDbEntity
  8
0
100
AcDbBlockBegin
  2
block 92
 70
     0
 71
     0
 10
0.0
 20
0.0
 30
0.0
  3
block 92
  1

  0
POLYLINE
  5
2B6
330
2B2
100
AcDbEntity
  8
cuerpo
 62
     7
420
 16777215
370
    30
100
AcDb2dPolyline
 66
     1
 10
0.0
 20
0.0
 30
0.0
  0
VERTEX
  5
2B7
330
2B6
100
AcDbEntity
  8
cuerpo
 62
     7
420
 16777215
370
    30
100
AcDbVertex
100
AcDb2dVertex
 10
-108.8868936902262
 20
-68.74309080312673
 30
0.0
  0
VERTEX
  5
2B8
330
2B6
100
AcDbEntity
  8
cuerpo
 62
     7
420
 16777215
370
    30
100
AcDbVertex
100
AcDb2dVertex
 10
-111.5106784117925
 20
-68.74309080312673
 30
0.0
  0
SEQEND
  5
2B9
330
2B6
100
AcDbEntity
  8
cuerpo
370
    30
  0
ENDBLK
  5
2B5
330
2B2
100
AcDbEntity
  8
0
100
AcDbBlockEnd
  0
BLOCK
  5
2BC
330
2BA
100
AcDbEntity
  8
0
100
AcDbBlockBegin
  2
block 93
 70
     0
 71
     0
 10
0.0
 20
0.0
 30
0.0
  3
block 93
  1

  0
POLYLINE
  5
2BE
330
2BA
100
AcDbEntity
  8
cuerpo
 62
     7
420
 16777215
370
    30
100
AcDb2dPolyline
 66
     1
 10
0.0
 20
0.0
 30
0.0
  0
VERTEX
  5
2BF
330
2BE
100
AcDbEntity
  8
cuerpo
 62
     7
420
 16777215
370
    30
100
AcDbVertex
100
AcDb2dVertex
 10
-113.062349418349
 20
-77.90256616976048
 30
0.0
  0
VERTEX
  5
2C0
330
2BE
100
AcDbEntity
  8
cuerpo
 62
     7
420
 16777215
370
    30
100
AcDbVertex
100
AcDb2dVertex
 10
-113.062349418349
 20
-77.90256616976048
 30
0.0
  0
SEQEND
  5
2C1
330
2BE
100
AcDbEntity
  8
cuerpo
370
    30
  0
ENDBLK
  5
2BD
330
2BA
100
AcDbEntity
  8
0
100
AcDbBlockEnd
  0
BLOCK
  5
2C4
330
2C2
100
AcDbEntity
  8
0
100
AcDbBlockBegin
  2
block 94
 70
     0
 71
     0
 10
0.0
 20
0.0
 30
0.0
  3
block 94
  1

  0
SPLINE
  5
2C6
330
2C2
100
AcDbEntity
  8
cuerpo
 62
     7
420
 16777215
370
    30
100
AcDbSpline
210
0.0
220
0.0
230
1.0
 70
     8
 71
     3
 72
     8
 73
     4
 74
     0
 42
0.0000000001
 43
0.0000000001
 40
0.0
 40
0.0
 40
0.0
 40
0.0
 40
1.0
 40
1.0
 40
1.0
 40
1.0
 10
-113.4184000367496
 20
-73.94208439991726
 30
0.0
 10
-113.8762532267393
 20
-73.78671059353249
 30
0.0
 10
-114.3723469766152
 20
-73.78671059353249
 30
0.0
 10
-114.8300279118307
 20
-73.94208439991726
 30
0.0
  0
ENDBLK
  5
2C5
330
2C2
100
AcDbEntity
  8
0
100
AcDbBlockEnd
  0
BLOCK
  5
2C9
330
2C7
100
AcDbEntity
  8
0
100
AcDbBlockBegin
  2
block 95
 70
     0
 71
     0
 10
0.0
 20
0.0
 30
0.0
  3
block 95
  1

  0
POLYLINE
  5
2CB
330
2C7
100
AcDbEntity
  8
cuerpo
 62
     7
420
 16777215
370
    30
100
AcDb2dPolyline
 66
     1
 10
0.0
 20
0.0
 30
0.0
  0
VERTEX
  5
2CC
330
2CB
100
AcDbEntity
  8
cuerpo
 62
     7
420
 16777215
370
    30
100
AcDbVertex
100
AcDb2dVertex
 10
-115.5819200014865
 20
-73.94105087127168
 30
0.0
  0
VERTEX
  5
2CD
330
2CB
100
AcDbEntity
  8
cuerpo
 62
     7
420
 16777215
370
    30
100
AcDbVertex
100
AcDb2dVertex
 10
-115.2749619937507
 20
-73.76362845378132
 30
0.0
  0
SEQEND
  5
2CE
330
2CB
100
AcDbEntity
  8
cuerpo
370
    30
  0
ENDBLK
  5
2CA
330
2C7
100
AcDbEntity
  8
0
100
AcDbBlockEnd
  0
BLOCK
  5
2D1
330
2CF
100
AcDbEntity
  8
0
100
AcDbBlockBegin
  2
block 96
 70
     0
 71
     0
 10
0.0
 20
0.0
 30
0.0
  3
block 96
  1

  0
SPLINE
  5
2D3
330
2CF
100
AcDbEntity
  8
cuerpo
 62
     7
420
 16777215
370
    30
100
AcDbSpline
210
0.0
220
0.0
230
1.0
 70
     8
 71
     3
 72
     8
 73
     4
 74
     0
 42
0.0000000001
 43
0.0000000001
 40
0.0
 40
0.0
 40
0.0
 40
0.0
 40
1.0
 40
1.0
 40
1.0
 40
1.0
 10
-114.8300279118307
 20
-73.94208439991726
 30
0.0
 10
-115.0656724430218
 20
-73.78119844075609
 30
0.0
 10
-115.3829657372133
 20
-73.8128933192204
 30
0.0
 10
-115.5819200014865
 20
-74.01753199104424
 30
0.0
  0
ENDBLK
  5
2D2
330
2CF
100
AcDbEntity
  8
0
100
AcDbBlockEnd
  0
BLOCK
  5
2D6
330
2D4
100
AcDbEntity
  8
0
100
AcDbBlockBegin
  2
block 97
 70
     0
 71
     0
 10
0.0
 20
0.0
 30
0.0
  3
block 97
  1

  0
POLYLINE
  5
2D8
330
2D4
100
AcDbEntity
  8
cuerpo
 62
     7
420
 16777215
370
    30
100
AcDb2dPolyline
 66
     1
 10
0.0
 20
0.0
 30
0.0
  0
VERTEX
  5
2D9
330
2D8
100
AcDbEntity
  8
cuerpo
 62
     7
420
 16777215
370
    30
100
AcDbVertex
100
AcDb2dVertex
 10
-112.6668524566423
 20
-73.94105087127168
 30
0.0
  0
VERTEX
  5
2DA
330
2D8
100
AcDbEntity
  8
cuerpo
 62
     7
420
 16777215
370
    30
100
AcDbVertex
100
AcDb2dVertex
 10
-112.9743272287009
 20
-73.76362845378132
 30
0.0
  0
SEQEND
  5
2DB
330
2D8
100
AcDbEntity
  8
cuerpo
370
    30
  0
ENDBLK
  5
2D7
330
2D4
100
AcDbEntity
  8
0
100
AcDbBlockEnd
  0
BLOCK
  5
2DE
330
2DC
100
AcDbEntity
  8
0
100
AcDbBlockBegin
  2
block 98
 70
     0
 71
     0
 10
0.0
 20
0.0
 30
0.0
  3
block 98
  1

  0
POLYLINE
  5
2E0
330
2DC
100
AcDbEntity
  8
cuerpo
 62
     7
420
 16777215
370
    30
100
AcDb2dPolyline
 66
     1
 10
0.0
 20
0.0
 30
0.0
  0
VERTEX
  5
2E1
330
2E0
100
AcDbEntity
  8
cuerpo
 62
     7
420
 16777215
370
    30
100
AcDbVertex
100
AcDb2dVertex
 10
-112.9743272287009
 20
-73.75880532010197
 30
0.0
  0
VERTEX
  5
2E2
330
2E0
100
AcDbEntity
  8
cuerpo
 62
     7
420
 16777215
370
    30
100
AcDbVertex
100
AcDb2dVertex
 10
-115.2749619937507
 20
-73.75880532010197
 30
0.0
  0
SEQEND
  5
2E3
330
2E0
100
AcDbEntity
  8
cuerpo
370
    30
  0
ENDBLK
  5
2DF
330
2DC
100
AcDbEntity
  8
0
100
AcDbBlockEnd
  0
BLOCK
  5
2E6
330
2E4
100
AcDbEntity
  8
0
100
AcDbBlockBegin
  2
block 99
 70
     0
 71
     0
 10
0.0
 20
0.0
 30
0.0
  3
block 99
  1

  0
SPLINE
  5
2E8
330
2E4
100
AcDbEntity
  8
cuerpo
 62
     7
420
 16777215
370
    30
100
AcDbSpline
210
0.0
220
0.0
230
1.0
 70
     8
 71
     3
 72
     8
 73
     4
 74
     0
 42
0.0000000001
 43
0.0000000001
 40
0.0
 40
0.0
 40
0.0
 40
0.0
 40
1.0
 40
1.0
 40
1.0
 40
1.0
 10
-112.6668524566423
 20
-74.01753199104424
 30
0.0
 10
-112.8656344661412
 20
-73.8128933192204
 30
0.0
 10
-113.183100015107
 20
-73.78119844075609
 30
0.0
 10
-113.4184000367496
 20
-73.94208439991726
 30
0.0
  0
ENDBLK
  5
2E7
330
2E4
100
AcDbEntity
  8
0
100
AcDbBlockEnd
  0
BLOCK
  5
2EB
330
2E9
100
AcDbEntity
  8
0
100
AcDbBlockBegin
  2
block 100
 70
     0
 71
     0
 10
0.0
 20
0.0
 30
0.0
  3
block 100
  1

  0
SPLINE
  5
2ED
330
2E9
100
AcDbEntity
  8
cuerpo
 62
     7
420
 16777215
370
    30
100
AcDbSpline
210
0.0
220
0.0
230
1.0
 70
     8
 71
     3
 72
     8
 73
     4
 74
     0
 42
0.0000000001
 43
0.0000000001
 40
0.0
 40
0.0
 40
0.0
 40
0.0
 40
1.0
 40
1.0
 40
1.0
 40
1.0
 10
-114.8300279118307
 20
-77.73685707691996
 30
0.0
 10
-114.36890188113
 20
-77.86777070535945
 30
0.0
 10
-113.8798705769988
 20
-77.86777070535945
 30
0.0
 10
-113.4184000367496
 20
-77.73685707691996
 30
0.0
  0
ENDBLK
  5
2EC
330
2E9
100
AcDbEntity
  8
0
100
AcDbBlockEnd
  0
BLOCK
  5
2F0
330
2EE
100
AcDbEntity
  8
0
100
AcDbBlockBegin
  2
block 101
 70
     0
 71
     0
 10
0.0
 20
0.0
 30
0.0
  3
block 101
  1

  0
SPLINE
  5
2F2
330
2EE
100
AcDbEntity
  8
cuerpo
 62
     7
420
 16777215
370
    30
100
AcDbSpline
210
0.0
220
0.0
230
1.0
 70
     8
 71
     3
 72
     8
 73
     4
 74
     0
 42
0.0000000001
 43
0.0000000001
 40
0.0
 40
0.0
 40
0.0
 40
0.0
 40
1.0
 40
1.0
 40
1.0
 40
1.0
 10
-115.5819200014865
 20
-77.73685707691996
 30
0.0
 10
-115.4746052771209
 20
-77.85709090935518
 30
0.0
 10
-115.316475394348
 20
-77.91738008034704
 30
0.0
 10
-115.1559339447353
 20
-77.90256616976048
 30
0.0
  0
ENDBLK
  5
2F1
330
2EE
100
AcDbEntity
  8
0
100
AcDbBlockEnd
  0
BLOCK
  5
2F5
330
2F3
100
AcDbEntity
  8
0
100
AcDbBlockBegin
  2
block 102
 70
     0
 71
     0
 10
0.0
 20
0.0
 30
0.0
  3
block 102
  1

  0
SPLINE
  5
2F7
330
2F3
100
AcDbEntity
  8
cuerpo
 62
     7
420
 16777215
370
    30
100
AcDbSpline
210
0.0
220
0.0
230
1.0
 70
     8
 71
     3
 72
     8
 73
     4
 74
     0
 42
0.0000000001
 43
0.0000000001
 40
0.0
 40
0.0
 40
0.0
 40
0.0
 40
1.0
 40
1.0
 40
1.0
 40
1.0
 10
-115.5819200014865
 20
-77.65968693805036
 30
0.0
 10
-115.3829657372133
 20
-77.86501462897125
 30
0.0
 10
-115.0656724430218
 20
-77.89774303608112
 30
0.0
 10
-114.8300279118307
 20
-77.73685707691996
 30
0.0
  0
ENDBLK
  5
2F6
330
2F3
100
AcDbEntity
  8
0
100
AcDbBlockEnd
  0
BLOCK
  5
2FA
330
2F8
100
AcDbEntity
  8
0
100
AcDbBlockBegin
  2
block 103
 70
     0
 71
     0
 10
0.0
 20
0.0
 30
0.0
  3
block 103
  1

  0
SPLINE
  5
2FC
330
2F8
100
AcDbEntity
  8
cuerpo
 62
     7
420
 16777215
370
    30
100
AcDbSpline
210
0.0
220
0.0
230
1.0
 70
     8
 71
     3
 72
     8
 73
     4
 74
     0
 42
0.0000000001
 43
0.0000000001
 40
0.0
 40
0.0
 40
0.0
 40
0.0
 40
1.0
 40
1.0
 40
1.0
 40
1.0
 10
-113.4184000367496
 20
-77.73685707691996
 30
0.0
 10
-113.183100015107
 20
-77.89774303608112
 30
0.0
 10
-112.8656344661412
 20
-77.86501462897125
 30
0.0
 10
-112.6668524566423
 20
-77.65968693805036
 30
0.0
  0
ENDBLK
  5
2FB
330
2F8
100
AcDbEntity
  8
0
100
AcDbBlockEnd
  0
BLOCK
  5
2FF
330
2FD
100
AcDbEntity
  8
0
100
AcDbBlockBegin
  2
block 104
 70
     0
 71
     0
 10
0.0
 20
0.0
 30
0.0
  3
block 104
  1

  0
POLYLINE
  5
301
330
2FD
100
AcDbEntity
  8
cuerpo
 62
     7
420
 16777215
370
    30
100
AcDb2dPolyline
 66
     1
 10
0.0
 20
0.0
 30
0.0
  0
VERTEX
  5
302
330
301
100
AcDbEntity
  8
cuerpo
 62
     7
420
 16777215
370
    30
100
AcDbVertex
100
AcDb2dVertex
 10
-112.9936197634183
 20
-77.90256616976048
 30
0.0
  0
VERTEX
  5
303
330
301
100
AcDbEntity
  8
cuerpo
 62
     7
420
 16777215
370
    30
100
AcDbVertex
100
AcDb2dVertex
 10
-115.1559339447353
 20
-77.90256616976048
 30
0.0
  0
SEQEND
  5
304
330
301
100
AcDbEntity
  8
cuerpo
370
    30
  0
ENDBLK
  5
300
330
2FD
100
AcDbEntity
  8
0
100
AcDbBlockEnd
  0
BLOCK
  5
307
330
305
100
AcDbEntity
  8
0
100
AcDbBlockBegin
  2
block 105
 70
     0
 71
     0
 10
0.0
 20
0.0
 30
0.0
  3
block 105
  1

  0
SPLINE
  5
309
330
305
100
AcDbEntity
  8
cuerpo
 62
     7
420
 16777215
370
    30
100
AcDbSpline
210
0.0
220
0.0
230
1.0
 70
     8
 71
     3
 72
     8
 73
     4
 74
     0
 42
0.0000000001
 43
0.0000000001
 40
0.0
 40
0.0
 40
0.0
 40
0.0
 40
1.0
 40
1.0
 40
1.0
 40
1.0
 10
-112.9936197634183
 20
-77.90256616976048
 30
0.0
 10
-112.8680460329809
 20
-77.88947480691652
 30
0.0
 10
-112.7516018055795
 20
-77.8312526932158
 30
0.0
 10
-112.6668524566423
 20
-77.73685707691996
 30
0.0
  0
ENDBLK
  5
308
330
305
100
AcDbEntity
  8
0
100
AcDbBlockEnd
  0
BLOCK
  5
30C
330
30A
100
AcDbEntity
  8
0
100
AcDbBlockBegin
  2
block 106
 70
     0
 71
     0
 10
0.0
 20
0.0
 30
0.0
  3
block 106
  1

  0
POLYLINE
  5
30E
330
30A
100
AcDbEntity
  8
cuerpo
 62
     7
420
 16777215
370
    30
100
AcDb2dPolyline
 66
     1
 10
0.0
 20
0.0
 30
0.0
  0
VERTEX
  5
30F
330
30E
100
AcDbEntity
  8
cuerpo
 62
     7
420
 16777215
370
    30
100
AcDbVertex
100
AcDb2dVertex
 10
-115.5819200014865
 20
-77.73685707691996
 30
0.0
  0
VERTEX
  5
310
330
30E
100
AcDbEntity
  8
cuerpo
 62
     7
420
 16777215
370
    30
100
AcDbVertex
100
AcDb2dVertex
 10
-115.5819200014865
 20
-73.94105087127168
 30
0.0
  0
SEQEND
  5
311
330
30E
100
AcDbEntity
  8
cuerpo
370
    30
  0
ENDBLK
  5
30D
330
30A
100
AcDbEntity
  8
0
100
AcDbBlockEnd
  0
BLOCK
  5
314
330
312
100
AcDbEntity
  8
0
100
AcDbBlockBegin
  2
block 107
 70
     0
 71
     0
 10
0.0
 20
0.0
 30
0.0
  3
block 107
  1

  0
POLYLINE
  5
316
330
312
100
AcDbEntity
  8
cuerpo
 62
     7
420
 16777215
370
    30
100
AcDb2dPolyline
 66
     1
 10
0.0
 20
0.0
 30
0.0
  0
VERTEX
  5
317
330
316
100
AcDbEntity
  8
cuerpo
 62
     7
420
 16777215
370
    30
100
AcDbVertex
100
AcDb2dVertex
 10
-114.8300279118307
 20
-77.73685707691996
 30
0.0
  0
VERTEX
  5
318
330
316
100
AcDbEntity
  8
cuerpo
 62
     7
420
 16777215
370
    30
100
AcDbVertex
100
AcDb2dVertex
 10
-114.8300279118307
 20
-73.94208439991726
 30
0.0
  0
SEQEND
  5
319
330
316
100
AcDbEntity
  8
cuerpo
370
    30
  0
ENDBLK
  5
315
330
312
100
AcDbEntity
  8
0
100
AcDbBlockEnd
  0
BLOCK
  5
31C
330
31A
100
AcDbEntity
  8
0
100
AcDbBlockBegin
  2
block 108
 70
     0
 71
     0
 10
0.0
 20
0.0
 30
0.0
  3
block 108
  1

  0
POLYLINE
  5
31E
330
31A
100
AcDbEntity
  8
cuerpo
 62
     7
420
 16777215
370
    30
100
AcDb2dPolyline
 66
     1
 10
0.0
 20
0.0
 30
0.0
  0
VERTEX
  5
31F
330
31E
100
AcDbEntity
  8
cuerpo
 62
     7
420
 16777215
370
    30
100
AcDbVertex
100
AcDb2dVertex
 10
-113.4184000367496
 20
-77.73685707691996
 30
0.0
  0
VERTEX
  5
320
330
31E
100
AcDbEntity
  8
cuerpo
 62
     7
420
 16777215
370
    30
100
AcDbVertex
100
AcDb2dVertex
 10
-113.4184000367496
 20
-73.94208439991726
 30
0.0
  0
SEQEND
  5
321
330
31E
100
AcDbEntity
  8
cuerpo
370
    30
  0
ENDBLK
  5
31D
330
31A
100
AcDbEntity
  8
0
100
AcDbBlockEnd
  0
BLOCK
  5
324
330
322
100
AcDbEntity
  8
0
100
AcDbBlockBegin
  2
block 109
 70
     0
 71
     0
 10
0.0
 20
0.0
 30
0.0
  3
block 109
  1

  0
POLYLINE
  5
326
330
322
100
AcDbEntity
  8
cuerpo
 62
     7
420
 16777215
370
    30
100
AcDb2dPolyline
 66
     1
 10
0.0
 20
0.0
 30
0.0
  0
VERTEX
  5
327
330
326
100
AcDbEntity
  8
cuerpo
 62
     7
420
 16777215
370
    30
100
AcDbVertex
100
AcDb2dVertex
 10
-112.6668524566423
 20
-77.73685707691996
 30
0.0
  0
VERTEX
  5
328
330
326
100
AcDbEntity
  8
cuerpo
 62
     7
420
 16777215
370
    30
100
AcDbVertex
100
AcDb2dVertex
 10
-112.6668524566423
 20
-73.94105087127168
 30
0.0
  0
SEQEND
  5
329
330
326
100
AcDbEntity
  8
cuerpo
370
    30
  0
ENDBLK
  5
325
330
322
100
AcDbEntity
  8
0
100
AcDbBlockEnd
  0
BLOCK
  5
32C
330
32A
100
AcDbEntity
  8
0
100
AcDbBlockBegin
  2
block 110
 70
     0
 71
     0
 10
0.0
 20
0.0
 30
0.0
  3
block 110
  1

  0
SPLINE
  5
32E
330
32A
100
AcDbEntity
  8
cuerpo
 62
     7
420
 16777215
370
    30
100
AcDbSpline
210
0.0
220
0.0
230
1.0
 70
     8
 71
     3
 72
     8
 73
     4
 74
     0
 42
0.0000000001
 43
0.0000000001
 40
0.0
 40
0.0
 40
0.0
 40
0.0
 40
1.0
 40
1.0
 40
1.0
 40
1.0
 10
-114.0774468030779
 20
-78.91025659919605
 30
0.0
 10
-113.6657578925905
 20
-78.90198837003145
 30
0.0
 10
-113.2854193510189
 20
-78.68942597859153
 30
0.0
 10
-113.062349418349
 20
-78.34457192051802
 30
0.0
  0
ENDBLK
  5
32D
330
32A
100
AcDbEntity
  8
0
100
AcDbBlockEnd
  0
BLOCK
  5
331
330
32F
100
AcDbEntity
  8
0
100
AcDbBlockBegin
  2
block 111
 70
     0
 71
     0
 10
0.0
 20
0.0
 30
0.0
  3
block 111
  1

  0
POLYLINE
  5
333
330
32F
100
AcDbEntity
  8
cuerpo
 62
     7
420
 16777215
370
    30
100
AcDb2dPolyline
 66
     1
 10
0.0
 20
0.0
 30
0.0
  0
VERTEX
  5
334
330
333
100
AcDbEntity
  8
cuerpo
 62
     7
420
 16777215
370
    30
100
AcDbVertex
100
AcDb2dVertex
 10
-114.2266194375892
 20
-77.90256616976048
 30
0.0
  0
VERTEX
  5
335
330
333
100
AcDbEntity
  8
cuerpo
 62
     7
420
 16777215
370
    30
100
AcDbVertex
100
AcDb2dVertex
 10
-113.9229342705644
 20
-77.90256616976048
 30
0.0
  0
SEQEND
  5
336
330
333
100
AcDbEntity
  8
cuerpo
370
    30
  0
ENDBLK
  5
332
330
32F
100
AcDbEntity
  8
0
100
AcDbBlockEnd
  0
BLOCK
  5
339
330
337
100
AcDbEntity
  8
0
100
AcDbBlockBegin
  2
block 112
 70
     0
 71
     0
 10
0.0
 20
0.0
 30
0.0
  3
block 112
  1

  0
SPLINE
  5
33B
330
337
100
AcDbEntity
  8
cuerpo
 62
     7
420
 16777215
370
    30
100
AcDbSpline
210
0.0
220
0.0
230
1.0
 70
     8
 71
     3
 72
     8
 73
     4
 74
     0
 42
0.0000000001
 43
0.0000000001
 40
0.0
 40
0.0
 40
0.0
 40
0.0
 40
1.0
 40
1.0
 40
1.0
 40
1.0
 10
-115.0872042898046
 20
-78.34457192051802
 30
0.0
 10
-114.864995631006
 20
-78.68839244994597
 30
0.0
 10
-114.4865518919513
 20
-78.90061033183736
 30
0.0
 10
-114.0774468030779
 20
-78.91025659919605
 30
0.0
  0
ENDBLK
  5
33A
330
337
100
AcDbEntity
  8
0
100
AcDbBlockEnd
  0
BLOCK
  5
33E
330
33C
100
AcDbEntity
  8
0
100
AcDbBlockBegin
  2
block 113
 70
     0
 71
     0
 10
0.0
 20
0.0
 30
0.0
  3
block 113
  1

  0
POLYLINE
  5
340
330
33C
100
AcDbEntity
  8
cuerpo
 62
     7
420
 16777215
370
    30
100
AcDb2dPolyline
 66
     1
 10
0.0
 20
0.0
 30
0.0
  0
VERTEX
  5
341
330
340
100
AcDbEntity
  8
cuerpo
 62
     7
420
 16777215
370
    30
100
AcDbVertex
100
AcDb2dVertex
 10
-115.0872042898046
 20
-77.90256616976048
 30
0.0
  0
VERTEX
  5
342
330
340
100
AcDbEntity
  8
cuerpo
 62
     7
420
 16777215
370
    30
100
AcDbVertex
100
AcDb2dVertex
 10
-113.062349418349
 20
-77.90256616976048
 30
0.0
  0
SEQEND
  5
343
330
340
100
AcDbEntity
  8
cuerpo
370
    30
  0
ENDBLK
  5
33F
330
33C
100
AcDbEntity
  8
0
100
AcDbBlockEnd
  0
BLOCK
  5
346
330
344
100
AcDbEntity
  8
0
100
AcDbBlockBegin
  2
block 114
 70
     0
 71
     0
 10
0.0
 20
0.0
 30
0.0
  3
block 114
  1

  0
POLYLINE
  5
348
330
344
100
AcDbEntity
  8
cuerpo
 62
     7
420
 16777215
370
    30
100
AcDb2dPolyline
 66
     1
 10
0.0
 20
0.0
 30
0.0
  0
VERTEX
  5
349
330
348
100
AcDbEntity
  8
cuerpo
 62
     7
420
 16777215
370
    30
100
AcDbVertex
100
AcDb2dVertex
 10
-113.062349418349
 20
-78.34457192051802
 30
0.0
  0
VERTEX
  5
34A
330
348
100
AcDbEntity
  8
cuerpo
 62
     7
420
 16777215
370
    30
100
AcDbVertex
100
AcDb2dVertex
 10
-113.062349418349
 20
-77.90256616976048
 30
0.0
  0
SEQEND
  5
34B
330
348
100
AcDbEntity
  8
cuerpo
370
    30
  0
ENDBLK
  5
347
330
344
100
AcDbEntity
  8
0
100
AcDbBlockEnd
  0
BLOCK
  5
34E
330
34C
100
AcDbEntity
  8
0
100
AcDbBlockBegin
  2
block 115
 70
     0
 71
     0
 10
0.0
 20
0.0
 30
0.0
  3
block 115
  1

  0
POLYLINE
  5
350
330
34C
100
AcDbEntity
  8
cuerpo
 62
     7
420
 16777215
370
    30
100
AcDb2dPolyline
 66
     1
 10
0.0
 20
0.0
 30
0.0
  0
VERTEX
  5
351
330
350
100
AcDbEntity
  8
cuerpo
 62
     7
420
 16777215
370
    30
100
AcDbVertex
100
AcDb2dVertex
 10
-115.0872042898046
 20
-78.34457192051802
 30
0.0
  0
VERTEX
  5
352
330
350
100
AcDbEntity
  8
cuerpo
 62
     7
420
 16777215
370
    30
100
AcDbVertex
100
AcDb2dVertex
 10
-115.0872042898046
 20
-77.90256616976048
 30
0.0
  0
SEQEND
  5
353
330
350
100
AcDbEntity
  8
cuerpo
370
    30
  0
ENDBLK
  5
34F
330
34C
100
AcDbEntity
  8
0
100
AcDbBlockEnd
  0
BLOCK
  5
356
330
354
100
AcDbEntity
  8
0
100
AcDbBlockBegin
  2
block 116
 70
     0
 71
     0
 10
0.0
 20
0.0
 30
0.0
  3
block 116
  1

  0
POLYLINE
  5
358
330
354
100
AcDbEntity
  8
cuerpo
 62
     7
420
 16777215
370
    30
100
AcDb2dPolyline
 66
     1
 10
0.0
 20
0.0
 30
0.0
  0
VERTEX
  5
359
330
358
100
AcDbEntity
  8
cuerpo
 62
     7
420
 16777215
370
    30
100
AcDbVertex
100
AcDb2dVertex
 10
-115.0872042898046
 20
-78.34457192051802
 30
0.0
  0
VERTEX
  5
35A
330
358
100
AcDbEntity
  8
cuerpo
 62
     7
420
 16777215
370
    30
100
AcDbVertex
100
AcDb2dVertex
 10
-113.062349418349
 20
-78.34457192051802
 30
0.0
  0
SEQEND
  5
35B
330
358
100
AcDbEntity
  8
cuerpo
370
    30
  0
ENDBLK
  5
357
330
354
100
AcDbEntity
  8
0
100
AcDbBlockEnd
  0
BLOCK
  5
35E
330
35C
100
AcDbEntity
  8
0
100
AcDbBlockBegin
  2
block 117
 70
     0
 71
     0
 10
0.0
 20
0.0
 30
0.0
  3
block 117
  1

  0
POLYLINE
  5
360
330
35C
100
AcDbEntity
  8
cuerpo
 62
     7
420
 16777215
370
    30
100
AcDb2dPolyline
 66
     1
 10
0.0
 20
0.0
 30
0.0
  0
VERTEX
  5
361
330
360
100
AcDbEntity
  8
cuerpo
 62
     7
420
 16777215
370
    30
100
AcDbVertex
100
AcDb2dVertex
 10
-111.6989528800614
 20
-65.54707572146046
 30
0.0
  0
VERTEX
  5
362
330
360
100
AcDbEntity
  8
cuerpo
 62
     7
420
 16777215
370
    30
100
AcDbVertex
100
AcDb2dVertex
 10
-111.6989528800614
 20
-67.33680282604774
 30
0.0
  0
SEQEND
  5
363
330
360
100
AcDbEntity
  8
cuerpo
370
    30
  0
ENDBLK
  5
35F
330
35C
100
AcDbEntity
  8
0
100
AcDbBlockEnd
  0
BLOCK
  5
366
330
364
100
AcDbEntity
  8
0
100
AcDbBlockBegin
  2
block 118
 70
     0
 71
     0
 10
0.0
 20
0.0
 30
0.0
  3
block 118
  1

  0
SPLINE
  5
368
330
364
100
AcDbEntity
  8
cuerpo
 62
     7
420
 16777215
370
    30
100
AcDbSpline
210
0.0
220
0.0
230
1.0
 70
     8
 71
     3
 72
     8
 73
     4
 74
     0
 42
0.0000000001
 43
0.0000000001
 40
0.0
 40
0.0
 40
0.0
 40
0.0
 40
1.0
 40
1.0
 40
1.0
 40
1.0
 10
-111.6989528800614
 20
-67.33680282604774
 30
0.0
 10
-111.8663845206445
 20
-67.64031573829826
 30
0.0
 10
-111.9542344555184
 20
-67.98069117224094
 30
0.0
 10
-111.9542344555184
 20
-68.32726777805708
 30
0.0
  0
ENDBLK
  5
367
330
364
100
AcDbEntity
  8
0
100
AcDbBlockEnd
  0
BLOCK
  5
36B
330
369
100
AcDbEntity
  8
0
100
AcDbBlockBegin
  2
block 119
 70
     0
 71
     0
 10
0.0
 20
0.0
 30
0.0
  3
block 119
  1

  0
POLYLINE
  5
36D
330
369
100
AcDbEntity
  8
cuerpo
 62
     7
420
 16777215
370
    30
100
AcDb2dPolyline
 66
     1
 10
0.0
 20
0.0
 30
0.0
  0
VERTEX
  5
36E
330
36D
100
AcDbEntity
  8
cuerpo
 62
     7
420
 16777215
370
    30
100
AcDbVertex
100
AcDb2dVertex
 10
-111.507061061533
 20
-65.54707572146046
 30
0.0
  0
VERTEX
  5
36F
330
36D
100
AcDbEntity
  8
cuerpo
 62
     7
420
 16777215
370
    30
100
AcDbVertex
100
AcDb2dVertex
 10
-111.507061061533
 20
-67.33680282604774
 30
0.0
  0
SEQEND
  5
370
330
36D
100
AcDbEntity
  8
cuerpo
370
    30
  0
ENDBLK
  5
36C
330
369
100
AcDbEntity
  8
0
100
AcDbBlockEnd
  0
BLOCK
  5
373
330
371
100
AcDbEntity
  8
0
100
AcDbBlockBegin
  2
block 120
 70
     0
 71
     0
 10
0.0
 20
0.0
 30
0.0
  3
block 120
  1

  0
POLYLINE
  5
375
330
371
100
AcDbEntity
  8
cuerpo
 62
     7
420
 16777215
370
    30
100
AcDb2dPolyline
 66
     1
 10
0.0
 20
0.0
 30
0.0
  0
VERTEX
  5
376
330
375
100
AcDbEntity
  8
cuerpo
 62
     7
420
 16777215
370
    30
100
AcDbVertex
100
AcDb2dVertex
 10
-111.0598876675475
 20
-65.54707572146046
 30
0.0
  0
VERTEX
  5
377
330
375
100
AcDbEntity
  8
cuerpo
 62
     7
420
 16777215
370
    30
100
AcDbVertex
100
AcDb2dVertex
 10
-111.0598876675475
 20
-67.33680282604774
 30
0.0
  0
SEQEND
  5
378
330
375
100
AcDbEntity
  8
cuerpo
370
    30
  0
ENDBLK
  5
374
330
371
100
AcDbEntity
  8
0
100
AcDbBlockEnd
  0
BLOCK
  5
37B
330
379
100
AcDbEntity
  8
0
100
AcDbBlockBegin
  2
block 121
 70
     0
 71
     0
 10
0.0
 20
0.0
 30
0.0
  3
block 121
  1

  0
SPLINE
  5
37D
330
379
100
AcDbEntity
  8
cuerpo
 62
     7
420
 16777215
370
    30
100
AcDbSpline
210
0.0
220
0.0
230
1.0
 70
     8
 71
     3
 72
    11
 73
     7
 74
     0
 42
0.0000000001
 43
0.0000000001
 40
0.0
 40
0.0
 40
0.0
 40
0.0
 40
1.0
 40
1.0
 40
1.0
 40
2.0
 40
2.0
 40
2.0
 40
2.0
 10
-111.0598876675475
 20
-67.33680282604774
 30
0.0
 10
-111.0598876675475
 20
-67.51284720534402
 30
0.0
 10
-111.1596231818455
 20
-67.65650768707893
 30
0.0
 10
-111.2831298549917
 20
-67.65650768707893
 30
0.0
 10
-111.4069810376864
 20
-67.65650768707893
 30
0.0
 10
-111.507061061533
 20
-67.51284720534402
 30
0.0
 10
-111.507061061533
 20
-67.33680282604774
 30
0.0
  0
ENDBLK
  5
37C
330
379
100
AcDbEntity
  8
0
100
AcDbBlockEnd
  0
BLOCK
  5
380
330
37E
100
AcDbEntity
  8
0
100
AcDbBlockBegin
  2
block 122
 70
     0
 71
     0
 10
0.0
 20
0.0
 30
0.0
  3
block 122
  1

  0
POLYLINE
  5
382
330
37E
100
AcDbEntity
  8
cuerpo
 62
     7
420
 16777215
370
    30
100
AcDb2dPolyline
 66
     1
 10
0.0
 20
0.0
 30
0.0
  0
VERTEX
  5
383
330
382
100
AcDbEntity
  8
cuerpo
 62
     7
420
 16777215
370
    30
100
AcDbVertex
100
AcDb2dVertex
 10
-109.142003010909
 20
-65.54707572146046
 30
0.0
  0
VERTEX
  5
384
330
382
100
AcDbEntity
  8
cuerpo
 62
     7
420
 16777215
370
    30
100
AcDbVertex
100
AcDb2dVertex
 10
-108.9304741481146
 20
-65.12367348632326
 30
0.0
  0
SEQEND
  5
385
330
382
100
AcDbEntity
  8
cuerpo
370
    30
  0
ENDBLK
  5
381
330
37E
100
AcDbEntity
  8
0
100
AcDbBlockEnd
  0
BLOCK
  5
388
330
386
100
AcDbEntity
  8
0
100
AcDbBlockBegin
  2
block 123
 70
     0
 71
     0
 10
0.0
 20
0.0
 30
0.0
  3
block 123
  1

  0
SPLINE
  5
38A
330
386
100
AcDbEntity
  8
cuerpo
 62
     7
420
 16777215
370
    30
100
AcDbSpline
210
0.0
220
0.0
230
1.0
 70
     8
 71
     3
 72
     8
 73
     4
 74
     0
 42
0.0000000001
 43
0.0000000001
 40
0.0
 40
0.0
 40
0.0
 40
0.0
 40
1.0
 40
1.0
 40
1.0
 40
1.0
 10
-108.9304741481146
 20
-65.12367348632326
 30
0.0
 10
-108.8767306585447
 20
-65.01653101673197
 30
0.0
 10
-108.8722520344139
 20
-64.89181856016593
 30
0.0
 10
-108.9175550400449
 20
-64.78054197599236
 30
0.0
  0
ENDBLK
  5
389
330
386
100
AcDbEntity
  8
0
100
AcDbBlockEnd
  0
BLOCK
  5
38D
330
38B
100
AcDbEntity
  8
0
100
AcDbBlockBegin
  2
block 124
 70
     0
 71
     0
 10
0.0
 20
0.0
 30
0.0
  3
block 124
  1

  0
SPLINE
  5
38F
330
38B
100
AcDbEntity
  8
cuerpo
 62
     7
420
 16777215
370
    30
100
AcDbSpline
210
0.0
220
0.0
230
1.0
 70
     8
 71
     3
 72
    11
 73
     7
 74
     0
 42
0.0000000001
 43
0.0000000001
 40
0.0
 40
0.0
 40
0.0
 40
0.0
 40
1.0
 40
1.0
 40
1.0
 40
2.0
 40
2.0
 40
2.0
 40
2.0
 10
-110.101462103551
 20
-65.54707572146046
 30
0.0
 10
-110.101462103551
 20
-65.37068683261566
 30
0.0
 10
-110.2442613114146
 20
-65.22737086042928
 30
0.0
 10
-110.420994709808
 20
-65.22737086042928
 30
0.0
 10
-110.5970390891042
 20
-65.22737086042928
 30
0.0
 10
-110.7403550612906
 20
-65.37068683261566
 30
0.0
 10
-110.7403550612906
 20
-65.54707572146046
 30
0.0
  0
ENDBLK
  5
38E
330
38B
100
AcDbEntity
  8
0
100
AcDbBlockEnd
  0
BLOCK
  5
392
330
390
100
AcDbEntity
  8
0
100
AcDbBlockBegin
  2
block 125
 70
     0
 71
     0
 10
0.0
 20
0.0
 30
0.0
  3
block 125
  1

  0
SPLINE
  5
394
330
390
100
AcDbEntity
  8
cuerpo
 62
     7
420
 16777215
370
    30
100
AcDbSpline
210
0.0
220
0.0
230
1.0
 70
     8
 71
     3
 72
    11
 73
     7
 74
     0
 42
0.0000000001
 43
0.0000000001
 40
0.0
 40
0.0
 40
0.0
 40
0.0
 40
1.0
 40
1.0
 40
1.0
 40
2.0
 40
2.0
 40
2.0
 40
2.0
 10
-109.3340670842116
 20
-65.54707572146046
 30
0.0
 10
-109.3340670842116
 20
-65.37068683261566
 30
0.0
 10
-109.4343193628324
 20
-65.22737086042928
 30
0.0
 10
-109.5578260359786
 20
-65.22737086042928
 30
0.0
 10
-109.6815049638991
 20
-65.22737086042928
 30
0.0
 10
-109.7812404781971
 20
-65.37068683261566
 30
0.0
 10
-109.7812404781971
 20
-65.54707572146046
 30
0.0
  0
ENDBLK
  5
393
330
390
100
AcDbEntity
  8
0
100
AcDbBlockEnd
  0
BLOCK
  5
397
330
395
100
AcDbEntity
  8
0
100
AcDbBlockBegin
  2
block 126
 70
     0
 71
     0
 10
0.0
 20
0.0
 30
0.0
  3
block 126
  1

  0
POLYLINE
  5
399
330
395
100
AcDbEntity
  8
cuerpo
 62
     7
420
 16777215
370
    30
100
AcDb2dPolyline
 66
     1
 10
0.0
 20
0.0
 30
0.0
  0
VERTEX
  5
39A
330
399
100
AcDbEntity
  8
cuerpo
 62
     7
420
 16777215
370
    30
100
AcDbVertex
100
AcDb2dVertex
 10
-111.6989528800614
 20
-65.54707572146046
 30
0.0
  0
VERTEX
  5
39B
330
399
100
AcDbEntity
  8
cuerpo
 62
     7
420
 16777215
370
    30
100
AcDbVertex
100
AcDb2dVertex
 10
-111.91065399763
 20
-65.12367348632326
 30
0.0
  0
SEQEND
  5
39C
330
399
100
AcDbEntity
  8
cuerpo
370
    30
  0
ENDBLK
  5
398
330
395
100
AcDbEntity
  8
0
100
AcDbBlockEnd
  0
BLOCK
  5
39F
330
39D
100
AcDbEntity
  8
0
100
AcDbBlockBegin
  2
block 127
 70
     0
 71
     0
 10
0.0
 20
0.0
 30
0.0
  3
block 127
  1

  0
SPLINE
  5
3A1
330
39D
100
AcDbEntity
  8
cuerpo
 62
     7
420
 16777215
370
    30
100
AcDbSpline
210
0.0
220
0.0
230
1.0
 70
     8
 71
     3
 72
     8
 73
     4
 74
     0
 42
0.0000000001
 43
0.0000000001
 40
0.0
 40
0.0
 40
0.0
 40
0.0
 40
1.0
 40
1.0
 40
1.0
 40
1.0
 10
-111.9234008509254
 20
-64.78054197599236
 30
0.0
 10
-111.969048366105
 20
-64.89181856016593
 30
0.0
 10
-111.9642252324256
 20
-65.01653101673197
 30
0.0
 10
-111.91065399763
 20
-65.12367348632326
 30
0.0
  0
ENDBLK
  5
3A0
330
39D
100
AcDbEntity
  8
0
100
AcDbBlockEnd
  0
BLOCK
  5
3A4
330
3A2
100
AcDbEntity
  8
0
100
AcDbBlockBegin
  2
block 128
 70
     0
 71
     0
 10
0.0
 20
0.0
 30
0.0
  3
block 128
  1

  0
SPLINE
  5
3A6
330
3A2
100
AcDbEntity
  8
cuerpo
 62
     7
420
 16777215
370
    30
100
AcDbSpline
210
0.0
220
0.0
230
1.0
 70
     8
 71
     3
 72
    11
 73
     7
 74
     0
 42
0.0000000001
 43
0.0000000001
 40
0.0
 40
0.0
 40
0.0
 40
0.0
 40
1.0
 40
1.0
 40
1.0
 40
2.0
 40
2.0
 40
2.0
 40
2.0
 10
-111.0598876675475
 20
-65.54707572146046
 30
0.0
 10
-111.0598876675475
 20
-65.37068683261566
 30
0.0
 10
-111.1596231818455
 20
-65.22737086042928
 30
0.0
 10
-111.2831298549917
 20
-65.22737086042928
 30
0.0
 10
-111.4069810376864
 20
-65.22737086042928
 30
0.0
 10
-111.507061061533
 20
-65.37068683261566
 30
0.0
 10
-111.507061061533
 20
-65.54707572146046
 30
0.0
  0
ENDBLK
  5
3A5
330
3A2
100
AcDbEntity
  8
0
100
AcDbBlockEnd
  0
BLOCK
  5
3A9
330
3A7
100
AcDbEntity
  8
0
100
AcDbBlockBegin
  2
block 129
 70
     0
 71
     0
 10
0.0
 20
0.0
 30
0.0
  3
block 129
  1

  0
POLYLINE
  5
3AB
330
3A7
100
AcDbEntity
  8
cuerpo
 62
     7
420
 16777215
370
    30
100
AcDb2dPolyline
 66
     1
 10
0.0
 20
0.0
 30
0.0
  0
VERTEX
  5
3AC
330
3AB
100
AcDbEntity
  8
cuerpo
 62
     7
420
 16777215
370
    30
100
AcDbVertex
100
AcDb2dVertex
 10
-107.0658162167231
 20
-30.77882757477057
 30
0.0
  0
VERTEX
  5
3AD
330
3AB
100
AcDbEntity
  8
cuerpo
 62
     7
420
 16777215
370
    30
100
AcDbVertex
100
AcDb2dVertex
 10
-107.0658162167231
 20
-37.42579480401161
 30
0.0
  0
SEQEND
  5
3AE
330
3AB
100
AcDbEntity
  8
cuerpo
370
    30
  0
ENDBLK
  5
3AA
330
3A7
100
AcDbEntity
  8
0
100
AcDbBlockEnd
  0
BLOCK
  5
3B1
330
3AF
100
AcDbEntity
  8
0
100
AcDbBlockBegin
  2
block 130
 70
     0
 71
     0
 10
0.0
 20
0.0
 30
0.0
  3
block 130
  1

  0
POLYLINE
  5
3B3
330
3AF
100
AcDbEntity
  8
cuerpo
 62
     7
420
 16777215
370
    30
100
AcDb2dPolyline
 66
     1
 10
0.0
 20
0.0
 30
0.0
  0
VERTEX
  5
3B4
330
3B3
100
AcDbEntity
  8
cuerpo
 62
     7
420
 16777215
370
    30
100
AcDbVertex
100
AcDb2dVertex
 10
-116.0137627205625
 20
-30.77882757477057
 30
0.0
  0
VERTEX
  5
3B5
330
3B3
100
AcDbEntity
  8
cuerpo
 62
     7
420
 16777215
370
    30
100
AcDbVertex
100
AcDb2dVertex
 10
-116.0137627205625
 20
-64.01366372097576
 30
0.0
  0
SEQEND
  5
3B6
330
3B3
100
AcDbEntity
  8
cuerpo
370
    30
  0
ENDBLK
  5
3B2
330
3AF
100
AcDbEntity
  8
0
100
AcDbBlockEnd
  0
BLOCK
  5
3B9
330
3B7
100
AcDbEntity
  8
0
100
AcDbBlockBegin
  2
block 131
 70
     0
 71
     0
 10
0.0
 20
0.0
 30
0.0
  3
block 131
  1

  0
POLYLINE
  5
3BB
330
3B7
100
AcDbEntity
  8
cuerpo
 62
     7
420
 16777215
370
    30
100
AcDb2dPolyline
 66
     1
 10
0.0
 20
0.0
 30
0.0
  0
VERTEX
  5
3BC
330
3BB
100
AcDbEntity
  8
cuerpo
 62
     7
420
 16777215
370
    30
100
AcDbVertex
100
AcDb2dVertex
 10
-116.0137627205625
 20
-30.77882757477057
 30
0.0
  0
VERTEX
  5
3BD
330
3BB
100
AcDbEntity
  8
cuerpo
 62
     7
420
 16777215
370
    30
100
AcDbVertex
100
AcDb2dVertex
 10
-107.0658162167231
 20
-30.77882757477057
 30
0.0
  0
SEQEND
  5
3BE
330
3BB
100
AcDbEntity
  8
cuerpo
370
    30
  0
ENDBLK
  5
3BA
330
3B7
100
AcDbEntity
  8
0
100
AcDbBlockEnd
  0
BLOCK
  5
3C1
330
3BF
100
AcDbEntity
  8
0
100
AcDbBlockBegin
  2
block 132
 70
     0
 71
     0
 10
0.0
 20
0.0
 30
0.0
  3
block 132
  1

  0
POLYLINE
  5
3C3
330
3BF
100
AcDbEntity
  8
cuerpo
 62
     7
420
 16777215
370
    30
100
AcDb2dPolyline
 66
     1
 10
0.0
 20
0.0
 30
0.0
  0
VERTEX
  5
3C4
330
3C3
100
AcDbEntity
  8
cuerpo
 62
     7
420
 16777215
370
    30
100
AcDbVertex
100
AcDb2dVertex
 10
-107.0658162167231
 20
-42.02775335320834
 30
0.0
  0
VERTEX
  5
3C5
330
3C3
100
AcDbEntity
  8
cuerpo
 62
     7
420
 16777215
370
    30
100
AcDbVertex
100
AcDb2dVertex
 10
-92.7498941825417
 20
-42.02775335320834
 30
0.0
  0
SEQEND
  5
3C6
330
3C3
100
AcDbEntity
  8
cuerpo
370
    30
  0
ENDBLK
  5
3C2
330
3BF
100
AcDbEntity
  8
0
100
AcDbBlockEnd
  0
BLOCK
  5
3C9
330
3C7
100
AcDbEntity
  8
0
100
AcDbBlockBegin
  2
block 133
 70
     0
 71
     0
 10
0.0
 20
0.0
 30
0.0
  3
block 133
  1

  0
POLYLINE
  5
3CB
330
3C7
100
AcDbEntity
  8
cuerpo
 62
     7
420
 16777215
370
    30
100
AcDb2dPolyline
 66
     1
 10
0.0
 20
0.0
 30
0.0
  0
VERTEX
  5
3CC
330
3CB
100
AcDbEntity
  8
cuerpo
 62
     7
420
 16777215
370
    30
100
AcDbVertex
100
AcDb2dVertex
 10
-107.0658162167231
 20
-37.42579480401161
 30
0.0
  0
VERTEX
  5
3CD
330
3CB
100
AcDbEntity
  8
cuerpo
 62
     7
420
 16777215
370
    30
100
AcDbVertex
100
AcDb2dVertex
 10
-92.7498941825417
 20
-37.42579480401161
 30
0.0
  0
SEQEND
  5
3CE
330
3CB
100
AcDbEntity
  8
cuerpo
370
    30
  0
ENDBLK
  5
3CA
330
3C7
100
AcDbEntity
  8
0
100
AcDbBlockEnd
  0
BLOCK
  5
3D1
330
3CF
100
AcDbEntity
  8
0
100
AcDbBlockBegin
  2
block 134
 70
     0
 71
     0
 10
0.0
 20
0.0
 30
0.0
  3
block 134
  1

  0
POLYLINE
  5
3D3
330
3CF
100
AcDbEntity
  8
cuerpo
 62
     7
420
 16777215
370
    30
100
AcDb2dPolyline
 66
     1
 10
0.0
 20
0.0
 30
0.0
  0
VERTEX
  5
3D4
330
3D3
100
AcDbEntity
  8
cuerpo
 62
     7
420
 16777215
370
    30
100
AcDbVertex
100
AcDb2dVertex
 10
-107.0658162167231
 20
-42.02775335320834
 30
0.0
  0
VERTEX
  5
3D5
330
3D3
100
AcDbEntity
  8
cuerpo
 62
     7
420
 16777215
370
    30
100
AcDbVertex
100
AcDb2dVertex
 10
-107.0658162167231
 20
-64.01366372097576
 30
0.0
  0
SEQEND
  5
3D6
330
3D3
100
AcDbEntity
  8
cuerpo
370
    30
  0
ENDBLK
  5
3D2
330
3CF
100
AcDbEntity
  8
0
100
AcDbBlockEnd
  0
BLOCK
  5
3D9
330
3D7
100
AcDbEntity
  8
0
100
AcDbBlockBegin
  2
block 135
 70
     0
 71
     0
 10
0.0
 20
0.0
 30
0.0
  3
block 135
  1

  0
SPLINE
  5
3DB
330
3D7
100
AcDbEntity
  8
cuerpo
 62
     7
420
 16777215
370
    30
100
AcDbSpline
210
0.0
220
0.0
230
1.0
 70
     8
 71
     3
 72
     8
 73
     4
 74
     0
 42
0.0000000001
 43
0.0000000001
 40
0.0
 40
0.0
 40
0.0
 40
0.0
 40
1.0
 40
1.0
 40
1.0
 40
1.0
 10
-107.0658162167231
 20
-37.42579480401161
 30
0.0
 10
-107.7684434409398
 20
-38.87893607968999
 30
0.0
 10
-107.7684434409398
 20
-40.57495658707848
 30
0.0
 10
-107.0658162167231
 20
-42.02775335320834
 30
0.0
  0
ENDBLK
  5
3DA
330
3D7
100
AcDbEntity
  8
0
100
AcDbBlockEnd
  0
BLOCK
  5
3DE
330
3DC
100
AcDbEntity
  8
0
100
AcDbBlockBegin
  2
block 136
 70
     0
 71
     0
 10
0.0
 20
0.0
 30
0.0
  3
block 136
  1

  0
POLYLINE
  5
3E0
330
3DC
100
AcDbEntity
  8
cuerpo
 62
     7
420
 16777215
370
    30
100
AcDb2dPolyline
 66
     1
 10
0.0
 20
0.0
 30
0.0
  0
VERTEX
  5
3E1
330
3E0
100
AcDbEntity
  8
cuerpo
 62
     7
420
 16777215
370
    30
100
AcDbVertex
100
AcDb2dVertex
 10
-92.7498941825417
 20
-37.42579480401161
 30
0.0
  0
VERTEX
  5
3E2
330
3E0
100
AcDbEntity
  8
cuerpo
 62
     7
420
 16777215
370
    30
100
AcDbVertex
100
AcDb2dVertex
 10
-92.7498941825417
 20
-42.02775335320834
 30
0.0
  0
SEQEND
  5
3E3
330
3E0
100
AcDbEntity
  8
cuerpo
370
    30
  0
ENDBLK
  5
3DF
330
3DC
100
AcDbEntity
  8
0
100
AcDbBlockEnd
  0
BLOCK
  5
3E6
330
3E4
100
AcDbEntity
  8
0
100
AcDbBlockBegin
  2
block 137
 70
     0
 71
     0
 10
0.0
 20
0.0
 30
0.0
  3
block 137
  1

  0
POLYLINE
  5
3E8
330
3E4
100
AcDbEntity
  8
cuerpo
 62
     7
420
 16777215
370
    30
100
AcDb2dPolyline
 66
     1
 10
0.0
 20
0.0
 30
0.0
  0
VERTEX
  5
3E9
330
3E8
100
AcDbEntity
  8
cuerpo
 62
     7
420
 16777215
370
    30
100
AcDbVertex
100
AcDb2dVertex
 10
-116.0137627205625
 20
-25.83201496750033
 30
0.0
  0
VERTEX
  5
3EA
330
3E8
100
AcDbEntity
  8
cuerpo
 62
     7
420
 16777215
370
    30
100
AcDbVertex
100
AcDb2dVertex
 10
-116.0137627205625
 20
-23.49279513301569
 30
0.0
  0
SEQEND
  5
3EB
330
3E8
100
AcDbEntity
  8
cuerpo
370
    30
  0
ENDBLK
  5
3E7
330
3E4
100
AcDbEntity
  8
0
100
AcDbBlockEnd
  0
BLOCK
  5
3EE
330
3EC
100
AcDbEntity
  8
0
100
AcDbBlockBegin
  2
block 138
 70
     0
 71
     0
 10
0.0
 20
0.0
 30
0.0
  3
block 138
  1

  0
SPLINE
  5
3F0
330
3EC
100
AcDbEntity
  8
cuerpo
 62
     7
420
 16777215
370
    30
100
AcDbSpline
210
0.0
220
0.0
230
1.0
 70
     8
 71
     3
 72
    35
 73
    31
 74
     0
 42
0.0000000001
 43
0.0000000001
 40
0.0
 40
0.0
 40
0.0
 40
0.0
 40
1.0
 40
1.0
 40
1.0
 40
2.0
 40
2.0
 40
2.0
 40
3.0
 40
3.0
 40
3.0
 40
4.0
 40
4.0
 40
4.0
 40
5.0
 40
5.0
 40
5.0
 40
6.0
 40
6.0
 40
6.0
 40
7.0
 40
7.0
 40
7.0
 40
8.0
 40
8.0
 40
8.0
 40
9.0
 40
9.0
 40
9.0
 40
10.0
 40
10.0
 40
10.0
 40
10.0
 10
-116.0137627205625
 20
-27.23830294457931
 30
0.0
 10
-116.0137627205625
 20
-27.23830294457931
 30
0.0
 10
-116.0132459562397
 20
-27.23244628225439
 30
0.0
 10
-116.0115234084971
 20
-27.22176648625011
 30
0.0
 10
-116.0084228225604
 20
-27.20454100882387
 30
0.0
 10
-116.0039441984296
 20
-27.17525769719924
 30
0.0
 10
-115.9986043004274
 20
-27.13322753227919
 30
0.0
 10
-115.9932644024253
 20
-27.09360893419882
 30
0.0
 10
-115.9863742114548
 20
-27.04020995417745
 30
0.0
 10
-115.9805175491299
 20
-26.97957627363705
 30
0.0
 10
-115.9748331415792
 20
-26.91859808354813
 30
0.0
 10
-115.9689764792543
 20
-26.84762911655198
 30
0.0
 10
-115.964842364672
 20
-26.77390407316764
 30
0.0
 10
-115.960880504864
 20
-26.69949001068624
 30
0.0
 10
-115.95829668325
 20
-26.62025281452549
 30
0.0
 10
-115.95829668325
 20
-26.54101561836475
 30
0.0
 10
-115.95829668325
 20
-26.46281195084958
 30
0.0
 10
-115.9600192309926
 20
-26.38495279288293
 30
0.0
 10
-115.9643256003492
 20
-26.31019422085301
 30
0.0
 10
-115.9675984410602
 20
-26.23681368701719
 30
0.0
 10
-115.9729383390623
 20
-26.16515570092399
 30
0.0
 10
-115.97931176571
 20
-26.10486652993212
 30
0.0
 10
-115.985168428035
 20
-26.04182128255205
 30
0.0
 10
-115.9917141094569
 20
-25.98807779298215
 30
0.0
 10
-115.9973985170076
 20
-25.94501409941653
 30
0.0
 10
-116.0034274341068
 20
-25.9019504058509
 30
0.0
 10
-116.0079060582376
 20
-25.86956650828956
 30
0.0
 10
-116.0108343894001
 20
-25.85061848312068
 30
0.0
 10
-116.0125569371427
 20
-25.83890515847083
 30
0.0
 10
-116.0137627205625
 20
-25.83201496750033
 30
0.0
 10
-116.0137627205625
 20
-25.83201496750033
 30
0.0
  0
ENDBLK
  5
3EF
330
3EC
100
AcDbEntity
  8
0
100
AcDbBlockEnd
  0
BLOCK
  5
3F3
330
3F1
100
AcDbEntity
  8
0
100
AcDbBlockBegin
  2
block 139
 70
     0
 71
     0
 10
0.0
 20
0.0
 30
0.0
  3
block 139
  1

  0
POLYLINE
  5
3F5
330
3F1
100
AcDbEntity
  8
cuerpo
 62
     7
420
 16777215
370
    30
100
AcDb2dPolyline
 66
     1
 10
0.0
 20
0.0
 30
0.0
  0
VERTEX
  5
3F6
330
3F5
100
AcDbEntity
  8
cuerpo
 62
     7
420
 16777215
370
    30
100
AcDbVertex
100
AcDb2dVertex
 10
-116.0137627205625
 20
-28.87782388600971
 30
0.0
  0
VERTEX
  5
3F7
330
3F5
100
AcDbEntity
  8
cuerpo
 62
     7
420
 16777215
370
    30
100
AcDbVertex
100
AcDb2dVertex
 10
-116.0137627205625
 20
-27.23830294457931
 30
0.0
  0
SEQEND
  5
3F8
330
3F5
100
AcDbEntity
  8
cuerpo
370
    30
  0
ENDBLK
  5
3F4
330
3F1
100
AcDbEntity
  8
0
100
AcDbBlockEnd
  0
BLOCK
  5
3FB
330
3F9
100
AcDbEntity
  8
0
100
AcDbBlockBegin
  2
block 140
 70
     0
 71
     0
 10
0.0
 20
0.0
 30
0.0
  3
block 140
  1

  0
POLYLINE
  5
3FD
330
3F9
100
AcDbEntity
  8
cuerpo
 62
     7
420
 16777215
370
    30
100
AcDb2dPolyline
 66
     1
 10
0.0
 20
0.0
 30
0.0
  0
VERTEX
  5
3FE
330
3FD
100
AcDbEntity
  8
cuerpo
 62
     7
420
 16777215
370
    30
100
AcDbVertex
100
AcDb2dVertex
 10
-109.7504068736041
 20
-30.26791991430802
 30
0.0
  0
VERTEX
  5
3FF
330
3FD
100
AcDbEntity
  8
cuerpo
 62
     7
420
 16777215
370
    30
100
AcDbVertex
100
AcDb2dVertex
 10
-116.0137627205625
 20
-28.87782388600971
 30
0.0
  0
SEQEND
  5
400
330
3FD
100
AcDbEntity
  8
cuerpo
370
    30
  0
ENDBLK
  5
3FC
330
3F9
100
AcDbEntity
  8
0
100
AcDbBlockEnd
  0
BLOCK
  5
403
330
401
100
AcDbEntity
  8
0
100
AcDbBlockBegin
  2
block 141
 70
     0
 71
     0
 10
0.0
 20
0.0
 30
0.0
  3
block 141
  1

  0
POLYLINE
  5
405
330
401
100
AcDbEntity
  8
cuerpo
 62
     7
420
 16777215
370
    30
100
AcDb2dPolyline
 66
     1
 10
0.0
 20
0.0
 30
0.0
  0
VERTEX
  5
406
330
405
100
AcDbEntity
  8
cuerpo
 62
     7
420
 16777215
370
    30
100
AcDbVertex
100
AcDb2dVertex
 10
-107.0658162167231
 20
-24.2596733880323
 30
0.0
  0
VERTEX
  5
407
330
405
100
AcDbEntity
  8
cuerpo
 62
     7
420
 16777215
370
    30
100
AcDbVertex
100
AcDb2dVertex
 10
-107.0658162167231
 20
-30.26791991430802
 30
0.0
  0
SEQEND
  5
408
330
405
100
AcDbEntity
  8
cuerpo
370
    30
  0
ENDBLK
  5
404
330
401
100
AcDbEntity
  8
0
100
AcDbBlockEnd
  0
BLOCK
  5
40B
330
409
100
AcDbEntity
  8
0
100
AcDbBlockBegin
  2
block 142
 70
     0
 71
     0
 10
0.0
 20
0.0
 30
0.0
  3
block 142
  1

  0
POLYLINE
  5
40D
330
409
100
AcDbEntity
  8
cuerpo
 62
     7
420
 16777215
370
    30
100
AcDb2dPolyline
 66
     1
 10
0.0
 20
0.0
 30
0.0
  0
VERTEX
  5
40E
330
40D
100
AcDbEntity
  8
cuerpo
 62
     7
420
 16777215
370
    30
100
AcDbVertex
100
AcDb2dVertex
 10
-107.0658162167231
 20
-30.26791991430802
 30
0.0
  0
VERTEX
  5
40F
330
40D
100
AcDbEntity
  8
cuerpo
 62
     7
420
 16777215
370
    30
100
AcDbVertex
100
AcDb2dVertex
 10
-109.7504068736041
 20
-30.26791991430802
 30
0.0
  0
SEQEND
  5
410
330
40D
100
AcDbEntity
  8
cuerpo
370
    30
  0
ENDBLK
  5
40C
330
409
100
AcDbEntity
  8
0
100
AcDbBlockEnd
  0
BLOCK
  5
413
330
411
100
AcDbEntity
  8
0
100
AcDbBlockBegin
  2
block 143
 70
     0
 71
     0
 10
0.0
 20
0.0
 30
0.0
  3
block 143
  1

  0
SPLINE
  5
415
330
411
100
AcDbEntity
  8
cuerpo
 62
     7
420
 16777215
370
    30
100
AcDbSpline
210
0.0
220
0.0
230
1.0
 70
     8
 71
     3
 72
    20
 73
    16
 74
     0
 42
0.0000000001
 43
0.0000000001
 40
0.0
 40
0.0
 40
0.0
 40
0.0
 40
1.0
 40
1.0
 40
1.0
 40
2.0
 40
2.0
 40
2.0
 40
3.0
 40
3.0
 40
3.0
 40
4.0
 40
4.0
 40
4.0
 40
5.0
 40
5.0
 40
5.0
 40
5.0
 10
-107.1369574384935
 20
-23.49279513301569
 30
0.0
 10
-107.1364406741708
 20
-23.58098957743809
 30
0.0
 10
-107.1328233239112
 20
-23.66987304095753
 30
0.0
 10
-107.1274834259091
 20
-23.75152180395795
 30
0.0
 10
-107.1224880374555
 20
-23.83317056695838
 30
0.0
 10
-107.1149088273879
 20
-23.91034070582797
 30
0.0
 10
-107.1071573625461
 20
-23.97752006779034
 30
0.0
 10
-107.0995781524786
 20
-24.04504393930124
 30
0.0
 10
-107.0907931589912
 20
-24.10361056255049
 30
0.0
 10
-107.0844197323435
 20
-24.14908582295579
 30
0.0
 10
-107.077529541373
 20
-24.19490559290961
 30
0.0
 10
-107.0716728790481
 20
-24.22728949047096
 30
0.0
 10
-107.0687445478856
 20
-24.24451496789721
 30
0.0
 10
-107.0668497453687
 20
-24.25519476390148
 30
0.0
 10
-107.0658162167231
 20
-24.2596733880323
 30
0.0
 10
-107.0658162167231
 20
-24.2596733880323
 30
0.0
  0
ENDBLK
  5
414
330
411
100
AcDbEntity
  8
0
100
AcDbBlockEnd
  0
BLOCK
  5
418
330
416
100
AcDbEntity
  8
0
100
AcDbBlockBegin
  2
block 144
 70
     0
 71
     0
 10
0.0
 20
0.0
 30
0.0
  3
block 144
  1

  0
POLYLINE
  5
41A
330
416
100
AcDbEntity
  8
cuerpo
 62
     7
420
 16777215
370
    30
100
AcDb2dPolyline
 66
     1
 10
0.0
 20
0.0
 30
0.0
  0
VERTEX
  5
41B
330
41A
100
AcDbEntity
  8
cuerpo
 62
     7
420
 16777215
370
    30
100
AcDbVertex
100
AcDb2dVertex
 10
-107.1369574384935
 20
-23.49279513301569
 30
0.0
  0
VERTEX
  5
41C
330
41A
100
AcDbEntity
  8
cuerpo
 62
     7
420
 16777215
370
    30
100
AcDbVertex
100
AcDb2dVertex
 10
-109.6484320472407
 20
-23.49279513301569
 30
0.0
  0
SEQEND
  5
41D
330
41A
100
AcDbEntity
  8
cuerpo
370
    30
  0
ENDBLK
  5
419
330
416
100
AcDbEntity
  8
0
100
AcDbBlockEnd
  0
BLOCK
  5
420
330
41E
100
AcDbEntity
  8
0
100
AcDbBlockBegin
  2
block 145
 70
     0
 71
     0
 10
0.0
 20
0.0
 30
0.0
  3
block 145
  1

  0
POLYLINE
  5
422
330
41E
100
AcDbEntity
  8
cuerpo
 62
     7
420
 16777215
370
    30
100
AcDb2dPolyline
 66
     1
 10
0.0
 20
0.0
 30
0.0
  0
VERTEX
  5
423
330
422
100
AcDbEntity
  8
cuerpo
 62
     7
420
 16777215
370
    30
100
AcDbVertex
100
AcDb2dVertex
 10
-109.6484320472407
 20
-23.49279513301569
 30
0.0
  0
VERTEX
  5
424
330
422
100
AcDbEntity
  8
cuerpo
 62
     7
420
 16777215
370
    30
100
AcDbVertex
100
AcDb2dVertex
 10
-116.0137627205625
 20
-23.49279513301569
 30
0.0
  0
SEQEND
  5
425
330
422
100
AcDbEntity
  8
cuerpo
370
    30
  0
ENDBLK
  5
421
330
41E
100
AcDbEntity
  8
0
100
AcDbBlockEnd
  0
BLOCK
  5
428
330
426
100
AcDbEntity
  8
0
100
AcDbBlockBegin
  2
block 146
 70
     0
 71
     0
 10
0.0
 20
0.0
 30
0.0
  3
block 146
  1

  0
SPLINE
  5
42A
330
426
100
AcDbEntity
  8
cuerpo
 62
     7
420
 16777215
370
    30
100
AcDbSpline
210
0.0
220
0.0
230
1.0
 70
     8
 71
     3
 72
     8
 73
     4
 74
     0
 42
0.0000000001
 43
0.0000000001
 40
0.0
 40
0.0
 40
0.0
 40
0.0
 40
1.0
 40
1.0
 40
1.0
 40
1.0
 10
-115.0405232459795
 20
-29.09486490158045
 30
0.0
 10
-115.2803018917528
 20
-29.62437607766335
 30
0.0
 10
-115.4155218895489
 20
-30.19660643776335
 30
0.0
 10
-115.4387762840743
 20
-30.77882757477057
 30
0.0
  0
ENDBLK
  5
429
330
426
100
AcDbEntity
  8
0
100
AcDbBlockEnd
  0
BLOCK
  5
42D
330
42B
100
AcDbEntity
  8
0
100
AcDbBlockBegin
  2
block 147
 70
     0
 71
     0
 10
0.0
 20
0.0
 30
0.0
  3
block 147
  1

  0
SPLINE
  5
42F
330
42B
100
AcDbEntity
  8
cuerpo
 62
     7
420
 16777215
370
    30
100
AcDbSpline
210
0.0
220
0.0
230
1.0
 70
     8
 71
     3
 72
     8
 73
     4
 74
     0
 42
0.0000000001
 43
0.0000000001
 40
0.0
 40
0.0
 40
0.0
 40
0.0
 40
1.0
 40
1.0
 40
1.0
 40
1.0
 10
-107.6411471627599
 20
-30.77882757477057
 30
0.0
 10
-107.6482096085046
 20
-30.60726181960513
 30
0.0
 10
-107.6645738120596
 20
-30.43569606443969
 30
0.0
 10
-107.6909287925217
 20
-30.26791991430802
 30
0.0
  0
ENDBLK
  5
42E
330
42B
100
AcDbEntity
  8
0
100
AcDbBlockEnd
  0
BLOCK
  5
432
330
430
100
AcDbEntity
  8
0
100
AcDbBlockBegin
  2
block 148
 70
     0
 71
     0
 10
0.0
 20
0.0
 30
0.0
  3
block 148
  1

  0
POLYLINE
  5
434
330
430
100
AcDbEntity
  8
cuerpo
 62
     7
420
 16777215
370
    30
100
AcDb2dPolyline
 66
     1
 10
0.0
 20
0.0
 30
0.0
  0
VERTEX
  5
435
330
434
100
AcDbEntity
  8
cuerpo
 62
     7
420
 16777215
370
    30
100
AcDbVertex
100
AcDb2dVertex
 10
-91.72704533297102
 20
-37.42579480401161
 30
0.0
  0
VERTEX
  5
436
330
434
100
AcDbEntity
  8
cuerpo
 62
     7
420
 16777215
370
    30
100
AcDbVertex
100
AcDb2dVertex
 10
-91.72704533297102
 20
-42.02775335320834
 30
0.0
  0
SEQEND
  5
437
330
434
100
AcDbEntity
  8
cuerpo
370
    30
  0
ENDBLK
  5
433
330
430
100
AcDbEntity
  8
0
100
AcDbBlockEnd
  0
BLOCK
  5
43A
330
438
100
AcDbEntity
  8
0
100
AcDbBlockBegin
  2
block 149
 70
     0
 71
     0
 10
0.0
 20
0.0
 30
0.0
  3
block 149
  1

  0
POLYLINE
  5
43C
330
438
100
AcDbEntity
  8
cuerpo
 62
     7
420
 16777215
370
    30
100
AcDb2dPolyline
 66
     1
 10
0.0
 20
0.0
 30
0.0
  0
VERTEX
  5
43D
330
43C
100
AcDbEntity
  8
cuerpo
 62
     7
420
 16777215
370
    30
100
AcDbVertex
100
AcDb2dVertex
 10
-92.7498941825417
 20
-38.7039252290393
 30
0.0
  0
VERTEX
  5
43E
330
43C
100
AcDbEntity
  8
cuerpo
 62
     7
420
 16777215
370
    30
100
AcDbVertex
100
AcDb2dVertex
 10
-91.72704533297102
 20
-38.7039252290393
 30
0.0
  0
SEQEND
  5
43F
330
43C
100
AcDbEntity
  8
cuerpo
370
    30
  0
ENDBLK
  5
43B
330
438
100
AcDbEntity
  8
0
100
AcDbBlockEnd
  0
BLOCK
  5
442
330
440
100
AcDbEntity
  8
0
100
AcDbBlockBegin
  2
block 150
 70
     0
 71
     0
 10
0.0
 20
0.0
 30
0.0
  3
block 150
  1

  0
POLYLINE
  5
444
330
440
100
AcDbEntity
  8
cuerpo
 62
     7
420
 16777215
370
    30
100
AcDb2dPolyline
 66
     1
 10
0.0
 20
0.0
 30
0.0
  0
VERTEX
  5
445
330
444
100
AcDbEntity
  8
cuerpo
 62
     7
420
 16777215
370
    30
100
AcDbVertex
100
AcDb2dVertex
 10
-92.7498941825417
 20
-40.74927841863213
 30
0.0
  0
VERTEX
  5
446
330
444
100
AcDbEntity
  8
cuerpo
 62
     7
420
 16777215
370
    30
100
AcDbVertex
100
AcDb2dVertex
 10
-91.72704533297102
 20
-40.74927841863213
 30
0.0
  0
SEQEND
  5
447
330
444
100
AcDbEntity
  8
cuerpo
370
    30
  0
ENDBLK
  5
443
330
440
100
AcDbEntity
  8
0
100
AcDbBlockEnd
  0
BLOCK
  5
44A
330
448
100
AcDbEntity
  8
0
100
AcDbBlockBegin
  2
block 151
 70
     0
 71
     0
 10
0.0
 20
0.0
 30
0.0
  3
block 151
  1

  0
POLYLINE
  5
44C
330
448
100
AcDbEntity
  8
cuerpo
 62
     7
420
 16777215
370
    30
100
AcDb2dPolyline
 66
     1
 10
0.0
 20
0.0
 30
0.0
  0
VERTEX
  5
44D
330
44C
100
AcDbEntity
  8
cuerpo
 62
     7
420
 16777215
370
    30
100
AcDbVertex
100
AcDb2dVertex
 10
-91.72704533297102
 20
-37.42579480401161
 30
0.0
  0
VERTEX
  5
44E
330
44C
100
AcDbEntity
  8
cuerpo
 62
     7
420
 16777215
370
    30
100
AcDbVertex
100
AcDb2dVertex
 10
-85.08007810372999
 20
-37.42579480401161
 30
0.0
  0
SEQEND
  5
44F
330
44C
100
AcDbEntity
  8
cuerpo
370
    30
  0
ENDBLK
  5
44B
330
448
100
AcDbEntity
  8
0
100
AcDbBlockEnd
  0
BLOCK
  5
452
330
450
100
AcDbEntity
  8
0
100
AcDbBlockBegin
  2
block 152
 70
     0
 71
     0
 10
0.0
 20
0.0
 30
0.0
  3
block 152
  1

  0
POLYLINE
  5
454
330
450
100
AcDbEntity
  8
cuerpo
 62
     7
420
 16777215
370
    30
100
AcDb2dPolyline
 66
     1
 10
0.0
 20
0.0
 30
0.0
  0
VERTEX
  5
455
330
454
100
AcDbEntity
  8
cuerpo
 62
     7
420
 16777215
370
    30
100
AcDbVertex
100
AcDb2dVertex
 10
-91.72704533297102
 20
-42.02775335320834
 30
0.0
  0
VERTEX
  5
456
330
454
100
AcDbEntity
  8
cuerpo
 62
     7
420
 16777215
370
    30
100
AcDbVertex
100
AcDb2dVertex
 10
-85.08007810372999
 20
-42.02775335320834
 30
0.0
  0
SEQEND
  5
457
330
454
100
AcDbEntity
  8
cuerpo
370
    30
  0
ENDBLK
  5
453
330
450
100
AcDbEntity
  8
0
100
AcDbBlockEnd
  0
BLOCK
  5
45A
330
458
100
AcDbEntity
  8
0
100
AcDbBlockBegin
  2
block 153
 70
     0
 71
     0
 10
0.0
 20
0.0
 30
0.0
  3
block 153
  1

  0
POLYLINE
  5
45C
330
458
100
AcDbEntity
  8
cuerpo
 62
     7
420
 16777215
370
    30
100
AcDb2dPolyline
 66
     1
 10
0.0
 20
0.0
 30
0.0
  0
VERTEX
  5
45D
330
45C
100
AcDbEntity
  8
cuerpo
 62
     7
420
 16777215
370
    30
100
AcDbVertex
100
AcDb2dVertex
 10
-89.68169214337819
 20
-37.42579480401161
 30
0.0
  0
VERTEX
  5
45E
330
45C
100
AcDbEntity
  8
cuerpo
 62
     7
420
 16777215
370
    30
100
AcDbVertex
100
AcDb2dVertex
 10
-89.68169214337819
 20
-42.02775335320834
 30
0.0
  0
SEQEND
  5
45F
330
45C
100
AcDbEntity
  8
cuerpo
370
    30
  0
ENDBLK
  5
45B
330
458
100
AcDbEntity
  8
0
100
AcDbBlockEnd
  0
BLOCK
  5
462
330
460
100
AcDbEntity
  8
0
100
AcDbBlockBegin
  2
block 154
 70
     0
 71
     0
 10
0.0
 20
0.0
 30
0.0
  3
block 154
  1

  0
POLYLINE
  5
464
330
460
100
AcDbEntity
  8
cuerpo
 62
     7
420
 16777215
370
    30
100
AcDb2dPolyline
 66
     1
 10
0.0
 20
0.0
 30
0.0
  0
VERTEX
  5
465
330
464
100
AcDbEntity
  8
cuerpo
 62
     7
420
 16777215
370
    30
100
AcDbVertex
100
AcDb2dVertex
 10
-84.82462427349871
 20
-37.68107637946862
 30
0.0
  0
VERTEX
  5
466
330
464
100
AcDbEntity
  8
cuerpo
 62
     7
420
 16777215
370
    30
100
AcDbVertex
100
AcDb2dVertex
 10
-84.82462427349871
 20
-41.77109373955723
 30
0.0
  0
SEQEND
  5
467
330
464
100
AcDbEntity
  8
cuerpo
370
    30
  0
ENDBLK
  5
463
330
460
100
AcDbEntity
  8
0
100
AcDbBlockEnd
  0
BLOCK
  5
46A
330
468
100
AcDbEntity
  8
0
100
AcDbBlockBegin
  2
block 155
 70
     0
 71
     0
 10
0.0
 20
0.0
 30
0.0
  3
block 155
  1

  0
SPLINE
  5
46C
330
468
100
AcDbEntity
  8
cuerpo
 62
     7
420
 16777215
370
    30
100
AcDbSpline
210
0.0
220
0.0
230
1.0
 70
     8
 71
     3
 72
     8
 73
     4
 74
     0
 42
0.0000000001
 43
0.0000000001
 40
0.0
 40
0.0
 40
0.0
 40
0.0
 40
1.0
 40
1.0
 40
1.0
 40
1.0
 10
-84.82462427349871
 20
-37.68107637946862
 30
0.0
 10
-84.82462427349871
 20
-37.5401719741219
 30
0.0
 10
-84.93882918883475
 20
-37.42579480401161
 30
0.0
 10
-85.08007810372999
 20
-37.42579480401161
 30
0.0
  0
ENDBLK
  5
46B
330
468
100
AcDbEntity
  8
0
100
AcDbBlockEnd
  0
BLOCK
  5
46F
330
46D
100
AcDbEntity
  8
0
100
AcDbBlockBegin
  2
block 156
 70
     0
 71
     0
 10
0.0
 20
0.0
 30
0.0
  3
block 156
  1

  0
SPLINE
  5
471
330
46D
100
AcDbEntity
  8
cuerpo
 62
     7
420
 16777215
370
    30
100
AcDbSpline
210
0.0
220
0.0
230
1.0
 70
     8
 71
     3
 72
     8
 73
     4
 74
     0
 42
0.0000000001
 43
0.0000000001
 40
0.0
 40
0.0
 40
0.0
 40
0.0
 40
1.0
 40
1.0
 40
1.0
 40
1.0
 10
-85.08007810372999
 20
-42.02775335320834
 30
0.0
 10
-84.93882918883475
 20
-42.02775335320834
 30
0.0
 10
-84.82462427349871
 20
-41.91303167354952
 30
0.0
 10
-84.82462427349871
 20
-41.77109373955723
 30
0.0
  0
ENDBLK
  5
470
330
46D
100
AcDbEntity
  8
0
100
AcDbBlockEnd
  0
BLOCK
  5
474
330
472
100
AcDbEntity
  8
0
100
AcDbBlockBegin
  2
block 157
 70
     0
 71
     0
 10
0.0
 20
0.0
 30
0.0
  3
block 157
  1

  0
POLYLINE
  5
476
330
472
100
AcDbEntity
  8
cuerpo
 62
     7
420
 16777215
370
    30
100
AcDb2dPolyline
 66
     1
 10
0.0
 20
0.0
 30
0.0
  0
VERTEX
  5
477
330
476
100
AcDbEntity
  8
cuerpo
 62
     7
420
 16777215
370
    30
100
AcDbVertex
100
AcDb2dVertex
 10
-104.470970297233
 20
-24.77058104849485
 30
0.0
  0
VERTEX
  5
478
330
476
100
AcDbEntity
  8
cuerpo
 62
     7
420
 16777215
370
    30
100
AcDbVertex
100
AcDb2dVertex
 10
-104.470970297233
 20
-22.21432019843948
 30
0.0
  0
SEQEND
  5
479
330
476
100
AcDbEntity
  8
cuerpo
370
    30
  0
ENDBLK
  5
475
330
472
100
AcDbEntity
  8
0
100
AcDbBlockEnd
  0
BLOCK
  5
47C
330
47A
100
AcDbEntity
  8
0
100
AcDbBlockBegin
  2
block 158
 70
     0
 71
     0
 10
0.0
 20
0.0
 30
0.0
  3
block 158
  1

  0
POLYLINE
  5
47E
330
47A
100
AcDbEntity
  8
cuerpo
 62
     7
420
 16777215
370
    30
100
AcDb2dPolyline
 66
     1
 10
0.0
 20
0.0
 30
0.0
  0
VERTEX
  5
47F
330
47E
100
AcDbEntity
  8
cuerpo
 62
     7
420
 16777215
370
    30
100
AcDbVertex
100
AcDb2dVertex
 10
-104.470970297233
 20
-24.77058104849485
 30
0.0
  0
VERTEX
  5
480
330
47E
100
AcDbEntity
  8
cuerpo
 62
     7
420
 16777215
370
    30
100
AcDbVertex
100
AcDb2dVertex
 10
-94.50034719859714
 20
-24.77058104849485
 30
0.0
  0
SEQEND
  5
481
330
47E
100
AcDbEntity
  8
cuerpo
370
    30
  0
ENDBLK
  5
47D
330
47A
100
AcDbEntity
  8
0
100
AcDbBlockEnd
  0
BLOCK
  5
484
330
482
100
AcDbEntity
  8
0
100
AcDbBlockBegin
  2
block 159
 70
     0
 71
     0
 10
0.0
 20
0.0
 30
0.0
  3
block 159
  1

  0
POLYLINE
  5
486
330
482
100
AcDbEntity
  8
cuerpo
 62
     7
420
 16777215
370
    30
100
AcDb2dPolyline
 66
     1
 10
0.0
 20
0.0
 30
0.0
  0
VERTEX
  5
487
330
486
100
AcDbEntity
  8
cuerpo
 62
     7
420
 16777215
370
    30
100
AcDbVertex
100
AcDb2dVertex
 10
-94.50034719859714
 20
-22.21432019843948
 30
0.0
  0
VERTEX
  5
488
330
486
100
AcDbEntity
  8
cuerpo
 62
     7
420
 16777215
370
    30
100
AcDbVertex
100
AcDb2dVertex
 10
-104.470970297233
 20
-22.21432019843948
 30
0.0
  0
SEQEND
  5
489
330
486
100
AcDbEntity
  8
cuerpo
370
    30
  0
ENDBLK
  5
485
330
482
100
AcDbEntity
  8
0
100
AcDbBlockEnd
  0
BLOCK
  5
48C
330
48A
100
AcDbEntity
  8
0
100
AcDbBlockBegin
  2
block 160
 70
     0
 71
     0
 10
0.0
 20
0.0
 30
0.0
  3
block 160
  1

  0
POLYLINE
  5
48E
330
48A
100
AcDbEntity
  8
cuerpo
 62
     7
420
 16777215
370
    30
100
AcDb2dPolyline
 66
     1
 10
0.0
 20
0.0
 30
0.0
  0
VERTEX
  5
48F
330
48E
100
AcDbEntity
  8
cuerpo
 62
     7
420
 16777215
370
    30
100
AcDbVertex
100
AcDb2dVertex
 10
-107.0658162167231
 20
-24.2596733880323
 30
0.0
  0
VERTEX
  5
490
330
48E
100
AcDbEntity
  8
cuerpo
 62
     7
420
 16777215
370
    30
100
AcDbVertex
100
AcDb2dVertex
 10
-104.5352213280329
 20
-24.2596733880323
 30
0.0
  0
SEQEND
  5
491
330
48E
100
AcDbEntity
  8
cuerpo
370
    30
  0
ENDBLK
  5
48D
330
48A
100
AcDbEntity
  8
0
100
AcDbBlockEnd
  0
BLOCK
  5
494
330
492
100
AcDbEntity
  8
0
100
AcDbBlockBegin
  2
block 161
 70
     0
 71
     0
 10
0.0
 20
0.0
 30
0.0
  3
block 161
  1

  0
POLYLINE
  5
496
330
492
100
AcDbEntity
  8
cuerpo
 62
     7
420
 16777215
370
    30
100
AcDb2dPolyline
 66
     1
 10
0.0
 20
0.0
 30
0.0
  0
VERTEX
  5
497
330
496
100
AcDbEntity
  8
cuerpo
 62
     7
420
 16777215
370
    30
100
AcDbVertex
100
AcDb2dVertex
 10
-104.5352213280329
 20
-22.72522785890203
 30
0.0
  0
VERTEX
  5
498
330
496
100
AcDbEntity
  8
cuerpo
 62
     7
420
 16777215
370
    30
100
AcDbVertex
100
AcDb2dVertex
 10
-109.6484320472407
 20
-22.72522785890203
 30
0.0
  0
SEQEND
  5
499
330
496
100
AcDbEntity
  8
cuerpo
370
    30
  0
ENDBLK
  5
495
330
492
100
AcDbEntity
  8
0
100
AcDbBlockEnd
  0
BLOCK
  5
49C
330
49A
100
AcDbEntity
  8
0
100
AcDbBlockBegin
  2
block 162
 70
     0
 71
     0
 10
0.0
 20
0.0
 30
0.0
  3
block 162
  1

  0
POLYLINE
  5
49E
330
49A
100
AcDbEntity
  8
cuerpo
 62
     7
420
 16777215
370
    30
100
AcDb2dPolyline
 66
     1
 10
0.0
 20
0.0
 30
0.0
  0
VERTEX
  5
49F
330
49E
100
AcDbEntity
  8
cuerpo
 62
     7
420
 16777215
370
    30
100
AcDbVertex
100
AcDb2dVertex
 10
-94.50034719859714
 20
-23.49279513301569
 30
0.0
  0
VERTEX
  5
4A0
330
49E
100
AcDbEntity
  8
cuerpo
 62
     7
420
 16777215
370
    30
100
AcDbVertex
100
AcDb2dVertex
 10
-94.50034719859714
 20
-22.21432019843948
 30
0.0
  0
SEQEND
  5
4A1
330
49E
100
AcDbEntity
  8
cuerpo
370
    30
  0
ENDBLK
  5
49D
330
49A
100
AcDbEntity
  8
0
100
AcDbBlockEnd
  0
BLOCK
  5
4A4
330
4A2
100
AcDbEntity
  8
0
100
AcDbBlockBegin
  2
block 163
 70
     0
 71
     0
 10
0.0
 20
0.0
 30
0.0
  3
block 163
  1

  0
POLYLINE
  5
4A6
330
4A2
100
AcDbEntity
  8
cuerpo
 62
     7
420
 16777215
370
    30
100
AcDb2dPolyline
 66
     1
 10
0.0
 20
0.0
 30
0.0
  0
VERTEX
  5
4A7
330
4A6
100
AcDbEntity
  8
cuerpo
 62
     7
420
 16777215
370
    30
100
AcDbVertex
100
AcDb2dVertex
 10
-94.50034719859714
 20
-24.77058104849485
 30
0.0
  0
VERTEX
  5
4A8
330
4A6
100
AcDbEntity
  8
cuerpo
 62
     7
420
 16777215
370
    30
100
AcDbVertex
100
AcDb2dVertex
 10
-94.50034719859714
 20
-23.49279513301569
 30
0.0
  0
SEQEND
  5
4A9
330
4A6
100
AcDbEntity
  8
cuerpo
370
    30
  0
ENDBLK
  5
4A5
330
4A2
100
AcDbEntity
  8
0
100
AcDbBlockEnd
  0
BLOCK
  5
4AC
330
4AA
100
AcDbEntity
  8
0
100
AcDbBlockBegin
  2
block 164
 70
     0
 71
     0
 10
0.0
 20
0.0
 30
0.0
  3
block 164
  1

  0
POLYLINE
  5
4AE
330
4AA
100
AcDbEntity
  8
cuerpo
 62
     7
420
 16777215
370
    30
100
AcDb2dPolyline
 66
     1
 10
0.0
 20
0.0
 30
0.0
  0
VERTEX
  5
4AF
330
4AE
100
AcDbEntity
  8
cuerpo
 62
     7
420
 16777215
370
    30
100
AcDbVertex
100
AcDb2dVertex
 10
-94.43747420599134
 20
-22.27770995536807
 30
0.0
  0
VERTEX
  5
4B0
330
4AE
100
AcDbEntity
  8
cuerpo
 62
     7
420
 16777215
370
    30
100
AcDbVertex
100
AcDb2dVertex
 10
-94.43747420599134
 20
-24.70753580111478
 30
0.0
  0
SEQEND
  5
4B1
330
4AE
100
AcDbEntity
  8
cuerpo
370
    30
  0
ENDBLK
  5
4AD
330
4AA
100
AcDbEntity
  8
0
100
AcDbBlockEnd
  0
BLOCK
  5
4B4
330
4B2
100
AcDbEntity
  8
0
100
AcDbBlockBegin
  2
block 165
 70
     0
 71
     0
 10
0.0
 20
0.0
 30
0.0
  3
block 165
  1

  0
POLYLINE
  5
4B6
330
4B2
100
AcDbEntity
  8
cuerpo
 62
     7
420
 16777215
370
    30
100
AcDb2dPolyline
 66
     1
 10
0.0
 20
0.0
 30
0.0
  0
VERTEX
  5
4B7
330
4B6
100
AcDbEntity
  8
cuerpo
 62
     7
420
 16777215
370
    30
100
AcDbVertex
100
AcDb2dVertex
 10
-109.6484320472407
 20
-23.49279513301569
 30
0.0
  0
VERTEX
  5
4B8
330
4B6
100
AcDbEntity
  8
cuerpo
 62
     7
420
 16777215
370
    30
100
AcDbVertex
100
AcDb2dVertex
 10
-109.6484320472407
 20
-22.72522785890203
 30
0.0
  0
SEQEND
  5
4B9
330
4B6
100
AcDbEntity
  8
cuerpo
370
    30
  0
ENDBLK
  5
4B5
330
4B2
100
AcDbEntity
  8
0
100
AcDbBlockEnd
  0
BLOCK
  5
4BC
330
4BA
100
AcDbEntity
  8
0
100
AcDbBlockBegin
  2
block 166
 70
     0
 71
     0
 10
0.0
 20
0.0
 30
0.0
  3
block 166
  1

  0
POLYLINE
  5
4BE
330
4BA
100
AcDbEntity
  8
cuerpo
 62
     7
420
 16777215
370
    30
100
AcDb2dPolyline
 66
     1
 10
0.0
 20
0.0
 30
0.0
  0
VERTEX
  5
4BF
330
4BE
100
AcDbEntity
  8
cuerpo
 62
     7
420
 16777215
370
    30
100
AcDbVertex
100
AcDb2dVertex
 10
-104.5352213280329
 20
-22.27770995536807
 30
0.0
  0
VERTEX
  5
4C0
330
4BE
100
AcDbEntity
  8
cuerpo
 62
     7
420
 16777215
370
    30
100
AcDbVertex
100
AcDb2dVertex
 10
-104.5352213280329
 20
-23.49279513301569
 30
0.0
  0
SEQEND
  5
4C1
330
4BE
100
AcDbEntity
  8
cuerpo
370
    30
  0
ENDBLK
  5
4BD
330
4BA
100
AcDbEntity
  8
0
100
AcDbBlockEnd
  0
BLOCK
  5
4C4
330
4C2
100
AcDbEntity
  8
0
100
AcDbBlockBegin
  2
block 167
 70
     0
 71
     0
 10
0.0
 20
0.0
 30
0.0
  3
block 167
  1

  0
POLYLINE
  5
4C6
330
4C2
100
AcDbEntity
  8
cuerpo
 62
     7
420
 16777215
370
    30
100
AcDb2dPolyline
 66
     1
 10
0.0
 20
0.0
 30
0.0
  0
VERTEX
  5
4C7
330
4C6
100
AcDbEntity
  8
cuerpo
 62
     7
420
 16777215
370
    30
100
AcDbVertex
100
AcDb2dVertex
 10
-104.5352213280329
 20
-23.49279513301569
 30
0.0
  0
VERTEX
  5
4C8
330
4C6
100
AcDbEntity
  8
cuerpo
 62
     7
420
 16777215
370
    30
100
AcDbVertex
100
AcDb2dVertex
 10
-104.5352213280329
 20
-24.70753580111478
 30
0.0
  0
SEQEND
  5
4C9
330
4C6
100
AcDbEntity
  8
cuerpo
370
    30
  0
ENDBLK
  5
4C5
330
4C2
100
AcDbEntity
  8
0
100
AcDbBlockEnd
  0
BLOCK
  5
4CC
330
4CA
100
AcDbEntity
  8
0
100
AcDbBlockBegin
  2
block 168
 70
     0
 71
     0
 10
0.0
 20
0.0
 30
0.0
  3
block 168
  1

  0
SPLINE
  5
4CE
330
4CA
100
AcDbEntity
  8
cuerpo
 62
     7
420
 16777215
370
    30
100
AcDbSpline
210
0.0
220
0.0
230
1.0
 70
     8
 71
     3
 72
     8
 73
     4
 74
     0
 42
0.0000000001
 43
0.0000000001
 40
0.0
 40
0.0
 40
0.0
 40
0.0
 40
1.0
 40
1.0
 40
1.0
 40
1.0
 10
-104.470970297233
 20
-22.21432019843948
 30
0.0
 10
-104.5067992902796
 20
-22.21432019843948
 30
0.0
 10
-104.5352213280329
 20
-22.24256998141853
 30
0.0
 10
-104.5352213280329
 20
-22.27770995536807
 30
0.0
  0
ENDBLK
  5
4CD
330
4CA
100
AcDbEntity
  8
0
100
AcDbBlockEnd
  0
BLOCK
  5
4D1
330
4CF
100
AcDbEntity
  8
0
100
AcDbBlockBegin
  2
block 169
 70
     0
 71
     0
 10
0.0
 20
0.0
 30
0.0
  3
block 169
  1

  0
SPLINE
  5
4D3
330
4CF
100
AcDbEntity
  8
cuerpo
 62
     7
420
 16777215
370
    30
100
AcDbSpline
210
0.0
220
0.0
230
1.0
 70
     8
 71
     3
 72
     8
 73
     4
 74
     0
 42
0.0000000001
 43
0.0000000001
 40
0.0
 40
0.0
 40
0.0
 40
0.0
 40
1.0
 40
1.0
 40
1.0
 40
1.0
 10
-104.5352213280329
 20
-24.70753580111478
 30
0.0
 10
-104.5352213280329
 20
-24.74267577506433
 30
0.0
 10
-104.5067992902796
 20
-24.77058104849485
 30
0.0
 10
-104.470970297233
 20
-24.77058104849485
 30
0.0
  0
ENDBLK
  5
4D2
330
4CF
100
AcDbEntity
  8
0
100
AcDbBlockEnd
  0
BLOCK
  5
4D6
330
4D4
100
AcDbEntity
  8
0
100
AcDbBlockBegin
  2
block 170
 70
     0
 71
     0
 10
0.0
 20
0.0
 30
0.0
  3
block 170
  1

  0
SPLINE
  5
4D8
330
4D4
100
AcDbEntity
  8
cuerpo
 62
     7
420
 16777215
370
    30
100
AcDbSpline
210
0.0
220
0.0
230
1.0
 70
     8
 71
     3
 72
     8
 73
     4
 74
     0
 42
0.0000000001
 43
0.0000000001
 40
0.0
 40
0.0
 40
0.0
 40
0.0
 40
1.0
 40
1.0
 40
1.0
 40
1.0
 10
-94.50034719859714
 20
-24.77058104849485
 30
0.0
 10
-94.46537947942186
 20
-24.77058104849485
 30
0.0
 10
-94.43747420599134
 20
-24.74267577506433
 30
0.0
 10
-94.43747420599134
 20
-24.70753580111478
 30
0.0
  0
ENDBLK
  5
4D7
330
4D4
100
AcDbEntity
  8
0
100
AcDbBlockEnd
  0
BLOCK
  5
4DB
330
4D9
100
AcDbEntity
  8
0
100
AcDbBlockBegin
  2
block 171
 70
     0
 71
     0
 10
0.0
 20
0.0
 30
0.0
  3
block 171
  1

  0
SPLINE
  5
4DD
330
4D9
100
AcDbEntity
  8
cuerpo
 62
     7
420
 16777215
370
    30
100
AcDbSpline
210
0.0
220
0.0
230
1.0
 70
     8
 71
     3
 72
     8
 73
     4
 74
     0
 42
0.0000000001
 43
0.0000000001
 40
0.0
 40
0.0
 40
0.0
 40
0.0
 40
1.0
 40
1.0
 40
1.0
 40
1.0
 10
-94.43747420599134
 20
-22.27770995536807
 30
0.0
 10
-94.43747420599134
 20
-22.24256998141853
 30
0.0
 10
-94.46537947942186
 20
-22.21432019843948
 30
0.0
 10
-94.50034719859714
 20
-22.21432019843948
 30
0.0
  0
ENDBLK
  5
4DC
330
4D9
100
AcDbEntity
  8
0
100
AcDbBlockEnd
  0
BLOCK
  5
4E1
330
4DF
100
AcDbEntity
  8
0
100
AcDbBlockBegin
  2
block 172
 70
     0
 71
     0
 10
0.0
 20
0.0
 30
0.0
  3
block 172
  1

  0
POLYLINE
  5
4E3
330
4DF
100
AcDbEntity
  8
cotas
370
     0
100
AcDb2dPolyline
 66
     1
 10
0.0
 20
0.0
 30
0.0
  0
VERTEX
  5
4E4
330
4E3
100
AcDbEntity
  8
cotas
370
     0
100
AcDbVertex
100
AcDb2dVertex
 10
-111.6989528800614
 20
-71.20426701778922
 30
0.0
  0
VERTEX
  5
4E5
330
4E3
100
AcDbEntity
  8
cotas
370
     0
100
AcDbVertex
100
AcDb2dVertex
 10
-109.7888196882646
 20
-71.20426701778922
 30
0.0
  0
VERTEX
  5
4E6
330
4E3
100
AcDbEntity
  8
cotas
370
     0
100
AcDbVertex
100
AcDb2dVertex
 10
-109.1428642847803
 20
-71.20426701778922
 30
0.0
  0
VERTEX
  5
4E7
330
4E3
100
AcDbEntity
  8
cotas
370
     0
100
AcDbVertex
100
AcDb2dVertex
 10
-109.1428642847803
 20
-69.97230087226387
 30
0.0
  0
VERTEX
  5
4E8
330
4E3
100
AcDbEntity
  8
cotas
370
     0
100
AcDbVertex
100
AcDb2dVertex
 10
-109.1428642847803
 20
-69.85103351118308
 30
0.0
  0
VERTEX
  5
4E9
330
4E3
100
AcDbEntity
  8
cotas
370
     0
100
AcDbVertex
100
AcDb2dVertex
 10
-109.9486721187802
 20
-68.74205727448116
 30
0.0
  0
VERTEX
  5
4EA
330
4E3
100
AcDbEntity
  8
cotas
370
     0
100
AcDbVertex
100
AcDb2dVertex
 10
-111.511711940438
 20
-68.74205727448116
 30
0.0
  0
VERTEX
  5
4EB
330
4E3
100
AcDbEntity
  8
cotas
370
     0
100
AcDbVertex
100
AcDb2dVertex
 10
-111.6989528800614
 20
-68.74205727448116
 30
0.0
  0
VERTEX
  5
4EC
330
4E3
100
AcDbEntity
  8
cotas
370
     0
100
AcDbVertex
100
AcDb2dVertex
 10
-111.6989528800614
 20
-71.20426701778922
 30
0.0
  0
VERTEX
  5
4ED
330
4E3
100
AcDbEntity
  8
cotas
370
     0
100
AcDbVertex
100
AcDb2dVertex
 10
-111.6989528800614
 20
-71.20426701778922
 30
0.0
  0
SEQEND
  5
4EE
330
4E3
100
AcDbEntity
  8
cotas
370
     0
  0
POLYLINE
  5
4EF
330
4DF
100
AcDbEntity
  8
cotas
370
     0
100
AcDb2dPolyline
 66
     1
 10
0.0
 20
0.0
 30
0.0
  0
VERTEX
  5
4F0
330
4EF
100
AcDbEntity
  8
cotas
370
     0
100
AcDbVertex
100
AcDb2dVertex
 10
-109.1428642847803
 20
-69.89513073339428
 30
0.0
  0
VERTEX
  5
4F1
330
4EF
100
AcDbEntity
  8
cotas
370
     0
100
AcDbVertex
100
AcDb2dVertex
 10
-109.1428642847803
 20
-68.74205727448116
 30
0.0
  0
VERTEX
  5
4F2
330
4EF
100
AcDbEntity
  8
cotas
370
     0
100
AcDbVertex
100
AcDb2dVertex
 10
-109.9486721187802
 20
-68.74205727448116
 30
0.0
  0
VERTEX
  5
4F3
330
4EF
100
AcDbEntity
  8
cotas
370
     0
100
AcDbVertex
100
AcDb2dVertex
 10
-109.1428642847803
 20
-69.89513073339428
 30
0.0
  0
VERTEX
  5
4F4
330
4EF
100
AcDbEntity
  8
cotas
370
     0
100
AcDbVertex
100
AcDb2dVertex
 10
-109.1428642847803
 20
-69.89513073339428
 30
0.0
  0
SEQEND
  5
4F5
330
4EF
100
AcDbEntity
  8
cotas
370
     0
  0
POLYLINE
  5
4F6
330
4DF
100
AcDbEntity
  8
cotas
370
     0
100
AcDb2dPolyline
 66
     1
 10
0.0
 20
0.0
 30
0.0
  0
VERTEX
  5
4F7
330
4F6
100
AcDbEntity
  8
cotas
370
     0
100
AcDbVertex
100
AcDb2dVertex
 10
-111.6989528800614
 20
-71.97011174416025
 30
0.0
  0
VERTEX
  5
4F8
330
4F6
100
AcDbEntity
  8
cotas
370
     0
100
AcDbVertex
100
AcDb2dVertex
 10
-111.6989528800614
 20
-72.73630098007982
 30
0.0
  0
VERTEX
  5
4F9
330
4F6
100
AcDbEntity
  8
cotas
370
     0
100
AcDbVertex
100
AcDb2dVertex
 10
-109.1428642847803
 20
-72.73630098007982
 30
0.0
  0
VERTEX
  5
4FA
330
4F6
100
AcDbEntity
  8
cotas
370
     0
100
AcDbVertex
100
AcDb2dVertex
 10
-109.1428642847803
 20
-72.12548555054502
 30
0.0
  0
VERTEX
  5
4FB
330
4F6
100
AcDbEntity
  8
cotas
370
     0
100
AcDbVertex
100
AcDb2dVertex
 10
-109.2524183212112
 20
-71.97011174416025
 30
0.0
  0
VERTEX
  5
4FC
330
4F6
100
AcDbEntity
  8
cotas
370
     0
100
AcDbVertex
100
AcDb2dVertex
 10
-111.6989528800614
 20
-71.97011174416025
 30
0.0
  0
VERTEX
  5
4FD
330
4F6
100
AcDbEntity
  8
cotas
370
     0
100
AcDbVertex
100
AcDb2dVertex
 10
-111.6989528800614
 20
-71.97011174416025
 30
0.0
  0
SEQEND
  5
4FE
330
4F6
100
AcDbEntity
  8
cotas
370
     0
  0
POLYLINE
  5
4FF
330
4DF
100
AcDbEntity
  8
cotas
370
     0
100
AcDb2dPolyline
 66
     1
 10
0.0
 20
0.0
 30
0.0
  0
VERTEX
  5
500
330
4FF
100
AcDbEntity
  8
cotas
370
     0
100
AcDbVertex
100
AcDb2dVertex
 10
-111.6989528800614
 20
-82.08629012704787
 30
0.0
  0
VERTEX
  5
501
330
4FF
100
AcDbEntity
  8
cotas
370
     0
100
AcDbVertex
100
AcDb2dVertex
 10
-109.1428642847803
 20
-81.36971026611592
 30
0.0
  0
VERTEX
  5
502
330
4FF
100
AcDbEntity
  8
cotas
370
     0
100
AcDbVertex
100
AcDb2dVertex
 10
-109.1428642847803
 20
-73.75983884874755
 30
0.0
  0
VERTEX
  5
503
330
4FF
100
AcDbEntity
  8
cotas
370
     0
100
AcDbVertex
100
AcDb2dVertex
 10
-111.6989528800614
 20
-73.75983884874755
 30
0.0
  0
VERTEX
  5
504
330
4FF
100
AcDbEntity
  8
cotas
370
     0
100
AcDbVertex
100
AcDb2dVertex
 10
-111.6989528800614
 20
-82.08629012704787
 30
0.0
  0
VERTEX
  5
505
330
4FF
100
AcDbEntity
  8
cotas
370
     0
100
AcDbVertex
100
AcDb2dVertex
 10
-111.6989528800614
 20
-82.08629012704787
 30
0.0
  0
SEQEND
  5
506
330
4FF
100
AcDbEntity
  8
cotas
370
     0
  0
POLYLINE
  5
507
330
4DF
100
AcDbEntity
  8
cotas
370
     0
100
AcDb2dPolyline
 66
     1
 10
0.0
 20
0.0
 30
0.0
  0
VERTEX
  5
508
330
507
100
AcDbEntity
  8
cotas
370
     0
100
AcDbVertex
100
AcDb2dVertex
 10
-109.1428642847803
 20
-85.45249292568549
 30
0.0
  0
VERTEX
  5
509
330
507
100
AcDbEntity
  8
cotas
370
     0
100
AcDbVertex
100
AcDb2dVertex
 10
-109.1428642847803
 20
-83.38474661543854
 30
0.0
  0
VERTEX
  5
50A
330
507
100
AcDbEntity
  8
cotas
370
     0
100
AcDbVertex
100
AcDb2dVertex
 10
-111.6989528800614
 20
-84.06894257880916
 30
0.0
  0
VERTEX
  5
50B
330
507
100
AcDbEntity
  8
cotas
370
     0
100
AcDbVertex
100
AcDb2dVertex
 10
-111.6989528800614
 20
-85.45249292568549
 30
0.0
  0
VERTEX
  5
50C
330
507
100
AcDbEntity
  8
cotas
370
     0
100
AcDbVertex
100
AcDb2dVertex
 10
-109.1428642847803
 20
-85.45249292568549
 30
0.0
  0
VERTEX
  5
50D
330
507
100
AcDbEntity
  8
cotas
370
     0
100
AcDbVertex
100
AcDb2dVertex
 10
-109.1428642847803
 20
-85.45249292568549
 30
0.0
  0
SEQEND
  5
50E
330
507
100
AcDbEntity
  8
cotas
370
     0
  0
POLYLINE
  5
50F
330
4DF
100
AcDbEntity
  8
cotas
 62
   253
420
 11382189
370
    30
100
AcDb2dPolyline
 66
     1
 10
0.0
 20
0.0
 30
0.0
  0
VERTEX
  5
510
330
50F
100
AcDbEntity
  8
cotas
 62
   253
420
 11382189
370
    30
100
AcDbVertex
100
AcDb2dVertex
 10
-111.6989528800614
 20
-70.88662921404918
 30
0.0
  0
VERTEX
  5
511
330
50F
100
AcDbEntity
  8
cotas
 62
   253
420
 11382189
370
    30
100
AcDbVertex
100
AcDb2dVertex
 10
-109.7864081214249
 20
-68.97391220063847
 30
0.0
  0
SEQEND
  5
512
330
50F
100
AcDbEntity
  8
cotas
370
    30
  0
POLYLINE
  5
513
330
4DF
100
AcDbEntity
  8
cotas
 62
   253
420
 11382189
370
    30
100
AcDb2dPolyline
 66
     1
 10
0.0
 20
0.0
 30
0.0
  0
VERTEX
  5
514
330
513
100
AcDbEntity
  8
cotas
 62
   253
420
 11382189
370
    30
100
AcDbVertex
100
AcDb2dVertex
 10
-109.7839965545853
 20
-68.97184514334732
 30
0.0
  0
VERTEX
  5
515
330
513
100
AcDbEntity
  8
cotas
 62
   253
420
 11382189
370
    30
100
AcDbVertex
100
AcDb2dVertex
 10
-109.5545531952676
 20
-68.74205727448116
 30
0.0
  0
SEQEND
  5
516
330
513
100
AcDbEntity
  8
cotas
370
    30
  0
POLYLINE
  5
517
330
4DF
100
AcDbEntity
  8
cotas
 62
   253
420
 11382189
370
    30
100
AcDb2dPolyline
 66
     1
 10
0.0
 20
0.0
 30
0.0
  0
VERTEX
  5
518
330
517
100
AcDbEntity
  8
cotas
 62
   253
420
 11382189
370
    30
100
AcDbVertex
100
AcDb2dVertex
 10
-111.6989528800614
 20
-73.77775334527084
 30
0.0
  0
VERTEX
  5
519
330
517
100
AcDbEntity
  8
cotas
 62
   253
420
 11382189
370
    30
100
AcDbVertex
100
AcDb2dVertex
 10
-111.6791435810212
 20
-73.75983884874755
 30
0.0
  0
SEQEND
  5
51A
330
517
100
AcDbEntity
  8
cotas
370
    30
  0
POLYLINE
  5
51B
330
4DF
100
AcDbEntity
  8
cotas
 62
   253
420
 11382189
370
    30
100
AcDb2dPolyline
 66
     1
 10
0.0
 20
0.0
 30
0.0
  0
VERTEX
  5
51C
330
51B
100
AcDbEntity
  8
cotas
 62
   253
420
 11382189
370
    30
100
AcDbVertex
100
AcDb2dVertex
 10
-110.6576727696446
 20
-72.73630098007982
 30
0.0
  0
VERTEX
  5
51D
330
51B
100
AcDbEntity
  8
cotas
 62
   253
420
 11382189
370
    30
100
AcDbVertex
100
AcDb2dVertex
 10
-109.8890719668854
 20
-71.97011174416025
 30
0.0
  0
SEQEND
  5
51E
330
51B
100
AcDbEntity
  8
cotas
370
    30
  0
POLYLINE
  5
51F
330
4DF
100
AcDbEntity
  8
cotas
 62
   253
420
 11382189
370
    30
100
AcDb2dPolyline
 66
     1
 10
0.0
 20
0.0
 30
0.0
  0
VERTEX
  5
520
330
51F
100
AcDbEntity
  8
cotas
 62
   253
420
 11382189
370
    30
100
AcDbVertex
100
AcDb2dVertex
 10
-111.6989528800614
 20
-76.67094453378365
 30
0.0
  0
VERTEX
  5
521
330
51F
100
AcDbEntity
  8
cotas
 62
   253
420
 11382189
370
    30
100
AcDbVertex
100
AcDb2dVertex
 10
-109.1428642847803
 20
-74.11468368372827
 30
0.0
  0
SEQEND
  5
522
330
51F
100
AcDbEntity
  8
cotas
370
    30
  0
POLYLINE
  5
523
330
4DF
100
AcDbEntity
  8
cotas
 62
   253
420
 11382189
370
    30
100
AcDb2dPolyline
 66
     1
 10
0.0
 20
0.0
 30
0.0
  0
VERTEX
  5
524
330
523
100
AcDbEntity
  8
cotas
 62
   253
420
 11382189
370
    30
100
AcDbVertex
100
AcDb2dVertex
 10
-111.6989528800614
 20
-79.56206866500531
 30
0.0
  0
VERTEX
  5
525
330
523
100
AcDbEntity
  8
cotas
 62
   253
420
 11382189
370
    30
100
AcDbVertex
100
AcDb2dVertex
 10
-109.1428642847803
 20
-77.00580781494995
 30
0.0
  0
SEQEND
  5
526
330
523
100
AcDbEntity
  8
cotas
370
    30
  0
POLYLINE
  5
527
330
4DF
100
AcDbEntity
  8
cotas
 62
   253
420
 11382189
370
    30
100
AcDb2dPolyline
 66
     1
 10
0.0
 20
0.0
 30
0.0
  0
VERTEX
  5
528
330
527
100
AcDbEntity
  8
cotas
 62
   253
420
 11382189
370
    30
100
AcDbVertex
100
AcDb2dVertex
 10
-111.1847723788878
 20
-81.94194062621591
 30
0.0
  0
VERTEX
  5
529
330
527
100
AcDbEntity
  8
cotas
 62
   253
420
 11382189
370
    30
100
AcDbVertex
100
AcDb2dVertex
 10
-109.1428642847803
 20
-79.89899900346275
 30
0.0
  0
SEQEND
  5
52A
330
527
100
AcDbEntity
  8
cotas
370
    30
  0
POLYLINE
  5
52B
330
4DF
100
AcDbEntity
  8
cotas
 62
   253
420
 11382189
370
    30
100
AcDb2dPolyline
 66
     1
 10
0.0
 20
0.0
 30
0.0
  0
VERTEX
  5
52C
330
52B
100
AcDbEntity
  8
cotas
 62
   253
420
 11382189
370
    30
100
AcDbVertex
100
AcDb2dVertex
 10
-111.6989528800614
 20
-85.34741751338537
 30
0.0
  0
VERTEX
  5
52D
330
52B
100
AcDbEntity
  8
cotas
 62
   253
420
 11382189
370
    30
100
AcDbVertex
100
AcDb2dVertex
 10
-109.9514281951684
 20
-83.5993760641696
 30
0.0
  0
SEQEND
  5
52E
330
52B
100
AcDbEntity
  8
cotas
370
    30
  0
POLYLINE
  5
52F
330
4DF
100
AcDbEntity
  8
cotas
 62
   253
420
 11382189
370
    30
100
AcDb2dPolyline
 66
     1
 10
0.0
 20
0.0
 30
0.0
  0
VERTEX
  5
530
330
52F
100
AcDbEntity
  8
cotas
 62
   253
420
 11382189
370
    30
100
AcDbVertex
100
AcDb2dVertex
 10
-109.1428642847803
 20
-85.37428925817032
 30
0.0
  0
VERTEX
  5
531
330
52F
100
AcDbEntity
  8
cotas
 62
   253
420
 11382189
370
    30
100
AcDbVertex
100
AcDb2dVertex
 10
-110.7129665521829
 20
-83.80435924554197
 30
0.0
  0
SEQEND
  5
532
330
52F
100
AcDbEntity
  8
cotas
370
    30
  0
POLYLINE
  5
533
330
4DF
100
AcDbEntity
  8
cotas
 62
   253
420
 11382189
370
    30
100
AcDb2dPolyline
 66
     1
 10
0.0
 20
0.0
 30
0.0
  0
VERTEX
  5
534
330
533
100
AcDbEntity
  8
cotas
 62
   253
420
 11382189
370
    30
100
AcDbVertex
100
AcDb2dVertex
 10
-110.011545111386
 20
-81.61396753602013
 30
0.0
  0
VERTEX
  5
535
330
533
100
AcDbEntity
  8
cotas
 62
   253
420
 11382189
370
    30
100
AcDbVertex
100
AcDb2dVertex
 10
-111.6989528800614
 20
-79.92483721960213
 30
0.0
  0
SEQEND
  5
536
330
533
100
AcDbEntity
  8
cotas
370
    30
  0
POLYLINE
  5
537
330
4DF
100
AcDbEntity
  8
cotas
 62
   253
420
 11382189
370
    30
100
AcDb2dPolyline
 66
     1
 10
0.0
 20
0.0
 30
0.0
  0
VERTEX
  5
538
330
537
100
AcDbEntity
  8
cotas
 62
   253
420
 11382189
370
    30
100
AcDbVertex
100
AcDb2dVertex
 10
-109.1428642847803
 20
-79.58997393843585
 30
0.0
  0
VERTEX
  5
539
330
537
100
AcDbEntity
  8
cotas
 62
   253
420
 11382189
370
    30
100
AcDbVertex
100
AcDb2dVertex
 10
-111.6989528800614
 20
-77.03371308838047
 30
0.0
  0
SEQEND
  5
53A
330
537
100
AcDbEntity
  8
cotas
370
    30
  0
POLYLINE
  5
53B
330
4DF
100
AcDbEntity
  8
cotas
 62
   253
420
 11382189
370
    30
100
AcDb2dPolyline
 66
     1
 10
0.0
 20
0.0
 30
0.0
  0
VERTEX
  5
53C
330
53B
100
AcDbEntity
  8
cotas
 62
   253
420
 11382189
370
    30
100
AcDbVertex
100
AcDb2dVertex
 10
-109.1428642847803
 20
-76.69678274992303
 30
0.0
  0
VERTEX
  5
53D
330
53B
100
AcDbEntity
  8
cotas
 62
   253
420
 11382189
370
    30
100
AcDbVertex
100
AcDb2dVertex
 10
-111.6989528800614
 20
-74.14052189986765
 30
0.0
  0
SEQEND
  5
53E
330
53B
100
AcDbEntity
  8
cotas
370
    30
  0
POLYLINE
  5
53F
330
4DF
100
AcDbEntity
  8
cotas
 62
   253
420
 11382189
370
    30
100
AcDb2dPolyline
 66
     1
 10
0.0
 20
0.0
 30
0.0
  0
VERTEX
  5
540
330
53F
100
AcDbEntity
  8
cotas
 62
   253
420
 11382189
370
    30
100
AcDbVertex
100
AcDb2dVertex
 10
-109.1428642847803
 20
-73.80565861870137
 30
0.0
  0
VERTEX
  5
541
330
53F
100
AcDbEntity
  8
cotas
 62
   253
420
 11382189
370
    30
100
AcDbVertex
100
AcDb2dVertex
 10
-109.1876505260885
 20
-73.75983884874755
 30
0.0
  0
SEQEND
  5
542
330
53F
100
AcDbEntity
  8
cotas
370
    30
  0
POLYLINE
  5
543
330
4DF
100
AcDbEntity
  8
cotas
 62
   253
420
 11382189
370
    30
100
AcDb2dPolyline
 66
     1
 10
0.0
 20
0.0
 30
0.0
  0
VERTEX
  5
544
330
543
100
AcDbEntity
  8
cotas
 62
   253
420
 11382189
370
    30
100
AcDbVertex
100
AcDb2dVertex
 10
-110.211016139982
 20
-72.73630098007982
 30
0.0
  0
VERTEX
  5
545
330
543
100
AcDbEntity
  8
cotas
 62
   253
420
 11382189
370
    30
100
AcDbVertex
100
AcDb2dVertex
 10
-110.9777221402243
 20
-71.97011174416025
 30
0.0
  0
SEQEND
  5
546
330
543
100
AcDbEntity
  8
cotas
370
    30
  0
POLYLINE
  5
547
330
4DF
100
AcDbEntity
  8
cotas
 62
   253
420
 11382189
370
    30
100
AcDb2dPolyline
 66
     1
 10
0.0
 20
0.0
 30
0.0
  0
VERTEX
  5
548
330
547
100
AcDbEntity
  8
cotas
 62
   253
420
 11382189
370
    30
100
AcDbVertex
100
AcDb2dVertex
 10
-109.1428642847803
 20
-70.91143390154298
 30
0.0
  0
VERTEX
  5
549
330
547
100
AcDbEntity
  8
cotas
 62
   253
420
 11382189
370
    30
100
AcDbVertex
100
AcDb2dVertex
 10
-111.3118964022936
 20
-68.74205727448116
 30
0.0
  0
SEQEND
  5
54A
330
547
100
AcDbEntity
  8
cotas
370
    30
  0
ENDBLK
  5
4E2
330
4DF
100
AcDbEntity
  8
0
100
AcDbBlockEnd
  0
BLOCK
  5
54D
330
54B
100
AcDbEntity
  8
0
100
AcDbBlockBegin
  2
block 173
 70
     0
 71
     0
 10
0.0
 20
0.0
 30
0.0
  3
block 173
  1

  0
INSERT
  5
550
330
54B
100
AcDbEntity
  8
cotas
100
AcDbBlockReference
  2
block 174
 10
0.0
 20
0.0
 30
0.0
  0
INSERT
  5
558
330
54B
100
AcDbEntity
  8
cotas
100
AcDbBlockReference
  2
block 175
 10
0.0
 20
0.0
 30
0.0
  0
INSERT
  5
560
330
54B
100
AcDbEntity
  8
cotas
100
AcDbBlockReference
  2
block 176
 10
0.0
 20
0.0
 30
0.0
  0
INSERT
  5
568
330
54B
100
AcDbEntity
  8
cotas
100
AcDbBlockReference
  2
block 177
 10
0.0
 20
0.0
 30
0.0
  0
INSERT
  5
570
330
54B
100
AcDbEntity
  8
cotas
100
AcDbBlockReference
  2
block 178
 10
0.0
 20
0.0
 30
0.0
  0
INSERT
  5
57B
330
54B
100
AcDbEntity
  8
cotas
100
AcDbBlockReference
  2
block 179
 10
0.0
 20
0.0
 30
0.0
  0
INSERT
  5
586
330
54B
100
AcDbEntity
  8
cotas
100
AcDbBlockReference
  2
block 180
 10
0.0
 20
0.0
 30
0.0
  0
INSERT
  5
58B
330
54B
100
AcDbEntity
  8
cotas
100
AcDbBlockReference
  2
block 181
 10
0.0
 20
0.0
 30
0.0
  0
INSERT
  5
593
330
54B
100
AcDbEntity
  8
cotas
100
AcDbBlockReference
  2
block 182
 10
0.0
 20
0.0
 30
0.0
  0
INSERT
  5
59B
330
54B
100
AcDbEntity
  8
cotas
100
AcDbBlockReference
  2
block 183
 10
0.0
 20
0.0
 30
0.0
  0
ENDBLK
  5
54E
330
54B
100
AcDbEntity
  8
0
100
AcDbBlockEnd
  0
BLOCK
  5
551
330
54F
100
AcDbEntity
  8
0
100
AcDbBlockBegin
  2
block 174
 70
     0
 71
     0
 10
0.0
 20
0.0
 30
0.0
  3
block 174
  1

  0
POLYLINE
  5
553
330
54F
100
AcDbEntity
  8
cotas
 62
   253
420
 11382189
370
    30
100
AcDb2dPolyline
 66
     1
 10
0.0
 20
0.0
 30
0.0
  0
VERTEX
  5
554
330
553
100
AcDbEntity
  8
cotas
 62
   253
420
 11382189
370
    30
100
AcDbVertex
100
AcDb2dVertex
 10
-111.5397894686428
 20
-28.47784830017221
 30
0.0
  0
VERTEX
  5
555
330
553
100
AcDbEntity
  8
cotas
 62
   253
420
 11382189
370
    30
100
AcDbVertex
100
AcDb2dVertex
 10
-111.5397894686428
 20
-13.61984049138671
 30
0.0
  0
SEQEND
  5
556
330
553
100
AcDbEntity
  8
cotas
370
    30
  0
ENDBLK
  5
552
330
54F
100
AcDbEntity
  8
0
100
AcDbBlockEnd
  0
BLOCK
  5
559
330
557
100
AcDbEntity
  8
0
100
AcDbBlockBegin
  2
block 175
 70
     0
 71
     0
 10
0.0
 20
0.0
 30
0.0
  3
block 175
  1

  0
POLYLINE
  5
55B
330
557
100
AcDbEntity
  8
cotas
 62
   253
420
 11382189
370
    30
100
AcDb2dPolyline
 66
     1
 10
0.0
 20
0.0
 30
0.0
  0
VERTEX
  5
55C
330
55B
100
AcDbEntity
  8
cotas
 62
   253
420
 11382189
370
    30
100
AcDbVertex
100
AcDb2dVertex
 10
-84.82462427349871
 20
-37.42579480401161
 30
0.0
  0
VERTEX
  5
55D
330
55B
100
AcDbEntity
  8
cotas
 62
   253
420
 11382189
370
    30
100
AcDbVertex
100
AcDb2dVertex
 10
-84.82462427349871
 20
-13.61984049138671
 30
0.0
  0
SEQEND
  5
55E
330
55B
100
AcDbEntity
  8
cotas
370
    30
  0
ENDBLK
  5
55A
330
557
100
AcDbEntity
  8
0
100
AcDbBlockEnd
  0
BLOCK
  5
561
330
55F
100
AcDbEntity
  8
0
100
AcDbBlockBegin
  2
block 176
 70
     0
 71
     0
 10
0.0
 20
0.0
 30
0.0
  3
block 176
  1

  0
POLYLINE
  5
563
330
55F
100
AcDbEntity
  8
cotas
 62
   253
420
 11382189
370
    30
100
AcDb2dPolyline
 66
     1
 10
0.0
 20
0.0
 30
0.0
  0
VERTEX
  5
564
330
563
100
AcDbEntity
  8
cotas
 62
   253
420
 11382189
370
    30
100
AcDbVertex
100
AcDb2dVertex
 10
-109.9293795840628
 20
-14.76946885481458
 30
0.0
  0
VERTEX
  5
565
330
563
100
AcDbEntity
  8
cotas
 62
   253
420
 11382189
370
    30
100
AcDbVertex
100
AcDb2dVertex
 10
-104.3276543250466
 20
-14.76946885481458
 30
0.0
  0
SEQEND
  5
566
330
563
100
AcDbEntity
  8
cotas
370
    30
  0
ENDBLK
  5
562
330
55F
100
AcDbEntity
  8
0
100
AcDbBlockEnd
  0
BLOCK
  5
569
330
567
100
AcDbEntity
  8
0
100
AcDbBlockBegin
  2
block 177
 70
     0
 71
     0
 10
0.0
 20
0.0
 30
0.0
  3
block 177
  1

  0
POLYLINE
  5
56B
330
567
100
AcDbEntity
  8
cotas
 62
   253
420
 11382189
370
    30
100
AcDb2dPolyline
 66
     1
 10
0.0
 20
0.0
 30
0.0
  0
VERTEX
  5
56C
330
56B
100
AcDbEntity
  8
cotas
 62
   253
420
 11382189
370
    30
100
AcDbVertex
100
AcDb2dVertex
 10
-86.43503415807875
 20
-14.76946885481458
 30
0.0
  0
VERTEX
  5
56D
330
56B
100
AcDbEntity
  8
cotas
 62
   253
420
 11382189
370
    30
100
AcDbVertex
100
AcDb2dVertex
 10
-92.43742402202953
 20
-14.76946885481458
 30
0.0
  0
SEQEND
  5
56E
330
56B
100
AcDbEntity
  8
cotas
370
    30
  0
ENDBLK
  5
56A
330
567
100
AcDbEntity
  8
0
100
AcDbBlockEnd
  0
BLOCK
  5
571
330
56F
100
AcDbEntity
  8
0
100
AcDbBlockBegin
  2
block 178
 70
     0
 71
     0
 10
0.0
 20
0.0
 30
0.0
  3
block 178
  1

  0
POLYLINE
  5
573
330
56F
100
AcDbEntity
  8
cotas
370
     0
100
AcDb2dPolyline
 66
     1
 10
0.0
 20
0.0
 30
0.0
  0
VERTEX
  5
574
330
573
100
AcDbEntity
  8
cotas
370
     0
100
AcDbVertex
100
AcDb2dVertex
 10
-109.9293795840628
 20
-14.50178493561067
 30
0.0
  0
VERTEX
  5
575
330
573
100
AcDbEntity
  8
cotas
370
     0
100
AcDbVertex
100
AcDb2dVertex
 10
-109.9293795840628
 20
-15.03887532176111
 30
0.0
  0
VERTEX
  5
576
330
573
100
AcDbEntity
  8
cotas
370
     0
100
AcDbVertex
100
AcDb2dVertex
 10
-111.5397894686428
 20
-14.76946885481458
 30
0.0
  0
VERTEX
  5
577
330
573
100
AcDbEntity
  8
cotas
370
     0
100
AcDbVertex
100
AcDb2dVertex
 10
-109.9293795840628
 20
-14.50178493561067
 30
0.0
  0
SEQEND
  5
578
330
573
100
AcDbEntity
  8
cotas
370
     0
  0
HATCH
  5
579
330
56F
100
AcDbEntity
  8
cotas
 62
   253
420
 11382189
100
AcDbHatch
 10
0.0
 20
0.0
 30
0.0
210
0.0
220
0.0
230
1.0
  2
SOLID
 70
     1
 71
     0
 91
        1
 92
        1
 93
        3
 72
     1
 10
-109.9293795840628
 20
-14.50178493561067
 11
-109.9293795840628
 21
-15.03887532176111
 72
     1
 10
-109.9293795840628
 20
-15.03887532176111
 11
-111.5397894686428
 21
-14.76946885481458
 72
     1
 10
-111.5397894686428
 20
-14.76946885481458
 11
-109.9293795840628
 21
-14.50178493561067
 97
        0
 75
     2
 76
     1
 98
        0
  0
ENDBLK
  5
572
330
56F
100
AcDbEntity
  8
0
100
AcDbBlockEnd
  0
BLOCK
  5
57C
330
57A
100
AcDbEntity
  8
0
100
AcDbBlockBegin
  2
block 179
 70
     0
 71
     0
 10
0.0
 20
0.0
 30
0.0
  3
block 179
  1

  0
POLYLINE
  5
57E
330
57A
100
AcDbEntity
  8
cotas
370
     0
100
AcDb2dPolyline
 66
     1
 10
0.0
 20
0.0
 30
0.0
  0
VERTEX
  5
57F
330
57E
100
AcDbEntity
  8
cotas
370
     0
100
AcDbVertex
100
AcDb2dVertex
 10
-86.43503415807875
 20
-14.50178493561067
 30
0.0
  0
VERTEX
  5
580
330
57E
100
AcDbEntity
  8
cotas
370
     0
100
AcDbVertex
100
AcDb2dVertex
 10
-86.43503415807875
 20
-15.03887532176111
 30
0.0
  0
VERTEX
  5
581
330
57E
100
AcDbEntity
  8
cotas
370
     0
100
AcDbVertex
100
AcDb2dVertex
 10
-84.82462427349871
 20
-14.76946885481458
 30
0.0
  0
VERTEX
  5
582
330
57E
100
AcDbEntity
  8
cotas
370
     0
100
AcDbVertex
100
AcDb2dVertex
 10
-86.43503415807875
 20
-14.50178493561067
 30
0.0
  0
SEQEND
  5
583
330
57E
100
AcDbEntity
  8
cotas
370
     0
  0
HATCH
  5
584
330
57A
100
AcDbEntity
  8
cotas
 62
   253
420
 11382189
100
AcDbHatch
 10
0.0
 20
0.0
 30
0.0
210
0.0
220
0.0
230
1.0
  2
SOLID
 70
     1
 71
     0
 91
        1
 92
        1
 93
        3
 72
     1
 10
-86.43503415807875
 20
-14.50178493561067
 11
-86.43503415807875
 21
-15.03887532176111
 72
     1
 10
-86.43503415807875
 20
-15.03887532176111
 11
-84.82462427349871
 21
-14.76946885481458
 72
     1
 10
-84.82462427349871
 20
-14.76946885481458
 11
-86.43503415807875
 21
-14.50178493561067
 97
        0
 75
     2
 76
     1
 98
        0
  0
ENDBLK
  5
57D
330
57A
100
AcDbEntity
  8
0
100
AcDbBlockEnd
  0
BLOCK
  5
587
330
585
100
AcDbEntity
  8
0
100
AcDbBlockBegin
  2
block 180
 70
     0
 71
     0
 10
0.0
 20
0.0
 30
0.0
  3
block 180
  1

  0
MTEXT
  5
589
330
585
100
AcDbEntity
  8
cotas
 62
   253
420
 11382189
100
AcDbMText
 10
-102.5467122139467
 20
-16.47341308181915
 30
0.0
 40
3.451298621904306
 41
0.0
 71
     7
 72
     1
  1
\fArial|b0|i0|c0|p34;\W1;130
 73
     1
 44
1.0
  0
ENDBLK
  5
588
330
585
100
AcDbEntity
  8
0
100
AcDbBlockEnd
  0
BLOCK
  5
58C
330
58A
100
AcDbEntity
  8
0
100
AcDbBlockBegin
  2
block 181
 70
     0
 71
     0
 10
0.0
 20
0.0
 30
0.0
  3
block 181
  1

  0
POLYLINE
  5
58E
330
58A
100
AcDbEntity
  8
cotas
 62
   253
420
 11382189
370
    30
100
AcDb2dPolyline
 66
     1
 10
0.0
 20
0.0
 30
0.0
  0
VERTEX
  5
58F
330
58E
100
AcDbEntity
  8
cotas
 62
   253
420
 11382189
370
    30
100
AcDbVertex
100
AcDb2dVertex
 10
-111.5397894686428
 20
-30.77882757477057
 30
0.0
  0
VERTEX
  5
590
330
58E
100
AcDbEntity
  8
cotas
 62
   253
420
 11382189
370
    30
100
AcDbVertex
100
AcDb2dVertex
 10
-111.5397894686428
 20
-30.77882757477057
 30
0.0
  0
SEQEND
  5
591
330
58E
100
AcDbEntity
  8
cotas
370
    30
  0
ENDBLK
  5
58D
330
58A
100
AcDbEntity
  8
0
100
AcDbBlockEnd
  0
BLOCK
  5
594
330
592
100
AcDbEntity
  8
0
100
AcDbBlockBegin
  2
block 182
 70
     0
 71
     0
 10
0.0
 20
0.0
 30
0.0
  3
block 182
  1

  0
POLYLINE
  5
596
330
592
100
AcDbEntity
  8
cotas
 62
   253
420
 11382189
370
    30
100
AcDb2dPolyline
 66
     1
 10
0.0
 20
0.0
 30
0.0
  0
VERTEX
  5
597
330
596
100
AcDbEntity
  8
cotas
 62
   253
420
 11382189
370
    30
100
AcDbVertex
100
AcDb2dVertex
 10
-84.82462427349871
 20
-39.7257405499644
 30
0.0
  0
VERTEX
  5
598
330
596
100
AcDbEntity
  8
cotas
 62
   253
420
 11382189
370
    30
100
AcDbVertex
100
AcDb2dVertex
 10
-84.82462427349871
 20
-39.7257405499644
 30
0.0
  0
SEQEND
  5
599
330
596
100
AcDbEntity
  8
cotas
370
    30
  0
ENDBLK
  5
595
330
592
100
AcDbEntity
  8
0
100
AcDbBlockEnd
  0
BLOCK
  5
59C
330
59A
100
AcDbEntity
  8
0
100
AcDbBlockBegin
  2
block 183
 70
     0
 71
     0
 10
0.0
 20
0.0
 30
0.0
  3
block 183
  1

  0
POLYLINE
  5
59E
330
59A
100
AcDbEntity
  8
cotas
 62
   253
420
 11382189
370
    30
100
AcDb2dPolyline
 66
     1
 10
0.0
 20
0.0
 30
0.0
  0
VERTEX
  5
59F
330
59E
100
AcDbEntity
  8
cotas
 62
   253
420
 11382189
370
    30
100
AcDbVertex
100
AcDb2dVertex
 10
-84.82462427349871
 20
-14.76946885481458
 30
0.0
  0
VERTEX
  5
5A0
330
59E
100
AcDbEntity
  8
cotas
 62
   253
420
 11382189
370
    30
100
AcDbVertex
100
AcDb2dVertex
 10
-84.82462427349871
 20
-14.76946885481458
 30
0.0
  0
SEQEND
  5
5A1
330
59E
100
AcDbEntity
  8
cotas
370
    30
  0
ENDBLK
  5
59D
330
59A
100
AcDbEntity
  8
0
100
AcDbBlockEnd
  0
BLOCK
  5
5A4
330
5A2
100
AcDbEntity
  8
0
100
AcDbBlockBegin
  2
block 184
 70
     0
 71
     0
 10
0.0
 20
0.0
 30
0.0
  3
block 184
  1

  0
INSERT
  5
5A7
330
5A2
100
AcDbEntity
  8
cotas
100
AcDbBlockReference
  2
block 185
 10
0.0
 20
0.0
 30
0.0
  0
INSERT
  5
5AF
330
5A2
100
AcDbEntity
  8
cotas
100
AcDbBlockReference
  2
block 186
 10
0.0
 20
0.0
 30
0.0
  0
INSERT
  5
5B7
330
5A2
100
AcDbEntity
  8
cotas
100
AcDbBlockReference
  2
block 187
 10
0.0
 20
0.0
 30
0.0
  0
INSERT
  5
5BF
330
5A2
100
AcDbEntity
  8
cotas
100
AcDbBlockReference
  2
block 188
 10
0.0
 20
0.0
 30
0.0
  0
INSERT
  5
5C7
330
5A2
100
AcDbEntity
  8
cotas
100
AcDbBlockReference
  2
block 189
 10
0.0
 20
0.0
 30
0.0
  0
INSERT
  5
5D2
330
5A2
100
AcDbEntity
  8
cotas
100
AcDbBlockReference
  2
block 190
 10
0.0
 20
0.0
 30
0.0
  0
INSERT
  5
5DD
330
5A2
100
AcDbEntity
  8
cotas
100
AcDbBlockReference
  2
block 191
 10
0.0
 20
0.0
 30
0.0
  0
INSERT
  5
5E2
330
5A2
100
AcDbEntity
  8
cotas
100
AcDbBlockReference
  2
block 192
 10
0.0
 20
0.0
 30
0.0
  0
INSERT
  5
5EA
330
5A2
100
AcDbEntity
  8
cotas
100
AcDbBlockReference
  2
block 193
 10
0.0
 20
0.0
 30
0.0
  0
INSERT
  5
5F2
330
5A2
100
AcDbEntity
  8
cotas
100
AcDbBlockReference
  2
block 194
 10
0.0
 20
0.0
 30
0.0
  0
ENDBLK
  5
5A5
330
5A2
100
AcDbEntity
  8
0
100
AcDbBlockEnd
  0
BLOCK
  5
5A8
330
5A6
100
AcDbEntity
  8
0
100
AcDbBlockBegin
  2
block 185
 70
     0
 71
     0
 10
0.0
 20
0.0
 30
0.0
  3
block 185
  1

  0
POLYLINE
  5
5AA
330
5A6
100
AcDbEntity
  8
cotas
 62
   253
420
 11382189
370
    30
100
AcDb2dPolyline
 66
     1
 10
0.0
 20
0.0
 30
0.0
  0
VERTEX
  5
5AB
330
5AA
100
AcDbEntity
  8
cotas
 62
   253
420
 11382189
370
    30
100
AcDbVertex
100
AcDb2dVertex
 10
-118.3147419951609
 20
-23.49279513301569
 30
0.0
  0
VERTEX
  5
5AC
330
5AA
100
AcDbEntity
  8
cotas
 62
   253
420
 11382189
370
    30
100
AcDbVertex
100
AcDb2dVertex
 10
-126.5052842565681
 20
-23.49279513301569
 30
0.0
  0
SEQEND
  5
5AD
330
5AA
100
AcDbEntity
  8
cotas
370
    30
  0
ENDBLK
  5
5A9
330
5A6
100
AcDbEntity
  8
0
100
AcDbBlockEnd
  0
BLOCK
  5
5B0
330
5AE
100
AcDbEntity
  8
0
100
AcDbBlockBegin
  2
block 186
 70
     0
 71
     0
 10
0.0
 20
0.0
 30
0.0
  3
block 186
  1

  0
POLYLINE
  5
5B2
330
5AE
100
AcDbEntity
  8
cotas
 62
   253
420
 11382189
370
    30
100
AcDb2dPolyline
 66
     1
 10
0.0
 20
0.0
 30
0.0
  0
VERTEX
  5
5B3
330
5B2
100
AcDbEntity
  8
cotas
 62
   253
420
 11382189
370
    30
100
AcDbVertex
100
AcDb2dVertex
 10
-119.8488430147427
 20
-64.78054197599236
 30
0.0
  0
VERTEX
  5
5B4
330
5B2
100
AcDbEntity
  8
cotas
 62
   253
420
 11382189
370
    30
100
AcDbVertex
100
AcDb2dVertex
 10
-126.5052842565681
 20
-64.78054197599236
 30
0.0
  0
SEQEND
  5
5B5
330
5B2
100
AcDbEntity
  8
cotas
370
    30
  0
ENDBLK
  5
5B1
330
5AE
100
AcDbEntity
  8
0
100
AcDbBlockEnd
  0
BLOCK
  5
5B8
330
5B6
100
AcDbEntity
  8
0
100
AcDbBlockBegin
  2
block 187
 70
     0
 71
     0
 10
0.0
 20
0.0
 30
0.0
  3
block 187
  1

  0
POLYLINE
  5
5BA
330
5B6
100
AcDbEntity
  8
cotas
 62
   253
420
 11382189
370
    30
100
AcDb2dPolyline
 66
     1
 10
0.0
 20
0.0
 30
0.0
  0
VERTEX
  5
5BB
330
5BA
100
AcDbEntity
  8
cotas
 62
   253
420
 11382189
370
    30
100
AcDbVertex
100
AcDb2dVertex
 10
-125.3546223644947
 20
-25.10303276282146
 30
0.0
  0
VERTEX
  5
5BC
330
5BA
100
AcDbEntity
  8
cotas
 62
   253
420
 11382189
370
    30
100
AcDbVertex
100
AcDb2dVertex
 10
-125.3546223644947
 20
-40.07300617487758
 30
0.0
  0
SEQEND
  5
5BD
330
5BA
100
AcDbEntity
  8
cotas
370
    30
  0
ENDBLK
  5
5B9
330
5B6
100
AcDbEntity
  8
0
100
AcDbBlockEnd
  0
BLOCK
  5
5C0
330
5BE
100
AcDbEntity
  8
0
100
AcDbBlockBegin
  2
block 188
 70
     0
 71
     0
 10
0.0
 20
0.0
 30
0.0
  3
block 188
  1

  0
POLYLINE
  5
5C2
330
5BE
100
AcDbEntity
  8
cotas
 62
   253
420
 11382189
370
    30
100
AcDb2dPolyline
 66
     1
 10
0.0
 20
0.0
 30
0.0
  0
VERTEX
  5
5C3
330
5C2
100
AcDbEntity
  8
cotas
 62
   253
420
 11382189
370
    30
100
AcDbVertex
100
AcDb2dVertex
 10
-125.3546223644947
 20
-63.17030434618659
 30
0.0
  0
VERTEX
  5
5C4
330
5C2
100
AcDbEntity
  8
cotas
 62
   253
420
 11382189
370
    30
100
AcDbVertex
100
AcDb2dVertex
 10
-125.3546223644947
 20
-48.1992974054849
 30
0.0
  0
SEQEND
  5
5C5
330
5C2
100
AcDbEntity
  8
cotas
370
    30
  0
ENDBLK
  5
5C1
330
5BE
100
AcDbEntity
  8
0
100
AcDbBlockEnd
  0
BLOCK
  5
5C8
330
5C6
100
AcDbEntity
  8
0
100
AcDbBlockBegin
  2
block 189
 70
     0
 71
     0
 10
0.0
 20
0.0
 30
0.0
  3
block 189
  1

  0
POLYLINE
  5
5CA
330
5C6
100
AcDbEntity
  8
cotas
370
     0
100
AcDb2dPolyline
 66
     1
 10
0.0
 20
0.0
 30
0.0
  0
VERTEX
  5
5CB
330
5CA
100
AcDbEntity
  8
cotas
370
     0
100
AcDbVertex
100
AcDb2dVertex
 10
-125.6235120671184
 20
-25.10303276282146
 30
0.0
  0
VERTEX
  5
5CC
330
5CA
100
AcDbEntity
  8
cotas
370
     0
100
AcDbVertex
100
AcDb2dVertex
 10
-125.0865939357422
 20
-25.10303276282146
 30
0.0
  0
VERTEX
  5
5CD
330
5CA
100
AcDbEntity
  8
cotas
370
     0
100
AcDbVertex
100
AcDb2dVertex
 10
-125.3546223644947
 20
-23.49279513301569
 30
0.0
  0
VERTEX
  5
5CE
330
5CA
100
AcDbEntity
  8
cotas
370
     0
100
AcDbVertex
100
AcDb2dVertex
 10
-125.6235120671184
 20
-25.10303276282146
 30
0.0
  0
SEQEND
  5
5CF
330
5CA
100
AcDbEntity
  8
cotas
370
     0
  0
HATCH
  5
5D0
330
5C6
100
AcDbEntity
  8
cotas
 62
   253
420
 11382189
100
AcDbHatch
 10
0.0
 20
0.0
 30
0.0
210
0.0
220
0.0
230
1.0
  2
SOLID
 70
     1
 71
     0
 91
        1
 92
        1
 93
        3
 72
     1
 10
-125.6235120671184
 20
-25.10303276282146
 11
-125.0865939357422
 21
-25.10303276282146
 72
     1
 10
-125.0865939357422
 20
-25.10303276282146
 11
-125.3546223644947
 21
-23.49279513301569
 72
     1
 10
-125.3546223644947
 20
-23.49279513301569
 11
-125.6235120671184
 21
-25.10303276282146
 97
        0
 75
     2
 76
     1
 98
        0
  0
ENDBLK
  5
5C9
330
5C6
100
AcDbEntity
  8
0
100
AcDbBlockEnd
  0
BLOCK
  5
5D3
330
5D1
100
AcDbEntity
  8
0
100
AcDbBlockBegin
  2
block 190
 70
     0
 71
     0
 10
0.0
 20
0.0
 30
0.0
  3
block 190
  1

  0
POLYLINE
  5
5D5
330
5D1
100
AcDbEntity
  8
cotas
370
     0
100
AcDb2dPolyline
 66
     1
 10
0.0
 20
0.0
 30
0.0
  0
VERTEX
  5
5D6
330
5D5
100
AcDbEntity
  8
cotas
370
     0
100
AcDbVertex
100
AcDb2dVertex
 10
-125.6235120671184
 20
-63.17030434618659
 30
0.0
  0
VERTEX
  5
5D7
330
5D5
100
AcDbEntity
  8
cotas
370
     0
100
AcDbVertex
100
AcDb2dVertex
 10
-125.0865939357422
 20
-63.17030434618659
 30
0.0
  0
VERTEX
  5
5D8
330
5D5
100
AcDbEntity
  8
cotas
370
     0
100
AcDbVertex
100
AcDb2dVertex
 10
-125.3546223644947
 20
-64.78054197599236
 30
0.0
  0
VERTEX
  5
5D9
330
5D5
100
AcDbEntity
  8
cotas
370
     0
100
AcDbVertex
100
AcDb2dVertex
 10
-125.6235120671184
 20
-63.17030434618659
 30
0.0
  0
SEQEND
  5
5DA
330
5D5
100
AcDbEntity
  8
cotas
370
     0
  0
HATCH
  5
5DB
330
5D1
100
AcDbEntity
  8
cotas
 62
   253
420
 11382189
100
AcDbHatch
 10
0.0
 20
0.0
 30
0.0
210
0.0
220
0.0
230
1.0
  2
SOLID
 70
     1
 71
     0
 91
        1
 92
        1
 93
        3
 72
     1
 10
-125.6235120671184
 20
-63.17030434618659
 11
-125.0865939357422
 21
-63.17030434618659
 72
     1
 10
-125.0865939357422
 20
-63.17030434618659
 11
-125.3546223644947
 21
-64.78054197599236
 72
     1
 10
-125.3546223644947
 20
-64.78054197599236
 11
-125.6235120671184
 21
-63.17030434618659
 97
        0
 75
     2
 76
     1
 98
        0
  0
ENDBLK
  5
5D4
330
5D1
100
AcDbEntity
  8
0
100
AcDbBlockEnd
  0
BLOCK
  5
5DE
330
5DC
100
AcDbEntity
  8
0
100
AcDbBlockBegin
  2
block 191
 70
     0
 71
     0
 10
0.0
 20
0.0
 30
0.0
  3
block 191
  1

  0
MTEXT
  5
5E0
330
5DC
100
AcDbEntity
  8
cotas
 62
   253
420
 11382189
100
AcDbMText
 10
-129.5187092775162
 20
-45.83975150763729
 30
0.0
 40
3.451298621904306
 41
0.0
 71
     7
 72
     1
  1
\fArial|b0|i0|c0|p34;\W1;160
 73
     1
 44
1.0
  0
ENDBLK
  5
5DF
330
5DC
100
AcDbEntity
  8
0
100
AcDbBlockEnd
  0
BLOCK
  5
5E3
330
5E1
100
AcDbEntity
  8
0
100
AcDbBlockBegin
  2
block 192
 70
     0
 71
     0
 10
0.0
 20
0.0
 30
0.0
  3
block 192
  1

  0
POLYLINE
  5
5E5
330
5E1
100
AcDbEntity
  8
cotas
 62
   253
420
 11382189
370
    30
100
AcDb2dPolyline
 66
     1
 10
0.0
 20
0.0
 30
0.0
  0
VERTEX
  5
5E6
330
5E5
100
AcDbEntity
  8
cotas
 62
   253
420
 11382189
370
    30
100
AcDbVertex
100
AcDb2dVertex
 10
-116.0137627205625
 20
-23.49279513301569
 30
0.0
  0
VERTEX
  5
5E7
330
5E5
100
AcDbEntity
  8
cotas
 62
   253
420
 11382189
370
    30
100
AcDbVertex
100
AcDb2dVertex
 10
-116.0137627205625
 20
-23.49279513301569
 30
0.0
  0
SEQEND
  5
5E8
330
5E5
100
AcDbEntity
  8
cotas
370
    30
  0
ENDBLK
  5
5E4
330
5E1
100
AcDbEntity
  8
0
100
AcDbBlockEnd
  0
BLOCK
  5
5EB
330
5E9
100
AcDbEntity
  8
0
100
AcDbBlockBegin
  2
block 193
 70
     0
 71
     0
 10
0.0
 20
0.0
 30
0.0
  3
block 193
  1

  0
POLYLINE
  5
5ED
330
5E9
100
AcDbEntity
  8
cotas
 62
   253
420
 11382189
370
    30
100
AcDb2dPolyline
 66
     1
 10
0.0
 20
0.0
 30
0.0
  0
VERTEX
  5
5EE
330
5ED
100
AcDbEntity
  8
cotas
 62
   253
420
 11382189
370
    30
100
AcDbVertex
100
AcDb2dVertex
 10
-117.5478637401443
 20
-64.78054197599236
 30
0.0
  0
VERTEX
  5
5EF
330
5ED
100
AcDbEntity
  8
cotas
 62
   253
420
 11382189
370
    30
100
AcDbVertex
100
AcDb2dVertex
 10
-117.5478637401443
 20
-64.78054197599236
 30
0.0
  0
SEQEND
  5
5F0
330
5ED
100
AcDbEntity
  8
cotas
370
    30
  0
ENDBLK
  5
5EC
330
5E9
100
AcDbEntity
  8
0
100
AcDbBlockEnd
  0
BLOCK
  5
5F3
330
5F1
100
AcDbEntity
  8
0
100
AcDbBlockBegin
  2
block 194
 70
     0
 71
     0
 10
0.0
 20
0.0
 30
0.0
  3
block 194
  1

  0
POLYLINE
  5
5F5
330
5F1
100
AcDbEntity
  8
cotas
 62
   253
420
 11382189
370
    30
100
AcDb2dPolyline
 66
     1
 10
0.0
 20
0.0
 30
0.0
  0
VERTEX
  5
5F6
330
5F5
100
AcDbEntity
  8
cotas
 62
   253
420
 11382189
370
    30
100
AcDbVertex
100
AcDb2dVertex
 10
-125.3546223644947
 20
-64.78054197599236
 30
0.0
  0
VERTEX
  5
5F7
330
5F5
100
AcDbEntity
  8
cotas
 62
   253
420
 11382189
370
    30
100
AcDbVertex
100
AcDb2dVertex
 10
-125.3546223644947
 20
-64.78054197599236
 30
0.0
  0
SEQEND
  5
5F8
330
5F5
100
AcDbEntity
  8
cotas
370
    30
  0
ENDBLK
  5
5F4
330
5F1
100
AcDbEntity
  8
0
100
AcDbBlockEnd
  0
BLOCK
  5
5FB
330
5F9
100
AcDbEntity
  8
0
100
AcDbBlockBegin
  2
block 195
 70
     0
 71
     0
 10
0.0
 20
0.0
 30
0.0
  3
block 195
  1

  0
INSERT
  5
5FE
330
5F9
100
AcDbEntity
  8
cotas
100
AcDbBlockReference
  2
block 196
 10
0.0
 20
0.0
 30
0.0
  0
INSERT
  5
606
330
5F9
100
AcDbEntity
  8
cotas
100
AcDbBlockReference
  2
block 197
 10
0.0
 20
0.0
 30
0.0
  0
INSERT
  5
60E
330
5F9
100
AcDbEntity
  8
cotas
100
AcDbBlockReference
  2
block 198
 10
0.0
 20
0.0
 30
0.0
  0
INSERT
  5
616
330
5F9
100
AcDbEntity
  8
cotas
100
AcDbBlockReference
  2
block 199
 10
0.0
 20
0.0
 30
0.0
  0
INSERT
  5
61E
330
5F9
100
AcDbEntity
  8
cotas
100
AcDbBlockReference
  2
block 200
 10
0.0
 20
0.0
 30
0.0
  0
INSERT
  5
629
330
5F9
100
AcDbEntity
  8
cotas
100
AcDbBlockReference
  2
block 201
 10
0.0
 20
0.0
 30
0.0
  0
INSERT
  5
634
330
5F9
100
AcDbEntity
  8
cotas
100
AcDbBlockReference
  2
block 202
 10
0.0
 20
0.0
 30
0.0
  0
INSERT
  5
639
330
5F9
100
AcDbEntity
  8
cotas
100
AcDbBlockReference
  2
block 203
 10
0.0
 20
0.0
 30
0.0
  0
INSERT
  5
641
330
5F9
100
AcDbEntity
  8
cotas
100
AcDbBlockReference
  2
block 204
 10
0.0
 20
0.0
 30
0.0
  0
INSERT
  5
649
330
5F9
100
AcDbEntity
  8
cotas
100
AcDbBlockReference
  2
block 205
 10
0.0
 20
0.0
 30
0.0
  0
ENDBLK
  5
5FC
330
5F9
100
AcDbEntity
  8
0
100
AcDbBlockEnd
  0
BLOCK
  5
5FF
330
5FD
100
AcDbEntity
  8
0
100
AcDbBlockBegin
  2
block 196
 70
     0
 71
     0
 10
0.0
 20
0.0
 30
0.0
  3
block 196
  1

  0
POLYLINE
  5
601
330
5FD
100
AcDbEntity
  8
cotas
 62
   253
420
 11382189
370
    30
100
AcDb2dPolyline
 66
     1
 10
0.0
 20
0.0
 30
0.0
  0
VERTEX
  5
602
330
601
100
AcDbEntity
  8
cotas
 62
   253
420
 11382189
370
    30
100
AcDbVertex
100
AcDb2dVertex
 10
-82.52381725367461
 20
-39.7257405499644
 30
0.0
  0
VERTEX
  5
603
330
601
100
AcDbEntity
  8
cotas
 62
   253
420
 11382189
370
    30
100
AcDbVertex
100
AcDb2dVertex
 10
-80.11552325471071
 20
-39.7257405499644
 30
0.0
  0
SEQEND
  5
604
330
601
100
AcDbEntity
  8
cotas
370
    30
  0
ENDBLK
  5
600
330
5FD
100
AcDbEntity
  8
0
100
AcDbBlockEnd
  0
BLOCK
  5
607
330
605
100
AcDbEntity
  8
0
100
AcDbBlockBegin
  2
block 197
 70
     0
 71
     0
 10
0.0
 20
0.0
 30
0.0
  3
block 197
  1

  0
POLYLINE
  5
609
330
605
100
AcDbEntity
  8
cotas
 62
   253
420
 11382189
370
    30
100
AcDb2dPolyline
 66
     1
 10
0.0
 20
0.0
 30
0.0
  0
VERTEX
  5
60A
330
609
100
AcDbEntity
  8
cotas
 62
   253
420
 11382189
370
    30
100
AcDbVertex
100
AcDb2dVertex
 10
-103.2314249416401
 20
-64.78054197599236
 30
0.0
  0
VERTEX
  5
60B
330
609
100
AcDbEntity
  8
cotas
 62
   253
420
 11382189
370
    30
100
AcDbVertex
100
AcDb2dVertex
 10
-80.11552325471071
 20
-64.78054197599236
 30
0.0
  0
SEQEND
  5
60C
330
609
100
AcDbEntity
  8
cotas
370
    30
  0
ENDBLK
  5
608
330
605
100
AcDbEntity
  8
0
100
AcDbBlockEnd
  0
BLOCK
  5
60F
330
60D
100
AcDbEntity
  8
0
100
AcDbBlockBegin
  2
block 198
 70
     0
 71
     0
 10
0.0
 20
0.0
 30
0.0
  3
block 198
  1

  0
POLYLINE
  5
611
330
60D
100
AcDbEntity
  8
cotas
 62
   253
420
 11382189
370
    30
100
AcDb2dPolyline
 66
     1
 10
0.0
 20
0.0
 30
0.0
  0
VERTEX
  5
612
330
611
100
AcDbEntity
  8
cotas
 62
   253
420
 11382189
370
    30
100
AcDbVertex
100
AcDb2dVertex
 10
-81.26532387291284
 20
-41.33735621796427
 30
0.0
  0
VERTEX
  5
613
330
611
100
AcDbEntity
  8
cotas
 62
   253
420
 11382189
370
    30
100
AcDbVertex
100
AcDb2dVertex
 10
-81.26532387291284
 20
-48.1896511381262
 30
0.0
  0
SEQEND
  5
614
330
611
100
AcDbEntity
  8
cotas
370
    30
  0
ENDBLK
  5
610
330
60D
100
AcDbEntity
  8
0
100
AcDbBlockEnd
  0
BLOCK
  5
617
330
615
100
AcDbEntity
  8
0
100
AcDbBlockBegin
  2
block 199
 70
     0
 71
     0
 10
0.0
 20
0.0
 30
0.0
  3
block 199
  1

  0
POLYLINE
  5
619
330
615
100
AcDbEntity
  8
cotas
 62
   253
420
 11382189
370
    30
100
AcDb2dPolyline
 66
     1
 10
0.0
 20
0.0
 30
0.0
  0
VERTEX
  5
61A
330
619
100
AcDbEntity
  8
cotas
 62
   253
420
 11382189
370
    30
100
AcDbVertex
100
AcDb2dVertex
 10
-81.26532387291284
 20
-63.17030434618659
 30
0.0
  0
VERTEX
  5
61B
330
619
100
AcDbEntity
  8
cotas
 62
   253
420
 11382189
370
    30
100
AcDbVertex
100
AcDb2dVertex
 10
-81.26532387291284
 20
-56.31663138783057
 30
0.0
  0
SEQEND
  5
61C
330
619
100
AcDbEntity
  8
cotas
370
    30
  0
ENDBLK
  5
618
330
615
100
AcDbEntity
  8
0
100
AcDbBlockEnd
  0
BLOCK
  5
61F
330
61D
100
AcDbEntity
  8
0
100
AcDbBlockBegin
  2
block 200
 70
     0
 71
     0
 10
0.0
 20
0.0
 30
0.0
  3
block 200
  1

  0
POLYLINE
  5
621
330
61D
100
AcDbEntity
  8
cotas
370
     0
100
AcDb2dPolyline
 66
     1
 10
0.0
 20
0.0
 30
0.0
  0
VERTEX
  5
622
330
621
100
AcDbEntity
  8
cotas
370
     0
100
AcDbVertex
100
AcDb2dVertex
 10
-81.53473033985938
 20
-41.33735621796427
 30
0.0
  0
VERTEX
  5
623
330
621
100
AcDbEntity
  8
cotas
370
     0
100
AcDbVertex
100
AcDb2dVertex
 10
-80.9972954441604
 20
-41.33735621796427
 30
0.0
  0
VERTEX
  5
624
330
621
100
AcDbEntity
  8
cotas
370
     0
100
AcDbVertex
100
AcDb2dVertex
 10
-81.26532387291284
 20
-39.7257405499644
 30
0.0
  0
VERTEX
  5
625
330
621
100
AcDbEntity
  8
cotas
370
     0
100
AcDbVertex
100
AcDb2dVertex
 10
-81.53473033985938
 20
-41.33735621796427
 30
0.0
  0
SEQEND
  5
626
330
621
100
AcDbEntity
  8
cotas
370
     0
  0
HATCH
  5
627
330
61D
100
AcDbEntity
  8
cotas
 62
   253
420
 11382189
100
AcDbHatch
 10
0.0
 20
0.0
 30
0.0
210
0.0
220
0.0
230
1.0
  2
SOLID
 70
     1
 71
     0
 91
        1
 92
        1
 93
        3
 72
     1
 10
-81.53473033985938
 20
-41.33735621796427
 11
-80.9972954441604
 21
-41.33735621796427
 72
     1
 10
-80.9972954441604
 20
-41.33735621796427
 11
-81.26532387291284
 21
-39.7257405499644
 72
     1
 10
-81.26532387291284
 20
-39.7257405499644
 11
-81.53473033985938
 21
-41.33735621796427
 97
        0
 75
     2
 76
     1
 98
        0
  0
ENDBLK
  5
620
330
61D
100
AcDbEntity
  8
0
100
AcDbBlockEnd
  0
BLOCK
  5
62A
330
628
100
AcDbEntity
  8
0
100
AcDbBlockBegin
  2
block 201
 70
     0
 71
     0
 10
0.0
 20
0.0
 30
0.0
  3
block 201
  1

  0
POLYLINE
  5
62C
330
628
100
AcDbEntity
  8
cotas
370
     0
100
AcDb2dPolyline
 66
     1
 10
0.0
 20
0.0
 30
0.0
  0
VERTEX
  5
62D
330
62C
100
AcDbEntity
  8
cotas
370
     0
100
AcDbVertex
100
AcDb2dVertex
 10
-81.53473033985938
 20
-63.17030434618659
 30
0.0
  0
VERTEX
  5
62E
330
62C
100
AcDbEntity
  8
cotas
370
     0
100
AcDbVertex
100
AcDb2dVertex
 10
-80.9972954441604
 20
-63.17030434618659
 30
0.0
  0
VERTEX
  5
62F
330
62C
100
AcDbEntity
  8
cotas
370
     0
100
AcDbVertex
100
AcDb2dVertex
 10
-81.26532387291284
 20
-64.78054197599236
 30
0.0
  0
VERTEX
  5
630
330
62C
100
AcDbEntity
  8
cotas
370
     0
100
AcDbVertex
100
AcDb2dVertex
 10
-81.53473033985938
 20
-63.17030434618659
 30
0.0
  0
SEQEND
  5
631
330
62C
100
AcDbEntity
  8
cotas
370
     0
  0
HATCH
  5
632
330
628
100
AcDbEntity
  8
cotas
 62
   253
420
 11382189
100
AcDbHatch
 10
0.0
 20
0.0
 30
0.0
210
0.0
220
0.0
230
1.0
  2
SOLID
 70
     1
 71
     0
 91
        1
 92
        1
 93
        3
 72
     1
 10
-81.53473033985938
 20
-63.17030434618659
 11
-80.9972954441604
 21
-63.17030434618659
 72
     1
 10
-80.9972954441604
 20
-63.17030434618659
 11
-81.26532387291284
 21
-64.78054197599236
 72
     1
 10
-81.26532387291284
 20
-64.78054197599236
 11
-81.53473033985938
 21
-63.17030434618659
 97
        0
 75
     2
 76
     1
 98
        0
  0
ENDBLK
  5
62B
330
628
100
AcDbEntity
  8
0
100
AcDbBlockEnd
  0
BLOCK
  5
635
330
633
100
AcDbEntity
  8
0
100
AcDbBlockBegin
  2
block 202
 70
     0
 71
     0
 10
0.0
 20
0.0
 30
0.0
  3
block 202
  1

  0
MTEXT
  5
637
330
633
100
AcDbEntity
  8
cotas
 62
   253
420
 11382189
100
AcDbMText
 10
-85.42975529548285
 20
-53.95674098043443
 30
0.0
 40
3.451298621904306
 41
0.0
 71
     7
 72
     1
  1
\fArial|b0|i0|c0|p34;\W1;100
 73
     1
 44
1.0
  0
ENDBLK
  5
636
330
633
100
AcDbEntity
  8
0
100
AcDbBlockEnd
  0
BLOCK
  5
63A
330
638
100
AcDbEntity
  8
0
100
AcDbBlockBegin
  2
block 203
 70
     0
 71
     0
 10
0.0
 20
0.0
 30
0.0
  3
block 203
  1

  0
POLYLINE
  5
63C
330
638
100
AcDbEntity
  8
cotas
 62
   253
420
 11382189
370
    30
100
AcDb2dPolyline
 66
     1
 10
0.0
 20
0.0
 30
0.0
  0
VERTEX
  5
63D
330
63C
100
AcDbEntity
  8
cotas
 62
   253
420
 11382189
370
    30
100
AcDbVertex
100
AcDb2dVertex
 10
-84.82462427349871
 20
-39.7257405499644
 30
0.0
  0
VERTEX
  5
63E
330
63C
100
AcDbEntity
  8
cotas
 62
   253
420
 11382189
370
    30
100
AcDbVertex
100
AcDb2dVertex
 10
-84.82462427349871
 20
-39.7257405499644
 30
0.0
  0
SEQEND
  5
63F
330
63C
100
AcDbEntity
  8
cotas
370
    30
  0
ENDBLK
  5
63B
330
638
100
AcDbEntity
  8
0
100
AcDbBlockEnd
  0
BLOCK
  5
642
330
640
100
AcDbEntity
  8
0
100
AcDbBlockBegin
  2
block 204
 70
     0
 71
     0
 10
0.0
 20
0.0
 30
0.0
  3
block 204
  1

  0
POLYLINE
  5
644
330
640
100
AcDbEntity
  8
cotas
 62
   253
420
 11382189
370
    30
100
AcDb2dPolyline
 66
     1
 10
0.0
 20
0.0
 30
0.0
  0
VERTEX
  5
645
330
644
100
AcDbEntity
  8
cotas
 62
   253
420
 11382189
370
    30
100
AcDbVertex
100
AcDb2dVertex
 10
-105.5322319614642
 20
-64.78054197599236
 30
0.0
  0
VERTEX
  5
646
330
644
100
AcDbEntity
  8
cotas
 62
   253
420
 11382189
370
    30
100
AcDbVertex
100
AcDb2dVertex
 10
-105.5322319614642
 20
-64.78054197599236
 30
0.0
  0
SEQEND
  5
647
330
644
100
AcDbEntity
  8
cotas
370
    30
  0
ENDBLK
  5
643
330
640
100
AcDbEntity
  8
0
100
AcDbBlockEnd
  0
BLOCK
  5
64A
330
648
100
AcDbEntity
  8
0
100
AcDbBlockBegin
  2
block 205
 70
     0
 71
     0
 10
0.0
 20
0.0
 30
0.0
  3
block 205
  1

  0
POLYLINE
  5
64C
330
648
100
AcDbEntity
  8
cotas
 62
   253
420
 11382189
370
    30
100
AcDb2dPolyline
 66
     1
 10
0.0
 20
0.0
 30
0.0
  0
VERTEX
  5
64D
330
64C
100
AcDbEntity
  8
cotas
 62
   253
420
 11382189
370
    30
100
AcDbVertex
100
AcDb2dVertex
 10
-81.26532387291284
 20
-64.78054197599236
 30
0.0
  0
VERTEX
  5
64E
330
64C
100
AcDbEntity
  8
cotas
 62
   253
420
 11382189
370
    30
100
AcDbVertex
100
AcDb2dVertex
 10
-81.26532387291284
 20
-64.78054197599236
 30
0.0
  0
SEQEND
  5
64F
330
64C
100
AcDbEntity
  8
cotas
370
    30
  0
ENDBLK
  5
64B
330
648
100
AcDbEntity
  8
0
100
AcDbBlockEnd
  0
BLOCK
  5
652
330
650
100
AcDbEntity
  8
0
100
AcDbBlockBegin
  2
block 206
 70
     0
 71
     0
 10
0.0
 20
0.0
 30
0.0
  3
block 206
  1

  0
INSERT
  5
655
330
650
100
AcDbEntity
  8
cotas
100
AcDbBlockReference
  2
block 207
 10
0.0
 20
0.0
 30
0.0
  0
INSERT
  5
65D
330
650
100
AcDbEntity
  8
cotas
100
AcDbBlockReference
  2
block 208
 10
0.0
 20
0.0
 30
0.0
  0
INSERT
  5
665
330
650
100
AcDbEntity
  8
cotas
100
AcDbBlockReference
  2
block 209
 10
0.0
 20
0.0
 30
0.0
  0
INSERT
  5
66D
330
650
100
AcDbEntity
  8
cotas
100
AcDbBlockReference
  2
block 210
 10
0.0
 20
0.0
 30
0.0
  0
INSERT
  5
675
330
650
100
AcDbEntity
  8
cotas
100
AcDbBlockReference
  2
block 211
 10
0.0
 20
0.0
 30
0.0
  0
INSERT
  5
680
330
650
100
AcDbEntity
  8
cotas
100
AcDbBlockReference
  2
block 212
 10
0.0
 20
0.0
 30
0.0
  0
INSERT
  5
688
330
650
100
AcDbEntity
  8
cotas
100
AcDbBlockReference
  2
block 213
 10
0.0
 20
0.0
 30
0.0
  0
INSERT
  5
690
330
650
100
AcDbEntity
  8
cotas
100
AcDbBlockReference
  2
block 214
 10
0.0
 20
0.0
 30
0.0
  0
INSERT
  5
69B
330
650
100
AcDbEntity
  8
cotas
100
AcDbBlockReference
  2
block 215
 10
0.0
 20
0.0
 30
0.0
  0
INSERT
  5
6A3
330
650
100
AcDbEntity
  8
cotas
100
AcDbBlockReference
  2
block 216
 10
0.0
 20
0.0
 30
0.0
  0
INSERT
  5
6AB
330
650
100
AcDbEntity
  8
cotas
100
AcDbBlockReference
  2
block 217
 10
0.0
 20
0.0
 30
0.0
  0
INSERT
  5
6B0
330
650
100
AcDbEntity
  8
cotas
100
AcDbBlockReference
  2
block 218
 10
0.0
 20
0.0
 30
0.0
  0
INSERT
  5
6B8
330
650
100
AcDbEntity
  8
cotas
100
AcDbBlockReference
  2
block 219
 10
0.0
 20
0.0
 30
0.0
  0
INSERT
  5
6C0
330
650
100
AcDbEntity
  8
cotas
100
AcDbBlockReference
  2
block 220
 10
0.0
 20
0.0
 30
0.0
  0
ENDBLK
  5
653
330
650
100
AcDbEntity
  8
0
100
AcDbBlockEnd
  0
BLOCK
  5
656
330
654
100
AcDbEntity
  8
0
100
AcDbBlockBegin
  2
block 207
 70
     0
 71
     0
 10
0.0
 20
0.0
 30
0.0
  3
block 207
  1

  0
POLYLINE
  5
658
330
654
100
AcDbEntity
  8
cotas
 62
   253
420
 11382189
370
    30
100
AcDb2dPolyline
 66
     1
 10
0.0
 20
0.0
 30
0.0
  0
VERTEX
  5
659
330
658
100
AcDbEntity
  8
cotas
 62
   253
420
 11382189
370
    30
100
AcDbVertex
100
AcDb2dVertex
 10
-117.5478637401443
 20
-61.71233993682886
 30
0.0
  0
VERTEX
  5
65A
330
658
100
AcDbEntity
  8
cotas
 62
   253
420
 11382189
370
    30
100
AcDbVertex
100
AcDb2dVertex
 10
-117.5478637401443
 20
-53.96569822869608
 30
0.0
  0
SEQEND
  5
65B
330
658
100
AcDbEntity
  8
cotas
370
    30
  0
ENDBLK
  5
657
330
654
100
AcDbEntity
  8
0
100
AcDbBlockEnd
  0
BLOCK
  5
65E
330
65C
100
AcDbEntity
  8
0
100
AcDbBlockBegin
  2
block 208
 70
     0
 71
     0
 10
0.0
 20
0.0
 30
0.0
  3
block 208
  1

  0
POLYLINE
  5
660
330
65C
100
AcDbEntity
  8
cotas
 62
   253
420
 11382189
370
    30
100
AcDb2dPolyline
 66
     1
 10
0.0
 20
0.0
 30
0.0
  0
VERTEX
  5
661
330
660
100
AcDbEntity
  8
cotas
 62
   253
420
 11382189
370
    30
100
AcDbVertex
100
AcDb2dVertex
 10
-105.5322319614642
 20
-61.71233993682886
 30
0.0
  0
VERTEX
  5
662
330
660
100
AcDbEntity
  8
cotas
 62
   253
420
 11382189
370
    30
100
AcDbVertex
100
AcDb2dVertex
 10
-105.5322319614642
 20
-53.96569822869608
 30
0.0
  0
SEQEND
  5
663
330
660
100
AcDbEntity
  8
cotas
370
    30
  0
ENDBLK
  5
65F
330
65C
100
AcDbEntity
  8
0
100
AcDbBlockEnd
  0
BLOCK
  5
666
330
664
100
AcDbEntity
  8
0
100
AcDbBlockBegin
  2
block 209
 70
     0
 71
     0
 10
0.0
 20
0.0
 30
0.0
  3
block 209
  1

  0
POLYLINE
  5
668
330
664
100
AcDbEntity
  8
cotas
 62
   253
420
 11382189
370
    30
100
AcDb2dPolyline
 66
     1
 10
0.0
 20
0.0
 30
0.0
  0
VERTEX
  5
669
330
668
100
AcDbEntity
  8
cotas
 62
   253
420
 11382189
370
    30
100
AcDbVertex
100
AcDb2dVertex
 10
-115.9374538555643
 20
-55.11670463031805
 30
0.0
  0
VERTEX
  5
66A
330
668
100
AcDbEntity
  8
cotas
 62
   253
420
 11382189
370
    30
100
AcDbVertex
100
AcDb2dVertex
 10
-107.1428141008185
 20
-55.11670463031805
 30
0.0
  0
SEQEND
  5
66B
330
668
100
AcDbEntity
  8
cotas
370
    30
  0
ENDBLK
  5
667
330
664
100
AcDbEntity
  8
0
100
AcDbBlockEnd
  0
BLOCK
  5
66E
330
66C
100
AcDbEntity
  8
0
100
AcDbBlockBegin
  2
block 210
 70
     0
 71
     0
 10
0.0
 20
0.0
 30
0.0
  3
block 210
  1

  0
POLYLINE
  5
670
330
66C
100
AcDbEntity
  8
cotas
 62
   253
420
 11382189
370
    30
100
AcDb2dPolyline
 66
     1
 10
0.0
 20
0.0
 30
0.0
  0
VERTEX
  5
671
330
670
100
AcDbEntity
  8
cotas
 62
   253
420
 11382189
370
    30
100
AcDbVertex
100
AcDb2dVertex
 10
-105.5322319614642
 20
-55.11670463031805
 30
0.0
  0
VERTEX
  5
672
330
670
100
AcDbEntity
  8
cotas
 62
   253
420
 11382189
370
    30
100
AcDbVertex
100
AcDb2dVertex
 10
-103.5223632553694
 20
-55.11670463031805
 30
0.0
  0
SEQEND
  5
673
330
670
100
AcDbEntity
  8
cotas
370
    30
  0
ENDBLK
  5
66F
330
66C
100
AcDbEntity
  8
0
100
AcDbBlockEnd
  0
BLOCK
  5
676
330
674
100
AcDbEntity
  8
0
100
AcDbBlockBegin
  2
block 211
 70
     0
 71
     0
 10
0.0
 20
0.0
 30
0.0
  3
block 211
  1

  0
POLYLINE
  5
678
330
674
100
AcDbEntity
  8
cotas
370
     0
100
AcDb2dPolyline
 66
     1
 10
0.0
 20
0.0
 30
0.0
  0
VERTEX
  5
679
330
678
100
AcDbEntity
  8
cotas
370
     0
100
AcDbVertex
100
AcDb2dVertex
 10
-119.1584458794986
 20
-54.84833169201708
 30
0.0
  0
VERTEX
  5
67A
330
678
100
AcDbEntity
  8
cotas
370
     0
100
AcDbVertex
100
AcDb2dVertex
 10
-119.1584458794986
 20
-55.38473305907048
 30
0.0
  0
VERTEX
  5
67B
330
678
100
AcDbEntity
  8
cotas
370
     0
100
AcDbVertex
100
AcDb2dVertex
 10
-117.5478637401443
 20
-55.11670463031805
 30
0.0
  0
VERTEX
  5
67C
330
678
100
AcDbEntity
  8
cotas
370
     0
100
AcDbVertex
100
AcDb2dVertex
 10
-119.1584458794986
 20
-54.84833169201708
 30
0.0
  0
SEQEND
  5
67D
330
678
100
AcDbEntity
  8
cotas
370
     0
  0
HATCH
  5
67E
330
674
100
AcDbEntity
  8
cotas
 62
   253
420
 11382189
100
AcDbHatch
 10
0.0
 20
0.0
 30
0.0
210
0.0
220
0.0
230
1.0
  2
SOLID
 70
     1
 71
     0
 91
        1
 92
        1
 93
        3
 72
     1
 10
-119.1584458794986
 20
-54.84833169201708
 11
-119.1584458794986
 21
-55.38473305907048
 72
     1
 10
-119.1584458794986
 20
-55.38473305907048
 11
-117.5478637401443
 21
-55.11670463031805
 72
     1
 10
-117.5478637401443
 20
-55.11670463031805
 11
-119.1584458794986
 21
-54.84833169201708
 97
        0
 75
     2
 76
     1
 98
        0
  0
ENDBLK
  5
677
330
674
100
AcDbEntity
  8
0
100
AcDbBlockEnd
  0
BLOCK
  5
681
330
67F
100
AcDbEntity
  8
0
100
AcDbBlockBegin
  2
block 212
 70
     0
 71
     0
 10
0.0
 20
0.0
 30
0.0
  3
block 212
  1

  0
POLYLINE
  5
683
330
67F
100
AcDbEntity
  8
cotas
 62
   253
420
 11382189
370
    30
100
AcDb2dPolyline
 66
     1
 10
0.0
 20
0.0
 30
0.0
  0
VERTEX
  5
684
330
683
100
AcDbEntity
  8
cotas
 62
   253
420
 11382189
370
    30
100
AcDbVertex
100
AcDb2dVertex
 10
-119.1584458794986
 20
-55.11670463031805
 30
0.0
  0
VERTEX
  5
685
330
683
100
AcDbEntity
  8
cotas
 62
   253
420
 11382189
370
    30
100
AcDbVertex
100
AcDb2dVertex
 10
-120.7688557640786
 20
-55.11670463031805
 30
0.0
  0
SEQEND
  5
686
330
683
100
AcDbEntity
  8
cotas
370
    30
  0
ENDBLK
  5
682
330
67F
100
AcDbEntity
  8
0
100
AcDbBlockEnd
  0
BLOCK
  5
689
330
687
100
AcDbEntity
  8
0
100
AcDbBlockBegin
  2
block 213
 70
     0
 71
     0
 10
0.0
 20
0.0
 30
0.0
  3
block 213
  1

  0
POLYLINE
  5
68B
330
687
100
AcDbEntity
  8
cotas
 62
   253
420
 11382189
370
    30
100
AcDb2dPolyline
 66
     1
 10
0.0
 20
0.0
 30
0.0
  0
VERTEX
  5
68C
330
68B
100
AcDbEntity
  8
cotas
 62
   253
420
 11382189
370
    30
100
AcDbVertex
100
AcDb2dVertex
 10
-117.5478637401443
 20
-55.11670463031805
 30
0.0
  0
VERTEX
  5
68D
330
68B
100
AcDbEntity
  8
cotas
 62
   253
420
 11382189
370
    30
100
AcDbVertex
100
AcDb2dVertex
 10
-115.9374538555643
 20
-55.11670463031805
 30
0.0
  0
SEQEND
  5
68E
330
68B
100
AcDbEntity
  8
cotas
370
    30
  0
ENDBLK
  5
68A
330
687
100
AcDbEntity
  8
0
100
AcDbBlockEnd
  0
BLOCK
  5
691
330
68F
100
AcDbEntity
  8
0
100
AcDbBlockBegin
  2
block 214
 70
     0
 71
     0
 10
0.0
 20
0.0
 30
0.0
  3
block 214
  1

  0
POLYLINE
  5
693
330
68F
100
AcDbEntity
  8
cotas
370
     0
100
AcDb2dPolyline
 66
     1
 10
0.0
 20
0.0
 30
0.0
  0
VERTEX
  5
694
330
693
100
AcDbEntity
  8
cotas
370
     0
100
AcDbVertex
100
AcDb2dVertex
 10
-103.9213053125613
 20
-54.84833169201708
 30
0.0
  0
VERTEX
  5
695
330
693
100
AcDbEntity
  8
cotas
370
     0
100
AcDbVertex
100
AcDb2dVertex
 10
-103.9213053125613
 20
-55.38473305907048
 30
0.0
  0
VERTEX
  5
696
330
693
100
AcDbEntity
  8
cotas
370
     0
100
AcDbVertex
100
AcDb2dVertex
 10
-105.5322319614642
 20
-55.11670463031805
 30
0.0
  0
VERTEX
  5
697
330
693
100
AcDbEntity
  8
cotas
370
     0
100
AcDbVertex
100
AcDb2dVertex
 10
-103.9213053125613
 20
-54.84833169201708
 30
0.0
  0
SEQEND
  5
698
330
693
100
AcDbEntity
  8
cotas
370
     0
  0
HATCH
  5
699
330
68F
100
AcDbEntity
  8
cotas
 62
   253
420
 11382189
100
AcDbHatch
 10
0.0
 20
0.0
 30
0.0
210
0.0
220
0.0
230
1.0
  2
SOLID
 70
     1
 71
     0
 91
        1
 92
        1
 93
        3
 72
     1
 10
-103.9213053125613
 20
-54.84833169201708
 11
-103.9213053125613
 21
-55.38473305907048
 72
     1
 10
-103.9213053125613
 20
-55.38473305907048
 11
-105.5322319614642
 21
-55.11670463031805
 72
     1
 10
-105.5322319614642
 20
-55.11670463031805
 11
-103.9213053125613
 21
-54.84833169201708
 97
        0
 75
     2
 76
     1
 98
        0
  0
ENDBLK
  5
692
330
68F
100
AcDbEntity
  8
0
100
AcDbBlockEnd
  0
BLOCK
  5
69C
330
69A
100
AcDbEntity
  8
0
100
AcDbBlockBegin
  2
block 215
 70
     0
 71
     0
 10
0.0
 20
0.0
 30
0.0
  3
block 215
  1

  0
POLYLINE
  5
69E
330
69A
100
AcDbEntity
  8
cotas
 62
   253
420
 11382189
370
    30
100
AcDb2dPolyline
 66
     1
 10
0.0
 20
0.0
 30
0.0
  0
VERTEX
  5
69F
330
69E
100
AcDbEntity
  8
cotas
 62
   253
420
 11382189
370
    30
100
AcDbVertex
100
AcDb2dVertex
 10
-103.9213053125613
 20
-55.11670463031805
 30
0.0
  0
VERTEX
  5
6A0
330
69E
100
AcDbEntity
  8
cotas
 62
   253
420
 11382189
370
    30
100
AcDbVertex
100
AcDb2dVertex
 10
-102.3105509184328
 20
-55.11670463031805
 30
0.0
  0
SEQEND
  5
6A1
330
69E
100
AcDbEntity
  8
cotas
370
    30
  0
ENDBLK
  5
69D
330
69A
100
AcDbEntity
  8
0
100
AcDbBlockEnd
  0
BLOCK
  5
6A4
330
6A2
100
AcDbEntity
  8
0
100
AcDbBlockBegin
  2
block 216
 70
     0
 71
     0
 10
0.0
 20
0.0
 30
0.0
  3
block 216
  1

  0
POLYLINE
  5
6A6
330
6A2
100
AcDbEntity
  8
cotas
 62
   253
420
 11382189
370
    30
100
AcDb2dPolyline
 66
     1
 10
0.0
 20
0.0
 30
0.0
  0
VERTEX
  5
6A7
330
6A6
100
AcDbEntity
  8
cotas
 62
   253
420
 11382189
370
    30
100
AcDbVertex
100
AcDb2dVertex
 10
-105.5322319614642
 20
-55.11670463031805
 30
0.0
  0
VERTEX
  5
6A8
330
6A6
100
AcDbEntity
  8
cotas
 62
   253
420
 11382189
370
    30
100
AcDbVertex
100
AcDb2dVertex
 10
-107.1428141008185
 20
-55.11670463031805
 30
0.0
  0
SEQEND
  5
6A9
330
6A6
100
AcDbEntity
  8
cotas
370
    30
  0
ENDBLK
  5
6A5
330
6A2
100
AcDbEntity
  8
0
100
AcDbBlockEnd
  0
BLOCK
  5
6AC
330
6AA
100
AcDbEntity
  8
0
100
AcDbBlockBegin
  2
block 217
 70
     0
 71
     0
 10
0.0
 20
0.0
 30
0.0
  3
block 217
  1

  0
MTEXT
  5
6AE
330
6AA
100
AcDbEntity
  8
cotas
 62
   253
420
 11382189
100
AcDbMText
 10
-101.4105197229113
 20
-56.83477374881214
 30
0.0
 40
3.451298621904306
 41
0.0
 71
     7
 72
     1
  1
\fArial|b0|i0|c0|p34;\W1;Ø47
 73
     1
 44
1.0
  0
ENDBLK
  5
6AD
330
6AA
100
AcDbEntity
  8
0
100
AcDbBlockEnd
  0
BLOCK
  5
6B1
330
6AF
100
AcDbEntity
  8
0
100
AcDbBlockBegin
  2
block 218
 70
     0
 71
     0
 10
0.0
 20
0.0
 30
0.0
  3
block 218
  1

  0
POLYLINE
  5
6B3
330
6AF
100
AcDbEntity
  8
cotas
 62
   253
420
 11382189
370
    30
100
AcDb2dPolyline
 66
     1
 10
0.0
 20
0.0
 30
0.0
  0
VERTEX
  5
6B4
330
6B3
100
AcDbEntity
  8
cotas
 62
   253
420
 11382189
370
    30
100
AcDbVertex
100
AcDb2dVertex
 10
-117.5478637401443
 20
-64.01366372097576
 30
0.0
  0
VERTEX
  5
6B5
330
6B3
100
AcDbEntity
  8
cotas
 62
   253
420
 11382189
370
    30
100
AcDbVertex
100
AcDb2dVertex
 10
-117.5478637401443
 20
-64.01366372097576
 30
0.0
  0
SEQEND
  5
6B6
330
6B3
100
AcDbEntity
  8
cotas
370
    30
  0
ENDBLK
  5
6B2
330
6AF
100
AcDbEntity
  8
0
100
AcDbBlockEnd
  0
BLOCK
  5
6B9
330
6B7
100
AcDbEntity
  8
0
100
AcDbBlockBegin
  2
block 219
 70
     0
 71
     0
 10
0.0
 20
0.0
 30
0.0
  3
block 219
  1

  0
POLYLINE
  5
6BB
330
6B7
100
AcDbEntity
  8
cotas
 62
   253
420
 11382189
370
    30
100
AcDb2dPolyline
 66
     1
 10
0.0
 20
0.0
 30
0.0
  0
VERTEX
  5
6BC
330
6BB
100
AcDbEntity
  8
cotas
 62
   253
420
 11382189
370
    30
100
AcDbVertex
100
AcDb2dVertex
 10
-105.5322319614642
 20
-64.01366372097576
 30
0.0
  0
VERTEX
  5
6BD
330
6BB
100
AcDbEntity
  8
cotas
 62
   253
420
 11382189
370
    30
100
AcDbVertex
100
AcDb2dVertex
 10
-105.5322319614642
 20
-64.01366372097576
 30
0.0
  0
SEQEND
  5
6BE
330
6BB
100
AcDbEntity
  8
cotas
370
    30
  0
ENDBLK
  5
6BA
330
6B7
100
AcDbEntity
  8
0
100
AcDbBlockEnd
  0
BLOCK
  5
6C1
330
6BF
100
AcDbEntity
  8
0
100
AcDbBlockBegin
  2
block 220
 70
     0
 71
     0
 10
0.0
 20
0.0
 30
0.0
  3
block 220
  1

  0
POLYLINE
  5
6C3
330
6BF
100
AcDbEntity
  8
cotas
 62
   253
420
 11382189
370
    30
100
AcDb2dPolyline
 66
     1
 10
0.0
 20
0.0
 30
0.0
  0
VERTEX
  5
6C4
330
6C3
100
AcDbEntity
  8
cotas
 62
   253
420
 11382189
370
    30
100
AcDbVertex
100
AcDb2dVertex
 10
-105.5322319614642
 20
-55.11670463031805
 30
0.0
  0
VERTEX
  5
6C5
330
6C3
100
AcDbEntity
  8
cotas
 62
   253
420
 11382189
370
    30
100
AcDbVertex
100
AcDb2dVertex
 10
-105.5322319614642
 20
-55.11670463031805
 30
0.0
  0
SEQEND
  5
6C6
330
6C3
100
AcDbEntity
  8
cotas
370
    30
  0
ENDBLK
  5
6C2
330
6BF
100
AcDbEntity
  8
0
100
AcDbBlockEnd
  0
BLOCK
  5
6C9
330
6C7
100
AcDbEntity
  8
0
100
AcDbBlockBegin
  2
block 221
 70
     0
 71
     0
 10
0.0
 20
0.0
 30
0.0
  3
block 221
  1

  0
INSERT
  5
6CC
330
6C7
100
AcDbEntity
  8
cotas
100
AcDbBlockReference
  2
block 222
 10
0.0
 20
0.0
 30
0.0
  0
INSERT
  5
6D4
330
6C7
100
AcDbEntity
  8
cotas
100
AcDbBlockReference
  2
block 223
 10
0.0
 20
0.0
 30
0.0
  0
INSERT
  5
6DC
330
6C7
100
AcDbEntity
  8
cotas
100
AcDbBlockReference
  2
block 224
 10
0.0
 20
0.0
 30
0.0
  0
INSERT
  5
6E4
330
6C7
100
AcDbEntity
  8
cotas
100
AcDbBlockReference
  2
block 225
 10
0.0
 20
0.0
 30
0.0
  0
INSERT
  5
6EC
330
6C7
100
AcDbEntity
  8
cotas
100
AcDbBlockReference
  2
block 226
 10
0.0
 20
0.0
 30
0.0
  0
INSERT
  5
6F4
330
6C7
100
AcDbEntity
  8
cotas
100
AcDbBlockReference
  2
block 227
 10
0.0
 20
0.0
 30
0.0
  0
INSERT
  5
6FF
330
6C7
100
AcDbEntity
  8
cotas
100
AcDbBlockReference
  2
block 228
 10
0.0
 20
0.0
 30
0.0
  0
INSERT
  5
70A
330
6C7
100
AcDbEntity
  8
cotas
100
AcDbBlockReference
  2
block 229
 10
0.0
 20
0.0
 30
0.0
  0
INSERT
  5
70F
330
6C7
100
AcDbEntity
  8
cotas
100
AcDbBlockReference
  2
block 230
 10
0.0
 20
0.0
 30
0.0
  0
INSERT
  5
717
330
6C7
100
AcDbEntity
  8
cotas
100
AcDbBlockReference
  2
block 231
 10
0.0
 20
0.0
 30
0.0
  0
INSERT
  5
71F
330
6C7
100
AcDbEntity
  8
cotas
100
AcDbBlockReference
  2
block 232
 10
0.0
 20
0.0
 30
0.0
  0
ENDBLK
  5
6CA
330
6C7
100
AcDbEntity
  8
0
100
AcDbBlockEnd
  0
BLOCK
  5
6CD
330
6CB
100
AcDbEntity
  8
0
100
AcDbBlockBegin
  2
block 222
 70
     0
 71
     0
 10
0.0
 20
0.0
 30
0.0
  3
block 222
  1

  0
POLYLINE
  5
6CF
330
6CB
100
AcDbEntity
  8
cotas
 62
   253
420
 11382189
370
    30
100
AcDb2dPolyline
 66
     1
 10
0.0
 20
0.0
 30
0.0
  0
VERTEX
  5
6D0
330
6CF
100
AcDbEntity
  8
cotas
 62
   253
420
 11382189
370
    30
100
AcDbVertex
100
AcDb2dVertex
 10
-115.0872042898046
 20
-80.64520668556787
 30
0.0
  0
VERTEX
  5
6D1
330
6CF
100
AcDbEntity
  8
cotas
 62
   253
420
 11382189
370
    30
100
AcDbVertex
100
AcDb2dVertex
 10
-115.0872042898046
 20
-83.6145344843047
 30
0.0
  0
SEQEND
  5
6D2
330
6CF
100
AcDbEntity
  8
cotas
370
    30
  0
ENDBLK
  5
6CE
330
6CB
100
AcDbEntity
  8
0
100
AcDbBlockEnd
  0
BLOCK
  5
6D5
330
6D3
100
AcDbEntity
  8
0
100
AcDbBlockBegin
  2
block 223
 70
     0
 71
     0
 10
0.0
 20
0.0
 30
0.0
  3
block 223
  1

  0
POLYLINE
  5
6D7
330
6D3
100
AcDbEntity
  8
cotas
 62
   253
420
 11382189
370
    30
100
AcDb2dPolyline
 66
     1
 10
0.0
 20
0.0
 30
0.0
  0
VERTEX
  5
6D8
330
6D7
100
AcDbEntity
  8
cotas
 62
   253
420
 11382189
370
    30
100
AcDbVertex
100
AcDb2dVertex
 10
-113.062349418349
 20
-80.64520668556787
 30
0.0
  0
VERTEX
  5
6D9
330
6D7
100
AcDbEntity
  8
cotas
 62
   253
420
 11382189
370
    30
100
AcDbVertex
100
AcDb2dVertex
 10
-113.062349418349
 20
-83.6145344843047
 30
0.0
  0
SEQEND
  5
6DA
330
6D7
100
AcDbEntity
  8
cotas
370
    30
  0
ENDBLK
  5
6D6
330
6D3
100
AcDbEntity
  8
0
100
AcDbBlockEnd
  0
BLOCK
  5
6DD
330
6DB
100
AcDbEntity
  8
0
100
AcDbBlockBegin
  2
block 224
 70
     0
 71
     0
 10
0.0
 20
0.0
 30
0.0
  3
block 224
  1

  0
POLYLINE
  5
6DF
330
6DB
100
AcDbEntity
  8
cotas
 62
   253
420
 11382189
370
    30
100
AcDb2dPolyline
 66
     1
 10
0.0
 20
0.0
 30
0.0
  0
VERTEX
  5
6E0
330
6DF
100
AcDbEntity
  8
cotas
 62
   253
420
 11382189
370
    30
100
AcDbVertex
100
AcDb2dVertex
 10
-116.6976141743846
 20
-82.46421710177978
 30
0.0
  0
VERTEX
  5
6E1
330
6DF
100
AcDbEntity
  8
cotas
 62
   253
420
 11382189
370
    30
100
AcDbVertex
100
AcDb2dVertex
 10
-118.3081963137389
 20
-82.46421710177978
 30
0.0
  0
SEQEND
  5
6E2
330
6DF
100
AcDbEntity
  8
cotas
370
    30
  0
ENDBLK
  5
6DE
330
6DB
100
AcDbEntity
  8
0
100
AcDbBlockEnd
  0
BLOCK
  5
6E5
330
6E3
100
AcDbEntity
  8
0
100
AcDbBlockBegin
  2
block 225
 70
     0
 71
     0
 10
0.0
 20
0.0
 30
0.0
  3
block 225
  1

  0
POLYLINE
  5
6E7
330
6E3
100
AcDbEntity
  8
cotas
 62
   253
420
 11382189
370
    30
100
AcDb2dPolyline
 66
     1
 10
0.0
 20
0.0
 30
0.0
  0
VERTEX
  5
6E8
330
6E7
100
AcDbEntity
  8
cotas
 62
   253
420
 11382189
370
    30
100
AcDbVertex
100
AcDb2dVertex
 10
-111.4517672789947
 20
-82.46421710177978
 30
0.0
  0
VERTEX
  5
6E9
330
6E7
100
AcDbEntity
  8
cotas
 62
   253
420
 11382189
370
    30
100
AcDbVertex
100
AcDb2dVertex
 10
-102.5417168254931
 20
-82.46421710177978
 30
0.0
  0
SEQEND
  5
6EA
330
6E7
100
AcDbEntity
  8
cotas
370
    30
  0
ENDBLK
  5
6E6
330
6E3
100
AcDbEntity
  8
0
100
AcDbBlockEnd
  0
BLOCK
  5
6ED
330
6EB
100
AcDbEntity
  8
0
100
AcDbBlockBegin
  2
block 226
 70
     0
 71
     0
 10
0.0
 20
0.0
 30
0.0
  3
block 226
  1

  0
POLYLINE
  5
6EF
330
6EB
100
AcDbEntity
  8
cotas
 62
   253
420
 11382189
370
    30
100
AcDb2dPolyline
 66
     1
 10
0.0
 20
0.0
 30
0.0
  0
VERTEX
  5
6F0
330
6EF
100
AcDbEntity
  8
cotas
 62
   253
420
 11382189
370
    30
100
AcDbVertex
100
AcDb2dVertex
 10
-115.0872042898046
 20
-82.46421710177978
 30
0.0
  0
VERTEX
  5
6F1
330
6EF
100
AcDbEntity
  8
cotas
 62
   253
420
 11382189
370
    30
100
AcDbVertex
100
AcDb2dVertex
 10
-113.062349418349
 20
-82.46421710177978
 30
0.0
  0
SEQEND
  5
6F2
330
6EF
100
AcDbEntity
  8
cotas
370
    30
  0
ENDBLK
  5
6EE
330
6EB
100
AcDbEntity
  8
0
100
AcDbBlockEnd
  0
BLOCK
  5
6F5
330
6F3
100
AcDbEntity
  8
0
100
AcDbBlockBegin
  2
block 227
 70
     0
 71
     0
 10
0.0
 20
0.0
 30
0.0
  3
block 227
  1

  0
POLYLINE
  5
6F7
330
6F3
100
AcDbEntity
  8
cotas
370
     0
100
AcDb2dPolyline
 66
     1
 10
0.0
 20
0.0
 30
0.0
  0
VERTEX
  5
6F8
330
6F7
100
AcDbEntity
  8
cotas
370
     0
100
AcDbVertex
100
AcDb2dVertex
 10
-116.6976141743846
 20
-82.19618867302735
 30
0.0
  0
VERTEX
  5
6F9
330
6F7
100
AcDbEntity
  8
cotas
370
     0
100
AcDbVertex
100
AcDb2dVertex
 10
-116.6976141743846
 20
-82.73259004008075
 30
0.0
  0
VERTEX
  5
6FA
330
6F7
100
AcDbEntity
  8
cotas
370
     0
100
AcDbVertex
100
AcDb2dVertex
 10
-115.0872042898046
 20
-82.46421710177978
 30
0.0
  0
VERTEX
  5
6FB
330
6F7
100
AcDbEntity
  8
cotas
370
     0
100
AcDbVertex
100
AcDb2dVertex
 10
-116.6976141743846
 20
-82.19618867302735
 30
0.0
  0
SEQEND
  5
6FC
330
6F7
100
AcDbEntity
  8
cotas
370
     0
  0
HATCH
  5
6FD
330
6F3
100
AcDbEntity
  8
cotas
 62
   253
420
 11382189
100
AcDbHatch
 10
0.0
 20
0.0
 30
0.0
210
0.0
220
0.0
230
1.0
  2
SOLID
 70
     1
 71
     0
 91
        1
 92
        1
 93
        3
 72
     1
 10
-116.6976141743846
 20
-82.19618867302735
 11
-116.6976141743846
 21
-82.73259004008075
 72
     1
 10
-116.6976141743846
 20
-82.73259004008075
 11
-115.0872042898046
 21
-82.46421710177978
 72
     1
 10
-115.0872042898046
 20
-82.46421710177978
 11
-116.6976141743846
 21
-82.19618867302735
 97
        0
 75
     2
 76
     1
 98
        0
  0
ENDBLK
  5
6F6
330
6F3
100
AcDbEntity
  8
0
100
AcDbBlockEnd
  0
BLOCK
  5
700
330
6FE
100
AcDbEntity
  8
0
100
AcDbBlockBegin
  2
block 228
 70
     0
 71
     0
 10
0.0
 20
0.0
 30
0.0
  3
block 228
  1

  0
POLYLINE
  5
702
330
6FE
100
AcDbEntity
  8
cotas
370
     0
100
AcDb2dPolyline
 66
     1
 10
0.0
 20
0.0
 30
0.0
  0
VERTEX
  5
703
330
702
100
AcDbEntity
  8
cotas
370
     0
100
AcDbVertex
100
AcDb2dVertex
 10
-111.4517672789947
 20
-82.19618867302735
 30
0.0
  0
VERTEX
  5
704
330
702
100
AcDbEntity
  8
cotas
370
     0
100
AcDbVertex
100
AcDb2dVertex
 10
-111.4517672789947
 20
-82.73259004008075
 30
0.0
  0
VERTEX
  5
705
330
702
100
AcDbEntity
  8
cotas
370
     0
100
AcDbVertex
100
AcDb2dVertex
 10
-113.062349418349
 20
-82.46421710177978
 30
0.0
  0
VERTEX
  5
706
330
702
100
AcDbEntity
  8
cotas
370
     0
100
AcDbVertex
100
AcDb2dVertex
 10
-111.4517672789947
 20
-82.19618867302735
 30
0.0
  0
SEQEND
  5
707
330
702
100
AcDbEntity
  8
cotas
370
     0
  0
HATCH
  5
708
330
6FE
100
AcDbEntity
  8
cotas
 62
   253
420
 11382189
100
AcDbHatch
 10
0.0
 20
0.0
 30
0.0
210
0.0
220
0.0
230
1.0
  2
SOLID
 70
     1
 71
     0
 91
        1
 92
        1
 93
        3
 72
     1
 10
-111.4517672789947
 20
-82.19618867302735
 11
-111.4517672789947
 21
-82.73259004008075
 72
     1
 10
-111.4517672789947
 20
-82.73259004008075
 11
-113.062349418349
 21
-82.46421710177978
 72
     1
 10
-113.062349418349
 20
-82.46421710177978
 11
-111.4517672789947
 21
-82.19618867302735
 97
        0
 75
     2
 76
     1
 98
        0
  0
ENDBLK
  5
701
330
6FE
100
AcDbEntity
  8
0
100
AcDbBlockEnd
  0
BLOCK
  5
70B
330
709
100
AcDbEntity
  8
0
100
AcDbBlockBegin
  2
block 229
 70
     0
 71
     0
 10
0.0
 20
0.0
 30
0.0
  3
block 229
  1

  0
MTEXT
  5
70D
330
709
100
AcDbEntity
  8
cotas
 62
   253
420
 11382189
100
AcDbMText
 10
-101.7412488894953
 20
-84.16678329059025
 30
0.0
 40
3.451298621904306
 41
0.0
 71
     7
 72
     1
  1
\fArial|b0|i0|c0|p34;\W1;M8x1.25
 73
     1
 44
1.0
  0
ENDBLK
  5
70C
330
709
100
AcDbEntity
  8
0
100
AcDbBlockEnd
  0
BLOCK
  5
710
330
70E
100
AcDbEntity
  8
0
100
AcDbBlockBegin
  2
block 230
 70
     0
 71
     0
 10
0.0
 20
0.0
 30
0.0
  3
block 230
  1

  0
POLYLINE
  5
712
330
70E
100
AcDbEntity
  8
cotas
 62
   253
420
 11382189
370
    30
100
AcDb2dPolyline
 66
     1
 10
0.0
 20
0.0
 30
0.0
  0
VERTEX
  5
713
330
712
100
AcDbEntity
  8
cotas
 62
   253
420
 11382189
370
    30
100
AcDbVertex
100
AcDb2dVertex
 10
-115.0872042898046
 20
-78.34457192051802
 30
0.0
  0
VERTEX
  5
714
330
712
100
AcDbEntity
  8
cotas
 62
   253
420
 11382189
370
    30
100
AcDbVertex
100
AcDb2dVertex
 10
-115.0872042898046
 20
-78.34457192051802
 30
0.0
  0
SEQEND
  5
715
330
712
100
AcDbEntity
  8
cotas
370
    30
  0
ENDBLK
  5
711
330
70E
100
AcDbEntity
  8
0
100
AcDbBlockEnd
  0
BLOCK
  5
718
330
716
100
AcDbEntity
  8
0
100
AcDbBlockBegin
  2
block 231
 70
     0
 71
     0
 10
0.0
 20
0.0
 30
0.0
  3
block 231
  1

  0
POLYLINE
  5
71A
330
716
100
AcDbEntity
  8
cotas
 62
   253
420
 11382189
370
    30
100
AcDb2dPolyline
 66
     1
 10
0.0
 20
0.0
 30
0.0
  0
VERTEX
  5
71B
330
71A
100
AcDbEntity
  8
cotas
 62
   253
420
 11382189
370
    30
100
AcDbVertex
100
AcDb2dVertex
 10
-113.062349418349
 20
-78.34457192051802
 30
0.0
  0
VERTEX
  5
71C
330
71A
100
AcDbEntity
  8
cotas
 62
   253
420
 11382189
370
    30
100
AcDbVertex
100
AcDb2dVertex
 10
-113.062349418349
 20
-78.34457192051802
 30
0.0
  0
SEQEND
  5
71D
330
71A
100
AcDbEntity
  8
cotas
370
    30
  0
ENDBLK
  5
719
330
716
100
AcDbEntity
  8
0
100
AcDbBlockEnd
  0
BLOCK
  5
720
330
71E
100
AcDbEntity
  8
0
100
AcDbBlockBegin
  2
block 232
 70
     0
 71
     0
 10
0.0
 20
0.0
 30
0.0
  3
block 232
  1

  0
POLYLINE
  5
722
330
71E
100
AcDbEntity
  8
cotas
 62
   253
420
 11382189
370
    30
100
AcDb2dPolyline
 66
     1
 10
0.0
 20
0.0
 30
0.0
  0
VERTEX
  5
723
330
722
100
AcDbEntity
  8
cotas
 62
   253
420
 11382189
370
    30
100
AcDbVertex
100
AcDb2dVertex
 10
-113.062349418349
 20
-82.46421710177978
 30
0.0
  0
VERTEX
  5
724
330
722
100
AcDbEntity
  8
cotas
 62
   253
420
 11382189
370
    30
100
AcDbVertex
100
AcDb2dVertex
 10
-113.062349418349
 20
-82.46421710177978
 30
0.0
  0
SEQEND
  5
725
330
722
100
AcDbEntity
  8
cotas
370
    30
  0
ENDBLK
  5
721
330
71E
100
AcDbEntity
  8
0
100
AcDbBlockEnd
  0
BLOCK
  5
728
330
726
100
AcDbEntity
  8
0
100
AcDbBlockBegin
  2
block 233
 70
     0
 71
     0
 10
0.0
 20
0.0
 30
0.0
  3
block 233
  1

  0
INSERT
  5
72B
330
726
100
AcDbEntity
  8
cotas
100
AcDbBlockReference
  2
block 234
 10
0.0
 20
0.0
 30
0.0
  0
INSERT
  5
733
330
726
100
AcDbEntity
  8
cotas
100
AcDbBlockReference
  2
block 235
 10
0.0
 20
0.0
 30
0.0
  0
INSERT
  5
73B
330
726
100
AcDbEntity
  8
cotas
100
AcDbBlockReference
  2
block 236
 10
0.0
 20
0.0
 30
0.0
  0
INSERT
  5
743
330
726
100
AcDbEntity
  8
cotas
100
AcDbBlockReference
  2
block 237
 10
0.0
 20
0.0
 30
0.0
  0
INSERT
  5
74B
330
726
100
AcDbEntity
  8
cotas
100
AcDbBlockReference
  2
block 238
 10
0.0
 20
0.0
 30
0.0
  0
INSERT
  5
753
330
726
100
AcDbEntity
  8
cotas
100
AcDbBlockReference
  2
block 239
 10
0.0
 20
0.0
 30
0.0
  0
INSERT
  5
75E
330
726
100
AcDbEntity
  8
cotas
100
AcDbBlockReference
  2
block 240
 10
0.0
 20
0.0
 30
0.0
  0
INSERT
  5
769
330
726
100
AcDbEntity
  8
cotas
100
AcDbBlockReference
  2
block 241
 10
0.0
 20
0.0
 30
0.0
  0
INSERT
  5
76E
330
726
100
AcDbEntity
  8
cotas
100
AcDbBlockReference
  2
block 242
 10
0.0
 20
0.0
 30
0.0
  0
INSERT
  5
776
330
726
100
AcDbEntity
  8
cotas
100
AcDbBlockReference
  2
block 243
 10
0.0
 20
0.0
 30
0.0
  0
INSERT
  5
77E
330
726
100
AcDbEntity
  8
cotas
100
AcDbBlockReference
  2
block 244
 10
0.0
 20
0.0
 30
0.0
  0
ENDBLK
  5
729
330
726
100
AcDbEntity
  8
0
100
AcDbBlockEnd
  0
BLOCK
  5
72C
330
72A
100
AcDbEntity
  8
0
100
AcDbBlockBegin
  2
block 234
 70
     0
 71
     0
 10
0.0
 20
0.0
 30
0.0
  3
block 234
  1

  0
POLYLINE
  5
72E
330
72A
100
AcDbEntity
  8
cotas
 62
   253
420
 11382189
370
    30
100
AcDb2dPolyline
 66
     1
 10
0.0
 20
0.0
 30
0.0
  0
VERTEX
  5
72F
330
72E
100
AcDbEntity
  8
cotas
 62
   253
420
 11382189
370
    30
100
AcDbVertex
100
AcDb2dVertex
 10
-111.9974704038583
 20
-93.75999617881695
 30
0.0
  0
VERTEX
  5
730
330
72E
100
AcDbEntity
  8
cotas
 62
   253
420
 11382189
370
    30
100
AcDbVertex
100
AcDb2dVertex
 10
-111.9974704038583
 20
-97.84036727154685
 30
0.0
  0
SEQEND
  5
731
330
72E
100
AcDbEntity
  8
cotas
370
    30
  0
ENDBLK
  5
72D
330
72A
100
AcDbEntity
  8
0
100
AcDbBlockEnd
  0
BLOCK
  5
734
330
732
100
AcDbEntity
  8
0
100
AcDbBlockBegin
  2
block 235
 70
     0
 71
     0
 10
0.0
 20
0.0
 30
0.0
  3
block 235
  1

  0
POLYLINE
  5
736
330
732
100
AcDbEntity
  8
cotas
 62
   253
420
 11382189
370
    30
100
AcDb2dPolyline
 66
     1
 10
0.0
 20
0.0
 30
0.0
  0
VERTEX
  5
737
330
736
100
AcDbEntity
  8
cotas
 62
   253
420
 11382189
370
    30
100
AcDbVertex
100
AcDb2dVertex
 10
-108.843485487112
 20
-93.75999617881695
 30
0.0
  0
VERTEX
  5
738
330
736
100
AcDbEntity
  8
cotas
 62
   253
420
 11382189
370
    30
100
AcDbVertex
100
AcDb2dVertex
 10
-108.843485487112
 20
-97.84036727154685
 30
0.0
  0
SEQEND
  5
739
330
736
100
AcDbEntity
  8
cotas
370
    30
  0
ENDBLK
  5
735
330
732
100
AcDbEntity
  8
0
100
AcDbBlockEnd
  0
BLOCK
  5
73C
330
73A
100
AcDbEntity
  8
0
100
AcDbBlockBegin
  2
block 236
 70
     0
 71
     0
 10
0.0
 20
0.0
 30
0.0
  3
block 236
  1

  0
POLYLINE
  5
73E
330
73A
100
AcDbEntity
  8
cotas
 62
   253
420
 11382189
370
    30
100
AcDb2dPolyline
 66
     1
 10
0.0
 20
0.0
 30
0.0
  0
VERTEX
  5
73F
330
73E
100
AcDbEntity
  8
cotas
 62
   253
420
 11382189
370
    30
100
AcDbVertex
100
AcDb2dVertex
 10
-113.6078802884383
 20
-96.69039439857046
 30
0.0
  0
VERTEX
  5
740
330
73E
100
AcDbEntity
  8
cotas
 62
   253
420
 11382189
370
    30
100
AcDbVertex
100
AcDb2dVertex
 10
-115.2182901730183
 20
-96.69039439857046
 30
0.0
  0
SEQEND
  5
741
330
73E
100
AcDbEntity
  8
cotas
370
    30
  0
ENDBLK
  5
73D
330
73A
100
AcDbEntity
  8
0
100
AcDbBlockEnd
  0
BLOCK
  5
744
330
742
100
AcDbEntity
  8
0
100
AcDbBlockBegin
  2
block 237
 70
     0
 71
     0
 10
0.0
 20
0.0
 30
0.0
  3
block 237
  1

  0
POLYLINE
  5
746
330
742
100
AcDbEntity
  8
cotas
 62
   253
420
 11382189
370
    30
100
AcDb2dPolyline
 66
     1
 10
0.0
 20
0.0
 30
0.0
  0
VERTEX
  5
747
330
746
100
AcDbEntity
  8
cotas
 62
   253
420
 11382189
370
    30
100
AcDbVertex
100
AcDb2dVertex
 10
-107.233075602532
 20
-96.69039439857046
 30
0.0
  0
VERTEX
  5
748
330
746
100
AcDbEntity
  8
cotas
 62
   253
420
 11382189
370
    30
100
AcDbVertex
100
AcDb2dVertex
 10
-102.2740329062891
 20
-96.69039439857046
 30
0.0
  0
SEQEND
  5
749
330
746
100
AcDbEntity
  8
cotas
370
    30
  0
ENDBLK
  5
745
330
742
100
AcDbEntity
  8
0
100
AcDbBlockEnd
  0
BLOCK
  5
74C
330
74A
100
AcDbEntity
  8
0
100
AcDbBlockBegin
  2
block 238
 70
     0
 71
     0
 10
0.0
 20
0.0
 30
0.0
  3
block 238
  1

  0
POLYLINE
  5
74E
330
74A
100
AcDbEntity
  8
cotas
 62
   253
420
 11382189
370
    30
100
AcDb2dPolyline
 66
     1
 10
0.0
 20
0.0
 30
0.0
  0
VERTEX
  5
74F
330
74E
100
AcDbEntity
  8
cotas
 62
   253
420
 11382189
370
    30
100
AcDbVertex
100
AcDb2dVertex
 10
-111.9974704038583
 20
-96.69039439857046
 30
0.0
  0
VERTEX
  5
750
330
74E
100
AcDbEntity
  8
cotas
 62
   253
420
 11382189
370
    30
100
AcDbVertex
100
AcDb2dVertex
 10
-108.843485487112
 20
-96.69039439857046
 30
0.0
  0
SEQEND
  5
751
330
74E
100
AcDbEntity
  8
cotas
370
    30
  0
ENDBLK
  5
74D
330
74A
100
AcDbEntity
  8
0
100
AcDbBlockEnd
  0
BLOCK
  5
754
330
752
100
AcDbEntity
  8
0
100
AcDbBlockBegin
  2
block 239
 70
     0
 71
     0
 10
0.0
 20
0.0
 30
0.0
  3
block 239
  1

  0
POLYLINE
  5
756
330
752
100
AcDbEntity
  8
cotas
370
     0
100
AcDb2dPolyline
 66
     1
 10
0.0
 20
0.0
 30
0.0
  0
VERTEX
  5
757
330
756
100
AcDbEntity
  8
cotas
370
     0
100
AcDbVertex
100
AcDb2dVertex
 10
-113.6078802884383
 20
-96.42098793162393
 30
0.0
  0
VERTEX
  5
758
330
756
100
AcDbEntity
  8
cotas
370
     0
100
AcDbVertex
100
AcDb2dVertex
 10
-113.6078802884383
 20
-96.95876733687142
 30
0.0
  0
VERTEX
  5
759
330
756
100
AcDbEntity
  8
cotas
370
     0
100
AcDbVertex
100
AcDb2dVertex
 10
-111.9974704038583
 20
-96.69039439857046
 30
0.0
  0
VERTEX
  5
75A
330
756
100
AcDbEntity
  8
cotas
370
     0
100
AcDbVertex
100
AcDb2dVertex
 10
-113.6078802884383
 20
-96.42098793162393
 30
0.0
  0
SEQEND
  5
75B
330
756
100
AcDbEntity
  8
cotas
370
     0
  0
HATCH
  5
75C
330
752
100
AcDbEntity
  8
cotas
 62
   253
420
 11382189
100
AcDbHatch
 10
0.0
 20
0.0
 30
0.0
210
0.0
220
0.0
230
1.0
  2
SOLID
 70
     1
 71
     0
 91
        1
 92
        1
 93
        3
 72
     1
 10
-113.6078802884383
 20
-96.42098793162393
 11
-113.6078802884383
 21
-96.95876733687142
 72
     1
 10
-113.6078802884383
 20
-96.95876733687142
 11
-111.9974704038583
 21
-96.69039439857046
 72
     1
 10
-111.9974704038583
 20
-96.69039439857046
 11
-113.6078802884383
 21
-96.42098793162393
 97
        0
 75
     2
 76
     1
 98
        0
  0
ENDBLK
  5
755
330
752
100
AcDbEntity
  8
0
100
AcDbBlockEnd
  0
BLOCK
  5
75F
330
75D
100
AcDbEntity
  8
0
100
AcDbBlockBegin
  2
block 240
 70
     0
 71
     0
 10
0.0
 20
0.0
 30
0.0
  3
block 240
  1

  0
POLYLINE
  5
761
330
75D
100
AcDbEntity
  8
cotas
370
     0
100
AcDb2dPolyline
 66
     1
 10
0.0
 20
0.0
 30
0.0
  0
VERTEX
  5
762
330
761
100
AcDbEntity
  8
cotas
370
     0
100
AcDbVertex
100
AcDb2dVertex
 10
-107.233075602532
 20
-96.42098793162393
 30
0.0
  0
VERTEX
  5
763
330
761
100
AcDbEntity
  8
cotas
370
     0
100
AcDbVertex
100
AcDb2dVertex
 10
-107.233075602532
 20
-96.95876733687142
 30
0.0
  0
VERTEX
  5
764
330
761
100
AcDbEntity
  8
cotas
370
     0
100
AcDbVertex
100
AcDb2dVertex
 10
-108.843485487112
 20
-96.69039439857046
 30
0.0
  0
VERTEX
  5
765
330
761
100
AcDbEntity
  8
cotas
370
     0
100
AcDbVertex
100
AcDb2dVertex
 10
-107.233075602532
 20
-96.42098793162393
 30
0.0
  0
SEQEND
  5
766
330
761
100
AcDbEntity
  8
cotas
370
     0
  0
HATCH
  5
767
330
75D
100
AcDbEntity
  8
cotas
 62
   253
420
 11382189
100
AcDbHatch
 10
0.0
 20
0.0
 30
0.0
210
0.0
220
0.0
230
1.0
  2
SOLID
 70
     1
 71
     0
 91
        1
 92
        1
 93
        3
 72
     1
 10
-107.233075602532
 20
-96.42098793162393
 11
-107.233075602532
 21
-96.95876733687142
 72
     1
 10
-107.233075602532
 20
-96.95876733687142
 11
-108.843485487112
 21
-96.69039439857046
 72
     1
 10
-108.843485487112
 20
-96.69039439857046
 11
-107.233075602532
 21
-96.42098793162393
 97
        0
 75
     2
 76
     1
 98
        0
  0
ENDBLK
  5
760
330
75D
100
AcDbEntity
  8
0
100
AcDbBlockEnd
  0
BLOCK
  5
76A
330
768
100
AcDbEntity
  8
0
100
AcDbBlockBegin
  2
block 241
 70
     0
 71
     0
 10
0.0
 20
0.0
 30
0.0
  3
block 241
  1

  0
MTEXT
  5
76C
330
768
100
AcDbEntity
  8
cotas
 62
   253
420
 11382189
100
AcDbMText
 10
-101.496991619591
 20
-98.41432017938948
 30
0.0
 40
3.451298621904306
 41
0.0
 71
     7
 72
     1
  1
\fArial|b0|i0|c0|p34;\W1;R3/8"
 73
     1
 44
1.0
  0
ENDBLK
  5
76B
330
768
100
AcDbEntity
  8
0
100
AcDbBlockEnd
  0
BLOCK
  5
76F
330
76D
100
AcDbEntity
  8
0
100
AcDbBlockBegin
  2
block 242
 70
     0
 71
     0
 10
0.0
 20
0.0
 30
0.0
  3
block 242
  1

  0
POLYLINE
  5
771
330
76D
100
AcDbEntity
  8
cotas
 62
   253
420
 11382189
370
    30
100
AcDb2dPolyline
 66
     1
 10
0.0
 20
0.0
 30
0.0
  0
VERTEX
  5
772
330
771
100
AcDbEntity
  8
cotas
 62
   253
420
 11382189
370
    30
100
AcDbVertex
100
AcDb2dVertex
 10
-111.9974704038583
 20
-92.61002330584056
 30
0.0
  0
VERTEX
  5
773
330
771
100
AcDbEntity
  8
cotas
 62
   253
420
 11382189
370
    30
100
AcDbVertex
100
AcDb2dVertex
 10
-111.9974704038583
 20
-92.61002330584056
 30
0.0
  0
SEQEND
  5
774
330
771
100
AcDbEntity
  8
cotas
370
    30
  0
ENDBLK
  5
770
330
76D
100
AcDbEntity
  8
0
100
AcDbBlockEnd
  0
BLOCK
  5
777
330
775
100
AcDbEntity
  8
0
100
AcDbBlockBegin
  2
block 243
 70
     0
 71
     0
 10
0.0
 20
0.0
 30
0.0
  3
block 243
  1

  0
POLYLINE
  5
779
330
775
100
AcDbEntity
  8
cotas
 62
   253
420
 11382189
370
    30
100
AcDb2dPolyline
 66
     1
 10
0.0
 20
0.0
 30
0.0
  0
VERTEX
  5
77A
330
779
100
AcDbEntity
  8
cotas
 62
   253
420
 11382189
370
    30
100
AcDbVertex
100
AcDb2dVertex
 10
-108.843485487112
 20
-92.61002330584056
 30
0.0
  0
VERTEX
  5
77B
330
779
100
AcDbEntity
  8
cotas
 62
   253
420
 11382189
370
    30
100
AcDbVertex
100
AcDb2dVertex
 10
-108.843485487112
 20
-92.61002330584056
 30
0.0
  0
SEQEND
  5
77C
330
779
100
AcDbEntity
  8
cotas
370
    30
  0
ENDBLK
  5
778
330
775
100
AcDbEntity
  8
0
100
AcDbBlockEnd
  0
BLOCK
  5
77F
330
77D
100
AcDbEntity
  8
0
100
AcDbBlockBegin
  2
block 244
 70
     0
 71
     0
 10
0.0
 20
0.0
 30
0.0
  3
block 244
  1

  0
POLYLINE
  5
781
330
77D
100
AcDbEntity
  8
cotas
 62
   253
420
 11382189
370
    30
100
AcDb2dPolyline
 66
     1
 10
0.0
 20
0.0
 30
0.0
  0
VERTEX
  5
782
330
781
100
AcDbEntity
  8
cotas
 62
   253
420
 11382189
370
    30
100
AcDbVertex
100
AcDb2dVertex
 10
-108.843485487112
 20
-96.69039439857046
 30
0.0
  0
VERTEX
  5
783
330
781
100
AcDbEntity
  8
cotas
 62
   253
420
 11382189
370
    30
100
AcDbVertex
100
AcDb2dVertex
 10
-108.843485487112
 20
-96.69039439857046
 30
0.0
  0
SEQEND
  5
784
330
781
100
AcDbEntity
  8
cotas
370
    30
  0
ENDBLK
  5
780
330
77D
100
AcDbEntity
  8
0
100
AcDbBlockEnd
  0
BLOCK
  5
787
330
785
100
AcDbEntity
  8
0
100
AcDbBlockBegin
  2
block 245
 70
     0
 71
     0
 10
0.0
 20
0.0
 30
0.0
  3
block 245
  1

  0
INSERT
  5
78A
330
785
100
AcDbEntity
  8
cotas
100
AcDbBlockReference
  2
block 246
 10
0.0
 20
0.0
 30
0.0
  0
INSERT
  5
792
330
785
100
AcDbEntity
  8
cotas
100
AcDbBlockReference
  2
block 247
 10
0.0
 20
0.0
 30
0.0
  0
INSERT
  5
79A
330
785
100
AcDbEntity
  8
cotas
100
AcDbBlockReference
  2
block 248
 10
0.0
 20
0.0
 30
0.0
  0
INSERT
  5
7A2
330
785
100
AcDbEntity
  8
cotas
100
AcDbBlockReference
  2
block 249
 10
0.0
 20
0.0
 30
0.0
  0
INSERT
  5
7AA
330
785
100
AcDbEntity
  8
cotas
100
AcDbBlockReference
  2
block 250
 10
0.0
 20
0.0
 30
0.0
  0
INSERT
  5
7B2
330
785
100
AcDbEntity
  8
cotas
100
AcDbBlockReference
  2
block 251
 10
0.0
 20
0.0
 30
0.0
  0
INSERT
  5
7BD
330
785
100
AcDbEntity
  8
cotas
100
AcDbBlockReference
  2
block 252
 10
0.0
 20
0.0
 30
0.0
  0
INSERT
  5
7C8
330
785
100
AcDbEntity
  8
cotas
100
AcDbBlockReference
  2
block 253
 10
0.0
 20
0.0
 30
0.0
  0
INSERT
  5
7CD
330
785
100
AcDbEntity
  8
cotas
100
AcDbBlockReference
  2
block 254
 10
0.0
 20
0.0
 30
0.0
  0
INSERT
  5
7D5
330
785
100
AcDbEntity
  8
cotas
100
AcDbBlockReference
  2
block 255
 10
0.0
 20
0.0
 30
0.0
  0
INSERT
  5
7DD
330
785
100
AcDbEntity
  8
cotas
100
AcDbBlockReference
  2
block 256
 10
0.0
 20
0.0
 30
0.0
  0
ENDBLK
  5
788
330
785
100
AcDbEntity
  8
0
100
AcDbBlockEnd
  0
BLOCK
  5
78B
330
789
100
AcDbEntity
  8
0
100
AcDbBlockBegin
  2
block 246
 70
     0
 71
     0
 10
0.0
 20
0.0
 30
0.0
  3
block 246
  1

  0
POLYLINE
  5
78D
330
789
100
AcDbEntity
  8
cotas
 62
   253
420
 11382189
370
    30
100
AcDb2dPolyline
 66
     1
 10
0.0
 20
0.0
 30
0.0
  0
VERTEX
  5
78E
330
78D
100
AcDbEntity
  8
cotas
 62
   253
420
 11382189
370
    30
100
AcDbVertex
100
AcDb2dVertex
 10
-103.2314249416401
 20
-64.78054197599236
 30
0.0
  0
VERTEX
  5
78F
330
78D
100
AcDbEntity
  8
cotas
 62
   253
420
 11382189
370
    30
100
AcDbVertex
100
AcDb2dVertex
 10
-98.15972762302951
 20
-64.78054197599236
 30
0.0
  0
SEQEND
  5
790
330
78D
100
AcDbEntity
  8
cotas
370
    30
  0
ENDBLK
  5
78C
330
789
100
AcDbEntity
  8
0
100
AcDbBlockEnd
  0
BLOCK
  5
793
330
791
100
AcDbEntity
  8
0
100
AcDbBlockBegin
  2
block 247
 70
     0
 71
     0
 10
0.0
 20
0.0
 30
0.0
  3
block 247
  1

  0
POLYLINE
  5
795
330
791
100
AcDbEntity
  8
cotas
 62
   253
420
 11382189
370
    30
100
AcDb2dPolyline
 66
     1
 10
0.0
 20
0.0
 30
0.0
  0
VERTEX
  5
796
330
795
100
AcDbEntity
  8
cotas
 62
   253
420
 11382189
370
    30
100
AcDbVertex
100
AcDb2dVertex
 10
-103.4670694728312
 20
-71.20254447004659
 30
0.0
  0
VERTEX
  5
797
330
795
100
AcDbEntity
  8
cotas
 62
   253
420
 11382189
370
    30
100
AcDbVertex
100
AcDb2dVertex
 10
-98.15972762302951
 20
-71.20254447004659
 30
0.0
  0
SEQEND
  5
798
330
795
100
AcDbEntity
  8
cotas
370
    30
  0
ENDBLK
  5
794
330
791
100
AcDbEntity
  8
0
100
AcDbBlockEnd
  0
BLOCK
  5
79B
330
799
100
AcDbEntity
  8
0
100
AcDbBlockBegin
  2
block 248
 70
     0
 71
     0
 10
0.0
 20
0.0
 30
0.0
  3
block 248
  1

  0
POLYLINE
  5
79D
330
799
100
AcDbEntity
  8
cotas
 62
   253
420
 11382189
370
    30
100
AcDb2dPolyline
 66
     1
 10
0.0
 20
0.0
 30
0.0
  0
VERTEX
  5
79E
330
79D
100
AcDbEntity
  8
cotas
 62
   253
420
 11382189
370
    30
100
AcDbVertex
100
AcDb2dVertex
 10
-99.3102172603287
 20
-63.17030434618659
 30
0.0
  0
VERTEX
  5
79F
330
79D
100
AcDbEntity
  8
cotas
 62
   253
420
 11382189
370
    30
100
AcDbVertex
100
AcDb2dVertex
 10
-99.3102172603287
 20
-61.55868867818672
 30
0.0
  0
SEQEND
  5
7A0
330
79D
100
AcDbEntity
  8
cotas
370
    30
  0
ENDBLK
  5
79C
330
799
100
AcDbEntity
  8
0
100
AcDbBlockEnd
  0
BLOCK
  5
7A3
330
7A1
100
AcDbEntity
  8
0
100
AcDbBlockBegin
  2
block 249
 70
     0
 71
     0
 10
0.0
 20
0.0
 30
0.0
  3
block 249
  1

  0
POLYLINE
  5
7A5
330
7A1
100
AcDbEntity
  8
cotas
 62
   253
420
 11382189
370
    30
100
AcDb2dPolyline
 66
     1
 10
0.0
 20
0.0
 30
0.0
  0
VERTEX
  5
7A6
330
7A5
100
AcDbEntity
  8
cotas
 62
   253
420
 11382189
370
    30
100
AcDbVertex
100
AcDb2dVertex
 10
-99.3102172603287
 20
-72.81347111894941
 30
0.0
  0
VERTEX
  5
7A7
330
7A5
100
AcDbEntity
  8
cotas
 62
   253
420
 11382189
370
    30
100
AcDbVertex
100
AcDb2dVertex
 10
-99.3102172603287
 20
-74.42336423920666
 30
0.0
  0
SEQEND
  5
7A8
330
7A5
100
AcDbEntity
  8
cotas
370
    30
  0
ENDBLK
  5
7A4
330
7A1
100
AcDbEntity
  8
0
100
AcDbBlockEnd
  0
BLOCK
  5
7AB
330
7A9
100
AcDbEntity
  8
0
100
AcDbBlockBegin
  2
block 250
 70
     0
 71
     0
 10
0.0
 20
0.0
 30
0.0
  3
block 250
  1

  0
POLYLINE
  5
7AD
330
7A9
100
AcDbEntity
  8
cotas
 62
   253
420
 11382189
370
    30
100
AcDb2dPolyline
 66
     1
 10
0.0
 20
0.0
 30
0.0
  0
VERTEX
  5
7AE
330
7AD
100
AcDbEntity
  8
cotas
 62
   253
420
 11382189
370
    30
100
AcDbVertex
100
AcDb2dVertex
 10
-99.3102172603287
 20
-64.78054197599236
 30
0.0
  0
VERTEX
  5
7AF
330
7AD
100
AcDbEntity
  8
cotas
 62
   253
420
 11382189
370
    30
100
AcDbVertex
100
AcDb2dVertex
 10
-99.3102172603287
 20
-71.20254447004659
 30
0.0
  0
SEQEND
  5
7B0
330
7AD
100
AcDbEntity
  8
cotas
370
    30
  0
ENDBLK
  5
7AC
330
7A9
100
AcDbEntity
  8
0
100
AcDbBlockEnd
  0
BLOCK
  5
7B3
330
7B1
100
AcDbEntity
  8
0
100
AcDbBlockBegin
  2
block 251
 70
     0
 71
     0
 10
0.0
 20
0.0
 30
0.0
  3
block 251
  1

  0
POLYLINE
  5
7B5
330
7B1
100
AcDbEntity
  8
cotas
370
     0
100
AcDb2dPolyline
 66
     1
 10
0.0
 20
0.0
 30
0.0
  0
VERTEX
  5
7B6
330
7B5
100
AcDbEntity
  8
cotas
370
     0
100
AcDbVertex
100
AcDb2dVertex
 10
-99.5784179438554
 20
-63.17030434618659
 30
0.0
  0
VERTEX
  5
7B7
330
7B5
100
AcDbEntity
  8
cotas
370
     0
100
AcDbVertex
100
AcDb2dVertex
 10
-99.04149981247922
 20
-63.17030434618659
 30
0.0
  0
VERTEX
  5
7B8
330
7B5
100
AcDbEntity
  8
cotas
370
     0
100
AcDbVertex
100
AcDb2dVertex
 10
-99.3102172603287
 20
-64.78054197599236
 30
0.0
  0
VERTEX
  5
7B9
330
7B5
100
AcDbEntity
  8
cotas
370
     0
100
AcDbVertex
100
AcDb2dVertex
 10
-99.5784179438554
 20
-63.17030434618659
 30
0.0
  0
SEQEND
  5
7BA
330
7B5
100
AcDbEntity
  8
cotas
370
     0
  0
HATCH
  5
7BB
330
7B1
100
AcDbEntity
  8
cotas
 62
   253
420
 11382189
100
AcDbHatch
 10
0.0
 20
0.0
 30
0.0
210
0.0
220
0.0
230
1.0
  2
SOLID
 70
     1
 71
     0
 91
        1
 92
        1
 93
        3
 72
     1
 10
-99.5784179438554
 20
-63.17030434618659
 11
-99.04149981247922
 21
-63.17030434618659
 72
     1
 10
-99.04149981247922
 20
-63.17030434618659
 11
-99.3102172603287
 21
-64.78054197599236
 72
     1
 10
-99.3102172603287
 20
-64.78054197599236
 11
-99.5784179438554
 21
-63.17030434618659
 97
        0
 75
     2
 76
     1
 98
        0
  0
ENDBLK
  5
7B4
330
7B1
100
AcDbEntity
  8
0
100
AcDbBlockEnd
  0
BLOCK
  5
7BE
330
7BC
100
AcDbEntity
  8
0
100
AcDbBlockBegin
  2
block 252
 70
     0
 71
     0
 10
0.0
 20
0.0
 30
0.0
  3
block 252
  1

  0
POLYLINE
  5
7C0
330
7BC
100
AcDbEntity
  8
cotas
370
     0
100
AcDb2dPolyline
 66
     1
 10
0.0
 20
0.0
 30
0.0
  0
VERTEX
  5
7C1
330
7C0
100
AcDbEntity
  8
cotas
370
     0
100
AcDbVertex
100
AcDb2dVertex
 10
-99.5784179438554
 20
-72.81347111894941
 30
0.0
  0
VERTEX
  5
7C2
330
7C0
100
AcDbEntity
  8
cotas
370
     0
100
AcDbVertex
100
AcDb2dVertex
 10
-99.04149981247922
 20
-72.81347111894941
 30
0.0
  0
VERTEX
  5
7C3
330
7C0
100
AcDbEntity
  8
cotas
370
     0
100
AcDbVertex
100
AcDb2dVertex
 10
-99.3102172603287
 20
-71.20254447004659
 30
0.0
  0
VERTEX
  5
7C4
330
7C0
100
AcDbEntity
  8
cotas
370
     0
100
AcDbVertex
100
AcDb2dVertex
 10
-99.5784179438554
 20
-72.81347111894941
 30
0.0
  0
SEQEND
  5
7C5
330
7C0
100
AcDbEntity
  8
cotas
370
     0
  0
HATCH
  5
7C6
330
7BC
100
AcDbEntity
  8
cotas
 62
   253
420
 11382189
100
AcDbHatch
 10
0.0
 20
0.0
 30
0.0
210
0.0
220
0.0
230
1.0
  2
SOLID
 70
     1
 71
     0
 91
        1
 92
        1
 93
        3
 72
     1
 10
-99.5784179438554
 20
-72.81347111894941
 11
-99.04149981247922
 21
-72.81347111894941
 72
     1
 10
-99.04149981247922
 20
-72.81347111894941
 11
-99.3102172603287
 21
-71.20254447004659
 72
     1
 10
-99.3102172603287
 20
-71.20254447004659
 11
-99.5784179438554
 21
-72.81347111894941
 97
        0
 75
     2
 76
     1
 98
        0
  0
ENDBLK
  5
7BF
330
7BC
100
AcDbEntity
  8
0
100
AcDbBlockEnd
  0
BLOCK
  5
7C9
330
7C7
100
AcDbEntity
  8
0
100
AcDbBlockBegin
  2
block 253
 70
     0
 71
     0
 10
0.0
 20
0.0
 30
0.0
  3
block 253
  1

  0
MTEXT
  5
7CB
330
7C7
100
AcDbEntity
  8
cotas
 62
   253
420
 11382189
100
AcDbMText
 10
-116.4669650316471
 20
-69.69497068570126
 30
0.0
 40
3.451298621904306
 41
0.0
 71
     7
 72
     1
  1
\fArial|b0|i0|c0|p34;\W1;              max.40
 73
     1
 44
1.0
  0
ENDBLK
  5
7CA
330
7C7
100
AcDbEntity
  8
0
100
AcDbBlockEnd
  0
BLOCK
  5
7CE
330
7CC
100
AcDbEntity
  8
0
100
AcDbBlockBegin
  2
block 254
 70
     0
 71
     0
 10
0.0
 20
0.0
 30
0.0
  3
block 254
  1

  0
POLYLINE
  5
7D0
330
7CC
100
AcDbEntity
  8
cotas
 62
   253
420
 11382189
370
    30
100
AcDb2dPolyline
 66
     1
 10
0.0
 20
0.0
 30
0.0
  0
VERTEX
  5
7D1
330
7D0
100
AcDbEntity
  8
cotas
 62
   253
420
 11382189
370
    30
100
AcDbVertex
100
AcDb2dVertex
 10
-105.5322319614642
 20
-64.78054197599236
 30
0.0
  0
VERTEX
  5
7D2
330
7D0
100
AcDbEntity
  8
cotas
 62
   253
420
 11382189
370
    30
100
AcDbVertex
100
AcDb2dVertex
 10
-105.5322319614642
 20
-64.78054197599236
 30
0.0
  0
SEQEND
  5
7D3
330
7D0
100
AcDbEntity
  8
cotas
370
    30
  0
ENDBLK
  5
7CF
330
7CC
100
AcDbEntity
  8
0
100
AcDbBlockEnd
  0
BLOCK
  5
7D6
330
7D4
100
AcDbEntity
  8
0
100
AcDbBlockBegin
  2
block 255
 70
     0
 71
     0
 10
0.0
 20
0.0
 30
0.0
  3
block 255
  1

  0
POLYLINE
  5
7D8
330
7D4
100
AcDbEntity
  8
cotas
 62
   253
420
 11382189
370
    30
100
AcDb2dPolyline
 66
     1
 10
0.0
 20
0.0
 30
0.0
  0
VERTEX
  5
7D9
330
7D8
100
AcDbEntity
  8
cotas
 62
   253
420
 11382189
370
    30
100
AcDbVertex
100
AcDb2dVertex
 10
-105.7678764926553
 20
-71.20254447004659
 30
0.0
  0
VERTEX
  5
7DA
330
7D8
100
AcDbEntity
  8
cotas
 62
   253
420
 11382189
370
    30
100
AcDbVertex
100
AcDb2dVertex
 10
-105.7678764926553
 20
-71.20254447004659
 30
0.0
  0
SEQEND
  5
7DB
330
7D8
100
AcDbEntity
  8
cotas
370
    30
  0
ENDBLK
  5
7D7
330
7D4
100
AcDbEntity
  8
0
100
AcDbBlockEnd
  0
BLOCK
  5
7DE
330
7DC
100
AcDbEntity
  8
0
100
AcDbBlockBegin
  2
block 256
 70
     0
 71
     0
 10
0.0
 20
0.0
 30
0.0
  3
block 256
  1

  0
POLYLINE
  5
7E0
330
7DC
100
AcDbEntity
  8
cotas
 62
   253
420
 11382189
370
    30
100
AcDb2dPolyline
 66
     1
 10
0.0
 20
0.0
 30
0.0
  0
VERTEX
  5
7E1
330
7E0
100
AcDbEntity
  8
cotas
 62
   253
420
 11382189
370
    30
100
AcDbVertex
100
AcDb2dVertex
 10
-99.3102172603287
 20
-71.20254447004659
 30
0.0
  0
VERTEX
  5
7E2
330
7E0
100
AcDbEntity
  8
cotas
 62
   253
420
 11382189
370
    30
100
AcDbVertex
100
AcDb2dVertex
 10
-99.3102172603287
 20
-71.20254447004659
 30
0.0
  0
SEQEND
  5
7E3
330
7E0
100
AcDbEntity
  8
cotas
370
    30
  0
ENDBLK
  5
7DF
330
7DC
100
AcDbEntity
  8
0
100
AcDbBlockEnd
  0
BLOCK
  5
7E6
330
7E4
100
AcDbEntity
  8
0
100
AcDbBlockBegin
  2
block 257
 70
     0
 71
     0
 10
0.0
 20
0.0
 30
0.0
  3
block 257
  1

  0
INSERT
  5
7E9
330
7E4
100
AcDbEntity
  8
cotas
100
AcDbBlockReference
  2
block 258
 10
0.0
 20
0.0
 30
0.0
  0
INSERT
  5
7F1
330
7E4
100
AcDbEntity
  8
cotas
100
AcDbBlockReference
  2
block 259
 10
0.0
 20
0.0
 30
0.0
  0
INSERT
  5
7F9
330
7E4
100
AcDbEntity
  8
cotas
100
AcDbBlockReference
  2
block 260
 10
0.0
 20
0.0
 30
0.0
  0
INSERT
  5
801
330
7E4
100
AcDbEntity
  8
cotas
100
AcDbBlockReference
  2
block 261
 10
0.0
 20
0.0
 30
0.0
  0
INSERT
  5
809
330
7E4
100
AcDbEntity
  8
cotas
100
AcDbBlockReference
  2
block 262
 10
0.0
 20
0.0
 30
0.0
  0
INSERT
  5
814
330
7E4
100
AcDbEntity
  8
cotas
100
AcDbBlockReference
  2
block 263
 10
0.0
 20
0.0
 30
0.0
  0
INSERT
  5
81F
330
7E4
100
AcDbEntity
  8
cotas
100
AcDbBlockReference
  2
block 264
 10
0.0
 20
0.0
 30
0.0
  0
INSERT
  5
824
330
7E4
100
AcDbEntity
  8
cotas
100
AcDbBlockReference
  2
block 265
 10
0.0
 20
0.0
 30
0.0
  0
INSERT
  5
82C
330
7E4
100
AcDbEntity
  8
cotas
100
AcDbBlockReference
  2
block 266
 10
0.0
 20
0.0
 30
0.0
  0
INSERT
  5
834
330
7E4
100
AcDbEntity
  8
cotas
100
AcDbBlockReference
  2
block 267
 10
0.0
 20
0.0
 30
0.0
  0
ENDBLK
  5
7E7
330
7E4
100
AcDbEntity
  8
0
100
AcDbBlockEnd
  0
BLOCK
  5
7EA
330
7E8
100
AcDbEntity
  8
0
100
AcDbBlockBegin
  2
block 258
 70
     0
 71
     0
 10
0.0
 20
0.0
 30
0.0
  3
block 258
  1

  0
POLYLINE
  5
7EC
330
7E8
100
AcDbEntity
  8
cotas
 62
   253
420
 11382189
370
    30
100
AcDb2dPolyline
 66
     1
 10
0.0
 20
0.0
 30
0.0
  0
VERTEX
  5
7ED
330
7EC
100
AcDbEntity
  8
cotas
 62
   253
420
 11382189
370
    30
100
AcDbVertex
100
AcDb2dVertex
 10
-119.8488430147427
 20
-64.78054197599236
 30
0.0
  0
VERTEX
  5
7EE
330
7EC
100
AcDbEntity
  8
cotas
 62
   253
420
 11382189
370
    30
100
AcDbVertex
100
AcDb2dVertex
 10
-126.5052842565681
 20
-64.78054197599236
 30
0.0
  0
SEQEND
  5
7EF
330
7EC
100
AcDbEntity
  8
cotas
370
    30
  0
ENDBLK
  5
7EB
330
7E8
100
AcDbEntity
  8
0
100
AcDbBlockEnd
  0
BLOCK
  5
7F2
330
7F0
100
AcDbEntity
  8
0
100
AcDbBlockBegin
  2
block 259
 70
     0
 71
     0
 10
0.0
 20
0.0
 30
0.0
  3
block 259
  1

  0
POLYLINE
  5
7F4
330
7F0
100
AcDbEntity
  8
cotas
 62
   253
420
 11382189
370
    30
100
AcDb2dPolyline
 66
     1
 10
0.0
 20
0.0
 30
0.0
  0
VERTEX
  5
7F5
330
7F4
100
AcDbEntity
  8
cotas
 62
   253
420
 11382189
370
    30
100
AcDbVertex
100
AcDb2dVertex
 10
-114.5654445785635
 20
-92.61002330584056
 30
0.0
  0
VERTEX
  5
7F6
330
7F4
100
AcDbEntity
  8
cotas
 62
   253
420
 11382189
370
    30
100
AcDbVertex
100
AcDb2dVertex
 10
-126.5052842565681
 20
-92.61002330584056
 30
0.0
  0
SEQEND
  5
7F7
330
7F4
100
AcDbEntity
  8
cotas
370
    30
  0
ENDBLK
  5
7F3
330
7F0
100
AcDbEntity
  8
0
100
AcDbBlockEnd
  0
BLOCK
  5
7FA
330
7F8
100
AcDbEntity
  8
0
100
AcDbBlockBegin
  2
block 260
 70
     0
 71
     0
 10
0.0
 20
0.0
 30
0.0
  3
block 260
  1

  0
POLYLINE
  5
7FC
330
7F8
100
AcDbEntity
  8
cotas
 62
   253
420
 11382189
370
    30
100
AcDb2dPolyline
 66
     1
 10
0.0
 20
0.0
 30
0.0
  0
VERTEX
  5
7FD
330
7FC
100
AcDbEntity
  8
cotas
 62
   253
420
 11382189
370
    30
100
AcDbVertex
100
AcDb2dVertex
 10
-125.3546223644947
 20
-66.39112411534667
 30
0.0
  0
VERTEX
  5
7FE
330
7FC
100
AcDbEntity
  8
cotas
 62
   253
420
 11382189
370
    30
100
AcDbVertex
100
AcDb2dVertex
 10
-125.3546223644947
 20
-74.63144800651575
 30
0.0
  0
SEQEND
  5
7FF
330
7FC
100
AcDbEntity
  8
cotas
370
    30
  0
ENDBLK
  5
7FB
330
7F8
100
AcDbEntity
  8
0
100
AcDbBlockEnd
  0
BLOCK
  5
802
330
800
100
AcDbEntity
  8
0
100
AcDbBlockBegin
  2
block 261
 70
     0
 71
     0
 10
0.0
 20
0.0
 30
0.0
  3
block 261
  1

  0
POLYLINE
  5
804
330
800
100
AcDbEntity
  8
cotas
 62
   253
420
 11382189
370
    30
100
AcDb2dPolyline
 66
     1
 10
0.0
 20
0.0
 30
0.0
  0
VERTEX
  5
805
330
804
100
AcDbEntity
  8
cotas
 62
   253
420
 11382189
370
    30
100
AcDbVertex
100
AcDb2dVertex
 10
-125.3546223644947
 20
-90.99978567603478
 30
0.0
  0
VERTEX
  5
806
330
804
100
AcDbEntity
  8
cotas
 62
   253
420
 11382189
370
    30
100
AcDbVertex
100
AcDb2dVertex
 10
-125.3546223644947
 20
-82.75980629441422
 30
0.0
  0
SEQEND
  5
807
330
804
100
AcDbEntity
  8
cotas
370
    30
  0
ENDBLK
  5
803
330
800
100
AcDbEntity
  8
0
100
AcDbBlockEnd
  0
BLOCK
  5
80A
330
808
100
AcDbEntity
  8
0
100
AcDbBlockBegin
  2
block 262
 70
     0
 71
     0
 10
0.0
 20
0.0
 30
0.0
  3
block 262
  1

  0
POLYLINE
  5
80C
330
808
100
AcDbEntity
  8
cotas
370
     0
100
AcDb2dPolyline
 66
     1
 10
0.0
 20
0.0
 30
0.0
  0
VERTEX
  5
80D
330
80C
100
AcDbEntity
  8
cotas
370
     0
100
AcDbVertex
100
AcDb2dVertex
 10
-125.6235120671184
 20
-66.39112411534667
 30
0.0
  0
VERTEX
  5
80E
330
80C
100
AcDbEntity
  8
cotas
370
     0
100
AcDbVertex
100
AcDb2dVertex
 10
-125.0865939357422
 20
-66.39112411534667
 30
0.0
  0
VERTEX
  5
80F
330
80C
100
AcDbEntity
  8
cotas
370
     0
100
AcDbVertex
100
AcDb2dVertex
 10
-125.3546223644947
 20
-64.78054197599236
 30
0.0
  0
VERTEX
  5
810
330
80C
100
AcDbEntity
  8
cotas
370
     0
100
AcDbVertex
100
AcDb2dVertex
 10
-125.6235120671184
 20
-66.39112411534667
 30
0.0
  0
SEQEND
  5
811
330
80C
100
AcDbEntity
  8
cotas
370
     0
  0
HATCH
  5
812
330
808
100
AcDbEntity
  8
cotas
 62
   253
420
 11382189
100
AcDbHatch
 10
0.0
 20
0.0
 30
0.0
210
0.0
220
0.0
230
1.0
  2
SOLID
 70
     1
 71
     0
 91
        1
 92
        1
 93
        3
 72
     1
 10
-125.6235120671184
 20
-66.39112411534667
 11
-125.0865939357422
 21
-66.39112411534667
 72
     1
 10
-125.0865939357422
 20
-66.39112411534667
 11
-125.3546223644947
 21
-64.78054197599236
 72
     1
 10
-125.3546223644947
 20
-64.78054197599236
 11
-125.6235120671184
 21
-66.39112411534667
 97
        0
 75
     2
 76
     1
 98
        0
  0
ENDBLK
  5
80B
330
808
100
AcDbEntity
  8
0
100
AcDbBlockEnd
  0
BLOCK
  5
815
330
813
100
AcDbEntity
  8
0
100
AcDbBlockBegin
  2
block 263
 70
     0
 71
     0
 10
0.0
 20
0.0
 30
0.0
  3
block 263
  1

  0
POLYLINE
  5
817
330
813
100
AcDbEntity
  8
cotas
370
     0
100
AcDb2dPolyline
 66
     1
 10
0.0
 20
0.0
 30
0.0
  0
VERTEX
  5
818
330
817
100
AcDbEntity
  8
cotas
370
     0
100
AcDbVertex
100
AcDb2dVertex
 10
-125.6235120671184
 20
-90.99978567603478
 30
0.0
  0
VERTEX
  5
819
330
817
100
AcDbEntity
  8
cotas
370
     0
100
AcDbVertex
100
AcDb2dVertex
 10
-125.0865939357422
 20
-90.99978567603478
 30
0.0
  0
VERTEX
  5
81A
330
817
100
AcDbEntity
  8
cotas
370
     0
100
AcDbVertex
100
AcDb2dVertex
 10
-125.3546223644947
 20
-92.61002330584056
 30
0.0
  0
VERTEX
  5
81B
330
817
100
AcDbEntity
  8
cotas
370
     0
100
AcDbVertex
100
AcDb2dVertex
 10
-125.6235120671184
 20
-90.99978567603478
 30
0.0
  0
SEQEND
  5
81C
330
817
100
AcDbEntity
  8
cotas
370
     0
  0
HATCH
  5
81D
330
813
100
AcDbEntity
  8
cotas
 62
   253
420
 11382189
100
AcDbHatch
 10
0.0
 20
0.0
 30
0.0
210
0.0
220
0.0
230
1.0
  2
SOLID
 70
     1
 71
     0
 91
        1
 92
        1
 93
        3
 72
     1
 10
-125.6235120671184
 20
-90.99978567603478
 11
-125.0865939357422
 21
-90.99978567603478
 72
     1
 10
-125.0865939357422
 20
-90.99978567603478
 11
-125.3546223644947
 21
-92.61002330584056
 72
     1
 10
-125.3546223644947
 20
-92.61002330584056
 11
-125.6235120671184
 21
-90.99978567603478
 97
        0
 75
     2
 76
     1
 98
        0
  0
ENDBLK
  5
816
330
813
100
AcDbEntity
  8
0
100
AcDbBlockEnd
  0
BLOCK
  5
820
330
81E
100
AcDbEntity
  8
0
100
AcDbBlockBegin
  2
block 264
 70
     0
 71
     0
 10
0.0
 20
0.0
 30
0.0
  3
block 264
  1

  0
MTEXT
  5
822
330
81E
100
AcDbEntity
  8
cotas
 62
   253
420
 11382189
100
AcDbMText
 10
-129.3774603626209
 20
-80.39819333927545
 30
0.0
 40
3.451298621904306
 41
0.0
 71
     7
 72
     1
  1
\fArial|b0|i0|c0|p34;\W1;365
 73
     1
 44
1.0
  0
ENDBLK
  5
821
330
81E
100
AcDbEntity
  8
0
100
AcDbBlockEnd
  0
BLOCK
  5
825
330
823
100
AcDbEntity
  8
0
100
AcDbBlockBegin
  2
block 265
 70
     0
 71
     0
 10
0.0
 20
0.0
 30
0.0
  3
block 265
  1

  0
POLYLINE
  5
827
330
823
100
AcDbEntity
  8
cotas
 62
   253
420
 11382189
370
    30
100
AcDb2dPolyline
 66
     1
 10
0.0
 20
0.0
 30
0.0
  0
VERTEX
  5
828
330
827
100
AcDbEntity
  8
cotas
 62
   253
420
 11382189
370
    30
100
AcDbVertex
100
AcDb2dVertex
 10
-117.5478637401443
 20
-64.78054197599236
 30
0.0
  0
VERTEX
  5
829
330
827
100
AcDbEntity
  8
cotas
 62
   253
420
 11382189
370
    30
100
AcDbVertex
100
AcDb2dVertex
 10
-117.5478637401443
 20
-64.78054197599236
 30
0.0
  0
SEQEND
  5
82A
330
827
100
AcDbEntity
  8
cotas
370
    30
  0
ENDBLK
  5
826
330
823
100
AcDbEntity
  8
0
100
AcDbBlockEnd
  0
BLOCK
  5
82D
330
82B
100
AcDbEntity
  8
0
100
AcDbBlockBegin
  2
block 266
 70
     0
 71
     0
 10
0.0
 20
0.0
 30
0.0
  3
block 266
  1

  0
POLYLINE
  5
82F
330
82B
100
AcDbEntity
  8
cotas
 62
   253
420
 11382189
370
    30
100
AcDb2dPolyline
 66
     1
 10
0.0
 20
0.0
 30
0.0
  0
VERTEX
  5
830
330
82F
100
AcDbEntity
  8
cotas
 62
   253
420
 11382189
370
    30
100
AcDbVertex
100
AcDb2dVertex
 10
-112.2644653039651
 20
-92.61002330584056
 30
0.0
  0
VERTEX
  5
831
330
82F
100
AcDbEntity
  8
cotas
 62
   253
420
 11382189
370
    30
100
AcDbVertex
100
AcDb2dVertex
 10
-112.2644653039651
 20
-92.61002330584056
 30
0.0
  0
SEQEND
  5
832
330
82F
100
AcDbEntity
  8
cotas
370
    30
  0
ENDBLK
  5
82E
330
82B
100
AcDbEntity
  8
0
100
AcDbBlockEnd
  0
BLOCK
  5
835
330
833
100
AcDbEntity
  8
0
100
AcDbBlockBegin
  2
block 267
 70
     0
 71
     0
 10
0.0
 20
0.0
 30
0.0
  3
block 267
  1

  0
POLYLINE
  5
837
330
833
100
AcDbEntity
  8
cotas
 62
   253
420
 11382189
370
    30
100
AcDb2dPolyline
 66
     1
 10
0.0
 20
0.0
 30
0.0
  0
VERTEX
  5
838
330
837
100
AcDbEntity
  8
cotas
 62
   253
420
 11382189
370
    30
100
AcDbVertex
100
AcDb2dVertex
 10
-125.3546223644947
 20
-92.61002330584056
 30
0.0
  0
VERTEX
  5
839
330
837
100
AcDbEntity
  8
cotas
 62
   253
420
 11382189
370
    30
100
AcDbVertex
100
AcDb2dVertex
 10
-125.3546223644947
 20
-92.61002330584056
 30
0.0
  0
SEQEND
  5
83A
330
837
100
AcDbEntity
  8
cotas
370
    30
  0
ENDBLK
  5
836
330
833
100
AcDbEntity
  8
0
100
AcDbBlockEnd
  0
BLOCK
  5
83D
330
83B
100
AcDbEntity
  8
0
100
AcDbBlockBegin
  2
block 268
 70
     0
 71
     0
 10
0.0
 20
0.0
 30
0.0
  3
block 268
  1

  0
POLYLINE
  5
83F
330
83B
100
AcDbEntity
  8
cotas
 62
   253
420
 11382189
370
    30
100
AcDb2dPolyline
 66
     1
 10
0.0
 20
0.0
 30
0.0
  0
VERTEX
  5
840
330
83F
100
AcDbEntity
  8
cotas
 62
   253
420
 11382189
370
    30
100
AcDbVertex
100
AcDb2dVertex
 10
-84.82462427349871
 20
-39.7257405499644
 30
0.0
  0
VERTEX
  5
841
330
83F
100
AcDbEntity
  8
cotas
 62
   253
420
 11382189
370
    30
100
AcDbVertex
100
AcDb2dVertex
 10
-84.50147431698227
 20
-39.81290146574122
 30
0.0
  0
SEQEND
  5
842
330
83F
100
AcDbEntity
  8
cotas
370
    30
  0
ENDBLK
  5
83E
330
83B
100
AcDbEntity
  8
0
100
AcDbBlockEnd
  0
BLOCK
  5
845
330
843
100
AcDbEntity
  8
0
100
AcDbBlockBegin
  2
block 269
 70
     0
 71
     0
 10
0.0
 20
0.0
 30
0.0
  3
block 269
  1

  0
POLYLINE
  5
847
330
843
100
AcDbEntity
  8
cotas
 62
   253
420
 11382189
370
    30
100
AcDb2dPolyline
 66
     1
 10
0.0
 20
0.0
 30
0.0
  0
VERTEX
  5
848
330
847
100
AcDbEntity
  8
cotas
 62
   253
420
 11382189
370
    30
100
AcDbVertex
100
AcDb2dVertex
 10
-84.82462427349871
 20
-39.7257405499644
 30
0.0
  0
VERTEX
  5
849
330
847
100
AcDbEntity
  8
cotas
 62
   253
420
 11382189
370
    30
100
AcDbVertex
100
AcDb2dVertex
 10
-84.4701239480665
 20
-39.63237846231413
 30
0.0
  0
SEQEND
  5
84A
330
847
100
AcDbEntity
  8
cotas
370
    30
  0
ENDBLK
  5
846
330
843
100
AcDbEntity
  8
0
100
AcDbBlockEnd
  0
BLOCK
  5
84D
330
84B
100
AcDbEntity
  8
0
100
AcDbBlockBegin
  2
block 270
 70
     0
 71
     0
 10
0.0
 20
0.0
 30
0.0
  3
block 270
  1

  0
INSERT
  5
850
330
84B
100
AcDbEntity
  8
cotas
100
AcDbBlockReference
  2
block 271
 10
0.0
 20
0.0
 30
0.0
  0
INSERT
  5
858
330
84B
100
AcDbEntity
  8
cotas
100
AcDbBlockReference
  2
block 272
 10
0.0
 20
0.0
 30
0.0
  0
INSERT
  5
860
330
84B
100
AcDbEntity
  8
cotas
100
AcDbBlockReference
  2
block 273
 10
0.0
 20
0.0
 30
0.0
  0
INSERT
  5
865
330
84B
100
AcDbEntity
  8
cotas
100
AcDbBlockReference
  2
block 274
 10
0.0
 20
0.0
 30
0.0
  0
INSERT
  5
870
330
84B
100
AcDbEntity
  8
cotas
100
AcDbBlockReference
  2
block 275
 10
0.0
 20
0.0
 30
0.0
  0
INSERT
  5
87B
330
84B
100
AcDbEntity
  8
cotas
100
AcDbBlockReference
  2
block 276
 10
0.0
 20
0.0
 30
0.0
  0
INSERT
  5
880
330
84B
100
AcDbEntity
  8
cotas
100
AcDbBlockReference
  2
block 277
 10
0.0
 20
0.0
 30
0.0
  0
INSERT
  5
888
330
84B
100
AcDbEntity
  8
cotas
100
AcDbBlockReference
  2
block 278
 10
0.0
 20
0.0
 30
0.0
  0
INSERT
  5
890
330
84B
100
AcDbEntity
  8
cotas
100
AcDbBlockReference
  2
block 279
 10
0.0
 20
0.0
 30
0.0
  0
INSERT
  5
898
330
84B
100
AcDbEntity
  8
cotas
100
AcDbBlockReference
  2
block 280
 10
0.0
 20
0.0
 30
0.0
  0
INSERT
  5
8A0
330
84B
100
AcDbEntity
  8
cotas
100
AcDbBlockReference
  2
block 281
 10
0.0
 20
0.0
 30
0.0
  0
ENDBLK
  5
84E
330
84B
100
AcDbEntity
  8
0
100
AcDbBlockEnd
  0
BLOCK
  5
851
330
84F
100
AcDbEntity
  8
0
100
AcDbBlockBegin
  2
block 271
 70
     0
 71
     0
 10
0.0
 20
0.0
 30
0.0
  3
block 271
  1

  0
POLYLINE
  5
853
330
84F
100
AcDbEntity
  8
cotas
 62
   253
420
 11382189
370
    30
100
AcDb2dPolyline
 66
     1
 10
0.0
 20
0.0
 30
0.0
  0
VERTEX
  5
854
330
853
100
AcDbEntity
  8
cotas
 62
   253
420
 11382189
370
    30
100
AcDbVertex
100
AcDb2dVertex
 10
-82.2790432194476
 20
-40.40890298468944
 30
0.0
  0
VERTEX
  5
855
330
853
100
AcDbEntity
  8
cotas
 62
   253
420
 11382189
370
    30
100
AcDbVertex
100
AcDb2dVertex
 10
-70.57415905353702
 20
-43.54462889536384
 30
0.0
  0
SEQEND
  5
856
330
853
100
AcDbEntity
  8
cotas
370
    30
  0
ENDBLK
  5
852
330
84F
100
AcDbEntity
  8
0
100
AcDbBlockEnd
  0
BLOCK
  5
859
330
857
100
AcDbEntity
  8
0
100
AcDbBlockBegin
  2
block 272
 70
     0
 71
     0
 10
0.0
 20
0.0
 30
0.0
  3
block 272
  1

  0
POLYLINE
  5
85B
330
857
100
AcDbEntity
  8
cotas
 62
   253
420
 11382189
370
    30
100
AcDb2dPolyline
 66
     1
 10
0.0
 20
0.0
 30
0.0
  0
VERTEX
  5
85C
330
85B
100
AcDbEntity
  8
cotas
 62
   253
420
 11382189
370
    30
100
AcDbVertex
100
AcDb2dVertex
 10
-82.24752059575756
 20
-39.03672145291443
 30
0.0
  0
VERTEX
  5
85D
330
85B
100
AcDbEntity
  8
cotas
 62
   253
420
 11382189
370
    30
100
AcDbVertex
100
AcDb2dVertex
 10
-70.57415905353702
 20
-35.90754122366201
 30
0.0
  0
SEQEND
  5
85E
330
85B
100
AcDbEntity
  8
cotas
370
    30
  0
ENDBLK
  5
85A
330
857
100
AcDbEntity
  8
0
100
AcDbBlockEnd
  0
BLOCK
  5
861
330
85F
100
AcDbEntity
  8
0
100
AcDbBlockBegin
  2
block 273
 70
     0
 71
     0
 10
0.0
 20
0.0
 30
0.0
  3
block 273
  1

  0
SPLINE
  5
863
330
85F
100
AcDbEntity
  8
cotas
 62
   253
420
 11382189
370
    30
100
AcDbSpline
210
0.0
220
0.0
230
1.0
 70
     8
 71
     3
 72
     8
 73
     4
 74
     0
 42
0.0000000001
 43
0.0000000001
 40
0.0
 40
0.0
 40
0.0
 40
0.0
 40
1.0
 40
1.0
 40
1.0
 40
1.0
 10
-71.36119111714234
 20
-41.66842989409678
 30
0.0
 10
-71.17567272526163
 20
-40.38099771125892
 30
0.0
 10
-71.17567272526163
 20
-39.07255044596103
 30
0.0
 10
-71.36119111714234
 20
-37.7840847344776
 30
0.0
  0
ENDBLK
  5
862
330
85F
100
AcDbEntity
  8
0
100
AcDbBlockEnd
  0
BLOCK
  5
866
330
864
100
AcDbEntity
  8
0
100
AcDbBlockBegin
  2
block 274
 70
     0
 71
     0
 10
0.0
 20
0.0
 30
0.0
  3
block 274
  1

  0
POLYLINE
  5
868
330
864
100
AcDbEntity
  8
cotas
370
     0
100
AcDb2dPolyline
 66
     1
 10
0.0
 20
0.0
 30
0.0
  0
VERTEX
  5
869
330
868
100
AcDbEntity
  8
cotas
370
     0
100
AcDbVertex
100
AcDb2dVertex
 10
-71.09884709594057
 20
-41.72320691231226
 30
0.0
  0
VERTEX
  5
86A
330
868
100
AcDbEntity
  8
cotas
370
     0
100
AcDbVertex
100
AcDb2dVertex
 10
-71.62474092176396
 20
-41.61468640452689
 30
0.0
  0
VERTEX
  5
86B
330
868
100
AcDbEntity
  8
cotas
370
     0
100
AcDbVertex
100
AcDb2dVertex
 10
-71.68537460230435
 20
-43.24731715498678
 30
0.0
  0
VERTEX
  5
86C
330
868
100
AcDbEntity
  8
cotas
370
     0
100
AcDbVertex
100
AcDb2dVertex
 10
-71.09884709594057
 20
-41.72320691231226
 30
0.0
  0
SEQEND
  5
86D
330
868
100
AcDbEntity
  8
cotas
370
     0
  0
HATCH
  5
86E
330
864
100
AcDbEntity
  8
cotas
 62
   253
420
 11382189
100
AcDbHatch
 10
0.0
 20
0.0
 30
0.0
210
0.0
220
0.0
230
1.0
  2
SOLID
 70
     1
 71
     0
 91
        1
 92
        1
 93
        3
 72
     1
 10
-71.09884709594057
 20
-41.72320691231226
 11
-71.62474092176396
 21
-41.61468640452689
 72
     1
 10
-71.62474092176396
 20
-41.61468640452689
 11
-71.68537460230435
 21
-43.24731715498678
 72
     1
 10
-71.68537460230435
 20
-43.24731715498678
 11
-71.09884709594057
 21
-41.72320691231226
 97
        0
 75
     2
 76
     1
 98
        0
  0
ENDBLK
  5
867
330
864
100
AcDbEntity
  8
0
100
AcDbBlockEnd
  0
BLOCK
  5
871
330
86F
100
AcDbEntity
  8
0
100
AcDbBlockBegin
  2
block 275
 70
     0
 71
     0
 10
0.0
 20
0.0
 30
0.0
  3
block 275
  1

  0
POLYLINE
  5
873
330
86F
100
AcDbEntity
  8
cotas
370
     0
100
AcDb2dPolyline
 66
     1
 10
0.0
 20
0.0
 30
0.0
  0
VERTEX
  5
874
330
873
100
AcDbEntity
  8
cotas
370
     0
100
AcDbVertex
100
AcDb2dVertex
 10
-71.62474092176396
 20
-37.83748371449897
 30
0.0
  0
VERTEX
  5
875
330
873
100
AcDbEntity
  8
cotas
370
     0
100
AcDbVertex
100
AcDb2dVertex
 10
-71.09884709594057
 20
-37.72930771626212
 30
0.0
  0
VERTEX
  5
876
330
873
100
AcDbEntity
  8
cotas
370
     0
100
AcDbVertex
100
AcDb2dVertex
 10
-71.68537460230435
 20
-36.20623100223317
 30
0.0
  0
VERTEX
  5
877
330
873
100
AcDbEntity
  8
cotas
370
     0
100
AcDbVertex
100
AcDb2dVertex
 10
-71.62474092176396
 20
-37.83748371449897
 30
0.0
  0
SEQEND
  5
878
330
873
100
AcDbEntity
  8
cotas
370
     0
  0
HATCH
  5
879
330
86F
100
AcDbEntity
  8
cotas
 62
   253
420
 11382189
100
AcDbHatch
 10
0.0
 20
0.0
 30
0.0
210
0.0
220
0.0
230
1.0
  2
SOLID
 70
     1
 71
     0
 91
        1
 92
        1
 93
        3
 72
     1
 10
-71.62474092176396
 20
-37.83748371449897
 11
-71.09884709594057
 21
-37.72930771626212
 72
     1
 10
-71.09884709594057
 20
-37.72930771626212
 11
-71.68537460230435
 21
-36.20623100223317
 72
     1
 10
-71.68537460230435
 20
-36.20623100223317
 11
-71.62474092176396
 21
-37.83748371449897
 97
        0
 75
     2
 76
     1
 98
        0
  0
ENDBLK
  5
872
330
86F
100
AcDbEntity
  8
0
100
AcDbBlockEnd
  0
BLOCK
  5
87C
330
87A
100
AcDbEntity
  8
0
100
AcDbBlockBegin
  2
block 276
 70
     0
 71
     0
 10
0.0
 20
0.0
 30
0.0
  3
block 276
  1

  0
MTEXT
  5
87E
330
87A
100
AcDbEntity
  8
cotas
 62
   253
420
 11382189
100
AcDbMText
 10
-76.34366046268492
 20
-35.16684569433329
 30
0.0
 40
3.451298621904306
 41
0.0
 71
     7
 72
     1
  1
\fArial|b0|i0|c0|p34;\W1;30°
 73
     1
 44
1.0
  0
ENDBLK
  5
87D
330
87A
100
AcDbEntity
  8
0
100
AcDbBlockEnd
  0
BLOCK
  5
881
330
87F
100
AcDbEntity
  8
0
100
AcDbBlockBegin
  2
block 277
 70
     0
 71
     0
 10
0.0
 20
0.0
 30
0.0
  3
block 277
  1

  0
POLYLINE
  5
883
330
87F
100
AcDbEntity
  8
cotas
 62
   253
420
 11382189
370
    30
100
AcDb2dPolyline
 66
     1
 10
0.0
 20
0.0
 30
0.0
  0
VERTEX
  5
884
330
883
100
AcDbEntity
  8
cotas
 62
   253
420
 11382189
370
    30
100
AcDbVertex
100
AcDb2dVertex
 10
-71.27385794659126
 20
-40.91257594463297
 30
0.0
  0
VERTEX
  5
885
330
883
100
AcDbEntity
  8
cotas
 62
   253
420
 11382189
370
    30
100
AcDbVertex
100
AcDb2dVertex
 10
-71.27385794659126
 20
-40.91257594463297
 30
0.0
  0
SEQEND
  5
886
330
883
100
AcDbEntity
  8
cotas
370
    30
  0
ENDBLK
  5
882
330
87F
100
AcDbEntity
  8
0
100
AcDbBlockEnd
  0
BLOCK
  5
889
330
887
100
AcDbEntity
  8
0
100
AcDbBlockBegin
  2
block 278
 70
     0
 71
     0
 10
0.0
 20
0.0
 30
0.0
  3
block 278
  1

  0
POLYLINE
  5
88B
330
887
100
AcDbEntity
  8
cotas
 62
   253
420
 11382189
370
    30
100
AcDb2dPolyline
 66
     1
 10
0.0
 20
0.0
 30
0.0
  0
VERTEX
  5
88C
330
88B
100
AcDbEntity
  8
cotas
 62
   253
420
 11382189
370
    30
100
AcDbVertex
100
AcDb2dVertex
 10
-84.82462427349871
 20
-39.7257405499644
 30
0.0
  0
VERTEX
  5
88D
330
88B
100
AcDbEntity
  8
cotas
 62
   253
420
 11382189
370
    30
100
AcDbVertex
100
AcDb2dVertex
 10
-84.82462427349871
 20
-39.7257405499644
 30
0.0
  0
SEQEND
  5
88E
330
88B
100
AcDbEntity
  8
cotas
370
    30
  0
ENDBLK
  5
88A
330
887
100
AcDbEntity
  8
0
100
AcDbBlockEnd
  0
BLOCK
  5
891
330
88F
100
AcDbEntity
  8
0
100
AcDbBlockBegin
  2
block 279
 70
     0
 71
     0
 10
0.0
 20
0.0
 30
0.0
  3
block 279
  1

  0
POLYLINE
  5
893
330
88F
100
AcDbEntity
  8
cotas
 62
   253
420
 11382189
370
    30
100
AcDb2dPolyline
 66
     1
 10
0.0
 20
0.0
 30
0.0
  0
VERTEX
  5
894
330
893
100
AcDbEntity
  8
cotas
 62
   253
420
 11382189
370
    30
100
AcDbVertex
100
AcDb2dVertex
 10
-84.82462427349871
 20
-39.7257405499644
 30
0.0
  0
VERTEX
  5
895
330
893
100
AcDbEntity
  8
cotas
 62
   253
420
 11382189
370
    30
100
AcDbVertex
100
AcDb2dVertex
 10
-84.82462427349871
 20
-39.7257405499644
 30
0.0
  0
SEQEND
  5
896
330
893
100
AcDbEntity
  8
cotas
370
    30
  0
ENDBLK
  5
892
330
88F
100
AcDbEntity
  8
0
100
AcDbBlockEnd
  0
BLOCK
  5
899
330
897
100
AcDbEntity
  8
0
100
AcDbBlockBegin
  2
block 280
 70
     0
 71
     0
 10
0.0
 20
0.0
 30
0.0
  3
block 280
  1

  0
POLYLINE
  5
89B
330
897
100
AcDbEntity
  8
cotas
 62
   253
420
 11382189
370
    30
100
AcDb2dPolyline
 66
     1
 10
0.0
 20
0.0
 30
0.0
  0
VERTEX
  5
89C
330
89B
100
AcDbEntity
  8
cotas
 62
   253
420
 11382189
370
    30
100
AcDbVertex
100
AcDb2dVertex
 10
-84.50147431698227
 20
-39.81290146574122
 30
0.0
  0
VERTEX
  5
89D
330
89B
100
AcDbEntity
  8
cotas
 62
   253
420
 11382189
370
    30
100
AcDbVertex
100
AcDb2dVertex
 10
-84.50147431698227
 20
-39.81290146574122
 30
0.0
  0
SEQEND
  5
89E
330
89B
100
AcDbEntity
  8
cotas
370
    30
  0
ENDBLK
  5
89A
330
897
100
AcDbEntity
  8
0
100
AcDbBlockEnd
  0
BLOCK
  5
8A1
330
89F
100
AcDbEntity
  8
0
100
AcDbBlockBegin
  2
block 281
 70
     0
 71
     0
 10
0.0
 20
0.0
 30
0.0
  3
block 281
  1

  0
POLYLINE
  5
8A3
330
89F
100
AcDbEntity
  8
cotas
 62
   253
420
 11382189
370
    30
100
AcDb2dPolyline
 66
     1
 10
0.0
 20
0.0
 30
0.0
  0
VERTEX
  5
8A4
330
8A3
100
AcDbEntity
  8
cotas
 62
   253
420
 11382189
370
    30
100
AcDbVertex
100
AcDb2dVertex
 10
-84.4701239480665
 20
-39.63237846231413
 30
0.0
  0
VERTEX
  5
8A5
330
8A3
100
AcDbEntity
  8
cotas
 62
   253
420
 11382189
370
    30
100
AcDbVertex
100
AcDb2dVertex
 10
-84.4701239480665
 20
-39.63237846231413
 30
0.0
  0
SEQEND
  5
8A6
330
8A3
100
AcDbEntity
  8
cotas
370
    30
  0
ENDBLK
  5
8A2
330
89F
100
AcDbEntity
  8
0
100
AcDbBlockEnd
  0
ENDSEC
  0
SECTION
  2
ENTITIES
  0
INSERT
  5
3D
330
1F
100
AcDbEntity
  8
cuerpo
100
AcDbBlockReference
  2
block 2
 10
0.0
 20
0.0
 30
0.0
  0
INSERT
  5
45
330
1F
100
AcDbEntity
  8
cuerpo
100
AcDbBlockReference
  2
block 3
 10
0.0
 20
0.0
 30
0.0
  0
INSERT
  5
4D
330
1F
100
AcDbEntity
  8
cuerpo
100
AcDbBlockReference
  2
block 4
 10
0.0
 20
0.0
 30
0.0
  0
INSERT
  5
55
330
1F
100
AcDbEntity
  8
cuerpo
100
AcDbBlockReference
  2
block 5
 10
0.0
 20
0.0
 30
0.0
  0
INSERT
  5
5D
330
1F
100
AcDbEntity
  8
cuerpo
100
AcDbBlockReference
  2
block 6
 10
0.0
 20
0.0
 30
0.0
  0
INSERT
  5
65
330
1F
100
AcDbEntity
  8
cuerpo
100
AcDbBlockReference
  2
block 7
 10
0.0
 20
0.0
 30
0.0
  0
INSERT
  5
6D
330
1F
100
AcDbEntity
  8
cuerpo
100
AcDbBlockReference
  2
block 8
 10
0.0
 20
0.0
 30
0.0
  0
INSERT
  5
75
330
1F
100
AcDbEntity
  8
cuerpo
100
AcDbBlockReference
  2
block 9
 10
0.0
 20
0.0
 30
0.0
  0
INSERT
  5
7D
330
1F
100
AcDbEntity
  8
cuerpo
100
AcDbBlockReference
  2
block 10
 10
0.0
 20
0.0
 30
0.0
  0
INSERT
  5
85
330
1F
100
AcDbEntity
  8
cuerpo
100
AcDbBlockReference
  2
block 11
 10
0.0
 20
0.0
 30
0.0
  0
INSERT
  5
8D
330
1F
100
AcDbEntity
  8
cuerpo
100
AcDbBlockReference
  2
block 12
 10
0.0
 20
0.0
 30
0.0
  0
INSERT
  5
92
330
1F
100
AcDbEntity
  8
cuerpo
100
AcDbBlockReference
  2
block 13
 10
0.0
 20
0.0
 30
0.0
  0
INSERT
  5
9A
330
1F
100
AcDbEntity
  8
cuerpo
100
AcDbBlockReference
  2
block 14
 10
0.0
 20
0.0
 30
0.0
  0
INSERT
  5
A2
330
1F
100
AcDbEntity
  8
cuerpo
100
AcDbBlockReference
  2
block 15
 10
0.0
 20
0.0
 30
0.0
  0
INSERT
  5
AA
330
1F
100
AcDbEntity
  8
cuerpo
100
AcDbBlockReference
  2
block 16
 10
0.0
 20
0.0
 30
0.0
  0
INSERT
  5
B2
330
1F
100
AcDbEntity
  8
cuerpo
100
AcDbBlockReference
  2
block 17
 10
0.0
 20
0.0
 30
0.0
  0
INSERT
  5
B7
330
1F
100
AcDbEntity
  8
cuerpo
100
AcDbBlockReference
  2
block 18
 10
0.0
 20
0.0
 30
0.0
  0
INSERT
  5
BC
330
1F
100
AcDbEntity
  8
cuerpo
100
AcDbBlockReference
  2
block 19
 10
0.0
 20
0.0
 30
0.0
  0
INSERT
  5
C4
330
1F
100
AcDbEntity
  8
cuerpo
100
AcDbBlockReference
  2
block 20
 10
0.0
 20
0.0
 30
0.0
  0
INSERT
  5
C9
330
1F
100
AcDbEntity
  8
cuerpo
100
AcDbBlockReference
  2
block 21
 10
0.0
 20
0.0
 30
0.0
  0
INSERT
  5
D1
330
1F
100
AcDbEntity
  8
cuerpo
100
AcDbBlockReference
  2
block 22
 10
0.0
 20
0.0
 30
0.0
  0
INSERT
  5
D9
330
1F
100
AcDbEntity
  8
cuerpo
100
AcDbBlockReference
  2
block 23
 10
0.0
 20
0.0
 30
0.0
  0
INSERT
  5
E1
330
1F
100
AcDbEntity
  8
cuerpo
100
AcDbBlockReference
  2
block 24
 10
0.0
 20
0.0
 30
0.0
  0
INSERT
  5
E9
330
1F
100
AcDbEntity
  8
cuerpo
100
AcDbBlockReference
  2
block 25
 10
0.0
 20
0.0
 30
0.0
  0
INSERT
  5
EE
330
1F
100
AcDbEntity
  8
cuerpo
100
AcDbBlockReference
  2
block 26
 10
0.0
 20
0.0
 30
0.0
  0
INSERT
  5
F3
330
1F
100
AcDbEntity
  8
cuerpo
100
AcDbBlockReference
  2
block 27
 10
0.0
 20
0.0
 30
0.0
  0
INSERT
  5
FB
330
1F
100
AcDbEntity
  8
cuerpo
100
AcDbBlockReference
  2
block 28
 10
0.0
 20
0.0
 30
0.0
  0
INSERT
  5
103
330
1F
100
AcDbEntity
  8
cuerpo
100
AcDbBlockReference
  2
block 29
 10
0.0
 20
0.0
 30
0.0
  0
INSERT
  5
10B
330
1F
100
AcDbEntity
  8
cuerpo
100
AcDbBlockReference
  2
block 30
 10
0.0
 20
0.0
 30
0.0
  0
INSERT
  5
110
330
1F
100
AcDbEntity
  8
cuerpo
100
AcDbBlockReference
  2
block 31
 10
0.0
 20
0.0
 30
0.0
  0
INSERT
  5
118
330
1F
100
AcDbEntity
  8
cuerpo
100
AcDbBlockReference
  2
block 32
 10
0.0
 20
0.0
 30
0.0
  0
INSERT
  5
120
330
1F
100
AcDbEntity
  8
cuerpo
100
AcDbBlockReference
  2
block 33
 10
0.0
 20
0.0
 30
0.0
  0
INSERT
  5
128
330
1F
100
AcDbEntity
  8
cuerpo
100
AcDbBlockReference
  2
block 34
 10
0.0
 20
0.0
 30
0.0
  0
INSERT
  5
130
330
1F
100
AcDbEntity
  8
cuerpo
100
AcDbBlockReference
  2
block 35
 10
0.0
 20
0.0
 30
0.0
  0
INSERT
  5
138
330
1F
100
AcDbEntity
  8
cuerpo
100
AcDbBlockReference
  2
block 36
 10
0.0
 20
0.0
 30
0.0
  0
INSERT
  5
13D
330
1F
100
AcDbEntity
  8
cuerpo
100
AcDbBlockReference
  2
block 37
 10
0.0
 20
0.0
 30
0.0
  0
INSERT
  5
142
330
1F
100
AcDbEntity
  8
cuerpo
100
AcDbBlockReference
  2
block 38
 10
0.0
 20
0.0
 30
0.0
  0
INSERT
  5
147
330
1F
100
AcDbEntity
  8
cuerpo
100
AcDbBlockReference
  2
block 39
 10
0.0
 20
0.0
 30
0.0
  0
INSERT
  5
14C
330
1F
100
AcDbEntity
  8
cuerpo
100
AcDbBlockReference
  2
block 40
 10
0.0
 20
0.0
 30
0.0
  0
INSERT
  5
154
330
1F
100
AcDbEntity
  8
cuerpo
100
AcDbBlockReference
  2
block 41
 10
0.0
 20
0.0
 30
0.0
  0
INSERT
  5
159
330
1F
100
AcDbEntity
  8
cuerpo
100
AcDbBlockReference
  2
block 42
 10
0.0
 20
0.0
 30
0.0
  0
INSERT
  5
161
330
1F
100
AcDbEntity
  8
cuerpo
100
AcDbBlockReference
  2
block 43
 10
0.0
 20
0.0
 30
0.0
  0
INSERT
  5
169
330
1F
100
AcDbEntity
  8
cuerpo
100
AcDbBlockReference
  2
block 44
 10
0.0
 20
0.0
 30
0.0
  0
INSERT
  5
171
330
1F
100
AcDbEntity
  8
cuerpo
100
AcDbBlockReference
  2
block 45
 10
0.0
 20
0.0
 30
0.0
  0
INSERT
  5
176
330
1F
100
AcDbEntity
  8
cuerpo
100
AcDbBlockReference
  2
block 46
 10
0.0
 20
0.0
 30
0.0
  0
INSERT
  5
17B
330
1F
100
AcDbEntity
  8
cuerpo
100
AcDbBlockReference
  2
block 47
 10
0.0
 20
0.0
 30
0.0
  0
INSERT
  5
183
330
1F
100
AcDbEntity
  8
cuerpo
100
AcDbBlockReference
  2
block 48
 10
0.0
 20
0.0
 30
0.0
  0
INSERT
  5
18B
330
1F
100
AcDbEntity
  8
cuerpo
100
AcDbBlockReference
  2
block 49
 10
0.0
 20
0.0
 30
0.0
  0
INSERT
  5
193
330
1F
100
AcDbEntity
  8
cuerpo
100
AcDbBlockReference
  2
block 50
 10
0.0
 20
0.0
 30
0.0
  0
INSERT
  5
19B
330
1F
100
AcDbEntity
  8
cuerpo
100
AcDbBlockReference
  2
block 51
 10
0.0
 20
0.0
 30
0.0
  0
INSERT
  5
1A0
330
1F
100
AcDbEntity
  8
cuerpo
100
AcDbBlockReference
  2
block 52
 10
0.0
 20
0.0
 30
0.0
  0
INSERT
  5
1A8
330
1F
100
AcDbEntity
  8
cuerpo
100
AcDbBlockReference
  2
block 53
 10
0.0
 20
0.0
 30
0.0
  0
INSERT
  5
1B0
330
1F
100
AcDbEntity
  8
cuerpo
100
AcDbBlockReference
  2
block 54
 10
0.0
 20
0.0
 30
0.0
  0
INSERT
  5
1B5
330
1F
100
AcDbEntity
  8
cuerpo
100
AcDbBlockReference
  2
block 55
 10
0.0
 20
0.0
 30
0.0
  0
INSERT
  5
1BD
330
1F
100
AcDbEntity
  8
cuerpo
100
AcDbBlockReference
  2
block 56
 10
0.0
 20
0.0
 30
0.0
  0
INSERT
  5
1C5
330
1F
100
AcDbEntity
  8
cuerpo
100
AcDbBlockReference
  2
block 57
 10
0.0
 20
0.0
 30
0.0
  0
INSERT
  5
1CD
330
1F
100
AcDbEntity
  8
cuerpo
100
AcDbBlockReference
  2
block 58
 10
0.0
 20
0.0
 30
0.0
  0
INSERT
  5
1D5
330
1F
100
AcDbEntity
  8
cuerpo
100
AcDbBlockReference
  2
block 59
 10
0.0
 20
0.0
 30
0.0
  0
INSERT
  5
1DA
330
1F
100
AcDbEntity
  8
cuerpo
100
AcDbBlockReference
  2
block 60
 10
0.0
 20
0.0
 30
0.0
  0
INSERT
  5
1DF
330
1F
100
AcDbEntity
  8
cuerpo
100
AcDbBlockReference
  2
block 61
 10
0.0
 20
0.0
 30
0.0
  0
INSERT
  5
1E4
330
1F
100
AcDbEntity
  8
cuerpo
100
AcDbBlockReference
  2
block 62
 10
0.0
 20
0.0
 30
0.0
  0
INSERT
  5
1E9
330
1F
100
AcDbEntity
  8
cuerpo
100
AcDbBlockReference
  2
block 63
 10
0.0
 20
0.0
 30
0.0
  0
INSERT
  5
1EE
330
1F
100
AcDbEntity
  8
cuerpo
100
AcDbBlockReference
  2
block 64
 10
0.0
 20
0.0
 30
0.0
  0
INSERT
  5
1F3
330
1F
100
AcDbEntity
  8
cuerpo
100
AcDbBlockReference
  2
block 65
 10
0.0
 20
0.0
 30
0.0
  0
INSERT
  5
1FB
330
1F
100
AcDbEntity
  8
cuerpo
100
AcDbBlockReference
  2
block 66
 10
0.0
 20
0.0
 30
0.0
  0
INSERT
  5
203
330
1F
100
AcDbEntity
  8
cuerpo
100
AcDbBlockReference
  2
block 67
 10
0.0
 20
0.0
 30
0.0
  0
INSERT
  5
20B
330
1F
100
AcDbEntity
  8
cuerpo
100
AcDbBlockReference
  2
block 68
 10
0.0
 20
0.0
 30
0.0
  0
INSERT
  5
213
330
1F
100
AcDbEntity
  8
cuerpo
100
AcDbBlockReference
  2
block 69
 10
0.0
 20
0.0
 30
0.0
  0
INSERT
  5
21B
330
1F
100
AcDbEntity
  8
cuerpo
100
AcDbBlockReference
  2
block 70
 10
0.0
 20
0.0
 30
0.0
  0
INSERT
  5
223
330
1F
100
AcDbEntity
  8
cuerpo
100
AcDbBlockReference
  2
block 71
 10
0.0
 20
0.0
 30
0.0
  0
INSERT
  5
22B
330
1F
100
AcDbEntity
  8
cuerpo
100
AcDbBlockReference
  2
block 72
 10
0.0
 20
0.0
 30
0.0
  0
INSERT
  5
233
330
1F
100
AcDbEntity
  8
cuerpo
100
AcDbBlockReference
  2
block 73
 10
0.0
 20
0.0
 30
0.0
  0
INSERT
  5
23B
330
1F
100
AcDbEntity
  8
cuerpo
100
AcDbBlockReference
  2
block 74
 10
0.0
 20
0.0
 30
0.0
  0
INSERT
  5
240
330
1F
100
AcDbEntity
  8
cuerpo
100
AcDbBlockReference
  2
block 75
 10
0.0
 20
0.0
 30
0.0
  0
INSERT
  5
245
330
1F
100
AcDbEntity
  8
cuerpo
100
AcDbBlockReference
  2
block 76
 10
0.0
 20
0.0
 30
0.0
  0
INSERT
  5
24A
330
1F
100
AcDbEntity
  8
cuerpo
100
AcDbBlockReference
  2
block 77
 10
0.0
 20
0.0
 30
0.0
  0
INSERT
  5
252
330
1F
100
AcDbEntity
  8
cuerpo
100
AcDbBlockReference
  2
block 78
 10
0.0
 20
0.0
 30
0.0
  0
INSERT
  5
257
330
1F
100
AcDbEntity
  8
cuerpo
100
AcDbBlockReference
  2
block 79
 10
0.0
 20
0.0
 30
0.0
  0
INSERT
  5
25F
330
1F
100
AcDbEntity
  8
cuerpo
100
AcDbBlockReference
  2
block 80
 10
0.0
 20
0.0
 30
0.0
  0
INSERT
  5
267
330
1F
100
AcDbEntity
  8
cuerpo
100
AcDbBlockReference
  2
block 81
 10
0.0
 20
0.0
 30
0.0
  0
INSERT
  5
26F
330
1F
100
AcDbEntity
  8
cuerpo
100
AcDbBlockReference
  2
block 82
 10
0.0
 20
0.0
 30
0.0
  0
INSERT
  5
277
330
1F
100
AcDbEntity
  8
cuerpo
100
AcDbBlockReference
  2
block 83
 10
0.0
 20
0.0
 30
0.0
  0
INSERT
  5
27F
330
1F
100
AcDbEntity
  8
cuerpo
100
AcDbBlockReference
  2
block 84
 10
0.0
 20
0.0
 30
0.0
  0
INSERT
  5
284
330
1F
100
AcDbEntity
  8
cuerpo
100
AcDbBlockReference
  2
block 85
 10
0.0
 20
0.0
 30
0.0
  0
INSERT
  5
289
330
1F
100
AcDbEntity
  8
cuerpo
100
AcDbBlockReference
  2
block 86
 10
0.0
 20
0.0
 30
0.0
  0
INSERT
  5
28E
330
1F
100
AcDbEntity
  8
cuerpo
100
AcDbBlockReference
  2
block 87
 10
0.0
 20
0.0
 30
0.0
  0
INSERT
  5
296
330
1F
100
AcDbEntity
  8
cuerpo
100
AcDbBlockReference
  2
block 88
 10
0.0
 20
0.0
 30
0.0
  0
INSERT
  5
29B
330
1F
100
AcDbEntity
  8
cuerpo
100
AcDbBlockReference
  2
block 89
 10
0.0
 20
0.0
 30
0.0
  0
INSERT
  5
2A3
330
1F
100
AcDbEntity
  8
cuerpo
100
AcDbBlockReference
  2
block 90
 10
0.0
 20
0.0
 30
0.0
  0
INSERT
  5
2AB
330
1F
100
AcDbEntity
  8
cuerpo
100
AcDbBlockReference
  2
block 91
 10
0.0
 20
0.0
 30
0.0
  0
INSERT
  5
2B3
330
1F
100
AcDbEntity
  8
cuerpo
100
AcDbBlockReference
  2
block 92
 10
0.0
 20
0.0
 30
0.0
  0
INSERT
  5
2BB
330
1F
100
AcDbEntity
  8
cuerpo
100
AcDbBlockReference
  2
block 93
 10
0.0
 20
0.0
 30
0.0
  0
INSERT
  5
2C3
330
1F
100
AcDbEntity
  8
cuerpo
100
AcDbBlockReference
  2
block 94
 10
0.0
 20
0.0
 30
0.0
  0
INSERT
  5
2C8
330
1F
100
AcDbEntity
  8
cuerpo
100
AcDbBlockReference
  2
block 95
 10
0.0
 20
0.0
 30
0.0
  0
INSERT
  5
2D0
330
1F
100
AcDbEntity
  8
cuerpo
100
AcDbBlockReference
  2
block 96
 10
0.0
 20
0.0
 30
0.0
  0
INSERT
  5
2D5
330
1F
100
AcDbEntity
  8
cuerpo
100
AcDbBlockReference
  2
block 97
 10
0.0
 20
0.0
 30
0.0
  0
INSERT
  5
2DD
330
1F
100
AcDbEntity
  8
cuerpo
100
AcDbBlockReference
  2
block 98
 10
0.0
 20
0.0
 30
0.0
  0
INSERT
  5
2E5
330
1F
100
AcDbEntity
  8
cuerpo
100
AcDbBlockReference
  2
block 99
 10
0.0
 20
0.0
 30
0.0
  0
INSERT
  5
2EA
330
1F
100
AcDbEntity
  8
cuerpo
100
AcDbBlockReference
  2
block 100
 10
0.0
 20
0.0
 30
0.0
  0
INSERT
  5
2EF
330
1F
100
AcDbEntity
  8
cuerpo
100
AcDbBlockReference
  2
block 101
 10
0.0
 20
0.0
 30
0.0
  0
INSERT
  5
2F4
330
1F
100
AcDbEntity
  8
cuerpo
100
AcDbBlockReference
  2
block 102
 10
0.0
 20
0.0
 30
0.0
  0
INSERT
  5
2F9
330
1F
100
AcDbEntity
  8
cuerpo
100
AcDbBlockReference
  2
block 103
 10
0.0
 20
0.0
 30
0.0
  0
INSERT
  5
2FE
330
1F
100
AcDbEntity
  8
cuerpo
100
AcDbBlockReference
  2
block 104
 10
0.0
 20
0.0
 30
0.0
  0
INSERT
  5
306
330
1F
100
AcDbEntity
  8
cuerpo
100
AcDbBlockReference
  2
block 105
 10
0.0
 20
0.0
 30
0.0
  0
INSERT
  5
30B
330
1F
100
AcDbEntity
  8
cuerpo
100
AcDbBlockReference
  2
block 106
 10
0.0
 20
0.0
 30
0.0
  0
INSERT
  5
313
330
1F
100
AcDbEntity
  8
cuerpo
100
AcDbBlockReference
  2
block 107
 10
0.0
 20
0.0
 30
0.0
  0
INSERT
  5
31B
330
1F
100
AcDbEntity
  8
cuerpo
100
AcDbBlockReference
  2
block 108
 10
0.0
 20
0.0
 30
0.0
  0
INSERT
  5
323
330
1F
100
AcDbEntity
  8
cuerpo
100
AcDbBlockReference
  2
block 109
 10
0.0
 20
0.0
 30
0.0
  0
INSERT
  5
32B
330
1F
100
AcDbEntity
  8
cuerpo
100
AcDbBlockReference
  2
block 110
 10
0.0
 20
0.0
 30
0.0
  0
INSERT
  5
330
330
1F
100
AcDbEntity
  8
cuerpo
100
AcDbBlockReference
  2
block 111
 10
0.0
 20
0.0
 30
0.0
  0
INSERT
  5
338
330
1F
100
AcDbEntity
  8
cuerpo
100
AcDbBlockReference
  2
block 112
 10
0.0
 20
0.0
 30
0.0
  0
INSERT
  5
33D
330
1F
100
AcDbEntity
  8
cuerpo
100
AcDbBlockReference
  2
block 113
 10
0.0
 20
0.0
 30
0.0
  0
INSERT
  5
345
330
1F
100
AcDbEntity
  8
cuerpo
100
AcDbBlockReference
  2
block 114
 10
0.0
 20
0.0
 30
0.0
  0
INSERT
  5
34D
330
1F
100
AcDbEntity
  8
cuerpo
100
AcDbBlockReference
  2
block 115
 10
0.0
 20
0.0
 30
0.0
  0
INSERT
  5
355
330
1F
100
AcDbEntity
  8
cuerpo
100
AcDbBlockReference
  2
block 116
 10
0.0
 20
0.0
 30
0.0
  0
INSERT
  5
35D
330
1F
100
AcDbEntity
  8
cuerpo
100
AcDbBlockReference
  2
block 117
 10
0.0
 20
0.0
 30
0.0
  0
INSERT
  5
365
330
1F
100
AcDbEntity
  8
cuerpo
100
AcDbBlockReference
  2
block 118
 10
0.0
 20
0.0
 30
0.0
  0
INSERT
  5
36A
330
1F
100
AcDbEntity
  8
cuerpo
100
AcDbBlockReference
  2
block 119
 10
0.0
 20
0.0
 30
0.0
  0
INSERT
  5
372
330
1F
100
AcDbEntity
  8
cuerpo
100
AcDbBlockReference
  2
block 120
 10
0.0
 20
0.0
 30
0.0
  0
INSERT
  5
37A
330
1F
100
AcDbEntity
  8
cuerpo
100
AcDbBlockReference
  2
block 121
 10
0.0
 20
0.0
 30
0.0
  0
INSERT
  5
37F
330
1F
100
AcDbEntity
  8
cuerpo
100
AcDbBlockReference
  2
block 122
 10
0.0
 20
0.0
 30
0.0
  0
INSERT
  5
387
330
1F
100
AcDbEntity
  8
cuerpo
100
AcDbBlockReference
  2
block 123
 10
0.0
 20
0.0
 30
0.0
  0
INSERT
  5
38C
330
1F
100
AcDbEntity
  8
cuerpo
100
AcDbBlockReference
  2
block 124
 10
0.0
 20
0.0
 30
0.0
  0
INSERT
  5
391
330
1F
100
AcDbEntity
  8
cuerpo
100
AcDbBlockReference
  2
block 125
 10
0.0
 20
0.0
 30
0.0
  0
INSERT
  5
396
330
1F
100
AcDbEntity
  8
cuerpo
100
AcDbBlockReference
  2
block 126
 10
0.0
 20
0.0
 30
0.0
  0
INSERT
  5
39E
330
1F
100
AcDbEntity
  8
cuerpo
100
AcDbBlockReference
  2
block 127
 10
0.0
 20
0.0
 30
0.0
  0
INSERT
  5
3A3
330
1F
100
AcDbEntity
  8
cuerpo
100
AcDbBlockReference
  2
block 128
 10
0.0
 20
0.0
 30
0.0
  0
INSERT
  5
3A8
330
1F
100
AcDbEntity
  8
cuerpo
100
AcDbBlockReference
  2
block 129
 10
0.0
 20
0.0
 30
0.0
  0
INSERT
  5
3B0
330
1F
100
AcDbEntity
  8
cuerpo
100
AcDbBlockReference
  2
block 130
 10
0.0
 20
0.0
 30
0.0
  0
INSERT
  5
3B8
330
1F
100
AcDbEntity
  8
cuerpo
100
AcDbBlockReference
  2
block 131
 10
0.0
 20
0.0
 30
0.0
  0
INSERT
  5
3C0
330
1F
100
AcDbEntity
  8
cuerpo
100
AcDbBlockReference
  2
block 132
 10
0.0
 20
0.0
 30
0.0
  0
INSERT
  5
3C8
330
1F
100
AcDbEntity
  8
cuerpo
100
AcDbBlockReference
  2
block 133
 10
0.0
 20
0.0
 30
0.0
  0
INSERT
  5
3D0
330
1F
100
AcDbEntity
  8
cuerpo
100
AcDbBlockReference
  2
block 134
 10
0.0
 20
0.0
 30
0.0
  0
INSERT
  5
3D8
330
1F
100
AcDbEntity
  8
cuerpo
100
AcDbBlockReference
  2
block 135
 10
0.0
 20
0.0
 30
0.0
  0
INSERT
  5
3DD
330
1F
100
AcDbEntity
  8
cuerpo
100
AcDbBlockReference
  2
block 136
 10
0.0
 20
0.0
 30
0.0
  0
INSERT
  5
3E5
330
1F
100
AcDbEntity
  8
cuerpo
100
AcDbBlockReference
  2
block 137
 10
0.0
 20
0.0
 30
0.0
  0
INSERT
  5
3ED
330
1F
100
AcDbEntity
  8
cuerpo
100
AcDbBlockReference
  2
block 138
 10
0.0
 20
0.0
 30
0.0
  0
INSERT
  5
3F2
330
1F
100
AcDbEntity
  8
cuerpo
100
AcDbBlockReference
  2
block 139
 10
0.0
 20
0.0
 30
0.0
  0
INSERT
  5
3FA
330
1F
100
AcDbEntity
  8
cuerpo
100
AcDbBlockReference
  2
block 140
 10
0.0
 20
0.0
 30
0.0
  0
INSERT
  5
402
330
1F
100
AcDbEntity
  8
cuerpo
100
AcDbBlockReference
  2
block 141
 10
0.0
 20
0.0
 30
0.0
  0
INSERT
  5
40A
330
1F
100
AcDbEntity
  8
cuerpo
100
AcDbBlockReference
  2
block 142
 10
0.0
 20
0.0
 30
0.0
  0
INSERT
  5
412
330
1F
100
AcDbEntity
  8
cuerpo
100
AcDbBlockReference
  2
block 143
 10
0.0
 20
0.0
 30
0.0
  0
INSERT
  5
417
330
1F
100
AcDbEntity
  8
cuerpo
100
AcDbBlockReference
  2
block 144
 10
0.0
 20
0.0
 30
0.0
  0
INSERT
  5
41F
330
1F
100
AcDbEntity
  8
cuerpo
100
AcDbBlockReference
  2
block 145
 10
0.0
 20
0.0
 30
0.0
  0
INSERT
  5
427
330
1F
100
AcDbEntity
  8
cuerpo
100
AcDbBlockReference
  2
block 146
 10
0.0
 20
0.0
 30
0.0
  0
INSERT
  5
42C
330
1F
100
AcDbEntity
  8
cuerpo
100
AcDbBlockReference
  2
block 147
 10
0.0
 20
0.0
 30
0.0
  0
INSERT
  5
431
330
1F
100
AcDbEntity
  8
cuerpo
100
AcDbBlockReference
  2
block 148
 10
0.0
 20
0.0
 30
0.0
  0
INSERT
  5
439
330
1F
100
AcDbEntity
  8
cuerpo
100
AcDbBlockReference
  2
block 149
 10
0.0
 20
0.0
 30
0.0
  0
INSERT
  5
441
330
1F
100
AcDbEntity
  8
cuerpo
100
AcDbBlockReference
  2
block 150
 10
0.0
 20
0.0
 30
0.0
  0
INSERT
  5
449
330
1F
100
AcDbEntity
  8
cuerpo
100
AcDbBlockReference
  2
block 151
 10
0.0
 20
0.0
 30
0.0
  0
INSERT
  5
451
330
1F
100
AcDbEntity
  8
cuerpo
100
AcDbBlockReference
  2
block 152
 10
0.0
 20
0.0
 30
0.0
  0
INSERT
  5
459
330
1F
100
AcDbEntity
  8
cuerpo
100
AcDbBlockReference
  2
block 153
 10
0.0
 20
0.0
 30
0.0
  0
INSERT
  5
461
330
1F
100
AcDbEntity
  8
cuerpo
100
AcDbBlockReference
  2
block 154
 10
0.0
 20
0.0
 30
0.0
  0
INSERT
  5
469
330
1F
100
AcDbEntity
  8
cuerpo
100
AcDbBlockReference
  2
block 155
 10
0.0
 20
0.0
 30
0.0
  0
INSERT
  5
46E
330
1F
100
AcDbEntity
  8
cuerpo
100
AcDbBlockReference
  2
block 156
 10
0.0
 20
0.0
 30
0.0
  0
INSERT
  5
473
330
1F
100
AcDbEntity
  8
cuerpo
100
AcDbBlockReference
  2
block 157
 10
0.0
 20
0.0
 30
0.0
  0
INSERT
  5
47B
330
1F
100
AcDbEntity
  8
cuerpo
100
AcDbBlockReference
  2
block 158
 10
0.0
 20
0.0
 30
0.0
  0
INSERT
  5
483
330
1F
100
AcDbEntity
  8
cuerpo
100
AcDbBlockReference
  2
block 159
 10
0.0
 20
0.0
 30
0.0
  0
INSERT
  5
48B
330
1F
100
AcDbEntity
  8
cuerpo
100
AcDbBlockReference
  2
block 160
 10
0.0
 20
0.0
 30
0.0
  0
INSERT
  5
493
330
1F
100
AcDbEntity
  8
cuerpo
100
AcDbBlockReference
  2
block 161
 10
0.0
 20
0.0
 30
0.0
  0
INSERT
  5
49B
330
1F
100
AcDbEntity
  8
cuerpo
100
AcDbBlockReference
  2
block 162
 10
0.0
 20
0.0
 30
0.0
  0
INSERT
  5
4A3
330
1F
100
AcDbEntity
  8
cuerpo
100
AcDbBlockReference
  2
block 163
 10
0.0
 20
0.0
 30
0.0
  0
INSERT
  5
4AB
330
1F
100
AcDbEntity
  8
cuerpo
100
AcDbBlockReference
  2
block 164
 10
0.0
 20
0.0
 30
0.0
  0
INSERT
  5
4B3
330
1F
100
AcDbEntity
  8
cuerpo
100
AcDbBlockReference
  2
block 165
 10
0.0
 20
0.0
 30
0.0
  0
INSERT
  5
4BB
330
1F
100
AcDbEntity
  8
cuerpo
100
AcDbBlockReference
  2
block 166
 10
0.0
 20
0.0
 30
0.0
  0
INSERT
  5
4C3
330
1F
100
AcDbEntity
  8
cuerpo
100
AcDbBlockReference
  2
block 167
 10
0.0
 20
0.0
 30
0.0
  0
INSERT
  5
4CB
330
1F
100
AcDbEntity
  8
cuerpo
100
AcDbBlockReference
  2
block 168
 10
0.0
 20
0.0
 30
0.0
  0
INSERT
  5
4D0
330
1F
100
AcDbEntity
  8
cuerpo
100
AcDbBlockReference
  2
block 169
 10
0.0
 20
0.0
 30
0.0
  0
INSERT
  5
4D5
330
1F
100
AcDbEntity
  8
cuerpo
100
AcDbBlockReference
  2
block 170
 10
0.0
 20
0.0
 30
0.0
  0
INSERT
  5
4DA
330
1F
100
AcDbEntity
  8
cuerpo
100
AcDbBlockReference
  2
block 171
 10
0.0
 20
0.0
 30
0.0
  0
INSERT
  5
4E0
330
1F
100
AcDbEntity
  8
cotas
100
AcDbBlockReference
  2
block 172
 10
0.0
 20
0.0
 30
0.0
  0
INSERT
  5
54C
330
1F
100
AcDbEntity
  8
cotas
100
AcDbBlockReference
  2
block 173
 10
0.0
 20
0.0
 30
0.0
  0
INSERT
  5
5A3
330
1F
100
AcDbEntity
  8
cotas
100
AcDbBlockReference
  2
block 184
 10
0.0
 20
0.0
 30
0.0
  0
INSERT
  5
5FA
330
1F
100
AcDbEntity
  8
cotas
100
AcDbBlockReference
  2
block 195
 10
0.0
 20
0.0
 30
0.0
  0
INSERT
  5
651
330
1F
100
AcDbEntity
  8
cotas
100
AcDbBlockReference
  2
block 206
 10
0.0
 20
0.0
 30
0.0
  0
INSERT
  5
6C8
330
1F
100
AcDbEntity
  8
cotas
100
AcDbBlockReference
  2
block 221
 10
0.0
 20
0.0
 30
0.0
  0
INSERT
  5
727
330
1F
100
AcDbEntity
  8
cotas
100
AcDbBlockReference
  2
block 233
 10
0.0
 20
0.0
 30
0.0
  0
INSERT
  5
786
330
1F
100
AcDbEntity
  8
cotas
100
AcDbBlockReference
  2
block 245
 10
0.0
 20
0.0
 30
0.0
  0
INSERT
  5
7E5
330
1F
100
AcDbEntity
  8
cotas
100
AcDbBlockReference
  2
block 257
 10
0.0
 20
0.0
 30
0.0
  0
INSERT
  5
83C
330
1F
100
AcDbEntity
  8
cotas
100
AcDbBlockReference
  2
block 268
 10
0.0
 20
0.0
 30
0.0
  0
INSERT
  5
844
330
1F
100
AcDbEntity
  8
cotas
100
AcDbBlockReference
  2
block 269
 10
0.0
 20
0.0
 30
0.0
  0
INSERT
  5
84C
330
1F
100
AcDbEntity
  8
cotas
100
AcDbBlockReference
  2
block 270
 10
0.0
 20
0.0
 30
0.0
  0
ENDSEC
  0
SECTION
  2
OBJECTS
  0
DICTIONARY
  5
C
330
0
100
AcDbDictionary
281
     1
  3
ACAD_GROUP
350
D
  3
ACAD_LAYOUT
350
1A
  3
ACAD_MLINESTYLE
350
17
  3
ACAD_PLOTSETTINGS
350
19
  3
ACAD_PLOTSTYLENAME
350
E
  3
ACAD_TABLESTYLE
350
8A7
  3
ACAD_VISUALSTYLE
350
2A
  0
DICTIONARY
  5
D
102
{ACAD_REACTORS
330
C
102
}
330
C
100
AcDbDictionary
281
     1
  0
DICTIONARY
  5
1A
102
{ACAD_REACTORS
330
C
102
}
330
C
100
AcDbDictionary
281
     1
  3
Layout1
350
1E
  3
Layout2
350
26
  3
Model
350
22
  0
DICTIONARY
  5
17
102
{ACAD_REACTORS
330
C
102
}
330
C
100
AcDbDictionary
281
     1
  3
Standard
350
18
  0
DICTIONARY
  5
19
102
{ACAD_REACTORS
330
C
102
}
330
C
100
AcDbDictionary
281
     1
  0
ACDBDICTIONARYWDFLT
  5
E
102
{ACAD_REACTORS
330
C
102
}
330
C
100
AcDbDictionary
281
     1
  3
Normal
350
F
100
AcDbDictionaryWithDefault
340
F
  0
DICTIONARY
  5
8A7
102
{ACAD_REACTORS
330
C
102
}
330
C
100
AcDbDictionary
281
     1
  0
DICTIONARY
  5
2A
102
{ACAD_REACTORS
330
C
102
}
330
C
100
AcDbDictionary
281
     1
  3
2dWireframe
350
2F
  3
3D Hidden
350
31
  3
3dWireframe
350
30
  3
Basic
350
32
  3
Brighten
350
36
  3
ColorChange
350
3A
  3
Conceptual
350
34
  3
Dim
350
35
  3
Facepattern
350
39
  3
Flat
350
2B
  3
FlatWithEdges
350
2C
  3
Gouraud
350
2D
  3
GouraudWithEdges
350
2E
  3
Linepattern
350
38
  3
Realistic
350
33
  3
Thicken
350
37
  0
LAYOUT
  5
1E
102
{ACAD_REACTORS
330
1A
102
}
330
1A
100
AcDbPlotSettings
  1

  2
none_device
  4

  6

 40
0.0
 41
0.0
 42
0.0
 43
0.0
 44
0.0
 45
0.0
 46
0.0
 47
0.0
 48
0.0
 49
0.0
140
0.0
141
0.0
142
1.0
143
1.0
 70
   688
 72
     0
 73
     0
 74
     5
  7

 75
    16
 76
     0
 77
     2
 78
   300
147
1.0
148
0.0
149
0.0
100
AcDbLayout
  1
Layout1
 70
     1
 71
     1
 10
0.0
 20
0.0
 11
12.0
 21
9.0
 12
0.0
 22
0.0
 32
0.0
 14
1.000000000000000E+20
 24
1.000000000000000E+20
 34
1.000000000000000E+20
 15
-1.000000000000000E+20
 25
-1.000000000000000E+20
 35
-1.000000000000000E+20
146
0.0
 13
0.0
 23
0.0
 33
0.0
 16
1.0
 26
0.0
 36
0.0
 17
0.0
 27
1.0
 37
0.0
 76
     0
330
1B
  0
LAYOUT
  5
26
102
{ACAD_REACTORS
330
1A
102
}
330
1A
100
AcDbPlotSettings
  1

  2
none_device
  4

  6

 40
0.0
 41
0.0
 42
0.0
 43
0.0
 44
0.0
 45
0.0
 46
0.0
 47
0.0
 48
0.0
 49
0.0
140
0.0
141
0.0
142
1.0
143
1.0
 70
   688
 72
     0
 73
     0
 74
     5
  7

 75
    16
 76
     0
 77
     2
 78
   300
147
1.0
148
0.0
149
0.0
100
AcDbLayout
  1
Layout2
 70
     1
 71
     2
 10
0.0
 20
0.0
 11
0.0
 21
0.0
 12
0.0
 22
0.0
 32
0.0
 14
0.0
 24
0.0
 34
0.0
 15
0.0
 25
0.0
 35
0.0
146
0.0
 13
0.0
 23
0.0
 33
0.0
 16
1.0
 26
0.0
 36
0.0
 17
0.0
 27
1.0
 37
0.0
 76
     0
330
23
  0
LAYOUT
  5
22
102
{ACAD_REACTORS
330
1A
102
}
330
1A
100
AcDbPlotSettings
  1

  2
none_device
  4

  6

 40
0.0
 41
0.0
 42
0.0
 43
0.0
 44
0.0
 45
0.0
 46
0.0
 47
0.0
 48
0.0
 49
0.0
140
0.0
141
0.0
142
1.0
143
1.0
 70
  1712
 72
     0
 73
     0
 74
     0
  7

 75
     0
 76
     0
 77
     2
 78
   300
147
1.0
148
0.0
149
0.0
100
AcDbLayout
  1
Model
 70
     1
 71
     0
 10
0.0
 20
0.0
 11
12.0
 21
9.0
 12
0.0
 22
0.0
 32
0.0
 14
1.000000000000000E+20
 24
1.000000000000000E+20
 34
1.000000000000000E+20
 15
-1.000000000000000E+20
 25
-1.000000000000000E+20
 35
-1.000000000000000E+20
146
0.0
 13
0.0
 23
0.0
 33
0.0
 16
1.0
 26
0.0
 36
0.0
 17
0.0
 27
1.0
 37
0.0
 76
     0
330
1F
331
29
  0
MLINESTYLE
  5
18
102
{ACAD_REACTORS
330
17
102
}
330
17
100
AcDbMlineStyle
  2
Standard
 70
     0
  3

 62
   256
 51
90.0
 52
90.0
 71
     2
 49
0.5
 62
   256
  6
BYLAYER
 49
-0.5
 62
   256
  6
BYLAYER
  0
ACDBPLACEHOLDER
  5
F
102
{ACAD_REACTORS
330
E
102
}
330
E
  0
VISUALSTYLE
  5
2F
102
{ACAD_REACTORS
330
2A
102
}
330
2A
100
AcDbVisualStyle
  2
2dWireframe
 70
     4
 71
     0
 72
     2
 73
     0
 90
        0
 40
-0.6
 41
-30.0
 62
     5
 63
     7
421
 16777215
 74
     1
 91
        4
 64
     7
 65
   257
 75
     1
175
     1
 42
1.0
 92
        0
 66
   257
 43
1.0
 76
     1
 77
     6
 78
     2
 67
     7
 79
     5
170
     0
171
     0
290
     0
174
     0
 93
        1
 44
0.0
173
     0
291
     0
 45
0.0
1001
ACAD
1000
AcDbSavedByObjectVersion
1070
     0
  0
VISUALSTYLE
  5
31
102
{ACAD_REACTORS
330
2A
102
}
330
2A
100
AcDbVisualStyle
  2
3D Hidden
 70
     6
 71
     1
 72
     2
 73
     2
 90
        0
 40
-0.6
 41
-30.0
 62
     5
 63
     7
421
 16777215
 74
     2
 91
        2
 64
     7
 65
   257
 75
     2
175
     1
 42
40.0
 92
        0
 66
   257
 43
1.0
 76
     1
 77
     6
 78
     2
 67
     7
 79
     3
170
     0
171
     0
290
     0
174
     0
 93
        1
 44
0.0
173
     0
291
     0
 45
0.0
1001
ACAD
1000
AcDbSavedByObjectVersion
1070
     0
  0
VISUALSTYLE
  5
30
102
{ACAD_REACTORS
330
2A
102
}
330
2A
100
AcDbVisualStyle
  2
3dWireframe
 70
     5
 71
     0
 72
     2
 73
     0
 90
        0
 40
-0.6
 41
-30.0
 62
     5
 63
     7
421
 16777215
 74
     1
 91
        4
 64
     7
 65
   257
 75
     1
175
     1
 42
1.0
 92
        0
 66
   257
 43
1.0
 76
     1
 77
     6
 78
     2
 67
     7
 79
     5
170
     0
171
     0
290
     0
174
     0
 93
        1
 44
0.0
173
     0
291
     0
 45
0.0
1001
ACAD
1000
AcDbSavedByObjectVersion
1070
     0
  0
VISUALSTYLE
  5
32
102
{ACAD_REACTORS
330
2A
102
}
330
2A
100
AcDbVisualStyle
  2
Basic
 70
     7
 71
     1
 72
     0
 73
     1
 90
        0
 40
-0.6
 41
-30.0
 62
     5
 63
     7
421
 16777215
 74
     0
 91
        4
 64
     7
 65
   257
 75
     1
175
     1
 42
1.0
 92
        8
 66
     7
 43
1.0
 76
     1
 77
     6
 78
     2
 67
     7
 79
     5
170
     0
171
     0
290
     0
174
     0
 93
        1
 44
0.0
173
     0
291
     1
 45
0.0
1001
ACAD
1000
AcDbSavedByObjectVersion
1070
     0
  0
VISUALSTYLE
  5
36
102
{ACAD_REACTORS
330
2A
102
}
330
2A
100
AcDbVisualStyle
  2
Brighten
 70
    12
 71
     2
 72
     2
 73
     0
 90
        0
 40
-0.6
 41
-30.0
 62
     5
 63
     7
421
 16777215
 74
     1
 91
        4
 64
     7
 65
   257
 75
     1
175
     1
 42
1.0
 92
        8
 66
     7
 43
1.0
 76
     1
 77
     6
 78
     2
 67
     7
 79
     5
170
     0
171
     0
290
     0
174
     0
 93
        1
 44
50.0
173
     0
291
     1
 45
0.0
1001
ACAD
1000
AcDbSavedByObjectVersion
1070
     0
  0
VISUALSTYLE
  5
3A
102
{ACAD_REACTORS
330
2A
102
}
330
2A
100
AcDbVisualStyle
  2
ColorChange
 70
    16
 71
     2
 72
     2
 73
     3
 90
        0
 40
-0.6
 41
-30.0
 62
     5
 63
     8
421
  8421504
 74
     1
 91
        4
 64
     7
 65
   257
 75
     1
175
     1
 42
1.0
 92
        8
 66
     8
424
  8421504
 43
1.0
 76
     1
 77
     6
 78
     2
 67
     7
 79
     5
170
     0
171
     0
290
     0
174
     0
 93
        1
 44
0.0
173
     0
291
     1
 45
0.0
1001
ACAD
1000
AcDbSavedByObjectVersion
1070
     0
  0
VISUALSTYLE
  5
34
102
{ACAD_REACTORS
330
2A
102
}
330
2A
100
AcDbVisualStyle
  2
Conceptual
 70
     9
 71
     3
 72
     2
 73
     0
 90
        0
 40
-0.6
 41
-30.0
 62
     5
 63
     7
421
 16777215
 74
     2
 91
        2
 64
     7
 65
   257
 75
     1
175
     1
 42
40.0
 92
        8
 66
     7
 43
1.0
 76
     1
 77
     6
 78
     2
 67
     7
 79
     3
170
     0
171
     0
290
     0
174
     0
 93
        1
 44
0.0
173
     0
291
     0
 45
0.0
1001
ACAD
1000
AcDbSavedByObjectVersion
1070
     0
  0
VISUALSTYLE
  5
35
102
{ACAD_REACTORS
330
2A
102
}
330
2A
100
AcDbVisualStyle
  2
Dim
 70
    11
 71
     2
 72
     2
 73
     0
 90
        0
 40
-0.6
 41
-30.0
 62
     5
 63
     7
421
 16777215
 74
     1
 91
        4
 64
     7
 65
   257
 75
     1
175
     1
 42
1.0
 92
        8
 66
     7
 43
1.0
 76
     1
 77
     6
 78
     2
 67
     7
 79
     5
170
     0
171
     0
290
     0
174
     0
 93
        1
 44
-50.0
173
     0
291
     1
 45
0.0
1001
ACAD
1000
AcDbSavedByObjectVersion
1070
     0
  0
VISUALSTYLE
  5
39
102
{ACAD_REACTORS
330
2A
102
}
330
2A
100
AcDbVisualStyle
  2
Facepattern
 70
    15
 71
     2
 72
     2
 73
     0
 90
        0
 40
-0.6
 41
-30.0
 62
     5
 63
     7
421
 16777215
 74
     1
 91
        4
 64
     7
 65
   257
 75
     1
175
     1
 42
1.0
 92
        8
 66
     7
 43
1.0
 76
     1
 77
     6
 78
     2
 67
     7
 79
     5
170
     0
171
     0
290
     0
174
     0
 93
        1
 44
0.0
173
     0
291
     1
 45
0.0
1001
ACAD
1000
AcDbSavedByObjectVersion
1070
     0
  0
VISUALSTYLE
  5
2B
102
{ACAD_REACTORS
330
2A
102
}
330
2A
100
AcDbVisualStyle
  2
Flat
 70
     0
 71
     2
 72
     1
 73
     1
 90
        2
 40
-0.6
 41
30.0
 62
     5
 63
     7
421
 16777215
 74
     0
 91
        4
 64
     7
 65
   257
 75
     1
175
     1
 42
1.0
 92
        8
 66
     7
 43
1.0
 76
     1
 77
     6
 78
     2
 67
     7
 79
     5
170
     0
171
     0
290
     0
174
     0
 93
       13
 44
0.0
173
     0
291
     1
 45
0.0
1001
ACAD
1000
AcDbSavedByObjectVersion
1070
     0
  0
VISUALSTYLE
  5
2C
102
{ACAD_REACTORS
330
2A
102
}
330
2A
100
AcDbVisualStyle
  2
FlatWithEdges
 70
     1
 71
     2
 72
     1
 73
     1
 90
        2
 40
-0.6
 41
30.0
 62
     5
 63
     7
421
 16777215
 74
     1
 91
        4
 64
     7
 65
   257
 75
     1
175
     1
 42
1.0
 92
        0
 66
   257
 43
1.0
 76
     1
 77
     6
 78
     2
 67
     7
 79
     5
170
     0
171
     0
290
     0
174
     0
 93
       13
 44
0.0
173
     0
291
     1
 45
0.0
1001
ACAD
1000
AcDbSavedByObjectVersion
1070
     0
  0
VISUALSTYLE
  5
2D
102
{ACAD_REACTORS
330
2A
102
}
330
2A
100
AcDbVisualStyle
  2
Gouraud
 70
     2
 71
     2
 72
     2
 73
     1
 90
        2
 40
-0.6
 41
30.0
 62
     5
 63
     7
421
 16777215
 74
     0
 91
        4
 64
     7
 65
   257
 75
     1
175
     1
 42
1.0
 92
        0
 66
     7
 43
1.0
 76
     1
 77
     6
 78
     2
 67
     7
 79
     5
170
     0
171
     0
290
     0
174
     0
 93
       13
 44
0.0
173
     0
291
     1
 45
0.0
1001
ACAD
1000
AcDbSavedByObjectVersion
1070
     0
  0
VISUALSTYLE
  5
2E
102
{ACAD_REACTORS
330
2A
102
}
330
2A
100
AcDbVisualStyle
  2
GouraudWithEdges
 70
     3
 71
     2
 72
     2
 73
     1
 90
        2
 40
-0.6
 41
30.0
 62
     5
 63
     7
421
 16777215
 74
     1
 91
        4
 64
     7
 65
   257
 75
     1
175
     1
 42
1.0
 92
        0
 66
   257
 43
1.0
 76
     1
 77
     6
 78
     2
 67
     7
 79
     5
170
     0
171
     0
290
     0
174
     0
 93
       13
 44
0.0
173
     0
291
     1
 45
0.0
1001
ACAD
1000
AcDbSavedByObjectVersion
1070
     0
  0
VISUALSTYLE
  5
38
102
{ACAD_REACTORS
330
2A
102
}
330
2A
100
AcDbVisualStyle
  2
Linepattern
 70
    14
 71
     2
 72
     2
 73
     0
 90
        0
 40
-0.6
 41
-30.0
 62
     5
 63
     7
421
 16777215
 74
     1
 91
        4
 64
     7
 65
   257
 75
     7
175
     7
 42
1.0
 92
        8
 66
     7
 43
1.0
 76
     1
 77
     6
 78
     2
 67
     7
 79
     5
170
     0
171
     0
290
     0
174
     0
 93
        1
 44
0.0
173
     0
291
     1
 45
0.0
1001
ACAD
1000
AcDbSavedByObjectVersion
1070
     0
  0
VISUALSTYLE
  5
33
102
{ACAD_REACTORS
330
2A
102
}
330
2A
100
AcDbVisualStyle
  2
Realistic
 70
     8
 71
     2
 72
     2
 73
     0
 90
        0
 40
-0.6
 41
-30.0
 62
     5
 63
     7
421
 16777215
 74
     1
 91
        0
 64
     7
 65
   257
 75
     1
175
     1
 42
1.0
 92
        8
 66
     8
424
  7895160
 43
1.0
 76
     1
 77
     6
 78
     2
 67
     7
 79
     5
170
     0
171
     0
290
     0
174
     0
 93
       13
 44
0.0
173
     0
291
     0
 45
0.0
1001
ACAD
1000
AcDbSavedByObjectVersion
1070
     0
  0
VISUALSTYLE
  5
37
102
{ACAD_REACTORS
330
2A
102
}
330
2A
100
AcDbVisualStyle
  2
Thicken
 70
    13
 71
     2
 72
     2
 73
     0
 90
        0
 40
-0.6
 41
-30.0
 62
     5
 63
     7
421
 16777215
 74
     1
 91
        4
 64
     7
 65
   257
 75
     1
175
     1
 42
1.0
 92
       12
 66
     7
 43
1.0
 76
     1
 77
     6
 78
     2
 67
     7
 79
     5
170
     0
171
     0
290
     0
174
     0
 93
        1
 44
0.0
173
     0
291
     1
 45
0.0
1001
ACAD
1000
AcDbSavedByObjectVersion
1070
     0
  0
ENDSEC
  0
EOF
