  0
SECTION
  2
HEADER
  9
$ACADVER
  1
AC1015
  9
$ACADMAINTVER
 70
    20
  9
$DWGCODEPAGE
  3
ANSI_1252
  9
$INSBASE
 10
0.0
 20
0.0
 30
0.0
  9
$EXTMIN
 10
-2.688769493401949
 20
-1.385607880104341
 30
-0.0015258207003583
  9
$EXTMAX
 10
6.12116701980257
 20
3.594860859861203
 30
0.0000000349246037
  9
$LIMMIN
 10
0.0
 20
0.0
  9
$LIMMAX
 10
17.6
 20
13.6
  9
$ORTHOMODE
 70
     0
  9
$REGENMODE
 70
     1
  9
$FILLMODE
 70
     1
  9
$QTEXTMODE
 70
     0
  9
$MIRRTEXT
 70
     0
  9
$LTSCALE
 40
1.6
  9
$ATTMODE
 70
     1
  9
$TEXTSIZE
 40
0.2
  9
$TRACEWID
 40
0.05
  9
$TEXTSTYLE
  7
Standard
  9
$CLAYER
  8
0
  9
$CELTYPE
  6
ByLayer
  9
$CECOLOR
 62
   256
  9
$CELTSCALE
 40
1.0
  9
$DISPSILH
 70
     0
  9
$DIMSCALE
 40
1.0
  9
$DIMASZ
 40
0.0708661417322835
  9
$DIMEXO
 40
0.0625
  9
$DIMDLI
 40
0.38
  9
$DIMRND
 40
0.0
  9
$DIMDLE
 40
0.0
  9
$DIMEXE
 40
0.18
  9
$DIMTP
 40
0.0
  9
$DIMTM
 40
0.0
  9
$DIMTXT
 40
0.3048000037670135
  9
$DIMCEN
 40
0.09
  9
$DIMTSZ
 40
0.0
  9
$DIMTOL
 70
     0
  9
$DIMLIM
 70
     0
  9
$DIMTIH
 70
     1
  9
$DIMTOH
 70
     1
  9
$DIMSE1
 70
     0
  9
$DIMSE2
 70
     0
  9
$DIMTAD
 70
     0
  9
$DIMZIN
 70
     0
  9
$DIMBLK
  1

  9
$DIMASO
 70
     1
  9
$DIMSHO
 70
     1
  9
$DIMPOST
  1

  9
$DIMAPOST
  1

  9
$DIMALT
 70
     0
  9
$DIMALTD
 70
     2
  9
$DIMALTF
 40
25.4
  9
$DIMLFAC
 40
1.0
  9
$DIMTOFL
 70
     0
  9
$DIMTVP
 40
0.0
  9
$DIMTIX
 70
     0
  9
$DIMSOXD
 70
     0
  9
$DIMSAH
 70
     0
  9
$DIMBLK1
  1

  9
$DIMBLK2
  1

  9
$DIMSTYLE
  2
Standard
  9
$DIMCLRD
 70
     0
  9
$DIMCLRE
 70
     0
  9
$DIMCLRT
 70
     0
  9
$DIMTFAC
 40
1.0
  9
$DIMGAP
 40
0.09
  9
$DIMJUST
 70
     0
  9
$DIMSD1
 70
     0
  9
$DIMSD2
 70
     0
  9
$DIMTOLJ
 70
     1
  9
$DIMTZIN
 70
     0
  9
$DIMALTZ
 70
     0
  9
$DIMALTTZ
 70
     0
  9
$DIMUPT
 70
     0
  9
$DIMDEC
 70
     4
  9
$DIMTDEC
 70
     4
  9
$DIMALTU
 70
     2
  9
$DIMALTTD
 70
     2
  9
$DIMTXSTY
  7
Standard
  9
$DIMAUNIT
 70
     0
  9
$DIMADEC
 70
     0
  9
$DIMALTRND
 40
0.0
  9
$DIMAZIN
 70
     0
  9
$DIMDSEP
 70
    46
  9
$DIMATFIT
 70
     3
  9
$DIMFRAC
 70
     0
  9
$DIMLDRBLK
  1

  9
$DIMLUNIT
 70
     2
  9
$DIMLWD
 70
    -2
  9
$DIMLWE
 70
    -2
  9
$DIMTMOVE
 70
     0
  9
$LUNITS
 70
     2
  9
$LUPREC
 70
     4
  9
$SKETCHINC
 40
0.1
  9
$FILLETRAD
 40
0.0
  9
$AUNITS
 70
     0
  9
$AUPREC
 70
     0
  9
$MENU
  1
.
  9
$ELEVATION
 40
0.0
  9
$PELEVATION
 40
0.0
  9
$THICKNESS
 40
0.0
  9
$LIMCHECK
 70
     0
  9
$CHAMFERA
 40
0.0
  9
$CHAMFERB
 40
0.0
  9
$CHAMFERC
 40
0.0
  9
$CHAMFERD
 40
0.0
  9
$SKPOLY
 70
     0
  9
$TDCREATE
 40
2457122.568114815
  9
$TDUCREATE
 40
2457122.734781481
  9
$TDUPDATE
 40
2457122.572448137
  9
$TDUUPDATE
 40
2457122.739114804
  9
$TDINDWG
 40
0.0011150231
  9
$TDUSRTIMER
 40
0.0011149884
  9
$USRTIMER
 70
     1
  9
$ANGBASE
 50
0.0
  9
$ANGDIR
 70
     0
  9
$PDMODE
 70
     0
  9
$PDSIZE
 40
0.0
  9
$PLINEWID
 40
0.0
  9
$SPLFRAME
 70
     0
  9
$SPLINETYPE
 70
     6
  9
$SPLINESEGS
 70
     8
  9
$HANDSEED
  5
246E
  9
$SURFTAB1
 70
     6
  9
$SURFTAB2
 70
     6
  9
$SURFTYPE
 70
     6
  9
$SURFU
 70
     6
  9
$SURFV
 70
     6
  9
$UCSBASE
  2

  9
$UCSNAME
  2

  9
$UCSORG
 10
0.0
 20
0.0
 30
0.0
  9
$UCSXDIR
 10
1.0
 20
0.0
 30
0.0
  9
$UCSYDIR
 10
0.0
 20
1.0
 30
0.0
  9
$UCSORTHOREF
  2

  9
$UCSORTHOVIEW
 70
     0
  9
$UCSORGTOP
 10
0.0
 20
0.0
 30
0.0
  9
$UCSORGBOTTOM
 10
0.0
 20
0.0
 30
0.0
  9
$UCSORGLEFT
 10
0.0
 20
0.0
 30
0.0
  9
$UCSORGRIGHT
 10
0.0
 20
0.0
 30
0.0
  9
$UCSORGFRONT
 10
0.0
 20
0.0
 30
0.0
  9
$UCSORGBACK
 10
0.0
 20
0.0
 30
0.0
  9
$PUCSBASE
  2

  9
$PUCSNAME
  2

  9
$PUCSORG
 10
0.0
 20
0.0
 30
0.0
  9
$PUCSXDIR
 10
1.0
 20
0.0
 30
0.0
  9
$PUCSYDIR
 10
0.0
 20
1.0
 30
0.0
  9
$PUCSORTHOREF
  2

  9
$PUCSORTHOVIEW
 70
     0
  9
$PUCSORGTOP
 10
0.0
 20
0.0
 30
0.0
  9
$PUCSORGBOTTOM
 10
0.0
 20
0.0
 30
0.0
  9
$PUCSORGLEFT
 10
0.0
 20
0.0
 30
0.0
  9
$PUCSORGRIGHT
 10
0.0
 20
0.0
 30
0.0
  9
$PUCSORGFRONT
 10
0.0
 20
0.0
 30
0.0
  9
$PUCSORGBACK
 10
0.0
 20
0.0
 30
0.0
  9
$USERI1
 70
     0
  9
$USERI2
 70
     0
  9
$USERI3
 70
     0
  9
$USERI4
 70
     0
  9
$USERI5
 70
     0
  9
$USERR1
 40
0.0
  9
$USERR2
 40
0.0
  9
$USERR3
 40
0.0
  9
$USERR4
 40
0.0
  9
$USERR5
 40
0.0
  9
$WORLDVIEW
 70
     1
  9
$SHADEDGE
 70
     3
  9
$SHADEDIF
 70
    70
  9
$TILEMODE
 70
     1
  9
$MAXACTVP
 70
    64
  9
$PINSBASE
 10
0.0
 20
0.0
 30
0.0
  9
$PLIMCHECK
 70
     0
  9
$PEXTMIN
 10
0.0
 20
0.0
 30
0.0
  9
$PEXTMAX
 10
17.6
 20
13.6
 30
0.0
  9
$PLIMMIN
 10
0.0
 20
0.0
  9
$PLIMMAX
 10
17.6
 20
13.6
  9
$UNITMODE
 70
     0
  9
$VISRETAIN
 70
     1
  9
$PLINEGEN
 70
     0
  9
$PSLTSCALE
 70
     1
  9
$TREEDEPTH
 70
  3020
  9
$CMLSTYLE
  2
Standard
  9
$CMLJUST
 70
     0
  9
$CMLSCALE
 40
1.0
  9
$PROXYGRAPHICS
 70
     1
  9
$MEASUREMENT
 70
     0
  9
$CELWEIGHT
370
    -1
  9
$ENDCAPS
280
     0
  9
$JOINSTYLE
280
     0
  9
$LWDISPLAY
290
     0
  9
$INSUNITS
 70
     1
  9
$HYPERLINKBASE
  1

  9
$STYLESHEET
  1

  9
$XEDIT
290
     1
  9
$CEPSNTYPE
380
     0
  9
$PSTYLEMODE
290
     1
  9
$FINGERPRINTGUID
  2
{CFD7DB64-13CB-49F9-A9F2-58554CD70597}
  9
$VERSIONGUID
  2
{66E8BF4C-1A35-4165-90FF-5E695FF9D881}
  9
$EXTNAMES
290
     1
  9
$PSVPSCALE
 40
0.0
  9
$OLESTARTUP
290
     0
  0
ENDSEC
  0
SECTION
  2
CLASSES
  0
CLASS
  1
ACDBDICTIONARYWDFLT
  2
AcDbDictionaryWithDefault
  3
ObjectDBX Classes
 90
        0
280
     0
281
     0
  0
CLASS
  1
MATERIAL
  2
AcDbMaterial
  3
ObjectDBX Classes
 90
     1153
280
     0
281
     0
  0
CLASS
  1
VISUALSTYLE
  2
AcDbVisualStyle
  3
ObjectDBX Classes
 90
     4095
280
     0
281
     0
  0
CLASS
  1
SCALE
  2
AcDbScale
  3
ObjectDBX Classes
 90
     1153
280
     0
281
     0
  0
CLASS
  1
TABLESTYLE
  2
AcDbTableStyle
  3
ObjectDBX Classes
 90
     4095
280
     0
281
     0
  0
CLASS
  1
MLEADERSTYLE
  2
AcDbMLeaderStyle
  3
ACDB_MLEADERSTYLE_CLASS
 90
     4095
280
     0
281
     0
  0
CLASS
  1
DICTIONARYVAR
  2
AcDbDictionaryVar
  3
ObjectDBX Classes
 90
        0
280
     0
281
     0
  0
CLASS
  1
CELLSTYLEMAP
  2
AcDbCellStyleMap
  3
ObjectDBX Classes
 90
     1152
280
     0
281
     0
  0
CLASS
  1
ACDBPLACEHOLDER
  2
AcDbPlaceHolder
  3
ObjectDBX Classes
 90
        0
280
     0
281
     0
  0
CLASS
  1
LAYOUT
  2
AcDbLayout
  3
ObjectDBX Classes
 90
        0
280
     0
281
     0
  0
CLASS
  1
EXACXREFPANELOBJECT
  2
ExAcXREFPanelObject
  3
EXAC_ESW
 90
     1025
280
     0
281
     0
  0
CLASS
  1
NPOCOLLECTION
  2
AcDbImpNonPersistentObjectsCollection
  3
ObjectDBX Classes
 90
     1153
280
     0
281
     0
  0
ENDSEC
  0
SECTION
  2
TABLES
  0
TABLE
  2
VPORT
  5
8
330
0
100
AcDbSymbolTable
 70
     1
  0
VPORT
  5
57
330
8
100
AcDbSymbolTableRecord
100
AcDbViewportTableRecord
  2
*Active
 70
     0
 10
0.0
 20
0.0
 11
1.0
 21
1.0
 12
1.71619876320031
 22
1.10462648987843
 13
0.0
 23
0.0
 14
1.0
 24
1.0
 15
0.0
 25
0.0
 16
0.0
 26
0.0
 36
1.0
 17
0.0
 27
0.0
 37
0.0
 40
5.013708798296794
 41
2.014476614699332
 42
50.0
 43
0.0
 44
0.0
 50
0.0
 51
0.0
 71
     0
 72
   100
 73
     1
 74
     1
 75
     0
 76
     0
 77
     0
 78
     0
281
     0
 65
     1
110
0.0
120
0.0
130
0.0
111
1.0
121
0.0
131
0.0
112
0.0
122
1.0
132
0.0
 79
     0
146
0.0
1001
ACAD_NAV_VCDISPLAY
1070
     3
  0
ENDTAB
  0
TABLE
  2
LTYPE
  5
5
330
0
100
AcDbSymbolTable
 70
     4
  0
LTYPE
  5
5B
330
5
100
AcDbSymbolTableRecord
100
AcDbLinetypeTableRecord
  2
ByBlock
 70
     0
  3

 72
    65
 73
     0
 40
0.0
  0
LTYPE
  5
5C
330
5
100
AcDbSymbolTableRecord
100
AcDbLinetypeTableRecord
  2
ByLayer
 70
     0
  3

 72
    65
 73
     0
 40
0.0
  0
LTYPE
  5
5D
330
5
100
AcDbSymbolTableRecord
100
AcDbLinetypeTableRecord
  2
Continuous
 70
     0
  3
Solid line
 72
    65
 73
     0
 40
0.0
  0
ENDTAB
  0
TABLE
  2
LAYER
  5
2
330
0
100
AcDbSymbolTable
 70
     5
  0
LAYER
  5
54
330
2
100
AcDbSymbolTableRecord
100
AcDbLayerTableRecord
  2
0
 70
     0
 62
     7
  6
Continuous
370
    25
390
F
  0
LAYER
  5
81
330
2
100
AcDbSymbolTableRecord
100
AcDbLayerTableRecord
  2
D
 70
     0
 62
     7
  6
Continuous
370
    18
390
F
  0
LAYER
  5
86
330
2
100
AcDbSymbolTableRecord
100
AcDbLayerTableRecord
  2
H
 70
     0
 62
     7
  6
Continuous
370
    18
390
F
  0
LAYER
  5
8D
330
2
100
AcDbSymbolTableRecord
100
AcDbLayerTableRecord
  2
L
 70
     0
 62
     7
  6
Continuous
370
    18
390
F
  0
ENDTAB
  0
TABLE
  2
STYLE
  5
3
330
0
100
AcDbSymbolTable
 70
    19
  0
STYLE
  5
55
330
3
100
AcDbSymbolTableRecord
100
AcDbTextStyleTableRecord
  2
Standard
 70
     0
 40
0.0
 41
1.0
 50
0.0
 71
     0
 42
0.2
  3
arial.ttf
  4

1001
ACAD
1000
Arial
1071
      256
  0
STYLE
  5
AE
330
3
100
AcDbSymbolTableRecord
100
AcDbTextStyleTableRecord
  2
DEFAULT-ANSI
 70
     0
 40
0.0
 41
1.0
 50
0.0
 71
     0
 42
0.2
  3
arial.ttf
  4

1001
ACAD
1000
Arial
1071
      256
  0
STYLE
  5
228C
330
3
100
AcDbSymbolTableRecord
100
AcDbTextStyleTableRecord
  2
Text Style6
 70
     0
 40
0.0
 41
1.0
 50
0.0
 71
     0
 42
0.2
  3
AIGDT___.TTF
  4

1001
ACAD
1000
AIGDT
1071
      514
  0
ENDTAB
  0
TABLE
  2
VIEW
  5
6
330
0
100
AcDbSymbolTable
 70
     0
  0
ENDTAB
  0
TABLE
  2
UCS
  5
7
330
0
100
AcDbSymbolTable
 70
     0
  0
ENDTAB
  0
TABLE
  2
APPID
  5
9
330
0
100
AcDbSymbolTable
 70
     6
  0
APPID
  5
56
330
9
100
AcDbSymbolTableRecord
100
AcDbRegAppTableRecord
  2
ACAD
 70
     0
  0
APPID
  5
5E
330
9
100
AcDbSymbolTableRecord
100
AcDbRegAppTableRecord
  2
AcadAnnotative
 70
     0
  0
APPID
  5
2D6
330
9
100
AcDbSymbolTableRecord
100
AcDbRegAppTableRecord
  2
AcadAnnoPO
 70
     0
  0
APPID
  5
2412
330
9
100
AcDbSymbolTableRecord
100
AcDbRegAppTableRecord
  2
ACAD_MLEADERVER
 70
     0
  0
APPID
  5
242C
330
9
100
AcDbSymbolTableRecord
100
AcDbRegAppTableRecord
  2
ACAD_EXEMPT_FROM_CAD_STANDARDS
 70
     0
  0
APPID
  5
2431
330
9
100
AcDbSymbolTableRecord
100
AcDbRegAppTableRecord
  2
ACAD_NAV_VCDISPLAY
 70
     0
  0
ENDTAB
  0
TABLE
  2
DIMSTYLE
  5
A
330
0
100
AcDbSymbolTable
 70
    26
100
AcDbDimStyleTable
 71
     0
  0
DIMSTYLE
105
58
330
A
100
AcDbSymbolTableRecord
100
AcDbDimStyleTableRecord
  2
Standard
 70
     0
340
55
  0
DIMSTYLE
105
C1
330
A
100
AcDbSymbolTableRecord
100
AcDbDimStyleTableRecord
  2
INCH
 70
     0
 40
1.6
 41
0.0984251946210861
 43
0.2362204724409449
 44
0.125
 45
0.00000001
 46
0.3937007874015748
 78
     4
 79
     1
140
0.1200000047683716
146
0.6666666269302369
147
0.031496062992126
171
     1
176
     7
177
     7
178
     7
271
     3
272
     3
274
     1
284
     4
340
AE
371
    25
372
    25
  0
DIMSTYLE
105
C2
330
A
100
AcDbSymbolTableRecord
100
AcDbDimStyleTableRecord
  2
INCH$7
 70
     0
 40
1.6
 41
0.0984251946210861
 43
0.2362204724409449
 44
0.125
 45
0.00000001
 46
0.3937007874015748
 78
     4
 79
     1
140
0.1200000047683716
146
0.6666666269302369
147
0.031496062992126
171
     1
176
     7
177
     7
178
     7
271
     3
272
     3
274
     1
284
     4
340
AE
371
    15
372
    25
  0
ENDTAB
  0
TABLE
  2
BLOCK_RECORD
  5
1
330
0
100
AcDbSymbolTable
 70
    36
  0
BLOCK_RECORD
  5
6C
330
1
100
AcDbSymbolTableRecord
100
AcDbBlockTableRecord
  2
*Model_Space
340
6F
  0
BLOCK_RECORD
  5
68
330
1
100
AcDbSymbolTableRecord
100
AcDbBlockTableRecord
  2
*Paper_Space
340
6B
  0
BLOCK_RECORD
  5
70
330
1
100
AcDbSymbolTableRecord
100
AcDbBlockTableRecord
  2
*Paper_Space0
340
73
  0
ENDTAB
  0
ENDSEC
  0
SECTION
  2
BLOCKS
  0
BLOCK
  5
6D
330
6C
100
AcDbEntity
  8
0
100
AcDbBlockBegin
  2
*Model_Space
 70
     0
 10
0.0
 20
0.0
 30
0.0
  3
*Model_Space
  1

  0
ENDBLK
  5
6E
330
6C
100
AcDbEntity
  8
0
100
AcDbBlockEnd
  0
BLOCK
  5
69
330
68
100
AcDbEntity
 67
     1
  8
0
100
AcDbBlockBegin
  2
*Paper_Space
 70
     0
 10
0.0
 20
0.0
 30
0.0
  3
*Paper_Space
  1

  0
ENDBLK
  5
6A
330
68
100
AcDbEntity
 67
     1
  8
0
100
AcDbBlockEnd
  0
BLOCK
  5
71
330
70
100
AcDbEntity
 67
     1
  8
0
100
AcDbBlockBegin
  2
*Paper_Space0
 70
     0
 10
0.0
 20
0.0
 30
0.0
  3
*Paper_Space0
  1

  0
ENDBLK
  5
72
330
70
100
AcDbEntity
 67
     1
  8
0
100
AcDbBlockEnd
  0
ENDSEC
  0
SECTION
  2
ENTITIES
  0
LINE
  5
1AC8
330
6C
100
AcDbEntity
  8
H
100
AcDbLine
 10
5.464999999999999
 20
-0.6299212598425195
 30
0.0
 11
5.464999999999999
 21
0.6299212598425186
 31
0.0
  0
LINE
  5
1AC9
330
6C
100
AcDbEntity
  8
H
100
AcDbLine
 10
5.525
 20
0.569921259842519
 30
0.0
 11
5.525
 21
-0.569921259842519
 31
0.0
  0
LINE
  5
1ACA
330
6C
100
AcDbEntity
  8
H
100
AcDbLine
 10
5.525
 20
-0.569921259842519
 30
0.0
 11
5.464999999999999
 21
-0.6299212598425195
 31
0.0
  0
LINE
  5
1ACB
330
6C
100
AcDbEntity
  8
H
100
AcDbLine
 10
5.525
 20
0.569921259842519
 30
0.0
 11
5.464999999999999
 21
0.6299212598425186
 31
0.0
  0
LINE
  5
1ACC
330
6C
100
AcDbEntity
  8
L
100
AcDbLine
 10
4.964999999999999
 20
-0.6299212598425195
 30
0.0
 11
4.964999999999999
 21
0.6299212598425186
 31
0.0
  0
LINE
  5
1ACD
330
6C
100
AcDbEntity
  8
L
100
AcDbLine
 10
4.797421259842518
 20
-0.7975000000000004
 30
0.0
 11
4.797421259842518
 21
0.7975000000000004
 31
0.0
  0
LINE
  5
1ACE
330
6C
100
AcDbEntity
  8
L
100
AcDbLine
 10
4.964999999999999
 20
0.6299212598425186
 30
0.0
 11
5.226999999999897
 21
0.6299212598425186
 31
0.0
  0
LINE
  5
1ACF
330
6C
100
AcDbEntity
  8
L
100
AcDbLine
 10
4.964999999999999
 20
-0.6299212598425195
 30
0.0
 11
5.227000000000099
 21
-0.6299212598425195
 31
0.0
  0
LINE
  5
1AD0
330
6C
100
AcDbEntity
  8
L
100
AcDbLine
 10
1.409999999999998
 20
0.7975000000000004
 30
0.0
 11
4.797421259842518
 21
0.7975000000000004
 31
0.0
  0
LINE
  5
1AD1
330
6C
100
AcDbEntity
  8
L
100
AcDbLine
 10
1.409999999999998
 20
-0.7975000000000004
 30
0.0
 11
4.797421259842518
 21
-0.7975000000000004
 31
0.0
  0
LINE
  5
1AD2
330
6C
100
AcDbEntity
  8
L
100
AcDbLine
 10
4.964999999999999
 20
-0.6299212598425195
 30
0.0
 11
4.797421259842518
 21
-0.7975000000000004
 31
0.0
  0
LINE
  5
1AD3
330
6C
100
AcDbEntity
  8
L
100
AcDbLine
 10
4.964999999999999
 20
0.6299212598425186
 30
0.0
 11
4.797421259842518
 21
0.7975000000000004
 31
0.0
  0
LINE
  5
1AD4
330
6C
100
AcDbEntity
  8
H
100
AcDbLine
 10
5.226999999999897
 20
0.6299212598425186
 30
0.0
 11
5.464999999999999
 21
0.6299212598425186
 31
0.0
  0
LINE
  5
1AD5
330
6C
100
AcDbEntity
  8
H
100
AcDbLine
 10
5.227000000000099
 20
-0.6299212598425195
 30
0.0
 11
5.464999999999999
 21
-0.6299212598425195
 31
0.0
  0
SPLINE
  5
1AD6
330
6C
100
AcDbEntity
  8
H
100
AcDbSpline
210
0.0
220
0.0
230
1.0
 70
     8
 71
     3
 72
    15
 73
    11
 74
     0
 42
0.0000000001
 43
0.0000000001
 40
2.482720632857079
 40
2.482720632857079
 40
2.482720632857079
 40
2.482720632857079
 40
2.612273851571811
 40
2.612273851571811
 40
2.898743155875123
 40
2.898743155875123
 40
2.898743155875123
 40
3.185212460178433
 40
3.185212460178433
 40
3.314765678893166
 40
3.314765678893166
 40
3.314765678893166
 40
3.314765678893166
 10
0.7499999999999987
 20
-0.17458808664969
 30
0.0
 10
0.7499999999999987
 20
-0.1575863519102238
 30
0.0
 10
0.7506428506875201
 20
-0.1371944005526116
 30
0.0
 10
0.7529162493221322
 20
-0.0826456219450949
 30
0.0
 10
0.7552815858113831
 20
-0.0375943968901975
 30
0.0
 10
0.7552815858113831
 20
0.0000000000000009
 30
0.0
 10
0.7552815858113831
 20
0.0375943968901984
 30
0.0
 10
0.7529162493221322
 20
0.0826456219450949
 30
0.0
 10
0.7506428506875201
 20
0.1371944005526116
 30
0.0
 10
0.7499999999999987
 20
0.1575863519102238
 30
0.0
 10
0.7499999999999987
 20
0.1745880866496909
 30
0.0
  0
LINE
  5
1AD7
330
6C
100
AcDbEntity
  8
L
100
AcDbLine
 10
1.38
 20
0.8449999999999997
 30
0.0
 11
1.38
 21
-0.8449999999999997
 31
0.0
  0
ARC
  5
1AD8
330
6C
100
AcDbEntity
  8
L
100
AcDbCircle
 10
0.7799999999999981
 20
-0.9050000000000002
 30
0.0
 40
0.03
100
AcDbArc
 50
90.0
 51
180.0
  0
ARC
  5
1AD9
330
6C
100
AcDbEntity
  8
L
100
AcDbCircle
 10
0.7799999999999981
 20
0.9050000000000002
 30
0.0
 40
0.03
100
AcDbArc
 50
180.0
 51
270.0
  0
ARC
  5
1ADA
330
6C
100
AcDbEntity
  8
L
100
AcDbCircle
 10
1.35
 20
-0.8449999999999997
 30
0.0
 40
0.03
100
AcDbArc
 50
270.0
 51
0.0
  0
ARC
  5
1ADB
330
6C
100
AcDbEntity
  8
L
100
AcDbCircle
 10
1.35
 20
0.8449999999999997
 30
0.0
 40
0.03
100
AcDbArc
 50
0.0
 51
90.0
  0
ARC
  5
1ADC
330
6C
100
AcDbEntity
  8
L
100
AcDbCircle
 10
1.409999999999998
 20
0.8274999999999996
 30
0.0
 40
0.03
100
AcDbArc
 50
180.0
 51
270.0
  0
ARC
  5
1ADD
330
6C
100
AcDbEntity
  8
L
100
AcDbCircle
 10
1.409999999999998
 20
-0.8275000000000005
 30
0.0
 40
0.03
100
AcDbArc
 50
90.0
 51
180.0
  0
LINE
  5
1ADE
330
6C
100
AcDbEntity
  8
L
100
AcDbLine
 10
0.7499999999999987
 20
1.219999999999999
 30
0.0
 11
0.7499999999999987
 21
0.3450000000002813
 31
0.0
  0
LINE
  5
1ADF
330
6C
100
AcDbEntity
  8
L
100
AcDbLine
 10
0.7499999999999987
 20
-0.3449999999997191
 30
0.0
 11
0.7499999999999987
 21
-1.219999999999999
 31
0.0
  0
LINE
  5
1AE0
330
6C
100
AcDbEntity
  8
L
100
AcDbLine
 10
0.720000000000407
 20
-1.249999999999999
 30
0.0
 11
0.7200000000002587
 21
-0.3440981067978539
 31
0.0
  0
LINE
  5
1AE1
330
6C
100
AcDbEntity
  8
L
100
AcDbLine
 10
0.71999999999974
 20
0.3440981067984152
 30
0.0
 11
0.7199999999995943
 21
1.25
 31
0.0
  0
LINE
  5
1AE2
330
6C
100
AcDbEntity
  8
L
100
AcDbLine
 10
0.7499999999998975
 20
-1.220000000000101
 30
0.0
 11
0.720000000000304
 21
-1.249999999999897
 31
0.0
  0
LINE
  5
1AE3
330
6C
100
AcDbEntity
  8
L
100
AcDbLine
 10
0.7500000000001008
 20
1.219999999999897
 30
0.0
 11
0.7199999999996947
 21
1.2500000000001
 31
0.0
  0
LINE
  5
1AE4
330
6C
100
AcDbEntity
  8
L
100
AcDbLine
 10
0.7499999999999987
 20
0.3167157287528193
 30
0.0
 11
0.7499999999999987
 21
0.3450000000002813
 31
0.0
  0
LINE
  5
1AE5
330
6C
100
AcDbEntity
  8
L
100
AcDbLine
 10
0.7499999999999987
 20
-0.3449999999997191
 30
0.0
 11
0.7499999999999987
 21
-0.3167157287522571
 31
0.0
  0
LINE
  5
1AE6
330
6C
100
AcDbEntity
  8
L
100
AcDbLine
 10
0.1249999999999987
 20
-0.3167157287522571
 30
0.0
 11
0.1249999999999987
 21
-0.3449999999997191
 31
0.0
  0
LINE
  5
1AE7
330
6C
100
AcDbEntity
  8
L
100
AcDbLine
 10
0.1249999999999987
 20
0.3450000000002813
 30
0.0
 11
0.1249999999999987
 21
0.3167157287528193
 31
0.0
  0
LINE
  5
1AE8
330
6C
100
AcDbEntity
  8
L
100
AcDbLine
 10
0.1417157287525383
 20
0.3000000000002814
 30
0.0
 11
0.1499999999999981
 21
0.3200000000002809
 31
0.0
  0
LINE
  5
1AE9
330
6C
100
AcDbEntity
  8
L
100
AcDbLine
 10
0.7332842712474617
 20
0.3000000000002814
 30
0.0
 11
0.7250000000000001
 21
0.3200000000002809
 31
0.0
  0
LINE
  5
1AEA
330
6C
100
AcDbEntity
  8
L
100
AcDbLine
 10
0.7332842712474617
 20
-0.2999999999997191
 30
0.0
 11
0.7250000000000001
 21
-0.3199999999997196
 31
0.0
  0
LINE
  5
1AEB
330
6C
100
AcDbEntity
  8
L
100
AcDbLine
 10
0.1417157287525383
 20
-0.2999999999997191
 30
0.0
 11
0.1499999999999981
 21
-0.3199999999997196
 31
0.0
  0
LINE
  5
1AEC
330
6C
100
AcDbEntity
  8
L
100
AcDbLine
 10
0.7499999999999987
 20
-0.3167157287522571
 30
0.0
 11
0.7499999999999987
 21
0.3167157287528193
 31
0.0
  0
LINE
  5
1AED
330
6C
100
AcDbEntity
  8
L
100
AcDbLine
 10
0.1249999999999987
 20
0.3167157287528193
 30
0.0
 11
0.1249999999999987
 21
-0.3167157287522571
 31
0.0
  0
SPLINE
  5
1AEE
330
6C
100
AcDbEntity
  8
L
100
AcDbSpline
210
0.0
220
0.0
230
1.0
 70
    28
 71
     2
 72
     6
 73
     3
 74
     0
 42
0.0000000001
 43
0.0000000001
 40
0.0
 40
0.0
 40
0.0
 40
0.2608030900478576
 40
0.2608030900478576
 40
0.2608030900478576
 10
0.5138499999997897
 20
0.3200000000002809
 30
0.0
 41
1.0
 10
0.5375773328274236
 20
0.3200000000002809
 30
0.0
 41
1.000895493568112
 10
0.5632307404536597
 20
0.3200000000002809
 30
0.0
 41
1.000379364129247
  0
LINE
  5
1AEF
330
6C
100
AcDbEntity
  8
L
100
AcDbLine
 10
0.3628499999999177
 20
0.3200000000002809
 30
0.0
 11
0.5138499999999185
 21
0.3200000000002809
 31
0.0
  0
SPLINE
  5
1AF0
330
6C
100
AcDbEntity
  8
L
100
AcDbSpline
210
0.0
220
0.0
230
1.0
 70
    28
 71
     2
 72
     6
 73
     3
 74
     0
 42
0.0000000001
 43
0.0000000001
 40
0.0700890653329674
 40
0.0700890653329674
 40
0.0700890653329674
 40
0.3308921553805102
 40
0.3308921553805102
 40
0.3308921553805102
 10
0.3134692595462316
 20
0.3200000000002809
 30
0.0
 41
1.00037936412696
 10
0.3391226671723593
 20
0.3200000000002809
 30
0.0
 41
1.000895493562712
 10
0.3628500000001602
 20
0.3200000000002809
 30
0.0
 41
1.0
  0
SPLINE
  5
1AF1
330
6C
100
AcDbEntity
  8
L
100
AcDbSpline
210
0.0
220
0.0
230
1.0
 70
    28
 71
     2
 72
     6
 73
     3
 74
     0
 42
0.0000000001
 43
0.0000000001
 40
0.0
 40
0.0
 40
0.0
 40
0.2608030900477527
 40
0.2608030900477527
 40
0.2608030900477527
 10
0.3628500000001602
 20
-0.3199999999997196
 30
0.0
 41
1.0
 10
0.3391226671723868
 20
-0.3199999999997196
 30
0.0
 41
1.0008954935668
 10
0.3134692595462547
 20
-0.3199999999997196
 30
0.0
 41
1.000379364128693
  0
LINE
  5
1AF2
330
6C
100
AcDbEntity
  8
L
100
AcDbLine
 10
0.5138500000000215
 20
-0.3199999999997196
 30
0.0
 11
0.3628500000000216
 21
-0.3199999999997196
 31
0.0
  0
SPLINE
  5
1AF3
330
6C
100
AcDbEntity
  8
L
100
AcDbSpline
210
0.0
220
0.0
230
1.0
 70
    28
 71
     2
 72
     6
 73
     3
 74
     0
 42
0.0000000001
 43
0.0000000001
 40
0.0700890653321773
 40
0.0700890653321773
 40
0.0700890653321773
 40
0.3308921553806422
 40
0.3308921553806422
 40
0.3308921553806422
 10
0.5632307404538551
 20
-0.3199999999997196
 30
0.0
 41
1.000379364129304
 10
0.5375773328276599
 20
-0.3199999999997196
 30
0.0
 41
1.000895493568252
 10
0.5138499999997897
 20
-0.3199999999997196
 30
0.0
 41
1.0
  0
LINE
  5
1AF4
330
6C
100
AcDbEntity
  8
L
100
AcDbLine
 10
0.2995261277731562
 20
1.25
 30
0.0
 11
0.2995261277733037
 21
0.3440981067984152
 31
0.0
  0
LINE
  5
1AF5
330
6C
100
AcDbEntity
  8
L
100
AcDbLine
 10
0.5771738722268541
 20
-1.249999999999999
 30
0.0
 11
0.5771738722267066
 21
-0.3440981067978539
 31
0.0
  0
LINE
  5
1AF6
330
6C
100
AcDbEntity
  8
L
100
AcDbLine
 10
0.5771738722265947
 20
0.3440981067984152
 30
0.0
 11
0.5771738722264482
 21
1.25
 31
0.0
  0
LINE
  5
1AF7
330
6C
100
AcDbEntity
  8
L
100
AcDbLine
 10
0.5138500000000259
 20
-0.3199999999997178
 30
0.0
 11
0.5138500000001592
 21
-1.140319835971135
 31
0.0
  0
CIRCLE
  5
1AF8
330
6C
100
AcDbEntity
  8
L
100
AcDbCircle
 10
0.4399999999999982
 20
0.0000000000002895
 30
0.0
 40
0.1575
  0
LINE
  5
1AF9
330
6C
100
AcDbEntity
  8
L
100
AcDbLine
 10
0.5138499999997897
 20
1.140319835971739
 30
0.0
 11
0.5138499999999238
 21
0.3200000000002809
 31
0.0
  0
LINE
  5
1AFA
330
6C
100
AcDbEntity
  8
L
100
AcDbLine
 10
0.3628499999997889
 20
1.140319835971739
 30
0.0
 11
0.3628499999999231
 21
0.3200000000002809
 31
0.0
  0
LINE
  5
1AFB
330
6C
100
AcDbEntity
  8
L
100
AcDbLine
 10
0.362850000000027
 20
-0.3199999999997196
 30
0.0
 11
0.3628500000001602
 21
-1.140319835971184
 31
0.0
  0
LINE
  5
1AFC
330
6C
100
AcDbEntity
  8
L
100
AcDbLine
 10
0.2995261277734165
 20
-0.3440981067978539
 30
0.0
 11
0.299526127773563
 21
-1.249999999999999
 31
0.0
  0
LINE
  5
1AFD
330
6C
100
AcDbEntity
  8
L
100
AcDbLine
 10
0.7799999999999981
 20
0.875
 30
0.0
 11
1.35
 21
0.875
 31
0.0
  0
LINE
  5
1AFE
330
6C
100
AcDbEntity
  8
L
100
AcDbLine
 10
0.7799999999999981
 20
-0.8749999999999991
 30
0.0
 11
1.35
 21
-0.8749999999999991
 31
0.0
  0
LINE
  5
1AFF
330
6C
100
AcDbEntity
  8
L
100
AcDbLine
 10
0.1549999999997964
 20
1.25
 30
0.0
 11
0.2995261277733596
 21
1.25
 31
0.0
  0
LINE
  5
1B00
330
6C
100
AcDbEntity
  8
L
100
AcDbLine
 10
0.5771738722266507
 20
-1.249999999999999
 30
0.0
 11
0.7200000000002036
 21
-1.249999999999999
 31
0.0
  0
LINE
  5
1B01
330
6C
100
AcDbEntity
  8
L
100
AcDbLine
 10
0.5771738722266507
 20
1.25
 30
0.0
 11
0.7199999999997968
 21
1.25
 31
0.0
  0
LINE
  5
1B02
330
6C
100
AcDbEntity
  8
L
100
AcDbLine
 10
0.5138500000001592
 20
-1.140319835971135
 30
0.0
 11
0.5771738722269384
 21
-1.249999999999833
 31
0.0
  0
LINE
  5
1B03
330
6C
100
AcDbEntity
  8
L
100
AcDbLine
 10
-2.641292437025115
 20
0.4898183447284588
 30
0.0
 11
0.0
 21
0.875
 31
0.0
  0
LINE
  5
1B04
330
6C
100
AcDbEntity
  8
L
100
AcDbLine
 10
-2.641292437025115
 20
-0.4898183447284606
 30
0.0
 11
0.0
 21
-0.8749999999999991
 31
0.0
  0
LINE
  5
1B05
330
6C
100
AcDbEntity
  8
L
100
AcDbLine
 10
0.5138499999997897
 20
1.140319835971739
 30
0.0
 11
0.5771738722263629
 21
1.250000000000166
 31
0.0
  0
LINE
  5
1B06
330
6C
100
AcDbEntity
  8
L
100
AcDbLine
 10
0.5138499999997897
 20
1.109500000000012
 30
0.0
 11
0.3628499999997889
 21
1.109499999999988
 31
0.0
  0
LINE
  5
1B07
330
6C
100
AcDbEntity
  8
L
100
AcDbLine
 10
0.3628499999997889
 20
1.140319835971739
 30
0.0
 11
0.2995261277733241
 21
1.249999999999978
 31
0.0
  0
LINE
  5
1B08
330
6C
100
AcDbEntity
  8
L
100
AcDbLine
 10
0.3628500000001602
 20
-1.140319835971184
 30
0.0
 11
0.2995261277733969
 21
-1.250000000000021
 31
0.0
  0
LINE
  5
1B09
330
6C
100
AcDbEntity
  8
L
100
AcDbLine
 10
0.5138500000001512
 20
-1.109499999999409
 30
0.0
 11
0.3628500000001495
 21
-1.109499999999433
 31
0.0
  0
LINE
  5
1B0A
330
6C
100
AcDbEntity
  8
L
100
AcDbLine
 10
0.1550000000002032
 20
-1.249999999999999
 30
0.0
 11
0.2995261277733596
 21
-1.249999999999999
 31
0.0
  0
LINE
  5
1B0B
330
6C
100
AcDbEntity
  8
H
100
AcDbLine
 10
-2.4995
 20
0.3239999999999998
 30
0.0
 11
-2.4995
 21
-0.3240000000000007
 31
0.0
  0
LINE
  5
1B0C
330
6C
100
AcDbEntity
  8
H
100
AcDbLine
 10
-2.625146170927521
 20
0.3239999999999998
 30
0.0
 11
-2.625146170927521
 21
-0.3240000000000007
 31
0.0
  0
LINE
  5
1B0D
330
6C
100
AcDbEntity
  8
H
100
AcDbLine
 10
-2.439
 20
-0.2635000000000005
 30
0.0
 11
-2.4995
 21
-0.3240000000000007
 31
0.0
  0
LINE
  5
1B0E
330
6C
100
AcDbEntity
  8
H
100
AcDbLine
 10
-2.439
 20
0.2634999999999996
 30
0.0
 11
-2.4995
 21
0.3239999999999998
 31
0.0
  0
LINE
  5
1B0F
330
6C
100
AcDbEntity
  8
H
100
AcDbLine
 10
-2.625146170927521
 20
-0.3240000000000007
 30
0.0
 11
-2.6875
 21
-0.3600000000000003
 31
0.0
  0
LINE
  5
1B10
330
6C
100
AcDbEntity
  8
H
100
AcDbLine
 10
-2.625146170927521
 20
0.3239999999999998
 30
0.0
 11
-2.6875
 21
0.3600000000000003
 31
0.0
  0
LINE
  5
1B11
330
6C
100
AcDbEntity
  8
H
100
AcDbLine
 10
-2.4995
 20
-0.3240000000000007
 30
0.0
 11
-2.625146170927521
 21
-0.3240000000000007
 31
0.0
  0
LINE
  5
1B12
330
6C
100
AcDbEntity
  8
H
100
AcDbLine
 10
-2.4995
 20
0.3239999999999998
 30
0.0
 11
-2.625146170927521
 21
0.3239999999999998
 31
0.0
  0
LINE
  5
1B13
330
6C
100
AcDbEntity
  8
H
100
AcDbLine
 10
0.8057390693496508
 20
-0.2635000000000005
 30
0.0
 11
0.8057390693496508
 21
0.2634999999999996
 31
0.0
  0
LINE
  5
1B14
330
6C
100
AcDbEntity
  8
H
100
AcDbLine
 10
-2.439
 20
-0.2635000000000005
 30
0.0
 11
-2.439
 21
0.2634999999999996
 31
0.0
  0
LINE
  5
1B15
330
6C
100
AcDbEntity
  8
H
100
AcDbLine
 10
0.8057390693496508
 20
-0.2635000000000005
 30
0.0
 11
-2.439
 21
-0.2635000000000005
 31
0.0
  0
LINE
  5
1B16
330
6C
100
AcDbEntity
  8
H
100
AcDbLine
 10
0.8057390693496508
 20
0.2634999999999996
 30
0.0
 11
-2.439
 21
0.2634999999999996
 31
0.0
  0
LINE
  5
1B17
330
6C
100
AcDbEntity
  8
H
100
AcDbLine
 10
-2.487999999999999
 20
-0.3124999999999991
 30
0.0
 11
-1.5675
 21
-0.3124999999999991
 31
0.0
  0
LINE
  5
1B18
330
6C
100
AcDbEntity
  8
H
100
AcDbLine
 10
-1.5675
 20
0.3125
 30
0.0
 11
-2.487999999999999
 21
0.3125
 31
0.0
  0
LINE
  5
1B19
330
6C
100
AcDbEntity
  8
H
100
AcDbLine
 10
-1.567499999999999
 20
0.3125
 30
0.0
 11
-1.567499999999999
 21
-0.3124999999999991
 31
0.0
  0
LINE
  5
1B1A
330
6C
100
AcDbEntity
  8
H
100
AcDbLine
 10
0.8250000000000007
 20
-0.3100000000000005
 30
0.0
 11
0.8250000000000007
 21
0.3099999999999996
 31
0.0
  0
LINE
  5
1B1B
330
6C
100
AcDbEntity
  8
H
100
AcDbLine
 10
0.80573906934965
 20
0.2634999999999996
 30
0.0
 11
0.8250000000000007
 21
0.3099999999999996
 31
0.0
  0
LINE
  5
1B1C
330
6C
100
AcDbEntity
  8
H
100
AcDbLine
 10
0.80573906934965
 20
-0.2635000000000005
 30
0.0
 11
0.8250000000000007
 21
-0.3100000000000005
 31
0.0
  0
LINE
  5
1B1D
330
6C
100
AcDbEntity
  8
H
100
AcDbLine
 10
0.8250000000000007
 20
0.3099999999999996
 30
0.0
 11
4.383
 21
0.3099999999999996
 31
0.0
  0
LINE
  5
1B1E
330
6C
100
AcDbEntity
  8
H
100
AcDbLine
 10
0.8250000000000007
 20
-0.3100000000000005
 30
0.0
 11
4.383
 21
-0.3100000000000005
 31
0.0
  0
LINE
  5
1B1F
330
6C
100
AcDbEntity
  8
H
100
AcDbLine
 10
4.383
 20
0.34375
 30
0.0
 11
1.524999999999998
 21
0.34375
 31
0.0
  0
LINE
  5
1B20
330
6C
100
AcDbEntity
  8
H
100
AcDbLine
 10
1.524999999999998
 20
-0.3437500000000009
 30
0.0
 11
4.383
 21
-0.3437500000000009
 31
0.0
  0
LINE
  5
1B21
330
6C
100
AcDbEntity
  8
H
100
AcDbLine
 10
1.524999999999998
 20
0.34375
 30
0.0
 11
1.524999999999998
 21
-0.3437500000000009
 31
0.0
  0
LINE
  5
1B22
330
6C
100
AcDbEntity
  8
H
100
AcDbLine
 10
5.514926957495399
 20
0.4906843261984122
 30
0.0
 11
5.514926957495399
 21
-0.4906843261984113
 31
0.0
  0
LINE
  5
1B23
330
6C
100
AcDbEntity
  8
H
100
AcDbLine
 10
4.549482811061126
 20
0.3549999999999995
 30
0.0
 11
4.549482811061126
 21
-0.3550000000000004
 31
0.0
  0
LINE
  5
1B24
330
6C
100
AcDbEntity
  8
H
100
AcDbLine
 10
4.383
 20
0.3549999999999995
 30
0.0
 11
4.383
 21
-0.3550000000000004
 31
0.0
  0
LINE
  5
1B25
330
6C
100
AcDbEntity
  8
H
100
AcDbLine
 10
5.514926957495399
 20
0.4906843261984122
 30
0.0
 11
5.525
 21
0.4965000000000002
 31
0.0
  0
LINE
  5
1B26
330
6C
100
AcDbEntity
  8
H
100
AcDbLine
 10
5.514926957495399
 20
-0.4906843261984113
 30
0.0
 11
5.525
 21
-0.4965000000000011
 31
0.0
  0
LINE
  5
1B27
330
6C
100
AcDbEntity
  8
H
100
AcDbLine
 10
4.549482811061126
 20
0.3549999999999995
 30
0.0
 11
5.514926957495399
 21
0.4906843261984122
 31
0.0
  0
LINE
  5
1B28
330
6C
100
AcDbEntity
  8
H
100
AcDbLine
 10
4.549482811061126
 20
-0.3550000000000004
 30
0.0
 11
5.514926957495399
 21
-0.4906843261984113
 31
0.0
  0
LINE
  5
1B29
330
6C
100
AcDbEntity
  8
H
100
AcDbLine
 10
4.549482811061126
 20
-0.3550000000000004
 30
0.0
 11
4.383
 21
-0.3550000000000004
 31
0.0
  0
LINE
  5
1B2A
330
6C
100
AcDbEntity
  8
H
100
AcDbLine
 10
4.549482811061126
 20
0.3549999999999995
 30
0.0
 11
4.383
 21
0.3549999999999995
 31
0.0
  0
CIRCLE
  5
1B2B
330
6C
100
AcDbEntity
  8
L
100
AcDbCircle
 10
0.4399999999999982
 20
0.0000000000002895
 30
0.0
 40
0.1995
  0
CIRCLE
  5
1B2C
330
6C
100
AcDbEntity
  8
L
100
AcDbCircle
 10
0.4399999999999982
 20
0.0000000000002895
 30
0.0
 40
0.237
  0
SPLINE
  5
1B2D
330
6C
100
AcDbEntity
  8
H
100
AcDbSpline
210
0.0
220
0.0
230
1.0
 70
     8
 71
     3
 72
    15
 73
    11
 74
     0
 42
0.0000000001
 43
0.0000000001
 40
2.310521099154615
 40
2.310521099154615
 40
2.310521099154615
 40
2.310521099154615
 40
2.389283975297437
 40
2.389283975297437
 40
2.576561359666501
 40
2.576561359666501
 40
2.576561359666501
 40
2.763838744035565
 40
2.763838744035565
 40
2.842601620178388
 40
2.842601620178388
 40
2.842601620178388
 40
2.842601620178388
 10
0.1249999999999987
 20
0.1117183959784587
 30
0.0
 10
0.1249999999999987
 20
0.101382060526646
 30
0.0
 10
0.1249001207896891
 20
0.0889788601264403
 30
0.0
 10
0.1245357845798636
 20
0.0540673411642425
 30
0.0
 10
0.1241719042916292
 20
0.0245770845628695
 30
0.0
 10
0.1241719042916292
 20
0.0000000000000009
 30
0.0
 10
0.1241719042916292
 20
-0.0245770845628695
 30
0.0
 10
0.1245357845798636
 20
-0.0540673411642443
 30
0.0
 10
0.1249001207896891
 20
-0.0889788601264403
 30
0.0
 10
0.1249999999999987
 20
-0.1013820605266451
 30
0.0
 10
0.1249999999999987
 20
-0.1117183959784596
 30
0.0
  0
LINE
  5
1B2E
330
6C
100
AcDbEntity
  8
L
100
AcDbLine
 10
0.017320508075688
 20
0.8650000000000002
 30
0.0
 11
0.017320508075688
 21
-0.8650000000000002
 31
0.0
  0
LINE
  5
1B2F
330
6C
100
AcDbEntity
  8
L
100
AcDbLine
 10
0.0000000000001421
 20
-0.8749999999999991
 30
0.0
 11
-0.0000000000001421
 21
0.875
 31
0.0
  0
ARC
  5
1B30
330
6C
100
AcDbEntity
  8
L
100
AcDbCircle
 10
0.0949999999999984
 20
0.8949999999999995
 30
0.0
 40
0.03
100
AcDbArc
 50
270.0
 51
0.0
  0
ARC
  5
1B31
330
6C
100
AcDbEntity
  8
L
100
AcDbCircle
 10
0.0949999999999984
 20
-0.8950000000000004
 30
0.0
 40
0.03
100
AcDbArc
 50
0.0
 51
90.0
  0
LINE
  5
1B32
330
6C
100
AcDbEntity
  8
L
100
AcDbLine
 10
0.0949999999999984
 20
-0.8650000000000002
 30
0.0
 11
0.017320508075688
 21
-0.8650000000000002
 31
0.0
  0
LINE
  5
1B33
330
6C
100
AcDbEntity
  8
L
100
AcDbLine
 10
0.0949999999999984
 20
0.8650000000000002
 30
0.0
 11
0.017320508075688
 21
0.8650000000000002
 31
0.0
  0
LINE
  5
1B34
330
6C
100
AcDbEntity
  8
L
100
AcDbLine
 10
0.017320508075688
 20
-0.8650000000000002
 30
0.0
 11
0.0
 21
-0.8749999999999991
 31
0.0
  0
LINE
  5
1B35
330
6C
100
AcDbEntity
  8
L
100
AcDbLine
 10
0.017320508075688
 20
0.8650000000000002
 30
0.0
 11
0.0
 21
0.875
 31
0.0
  0
LINE
  5
1B36
330
6C
100
AcDbEntity
  8
L
100
AcDbLine
 10
0.1249999999999987
 20
-1.219999999999999
 30
0.0
 11
0.1249999999999987
 21
-0.3449999999997191
 31
0.0
  0
LINE
  5
1B37
330
6C
100
AcDbEntity
  8
L
100
AcDbLine
 10
0.1249999999999987
 20
0.3450000000002786
 30
0.0
 11
0.1249999999999987
 21
1.219999999999999
 31
0.0
  0
LINE
  5
1B38
330
6C
100
AcDbEntity
  8
L
100
AcDbLine
 10
0.154999999999593
 20
1.25
 30
0.0
 11
0.1549999999997405
 21
0.3440981067984152
 31
0.0
  0
LINE
  5
1B39
330
6C
100
AcDbEntity
  8
L
100
AcDbLine
 10
0.1550000000002591
 20
-0.3440981067978539
 30
0.0
 11
0.1550000000004048
 21
-1.249999999999999
 31
0.0
  0
LINE
  5
1B3A
330
6C
100
AcDbEntity
  8
L
100
AcDbLine
 10
0.1250000000001008
 20
1.220000000000102
 30
0.0
 11
0.1549999999996952
 21
1.249999999999897
 31
0.0
  0
LINE
  5
1B3B
330
6C
100
AcDbEntity
  8
L
100
AcDbLine
 10
0.1249999999998974
 20
-1.219999999999898
 30
0.0
 11
0.1550000000003036
 21
-1.250000000000102
 31
0.0
  0
LINE
  5
1B3C
330
6C
100
AcDbEntity
  8
L
100
AcDbLine
 10
0.1499999999999981
 20
0.3200000000002809
 30
0.0
 11
0.1404190365894729
 21
0.329580963410808
 31
0.0
  0
SPLINE
  5
1B3D
330
6C
100
AcDbEntity
  8
L
100
AcDbSpline
210
0.0
220
0.0
230
1.0
 70
    28
 71
     2
 72
     6
 73
     3
 74
     0
 42
0.0000000001
 43
0.0000000001
 40
0.0709168377330202
 40
0.0709168377330202
 40
0.0709168377330202
 40
0.1471631097384074
 40
0.1471631097384074
 40
0.1471631097384074
 10
0.1404190365894729
 20
0.329580963410808
 30
0.0
 41
1.0
 10
0.1326427619403385
 20
0.3373572380599414
 30
0.0
 41
1.0
 10
0.124999999999948
 20
0.345000000000331
 30
0.0
 41
1.0
  0
LINE
  5
1B3E
330
6C
100
AcDbEntity
  8
L
100
AcDbLine
 10
0.5632307404536597
 20
0.3200000000002809
 30
0.0
 11
0.7250000000000001
 21
0.3200000000002809
 31
0.0
  0
LINE
  5
1B3F
330
6C
100
AcDbEntity
  8
L
100
AcDbLine
 10
0.1499999999999981
 20
0.3200000000002809
 30
0.0
 11
0.3134692595462316
 21
0.3200000000002809
 31
0.0
  0
SPLINE
  5
1B40
330
6C
100
AcDbEntity
  8
L
100
AcDbSpline
210
0.0
220
0.0
230
1.0
 70
    28
 71
     2
 72
     6
 73
     3
 74
     0
 42
0.0000000001
 43
0.0000000001
 40
0.0
 40
0.0
 40
0.0
 40
0.0762462720049749
 40
0.0762462720049749
 40
0.0762462720049749
 10
0.7499999999999987
 20
0.3450000000002813
 30
0.0
 41
1.0
 10
0.7423572380596171
 20
0.3373572380598988
 30
0.0
 41
1.0
 10
0.7345809634104224
 20
0.3295809634107032
 30
0.0
 41
1.0
  0
LINE
  5
1B41
330
6C
100
AcDbEntity
  8
L
100
AcDbLine
 10
0.7250000000000001
 20
0.3200000000002809
 30
0.0
 11
0.7345809634104224
 21
0.3295809634107032
 31
0.0
  0
LINE
  5
1B42
330
6C
100
AcDbEntity
  8
L
100
AcDbLine
 10
0.7345809634105281
 20
-0.3295809634102467
 30
0.0
 11
0.7250000000000001
 21
-0.3199999999997196
 31
0.0
  0
SPLINE
  5
1B43
330
6C
100
AcDbEntity
  8
L
100
AcDbSpline
210
0.0
220
0.0
230
1.0
 70
    28
 71
     2
 72
     6
 73
     3
 74
     0
 42
0.0000000001
 43
0.0000000001
 40
0.0709168377330004
 40
0.0709168377330004
 40
0.0709168377330004
 40
0.1471631097381155
 40
0.1471631097381155
 40
0.1471631097381155
 10
0.7345809634105281
 20
-0.3295809634102467
 30
0.0
 41
1.0
 10
0.7423572380596358
 20
-0.3373572380593552
 30
0.0
 41
1.0
 10
0.7499999999999987
 20
-0.3449999999997191
 30
0.0
 41
1.0
  0
LINE
  5
1B44
330
6C
100
AcDbEntity
  8
L
100
AcDbLine
 10
0.3134692595462547
 20
-0.3199999999997196
 30
0.0
 11
0.1499999999999981
 21
-0.3199999999997196
 31
0.0
  0
LINE
  5
1B45
330
6C
100
AcDbEntity
  8
L
100
AcDbLine
 10
0.7250000000000001
 20
-0.3199999999997196
 30
0.0
 11
0.5632307404538551
 21
-0.3199999999997196
 31
0.0
  0
SPLINE
  5
1B46
330
6C
100
AcDbEntity
  8
L
100
AcDbSpline
210
0.0
220
0.0
230
1.0
 70
    28
 71
     2
 72
     6
 73
     3
 74
     0
 42
0.0000000001
 43
0.0000000001
 40
0.0
 40
0.0
 40
0.0
 40
0.0762462720049619
 40
0.0762462720049619
 40
0.0762462720049619
 10
0.1249999999999987
 20
-0.3449999999997191
 30
0.0
 41
1.0
 10
0.1326427619403803
 20
-0.3373572380593393
 30
0.0
 41
1.0
 10
0.140419036589575
 20
-0.3295809634101419
 30
0.0
 41
1.0
  0
LINE
  5
1B47
330
6C
100
AcDbEntity
  8
L
100
AcDbLine
 10
0.1499999999999981
 20
-0.3199999999997196
 30
0.0
 11
0.140419036589575
 21
-0.3295809634101419
 31
0.0
  0
LINE
  5
1B48
330
6C
100
AcDbEntity
  8
L
100
AcDbLine
 10
0.2995261277733596
 20
0.3440981067984152
 30
0.0
 11
0.1549999999997964
 21
0.3440981067984152
 31
0.0
  0
SPLINE
  5
1B49
330
6C
100
AcDbEntity
  8
L
100
AcDbSpline
210
0.0
220
0.0
230
1.0
 70
    12
 71
     2
 72
     6
 73
     3
 74
     0
 42
0.0000000001
 43
0.0000000001
 40
0.0
 40
0.0
 40
0.0
 40
0.058879568813645
 40
0.058879568813645
 40
0.058879568813645
 10
0.1549999999997964
 20
0.3440981067984117
 30
0.0
 41
1.0
 10
0.1476425123455844
 20
0.3367969519559351
 30
0.0
 41
1.000056023474678
 10
0.1404190365894729
 20
0.329580963410808
 30
0.0
 41
1.000058124806356
  0
LINE
  5
1B4A
330
6C
100
AcDbEntity
  8
L
100
AcDbLine
 10
0.5771738722266507
 20
-0.3440981067978539
 30
0.0
 11
0.7200000000002036
 21
-0.3440981067978539
 31
0.0
  0
SPLINE
  5
1B4B
330
6C
100
AcDbEntity
  8
L
100
AcDbSpline
210
0.0
220
0.0
230
1.0
 70
    12
 71
     2
 72
     6
 73
     3
 74
     0
 42
0.0000000001
 43
0.0000000001
 40
0.0
 40
0.0
 40
0.0
 40
0.0588795688137305
 40
0.0588795688137305
 40
0.0588795688137305
 10
0.7200000000002019
 20
-0.3440981067978539
 30
0.0
 41
1.0
 10
0.7273574876543694
 20
-0.336796951955419
 30
0.0
 41
1.000056023469477
 10
0.7345809634105281
 20
-0.3295809634102467
 30
0.0
 41
1.00005812480096
  0
SPLINE
  5
1B4C
330
6C
100
AcDbEntity
  8
L
100
AcDbSpline
210
0.0
220
0.0
230
1.0
 70
    12
 71
     2
 72
     6
 73
     3
 74
     0
 42
0.0000000001
 43
0.0000000001
 40
0.0634686113204915
 40
0.0634686113204915
 40
0.0634686113204915
 40
0.1223481801356697
 40
0.1223481801356697
 40
0.1223481801356697
 10
0.7345809634104224
 20
0.3295809634107032
 30
0.0
 41
1.000058124804471
 10
0.7273574876540514
 20
0.3367969519559919
 30
0.0
 41
1.000056023472862
 10
0.7199999999995934
 20
0.3440981067986142
 30
0.0
 41
1.0
  0
SPLINE
  5
1B4D
330
6C
100
AcDbEntity
  8
L
100
AcDbSpline
210
0.0
220
0.0
230
1.0
 70
    12
 71
     2
 72
     6
 73
     3
 74
     0
 42
0.0000000001
 43
0.0000000001
 40
0.0634686113204826
 40
0.0634686113204826
 40
0.0634686113204826
 40
0.1223481801356833
 40
0.1223481801356833
 40
0.1223481801356833
 10
0.140419036589575
 20
-0.3295809634101419
 30
0.0
 41
1.000058124807901
 10
0.1476425123459237
 20
-0.3367969519554093
 30
0.0
 41
1.000056023476167
 10
0.1550000000004048
 20
-0.3440981067980555
 30
0.0
 41
1.0
  0
LINE
  5
1B4E
330
6C
100
AcDbEntity
  8
L
100
AcDbLine
 10
0.7199999999997968
 20
0.3440981067984152
 30
0.0
 11
0.5771738722266507
 21
0.3440981067984152
 31
0.0
  0
LINE
  5
1B4F
330
6C
100
AcDbEntity
  8
L
100
AcDbLine
 10
0.1550000000002032
 20
-0.3440981067978539
 30
0.0
 11
0.2995261277733596
 21
-0.3440981067978539
 31
0.0
  0
SPLINE
  5
1B50
330
6C
100
AcDbEntity
  8
L
100
AcDbSpline
210
0.0
220
0.0
230
1.0
 70
    12
 71
     2
 72
     6
 73
     3
 74
     0
 42
0.0000000001
 43
0.0000000001
 40
0.0
 40
0.0
 40
0.0
 40
0.0813575226079575
 40
0.0813575226079575
 40
0.0813575226079575
 10
0.2995261277730106
 20
-0.3440981067984801
 30
0.0
 41
1.0
 10
0.3066047054377274
 20
-0.3319315231663333
 30
0.0
 41
1.000360586802802
 10
0.3134692595462547
 20
-0.3199999999997196
 30
0.0
 41
1.000571469392842
  0
SPLINE
  5
1B51
330
6C
100
AcDbEntity
  8
L
100
AcDbSpline
210
0.0
220
0.0
230
1.0
 70
    12
 71
     2
 72
     6
 73
     3
 74
     0
 42
0.0000000001
 43
0.0000000001
 40
0.3105679739443837
 40
0.3105679739443837
 40
0.3105679739443837
 40
0.3919254965508443
 40
0.3919254965508443
 40
0.3919254965508443
 10
0.5632307404538551
 20
-0.3199999999997196
 30
0.0
 41
1.000571469392524
 10
0.5700952945622677
 20
-0.3319315231661148
 30
0.0
 41
1.000360586802599
 10
0.5771738722268576
 20
-0.344098106798028
 30
0.0
 41
1.0
  0
SPLINE
  5
1B52
330
6C
100
AcDbEntity
  8
L
100
AcDbSpline
210
0.0
220
0.0
230
1.0
 70
    12
 71
     2
 72
     6
 73
     3
 74
     0
 42
0.0000000001
 43
0.0000000001
 40
0.0
 40
0.0
 40
0.0
 40
0.0813575226085234
 40
0.0813575226085234
 40
0.0813575226085234
 10
0.5771738722270015
 20
0.3440981067991959
 30
0.0
 41
1.0
 10
0.5700952945622358
 20
0.3319315231669719
 30
0.0
 41
1.000360586802824
 10
0.5632307404536597
 20
0.3200000000002809
 30
0.0
 41
1.000571469392877
  0
SPLINE
  5
1B53
330
6C
100
AcDbEntity
  8
L
100
AcDbSpline
210
0.0
220
0.0
230
1.0
 70
    12
 71
     2
 72
     6
 73
     3
 74
     0
 42
0.0000000001
 43
0.0000000001
 40
0.3105679739438166
 40
0.3105679739438166
 40
0.3105679739438166
 40
0.3919254965507389
 40
0.3919254965507389
 40
0.3919254965507389
 10
0.3134692595462316
 20
0.3200000000002809
 30
0.0
 41
1.000571469393038
 10
0.3066047054377852
 20
0.3319315231667472
 30
0.0
 41
1.000360586802924
 10
0.2995261277731536
 20
0.3440981067987456
 30
0.0
 41
1.0
  0
LINE
  5
1B54
330
6C
100
AcDbEntity
  8
L
100
AcDbLine
 10
-2.6875
 20
-0.4363835440344399
 30
0.0
 11
-2.6875
 21
0.4363835440344391
 31
0.0
  0
ARC
  5
1B55
330
6C
100
AcDbEntity
  8
L
100
AcDbCircle
 10
-2.633500000000001
 20
-0.4363835440344399
 30
0.0
 40
0.054
100
AcDbArc
 50
180.0
 51
261.7030000000005
  0
ARC
  5
1B56
330
6C
100
AcDbEntity
  8
L
100
AcDbCircle
 10
-2.633500000000001
 20
0.4363835440344391
 30
0.0
 40
0.054
100
AcDbArc
 50
98.29699999999968
 51
180.0
  0
LINE
  5
1B57
330
6C
100
AcDbEntity
  8
H
100
AcDbLine
 10
5.500675511811023
 20
0.5942457480314963
 30
0.0
 11
5.226999999999902
 21
0.5942457480314963
 31
0.0
  0
LINE
  5
1B58
330
6C
100
AcDbEntity
  8
H
100
AcDbLine
 10
5.227000000000092
 20
-0.5942457480314963
 30
0.0
 11
5.500675511811023
 21
-0.5942457480314963
 31
0.0
  0
LINE
  5
1B59
330
6C
100
AcDbEntity
  8
H
100
AcDbLine
 10
5.226999999999902
 20
0.5942457480314963
 30
0.0
 11
5.022999999999999
 21
0.5942457480314963
 31
0.0
  0
LINE
  5
1B5A
330
6C
100
AcDbEntity
  8
H
100
AcDbLine
 10
5.022999999999999
 20
-0.5942457480314963
 30
0.0
 11
5.227000000000092
 21
-0.5942457480314963
 31
0.0
  0
LINE
  5
1B5B
330
6C
100
AcDbEntity
  8
L
100
AcDbLine
 10
5.022999999999999
 20
-0.6299212598425195
 30
0.0
 11
5.022999999999999
 21
0.6299212598425186
 31
0.0
  0
SPLINE
  5
1B5C
330
6C
100
AcDbEntity
  8
L
100
AcDbSpline
210
0.0
220
0.0
230
1.0
 70
    12
 71
     2
 72
     6
 73
     3
 74
     0
 42
0.0000000001
 43
0.0000000001
 40
0.8245964843329195
 40
0.8245964843329195
 40
0.8245964843329195
 40
1.348354434443199
 40
1.348354434443199
 40
1.348354434443199
 10
6.106511467754968
 20
-0.1592017961187331
 30
0.0
 41
1.077046513658622
 10
6.11519831217746
 20
-0.2472488600027436
 30
0.0
 41
1.086551220052425
 10
6.106511467755
 20
-0.3352959238867594
 30
0.0
 41
1.077046513658622
  0
ELLIPSE
  5
1B5D
330
6C
100
AcDbEntity
  8
L
100
AcDbEllipse
 10
5.734000000000039
 20
-0.2472488600028049
 30
0.0
 11
-0.0939999999999997
 21
-0.0000000000000151
 31
0.0
210
0.0
220
0.0
230
1.0
 40
0.9366708923831144
 41
5.706725038915831
 42
7.853981633974488
  0
LINE
  5
1B5E
330
6C
100
AcDbEntity
  8
L
100
AcDbLine
 10
6.106511467755
 20
-0.3352959238867585
 30
0.0
 11
5.734000000000053
 21
-0.3352959238868181
 31
0.0
  0
SPLINE
  5
1B5F
330
6C
100
AcDbEntity
  8
L
100
AcDbSpline
210
0.0
220
0.0
230
1.0
 70
    12
 71
     2
 72
     6
 73
     3
 74
     0
 42
0.0000000001
 43
0.0000000001
 40
0.0
 40
0.0
 40
0.0
 40
0.3400618839427867
 40
0.3400618839427867
 40
0.3400618839427867
 10
6.106511467755
 20
-0.3352959238867585
 30
0.0
 41
1.0
 10
6.071011072510119
 20
-0.3641937658383396
 30
0.0
 41
1.002575576908468
 10
6.030000000000061
 20
-0.3975250874165148
 30
0.0
 41
1.0
  0
LINE
  5
1B60
330
6C
100
AcDbEntity
  8
L
100
AcDbLine
 10
6.030000000000061
 20
-0.3975250874165148
 30
0.0
 11
5.734000000000062
 21
-0.3975250874165628
 31
0.0
  0
SPLINE
  5
1B61
330
6C
100
AcDbEntity
  8
L
100
AcDbSpline
210
0.0
220
0.0
230
1.0
 70
     8
 71
     3
 72
    22
 73
    18
 74
     0
 42
0.0000000001
 43
0.0000000001
 40
0.0
 40
0.0
 40
0.0
 40
0.0
 40
0.1163646986643896
 40
0.1163646986643896
 40
0.2327293973287793
 40
0.2327293973287793
 40
0.3495847538451034
 40
0.3495847538451034
 40
0.4664401103614276
 40
0.4664401103614276
 40
0.5832954668777517
 40
0.5832954668777517
 40
0.7001508233940759
 40
0.7001508233940759
 40
0.8165155220584654
 40
0.8165155220584654
 40
0.932880220722855
 40
0.932880220722855
 40
0.932880220722855
 40
0.932880220722855
 10
5.734000000000062
 20
-0.3975250874165628
 30
0.0
 10
5.718729042170092
 20
-0.3975250874165645
 30
0.0
 10
5.702423410497022
 20
-0.394906118239061
 30
0.0
 10
5.672349018250303
 20
-0.384137061910387
 30
0.0
 10
5.658579070146517
 20
-0.3759784621484581
 30
0.0
 10
5.636680791520563
 20
-0.3568409478543844
 30
0.0
 10
5.627105752678225
 20
-0.3445556812668196
 30
0.0
 10
5.614365180150823
 20
-0.3171720181730215
 30
0.0
 10
5.611202615671661
 20
-0.302062387842903
 30
0.0
 10
5.611202615671656
 20
-0.2733340384812521
 30
0.0
 10
5.614365180150812
 20
-0.2578928376643743
 30
0.0
 10
5.627105752678208
 20
-0.2293210572061284
 30
0.0
 10
5.636680791520543
 20
-0.2161966976973488
 30
0.0
 10
5.658579070146485
 20
-0.1954962048498174
 30
0.0
 10
5.672349018250271
 20
-0.1865113920338572
 30
0.0
 10
5.702423410496987
 20
-0.1745789852635315
 30
0.0
 10
5.718729042170052
 20
-0.1716393927507731
 30
0.0
 10
5.734000000000028
 20
-0.1716393927507713
 30
0.0
  0
SPLINE
  5
1B62
330
6C
100
AcDbEntity
  8
L
100
AcDbSpline
210
0.0
220
0.0
230
1.0
 70
    12
 71
     2
 72
     6
 73
     3
 74
     0
 42
0.0000000001
 43
0.0000000001
 40
0.0
 40
0.0
 40
0.0
 40
0.3400618839427869
 40
0.3400618839427869
 40
0.3400618839427869
 10
6.030000000000026
 20
-0.1716393927507243
 30
0.0
 41
1.0
 10
6.07101107250177
 20
-0.1649775398605087
 30
0.0
 41
1.002575576871099
 10
6.106511467754968
 20
-0.1592017961187331
 30
0.0
 41
1.0
  0
LINE
  5
1B63
330
6C
100
AcDbEntity
  8
L
100
AcDbLine
 10
5.734000000000028
 20
-0.1716393927507713
 30
0.0
 11
6.030000000000027
 21
-0.1716393927507243
 31
0.0
  0
SPLINE
  5
1B64
330
6C
100
AcDbEntity
  8
L
100
AcDbSpline
210
0.0
220
0.0
230
1.0
 70
    12
 71
     2
 72
     6
 73
     3
 74
     0
 42
0.0000000001
 43
0.0000000001
 40
0.8245964843329199
 40
0.8245964843329199
 40
0.8245964843329199
 40
1.348354434443199
 40
1.348354434443199
 40
1.348354434443199
 10
6.106511467755058
 20
-0.680803934548365
 30
0.0
 41
1.07704651365862
 10
6.115198312177529
 20
-0.6963180661800612
 30
0.0
 41
1.086551220052425
 10
6.106511467755058
 20
-0.7118321978117601
 30
0.0
 41
1.077046513658622
  0
LINE
  5
1B65
330
6C
100
AcDbEntity
  8
L
100
AcDbLine
 10
6.106511467755058
 20
-0.7118321978117601
 30
0.0
 11
6.082962011245708
 21
-0.7118321978117637
 31
0.0
  0
SPLINE
  5
1B66
330
6C
100
AcDbEntity
  8
L
100
AcDbSpline
210
0.0
220
0.0
230
1.0
 70
    12
 71
     2
 72
     6
 73
     3
 74
     0
 42
0.0000000001
 43
0.0000000001
 40
0.0
 40
0.0
 40
0.0
 40
0.3400618839427869
 40
0.3400618839427869
 40
0.3400618839427869
 10
6.106511467755058
 20
-0.7118321978117601
 30
0.0
 41
1.0
 10
6.071011072504839
 20
-0.7626942718083161
 30
0.0
 41
1.002575576888377
 10
6.030000000000132
 20
-0.8213595571565015
 30
0.0
 41
1.0
  0
LINE
  5
1B67
330
6C
100
AcDbEntity
  8
L
100
AcDbLine
 10
6.030000000000132
 20
-0.8213595571565015
 30
0.0
 11
5.734000000000133
 21
-0.8213595571565495
 31
0.0
  0
SPLINE
  5
1B68
330
6C
100
AcDbEntity
  8
L
100
AcDbSpline
210
0.0
220
0.0
230
1.0
 70
     8
 71
     3
 72
    22
 73
    18
 74
     0
 42
0.0000000001
 43
0.0000000001
 40
0.0
 40
0.0
 40
0.0
 40
0.0
 40
0.1163646986643896
 40
0.1163646986643896
 40
0.2327293973287791
 40
0.2327293973287791
 40
0.3495847538451033
 40
0.3495847538451033
 40
0.4664401103614276
 40
0.4664401103614276
 40
0.5832954668777517
 40
0.5832954668777517
 40
0.7001508233940759
 40
0.7001508233940759
 40
0.8165155220584654
 40
0.8165155220584654
 40
0.9328802207228548
 40
0.9328802207228548
 40
0.9328802207228548
 40
0.9328802207228548
 10
5.734000000000133
 20
-0.8213595571565495
 30
0.0
 10
5.71872904217016
 20
-0.8213595571565512
 30
0.0
 10
5.702423410497091
 20
-0.8213213203082503
 30
0.0
 10
5.672349018250372
 20
-0.8209594415918051
 30
0.0
 10
5.658579070146588
 20
-0.8206125007232891
 30
0.0
 10
5.636680791520639
 20
-0.8193035983554093
 30
0.0
 10
5.627105752678305
 20
-0.81824652941114
 30
0.0
 10
5.614365180150903
 20
-0.8149898049848571
 30
0.0
 10
5.611202615671745
 20
-0.812765130315098
 30
0.0
 10
5.611202615671745
 20
-0.8077031171837445
 30
0.0
 10
5.614365180150903
 20
-0.8045446524850312
 30
0.0
 10
5.627105752678302
 20
-0.7979418758844563
 30
0.0
 10
5.636680791520632
 20
-0.7945216997443217
 30
0.0
 10
5.658579070146583
 20
-0.7888110371264379
 30
0.0
 10
5.672349018250367
 20
-0.7861372621684702
 30
0.0
 10
5.702423410497088
 20
-0.7824990814710784
 30
0.0
 10
5.718729042170151
 20
-0.7815578846626341
 30
0.0
 10
5.734000000000126
 20
-0.7815578846626324
 30
0.0
  0
SPLINE
  5
1B69
330
6C
100
AcDbEntity
  8
L
100
AcDbSpline
210
0.0
220
0.0
230
1.0
 70
    12
 71
     2
 72
     6
 73
     3
 74
     0
 42
0.0000000001
 43
0.0000000001
 40
0.0
 40
0.0
 40
0.0
 40
0.3400618839427867
 40
0.3400618839427867
 40
0.3400618839427867
 10
6.030000000000123
 20
-0.7815578846625835
 30
0.0
 41
1.0
 10
6.07101107250258
 20
-0.7275918320850066
 30
0.0
 41
1.002575576879469
 10
6.106511467755058
 20
-0.680803934548365
 30
0.0
 41
1.0
  0
LINE
  5
1B6A
330
6C
100
AcDbEntity
  8
L
100
AcDbLine
 10
5.734000000000126
 20
-0.7815578846626324
 30
0.0
 11
6.030000000000123
 21
-0.7815578846625844
 31
0.0
  0
SPLINE
  5
1B6B
330
6C
100
AcDbEntity
  8
L
100
AcDbSpline
210
0.0
220
0.0
230
1.0
 70
    12
 71
     2
 72
     6
 73
     3
 74
     0
 42
0.0000000001
 43
0.0000000001
 40
0.8245964843329197
 40
0.8245964843329197
 40
0.8245964843329197
 40
1.348354434443199
 40
1.348354434443199
 40
1.348354434443199
 10
6.106511467754859
 20
0.5216021384306249
 30
0.0
 41
1.07704651365862
 10
6.11519831217735
 20
0.4490692061783097
 30
0.0
 41
1.086551220052424
 10
6.106511467754879
 20
0.3765362739259919
 30
0.0
 41
1.07704651365862
  0
LINE
  5
1B6C
330
6C
100
AcDbEntity
  8
L
100
AcDbLine
 10
5.733999999999916
 20
0.5216021384305645
 30
0.0
 11
6.106511467754859
 21
0.5216021384306249
 31
0.0
  0
ELLIPSE
  5
1B6D
330
6C
100
AcDbEntity
  8
L
100
AcDbEllipse
 10
5.733999999999923
 20
0.4490692061782493
 30
0.0
 11
-0.0939999999999996
 21
-0.0000000000000147
 31
0.0
210
0.0
220
0.0
230
1.0
 40
0.7716269388544199
 41
4.712388980384687
 42
6.140101056473262
  0
SPLINE
  5
1B6E
330
6C
100
AcDbEntity
  8
L
100
AcDbSpline
210
0.0
220
0.0
230
1.0
 70
    12
 71
     2
 72
     6
 73
     3
 74
     0
 42
0.0000000001
 43
0.0000000001
 40
0.0
 40
0.0
 40
0.0
 40
0.3400618839427864
 40
0.3400618839427864
 40
0.3400618839427864
 10
6.106511467754879
 20
0.3765362739259919
 30
0.0
 41
1.0
 10
6.07101107249632
 20
0.398500505971767
 30
0.0
 41
1.002575576856022
 10
6.02999999999993
 20
0.4238344697409655
 30
0.0
 41
1.0
  0
LINE
  5
1B6F
330
6C
100
AcDbEntity
  8
L
100
AcDbLine
 10
6.02999999999993
 20
0.4238344697409655
 30
0.0
 11
5.73399999999993
 21
0.4238344697409202
 31
0.0
  0
SPLINE
  5
1B70
330
6C
100
AcDbEntity
  8
L
100
AcDbSpline
210
0.0
220
0.0
230
1.0
 70
     8
 71
     3
 72
    22
 73
    18
 74
     0
 42
0.0000000001
 43
0.0000000001
 40
0.0
 40
0.0
 40
0.0
 40
0.0
 40
0.1163646986643895
 40
0.1163646986643895
 40
0.232729397328779
 40
0.232729397328779
 40
0.3495847538451033
 40
0.3495847538451033
 40
0.4664401103614276
 40
0.4664401103614276
 40
0.5832954668777517
 40
0.5832954668777517
 40
0.7001508233940762
 40
0.7001508233940762
 40
0.8165155220584654
 40
0.8165155220584654
 40
0.9328802207228548
 40
0.9328802207228548
 40
0.9328802207228548
 40
0.9328802207228548
 10
5.73399999999993
 20
0.4238344697409202
 30
0.0
 10
5.718729042169957
 20
0.4238344697409149
 30
0.0
 10
5.702423410496885
 20
0.4264152020701158
 30
0.0
 10
5.672349018250169
 20
0.436822379682341
 30
0.0
 10
5.658579070146382
 20
0.4446340385757522
 30
0.0
 10
5.636680791520431
 20
0.4624626505019425
 30
0.0
 10
5.627105752678096
 20
0.4736908481452354
 30
0.0
 10
5.614365180150688
 20
0.4978177868127469
 30
0.0
 10
5.611202615671528
 20
0.510702742473109
 30
0.0
 10
5.611202615671523
 20
0.5343690787034073
 30
0.0
 10
5.614365180150679
 20
0.5466518148215727
 30
0.0
 10
5.62710575267808
 20
0.5686208186792437
 30
0.0
 10
5.636680791520412
 20
0.5783250020478894
 30
0.0
 10
5.658579070146359
 20
0.5933148322775415
 30
0.0
 10
5.672349018250143
 20
0.5996258701355366
 30
0.0
 10
5.702423410496859
 20
0.607920096208475
 30
0.0
 10
5.718729042169927
 20
0.6099184919127909
 30
0.0
 10
5.7339999999999
 20
0.6099184919127945
 30
0.0
  0
SPLINE
  5
1B71
330
6C
100
AcDbEntity
  8
L
100
AcDbSpline
210
0.0
220
0.0
230
1.0
 70
    12
 71
     2
 72
     6
 73
     3
 74
     0
 42
0.0000000001
 43
0.0000000001
 40
0.0
 40
0.0
 40
0.0
 40
0.3400618839427869
 40
0.3400618839427869
 40
0.3400618839427869
 10
6.029999999999899
 20
0.6099184919128398
 30
0.0
 41
1.0
 10
6.071011072509937
 20
0.5626142922168578
 30
0.0
 41
1.002575576920622
 10
6.106511467754859
 20
0.5216021384306249
 30
0.0
 41
1.0
  0
LINE
  5
1B72
330
6C
100
AcDbEntity
  8
L
100
AcDbLine
 10
5.7339999999999
 20
0.6099184919127945
 30
0.0
 11
6.029999999999899
 21
0.6099184919128407
 31
0.0
  0
LINE
  5
1B73
330
6C
100
AcDbEntity
  8
H
100
AcDbLine
 10
5.734000000000023
 20
-0.1592017961187935
 30
0.0
 11
6.106511467754968
 21
-0.1592017961187331
 31
0.0
  0
ELLIPSE
  5
1B74
330
6C
100
AcDbEntity
  8
H
100
AcDbEllipse
 10
5.734000000000039
 20
-0.2472488600028049
 30
0.0
 11
0.0939999999999996
 21
0.000000000000005
 31
0.0
210
0.0
220
0.0
230
1.0
 40
0.9366708923831128
 41
1.570796326795
 42
2.565132385326171
  0
LINE
  5
1B75
330
6C
100
AcDbEntity
  8
H
100
AcDbLine
 10
5.734000000000108
 20
-0.6808039345484254
 30
0.0
 11
6.106511467755058
 21
-0.680803934548365
 31
0.0
  0
ELLIPSE
  5
1B76
330
6C
100
AcDbEntity
  8
H
100
AcDbEllipse
 10
5.734000000000111
 20
-0.6963180661801216
 30
0.0
 11
-0.0939999999999997
 21
-0.0000000000000151
 31
0.0
210
0.0
220
0.0
230
1.0
 40
0.1650439535286958
 41
4.712388980384687
 42
7.853981633974481
  0
LINE
  5
1B77
330
6C
100
AcDbEntity
  8
H
100
AcDbLine
 10
6.082962011245708
 20
-0.7118321978117637
 30
0.0
 11
5.734000000000115
 21
-0.7118321978118197
 31
0.0
  0
SPLINE
  5
1B78
330
6C
100
AcDbEntity
  8
H
100
AcDbSpline
210
0.0
220
0.0
230
1.0
 70
    12
 71
     2
 72
     6
 73
     3
 74
     0
 42
0.0000000001
 43
0.0000000001
 40
0.8245964843329211
 40
0.8245964843329211
 40
0.8245964843329211
 40
1.3483544344432
 40
1.3483544344432
 40
1.3483544344432
 10
6.106511467755028
 20
-0.5216021384286389
 30
0.0
 41
1.07704651365862
 10
6.11519831217749
 20
-0.4490692061763229
 30
0.0
 41
1.086551220052425
 10
6.106511467755
 20
-0.3765362739240077
 30
0.0
 41
1.07704651365862
  0
LINE
  5
1B79
330
6C
100
AcDbEntity
  8
H
100
AcDbLine
 10
5.734000000000083
 20
-0.5216021384286993
 30
0.0
 11
6.106511467755028
 21
-0.5216021384286389
 31
0.0
  0
ELLIPSE
  5
1B7A
330
6C
100
AcDbEntity
  8
H
100
AcDbEllipse
 10
5.734000000000071
 20
-0.4490692061763842
 30
0.0
 11
-0.0939999999999997
 21
-0.000000000000015
 31
0.0
210
0.0
220
0.0
230
1.0
 40
0.7716269388544191
 41
4.712388980384685
 42
7.853981648875638
  0
LINE
  5
1B7B
330
6C
100
AcDbEntity
  8
H
100
AcDbLine
 10
6.106511467755009
 20
-0.3765362739240077
 30
0.0
 11
5.734000000000058
 21
-0.3765362739240681
 31
0.0
  0
SPLINE
  5
1B7C
330
6C
100
AcDbEntity
  8
H
100
AcDbSpline
210
0.0
220
0.0
230
1.0
 70
    12
 71
     2
 72
     6
 73
     3
 74
     0
 42
0.0000000001
 43
0.0000000001
 40
0.0
 40
0.0
 40
0.0
 40
0.340061883942787
 40
0.340061883942787
 40
0.340061883942787
 10
6.106511467755009
 20
-0.3765362739240077
 30
0.0
 41
1.0
 10
6.07101107250733
 20
-0.3985005059630699
 30
0.0
 41
1.002575576897636
 10
6.030000000000065
 20
-0.4238344697390053
 30
0.0
 41
1.0
  0
LINE
  5
1B7D
330
6C
100
AcDbEntity
  8
H
100
AcDbLine
 10
6.030000000000065
 20
-0.4238344697390053
 30
0.0
 11
5.734000000000065
 21
-0.4238344697390533
 31
0.0
  0
SPLINE
  5
1B7E
330
6C
100
AcDbEntity
  8
H
100
AcDbSpline
210
0.0
220
0.0
230
1.0
 70
     8
 71
     3
 72
    22
 73
    18
 74
     0
 42
0.0000000001
 43
0.0000000001
 40
0.0
 40
0.0
 40
0.0
 40
0.0
 40
0.1163646986643897
 40
0.1163646986643897
 40
0.2327293973287793
 40
0.2327293973287793
 40
0.3495847538451034
 40
0.3495847538451034
 40
0.4664401103614276
 40
0.4664401103614276
 40
0.5832954668777516
 40
0.5832954668777516
 40
0.7001508233940756
 40
0.7001508233940756
 40
0.8165155220584651
 40
0.8165155220584651
 40
0.9328802207228548
 40
0.9328802207228548
 40
0.9328802207228548
 40
0.9328802207228548
 10
5.734000000000065
 20
-0.4238344697390533
 30
0.0
 10
5.718729042170096
 20
-0.4238344697390551
 30
0.0
 10
5.702423410497026
 20
-0.4264152020682613
 30
0.0
 10
5.672349018250312
 20
-0.4368223796804945
 30
0.0
 10
5.658579070146528
 20
-0.4446340385739092
 30
0.0
 10
5.63668079152058
 20
-0.4624626505001102
 30
0.0
 10
5.627105752678245
 20
-0.4736908481434048
 30
0.0
 10
5.614365180150851
 20
-0.49781778681092
 30
0.0
 10
5.611202615671695
 20
-0.5107027424712838
 30
0.0
 10
5.611202615671698
 20
-0.5343690787015812
 30
0.0
 10
5.614365180150858
 20
-0.5466518148197448
 30
0.0
 10
5.627105752678263
 20
-0.5686208186774114
 30
0.0
 10
5.6366807915206
 20
-0.5783250020460545
 30
0.0
 10
5.658579070146553
 20
-0.5933148322756994
 30
0.0
 10
5.672349018250338
 20
-0.5996258701336901
 30
0.0
 10
5.702423410497056
 20
-0.6079200962066196
 30
0.0
 10
5.718729042170126
 20
-0.6099184919109302
 30
0.0
 10
5.734000000000097
 20
-0.6099184919109275
 30
0.0
  0
SPLINE
  5
1B7F
330
6C
100
AcDbEntity
  8
H
100
AcDbSpline
210
0.0
220
0.0
230
1.0
 70
    12
 71
     2
 72
     6
 73
     3
 74
     0
 42
0.0000000001
 43
0.0000000001
 40
0.0
 40
0.0
 40
0.0
 40
0.3400618839427869
 40
0.3400618839427869
 40
0.3400618839427869
 10
6.030000000000095
 20
-0.6099184919108805
 30
0.0
 41
1.0
 10
6.071011072517981
 20
-0.5626142922058151
 30
0.0
 41
1.002575576943949
 10
6.106511467755028
 20
-0.5216021384286389
 30
0.0
 41
1.0
  0
LINE
  5
1B80
330
6C
100
AcDbEntity
  8
H
100
AcDbLine
 10
5.734000000000097
 20
-0.6099184919109275
 30
0.0
 11
6.030000000000095
 21
-0.6099184919108805
 31
0.0
  0
SPLINE
  5
1B81
330
6C
100
AcDbEntity
  8
H
100
AcDbSpline
210
0.0
220
0.0
230
1.0
 70
    12
 71
     2
 72
     6
 73
     3
 74
     0
 42
0.0000000001
 43
0.0000000001
 40
0.8245964843329206
 40
0.8245964843329206
 40
0.8245964843329206
 40
1.348354434443199
 40
1.348354434443199
 40
1.348354434443199
 10
6.10651146775492
 20
0.159201796120719
 30
0.0
 41
1.07704651365862
 10
6.115198312177378
 20
0.2472488600047322
 30
0.0
 41
1.086551220052422
 10
6.106511467754888
 20
0.3352959238887427
 30
0.0
 41
1.07704651365862
  0
LINE
  5
1B82
330
6C
100
AcDbEntity
  8
H
100
AcDbLine
 10
5.733999999999973
 20
0.1592017961206587
 30
0.0
 11
6.10651146775492
 21
0.159201796120719
 31
0.0
  0
ELLIPSE
  5
1B83
330
6C
100
AcDbEntity
  8
H
100
AcDbEllipse
 10
5.733999999999959
 20
0.2472488600046709
 30
0.0
 11
-0.0939999999999997
 21
-0.000000000000015
 31
0.0
210
0.0
220
0.0
230
1.0
 40
0.9366708923831147
 41
4.712388980384695
 42
7.853981633974488
  0
LINE
  5
1B84
330
6C
100
AcDbEntity
  8
H
100
AcDbLine
 10
6.106511467754888
 20
0.3352959238887427
 30
0.0
 11
5.733999999999943
 21
0.3352959238886841
 31
0.0
  0
SPLINE
  5
1B85
330
6C
100
AcDbEntity
  8
H
100
AcDbSpline
210
0.0
220
0.0
230
1.0
 70
    12
 71
     2
 72
     6
 73
     3
 74
     0
 42
0.0000000001
 43
0.0000000001
 40
0.0
 40
0.0
 40
0.0
 40
0.340061883942787
 40
0.340061883942787
 40
0.340061883942787
 10
6.106511467754888
 20
0.3352959238887427
 30
0.0
 41
1.0
 10
6.071011072507699
 20
0.364193765842189
 30
0.0
 41
1.002575576900996
 10
6.029999999999933
 20
0.397525087418475
 30
0.0
 41
1.0
  0
LINE
  5
1B86
330
6C
100
AcDbEntity
  8
H
100
AcDbLine
 10
6.029999999999933
 20
0.397525087418475
 30
0.0
 11
5.733999999999934
 21
0.3975250874184297
 31
0.0
  0
SPLINE
  5
1B87
330
6C
100
AcDbEntity
  8
H
100
AcDbSpline
210
0.0
220
0.0
230
1.0
 70
     8
 71
     3
 72
    22
 73
    18
 74
     0
 42
0.0000000001
 43
0.0000000001
 40
0.0
 40
0.0
 40
0.0
 40
0.0
 40
0.1163646986643896
 40
0.1163646986643896
 40
0.2327293973287792
 40
0.2327293973287792
 40
0.3495847538451036
 40
0.3495847538451036
 40
0.466440110361428
 40
0.466440110361428
 40
0.5832954668777523
 40
0.5832954668777523
 40
0.7001508233940765
 40
0.7001508233940765
 40
0.8165155220584658
 40
0.8165155220584658
 40
0.9328802207228552
 40
0.9328802207228552
 40
0.9328802207228552
 40
0.9328802207228552
 10
5.733999999999934
 20
0.3975250874184297
 30
0.0
 10
5.718729042169961
 20
0.3975250874184253
 30
0.0
 10
5.702423410496896
 20
0.394906118240919
 30
0.0
 10
5.672349018250178
 20
0.3841370619122326
 30
0.0
 10
5.658579070146396
 20
0.3759784621502993
 30
0.0
 10
5.636680791520447
 20
0.3568409478562184
 30
0.0
 10
5.627105752678115
 20
0.3445556812686519
 30
0.0
 10
5.614365180150718
 20
0.3171720181748494
 30
0.0
 10
5.611202615671562
 20
0.3020623878447308
 30
0.0
 10
5.611202615671565
 20
0.2733340384830774
 30
0.0
 10
5.614365180150725
 20
0.2578928376662004
 30
0.0
 10
5.627105752678136
 20
0.2293210572079589
 30
0.0
 10
5.636680791520472
 20
0.2161966976991856
 30
0.0
 10
5.658579070146423
 20
0.1954962048516595
 30
0.0
 10
5.672349018250212
 20
0.186511392035702
 30
0.0
 10
5.70242341049693
 20
0.1745789852653887
 30
0.0
 10
5.71872904217
 20
0.171639392752633
 30
0.0
 10
5.733999999999973
 20
0.1716393927526356
 30
0.0
  0
SPLINE
  5
1B88
330
6C
100
AcDbEntity
  8
H
100
AcDbSpline
210
0.0
220
0.0
230
1.0
 70
    12
 71
     2
 72
     6
 73
     3
 74
     0
 42
0.0000000001
 43
0.0000000001
 40
0.0
 40
0.0
 40
0.0
 40
0.3400618839427869
 40
0.3400618839427869
 40
0.3400618839427869
 10
6.029999999999972
 20
0.1716393927526845
 30
0.0
 41
1.0
 10
6.071011072495409
 20
0.1649775398635089
 30
0.0
 41
1.002575576858715
 10
6.10651146775492
 20
0.159201796120719
 30
0.0
 41
1.0
  0
LINE
  5
1B89
330
6C
100
AcDbEntity
  8
H
100
AcDbLine
 10
5.733999999999968
 20
0.1716393927526356
 30
0.0
 11
6.029999999999967
 21
0.1716393927526845
 31
0.0
  0
ELLIPSE
  5
1B8A
330
6C
100
AcDbEntity
  8
H
100
AcDbEllipse
 10
5.733999999999927
 20
0.4490692061782493
 30
0.0
 11
-0.0939999999999998
 21
-0.000000000000015
 31
0.0
210
0.0
220
0.0
230
1.0
 40
0.7716269388544199
 41
6.140101056473254
 42
7.853981633974478
  0
LINE
  5
1B8B
330
6C
100
AcDbEntity
  8
H
100
AcDbLine
 10
6.106511467754879
 20
0.3765362739259919
 30
0.0
 11
5.733999999999937
 21
0.3765362739259341
 31
0.0
  0
LINE
  5
1B8C
330
6C
100
AcDbEntity
  8
H
100
AcDbLine
 10
5.663951997161905
 20
-0.1885346307790314
 30
0.0
 11
5.643240211992523
 21
-0.2102138668826328
 31
0.0
  0
LINE
  5
1B8D
330
6C
100
AcDbEntity
  8
H
100
AcDbLine
 10
5.640081850702284
 20
-0.695670781711482
 30
0.0
 11
5.61131352140824
 21
-0.809372811445022
 31
0.0
  0
LINE
  5
1B8E
330
6C
100
AcDbEntity
  8
H
100
AcDbLine
 10
5.644402804425972
 20
-0.4271307986337636
 30
0.0
 11
5.617153200034483
 21
-0.4933927589970715
 31
0.0
  0
LINE
  5
1B8F
330
6C
100
AcDbEntity
  8
H
100
AcDbLine
 10
5.663951997161847
 20
0.1885346307808744
 30
0.0
 11
5.643240211992454
 21
0.2102138668844695
 31
0.0
  0
LINE
  5
1B90
330
6C
100
AcDbEntity
  8
H
100
AcDbLine
 10
5.644402804425833
 20
0.4271307986355995
 30
0.0
 11
5.617153200034325
 21
0.4933927589988994
 31
0.0
  0
LINE
  5
1B91
330
6C
100
AcDbEntity
  8
L
100
AcDbLine
 10
5.246999999999866
 20
0.8215000000008538
 30
0.0
 11
5.247000000000133
 21
-0.8214999999991441
 31
0.0
  0
LINE
  5
1B92
330
6C
100
AcDbEntity
  8
L
100
AcDbLine
 10
5.227000000000133
 20
-0.8014999999991472
 30
0.0
 11
5.226999999999872
 21
0.8015000000008489
 31
0.0
  0
LINE
  5
1B93
330
6C
100
AcDbEntity
  8
L
100
AcDbLine
 10
5.226999999999872
 20
0.8015000000008498
 30
0.0
 11
5.246999999999866
 21
0.8215000000008538
 31
0.0
  0
LINE
  5
1B94
330
6C
100
AcDbEntity
  8
L
100
AcDbLine
 10
5.227000000000133
 20
-0.8014999999991481
 30
0.0
 11
5.247000000000133
 21
-0.8214999999991441
 31
0.0
  0
LINE
  5
1B95
330
6C
100
AcDbEntity
  8
L
100
AcDbLine
 10
6.02999999999993
 20
0.4238344697409655
 30
0.0
 11
6.030000000000027
 21
-0.1716393927507243
 31
0.0
  0
LINE
  5
1B96
330
6C
100
AcDbEntity
  8
L
100
AcDbLine
 10
6.029999999999866
 20
0.8215000000009782
 30
0.0
 11
6.029999999999899
 21
0.6099184919128407
 31
0.0
  0
LINE
  5
1B97
330
6C
100
AcDbEntity
  8
L
100
AcDbLine
 10
6.030000000000132
 20
-0.8213595571565015
 30
0.0
 11
6.030000000000132
 21
-0.821499999999018
 31
0.0
  0
LINE
  5
1B98
330
6C
100
AcDbEntity
  8
L
100
AcDbLine
 10
6.030000000000061
 20
-0.3975250874165148
 30
0.0
 11
6.030000000000123
 21
-0.7815578846625835
 31
0.0
  0
LINE
  5
1B99
330
6C
100
AcDbEntity
  8
L
100
AcDbLine
 10
6.119999999999878
 20
0.6929666793942025
 30
0.0
 11
6.120000000000109
 21
-0.6929666793922129
 31
0.0
  0
LINE
  5
1B9A
330
6C
100
AcDbEntity
  8
L
100
AcDbLine
 10
6.030000000000132
 20
-0.821499999999018
 30
0.0
 11
5.247000000000136
 21
-0.8214999999991441
 31
0.0
  0
LINE
  5
1B9B
330
6C
100
AcDbEntity
  8
L
100
AcDbLine
 10
6.029999999999866
 20
0.8215000000009782
 30
0.0
 11
5.246999999999866
 21
0.8215000000008538
 31
0.0
  0
LINE
  5
1B9C
330
6C
100
AcDbEntity
  8
L
100
AcDbLine
 10
6.120000000000109
 20
-0.6929666793922147
 30
0.0
 11
6.030000000000132
 21
-0.821499999999018
 31
0.0
  0
LINE
  5
1B9D
330
6C
100
AcDbEntity
  8
L
100
AcDbLine
 10
6.119999999999878
 20
0.6929666793942025
 30
0.0
 11
6.029999999999862
 21
0.8215000000009782
 31
0.0
  0
LINE
  5
1B9E
330
6C
100
AcDbEntity
  8
H
100
AcDbLine
 10
6.029999999999899
 20
0.6099184919128407
 30
0.0
 11
6.02999999999993
 21
0.4238344697409664
 31
0.0
  0
LINE
  5
1B9F
330
6C
100
AcDbEntity
  8
H
100
AcDbLine
 10
6.030000000000027
 20
-0.1716393927507225
 30
0.0
 11
6.030000000000061
 21
-0.3975250874165148
 31
0.0
  0
LINE
  5
1BA0
330
6C
100
AcDbEntity
  8
H
100
AcDbLine
 10
6.030000000000123
 20
-0.7815578846625835
 30
0.0
 11
6.030000000000132
 21
-0.8213595571565015
 31
0.0
  0
LINE
  5
1BA1
330
6C
100
AcDbEntity
  8
H
100
AcDbLine
 10
6.02199999999993
 20
0.4055000000009788
 30
0.0
 11
6.022000000000062
 21
-0.4054999999990203
 31
0.0
  0
LINE
  5
1BA2
330
6C
100
AcDbEntity
  8
H
100
AcDbLine
 10
5.611559600438315
 20
0.6400000000009119
 30
0.0
 11
5.611559600438523
 21
-0.6399999999990849
 31
0.0
  0
LINE
  5
1BA3
330
6C
100
AcDbEntity
  8
H
100
AcDbLine
 10
6.087999999999929
 20
0.4055000000009886
 30
0.0
 11
6.088000000000059
 21
-0.4054999999990097
 31
0.0
  0
LINE
  5
1BA4
330
6C
100
AcDbEntity
  8
H
100
AcDbLine
 10
6.112999999999919
 20
0.4940000000009928
 30
0.0
 11
6.113000000000079
 21
-0.4939999999990051
 31
0.0
  0
LINE
  5
1BA5
330
6C
100
AcDbEntity
  8
H
100
AcDbLine
 10
5.832259020858332
 20
-0.5134999999990502
 30
0.0
 11
5.802000000000079
 21
-0.5134999999990555
 31
0.0
  0
LINE
  5
1BA6
330
6C
100
AcDbEntity
  8
H
100
AcDbLine
 10
5.832259020858163
 20
0.5135000000009473
 30
0.0
 11
5.801999999999914
 21
0.5135000000009429
 31
0.0
  0
LINE
  5
1BA7
330
6C
100
AcDbEntity
  8
H
100
AcDbLine
 10
6.022000000000062
 20
-0.4054999999990203
 30
0.0
 11
5.837259020858331
 21
-0.5121602540368935
 31
0.0
  0
LINE
  5
1BA8
330
6C
100
AcDbEntity
  8
H
100
AcDbLine
 10
6.02199999999993
 20
0.4055000000009788
 30
0.0
 11
5.837259020858168
 21
0.5121602540387942
 31
0.0
  0
LINE
  5
1BA9
330
6C
100
AcDbEntity
  8
H
100
AcDbLine
 10
5.782000000000076
 20
-0.4749999999990591
 30
0.0
 11
5.755000000000077
 21
-0.4749999999990627
 31
0.0
  0
LINE
  5
1BAA
330
6C
100
AcDbEntity
  8
H
100
AcDbLine
 10
5.781999999999921
 20
0.4750000000009394
 30
0.0
 11
5.754999999999924
 21
0.4750000000009349
 31
0.0
  0
LINE
  5
1BAB
330
6C
100
AcDbEntity
  8
H
100
AcDbLine
 10
5.705000000000104
 20
-0.6399999999990698
 30
0.0
 11
5.611559600438523
 21
-0.6399999999990849
 31
0.0
  0
LINE
  5
1BAC
330
6C
100
AcDbEntity
  8
H
100
AcDbLine
 10
5.704999999999897
 20
0.6400000000009279
 30
0.0
 11
5.611559600438312
 21
0.6400000000009119
 31
0.0
  0
LINE
  5
1BAD
330
6C
100
AcDbEntity
  8
H
100
AcDbLine
 10
5.557000000000099
 20
-0.6084999999990952
 30
0.0
 11
5.257000000000099
 21
-0.6084999999991432
 31
0.0
  0
LINE
  5
1BAE
330
6C
100
AcDbEntity
  8
H
100
AcDbLine
 10
5.5569999999999
 20
0.6085000000009036
 30
0.0
 11
5.256999999999901
 21
0.6085000000008538
 31
0.0
  0
LINE
  5
1BAF
330
6C
100
AcDbEntity
  8
H
100
AcDbLine
 10
5.556999999999902
 20
0.6085000000009036
 30
0.0
 11
5.611559600438312
 21
0.6400000000009119
 31
0.0
  0
LINE
  5
1BB0
330
6C
100
AcDbEntity
  8
H
100
AcDbLine
 10
5.557000000000099
 20
-0.6084999999990952
 30
0.0
 11
5.611559600438523
 21
-0.6399999999990849
 31
0.0
  0
LINE
  5
1BB1
330
6C
100
AcDbEntity
  8
H
100
AcDbLine
 10
6.088000000000059
 20
-0.4054999999990097
 30
0.0
 11
6.022000000000062
 21
-0.4054999999990203
 31
0.0
  0
LINE
  5
1BB2
330
6C
100
AcDbEntity
  8
H
100
AcDbLine
 10
6.087999999999929
 20
0.4055000000009894
 30
0.0
 11
6.02199999999993
 21
0.4055000000009788
 31
0.0
  0
LINE
  5
1BB3
330
6C
100
AcDbEntity
  8
H
100
AcDbLine
 10
6.087999999999929
 20
0.4055000000009894
 30
0.0
 11
6.119999999999929
 21
0.4375000000009939
 31
0.0
  0
LINE
  5
1BB4
330
6C
100
AcDbEntity
  8
H
100
AcDbLine
 10
6.088000000000059
 20
-0.4054999999990097
 30
0.0
 11
6.12000000000007
 21
-0.4374999999990053
 31
0.0
  0
LINE
  5
1BB5
330
6C
100
AcDbEntity
  8
H
100
AcDbLine
 10
6.12000000000008
 20
-0.4869999999990045
 30
0.0
 11
6.11300000000007
 21
-0.4939999999990051
 31
0.0
  0
LINE
  5
1BB6
330
6C
100
AcDbEntity
  8
H
100
AcDbLine
 10
6.119999999999919
 20
0.487000000000994
 30
0.0
 11
6.112999999999919
 21
0.4940000000009928
 31
0.0
  0
LINE
  5
1BB7
330
6C
100
AcDbEntity
  8
H
100
AcDbLine
 10
6.112999999999919
 20
0.4940000000009928
 30
0.0
 11
6.119999999999919
 21
0.5010000000009942
 31
0.0
  0
LINE
  5
1BB8
330
6C
100
AcDbEntity
  8
H
100
AcDbLine
 10
6.11300000000007
 20
-0.4939999999990051
 30
0.0
 11
6.12000000000008
 21
-0.5009999999990038
 31
0.0
  0
LINE
  5
1BB9
330
6C
100
AcDbEntity
  8
H
100
AcDbLine
 10
6.029999999999862
 20
0.8213595571584608
 30
0.0
 11
5.733999999999866
 21
0.8213595571584137
 31
0.0
  0
SPLINE
  5
1BBA
330
6C
100
AcDbEntity
  8
H
100
AcDbSpline
210
0.0
220
0.0
230
1.0
 70
     8
 71
     3
 72
    22
 73
    18
 74
     0
 42
0.0000000001
 43
0.0000000001
 40
0.0
 40
0.0
 40
0.0
 40
0.0
 40
0.1163646986643895
 40
0.1163646986643895
 40
0.2327293973287791
 40
0.2327293973287791
 40
0.3495847538451033
 40
0.3495847538451033
 40
0.4664401103614276
 40
0.4664401103614276
 40
0.5832954668777517
 40
0.5832954668777517
 40
0.7001508233940762
 40
0.7001508233940762
 40
0.8165155220584654
 40
0.8165155220584654
 40
0.932880220722855
 40
0.932880220722855
 40
0.932880220722855
 40
0.932880220722855
 10
5.733999999999866
 20
0.8213595571584137
 30
0.0
 10
5.718729042169892
 20
0.8213595571584129
 30
0.0
 10
5.702423410496823
 20
0.8213213203101066
 30
0.0
 10
5.672349018250107
 20
0.8209594415936507
 30
0.0
 10
5.658579070146322
 20
0.8206125007251312
 30
0.0
 10
5.636680791520371
 20
0.8193035983572443
 30
0.0
 10
5.627105752678039
 20
0.8182465294129714
 30
0.0
 10
5.614365180150638
 20
0.8149898049866841
 30
0.0
 10
5.61120261567148
 20
0.8127651303169249
 30
0.0
 10
5.61120261567148
 20
0.8077031171855715
 30
0.0
 10
5.614365180150638
 20
0.8045446524868591
 30
0.0
 10
5.627105752678042
 20
0.7979418758862869
 30
0.0
 10
5.636680791520374
 20
0.7945216997461566
 30
0.0
 10
5.658579070146325
 20
0.7888110371282791
 30
0.0
 10
5.672349018250111
 20
0.7861372621703176
 30
0.0
 10
5.702423410496832
 20
0.7824990814729329
 30
0.0
 10
5.718729042169901
 20
0.7815578846644949
 30
0.0
 10
5.733999999999872
 20
0.7815578846644958
 30
0.0
  0
LINE
  5
1BBB
330
6C
100
AcDbEntity
  8
H
100
AcDbLine
 10
5.733999999999872
 20
0.7815578846644958
 30
0.0
 11
6.029999999999871
 21
0.7815578846645455
 31
0.0
  0
SPLINE
  5
1BBC
330
6C
100
AcDbEntity
  8
H
100
AcDbSpline
210
0.0
220
0.0
230
1.0
 70
    12
 71
     2
 72
     6
 73
     3
 74
     0
 42
0.0000000001
 43
0.0000000001
 40
0.8245964843329193
 40
0.8245964843329193
 40
0.8245964843329193
 40
1.3483544344432
 40
1.3483544344432
 40
1.3483544344432
 10
6.10651146775484
 20
0.6808039345503501
 30
0.0
 41
1.077046513658622
 10
6.115198312177309
 20
0.6963180661820499
 30
0.0
 41
1.086551220052425
 10
6.106511467754829
 20
0.7118321978137443
 30
0.0
 41
1.077046513658622
  0
LINE
  5
1BBD
330
6C
100
AcDbEntity
  8
H
100
AcDbLine
 10
5.733999999999886
 20
0.6808039345502897
 30
0.0
 11
6.10651146775484
 21
0.6808039345503501
 31
0.0
  0
ELLIPSE
  5
1BBE
330
6C
100
AcDbEntity
  8
H
100
AcDbEllipse
 10
5.733999999999886
 20
0.6963180661819859
 30
0.0
 11
-0.0939999999999997
 21
-0.0000000000000151
 31
0.0
210
0.0
220
0.0
230
1.0
 40
0.1650439535286958
 41
4.712388980384687
 42
7.853981633974481
  0
LINE
  5
1BBF
330
6C
100
AcDbEntity
  8
H
100
AcDbLine
 10
6.106511467754829
 20
0.7118321978137461
 30
0.0
 11
5.733999999999882
 21
0.7118321978136839
 31
0.0
  0
SPLINE
  5
1BC0
330
6C
100
AcDbEntity
  8
H
100
AcDbSpline
210
0.0
220
0.0
230
1.0
 70
    12
 71
     2
 72
     6
 73
     3
 74
     0
 42
0.0000000001
 43
0.0000000001
 40
0.0644773139087994
 40
0.0644773139087994
 40
0.0644773139087994
 40
0.4000538741211003
 40
0.4000538741211003
 40
0.4000538741211003
 10
6.106511467754829
 20
0.7118321978137443
 30
0.0
 41
1.000990179898272
 10
6.07101107251816
 20
0.7626942717908749
 30
0.0
 41
1.003071819221106
 10
6.029999999999862
 20
0.8213595571584608
 30
0.0
 41
1.0
  0
SPLINE
  5
1BC1
330
6C
100
AcDbEntity
  8
H
100
AcDbSpline
210
0.0
220
0.0
230
1.0
 70
    12
 71
     2
 72
     6
 73
     3
 74
     0
 42
0.0000000001
 43
0.0000000001
 40
0.0
 40
0.0
 40
0.0
 40
0.3355765602314713
 40
0.3355765602314713
 40
0.3355765602314713
 10
6.029999999999871
 20
0.7815578846645455
 30
0.0
 41
1.0
 10
6.07101107250599
 20
0.7275918320821742
 30
0.0
 41
1.003071819167169
 10
6.10651146775484
 20
0.6808039345503501
 30
0.0
 41
1.000990179880592
  0
LINE
  5
1BC2
330
6C
100
AcDbEntity
  8
H
100
AcDbLine
 10
5.640081850702058
 20
0.6956707817133179
 30
0.0
 11
5.61131352140798
 21
0.809372811446849
 31
0.0
  0
LINE
  5
1BC3
330
6C
100
AcDbEntity
  8
H
100
AcDbLine
 10
5.791999999999918
 20
0.5035000000009413
 30
0.0
 11
5.792000000000081
 21
-0.5034999999990557
 31
0.0
  0
LINE
  5
1BC4
330
6C
100
AcDbEntity
  8
H
100
AcDbLine
 10
5.745000000000095
 20
-0.5999999999990653
 30
0.0
 11
5.744999999999903
 21
0.6000000000009349
 31
0.0
  0
ARC
  5
1BC5
330
6C
100
AcDbEntity
  8
H
100
AcDbCircle
 10
5.832259020858167
 20
0.5035000000009476
 30
0.0
 40
0.01
100
AcDbArc
 50
60.00000000000465
 51
90.00000000001278
  0
ARC
  5
1BC6
330
6C
100
AcDbEntity
  8
H
100
AcDbCircle
 10
5.832259020858332
 20
-0.5034999999990513
 30
0.0
 40
0.01
100
AcDbArc
 50
270.0000000000192
 51
300.0000000000168
  0
ARC
  5
1BC7
330
6C
100
AcDbEntity
  8
H
100
AcDbCircle
 10
5.801999999999917
 20
0.5035000000009431
 30
0.0
 40
0.01
100
AcDbArc
 50
90.00000000000639
 51
180.0
  0
ARC
  5
1BC8
330
6C
100
AcDbEntity
  8
H
100
AcDbCircle
 10
5.802000000000079
 20
-0.5034999999990557
 30
0.0
 40
0.01
100
AcDbArc
 50
180.0
 51
270.0000000000128
  0
ARC
  5
1BC9
330
6C
100
AcDbEntity
  8
H
100
AcDbCircle
 10
5.78199999999992
 20
0.4850000000009392
 30
0.0
 40
0.01
100
AcDbArc
 50
270.0
 51
0.0
  0
ARC
  5
1BCA
330
6C
100
AcDbEntity
  8
H
100
AcDbCircle
 10
5.782000000000076
 20
-0.484999999999058
 30
0.0
 40
0.01
100
AcDbArc
 50
0.0
 51
90.00000000000639
  0
ARC
  5
1BCB
330
6C
100
AcDbEntity
  8
H
100
AcDbCircle
 10
5.704999999999902
 20
0.6000000000009278
 30
0.0
 40
0.04
100
AcDbArc
 50
0.0
 51
90.00000000000962
  0
ARC
  5
1BCC
330
6C
100
AcDbEntity
  8
H
100
AcDbCircle
 10
5.705000000000095
 20
-0.5999999999990698
 30
0.0
 40
0.04
100
AcDbArc
 50
270.0000000000096
 51
0.0
  0
ARC
  5
1BCD
330
6C
100
AcDbEntity
  8
H
100
AcDbCircle
 10
5.754999999999919
 20
0.4850000000009347
 30
0.0
 40
0.01
100
AcDbArc
 50
180.0
 51
270.0000000000064
  0
ARC
  5
1BCE
330
6C
100
AcDbEntity
  8
H
100
AcDbCircle
 10
5.755000000000077
 20
-0.4849999999990633
 30
0.0
 40
0.01
100
AcDbArc
 50
90.00000000000639
 51
180.0
  0
LINE
  5
1BCF
330
6C
100
AcDbEntity
  8
H
100
AcDbLine
 10
5.257000000000099
 20
-0.6084999999991441
 30
0.0
 11
5.256999999999901
 21
0.6085000000008538
 31
0.0
  0
LINE
  5
1BD0
330
6C
100
AcDbEntity
  8
H
100
AcDbLine
 10
5.257000000000099
 20
-0.6084999999991432
 30
0.0
 11
5.227000000000103
 21
-0.638499999999147
 31
0.0
  0
LINE
  5
1BD1
330
6C
100
AcDbEntity
  8
H
100
AcDbLine
 10
5.256999999999901
 20
0.6085000000008538
 30
0.0
 11
5.226999999999897
 21
0.6385000000008488
 31
0.0
  0
LINE
  5
1BD2
330
6C
100
AcDbEntity
  8
H
100
AcDbLine
 10
5.227000000000101
 20
-0.6404645275582031
 30
0.0
 11
5.557000000000101
 21
-0.6404645275581507
 31
0.0
  0
LINE
  5
1BD3
330
6C
100
AcDbEntity
  8
H
100
AcDbLine
 10
5.556999999999897
 20
0.6404645275599599
 30
0.0
 11
5.226999999999897
 21
0.6404645275599066
 31
0.0
  0
LINE
  5
1BD4
330
6C
100
AcDbEntity
  8
H
100
AcDbLine
 10
5.557000000000101
 20
-0.6404645275581507
 30
0.0
 11
5.556999999999897
 21
0.6404645275599599
 31
0.0
  0
MTEXT
  5
2256
330
6C
100
AcDbEntity
  8
D
 62
     7
100
AcDbMText
 10
2.809671594898529
 20
3.296709431525995
 30
0.0
 40
0.1920000023729219
 41
0.0
 71
     7
 72
     1
  1
6.12
  7
DEFAULT-ANSI
 73
     1
 44
1.0
1001
ACAD
1000
MTEXTBEGIN
1070
    73
1070
     1
1070
    44
1040
1.0
1070
    74
1070
     0
1000
MTEXTEND
  0
LINE
  5
2257
330
6C
100
AcDbEntity
  8
D
  6
Continuous
 62
     7
370
    25
100
AcDbLine
 10
0.157480314960488
 20
3.394685039370079
 30
0.0
 11
-0.0000000000001421
 21
3.394685039370079
 31
0.0
  0
POLYLINE
  5
2258
330
6C
100
AcDbEntity
  8
D
  6
Continuous
 62
     7
370
    25
100
AcDb2dPolyline
 66
     1
 10
0.0
 20
0.0
 30
0.0
 70
   128
  0
VERTEX
  5
2259
330
2258
100
AcDbEntity
  8
D
  6
Continuous
 62
     7
370
    25
100
AcDbVertex
100
AcDb2dVertex
 10
0.1574802911922855
 20
3.426181260453221
 30
0.0
  0
VERTEX
  5
225A
330
2258
100
AcDbEntity
  8
D
  6
Continuous
 62
     7
370
    25
100
AcDbVertex
100
AcDb2dVertex
 10
-0.0000000237683455
 20
3.394685077313146
 30
0.0
  0
VERTEX
  5
225C
330
2258
100
AcDbEntity
  8
D
  6
Continuous
 62
     7
370
    25
100
AcDbVertex
100
AcDb2dVertex
 10
0.1574802911922855
 20
3.363188894173077
 30
0.0
  0
VERTEX
  5
225D
330
2258
100
AcDbEntity
  8
D
  6
Continuous
 62
     7
370
    25
100
AcDbVertex
100
AcDb2dVertex
 10
0.1574802911922855
 20
3.426181260453221
 30
0.0
  0
SEQEND
  5
225B
330
2258
100
AcDbEntity
  8
D
  6
Continuous
 62
     7
370
    25
  0
SOLID
  5
225E
330
6C
100
AcDbEntity
  8
D
 62
     7
100
AcDbTrace
 10
0.1574802911922855
 20
3.426181260453221
 30
0.0
 11
-0.0000000237683455
 21
3.394685077313146
 31
0.0
 12
0.1574802911922855
 22
3.363188894173077
 32
0.0
 13
0.1574802911922855
 23
3.426181260453221
 33
0.0
  0
LINE
  5
225F
330
6C
100
AcDbEntity
  8
D
  6
Continuous
 62
     7
370
    25
100
AcDbLine
 10
0.157480314960488
 20
3.426181102362205
 30
0.0
 11
-0.0000000000001421
 21
3.394685039370079
 31
0.0
  0
LINE
  5
2260
330
6C
100
AcDbEntity
  8
D
  6
Continuous
 62
     7
370
    25
100
AcDbLine
 10
-0.0000000000001421
 20
3.394685039370079
 30
0.0
 11
0.157480314960488
 21
3.363188976377951
 31
0.0
  0
LINE
  5
2261
330
6C
100
AcDbEntity
  8
D
  6
Continuous
 62
     7
370
    25
100
AcDbLine
 10
0.157480314960488
 20
3.363188976377951
 30
0.0
 11
0.157480314960488
 21
3.426181102362205
 31
0.0
  0
LINE
  5
2262
330
6C
100
AcDbEntity
  8
D
  6
Continuous
 62
     7
370
    25
100
AcDbLine
 10
5.962519685039255
 20
3.394685039370079
 30
0.0
 11
6.119999999999878
 21
3.394685039370079
 31
0.0
  0
POLYLINE
  5
2263
330
6C
100
AcDbEntity
  8
D
  6
Continuous
 62
     7
370
    25
100
AcDb2dPolyline
 66
     1
 10
0.0
 20
0.0
 30
0.0
 70
   128
  0
VERTEX
  5
2264
330
2263
100
AcDbEntity
  8
D
  6
Continuous
 62
     7
370
    25
100
AcDbVertex
100
AcDb2dVertex
 10
5.962519884746201
 20
3.363188894173077
 30
0.0
  0
VERTEX
  5
2265
330
2263
100
AcDbEntity
  8
D
  6
Continuous
 62
     7
370
    25
100
AcDbVertex
100
AcDb2dVertex
 10
6.120000199706829
 20
3.394685077313146
 30
0.0
  0
VERTEX
  5
2267
330
2263
100
AcDbEntity
  8
D
  6
Continuous
 62
     7
370
    25
100
AcDbVertex
100
AcDb2dVertex
 10
5.962519884746201
 20
3.426181260453221
 30
0.0
  0
VERTEX
  5
2268
330
2263
100
AcDbEntity
  8
D
  6
Continuous
 62
     7
370
    25
100
AcDbVertex
100
AcDb2dVertex
 10
5.962519884746201
 20
3.363188894173077
 30
0.0
  0
SEQEND
  5
2266
330
2263
100
AcDbEntity
  8
D
  6
Continuous
 62
     7
370
    25
  0
SOLID
  5
2269
330
6C
100
AcDbEntity
  8
D
 62
     7
100
AcDbTrace
 10
5.962519884746201
 20
3.363188894173077
 30
0.0
 11
6.120000199706829
 21
3.394685077313146
 31
0.0
 12
5.962519884746201
 22
3.426181260453221
 32
0.0
 13
5.962519884746201
 23
3.363188894173077
 33
0.0
  0
LINE
  5
226A
330
6C
100
AcDbEntity
  8
D
  6
Continuous
 62
     7
370
    25
100
AcDbLine
 10
5.962519685039255
 20
3.363188976377951
 30
0.0
 11
6.119999999999878
 21
3.394685039370079
 31
0.0
  0
LINE
  5
226B
330
6C
100
AcDbEntity
  8
D
  6
Continuous
 62
     7
370
    25
100
AcDbLine
 10
6.119999999999878
 20
3.394685039370079
 30
0.0
 11
5.962519685039255
 21
3.426181102362205
 31
0.0
  0
LINE
  5
226C
330
6C
100
AcDbEntity
  8
D
  6
Continuous
 62
     7
370
    25
100
AcDbLine
 10
5.962519685039255
 20
3.426181102362205
 30
0.0
 11
5.962519685039255
 21
3.363188976377951
 31
0.0
  0
LINE
  5
226D
330
6C
100
AcDbEntity
  8
D
  6
Continuous
 62
     7
370
    25
100
AcDbLine
 10
0.157480314960488
 20
3.394685039370079
 30
0.0
 11
2.748679466848198
 21
3.394685039370079
 31
0.0
  0
LINE
  5
226E
330
6C
100
AcDbEntity
  8
D
  6
Continuous
 62
     7
370
    25
100
AcDbLine
 10
3.371320533151588
 20
3.394685039370079
 30
0.0
 11
5.962519685039255
 21
3.394685039370079
 31
0.0
  0
LINE
  5
226F
330
6C
100
AcDbEntity
  8
D
  6
Continuous
 62
     7
370
    25
100
AcDbLine
 10
-0.0000000000001421
 20
0.9749999999999996
 30
0.0
 11
-0.0000000000001421
 21
3.59468503937008
 31
0.0
  0
LINE
  5
2270
330
6C
100
AcDbEntity
  8
D
  6
Continuous
 62
     7
370
    25
100
AcDbLine
 10
6.119999999999878
 20
0.7929666793942021
 30
0.0
 11
6.119999999999878
 21
3.59468503937008
 31
0.0
  0
MTEXT
  5
2271
330
6C
100
AcDbEntity
  8
D
 62
     7
100
AcDbMText
 10
3.185109478771514
 20
2.611150292686733
 30
0.0
 40
0.1920000023729219
 41
0.0
 71
     7
 72
     1
  1
5.37
  7
DEFAULT-ANSI
 73
     1
 44
1.0
1001
ACAD
1000
MTEXTBEGIN
1070
    73
1070
     1
1070
    44
1040
1.0
1070
    74
1070
     0
1000
MTEXTEND
  0
LINE
  5
2272
330
6C
100
AcDbEntity
  8
D
  6
Continuous
 62
     7
370
    25
100
AcDbLine
 10
0.9062056771748409
 20
2.709125900530818
 30
0.0
 11
0.7487253622142105
 21
2.709125900530818
 31
0.0
  0
POLYLINE
  5
2273
330
6C
100
AcDbEntity
  8
D
  6
Continuous
 62
     7
370
    25
100
AcDb2dPolyline
 66
     1
 10
0.0
 20
0.0
 30
0.0
 70
   128
  0
VERTEX
  5
2274
330
2273
100
AcDbEntity
  8
D
  6
Continuous
 62
     7
370
    25
100
AcDbVertex
100
AcDb2dVertex
 10
0.9062056416398117
 20
2.740621890066901
 30
0.0
  0
VERTEX
  5
2275
330
2273
100
AcDbEntity
  8
D
  6
Continuous
 62
     7
370
    25
100
AcDbVertex
100
AcDb2dVertex
 10
0.7487253266791823
 20
2.70912570692683
 30
0.0
  0
VERTEX
  5
2277
330
2273
100
AcDbEntity
  8
D
  6
Continuous
 62
     7
370
    25
100
AcDbVertex
100
AcDb2dVertex
 10
0.9062056416398117
 20
2.677630124526483
 30
0.0
  0
VERTEX
  5
2278
330
2273
100
AcDbEntity
  8
D
  6
Continuous
 62
     7
370
    25
100
AcDbVertex
100
AcDb2dVertex
 10
0.9062056416398117
 20
2.740621890066901
 30
0.0
  0
SEQEND
  5
2276
330
2273
100
AcDbEntity
  8
D
  6
Continuous
 62
     7
370
    25
  0
SOLID
  5
2279
330
6C
100
AcDbEntity
  8
D
 62
     7
100
AcDbTrace
 10
0.9062056416398117
 20
2.740621890066901
 30
0.0
 11
0.7487253266791823
 21
2.70912570692683
 31
0.0
 12
0.9062056416398117
 22
2.677630124526483
 32
0.0
 13
0.9062056416398117
 23
2.740621890066901
 33
0.0
  0
LINE
  5
227A
330
6C
100
AcDbEntity
  8
D
  6
Continuous
 62
     7
370
    25
100
AcDbLine
 10
0.9062056771748409
 20
2.740621963522945
 30
0.0
 11
0.7487253622142105
 21
2.709125900530818
 31
0.0
  0
LINE
  5
227B
330
6C
100
AcDbEntity
  8
D
  6
Continuous
 62
     7
370
    25
100
AcDbLine
 10
0.7487253622142105
 20
2.709125900530818
 30
0.0
 11
0.9062056771748409
 21
2.677629837538691
 31
0.0
  0
LINE
  5
227C
330
6C
100
AcDbEntity
  8
D
  6
Continuous
 62
     7
370
    25
100
AcDbLine
 10
0.9062056771748409
 20
2.677629837538691
 30
0.0
 11
0.9062056771748409
 21
2.740621963522945
 31
0.0
  0
LINE
  5
227D
330
6C
100
AcDbEntity
  8
D
  6
Continuous
 62
     7
370
    25
100
AcDbLine
 10
5.962519685039254
 20
2.709125900530818
 30
0.0
 11
6.119999999999878
 21
2.709125900530818
 31
0.0
  0
POLYLINE
  5
227E
330
6C
100
AcDbEntity
  8
D
  6
Continuous
 62
     7
370
    25
100
AcDb2dPolyline
 66
     1
 10
0.0
 20
0.0
 30
0.0
 70
   128
  0
VERTEX
  5
227F
330
227E
100
AcDbEntity
  8
D
  6
Continuous
 62
     7
370
    25
100
AcDbVertex
100
AcDb2dVertex
 10
5.962519884746201
 20
2.677630124526483
 30
0.0
  0
VERTEX
  5
2280
330
227E
100
AcDbEntity
  8
D
  6
Continuous
 62
     7
370
    25
100
AcDbVertex
100
AcDb2dVertex
 10
6.120000199706829
 20
2.70912570692683
 30
0.0
  0
VERTEX
  5
2282
330
227E
100
AcDbEntity
  8
D
  6
Continuous
 62
     7
370
    25
100
AcDbVertex
100
AcDb2dVertex
 10
5.962519884746201
 20
2.740621890066901
 30
0.0
  0
VERTEX
  5
2283
330
227E
100
AcDbEntity
  8
D
  6
Continuous
 62
     7
370
    25
100
AcDbVertex
100
AcDb2dVertex
 10
5.962519884746201
 20
2.677630124526483
 30
0.0
  0
SEQEND
  5
2281
330
227E
100
AcDbEntity
  8
D
  6
Continuous
 62
     7
370
    25
  0
SOLID
  5
2284
330
6C
100
AcDbEntity
  8
D
 62
     7
100
AcDbTrace
 10
5.962519884746201
 20
2.677630124526483
 30
0.0
 11
6.120000199706829
 21
2.70912570692683
 31
0.0
 12
5.962519884746201
 22
2.740621890066901
 32
0.0
 13
5.962519884746201
 23
2.677630124526483
 33
0.0
  0
LINE
  5
2285
330
6C
100
AcDbEntity
  8
D
  6
Continuous
 62
     7
370
    25
100
AcDbLine
 10
5.962519685039254
 20
2.677629837538691
 30
0.0
 11
6.119999999999878
 21
2.709125900530818
 31
0.0
  0
LINE
  5
2286
330
6C
100
AcDbEntity
  8
D
  6
Continuous
 62
     7
370
    25
100
AcDbLine
 10
6.119999999999878
 20
2.709125900530818
 30
0.0
 11
5.962519685039254
 21
2.740621963522945
 31
0.0
  0
LINE
  5
2287
330
6C
100
AcDbEntity
  8
D
  6
Continuous
 62
     7
370
    25
100
AcDbLine
 10
5.962519685039254
 20
2.740621963522945
 30
0.0
 11
5.962519685039254
 21
2.677629837538691
 31
0.0
  0
LINE
  5
2288
330
6C
100
AcDbEntity
  8
D
  6
Continuous
 62
     7
370
    25
100
AcDbLine
 10
0.9062056771748409
 20
2.709125900530818
 30
0.0
 11
3.123042147955351
 21
2.709125900530818
 31
0.0
  0
LINE
  5
2289
330
6C
100
AcDbEntity
  8
D
  6
Continuous
 62
     7
370
    25
100
AcDbLine
 10
3.745683214258743
 20
2.709125900530818
 30
0.0
 11
5.962519685039254
 21
2.709125900530818
 31
0.0
  0
LINE
  5
228A
330
6C
100
AcDbEntity
  8
D
  6
Continuous
 62
     7
370
    25
100
AcDbLine
 10
0.7487253622142105
 20
1.321274637785779
 30
0.0
 11
0.7487253622142105
 21
2.909125900530819
 31
0.0
  0
LINE
  5
228B
330
6C
100
AcDbEntity
  8
D
  6
Continuous
 62
     7
370
    25
100
AcDbLine
 10
6.119999999999878
 20
0.7929666793942021
 30
0.0
 11
6.119999999999878
 21
2.909125900530819
 31
0.0
  0
MTEXT
  5
229D
102
{ACAD_REACTORS
330
229E
102
}
330
6C
100
AcDbEntity
  8
D
 62
     7
100
AcDbMText
 10
4.009862496105627
 20
-1.135902057531144
 30
0.0
 40
0.1920000023729219
 41
0.6709755874994233
 71
     1
 72
     1
  1
{ER25}
  7
DEFAULT-ANSI
 73
     1
 44
1.0
1001
ACAD
1000
MTEXTBEGIN
1070
    73
1070
     1
1070
    44
1040
1.0
1070
    74
1070
     0
1000
MTEXTEND
  0
LEADER
  5
229E
330
6C
100
AcDbEntity
  8
D
  6
Continuous
 62
     7
370
    18
100
AcDbLeader
  3
INCH$7
 73
     0
 75
     1
 40
0.1960600297082292
 41
0.6389959151278895
 76
     3
 10
5.11799686332359
 20
-0.4348994394450063
 30
0.0
 10
4.88871209578619
 20
-1.231902058717605
 30
0.0
 10
4.731231784392452
 20
-1.231902058717605
 30
0.0
340
229D
213
0.6709755874994233
223
-0.096000001186461
233
0.0
1001
ACAD
1000
DSTYLE
1002
{
1070
    77
1070
     0
1002
}
  0
MTEXT
  5
229F
102
{ACAD_REACTORS
330
22A0
102
}
330
6C
100
AcDbEntity
  8
D
 62
     7
100
AcDbMText
 10
-1.206103538616055
 20
1.65823107054508
 30
0.0
 40
0.1920000023729219
 41
1.311365863469641
 71
     3
 72
     1
  1
{CAT 40\PSIMUL-FIT}
  7
DEFAULT-ANSI
 73
     2
 44
0.9442214369773862
1001
ACAD
1000
MTEXTBEGIN
1070
    73
1070
     2
1070
    44
1040
0.9442214369773862
1070
    74
1070
     0
1000
MTEXTEND
  0
LEADER
  5
22A0
330
6C
100
AcDbEntity
  8
D
  6
Continuous
 62
     7
370
    18
100
AcDbLeader
  3
INCH$7
 73
     0
 75
     1
 40
0.5581508667309323
 41
1.293839033725849
 76
     3
 10
-0.8311028021904579
 20
0.7537996555924372
 30
0.0
 10
-0.9982295264349156
 20
1.562231069358619
 30
0.0
 10
-1.155709837828653
 20
1.562231069358619
 30
0.0
340
229F
213
0.0
223
-0.096000001186461
233
0.0
1001
ACAD
1000
DSTYLE
1002
{
1070
    77
1070
     0
1002
}
  0
MTEXT
  5
22D0
330
6C
100
AcDbEntity
  8
D
 62
     7
100
AcDbMText
 10
3.492605976723294
 20
1.583989271766077
 30
0.0
 40
0.1920000023729219
 41
0.0
 71
     7
 72
     1
  1
4.74
  7
DEFAULT-ANSI
 73
     1
 44
1.0
1001
ACAD
1000
MTEXTBEGIN
1070
    73
1070
     1
1070
    44
1040
1.0
1070
    74
1070
     0
1000
MTEXTEND
  0
LINE
  5
22D1
330
6C
100
AcDbEntity
  8
D
  6
Continuous
 62
     7
370
    25
100
AcDbLine
 10
1.53748031496063
 20
1.679989272952537
 30
0.0
 11
1.38
 21
1.679989272952537
 31
0.0
  0
POLYLINE
  5
22D2
330
6C
100
AcDbEntity
  8
D
  6
Continuous
 62
     7
370
    25
100
AcDb2dPolyline
 66
     1
 10
0.0
 20
0.0
 30
0.0
 70
   128
  0
VERTEX
  5
22D3
330
22D2
100
AcDbEntity
  8
D
  6
Continuous
 62
     7
370
    25
100
AcDbVertex
100
AcDb2dVertex
 10
1.537480067717105
 20
1.711485052130139
 30
0.0
  0
VERTEX
  5
22D4
330
22D2
100
AcDbEntity
  8
D
  6
Continuous
 62
     7
370
    25
100
AcDbVertex
100
AcDb2dVertex
 10
1.379999752756476
 20
1.679989469729794
 30
0.0
  0
VERTEX
  5
22D6
330
22D2
100
AcDbEntity
  8
D
  6
Continuous
 62
     7
370
    25
100
AcDbVertex
100
AcDb2dVertex
 10
1.537480067717105
 20
1.648493286589723
 30
0.0
  0
VERTEX
  5
22D7
330
22D2
100
AcDbEntity
  8
D
  6
Continuous
 62
     7
370
    25
100
AcDbVertex
100
AcDb2dVertex
 10
1.537480067717105
 20
1.711485052130139
 30
0.0
  0
SEQEND
  5
22D5
330
22D2
100
AcDbEntity
  8
D
  6
Continuous
 62
     7
370
    25
  0
SOLID
  5
22D8
330
6C
100
AcDbEntity
  8
D
 62
     7
100
AcDbTrace
 10
1.537480067717105
 20
1.711485052130139
 30
0.0
 11
1.379999752756476
 21
1.679989469729794
 31
0.0
 12
1.537480067717105
 22
1.648493286589723
 32
0.0
 13
1.537480067717105
 23
1.711485052130139
 33
0.0
  0
LINE
  5
22D9
330
6C
100
AcDbEntity
  8
D
  6
Continuous
 62
     7
370
    25
100
AcDbLine
 10
1.53748031496063
 20
1.711485335944664
 30
0.0
 11
1.38
 21
1.679989272952537
 31
0.0
  0
LINE
  5
22DA
330
6C
100
AcDbEntity
  8
D
  6
Continuous
 62
     7
370
    25
100
AcDbLine
 10
1.38
 20
1.679989272952537
 30
0.0
 11
1.53748031496063
 21
1.648493209960411
 31
0.0
  0
LINE
  5
22DB
330
6C
100
AcDbEntity
  8
D
  6
Continuous
 62
     7
370
    25
100
AcDbLine
 10
1.53748031496063
 20
1.648493209960411
 30
0.0
 11
1.53748031496063
 21
1.711485335944664
 31
0.0
  0
LINE
  5
22DC
330
6C
100
AcDbEntity
  8
D
  6
Continuous
 62
     7
370
    25
100
AcDbLine
 10
5.962519685039254
 20
1.679989272952537
 30
0.0
 11
6.119999999999878
 21
1.679989272952537
 31
0.0
  0
POLYLINE
  5
22DD
330
6C
100
AcDbEntity
  8
D
  6
Continuous
 62
     7
370
    25
100
AcDb2dPolyline
 66
     1
 10
0.0
 20
0.0
 30
0.0
 70
   128
  0
VERTEX
  5
22DE
330
22DD
100
AcDbEntity
  8
D
  6
Continuous
 62
     7
370
    25
100
AcDbVertex
100
AcDb2dVertex
 10
5.962519884746201
 20
1.648493286589723
 30
0.0
  0
VERTEX
  5
22DF
330
22DD
100
AcDbEntity
  8
D
  6
Continuous
 62
     7
370
    25
100
AcDbVertex
100
AcDb2dVertex
 10
6.120000199706829
 20
1.679989469729794
 30
0.0
  0
VERTEX
  5
22E1
330
22DD
100
AcDbEntity
  8
D
  6
Continuous
 62
     7
370
    25
100
AcDbVertex
100
AcDb2dVertex
 10
5.962519884746201
 20
1.711485052130139
 30
0.0
  0
VERTEX
  5
22E2
330
22DD
100
AcDbEntity
  8
D
  6
Continuous
 62
     7
370
    25
100
AcDbVertex
100
AcDb2dVertex
 10
5.962519884746201
 20
1.648493286589723
 30
0.0
  0
SEQEND
  5
22E0
330
22DD
100
AcDbEntity
  8
D
  6
Continuous
 62
     7
370
    25
  0
SOLID
  5
22E3
330
6C
100
AcDbEntity
  8
D
 62
     7
100
AcDbTrace
 10
5.962519884746201
 20
1.648493286589723
 30
0.0
 11
6.120000199706829
 21
1.679989469729794
 31
0.0
 12
5.962519884746201
 22
1.711485052130139
 32
0.0
 13
5.962519884746201
 23
1.648493286589723
 33
0.0
  0
LINE
  5
22E4
330
6C
100
AcDbEntity
  8
D
  6
Continuous
 62
     7
370
    25
100
AcDbLine
 10
5.962519685039254
 20
1.648493209960411
 30
0.0
 11
6.119999999999878
 21
1.679989272952537
 31
0.0
  0
LINE
  5
22E5
330
6C
100
AcDbEntity
  8
D
  6
Continuous
 62
     7
370
    25
100
AcDbLine
 10
6.119999999999878
 20
1.679989272952537
 30
0.0
 11
5.962519685039254
 21
1.711485335944664
 31
0.0
  0
LINE
  5
22E6
330
6C
100
AcDbEntity
  8
D
  6
Continuous
 62
     7
370
    25
100
AcDbLine
 10
5.962519685039254
 20
1.711485335944664
 30
0.0
 11
5.962519685039254
 21
1.648493209960411
 31
0.0
  0
LINE
  5
22E7
330
6C
100
AcDbEntity
  8
D
  6
Continuous
 62
     7
370
    25
100
AcDbLine
 10
1.53748031496063
 20
1.679989272952537
 30
0.0
 11
3.438679466848252
 21
1.679989272952537
 31
0.0
  0
LINE
  5
22E8
330
6C
100
AcDbEntity
  8
D
  6
Continuous
 62
     7
370
    25
100
AcDbLine
 10
4.061320533151622
 20
1.679989272952537
 30
0.0
 11
5.962519685039254
 21
1.679989272952537
 31
0.0
  0
LINE
  5
22E9
330
6C
100
AcDbEntity
  8
D
  6
Continuous
 62
     7
370
    25
100
AcDbLine
 10
1.38
 20
0.9450000000000002
 30
0.0
 11
1.38
 21
1.879989272952536
 31
0.0
  0
LINE
  5
22EA
330
6C
100
AcDbEntity
  8
D
  6
Continuous
 62
     7
370
    25
100
AcDbLine
 10
6.119999999999878
 20
0.7929666793942021
 30
0.0
 11
6.119999999999878
 21
1.879989272952536
 31
0.0
  0
MTEXT
  5
22EB
330
6C
100
AcDbEntity
  8
D
 62
     7
100
AcDbMText
 10
1.857143920151349
 20
2.117406624323695
 30
0.0
 40
0.1920000023729219
 41
0.0
 71
     7
 72
     1
  1
1.75
  7
DEFAULT-ANSI
 73
     1
 44
1.0
1001
ACAD
1000
MTEXTBEGIN
1070
    73
1070
     1
1070
    44
1040
1.0
1070
    74
1070
     0
1000
MTEXTEND
  0
MTEXT
  5
22EC
330
6C
100
AcDbEntity
  8
D
 62
     7
100
AcDbMText
 10
1.62247064188135
 20
2.072440807852643
 30
0.0
 40
0.1920000023729219
 41
0.0
 71
     7
 72
     1
  1
\fAIGDT|b0|i0|p0;n
  7
Text Style6
 73
     1
 44
1.0
1001
ACAD
1000
MTEXTBEGIN
1070
    73
1070
     1
1070
    44
1040
1.0
1070
    74
1070
     0
1000
MTEXTEND
  0
LINE
  5
22ED
330
6C
100
AcDbEntity
  8
D
  6
Continuous
 62
     7
370
    25
100
AcDbLine
 10
1.141034764552389
 20
-1.032480314960629
 30
0.0
 11
1.141034764552389
 21
-0.8749999999999991
 31
0.0
  0
POLYLINE
  5
22EE
330
6C
100
AcDbEntity
  8
D
  6
Continuous
 62
     7
370
    25
100
AcDb2dPolyline
 66
     1
 10
0.0
 20
0.0
 30
0.0
 70
   128
  0
VERTEX
  5
22EF
330
22EE
100
AcDbEntity
  8
D
  6
Continuous
 62
     7
370
    25
100
AcDbVertex
100
AcDb2dVertex
 10
1.172530683643533
 20
-1.032480457239477
 30
0.0
  0
VERTEX
  5
22F0
330
22EE
100
AcDbEntity
  8
D
  6
Continuous
 62
     7
370
    25
100
AcDbVertex
100
AcDb2dVertex
 10
1.141034500503461
 20
-0.8750001422788482
 30
0.0
  0
VERTEX
  5
22F2
330
22EE
100
AcDbEntity
  8
D
  6
Continuous
 62
     7
370
    25
100
AcDbVertex
100
AcDb2dVertex
 10
1.109538918103117
 20
-1.032480457239477
 30
0.0
  0
VERTEX
  5
22F3
330
22EE
100
AcDbEntity
  8
D
  6
Continuous
 62
     7
370
    25
100
AcDbVertex
100
AcDb2dVertex
 10
1.172530683643533
 20
-1.032480457239477
 30
0.0
  0
SEQEND
  5
22F1
330
22EE
100
AcDbEntity
  8
D
  6
Continuous
 62
     7
370
    25
  0
SOLID
  5
22F4
330
6C
100
AcDbEntity
  8
D
 62
     7
100
AcDbTrace
 10
1.172530683643533
 20
-1.032480457239477
 30
0.0
 11
1.141034500503461
 21
-0.8750001422788482
 31
0.0
 12
1.109538918103117
 22
-1.032480457239477
 32
0.0
 13
1.172530683643533
 23
-1.032480457239477
 33
0.0
  0
LINE
  5
22F5
330
6C
100
AcDbEntity
  8
D
  6
Continuous
 62
     7
370
    25
100
AcDbLine
 10
1.172530827544515
 20
-1.032480314960629
 30
0.0
 11
1.141034764552389
 21
-0.8749999999999991
 31
0.0
  0
LINE
  5
22F6
330
6C
100
AcDbEntity
  8
D
  6
Continuous
 62
     7
370
    25
100
AcDbLine
 10
1.141034764552389
 20
-0.8749999999999991
 30
0.0
 11
1.109538701560262
 21
-1.032480314960629
 31
0.0
  0
LINE
  5
22F7
330
6C
100
AcDbEntity
  8
D
  6
Continuous
 62
     7
370
    25
100
AcDbLine
 10
1.109538701560262
 20
-1.032480314960629
 30
0.0
 11
1.172530827544515
 21
-1.032480314960629
 31
0.0
  0
LINE
  5
22F8
330
6C
100
AcDbEntity
  8
D
  6
Continuous
 62
     7
370
    25
100
AcDbLine
 10
1.141034764552389
 20
1.032480314960629
 30
0.0
 11
1.141034764552389
 21
0.875
 31
0.0
  0
POLYLINE
  5
22F9
330
6C
100
AcDbEntity
  8
D
  6
Continuous
 62
     7
370
    25
100
AcDb2dPolyline
 66
     1
 10
0.0
 20
0.0
 30
0.0
 70
   128
  0
VERTEX
  5
22FA
330
22F9
100
AcDbEntity
  8
D
  6
Continuous
 62
     7
370
    25
100
AcDbVertex
100
AcDb2dVertex
 10
1.109538918103117
 20
1.032480352903699
 30
0.0
  0
VERTEX
  5
22FB
330
22F9
100
AcDbEntity
  8
D
  6
Continuous
 62
     7
370
    25
100
AcDbVertex
100
AcDb2dVertex
 10
1.141034500503461
 20
0.8750000379430709
 30
0.0
  0
VERTEX
  5
22FD
330
22F9
100
AcDbEntity
  8
D
  6
Continuous
 62
     7
370
    25
100
AcDbVertex
100
AcDb2dVertex
 10
1.172530683643533
 20
1.032480352903699
 30
0.0
  0
VERTEX
  5
22FE
330
22F9
100
AcDbEntity
  8
D
  6
Continuous
 62
     7
370
    25
100
AcDbVertex
100
AcDb2dVertex
 10
1.109538918103117
 20
1.032480352903699
 30
0.0
  0
SEQEND
  5
22FC
330
22F9
100
AcDbEntity
  8
D
  6
Continuous
 62
     7
370
    25
  0
SOLID
  5
22FF
330
6C
100
AcDbEntity
  8
D
 62
     7
100
AcDbTrace
 10
1.109538918103117
 20
1.032480352903699
 30
0.0
 11
1.141034500503461
 21
0.8750000379430709
 31
0.0
 12
1.172530683643533
 22
1.032480352903699
 32
0.0
 13
1.109538918103117
 23
1.032480352903699
 33
0.0
  0
LINE
  5
2300
330
6C
100
AcDbEntity
  8
D
  6
Continuous
 62
     7
370
    25
100
AcDbLine
 10
1.109538701560262
 20
1.032480314960629
 30
0.0
 11
1.141034764552389
 21
0.875
 31
0.0
  0
LINE
  5
2301
330
6C
100
AcDbEntity
  8
D
  6
Continuous
 62
     7
370
    25
100
AcDbLine
 10
1.141034764552389
 20
0.875
 30
0.0
 11
1.172530827544515
 21
1.032480314960629
 31
0.0
  0
LINE
  5
2302
330
6C
100
AcDbEntity
  8
D
  6
Continuous
 62
     7
370
    25
100
AcDbLine
 10
1.172530827544515
 20
1.032480314960629
 30
0.0
 11
1.109538701560262
 21
1.032480314960629
 31
0.0
  0
LINE
  5
2303
330
6C
100
AcDbEntity
  8
D
  6
Continuous
 62
     7
370
    25
100
AcDbLine
 10
1.141034764552389
 20
-1.032480314960629
 30
0.0
 11
1.141034764552389
 21
-1.18996062992126
 31
0.0
  0
LINE
  5
2304
330
6C
100
AcDbEntity
  8
D
  6
Continuous
 62
     7
370
    25
100
AcDbLine
 10
1.141034764552389
 20
1.032480314960629
 30
0.0
 11
1.141034764552389
 21
1.18996062992126
 31
0.0
  0
LINE
  5
2305
330
6C
100
AcDbEntity
  8
D
  6
Continuous
 62
     7
370
    25
100
AcDbLine
 10
1.141034764552389
 20
1.18996062992126
 30
0.0
 11
1.141034764552389
 21
2.255608064648864
 31
0.0
  0
LINE
  5
2306
330
6C
100
AcDbEntity
  8
D
  6
Continuous
 62
     7
370
    25
100
AcDbLine
 10
1.561017712645643
 20
2.255608064648864
 30
0.0
 11
1.141034764552389
 21
2.255608064648864
 31
0.0
  0
MTEXT
  5
230B
330
6C
100
AcDbEntity
  8
D
 62
     7
100
AcDbMText
 10
2.688313591766087
 20
1.159916579749786
 30
0.0
 40
0.1920000023729219
 41
0.0
 71
     7
 72
     1
  1
1.595
  7
DEFAULT-ANSI
 73
     1
 44
1.0
1001
ACAD
1000
MTEXTBEGIN
1070
    73
1070
     1
1070
    44
1040
1.0
1070
    74
1070
     0
1000
MTEXTEND
  0
LINE
  5
230C
330
6C
100
AcDbEntity
  8
D
  6
Continuous
 62
     7
370
    25
100
AcDbLine
 10
2.462264943112752
 20
0.9549803149606299
 30
0.0
 11
2.462264943112752
 21
0.7975000000000004
 31
0.0
  0
POLYLINE
  5
230D
330
6C
100
AcDbEntity
  8
D
  6
Continuous
 62
     7
370
    25
100
AcDb2dPolyline
 66
     1
 10
0.0
 20
0.0
 30
0.0
 70
   128
  0
VERTEX
  5
230E
330
230D
100
AcDbEntity
  8
D
  6
Continuous
 62
     7
370
    25
100
AcDbVertex
100
AcDb2dVertex
 10
2.430768627518101
 20
0.9549801222196458
 30
0.0
  0
VERTEX
  5
230F
330
230D
100
AcDbEntity
  8
D
  6
Continuous
 62
     7
370
    25
100
AcDbVertex
100
AcDb2dVertex
 10
2.462264810658175
 20
0.7974998072590145
 30
0.0
  0
VERTEX
  5
2311
330
230D
100
AcDbEntity
  8
D
  6
Continuous
 62
     7
370
    25
100
AcDbVertex
100
AcDb2dVertex
 10
2.493760993798245
 20
0.9549801222196458
 30
0.0
  0
VERTEX
  5
2312
330
230D
100
AcDbEntity
  8
D
  6
Continuous
 62
     7
370
    25
100
AcDbVertex
100
AcDb2dVertex
 10
2.430768627518101
 20
0.9549801222196458
 30
0.0
  0
SEQEND
  5
2310
330
230D
100
AcDbEntity
  8
D
  6
Continuous
 62
     7
370
    25
  0
SOLID
  5
2313
330
6C
100
AcDbEntity
  8
D
 62
     7
100
AcDbTrace
 10
2.430768627518101
 20
0.9549801222196458
 30
0.0
 11
2.462264810658175
 21
0.7974998072590145
 31
0.0
 12
2.493760993798245
 22
0.9549801222196458
 32
0.0
 13
2.430768627518101
 23
0.9549801222196458
 33
0.0
  0
LINE
  5
2314
330
6C
100
AcDbEntity
  8
D
  6
Continuous
 62
     7
370
    25
100
AcDbLine
 10
2.430768880120627
 20
0.9549803149606299
 30
0.0
 11
2.462264943112752
 21
0.7975000000000004
 31
0.0
  0
LINE
  5
2315
330
6C
100
AcDbEntity
  8
D
  6
Continuous
 62
     7
370
    25
100
AcDbLine
 10
2.462264943112752
 20
0.7975000000000004
 30
0.0
 11
2.493761006104878
 21
0.9549803149606299
 31
0.0
  0
LINE
  5
2316
330
6C
100
AcDbEntity
  8
D
  6
Continuous
 62
     7
370
    25
100
AcDbLine
 10
2.493761006104878
 20
0.9549803149606299
 30
0.0
 11
2.430768880120627
 21
0.9549803149606299
 31
0.0
  0
LINE
  5
2317
330
6C
100
AcDbEntity
  8
D
  6
Continuous
 62
     7
370
    25
100
AcDbLine
 10
2.462264943112752
 20
-0.954980314960629
 30
0.0
 11
2.462264943112752
 21
-0.7975000000000004
 31
0.0
  0
POLYLINE
  5
2318
330
6C
100
AcDbEntity
  8
D
  6
Continuous
 62
     7
370
    25
100
AcDb2dPolyline
 66
     1
 10
0.0
 20
0.0
 30
0.0
 70
   128
  0
VERTEX
  5
2319
330
2318
100
AcDbEntity
  8
D
  6
Continuous
 62
     7
370
    25
100
AcDbVertex
100
AcDb2dVertex
 10
2.493760993798245
 20
-0.9549802265554232
 30
0.0
  0
VERTEX
  5
231A
330
2318
100
AcDbEntity
  8
D
  6
Continuous
 62
     7
370
    25
100
AcDbVertex
100
AcDb2dVertex
 10
2.462264810658175
 20
-0.7974999115947919
 30
0.0
  0
VERTEX
  5
231C
330
2318
100
AcDbEntity
  8
D
  6
Continuous
 62
     7
370
    25
100
AcDbVertex
100
AcDb2dVertex
 10
2.430768627518101
 20
-0.9549802265554232
 30
0.0
  0
VERTEX
  5
231D
330
2318
100
AcDbEntity
  8
D
  6
Continuous
 62
     7
370
    25
100
AcDbVertex
100
AcDb2dVertex
 10
2.493760993798245
 20
-0.9549802265554232
 30
0.0
  0
SEQEND
  5
231B
330
2318
100
AcDbEntity
  8
D
  6
Continuous
 62
     7
370
    25
  0
SOLID
  5
231E
330
6C
100
AcDbEntity
  8
D
 62
     7
100
AcDbTrace
 10
2.493760993798245
 20
-0.9549802265554232
 30
0.0
 11
2.462264810658175
 21
-0.7974999115947919
 31
0.0
 12
2.430768627518101
 22
-0.9549802265554232
 32
0.0
 13
2.493760993798245
 23
-0.9549802265554232
 33
0.0
  0
LINE
  5
231F
330
6C
100
AcDbEntity
  8
D
  6
Continuous
 62
     7
370
    25
100
AcDbLine
 10
2.493761006104878
 20
-0.954980314960629
 30
0.0
 11
2.462264943112752
 21
-0.7975000000000004
 31
0.0
  0
LINE
  5
2320
330
6C
100
AcDbEntity
  8
D
  6
Continuous
 62
     7
370
    25
100
AcDbLine
 10
2.462264943112752
 20
-0.7975000000000004
 30
0.0
 11
2.430768880120627
 21
-0.954980314960629
 31
0.0
  0
LINE
  5
2321
330
6C
100
AcDbEntity
  8
D
  6
Continuous
 62
     7
370
    25
100
AcDbLine
 10
2.430768880120627
 20
-0.954980314960629
 30
0.0
 11
2.493761006104878
 21
-0.954980314960629
 31
0.0
  0
LINE
  5
2322
330
6C
100
AcDbEntity
  8
D
  6
Continuous
 62
     7
370
    25
100
AcDbLine
 10
2.462264943112752
 20
0.9549803149606299
 30
0.0
 11
2.462264943112752
 21
1.112460629921259
 31
0.0
  0
LINE
  5
2323
330
6C
100
AcDbEntity
  8
D
  6
Continuous
 62
     7
370
    25
100
AcDbLine
 10
2.462264943112752
 20
-0.954980314960629
 30
0.0
 11
2.462264943112752
 21
-1.112460629921259
 31
0.0
  0
LINE
  5
2324
330
6C
100
AcDbEntity
  8
D
  6
Continuous
 62
     7
370
    25
100
AcDbLine
 10
2.462264943112752
 20
1.112460629921259
 30
0.0
 11
2.462264943112752
 21
1.257892187593871
 31
0.0
  0
LINE
  5
2325
330
6C
100
AcDbEntity
  8
D
  6
Continuous
 62
     7
370
    25
100
AcDbLine
 10
2.60735341235073
 20
1.257892187593871
 30
0.0
 11
2.462264943112752
 21
1.257892187593871
 31
0.0
  0
MTEXT
  5
242E
330
6C
100
AcDbEntity
  8
0
100
AcDbMText
 10
-1.266880960730083
 20
0.5930126012898214
 30
0.0
 40
0.1
 41
1.190823186196567
 71
     1
 72
     5
  1
C40F-25ERP612
 73
     1
 44
1.0
1001
ACAD
1000
ACAD_MTEXT_COLUMN_INFO_BEGIN
1070
    75
1070
     2
1070
    79
1070
     0
1070
    76
1070
     1
1070
    78
1070
     0
1070
    48
1040
1.190823186196567
1070
    49
1040
1.0
1070
    50
1070
     1
1040
0.0
1000
ACAD_MTEXT_COLUMN_INFO_END
1000
MTEXTBEGIN
1070
    73
1070
     1
1070
    44
1040
1.0
1070
    74
1070
     0
1000
MTEXTEND
  0
ENDSEC
  0
SECTION
  2
OBJECTS
  0
DICTIONARY
  5
C
330
0
100
AcDbDictionary
281
     1
  3
ACAD_CIP_PREVIOUS_PRODUCT_INFO
350
2326
  3
ACAD_COLOR
350
63
  3
ACAD_GROUP
350
D
  3
ACAD_LAYOUT
350
62
  3
ACAD_MATERIAL
350
10
  3
ACAD_MLEADERSTYLE
350
66
  3
ACAD_MLINESTYLE
350
5F
  3
ACAD_PLOTSETTINGS
350
61
  3
ACAD_PLOTSTYLENAME
350
E
  3
ACAD_SCALELIST
350
42
  3
ACAD_TABLESTYLE
350
64
  3
ACAD_VISUALSTYLE
350
29
  3
ACDB_RECOMPOSE_DATA
350
2435
  3
AcDbVariableDictionary
350
2327
  3
DWGPROPS
350
2436
  0
XRECORD
  5
2326
102
{ACAD_REACTORS
330
C
102
}
330
C
100
AcDbXrecord
280
     1
300
AMECH_PP
300
2012
300
PDSU_F_S
  0
DICTIONARY
  5
63
102
{ACAD_REACTORS
330
C
102
}
330
C
100
AcDbDictionary
281
     1
  0
DICTIONARY
  5
D
102
{ACAD_REACTORS
330
C
102
}
330
C
100
AcDbDictionary
281
     1
  0
DICTIONARY
  5
62
102
{ACAD_REACTORS
330
C
102
}
330
C
100
AcDbDictionary
281
     1
  3
Layout1
350
6B
  3
Layout2
350
73
  3
Model
350
6F
  0
DICTIONARY
  5
10
102
{ACAD_REACTORS
330
C
102
}
330
C
100
AcDbDictionary
281
     1
  3
ByBlock
350
19
  3
ByLayer
350
11
  3
Global
350
21
  0
DICTIONARY
  5
66
102
{ACAD_REACTORS
330
C
102
}
330
C
100
AcDbDictionary
281
     1
  3
Standard
350
67
  0
DICTIONARY
  5
5F
102
{ACAD_REACTORS
330
C
102
}
330
C
100
AcDbDictionary
281
     1
  3
Standard
350
60
  0
DICTIONARY
  5
61
102
{ACAD_REACTORS
330
C
102
}
330
C
100
AcDbDictionary
281
     1
  0
ACDBDICTIONARYWDFLT
  5
E
102
{ACAD_REACTORS
330
C
102
}
330
C
100
AcDbDictionary
281
     1
  3
Normal
350
F
100
AcDbDictionaryWithDefault
340
F
  0
DICTIONARY
  5
42
102
{ACAD_REACTORS
330
C
102
}
330
C
100
AcDbDictionary
281
     1
  3
A0
350
43
  3
A1
350
44
  3
A2
350
45
  3
A3
350
46
  3
A4
350
47
  3
A5
350
48
  3
A6
350
49
  3
A7
350
4A
  3
A8
350
4B
  3
A9
350
4C
  3
B0
350
4D
  3
B1
350
4E
  3
B2
350
4F
  3
B3
350
50
  3
B4
350
51
  3
B5
350
52
  3
B6
350
53
  0
DICTIONARY
  5
64
102
{ACAD_REACTORS
330
C
102
}
330
C
100
AcDbDictionary
281
     1
  3
Standard
350
65
  0
DICTIONARY
  5
29
102
{ACAD_REACTORS
330
C
102
}
330
C
100
AcDbDictionary
281
     1
  3
2dWireframe
350
2F
  3
Basic
350
2E
  3
Brighten
350
35
  3
ColorChange
350
39
  3
Conceptual
350
32
  3
Dim
350
34
  3
EdgeColorOff
350
41
  3
Facepattern
350
38
  3
Flat
350
2A
  3
FlatWithEdges
350
2B
  3
Gouraud
350
2C
  3
GouraudWithEdges
350
2D
  3
Hidden
350
31
  3
JitterOff
350
3F
  3
Linepattern
350
37
  3
OverhangOff
350
40
  3
Realistic
350
33
  3
Shaded
350
3E
  3
Shaded with edges
350
3D
  3
Shades of Gray
350
3A
  3
Sketchy
350
3B
  3
Thicken
350
36
  3
Wireframe
350
30
  3
X-Ray
350
3C
  0
XRECORD
  5
2435
102
{ACAD_REACTORS
330
C
102
}
330
C
100
AcDbXrecord
280
     1
 90
        1
330
65
330
242E
  0
DICTIONARY
  5
2327
102
{ACAD_REACTORS
330
C
102
}
330
C
100
AcDbDictionary
281
     1
  3
CANNOSCALE
350
232B
  3
CMLEADERSTYLE
350
2329
  3
CTABLESTYLE
350
2328
  3
DIMASSOC
350
2332
  3
HIDETEXT
350
2331
  3
INDEXCTL
350
2330
  3
LAYEREVAL
350
232D
  3
LAYERNOTIFY
350
232E
  3
LIGHTINGUNITS
350
232C
  3
MSLTSCALE
350
232A
  3
SORTENTS
350
232F
  3
XCLIPFRAME
350
2430
  0
XRECORD
  5
2436
102
{ACAD_REACTORS
330
C
102
}
330
C
100
AcDbXrecord
280
     1
  1
DWGPROPS COOKIE
  2

  3

  4
shapei
  6

  7

  8
blaste
  9

300
Manager=
301
Company=
302
Category=
303
Part Number=C40F-25ERP612
304
Description=
305
Project=
306
Designer=shapei
307
Engineer=
308
Authority=
309
Cost Center=
 40
0.0011149074074074
 41
2457122.568114815
 42
2457122.572448137
  1

 90
       19
300
Vendor=
300
User Status=
300
Design Status=WorkInProgress
300
Checked by=
300
Engr Approved by=
300
Mfg Approved by=
300
MATERIAL=
300
HEAT TREAT=
300
FINISH=
  0
LAYOUT
  5
6B
102
{ACAD_XDICTIONARY
360
2468
102
}
102
{ACAD_REACTORS
330
62
102
}
330
62
100
AcDbPlotSettings
  1

  2

  4

  6

 40
0.0
 41
0.0
 42
0.0
 43
0.0
 44
0.0
 45
0.0
 46
0.0
 47
0.0
 48
0.0
 49
0.0
140
0.0
141
0.0
142
1.0
143
1.0
 70
   688
 72
     0
 73
     0
 74
     5
  7

 75
    16
147
1.0
148
0.0
149
0.0
100
AcDbLayout
  1
Layout1
 70
     1
 71
     1
 10
0.0
 20
0.0
 11
17.6
 21
13.6
 12
0.0
 22
0.0
 32
0.0
 14
0.0
 24
0.0
 34
0.0
 15
17.6
 25
13.6
 35
0.0
146
0.0
 13
0.0
 23
0.0
 33
0.0
 16
1.0
 26
0.0
 36
0.0
 17
0.0
 27
1.0
 37
0.0
 76
     0
330
68
  0
LAYOUT
  5
73
102
{ACAD_XDICTIONARY
360
246C
102
}
102
{ACAD_REACTORS
330
62
102
}
330
62
100
AcDbPlotSettings
  1

  2

  4

  6

 40
0.0
 41
0.0
 42
0.0
 43
0.0
 44
0.0
 45
0.0
 46
0.0
 47
0.0
 48
0.0
 49
0.0
140
0.0
141
0.0
142
1.0
143
1.0
 70
   688
 72
     0
 73
     0
 74
     5
  7

 75
    16
147
1.0
148
0.0
149
0.0
100
AcDbLayout
  1
Layout2
 70
     1
 71
     2
 10
0.0
 20
0.0
 11
12.0
 21
9.0
 12
0.0
 22
0.0
 32
0.0
 14
0.0
 24
0.0
 34
0.0
 15
0.0
 25
0.0
 35
0.0
146
0.0
 13
0.0
 23
0.0
 33
0.0
 16
1.0
 26
0.0
 36
0.0
 17
0.0
 27
1.0
 37
0.0
 76
     0
330
70
  0
LAYOUT
  5
6F
102
{ACAD_XDICTIONARY
360
246A
102
}
102
{ACAD_REACTORS
330
62
102
}
330
62
100
AcDbPlotSettings
  1

  2

  4

  6

 40
0.0
 41
0.0
 42
0.0
 43
0.0
 44
0.0
 45
0.0
 46
0.0
 47
0.0
 48
0.0
 49
0.0
140
0.0
141
0.0
142
1.0
143
1.0
 70
  1712
 72
     0
 73
     0
 74
     0
  7

 75
     0
147
1.0
148
0.0
149
0.0
100
AcDbLayout
  1
Model
 70
     1
 71
     0
 10
0.0
 20
0.0
 11
12.0
 21
9.0
 12
0.0
 22
0.0
 32
0.0
 14
0.0
 24
0.0
 34
0.0
 15
0.0
 25
0.0
 35
0.0
146
0.0
 13
0.0
 23
0.0
 33
0.0
 16
1.0
 26
0.0
 36
0.0
 17
0.0
 27
1.0
 37
0.0
 76
     0
330
6C
331
57
  0
MATERIAL
  5
19
102
{ACAD_XDICTIONARY
360
1A
102
}
102
{ACAD_REACTORS
330
10
102
}
330
10
100
AcDbMaterial
  1
ByBlock
 72
     0
 43
0.0208333333333333
 43
0.0
 43
0.0
 43
0.0
 43
0.0
 43
0.0208333333333333
 43
0.0
 43
0.0
 43
0.0
 43
0.0
 43
1.0
 43
0.0
 43
0.0
 43
0.0
 43
0.0
 43
1.0
 77
     0
 47
0.0208333333333333
 47
0.0
 47
0.0
 47
0.0
 47
0.0
 47
0.0208333333333333
 47
0.0
 47
0.0
 47
0.0
 47
0.0
 47
1.0
 47
0.0
 47
0.0
 47
0.0
 47
0.0
 47
1.0
171
     0
 49
0.0208333333333333
 49
0.0
 49
0.0
 49
0.0
 49
0.0
 49
0.0208333333333333
 49
0.0
 49
0.0
 49
0.0
 49
0.0
 49
1.0
 49
0.0
 49
0.0
 49
0.0
 49
0.0
 49
1.0
175
     0
142
0.0208333333333333
142
0.0
142
0.0
142
0.0
142
0.0
142
0.0208333333333333
142
0.0
142
0.0
142
0.0
142
0.0
142
1.0
142
0.0
142
0.0
142
0.0
142
0.0
142
1.0
179
     0
144
0.0208333333333333
144
0.0
144
0.0
144
0.0
144
0.0
144
0.0208333333333333
144
0.0
144
0.0
144
0.0
144
0.0
144
1.0
144
0.0
144
0.0
144
0.0
144
0.0
144
1.0
147
0.0208333333333333
147
0.0
147
0.0
147
0.0
147
0.0
147
0.0208333333333333
147
0.0
147
0.0
147
0.0
147
0.0
147
1.0
147
0.0
147
0.0
147
0.0
147
0.0
147
1.0
  0
MATERIAL
  5
11
102
{ACAD_XDICTIONARY
360
12
102
}
102
{ACAD_REACTORS
330
10
102
}
330
10
100
AcDbMaterial
  1
ByLayer
 72
     0
 43
0.0208333333333333
 43
0.0
 43
0.0
 43
0.0
 43
0.0
 43
0.0208333333333333
 43
0.0
 43
0.0
 43
0.0
 43
0.0
 43
1.0
 43
0.0
 43
0.0
 43
0.0
 43
0.0
 43
1.0
 77
     0
 47
0.0208333333333333
 47
0.0
 47
0.0
 47
0.0
 47
0.0
 47
0.0208333333333333
 47
0.0
 47
0.0
 47
0.0
 47
0.0
 47
1.0
 47
0.0
 47
0.0
 47
0.0
 47
0.0
 47
1.0
171
     0
 49
0.0208333333333333
 49
0.0
 49
0.0
 49
0.0
 49
0.0
 49
0.0208333333333333
 49
0.0
 49
0.0
 49
0.0
 49
0.0
 49
1.0
 49
0.0
 49
0.0
 49
0.0
 49
0.0
 49
1.0
175
     0
142
0.0208333333333333
142
0.0
142
0.0
142
0.0
142
0.0
142
0.0208333333333333
142
0.0
142
0.0
142
0.0
142
0.0
142
1.0
142
0.0
142
0.0
142
0.0
142
0.0
142
1.0
179
     0
144
0.0208333333333333
144
0.0
144
0.0
144
0.0
144
0.0
144
0.0208333333333333
144
0.0
144
0.0
144
0.0
144
0.0
144
1.0
144
0.0
144
0.0
144
0.0
144
0.0
144
1.0
147
0.0208333333333333
147
0.0
147
0.0
147
0.0
147
0.0
147
0.0208333333333333
147
0.0
147
0.0
147
0.0
147
0.0
147
1.0
147
0.0
147
0.0
147
0.0
147
0.0
147
1.0
  0
MATERIAL
  5
21
102
{ACAD_XDICTIONARY
360
22
102
}
102
{ACAD_REACTORS
330
10
102
}
330
10
100
AcDbMaterial
  1
Global
 72
     0
 43
0.0208333333333333
 43
0.0
 43
0.0
 43
0.0
 43
0.0
 43
0.0208333333333333
 43
0.0
 43
0.0
 43
0.0
 43
0.0
 43
1.0
 43
0.0
 43
0.0
 43
0.0
 43
0.0
 43
1.0
 77
     0
 47
0.0208333333333333
 47
0.0
 47
0.0
 47
0.0
 47
0.0
 47
0.0208333333333333
 47
0.0
 47
0.0
 47
0.0
 47
0.0
 47
1.0
 47
0.0
 47
0.0
 47
0.0
 47
0.0
 47
1.0
171
     0
 49
0.0208333333333333
 49
0.0
 49
0.0
 49
0.0
 49
0.0
 49
0.0208333333333333
 49
0.0
 49
0.0
 49
0.0
 49
0.0
 49
1.0
 49
0.0
 49
0.0
 49
0.0
 49
0.0
 49
1.0
175
     0
142
0.0208333333333333
142
0.0
142
0.0
142
0.0
142
0.0
142
0.0208333333333333
142
0.0
142
0.0
142
0.0
142
0.0
142
1.0
142
0.0
142
0.0
142
0.0
142
0.0
142
1.0
179
     0
144
0.0208333333333333
144
0.0
144
0.0
144
0.0
144
0.0
144
0.0208333333333333
144
0.0
144
0.0
144
0.0
144
0.0
144
1.0
144
0.0
144
0.0
144
0.0
144
0.0
144
1.0
147
0.0208333333333333
147
0.0
147
0.0
147
0.0
147
0.0
147
0.0208333333333333
147
0.0
147
0.0
147
0.0
147
0.0
147
1.0
147
0.0
147
0.0
147
0.0
147
0.0
147
1.0
  0
MLEADERSTYLE
  5
67
102
{ACAD_XDICTIONARY
360
2433
102
}
102
{ACAD_REACTORS
330
66
102
}
330
66
100
AcDbMLeaderStyle
170
     2
171
     1
172
     0
 90
        2
 40
0.0
 41
0.0
173
     1
 91
-1056964608
340
5B
 92
       -2
290
     1
 42
0.09
291
     1
 43
0.36
  3
Standard
 44
0.18
300

342
55
174
     1
178
     6
175
     1
176
     0
 93
-1056964608
 45
0.18
292
     0
297
     0
 46
0.18
 94
-1056964608
 47
1.0
 49
1.0
140
1.0
293
     1
141
0.0
294
     1
177
     0
142
1.0
295
     0
296
     0
143
0.125
1001
ACAD_MLEADERVER
1070
     2
  0
MLINESTYLE
  5
60
102
{ACAD_REACTORS
330
5F
102
}
330
5F
100
AcDbMlineStyle
  2
STANDARD
 70
     0
  3

 62
   256
 51
90.0
 52
90.0
 71
     2
 49
0.5
 62
   256
  6
BYLAYER
 49
-0.5
 62
   256
  6
BYLAYER
  0
ACDBPLACEHOLDER
  5
F
102
{ACAD_REACTORS
330
E
102
}
330
E
  0
SCALE
  5
43
102
{ACAD_REACTORS
330
42
102
}
330
42
100
AcDbScale
 70
     0
300
1:1
140
1.0
141
1.0
290
     1
  0
SCALE
  5
44
102
{ACAD_REACTORS
330
42
102
}
330
42
100
AcDbScale
 70
     0
300
1/128" = 1'-0"
140
0.0078125
141
12.0
290
     0
  0
SCALE
  5
45
102
{ACAD_REACTORS
330
42
102
}
330
42
100
AcDbScale
 70
     0
300
1/64" = 1'-0"
140
0.015625
141
12.0
290
     0
  0
SCALE
  5
46
102
{ACAD_REACTORS
330
42
102
}
330
42
100
AcDbScale
 70
     0
300
1/32" = 1'-0"
140
0.03125
141
12.0
290
     0
  0
SCALE
  5
47
102
{ACAD_REACTORS
330
42
102
}
330
42
100
AcDbScale
 70
     0
300
1/16" = 1'-0"
140
0.0625
141
12.0
290
     0
  0
SCALE
  5
48
102
{ACAD_REACTORS
330
42
102
}
330
42
100
AcDbScale
 70
     0
300
3/32" = 1'-0"
140
0.09375
141
12.0
290
     0
  0
SCALE
  5
49
102
{ACAD_REACTORS
330
42
102
}
330
42
100
AcDbScale
 70
     0
300
1/8" = 1'-0"
140
0.125
141
12.0
290
     0
  0
SCALE
  5
4A
102
{ACAD_REACTORS
330
42
102
}
330
42
100
AcDbScale
 70
     0
300
3/16" = 1'-0"
140
0.1875
141
12.0
290
     0
  0
SCALE
  5
4B
102
{ACAD_REACTORS
330
42
102
}
330
42
100
AcDbScale
 70
     0
300
1/4" = 1'-0"
140
0.25
141
12.0
290
     0
  0
SCALE
  5
4C
102
{ACAD_REACTORS
330
42
102
}
330
42
100
AcDbScale
 70
     0
300
3/8" = 1'-0"
140
0.375
141
12.0
290
     0
  0
SCALE
  5
4D
102
{ACAD_REACTORS
330
42
102
}
330
42
100
AcDbScale
 70
     0
300
1/2" = 1'-0"
140
0.5
141
12.0
290
     0
  0
SCALE
  5
4E
102
{ACAD_REACTORS
330
42
102
}
330
42
100
AcDbScale
 70
     0
300
3/4" = 1'-0"
140
0.75
141
12.0
290
     0
  0
SCALE
  5
4F
102
{ACAD_REACTORS
330
42
102
}
330
42
100
AcDbScale
 70
     0
300
1" = 1'-0"
140
1.0
141
12.0
290
     0
  0
SCALE
  5
50
102
{ACAD_REACTORS
330
42
102
}
330
42
100
AcDbScale
 70
     0
300
1-1/2" = 1'-0"
140
1.5
141
12.0
290
     0
  0
SCALE
  5
51
102
{ACAD_REACTORS
330
42
102
}
330
42
100
AcDbScale
 70
     0
300
3" = 1'-0"
140
3.0
141
12.0
290
     0
  0
SCALE
  5
52
102
{ACAD_REACTORS
330
42
102
}
330
42
100
AcDbScale
 70
     0
300
6" = 1'-0"
140
6.0
141
12.0
290
     0
  0
SCALE
  5
53
102
{ACAD_REACTORS
330
42
102
}
330
42
100
AcDbScale
 70
     0
300
1'-0" = 1'-0"
140
12.0
141
12.0
290
     0
  0
TABLESTYLE
  5
65
102
{ACAD_XDICTIONARY
360
2334
102
}
102
{ACAD_REACTORS
330
64
102
}
330
64
100
AcDbTableStyle
  3
Standard
 70
     0
 71
     0
 40
0.06
 41
0.06
280
     0
281
     0
  7
Standard
140
0.18
170
     2
 62
     0
 63
     7
283
     0
274
    -2
284
     1
 64
     0
275
    -2
285
     1
 65
     0
276
    -2
286
     1
 66
     0
277
    -2
287
     1
 67
     0
278
    -2
288
     1
 68
     0
279
    -2
289
     1
 69
     0
  7
Standard
140
0.25
170
     5
 62
     0
 63
     7
283
     0
274
    -2
284
     1
 64
     0
275
    -2
285
     1
 65
     0
276
    -2
286
     1
 66
     0
277
    -2
287
     1
 67
     0
278
    -2
288
     1
 68
     0
279
    -2
289
     1
 69
     0
  7
Standard
140
0.18
170
     5
 62
     0
 63
     7
283
     0
274
    -2
284
     1
 64
     0
275
    -2
285
     1
 65
     0
276
    -2
286
     1
 66
     0
277
    -2
287
     1
 67
     0
278
    -2
288
     1
 68
     0
279
    -2
289
     1
 69
     0
  0
VISUALSTYLE
  5
2F
102
{ACAD_XDICTIONARY
360
2441
102
}
102
{ACAD_REACTORS
330
29
102
}
330
29
100
AcDbVisualStyle
  2

 70
     4
 71
     0
 72
     2
 73
     0
 90
        0
 40
-0.6
 41
-30.0
 62
     5
 63
     7
 74
     1
 91
        4
 64
     7
 65
   257
 75
     1
175
     1
 42
1.0
 92
        0
 66
   257
 43
1.0
 76
     1
 77
     6
 78
     2
 67
     7
 79
     5
170
     0
171
     0
290
     0
174
     0
 93
        1
 44
0.0
173
     0
291
     0
 45
0.0
1001
ACAD
1000
AcDbSavedByObjectVersion
1070
     0
  0
VISUALSTYLE
  5
2E
102
{ACAD_XDICTIONARY
360
243F
102
}
102
{ACAD_REACTORS
330
29
102
}
330
29
100
AcDbVisualStyle
  2

 70
     7
 71
     1
 72
     0
 73
     1
 90
        0
 40
-0.6
 41
-30.0
 62
     5
 63
     7
 74
     0
 91
        4
 64
     7
 65
   257
 75
     1
175
     1
 42
1.0
 92
        8
 66
     7
 43
1.0
 76
     1
 77
     6
 78
     2
 67
     7
 79
     5
170
     0
171
     0
290
     0
174
     0
 93
        1
 44
0.0
173
     0
291
     1
 45
0.0
1001
ACAD
1000
AcDbSavedByObjectVersion
1070
     0
  0
VISUALSTYLE
  5
35
102
{ACAD_XDICTIONARY
360
244D
102
}
102
{ACAD_REACTORS
330
29
102
}
330
29
100
AcDbVisualStyle
  2

 70
    12
 71
     2
 72
     2
 73
     0
 90
        0
 40
-0.6
 41
-30.0
 62
     5
 63
     7
 74
     1
 91
        4
 64
     7
 65
   257
 75
     1
175
     1
 42
1.0
 92
        8
 66
     7
 43
1.0
 76
     1
 77
     6
 78
     2
 67
     7
 79
     5
170
     0
171
     0
290
     0
174
     0
 93
        1
 44
50.0
173
     0
291
     1
 45
0.0
1001
ACAD
1000
AcDbSavedByObjectVersion
1070
     0
  0
VISUALSTYLE
  5
39
102
{ACAD_XDICTIONARY
360
2455
102
}
102
{ACAD_REACTORS
330
29
102
}
330
29
100
AcDbVisualStyle
  2

 70
    16
 71
     2
 72
     2
 73
     3
 90
        0
 40
-0.6
 41
-30.0
 62
     5
 63
     8
 74
     1
 91
        4
 64
     7
 65
   257
 75
     1
175
     1
 42
1.0
 92
        8
 66
     8
 43
1.0
 76
     1
 77
     6
 78
     2
 67
     7
 79
     5
170
     0
171
     0
290
     0
174
     0
 93
        1
 44
0.0
173
     0
291
     1
 45
0.0
1001
ACAD
1000
AcDbSavedByObjectVersion
1070
     0
  0
VISUALSTYLE
  5
32
102
{ACAD_XDICTIONARY
360
2447
102
}
102
{ACAD_REACTORS
330
29
102
}
330
29
100
AcDbVisualStyle
  2

 70
     9
 71
     3
 72
     2
 73
     0
 90
        0
 40
-0.6
 41
-30.0
 62
     5
 63
     7
 74
     2
 91
        2
 64
     7
 65
   257
 75
     1
175
     1
 42
179.0
 92
        8
 66
     7
 43
1.0
 76
     1
 77
     6
 78
     2
 67
     7
 79
     3
170
     0
171
     0
290
     0
174
     0
 93
        1
 44
0.0
173
     0
291
     0
 45
0.0
1001
ACAD
1000
AcDbSavedByObjectVersion
1070
     0
  0
VISUALSTYLE
  5
34
102
{ACAD_XDICTIONARY
360
244B
102
}
102
{ACAD_REACTORS
330
29
102
}
330
29
100
AcDbVisualStyle
  2

 70
    11
 71
     2
 72
     2
 73
     0
 90
        0
 40
-0.6
 41
-30.0
 62
     5
 63
     7
 74
     1
 91
        4
 64
     7
 65
   257
 75
     1
175
     1
 42
1.0
 92
        8
 66
     7
 43
1.0
 76
     1
 77
     6
 78
     2
 67
     7
 79
     5
170
     0
171
     0
290
     0
174
     0
 93
        1
 44
-50.0
173
     0
291
     1
 45
0.0
1001
ACAD
1000
AcDbSavedByObjectVersion
1070
     0
  0
VISUALSTYLE
  5
41
102
{ACAD_XDICTIONARY
360
2465
102
}
102
{ACAD_REACTORS
330
29
102
}
330
29
100
AcDbVisualStyle
  2

 70
    22
 71
     2
 72
     2
 73
     0
 90
        0
 40
-0.6
 41
-30.0
 62
     5
 63
     7
 74
     1
 91
        4
 64
     7
 65
   257
 75
     1
175
     1
 42
1.0
 92
        8
 66
     7
 43
1.0
 76
     1
 77
     6
 78
     2
 67
     7
 79
     5
170
     0
171
     0
290
     0
174
     0
 93
        1
 44
0.0
173
     0
291
     1
 45
0.0
1001
ACAD
1000
AcDbSavedByObjectVersion
1070
     0
  0
VISUALSTYLE
  5
38
102
{ACAD_XDICTIONARY
360
2453
102
}
102
{ACAD_REACTORS
330
29
102
}
330
29
100
AcDbVisualStyle
  2

 70
    15
 71
     2
 72
     2
 73
     0
 90
        0
 40
-0.6
 41
-30.0
 62
     5
 63
     7
 74
     1
 91
        4
 64
     7
 65
   257
 75
     1
175
     1
 42
1.0
 92
        8
 66
     7
 43
1.0
 76
     1
 77
     6
 78
     2
 67
     7
 79
     5
170
     0
171
     0
290
     0
174
     0
 93
        1
 44
0.0
173
     0
291
     1
 45
0.0
1001
ACAD
1000
AcDbSavedByObjectVersion
1070
     0
  0
VISUALSTYLE
  5
2A
102
{ACAD_XDICTIONARY
360
2437
102
}
102
{ACAD_REACTORS
330
29
102
}
330
29
100
AcDbVisualStyle
  2

 70
     0
 71
     2
 72
     1
 73
     1
 90
        2
 40
-0.6
 41
30.0
 62
     5
 63
     7
 74
     0
 91
        0
 64
     7
 65
   257
 75
     1
175
     1
 42
1.0
 92
        8
 66
     7
 43
1.0
 76
     1
 77
     6
 78
     2
 67
     7
 79
     5
170
     0
171
     0
290
     0
174
     0
 93
       13
 44
0.0
173
     0
291
     1
 45
0.0
1001
ACAD
1000
AcDbSavedByObjectVersion
1070
     0
  0
VISUALSTYLE
  5
2B
102
{ACAD_XDICTIONARY
360
2439
102
}
102
{ACAD_REACTORS
330
29
102
}
330
29
100
AcDbVisualStyle
  2

 70
     1
 71
     2
 72
     1
 73
     1
 90
        2
 40
-0.6
 41
30.0
 62
     5
 63
     7
 74
     1
 91
        0
 64
     7
 65
   257
 75
     1
175
     1
 42
1.0
 92
        0
 66
   257
 43
1.0
 76
     1
 77
     6
 78
     2
 67
     7
 79
     5
170
     0
171
     0
290
     0
174
     0
 93
       13
 44
0.0
173
     0
291
     1
 45
0.0
1001
ACAD
1000
AcDbSavedByObjectVersion
1070
     0
  0
VISUALSTYLE
  5
2C
102
{ACAD_XDICTIONARY
360
243B
102
}
102
{ACAD_REACTORS
330
29
102
}
330
29
100
AcDbVisualStyle
  2

 70
     2
 71
     2
 72
     2
 73
     1
 90
        2
 40
-0.6
 41
30.0
 62
     5
 63
     7
 74
     0
 91
        0
 64
     7
 65
   257
 75
     1
175
     1
 42
1.0
 92
        0
 66
     7
 43
1.0
 76
     1
 77
     6
 78
     2
 67
     7
 79
     5
170
     0
171
     0
290
     0
174
     0
 93
       13
 44
0.0
173
     0
291
     1
 45
0.0
1001
ACAD
1000
AcDbSavedByObjectVersion
1070
     0
  0
VISUALSTYLE
  5
2D
102
{ACAD_XDICTIONARY
360
243D
102
}
102
{ACAD_REACTORS
330
29
102
}
330
29
100
AcDbVisualStyle
  2

 70
     3
 71
     2
 72
     2
 73
     1
 90
        2
 40
-0.6
 41
30.0
 62
     5
 63
     7
 74
     1
 91
        0
 64
     7
 65
   257
 75
     1
175
     1
 42
1.0
 92
        0
 66
   257
 43
1.0
 76
     1
 77
     6
 78
     2
 67
     7
 79
     5
170
     0
171
     0
290
     0
174
     0
 93
       13
 44
0.0
173
     0
291
     1
 45
0.0
1001
ACAD
1000
AcDbSavedByObjectVersion
1070
     0
  0
VISUALSTYLE
  5
31
102
{ACAD_XDICTIONARY
360
2445
102
}
102
{ACAD_REACTORS
330
29
102
}
330
29
100
AcDbVisualStyle
  2

 70
     6
 71
     1
 72
     2
 73
     2
 90
        0
 40
-0.6
 41
-30.0
 62
     5
 63
     7
 74
     2
 91
        2
 64
     7
 65
   257
 75
     2
175
     1
 42
40.0
 92
        0
 66
   257
 43
1.0
 76
     1
 77
     6
 78
     2
 67
     7
 79
     3
170
     0
171
     0
290
     0
174
     0
 93
        1
 44
0.0
173
     0
291
     0
 45
0.0
1001
ACAD
1000
AcDbSavedByObjectVersion
1070
     0
  0
VISUALSTYLE
  5
3F
102
{ACAD_XDICTIONARY
360
2461
102
}
102
{ACAD_REACTORS
330
29
102
}
330
29
100
AcDbVisualStyle
  2

 70
    20
 71
     2
 72
     2
 73
     0
 90
        0
 40
-0.6
 41
-30.0
 62
     5
 63
     7
 74
     1
 91
        4
 64
     7
 65
   257
 75
     1
175
     1
 42
1.0
 92
       10
 66
     7
 43
1.0
 76
     1
 77
     6
 78
     2
 67
     7
 79
     5
170
     0
171
     0
290
     0
174
     0
 93
        1
 44
0.0
173
     0
291
     1
 45
0.0
1001
ACAD
1000
AcDbSavedByObjectVersion
1070
     0
  0
VISUALSTYLE
  5
37
102
{ACAD_XDICTIONARY
360
2451
102
}
102
{ACAD_REACTORS
330
29
102
}
330
29
100
AcDbVisualStyle
  2

 70
    14
 71
     2
 72
     2
 73
     0
 90
        0
 40
-0.6
 41
-30.0
 62
     5
 63
     7
 74
     1
 91
        4
 64
     7
 65
   257
 75
     7
175
     7
 42
1.0
 92
        8
 66
     7
 43
1.0
 76
     1
 77
     6
 78
     2
 67
     7
 79
     5
170
     0
171
     0
290
     0
174
     0
 93
        1
 44
0.0
173
     0
291
     1
 45
0.0
1001
ACAD
1000
AcDbSavedByObjectVersion
1070
     0
  0
VISUALSTYLE
  5
40
102
{ACAD_XDICTIONARY
360
2463
102
}
102
{ACAD_REACTORS
330
29
102
}
330
29
100
AcDbVisualStyle
  2

 70
    21
 71
     2
 72
     2
 73
     0
 90
        0
 40
-0.6
 41
-30.0
 62
     5
 63
     7
 74
     1
 91
        4
 64
     7
 65
   257
 75
     1
175
     1
 42
1.0
 92
        9
 66
     7
 43
1.0
 76
     1
 77
     6
 78
     2
 67
     7
 79
     5
170
     0
171
     0
290
     0
174
     0
 93
        1
 44
0.0
173
     0
291
     1
 45
0.0
1001
ACAD
1000
AcDbSavedByObjectVersion
1070
     0
  0
VISUALSTYLE
  5
33
102
{ACAD_XDICTIONARY
360
2449
102
}
102
{ACAD_REACTORS
330
29
102
}
330
29
100
AcDbVisualStyle
  2

 70
     8
 71
     2
 72
     3
 73
     0
 90
        2
 40
-0.6
 41
30.0
 62
     5
 63
     7
 74
     0
 91
        0
 64
     7
 65
   257
 75
     1
175
     1
 42
1.0
 92
        8
 66
   257
 43
1.0
 76
     1
 77
     6
 78
     2
 67
     7
 79
     3
170
     0
171
     0
290
     0
174
     0
 93
       13
 44
0.0
173
     0
291
     0
 45
0.0
1001
ACAD
1000
AcDbSavedByObjectVersion
1070
     0
  0
VISUALSTYLE
  5
3E
102
{ACAD_XDICTIONARY
360
245F
102
}
102
{ACAD_REACTORS
330
29
102
}
330
29
100
AcDbVisualStyle
  2

 70
    27
 71
     2
 72
     2
 73
     1
 90
        2
 40
-0.6
 41
30.0
 62
     5
 63
     7
 74
     0
 91
        4
 64
     7
 65
   257
 75
     1
175
     1
 42
1.0
 92
        8
 66
   257
 43
1.0
 76
     1
 77
     6
 78
     2
 67
     8
 79
     3
170
     0
171
     0
290
     0
174
     0
 93
        5
 44
0.0
173
     0
291
     0
 45
0.0
1001
ACAD
1000
AcDbSavedByObjectVersion
1070
     0
  0
VISUALSTYLE
  5
3D
102
{ACAD_XDICTIONARY
360
245D
102
}
102
{ACAD_REACTORS
330
29
102
}
330
29
100
AcDbVisualStyle
  2

 70
    26
 71
     2
 72
     2
 73
     1
 90
        2
 40
-0.6
 41
30.0
 62
     5
 63
     7
 74
     1
 91
       10
 64
     7
 65
   257
 75
     2
175
     1
 42
1.0
 92
        8
 66
   257
 43
1.0
 76
     1
 77
     6
 78
     2
 67
     7
 79
     3
170
     0
171
     0
290
     0
174
     0
 93
        5
 44
0.0
173
     0
291
     0
 45
0.0
1001
ACAD
1000
AcDbSavedByObjectVersion
1070
     0
  0
VISUALSTYLE
  5
3A
102
{ACAD_XDICTIONARY
360
2457
102
}
102
{ACAD_REACTORS
330
29
102
}
330
29
100
AcDbVisualStyle
  2

 70
    23
 71
     2
 72
     2
 73
     3
 90
        0
 40
-0.6
 41
-30.0
 62
     5
 63
     7
 74
     2
 91
        2
 64
     7
 65
     7
 75
     1
175
     1
 42
40.0
 92
        8
 66
     7
 43
1.0
 76
     1
 77
     6
 78
     2
 67
     7
 79
     3
170
     0
171
     0
290
     0
174
     0
 93
        1
 44
0.0
173
     0
291
     0
 45
0.0
1001
ACAD
1000
AcDbSavedByObjectVersion
1070
     0
  0
VISUALSTYLE
  5
3B
102
{ACAD_XDICTIONARY
360
2459
102
}
102
{ACAD_REACTORS
330
29
102
}
330
29
100
AcDbVisualStyle
  2

 70
    24
 71
     1
 72
     2
 73
     2
 90
        0
 40
-0.6
 41
-30.0
 62
     5
 63
     7
 74
     2
 91
        2
 64
     7
 65
     7
 75
     1
175
     1
 42
40.0
 92
       11
 66
     7
 43
1.0
 76
     1
 77
     6
 78
     2
 67
     7
 79
     6
170
     0
171
     0
290
     0
174
     0
 93
        1
 44
0.0
173
     0
291
     0
 45
0.0
1001
ACAD
1000
AcDbSavedByObjectVersion
1070
     0
  0
VISUALSTYLE
  5
36
102
{ACAD_XDICTIONARY
360
244F
102
}
102
{ACAD_REACTORS
330
29
102
}
330
29
100
AcDbVisualStyle
  2

 70
    13
 71
     2
 72
     2
 73
     0
 90
        0
 40
-0.6
 41
-30.0
 62
     5
 63
     7
 74
     1
 91
        4
 64
     7
 65
   257
 75
     1
175
     1
 42
1.0
 92
       12
 66
     7
 43
1.0
 76
     1
 77
     6
 78
     2
 67
     7
 79
     5
170
     0
171
     0
290
     0
174
     0
 93
        1
 44
0.0
173
     0
291
     1
 45
0.0
1001
ACAD
1000
AcDbSavedByObjectVersion
1070
     0
  0
VISUALSTYLE
  5
30
102
{ACAD_XDICTIONARY
360
2443
102
}
102
{ACAD_REACTORS
330
29
102
}
330
29
100
AcDbVisualStyle
  2

 70
     5
 71
     0
 72
     2
 73
     0
 90
        0
 40
-0.6
 41
-30.0
 62
     5
 63
     7
 74
     1
 91
        4
 64
     7
 65
   257
 75
     1
175
     1
 42
1.0
 92
        0
 66
   257
 43
1.0
 76
     1
 77
     6
 78
     2
 67
     7
 79
     3
170
     0
171
     0
290
     0
174
     0
 93
        1
 44
0.0
173
     0
291
     0
 45
0.0
1001
ACAD
1000
AcDbSavedByObjectVersion
1070
     0
  0
VISUALSTYLE
  5
3C
102
{ACAD_XDICTIONARY
360
245B
102
}
102
{ACAD_REACTORS
330
29
102
}
330
29
100
AcDbVisualStyle
  2

 70
    25
 71
     2
 72
     2
 73
     1
 90
        1
 40
0.5
 41
-30.0
 62
     5
 63
     7
 74
     1
 91
        0
 64
     7
 65
   257
 75
     1
175
     1
 42
1.0
 92
        8
 66
     7
 43
1.0
 76
     1
 77
     6
 78
     2
 67
     7
 79
     3
170
     0
171
     0
290
     0
174
     0
 93
       13
 44
0.0
173
     0
291
     0
 45
0.0
1001
ACAD
1000
AcDbSavedByObjectVersion
1070
     0
  0
DICTIONARYVAR
  5
232B
102
{ACAD_REACTORS
330
2327
102
}
330
2327
100
DictionaryVariables
280
     0
  1
1:1
  0
DICTIONARYVAR
  5
2329
102
{ACAD_REACTORS
330
2327
102
}
330
2327
100
DictionaryVariables
280
     0
  1
STANDARD
  0
DICTIONARYVAR
  5
2328
102
{ACAD_REACTORS
330
2327
102
}
330
2327
100
DictionaryVariables
280
     0
  1
STANDARD
  0
DICTIONARYVAR
  5
2332
102
{ACAD_REACTORS
330
2327
102
}
330
2327
100
DictionaryVariables
280
     0
  1
0
  0
DICTIONARYVAR
  5
2331
102
{ACAD_REACTORS
330
2327
102
}
330
2327
100
DictionaryVariables
280
     0
  1
1
  0
DICTIONARYVAR
  5
2330
102
{ACAD_REACTORS
330
2327
102
}
330
2327
100
DictionaryVariables
280
     0
  1
0
  0
DICTIONARYVAR
  5
232D
102
{ACAD_REACTORS
330
2327
102
}
330
2327
100
DictionaryVariables
280
     0
  1
0
  0
DICTIONARYVAR
  5
232E
102
{ACAD_REACTORS
330
2327
102
}
330
2327
100
DictionaryVariables
280
     0
  1
0
  0
DICTIONARYVAR
  5
232C
102
{ACAD_REACTORS
330
2327
102
}
330
2327
100
DictionaryVariables
280
     0
  1
2
  0
DICTIONARYVAR
  5
232A
102
{ACAD_REACTORS
330
2327
102
}
330
2327
100
DictionaryVariables
280
     0
  1
1
  0
DICTIONARYVAR
  5
232F
102
{ACAD_REACTORS
330
2327
102
}
330
2327
100
DictionaryVariables
280
     0
  1
127
  0
DICTIONARYVAR
  5
2430
102
{ACAD_REACTORS
330
2327
102
}
330
2327
100
DictionaryVariables
280
     0
  1
2
  0
DICTIONARY
  5
2468
330
6B
100
AcDbDictionary
280
     1
281
     1
  3
ACAD_XREC_ROUNDTRIP
360
2469
  0
DICTIONARY
  5
246C
330
73
100
AcDbDictionary
280
     1
281
     1
  3
ACAD_XREC_ROUNDTRIP
360
246D
  0
DICTIONARY
  5
246A
330
6F
100
AcDbDictionary
280
     1
281
     1
  3
ACAD_XREC_ROUNDTRIP
360
246B
  0
DICTIONARY
  5
1A
330
19
100
AcDbDictionary
280
     1
281
     1
  3
ACAD_XREC_ROUNDTRIP
360
23DF
  3
BUMPTILE
360
1C
  3
DIFFUSETILE
360
1B
  3
OPACITYTILE
360
1F
  3
REFLECTIONTILE
360
1E
  3
REFRACTIONTILE
360
20
  3
SPECULARTILE
360
1D
  0
DICTIONARY
  5
12
330
11
100
AcDbDictionary
280
     1
281
     1
  3
ACAD_XREC_ROUNDTRIP
360
23DE
  3
BUMPTILE
360
14
  3
DIFFUSETILE
360
13
  3
FBXASSET
360
D6
  3
OPACITYTILE
360
17
  3
REFLECTIONTILE
360
16
  3
REFRACTIONTILE
360
18
  3
SPECULARTILE
360
15
  0
DICTIONARY
  5
22
330
21
100
AcDbDictionary
280
     1
281
     1
  3
ACAD_XREC_ROUNDTRIP
360
23E0
  3
BUMPTILE
360
24
  3
DIFFUSETILE
360
23
  3
OPACITYTILE
360
27
  3
REFLECTIONTILE
360
26
  3
REFRACTIONTILE
360
28
  3
SPECULARTILE
360
25
  0
DICTIONARY
  5
2433
330
67
100
AcDbDictionary
280
     1
281
     1
  3
ACAD_XREC_ROUNDTRIP
360
2434
  0
DICTIONARY
  5
2334
330
65
100
AcDbDictionary
280
     1
281
     1
  3
ACAD_ROUNDTRIP_2008_TABLESTYLE_CELLSTYLEMAP
360
2432
  3
ACAD_XREC_ROUNDTRIP
360
2467
  0
DICTIONARY
  5
2441
330
2F
100
AcDbDictionary
280
     1
281
     1
  3
ACAD_XREC_ROUNDTRIP
360
2442
  0
DICTIONARY
  5
243F
330
2E
100
AcDbDictionary
280
     1
281
     1
  3
ACAD_XREC_ROUNDTRIP
360
2440
  0
DICTIONARY
  5
244D
330
35
100
AcDbDictionary
280
     1
281
     1
  3
ACAD_XREC_ROUNDTRIP
360
244E
  0
DICTIONARY
  5
2455
330
39
100
AcDbDictionary
280
     1
281
     1
  3
ACAD_XREC_ROUNDTRIP
360
2456
  0
DICTIONARY
  5
2447
330
32
100
AcDbDictionary
280
     1
281
     1
  3
ACAD_XREC_ROUNDTRIP
360
2448
  0
DICTIONARY
  5
244B
330
34
100
AcDbDictionary
280
     1
281
     1
  3
ACAD_XREC_ROUNDTRIP
360
244C
  0
DICTIONARY
  5
2465
330
41
100
AcDbDictionary
280
     1
281
     1
  3
ACAD_XREC_ROUNDTRIP
360
2466
  0
DICTIONARY
  5
2453
330
38
100
AcDbDictionary
280
     1
281
     1
  3
ACAD_XREC_ROUNDTRIP
360
2454
  0
DICTIONARY
  5
2437
330
2A
100
AcDbDictionary
280
     1
281
     1
  3
ACAD_XREC_ROUNDTRIP
360
2438
  0
DICTIONARY
  5
2439
330
2B
100
AcDbDictionary
280
     1
281
     1
  3
ACAD_XREC_ROUNDTRIP
360
243A
  0
DICTIONARY
  5
243B
330
2C
100
AcDbDictionary
280
     1
281
     1
  3
ACAD_XREC_ROUNDTRIP
360
243C
  0
DICTIONARY
  5
243D
330
2D
100
AcDbDictionary
280
     1
281
     1
  3
ACAD_XREC_ROUNDTRIP
360
243E
  0
DICTIONARY
  5
2445
330
31
100
AcDbDictionary
280
     1
281
     1
  3
ACAD_XREC_ROUNDTRIP
360
2446
  0
DICTIONARY
  5
2461
330
3F
100
AcDbDictionary
280
     1
281
     1
  3
ACAD_XREC_ROUNDTRIP
360
2462
  0
DICTIONARY
  5
2451
330
37
100
AcDbDictionary
280
     1
281
     1
  3
ACAD_XREC_ROUNDTRIP
360
2452
  0
DICTIONARY
  5
2463
330
40
100
AcDbDictionary
280
     1
281
     1
  3
ACAD_XREC_ROUNDTRIP
360
2464
  0
DICTIONARY
  5
2449
330
33
100
AcDbDictionary
280
     1
281
     1
  3
ACAD_XREC_ROUNDTRIP
360
244A
  0
DICTIONARY
  5
245F
330
3E
100
AcDbDictionary
280
     1
281
     1
  3
ACAD_XREC_ROUNDTRIP
360
2460
  0
DICTIONARY
  5
245D
330
3D
100
AcDbDictionary
280
     1
281
     1
  3
ACAD_XREC_ROUNDTRIP
360
245E
  0
DICTIONARY
  5
2457
330
3A
100
AcDbDictionary
280
     1
281
     1
  3
ACAD_XREC_ROUNDTRIP
360
2458
  0
DICTIONARY
  5
2459
330
3B
100
AcDbDictionary
280
     1
281
     1
  3
ACAD_XREC_ROUNDTRIP
360
245A
  0
DICTIONARY
  5
244F
330
36
100
AcDbDictionary
280
     1
281
     1
  3
ACAD_XREC_ROUNDTRIP
360
2450
  0
DICTIONARY
  5
2443
330
30
100
AcDbDictionary
280
     1
281
     1
  3
ACAD_XREC_ROUNDTRIP
360
2444
  0
DICTIONARY
  5
245B
330
3C
100
AcDbDictionary
280
     1
281
     1
  3
ACAD_XREC_ROUNDTRIP
360
245C
  0
XRECORD
  5
2469
102
{ACAD_REACTORS
330
2468
102
}
330
2468
100
AcDbXrecord
280
     1
102
SHADEPLOT
 70
     0
102
SHADEPLOTRESLEVEL
 70
     2
102
SHADEPLOTCUSTOMDPI
 70
   300
  0
XRECORD
  5
246D
102
{ACAD_REACTORS
330
246C
102
}
330
246C
100
AcDbXrecord
280
     1
102
SHADEPLOT
 70
     0
102
SHADEPLOTRESLEVEL
 70
     2
102
SHADEPLOTCUSTOMDPI
 70
   300
  0
XRECORD
  5
246B
102
{ACAD_REACTORS
330
246A
102
}
330
246A
100
AcDbXrecord
280
     1
102
SHADEPLOT
 70
     0
102
SHADEPLOTRESLEVEL
 70
     2
102
SHADEPLOTCUSTOMDPI
 70
   300
  0
XRECORD
  5
23DF
102
{ACAD_REACTORS
330
1A
102
}
330
1A
100
AcDbXrecord
280
     1
102
MATERIAL
148
0.0
149
0.0
149
0.0
 93
        0
 94
      127
282
     0
 72
     0
 77
     0
171
     0
175
     0
179
     0
273
     0
  0
XRECORD
  5
1C
102
{ACAD_REACTORS
330
1A
102
}
330
1A
100
AcDbXrecord
280
     1
270
     1
271
     1
  0
XRECORD
  5
1B
102
{ACAD_REACTORS
330
1A
102
}
330
1A
100
AcDbXrecord
280
     1
270
     1
271
     1
  0
XRECORD
  5
1F
102
{ACAD_REACTORS
330
1A
102
}
330
1A
100
AcDbXrecord
280
     1
270
     1
271
     1
  0
XRECORD
  5
1E
102
{ACAD_REACTORS
330
1A
102
}
330
1A
100
AcDbXrecord
280
     1
270
     1
271
     1
  0
XRECORD
  5
20
102
{ACAD_REACTORS
330
1A
102
}
330
1A
100
AcDbXrecord
280
     1
270
     1
271
     1
  0
XRECORD
  5
1D
102
{ACAD_REACTORS
330
1A
102
}
330
1A
100
AcDbXrecord
280
     1
270
     1
271
     1
  0
XRECORD
  5
23DE
102
{ACAD_REACTORS
330
12
102
}
330
12
100
AcDbXrecord
280
     1
102
MATERIAL
148
0.0
149
0.0
149
0.0
 93
        0
 94
      127
282
     0
 72
     0
 77
     0
171
     0
175
     0
179
     0
273
     0
  0
XRECORD
  5
14
102
{ACAD_REACTORS
330
12
102
}
330
12
100
AcDbXrecord
280
     1
270
     1
271
     1
  0
XRECORD
  5
13
102
{ACAD_REACTORS
330
12
102
}
330
12
100
AcDbXrecord
280
     1
270
     1
271
     1
  0
XRECORD
  5
D6
102
{ACAD_REACTORS
330
12
102
}
330
12
100
AcDbXrecord
280
     1
 70
     1
 90
1959938040
 71
     1
  1
75242BD7-3107-46DF-85FB-A6AE02055919
311
504B03040A0000080000C26C89463DEE336E79000000790000001B0000006175746F6465736B2D64657369676E2D7061636B6167652E786D6C3C3F786D6C2076657273696F6E3D22312E302220656E636F64696E673D227574662D3822203F3E3C666F726D6174733E3C666F726D61743E687474703A2F2F736368656D612E
311
6175746F6465736B2E636F6D2F64657369676E2D7061636B6167652F323030393C2F666F726D61743E3C2F666F726D6174733E504B0304140006080800C26C8946D486FD9CA0000000F4000000130000005B436F6E74656E745F54797065735D2E786D6C7D8EC10E82300C865F65E91D8A1E8C310C0EEA1BF002731658846E
311
D98AC1B77784ABF1D8FE5FBFBF75BBCE937A534CCEB38643598122B6FEE978D0B0485F9C41B54DDD7D022595594E1A469170414C76A4D9A4D207E29CF43ECE46F218070CC6BECC4078ACAA135ACF422C856C0E68EA1BF5669944DDD7BCDE7B1F8E415D77AECB980613C2E4AC91FC167A2B244592486606FC29C8FD7F045B9A
311
EF7053A7E60B504B0304140006080800C26C894643E7AB7FE90000007C01000008000000636F72652E786D6C8D904D6EC3201085AF82668F0DF847AE8589EC2A39412F8080B828315806AA1EBF3871A476D7D50C8FF7CD8C1E3F7D2F77F465B660BD1B8016049071CA6BEBE60152BCE20ED049F0CDFBF8CB06C8C9C50CB0CB
311
20F8BCF9B41E92F22E1A17B3EABC36872843301190BAE76680A03ECD220B996276845BB14A7593B329E8ABCB704A56A3E712ABF33C7BB56603D18D236DDED90577E7BAC1754B6B3CB5ACC5E3656ADBAA621339335EEEB0E0D12EAFFD6A33321A0D8211DA605263F2F641ABBEEA7A929F4D4F082F77FB1F28ADFA9F50B22E56
311
EC38F7890510341FF2F810BCDCB3C8E51154AE7B6EE207504B0304140006080800C26C894655019EA25F0000007C00000007000000636E782E786D6C4DCB3B0E80201045D1AD90E915ED2CF8AC45050C11660C8261F98AB1B07AC9C97D42D718D865D3E909258CFD00CCE24AC6E326A164D74DC0B4128928FF326038472BA1
311
3128B1252AC747C6BAB984FC68F0B87FE8960A5C09FE86CFB69FBA01504B0304140006080800C26C8946594C960D65010000020300000C0000006662782F636F72652E786D6C8D525B6E833010BC8AE57FB0798A46C651522527E8051C70A815B091B1518EDFE511D15451542181D9D9D9991D60FB7BD7A251DA41195DE228
311
A418495D995AE9A6C4DE5D8302A33D67D618F7AB0D232D3A59E2A98C396BACF1FD5AAA8C76523BA86A53CBB52886413A8CAA160E251EAA6FD9895078071DC32DEC4575138D0CA31060E8E36C70160CA04564BA637EBDDC1959EA9C79AFEA155535A8A9AB9216F3E27088B2CFF81C14A7340BD23C4A83631EE7C1E17CCCF324
311
898FF4143332913973AA7BB8ABAC144ED698C734CA029A06F4E32B4A7649B1A3F09AED2865646A7F22F9BEFE27C92BED9278B5BBD006CC233032037FB685881C1AC4087E0867640A111E73C2CF41432010B21397F6B1C70D4AA3AC9CB12920B5F11B348AD64B50A568BE185950983C0F80CD5ECE89DFCC793F033EA0D00D58
311
130E8E17EF2675B6A8AE51F4D206A3BB236D6C27DACDDC6271BB6F422FE995698DFD0F9BACAB92354C32FDBDFC07504B0304140006080800C26C89467572EE417E0000009D0000000B0000006662782F636E782E786D6C4DCCD10A83201886E15B91FFDCD255E6408DDAF03E6259C84C87D3D8E5AF46073BFAE0E1E315DD67
311
756833F16D8397400B02C8F84798AC5F24E434630EA853228690FE6E80FCB81A090783124B0CF975D264E631BBB4ABB3FE79226FAB66B87182EB9E325C537DC503BDDCB166ACE929A95AAD09944A94BFD2BE47587D01504B0304140006080800C26C8946FFD1BF222A01000015020000310000006662782F38373335424338
311
302D344131362D343146392D423132442D4636363541313033374646302F636F72652E786D6C8D51CB6EC32010FC15C4293D60835F71224C94B4F217F4071C4C5294182C1E553EBF4BED48ED2D17168699D9D12E3F3CA63BFA56CE6B6B3ACC328A9132D28EDA5C3B1CC385B4181D0477D6863F348CCC30A90E27180B7E7536
311
CE2B24AD09CA04408D1DD50A0EDEAB8091BCC3A5C35E7EA969C8861880E16FD93CC8DB705519CBE01B7882FBE020005A9AA4138B765BD6A7F79692EAC81A52B17E474EACF8207DD3D44746CB6DDF539E2F42C163D4E32AD723C4D117ADDCAB26492C78D0D333BE746A086AC4A2A0AC26B42274F7C9CA7DD9EE293CEB3D85CE
311
89FE4F14E7F14551D42694C51A7791792C18CF970FC1471BCFF76718F598AD0B28F5DB7825DFB0A019A575B92B201DCF172E4C004C9B6A35F5C13A98F0E676063AAB17E7A6123C4F4B82F2BB41A869A1E207504B0304140006080800C26C89465BDF9BD24C01000033030000300000006662782F38373335424338302D3441
311
31362D343146392D423132442D4636363541313033374646302F636E782E786D6CD593CD6EC23010845FC5F23D7F25208A1C23F5D027E8A157C75EC0E0D8917FAAF2F65D83A15C38F4D88B95CC7E9E598D12B6FD9E0CF9021FB4B303EDEA9612B0D2296DF7034D7157AD29D972E69D8B0F1825564C30D02C53CEF6DEA5B948
311
0A76229988AAD1F654440FC1252F21A09C6F12E3A4306800B64A28C2348252A0C81DC4A71D785C05C5F14CE201C8FBDB2771E311640CACC92E9C353983B37C96A4078812694408030DF20093A8458A4E4138D54A445177F52DEBC94EBF4E245FB84526AF490E1F683E292F1BD5D8236B70C859881EDB2B503CCF40B99867A3
311
A58858727301AF0C6749DBB8EA0BABB1788F74B75AF43D9A5D669C453D4121A407114151FED276CBAAEDABF6F5A35B6C16EB4D8BAFCB4DDBB226E39C8DCE9972096DC0BB99486723D84879C79A3C7E565FE188D21EBB76FEFC8722B180927A6DE7EEF19FFB692EDF37D6E5F12FE03F504B0304140006080800C26C8946C184
311
7423A305000081100000340000006662782F38373335424338302D344131362D343146392D423132442D4636363541313033374646302F6F626A656374732E786D6CAD57D98EDB3614FD15417D691FBCC8CB2C854681974C602493043112F4C180414B94861D6A01494D3CFDFA1E8A942C39F6C42DF2A285CBE5BDE79EBBD0
311
7FB34FB9F34C85647976E77AFDA1EBD02CCC239625776EA9E2DE8DEBBC097C91E7AAB5CC753292D23B570FBB819F88BC2CEC504463527275347A3FFFCB9121CDA8EB849C4879E7CAF091A6A44F4A9547543EF523A2483F89F77DAF6F1676C52682148F47420B2268A6A029C63348718C525EF777E80E027FA0E7035F3FEDAA
311
F1F95583CA9EEEF92C938A64E10F871D89197B93E5DBD1F4B6379D4CC6BDC9D5C8EBCDEFE7CB9E773D1E2EAE168BDBD9DB5B1C2C958024AB89A0B11BBC03368285FEC04C057EC932351ED925D64103419F99F6941B8C1CCF1F98358D75D6C853EA877996D1B0C20A6854F659D1112D6816C1E78C4A68D64268D8FDF5348EAD
311
E9B1FEB747B6872F43A0BDA325A8D6BD7EB735CD777FC30479098384A49A81064B6BA8E1EAF080F02ECFB99D63D24989A28211EE70B61344BCB80196EA2581DF11A3992C7434680BDC005E30D35DBA208C7ECEF3535AC625E79AC66E5045C116B14295AC3463FF5071D0BE8D0C7482AF341B6EAC41EAA5A06E706B287273C4
311
2603A4137392C0E53053EF1C8F8E0C5DE8385D2DDDE0FDFD6EBFD6B17BFAF042E405154AD307D4AA1D57BF354A5627EF22CFE90DEE912A0750BE00F98F08F5832AF09B60FBC97E624F51826432CE450ADF3843A737C463E878D5537FB7BEFC41B3B9EBBD7378C2D91AAA5F8067D786B62F5B7006FE33089F8BB1356D1D128E
311
B4F1C03200A449E2F01C43C8C3F16EEF062B64396465EC223CF06032D47DC6A73FB0629028AA935AEF0C581EA5C50B123460AB1809350CF9AD82073FFD90CEAA83EDB273F04E7F095D67CBF5FB75296212D2071BD34B1AB38C2994B8036FDA0A7530EF58F4445FBEE72282A13FE2BD6EE39DDAA324D0D6986BE0933AA7EB9F
311
C3C99D0342EC4B729D6EFC9F9C002374616DC97F6032A49C938CE6657DEEABF50365C340AC835D33B9293087C202D29899A31844910E052B34884DB56A9266FF8C755F571FC1483798BF7C202FEDECB53BE4DE30E7B9D8EE5EB6262D9D84FA5B97DB1683819602BA574152C7BF057D1BB1382E2592E0095CBFAD166DDFE9B4
311
8014514B35D13281FD082E222C696BB9A8D682A092E6D996A16E22EE4E1ED0960F482D032A81E7349694C75BC679996E63C6518DB62929CEC0F1FFF5DF9569B125695E66EA8CEC8EEAA80E5DDD3BEC95DF890A1FDD605DBD7B73E4DE884667C8A06BC909AC3AAEBD9E8E26A3F9F2BA37F686D7E89F96F7BD9BE9FDBC37BB9A
311
BD1D8E86D3E9AD775BFBC96812F875A9694734BC84D2E6978259F77D5D217E6C12708307A2E4E69D09CFFAFD75D5472FEC0FB007F5B2D9388B9ED1F7D1E8E7020E2B4F0A5AA505A729CD14D131F4A03FF817823EA3A38C195FA524A11748F9F46E7D640C462ED8F759C73BFD7EB4D78E2E74409E14A21ECB749711C68F3626
311
06C97E912516BFDA27CDDB149AFA57FF59C7A03395396711F260E424344FA94236BCA00889944A50AFDDD347F6EE71C1EE67D3212AB2E3B4D6E491A049E61261016A95A1EA8E3BBFA1A9D37DD59D8B72DB7FC2C3660AD70167EE5C34E98A8554F67728D0BA15AA84834BED4E1E8D3FC9128E5EDB6C6AFE9B5D1A9B4E496E96
311
5CD23F59BB4C0AB706208D14E81BD010C13B9532815FE966E7C3FF6478AD8E43143E77A56A6C390C34C654C720448D51F6B68026E6C91EBD47A0BE6E96D7AFD67410B9E896F52A098CD49E2222A96E0A5A3FABD26CF979800EC5597D720A5E26F0E5E5927A8282CCA50E70B008ACB0320BA240D5C59F9BCF22C74D3675EE19
311
28E0FCBEBFB9FA63B3C8D334CFCCD06666EFC3CEFA11B7DB6883E440F5B5446E46436FB4A9AE03F686B2DD1149FB24924F188067056B80EEB81FBC347746D42133D1AC1B68571C3174B5746C619B40A8A54B3BB76A70D07864D4410CE92BA58E98F682E2D51BC1A05A0A15047AF9E05F504B0304140006080000C26C894600
311
0000000000000000000000350000006662782F38373335424338302D344131362D343146392D423132442D4636363541313033374646302F76657274696365732E62696E504B0304140006080800C26C8946F270F1330600000004000000360000006662782F38373335424338302D344131362D343146392D423132442D46
311
36363541313033374646302F747269616E676C65732E62696E636660600000504B0304140006080000C26C8946000000000000000000000000370000006662782F38373335424338302D344131362D343146392D423132442D4636363541313033374646302F617474726962757465732E62696E504B0304140006080800C2
311
6C8946D5987DFC8F00000041010000360000006662782F38373335424338302D344131362D343146392D423132442D4636363541313033374646302F6469726563746F72792E786D6C858F410EC2201045AF4266AF15DDB800BA74E7C21B903225242D6328188F2FA5C4183471359997F9FF81E89FF3C41E1816475E02DF1F
311
80A11FC8386F25A438EECEC07A250251FC3803E6F58C12560C4AD840E95E91C151A72936F496F35732D860FE635F62C8F2DA16B505C545B74125BAA2FA9E05D7CC053D063734D5C7665FD55B6B8D15D5E9BFEAFD8490FFA45E504B0304140006080800C26C89462B0DF64EFB000000A00100003B0000006662782F38373335
311
424338302D344131362D343146392D423132442D4636363541313033374646302F7265736F75726365732F636F72652E786D6C8D50DB6E842010FD1533EF28788B35C8461BFB05FD0182B35BB22B182E4D3FBFB8DAA47DEB0BC39C4BE6E4F0CBD7FAC83ED1796DCD002CA790A15176D1E636400C57D2417611DC591B7EC920
311
3372C501761804BF391BB71352D6043421A1C62E7882D27B0C90A947FA0CE0D507AE3297312485BFE79B547779C39CE5894E3AC17D702940761CD95F100EBD8D4EA1E7C5C10A1EA35E4E8D5ED24D7DD5E84074E3C89AD77226DD5C37A46E594DA6B66CC9F836B56D5595139D4B5EEC66C1835E7F322A8732E002A2A4AC21B4
311
26F4E59D557DD5F534AD4D4F292F76F91F53DC967F9AA236A12ACFB887CD836029C89310BCD8FB4AE359669A7BB7E21B504B010214000A0000080000C26C89463DEE336E79000000790000001B00000000000000000000000000000000006175746F6465736B2D64657369676E2D7061636B6167652E786D6C504B01021400
311
140006080800C26C8946D486FD9CA0000000F40000001300000000000000000000000000B20000005B436F6E74656E745F54797065735D2E786D6C504B01021400140006080800C26C894643E7AB7FE90000007C010000080000000000000000000000000083010000636F72652E786D6C504B01021400140006080800C26C
311
894655019EA25F0000007C000000070000000000000000000000000092020000636E782E786D6C504B01021400140006080800C26C8946594C960D65010000020300000C00000000000000000000000000160300006662782F636F72652E786D6C504B01021400140006080800C26C89467572EE417E0000009D0000000B00
311
000000000000000000000000A50400006662782F636E782E786D6C504B01021400140006080800C26C8946FFD1BF222A0100001502000031000000000000000000000000004C0500006662782F38373335424338302D344131362D343146392D423132442D4636363541313033374646302F636F72652E786D6C504B010214
311
00140006080800C26C89465BDF9BD24C010000330300003000000000000000000000000000C50600006662782F38373335424338302D344131362D343146392D423132442D4636363541313033374646302F636E782E786D6C504B01021400140006080800C26C8946C1847423A30500008110000034000000000000000000
311
000000005F0800006662782F38373335424338302D344131362D343146392D423132442D4636363541313033374646302F6F626A656374732E786D6C504B01021400140006080000C26C89460000000000000000000000003500000000000000000000000000540E00006662782F38373335424338302D344131362D343146
311
392D423132442D4636363541313033374646302F76657274696365732E62696E504B01021400140006080800C26C8946F270F13306000000040000003600000000000000000000000000A70E00006662782F38373335424338302D344131362D343146392D423132442D4636363541313033374646302F747269616E676C65
311
732E62696E504B01021400140006080000C26C89460000000000000000000000003700000000000000000000000000010F00006662782F38373335424338302D344131362D343146392D423132442D4636363541313033374646302F617474726962757465732E62696E504B01021400140006080800C26C8946D5987DFC8F
311
000000410100003600000000000000000000000000560F00006662782F38373335424338302D344131362D343146392D423132442D4636363541313033374646302F6469726563746F72792E786D6C504B01021400140006080800C26C89462B0DF64EFB000000A00100003B00000000000000000000000000391000006662
311
782F38373335424338302D344131362D343146392D423132442D4636363541313033374646302F7265736F75726365732F636F72652E786D6C504B0506000000000E000E00800400008D1100000000
310
504B03040A0000080000C26C89463DEE336E79000000790000001B0000006175746F6465736B2D64657369676E2D7061636B6167652E786D6C3C3F786D6C2076657273696F6E3D22312E302220656E636F64696E673D227574662D3822203F3E3C666F726D6174733E3C666F726D61743E687474703A2F2F736368656D612E
310
6175746F6465736B2E636F6D2F64657369676E2D7061636B6167652F323030393C2F666F726D61743E3C2F666F726D6174733E504B0304140006080800C26C8946D486FD9CA0000000F4000000130000005B436F6E74656E745F54797065735D2E786D6C7D8EC10E82300C865F65E91D8A1E8C310C0EEA1BF002731658846E
310
D98AC1B77784ABF1D8FE5FBFBF75BBCE937A534CCEB38643598122B6FEE978D0B0485F9C41B54DDD7D022595594E1A469170414C76A4D9A4D207E29CF43ECE46F218070CC6BECC4078ACAA135ACF422C856C0E68EA1BF5669944DDD7BCDE7B1F8E415D77AECB980613C2E4AC91FC167A2B244592486606FC29C8FD7F045B9A
310
EF7053A7E60B504B0304140006080800C26C8946D2ECDE25E90000007C01000008000000636F72652E786D6C8D50D16EC3200CFC15E4771292D034890855A46E5FB01F40E076A80D4401A67DFE489B4ADBDB9E6C9FEFECD389D3F77C275FB806EBDD0855C180A0D3DE58771D21C50BED809CA458BD8FBF68409C9A71840D06
310
29AEAB4FCB0E69EF22BA9851E70DEEA00A0123107DCFCD08417FE2AC0A956266845BB1287D53572CAA5797C52959439E4FACC9F7ECC5E20AB2EAA7F638F177CABABAA3BC6FCF747A6367DA1FEBA9E50D9FDA968B72134B11EDFCFAAF5754110DC89A5507CA3865FD47D50C4D37B03C1E06C644B9D1FF88D262FE294AD6C5A6
310
DEED3E65217BCD461E0B29CA2D8B5C1E41E5BAE5267F00504B0304140006080800C26C894655019EA25F0000007C00000007000000636E782E786D6C4DCB3B0E80201045D1AD90E915ED2CF8AC45050C11660C8261F98AB1B07AC9C97D42D718D865D3E909258CFD00CCE24AC6E326A164D74DC0B4128928FF326038472BA1
310
3128B1252AC747C6BAB984FC68F0B87FE8960A5C09FE86CFB69FBA01504B0304140006080800C26C8946CF029D1965010000020300000C0000006662782F636F72652E786D6C8D525B6E833010BC8AE57FB0798490C838424A7B825EC001875A011B191BE5F85D1E114D15451512989D9D9DD90176BA772D1AA51D94D1058E
310
428A91D495A9956E0AECDD35C8313A71668D71BFDA30D2A293059ECA98B3C61ADFAFA5CA6827B583AA36B55C8B6218A4C3A86AE150E0A1FA969D088577D031DCC25E5437D1C8300A01863ECE0667C1005A44A63BE6D7CB9D91A5CE99F7AA5E5155839ABA2A69318F0E65B62FD3CF80E6711EA487EC1C941FF41C1CF67199A5
310
495A6659CAC844E6CCA9EEE1AEB2523859631ED36817D034A087AF283926F991C2EBEE48292353FB13C9F7F53F495E6997C4ABDD853680573032037FB685881C1AC4087E0867640A111E73C2CF41432010B21397F6B1C70D4AA3AC9CB12920B5F11B348AD64B50A568BE185950983C0F80CD5ECE89DFCC793F033EA0D00D58
310
130E8E17EF2675B6A8AE51F4D206A3BB236D6C27DACDDC6271BB6F422FE995698DFD0F9BACAB92354C32FDBDFC07504B0304140006080800C26C89466BD08CF57E0000009D0000000B0000006662782F636E782E786D6C4DCCD10A83201886E15B91FFDC3233DB408DA4ED3E6259C84C87E9D8E5AF46073BFAE0E1E315DD67
310
75E86DE266839750150490F18F3059BF48C869C617409D123184F47703E4C7D5483818945862C8AF9326338FD9A55D9DF5CF137BAA5B7AD3145F7B5A614686016B7E6F3027BCAD1BC66BCE18944A94BFD2BE47587D01504B0304140006080800C26C89469DCBA3202B01000015020000310000006662782F41324237324542
310
322D394132312D343044442D423646352D3630363733353436333634342F636F72652E786D6C8D514B6EC32014BC0A62952EB031C6C48E3051A2B427E8058821294A0C169F2AC72FAE1DA9DD65C3836166DEE83DBE7F8C77F0AD7D30CEF6B02A3004DA0E4E197BED618A17D442B017DC3B17FFD020B072D43D9C6128F8D5BB
310
34ADD0E06CD43666D43AA5575086A02304C33D5F7A18862F3DCA42A69819E1564C72B8C9AB2EAA227F679EE021FA1C002C4DE6138A03396EC9FB91A0EE402A44F1E9848EECA3410CB36DDD5056334A79B908054FC9A8556E548E632E46FB574D66B1E0D18CCFF883D7326A0505C155833045B8FBACEA5DDDEE707E363B8C79
310
39D3FF89D2A45E142563634DD6B88B2C4051F172F9105CB974BE3FC3E8C7E47C0473BF4DD0C31B14B8C0987594B4DB8E970B374F209B32BA9A86E87C9EF0E676CEF47A756654F0725E522EBF1BCC755EA8F801504B0304140006080800C26C89463D7854C55401000033030000300000006662782F41324237324542322D39
310
4132312D343044442D423646352D3630363733353436333634342F636E782E786D6CBD93CD6EC32010845F0571F75FEC446E8489D4439FA0875E316C521A0C16E0AA79FB2E094973C9A152D50BB2678799D5279BEDBE26433EC107EDEC409BB2A604AC744ADBC34097B82F7A4A769C79E7E29D8D122B26186892296707EF96
310
394B0AF662311155A3ED318B1E825BBC848072BA498C93C26000D8624111A6119402456E467CDA83C755501C4F24BE0379797E236EFC001903AB520A6755EAE02C9DB9E9CE44893422848106F90E9328C5129D82702C9588A26CCA6BD7839D7E9248BA70AD5CBC26A97CA0E9A43C6F54224756E190B3103DD2CBA6789A8172
310
31CF464B11117275365E3C9C2DDAC64D97BD1AC17B74B7AB4DDF63D879C659D4136487F4202228CA5775B32EEAAEA89F5E9B76DBF6DB1A5FD7DBBA6655B273363A67F2258C01EF66229D8D6023E50DABD2F811BEEC234A7B64EDFCE9172011406EBDD0B965FC259F66D376DD3FF2A9CEDF37E2F2F817F06F504B0304140006
310
080800C26C89464ED23C30630700009A1B0000340000006662782F41324237324542322D394132312D343044442D423646352D3630363733353436333634342F6F626A656374732E786D6CED595B73A33614FE2B0C7D691F8C8D2FD9A443D849E2CD8E679BED4EDDEDF4C1338C0C3251230423896CDC5FDFA30B188849709B
310
BEED830D08E9E89CEF5C7508DE3F65D479C45C909C5DBABE37711DCCE23C212CBD744BB91B9DBBCEFB30E0792E1BD35C87A10C5FBA6AD80D8394E765618712BC4325959DD1DBEB3F1D1163865D27A648884B57C4F738431E2A659E60F1E02548222FDD3D79BE6726B6C9A61C15F71DA205E29849E014C61950710C537EFB71
310
E28EC360ACDE8781FAB7B3668366CDFB678DB5D46D2E091312B1F8194B1D32B3412CCDFCF9F2C37471315ACCE7B3D1FC6CEA8FAE6FAF9723FFDD6C727376737371F5E102D8DBE639B53225B8C02C01FDEDDDD00FC6EA4D2DBA45E018D771CE188E3590009516AB4B9060015B35E09BB41F7D2551E3B596B0F13C57EF2D0B8D
310
E1599B4ADFAC6140B4E8822076BB4AE2EADA942FDFFE05828B2146C90596C0AD901CB46BE1E1E0156E3809C666340CB6075D10E16448624E107528D972C4412930554D0903B3C09251CEC18194A324D09A33AFDBB6059EF9BAEB1CE3725752AA3CC30DB56345E07E580ACD19F91BF303F74D64802790B6244C9E5B2EE5BEC0
310
6E78118CF56018A8CB6C6A5F1A209D1D45A9D08898B71D416F94EBAF966EF8E976FBB456E1E0F8E605CF0BCCA5323AA547CD1718B2BD2A94ECB6FE20CDA905208C01D5AE3C80F21B20FF19A2C78115D01B274FF3A7B99D2B39626297F30C74E34C9CD104FE268EAFFFD57DE32E18D78BDBDAEBC313DC544175FEDFF16CCBA0
310
B1B2FC37E00C834730F89CCFECAB758C28D8F31D610090321287E63004A17DB77D72C315044E08F4B00AD1D0079181DD47B80DC696CC412B957B59AF6380A8DD63364449009BB64860A3474F1F217B70121FD4D414B10FDEC59B98EBD572FD695DF21D8AF19DF5E925DE11462464CDE30CB5306F49F480F7DF729E80A0CFF1
310
5E37F1CEEC5602D056982BE0D30A04F570D8B9B5410CEBD25C859BE0951D400895AB1BF4EF888831A588E1BCACF6ADA39B32D4DAE36DCDE0865303F16CDA31618E1F89AA2AC0690E335A8C42DE8F392914886EF8D14856074DAF47BAAFABCF6091F5FC9E592B06A19721FABB0E5A477068597685B405A216787B08E7714E73
310
1E6DF79189742ED412C046DB5BFE681185586F94A4A8800769BFAB424A6AA48D12B2DB9502E2EA1116FF58DD34CD61E2CDFC85D3FCEF38E31CA22DF82EE2D6EF3A7B442443298E7628E9DBAEB95B4D5B68923DA439DE51908B3C12B98F908C26094E4F81E624E2176F4A3DA5B910846101F9EA28F84D34261E0412A3CD8A65
310
A5D50ED044441996889E828022D303AE4E3BBAC68DA174789DC7DA7A5FD25893E8FF64111C412D99B38840290A39E455C67D6F0131A48DAE41B9832F585B455B8B414B2821E27DF40D93F45E9E82BA21DF837B0C4792524679816230EB01649FF98A526A87F72D8A1F54FE88E292BE9581084C7711A1B4CC22F81106278F21
310
AE5D07A61751681037B14FE20C8A32244B3E6493B3C5E4D93EA666E886C0C6463B42216C47192A7A506F05445D8F3835F8967A8F52B765564428CB4B36C850BC59D79B2CF9AE5A15D981FCAA5211CAC68AB025180684C93AAB56311B4C5D075670231DA8F691405941CD29EC95C4E3D7DEA429F76EC0AD9FBEED0619147E3D
310
DA6B46D4790583E5B15518886F48C6F76EB8D6D7D135D4DF094E0EA9BEAA359B152020A62279C98955D1D7159437B64673C33B24C5E6A3C9BAD5F5EBCA83EE4730863550BBD40B570AE80C3389546572A76EE86F0842708B86195FA99C7A0A95AB24D15523A2B7A44F9DAD32A2B56946BCE21EB33C831FDB1016D332C11B94
310
8887E84ED2684D14EB564A2F2315C62F0AF8EBC775071E181920D21755E0E16F9DB576F446954B4789C8FB32DB32442008B6444B8D6EBC82A556239596EBAB3A5340DD050666553CFF7EB268B623BE9F2C526B18FFE96471BDFF05ED9B7D91463A8F955D9F740CA8F393A2F216C700DD76A8A9D659C424732BBF75A6088262
310
15E507576355D03004FB38FED759BB2F0B9AED3AFC9F96B5FD6715C74959A5355975A98E54AEAB660E7BB798CEA7D7CB77A3993F79070DDAE5EDE87C717B3DBA3ABBFA30994E168B0BFFA246533B6A18D4C14CE72E783641AD1A564F1603E8CA8A9C92044EF389936288F912CEF403DAE73CC3029267B3D99DD8A6FC80D58F
310
A6CF29D196E28A937B040D622A20AD0346652CDBE3CE0FD09A9470D0BE74A169E43DC09FB54AD781CC73E942AB4092180B6F0B6D26D5D0D3C421E5EADC6F89013E88A52A259A45F573BD4A61D30AFFF5942169C0CAD5EA6140E15640F7ABD5A1D0BC599EE29304AFD8719084DB6D29A15A33B21C066A61F43607F51BD92861
310
0F76EB2770DD97C5F23D3DA785C8A04F062F1A81A13A9288A7BADFAD18B32C5D2DBF8CA1CFE6AC7E750A5AA6A0CBE194461C833197AAA0022B02ABB0340B24C1546F7EDE7CE1397CE2C91C5D15393F3E9D9FFDB4B9C9B32C6766687305A7B2043E1439EB7BF8EC936CA078C0AAB92E36D3893FDDE8A6B6EDB3475B24B0A7AA
310
2218A88A092548C7E4C02E9F35A86CFB72AC54D199BE5A3A36884233C0D8D1B31EAFF9C8E5800FA9CF29CA63B49F57D2BED8D71EEBA960131C3AD2E13F504B0304140006080000C26C8946000000000000000000000000350000006662782F41324237324542322D394132312D343044442D423646352D3630363733353436
310
333634342F76657274696365732E62696E504B0304140006080800C26C8946F270F1330600000004000000360000006662782F41324237324542322D394132312D343044442D423646352D3630363733353436333634342F747269616E676C65732E62696E636660600000504B0304140006080000C26C8946000000000000
310
000000000000370000006662782F41324237324542322D394132312D343044442D423646352D3630363733353436333634342F617474726962757465732E62696E504B0304140006080800C26C8946D5987DFC8F00000041010000360000006662782F41324237324542322D394132312D343044442D423646352D36303637
310
33353436333634342F6469726563746F72792E786D6C858F410EC2201045AF4266AF15DDB800BA74E7C21B903225242D6328188F2FA5C4183471359997F9FF81E89FF3C41E1816475E02DF1F80A11FC8386F25A438EECEC07A250251FC3803E6F58C12560C4AD840E95E91C151A72936F496F35732D860FE635F62C8F2DA16
310
B505C545B74125BAA2FA9E05D7CC053D063734D5C7665FD55B6B8D15D5E9BFEAFD8490FFA45E504B0304140006080800C26C8946BA068314FB000000A00100003B0000006662782F41324237324542322D394132312D343044442D423646352D3630363733353436333634342F7265736F75726365732F636F72652E786D6C
310
8D505B8E832014DD0AE11F45A5560DD298B43B980D10BC75482B181ECD2C7FA03AC9CCDFFC70B9E7917B72F8E56B7DA21738AFAD197155508CC0283B6BB38C38863BE930BA08EEAC0DBF641819B9C288338C055F9C8DDB01296B0298905063673840E93D048CD4337D46ECD527ACB2903124857F149B540FB9405115894E3A
310
C17D702900DA8FE4170B07DE46A7C0F37267058F51CF8746CFE9A6BE6B705854FDD49E277623B4AB3BC2FAF64AA61BBD92FE5C4F2D6BD8D4B68C97D92C78D0EB4F46E5400698B1A86975229411DA7F54CDD074034DEB69A0949759FEC714B7F99FA6A84D68EA23EE6EF3296B0AF226042F735F69BCCB4C33772BBE01504B01
310
0214000A0000080000C26C89463DEE336E79000000790000001B00000000000000000000000000000000006175746F6465736B2D64657369676E2D7061636B6167652E786D6C504B01021400140006080800C26C8946D486FD9CA0000000F40000001300000000000000000000000000B20000005B436F6E74656E745F5479
310
7065735D2E786D6C504B01021400140006080800C26C8946D2ECDE25E90000007C010000080000000000000000000000000083010000636F72652E786D6C504B01021400140006080800C26C894655019EA25F0000007C000000070000000000000000000000000092020000636E782E786D6C504B01021400140006080800
310
C26C8946CF029D1965010000020300000C00000000000000000000000000160300006662782F636F72652E786D6C504B01021400140006080800C26C89466BD08CF57E0000009D0000000B00000000000000000000000000A50400006662782F636E782E786D6C504B01021400140006080800C26C89469DCBA3202B010000
310
1502000031000000000000000000000000004C0500006662782F41324237324542322D394132312D343044442D423646352D3630363733353436333634342F636F72652E786D6C504B01021400140006080800C26C89463D7854C554010000330300003000000000000000000000000000C60600006662782F413242373245
310
42322D394132312D343044442D423646352D3630363733353436333634342F636E782E786D6C504B01021400140006080800C26C89464ED23C30630700009A1B00003400000000000000000000000000680800006662782F41324237324542322D394132312D343044442D423646352D3630363733353436333634342F6F62
310
6A656374732E786D6C504B01021400140006080000C26C894600000000000000000000000035000000000000000000000000001D1000006662782F41324237324542322D394132312D343044442D423646352D3630363733353436333634342F76657274696365732E62696E504B01021400140006080800C26C8946F270F1
310
3306000000040000003600000000000000000000000000701000006662782F41324237324542322D394132312D343044442D423646352D3630363733353436333634342F747269616E676C65732E62696E504B01021400140006080000C26C89460000000000000000000000003700000000000000000000000000CA100000
310
6662782F41324237324542322D394132312D343044442D423646352D3630363733353436333634342F617474726962757465732E62696E504B01021400140006080800C26C8946D5987DFC8F0000004101000036000000000000000000000000001F1100006662782F41324237324542322D394132312D343044442D423646
310
352D3630363733353436333634342F6469726563746F72792E786D6C504B01021400140006080800C26C8946BA068314FB000000A00100003B00000000000000000000000000021200006662782F41324237324542322D394132312D343044442D423646352D3630363733353436333634342F7265736F75726365732F636F
310
72652E786D6C504B0506000000000E000E0080040000561300000000
  0
XRECORD
  5
17
102
{ACAD_REACTORS
330
12
102
}
330
12
100
AcDbXrecord
280
     1
270
     1
271
     1
  0
XRECORD
  5
16
102
{ACAD_REACTORS
330
12
102
}
330
12
100
AcDbXrecord
280
     1
270
     1
271
     1
  0
XRECORD
  5
18
102
{ACAD_REACTORS
330
12
102
}
330
12
100
AcDbXrecord
280
     1
270
     1
271
     1
  0
XRECORD
  5
15
102
{ACAD_REACTORS
330
12
102
}
330
12
100
AcDbXrecord
280
     1
270
     1
271
     1
  0
XRECORD
  5
23E0
102
{ACAD_REACTORS
330
22
102
}
330
22
100
AcDbXrecord
280
     1
102
MATERIAL
148
0.0
149
0.0
149
0.0
 93
        0
 94
      127
282
     0
 72
     0
 77
     0
171
     0
175
     0
179
     0
273
     0
  0
XRECORD
  5
24
102
{ACAD_REACTORS
330
22
102
}
330
22
100
AcDbXrecord
280
     1
270
     1
271
     1
  0
XRECORD
  5
23
102
{ACAD_REACTORS
330
22
102
}
330
22
100
AcDbXrecord
280
     1
270
     1
271
     1
  0
XRECORD
  5
27
102
{ACAD_REACTORS
330
22
102
}
330
22
100
AcDbXrecord
280
     1
270
     1
271
     1
  0
XRECORD
  5
26
102
{ACAD_REACTORS
330
22
102
}
330
22
100
AcDbXrecord
280
     1
270
     1
271
     1
  0
XRECORD
  5
28
102
{ACAD_REACTORS
330
22
102
}
330
22
100
AcDbXrecord
280
     1
270
     1
271
     1
  0
XRECORD
  5
25
102
{ACAD_REACTORS
330
22
102
}
330
22
100
AcDbXrecord
280
     1
270
     1
271
     1
  0
XRECORD
  5
2434
102
{ACAD_REACTORS
330
2433
102
}
330
2433
100
AcDbXrecord
280
     1
102
ACAD_ROUNDTRIP_2012_MLEADER_STYLE
298
     1
  0
CELLSTYLEMAP
  5
2432
102
{ACAD_REACTORS
330
2334
102
}
330
2334
100
AcDbCellStyleMap
 90
        3
300
CELLSTYLE
  1
TABLEFORMAT_BEGIN
 90
        5
170
     1
 91
        0
 92
    32768
 62
   257
 93
        1
300
CONTENTFORMAT
  1
CONTENTFORMAT_BEGIN
 90
        0
 91
        0
 92
      512
 93
        0
300

 40
0.0
140
1.0
 94
        5
 62
     0
340
55
144
0.25
309
CONTENTFORMAT_END
171
     1
301
MARGIN
  1
CELLMARGIN_BEGIN
 40
0.06
 40
0.06
 40
0.06
 40
0.06
 40
0.18
 40
0.18
309
CELLMARGIN_END
 94
        6
 95
        1
302
GRIDFORMAT
  1
GRIDFORMAT_BEGIN
 90
        0
 91
        1
 62
     0
 92
       -2
340
0
 93
        0
 40
0.045
309
GRIDFORMAT_END
 95
        2
302
GRIDFORMAT
  1
GRIDFORMAT_BEGIN
 90
        0
 91
        1
 62
     0
 92
       -2
340
0
 93
        0
 40
0.045
309
GRIDFORMAT_END
 95
        4
302
GRIDFORMAT
  1
GRIDFORMAT_BEGIN
 90
        0
 91
        1
 62
     0
 92
       -2
340
0
 93
        0
 40
0.045
309
GRIDFORMAT_END
 95
        8
302
GRIDFORMAT
  1
GRIDFORMAT_BEGIN
 90
        0
 91
        1
 62
     0
 92
       -2
340
0
 93
        0
 40
0.045
309
GRIDFORMAT_END
 95
       16
302
GRIDFORMAT
  1
GRIDFORMAT_BEGIN
 90
        0
 91
        1
 62
     0
 92
       -2
340
0
 93
        0
 40
0.045
309
GRIDFORMAT_END
 95
       32
302
GRIDFORMAT
  1
GRIDFORMAT_BEGIN
 90
        0
 91
        1
 62
     0
 92
       -2
340
0
 93
        0
 40
0.045
309
GRIDFORMAT_END
309
TABLEFORMAT_END
  1
CELLSTYLE_BEGIN
 90
        1
 91
        1
300
_TITLE
309
CELLSTYLE_END
300
CELLSTYLE
  1
TABLEFORMAT_BEGIN
 90
        5
170
     1
 91
        0
 92
        0
 62
   257
 93
        1
300
CONTENTFORMAT
  1
CONTENTFORMAT_BEGIN
 90
        0
 91
        0
 92
      512
 93
        0
300

 40
0.0
140
1.0
 94
        5
 62
     0
340
55
144
0.18
309
CONTENTFORMAT_END
171
     1
301
MARGIN
  1
CELLMARGIN_BEGIN
 40
0.06
 40
0.06
 40
0.06
 40
0.06
 40
0.18
 40
0.18
309
CELLMARGIN_END
 94
        6
 95
        1
302
GRIDFORMAT
  1
GRIDFORMAT_BEGIN
 90
        0
 91
        1
 62
     0
 92
       -2
340
0
 93
        0
 40
0.045
309
GRIDFORMAT_END
 95
        2
302
GRIDFORMAT
  1
GRIDFORMAT_BEGIN
 90
        0
 91
        1
 62
     0
 92
       -2
340
0
 93
        0
 40
0.045
309
GRIDFORMAT_END
 95
        4
302
GRIDFORMAT
  1
GRIDFORMAT_BEGIN
 90
        0
 91
        1
 62
     0
 92
       -2
340
0
 93
        0
 40
0.045
309
GRIDFORMAT_END
 95
        8
302
GRIDFORMAT
  1
GRIDFORMAT_BEGIN
 90
        0
 91
        1
 62
     0
 92
       -2
340
0
 93
        0
 40
0.045
309
GRIDFORMAT_END
 95
       16
302
GRIDFORMAT
  1
GRIDFORMAT_BEGIN
 90
        0
 91
        1
 62
     0
 92
       -2
340
0
 93
        0
 40
0.045
309
GRIDFORMAT_END
 95
       32
302
GRIDFORMAT
  1
GRIDFORMAT_BEGIN
 90
        0
 91
        1
 62
     0
 92
       -2
340
0
 93
        0
 40
0.045
309
GRIDFORMAT_END
309
TABLEFORMAT_END
  1
CELLSTYLE_BEGIN
 90
        2
 91
        1
300
_HEADER
309
CELLSTYLE_END
300
CELLSTYLE
  1
TABLEFORMAT_BEGIN
 90
        5
170
     1
 91
        0
 92
        0
 62
   257
 93
        1
300
CONTENTFORMAT
  1
CONTENTFORMAT_BEGIN
 90
        0
 91
        0
 92
      512
 93
        0
300

 40
0.0
140
1.0
 94
        2
 62
     0
340
55
144
0.18
309
CONTENTFORMAT_END
171
     1
301
MARGIN
  1
CELLMARGIN_BEGIN
 40
0.06
 40
0.06
 40
0.06
 40
0.06
 40
0.18
 40
0.18
309
CELLMARGIN_END
 94
        6
 95
        1
302
GRIDFORMAT
  1
GRIDFORMAT_BEGIN
 90
        0
 91
        1
 62
     0
 92
       -2
340
0
 93
        0
 40
0.045
309
GRIDFORMAT_END
 95
        2
302
GRIDFORMAT
  1
GRIDFORMAT_BEGIN
 90
        0
 91
        1
 62
     0
 92
       -2
340
0
 93
        0
 40
0.045
309
GRIDFORMAT_END
 95
        4
302
GRIDFORMAT
  1
GRIDFORMAT_BEGIN
 90
        0
 91
        1
 62
     0
 92
       -2
340
0
 93
        0
 40
0.045
309
GRIDFORMAT_END
 95
        8
302
GRIDFORMAT
  1
GRIDFORMAT_BEGIN
 90
        0
 91
        1
 62
     0
 92
       -2
340
0
 93
        0
 40
0.045
309
GRIDFORMAT_END
 95
       16
302
GRIDFORMAT
  1
GRIDFORMAT_BEGIN
 90
        0
 91
        1
 62
     0
 92
       -2
340
0
 93
        0
 40
0.045
309
GRIDFORMAT_END
 95
       32
302
GRIDFORMAT
  1
GRIDFORMAT_BEGIN
 90
        0
 91
        1
 62
     0
 92
       -2
340
0
 93
        0
 40
0.045
309
GRIDFORMAT_END
309
TABLEFORMAT_END
  1
CELLSTYLE_BEGIN
 90
        3
 91
        2
300
_DATA
309
CELLSTYLE_END
  0
XRECORD
  5
2467
102
{ACAD_REACTORS
330
2334
102
}
330
2334
100
AcDbXrecord
280
     1
102
ACAD_ROUNDTRIP_PRE2007_TABLESTYLE
 90
      512
 91
        0
  1

 92
      512
 93
        0
  2

 94
      512
 95
        0
  3

  0
XRECORD
  5
2442
102
{ACAD_REACTORS
330
2441
102
}
330
2441
100
AcDbXrecord
280
     1
102
RTVSPropertyOp0
 70
     1
102
RTVSPropertyOp1
 70
     1
102
RTVSPropertyOp2
 70
     1
102
RTVSPropertyOp3
 70
     1
102
RTVSPropertyOp4
 70
     1
102
RTVSPropertyOp5
 70
     1
102
RTVSPropertyOp6
 70
     1
102
RTVSPropertyOp7
 70
     1
102
RTVSPropertyOp8
 70
     1
102
RTVSPropertyOp9
 70
     1
102
RTVSPropertyOp10
 70
     1
102
RTVSPropertyOp11
 70
     1
102
RTVSPropertyOp12
 70
     1
102
RTVSPropertyOp13
 70
     1
102
RTVSPropertyOp14
 70
     1
102
RTVSPropertyOp15
 70
     1
102
RTVSPropertyOp16
 70
     1
102
RTVSPropertyOp17
 70
     1
102
RTVSPropertyOp18
 70
     1
102
RTVSPropertyOp19
 70
     1
102
RTVSPropertyOp20
 70
     1
102
RTVSPropertyOp21
 70
     1
102
RTVSPropertyOp22
 70
     1
102
RTVSPropertyOp23
 70
     1
102
RTVSPropertyOp24
 70
     1
102
RTVSPropertyOp25
 70
     1
102
RTVSPropertyOp26
 70
     1
102
RTVSPropertyOp27
 70
     1
102
RTVSPropertyOp28
 70
     1
102
RTVSPropertyOp29
 70
     1
102
RTVSPropertyOp30
 70
     1
102
RTVSPropertyOp31
 70
     1
102
RTVSPropertyOp32
 70
     1
  0
XRECORD
  5
2440
102
{ACAD_REACTORS
330
243F
102
}
330
243F
100
AcDbXrecord
280
     1
102
RTVSPropertyOp0
 70
     1
102
RTVSPropertyOp1
 70
     1
102
RTVSPropertyOp2
 70
     1
102
RTVSPropertyOp3
 70
     1
102
RTVSPropertyOp4
 70
     1
102
RTVSPropertyOp5
 70
     1
102
RTVSPropertyOp6
 70
     1
102
RTVSPropertyOp7
 70
     1
102
RTVSPropertyOp8
 70
     1
102
RTVSPropertyOp9
 70
     1
102
RTVSPropertyOp10
 70
     1
102
RTVSPropertyOp11
 70
     1
102
RTVSPropertyOp12
 70
     1
102
RTVSPropertyOp13
 70
     1
102
RTVSPropertyOp14
 70
     1
102
RTVSPropertyOp15
 70
     1
102
RTVSPropertyOp16
 70
     1
102
RTVSPropertyOp17
 70
     1
102
RTVSPropertyOp18
 70
     1
102
RTVSPropertyOp19
 70
     1
102
RTVSPropertyOp20
 70
     1
102
RTVSPropertyOp21
 70
     1
102
RTVSPropertyOp22
 70
     1
102
RTVSPropertyOp23
 70
     1
102
RTVSPropertyOp24
 70
     1
102
RTVSPropertyOp25
 70
     1
102
RTVSPropertyOp26
 70
     1
102
RTVSPropertyOp27
 70
     1
102
RTVSPropertyOp28
 70
     1
102
RTVSPropertyOp29
 70
     1
102
RTVSPropertyOp30
 70
     1
102
RTVSPropertyOp31
 70
     1
102
RTVSPropertyOp32
 70
     1
  0
XRECORD
  5
244E
102
{ACAD_REACTORS
330
244D
102
}
330
244D
100
AcDbXrecord
280
     1
102
RTVSPropertyOp0
 70
     1
102
RTVSPropertyOp1
 70
     1
102
RTVSPropertyOp2
 70
     1
102
RTVSPropertyOp3
 70
     1
102
RTVSPropertyOp4
 70
     1
102
RTVSPropertyOp5
 70
     1
102
RTVSPropertyOp6
 70
     1
102
RTVSPropertyOp7
 70
     1
102
RTVSPropertyOp8
 70
     1
102
RTVSPropertyOp9
 70
     1
102
RTVSPropertyOp10
 70
     1
102
RTVSPropertyOp11
 70
     1
102
RTVSPropertyOp12
 70
     1
102
RTVSPropertyOp13
 70
     1
102
RTVSPropertyOp14
 70
     1
102
RTVSPropertyOp15
 70
     1
102
RTVSPropertyOp16
 70
     1
102
RTVSPropertyOp17
 70
     1
102
RTVSPropertyOp18
 70
     1
102
RTVSPropertyOp19
 70
     1
102
RTVSPropertyOp20
 70
     1
102
RTVSPropertyOp21
 70
     1
102
RTVSPropertyOp22
 70
     1
102
RTVSPropertyOp23
 70
     1
102
RTVSPropertyOp24
 70
     1
102
RTVSPropertyOp25
 70
     1
102
RTVSPropertyOp26
 70
     1
102
RTVSPropertyOp27
 70
     1
102
RTVSPropertyOp28
 70
     1
102
RTVSPropertyOp29
 70
     1
102
RTVSPropertyOp30
 70
     1
102
RTVSPropertyOp31
 70
     1
102
RTVSPropertyOp32
 70
     1
  0
XRECORD
  5
2456
102
{ACAD_REACTORS
330
2455
102
}
330
2455
100
AcDbXrecord
280
     1
102
RTVSPropertyOp0
 70
     1
102
RTVSPropertyOp1
 70
     1
102
RTVSPropertyOp2
 70
     1
102
RTVSPropertyOp3
 70
     1
102
RTVSPropertyOp4
 70
     1
102
RTVSPropertyOp5
 70
     1
102
RTVSPropertyOp6
 70
     1
102
RTVSPropertyOp7
 70
     1
102
RTVSPropertyOp8
 70
     1
102
RTVSPropertyOp9
 70
     1
102
RTVSPropertyOp10
 70
     1
102
RTVSPropertyOp11
 70
     1
102
RTVSPropertyOp12
 70
     1
102
RTVSPropertyOp13
 70
     1
102
RTVSPropertyOp14
 70
     1
102
RTVSPropertyOp15
 70
     1
102
RTVSPropertyOp16
 70
     1
102
RTVSPropertyOp17
 70
     1
102
RTVSPropertyOp18
 70
     1
102
RTVSPropertyOp19
 70
     1
102
RTVSPropertyOp20
 70
     1
102
RTVSPropertyOp21
 70
     1
102
RTVSPropertyOp22
 70
     1
102
RTVSPropertyOp23
 70
     1
102
RTVSPropertyOp24
 70
     1
102
RTVSPropertyOp25
 70
     1
102
RTVSPropertyOp26
 70
     1
102
RTVSPropertyOp27
 70
     1
102
RTVSPropertyOp28
 70
     1
102
RTVSPropertyOp29
 70
     1
102
RTVSPropertyOp30
 70
     1
102
RTVSPropertyOp31
 70
     1
102
RTVSPropertyOp32
 70
     1
  0
XRECORD
  5
2448
102
{ACAD_REACTORS
330
2447
102
}
330
2447
100
AcDbXrecord
280
     1
102
RTVSPropertyOp0
 70
     1
102
RTVSPropertyOp1
 70
     1
102
RTVSPropertyOp2
 70
     1
102
RTVSPropertyOp3
 70
     1
102
RTVSPropertyOp4
 70
     1
102
RTVSPropertyOp5
 70
     1
102
RTVSPropertyOp6
 70
     1
102
RTVSPropertyOp7
 70
     1
102
RTVSPropertyOp8
 70
     1
102
RTVSPropertyOp9
 70
     1
102
RTVSPropertyOp10
 70
     1
102
RTVSPropertyOp11
 70
     1
102
RTVSPropertyOp12
 70
     1
102
RTVSPropertyOp13
 70
     1
102
RTVSPropertyOp14
 70
     1
102
RTVSPropertyOp15
 70
     1
102
RTVSPropertyOp16
 70
     1
102
RTVSPropertyOp17
 70
     1
102
RTVSPropertyOp18
 70
     1
102
RTVSPropertyOp19
 70
     1
102
RTVSPropertyOp20
 70
     1
102
RTVSPropertyOp21
 70
     1
102
RTVSPropertyOp22
 70
     1
102
RTVSPropertyOp23
 70
     1
102
RTVSPropertyOp24
 70
     1
102
RTVSPropertyOp25
 70
     1
102
RTVSPropertyOp26
 70
     1
102
RTVSPropertyOp27
 70
     1
102
RTVSPropertyOp28
 70
     1
102
RTVSPropertyOp29
 70
     1
102
RTVSPropertyOp30
 70
     1
102
RTVSPropertyOp31
 70
     1
102
RTVSPropertyOp32
 70
     1
  0
XRECORD
  5
244C
102
{ACAD_REACTORS
330
244B
102
}
330
244B
100
AcDbXrecord
280
     1
102
RTVSPropertyOp0
 70
     1
102
RTVSPropertyOp1
 70
     1
102
RTVSPropertyOp2
 70
     1
102
RTVSPropertyOp3
 70
     1
102
RTVSPropertyOp4
 70
     1
102
RTVSPropertyOp5
 70
     1
102
RTVSPropertyOp6
 70
     1
102
RTVSPropertyOp7
 70
     1
102
RTVSPropertyOp8
 70
     1
102
RTVSPropertyOp9
 70
     1
102
RTVSPropertyOp10
 70
     1
102
RTVSPropertyOp11
 70
     1
102
RTVSPropertyOp12
 70
     1
102
RTVSPropertyOp13
 70
     1
102
RTVSPropertyOp14
 70
     1
102
RTVSPropertyOp15
 70
     1
102
RTVSPropertyOp16
 70
     1
102
RTVSPropertyOp17
 70
     1
102
RTVSPropertyOp18
 70
     1
102
RTVSPropertyOp19
 70
     1
102
RTVSPropertyOp20
 70
     1
102
RTVSPropertyOp21
 70
     1
102
RTVSPropertyOp22
 70
     1
102
RTVSPropertyOp23
 70
     1
102
RTVSPropertyOp24
 70
     1
102
RTVSPropertyOp25
 70
     1
102
RTVSPropertyOp26
 70
     1
102
RTVSPropertyOp27
 70
     1
102
RTVSPropertyOp28
 70
     1
102
RTVSPropertyOp29
 70
     1
102
RTVSPropertyOp30
 70
     1
102
RTVSPropertyOp31
 70
     1
102
RTVSPropertyOp32
 70
     1
  0
XRECORD
  5
2466
102
{ACAD_REACTORS
330
2465
102
}
330
2465
100
AcDbXrecord
280
     1
102
RTVSPropertyOp0
 70
     0
102
RTVSPropertyOp1
 70
     0
102
RTVSPropertyOp2
 70
     0
102
RTVSPropertyOp3
 70
     0
102
RTVSPropertyOp4
 70
     0
102
RTVSPropertyOp5
 70
     0
102
RTVSPropertyOp6
 70
     0
102
RTVSPropertyOp7
 70
     0
102
RTVSPropertyOp8
 70
     0
102
RTVSPropertyOp9
 70
     0
102
RTVSPropertyOp10
 70
     0
102
RTVSPropertyOp11
 70
     0
102
RTVSPropertyOp12
 70
     0
102
RTVSPropertyOp13
 70
     0
102
RTVSPropertyOp14
 70
     2
102
RTVSPropertyOp15
 70
     0
102
RTVSPropertyOp16
 70
     0
102
RTVSPropertyOp17
 70
     0
102
RTVSPropertyOp18
 70
     0
102
RTVSPropertyOp19
 70
     0
102
RTVSPropertyOp20
 70
     0
102
RTVSPropertyOp21
 70
     0
102
RTVSPropertyOp22
 70
     0
102
RTVSPropertyOp23
 70
     0
102
RTVSPropertyOp24
 70
     0
102
RTVSPropertyOp25
 70
     0
102
RTVSPropertyOp26
 70
     0
102
RTVSPropertyOp27
 70
     0
102
RTVSPropertyOp28
 70
     0
102
RTVSPropertyOp29
 70
     0
102
RTVSPropertyOp30
 70
     0
102
RTVSPropertyOp31
 70
     0
102
RTVSPropertyOp32
 70
     0
  0
XRECORD
  5
2454
102
{ACAD_REACTORS
330
2453
102
}
330
2453
100
AcDbXrecord
280
     1
102
RTVSPropertyOp0
 70
     1
102
RTVSPropertyOp1
 70
     1
102
RTVSPropertyOp2
 70
     1
102
RTVSPropertyOp3
 70
     1
102
RTVSPropertyOp4
 70
     1
102
RTVSPropertyOp5
 70
     1
102
RTVSPropertyOp6
 70
     1
102
RTVSPropertyOp7
 70
     1
102
RTVSPropertyOp8
 70
     1
102
RTVSPropertyOp9
 70
     1
102
RTVSPropertyOp10
 70
     1
102
RTVSPropertyOp11
 70
     1
102
RTVSPropertyOp12
 70
     1
102
RTVSPropertyOp13
 70
     1
102
RTVSPropertyOp14
 70
     1
102
RTVSPropertyOp15
 70
     1
102
RTVSPropertyOp16
 70
     1
102
RTVSPropertyOp17
 70
     1
102
RTVSPropertyOp18
 70
     1
102
RTVSPropertyOp19
 70
     1
102
RTVSPropertyOp20
 70
     1
102
RTVSPropertyOp21
 70
     1
102
RTVSPropertyOp22
 70
     1
102
RTVSPropertyOp23
 70
     1
102
RTVSPropertyOp24
 70
     1
102
RTVSPropertyOp25
 70
     1
102
RTVSPropertyOp26
 70
     1
102
RTVSPropertyOp27
 70
     1
102
RTVSPropertyOp28
 70
     1
102
RTVSPropertyOp29
 70
     1
102
RTVSPropertyOp30
 70
     1
102
RTVSPropertyOp31
 70
     1
102
RTVSPropertyOp32
 70
     1
  0
XRECORD
  5
2438
102
{ACAD_REACTORS
330
2437
102
}
330
2437
100
AcDbXrecord
280
     1
102
RTVSPropertyOp0
 70
     1
102
RTVSPropertyOp1
 70
     1
102
RTVSPropertyOp2
 70
     1
102
RTVSPropertyOp3
 70
     1
102
RTVSPropertyOp4
 70
     1
102
RTVSPropertyOp5
 70
     1
102
RTVSPropertyOp6
 70
     1
102
RTVSPropertyOp7
 70
     1
102
RTVSPropertyOp8
 70
     1
102
RTVSPropertyOp9
 70
     1
102
RTVSPropertyOp10
 70
     1
102
RTVSPropertyOp11
 70
     1
102
RTVSPropertyOp12
 70
     1
102
RTVSPropertyOp13
 70
     1
102
RTVSPropertyOp14
 70
     1
102
RTVSPropertyOp15
 70
     1
102
RTVSPropertyOp16
 70
     1
102
RTVSPropertyOp17
 70
     1
102
RTVSPropertyOp18
 70
     1
102
RTVSPropertyOp19
 70
     1
102
RTVSPropertyOp20
 70
     1
102
RTVSPropertyOp21
 70
     1
102
RTVSPropertyOp22
 70
     1
102
RTVSPropertyOp23
 70
     1
102
RTVSPropertyOp24
 70
     1
102
RTVSPropertyOp25
 70
     1
102
RTVSPropertyOp26
 70
     1
102
RTVSPropertyOp27
 70
     1
102
RTVSPropertyOp28
 70
     1
102
RTVSPropertyOp29
 70
     1
102
RTVSPropertyOp30
 70
     1
102
RTVSPropertyOp31
 70
     1
102
RTVSPropertyOp32
 70
     1
  0
XRECORD
  5
243A
102
{ACAD_REACTORS
330
2439
102
}
330
2439
100
AcDbXrecord
280
     1
102
RTVSPropertyOp0
 70
     1
102
RTVSPropertyOp1
 70
     1
102
RTVSPropertyOp2
 70
     1
102
RTVSPropertyOp3
 70
     1
102
RTVSPropertyOp4
 70
     1
102
RTVSPropertyOp5
 70
     1
102
RTVSPropertyOp6
 70
     1
102
RTVSPropertyOp7
 70
     1
102
RTVSPropertyOp8
 70
     1
102
RTVSPropertyOp9
 70
     1
102
RTVSPropertyOp10
 70
     1
102
RTVSPropertyOp11
 70
     1
102
RTVSPropertyOp12
 70
     1
102
RTVSPropertyOp13
 70
     1
102
RTVSPropertyOp14
 70
     1
102
RTVSPropertyOp15
 70
     1
102
RTVSPropertyOp16
 70
     1
102
RTVSPropertyOp17
 70
     1
102
RTVSPropertyOp18
 70
     1
102
RTVSPropertyOp19
 70
     1
102
RTVSPropertyOp20
 70
     1
102
RTVSPropertyOp21
 70
     1
102
RTVSPropertyOp22
 70
     1
102
RTVSPropertyOp23
 70
     1
102
RTVSPropertyOp24
 70
     1
102
RTVSPropertyOp25
 70
     1
102
RTVSPropertyOp26
 70
     1
102
RTVSPropertyOp27
 70
     1
102
RTVSPropertyOp28
 70
     1
102
RTVSPropertyOp29
 70
     1
102
RTVSPropertyOp30
 70
     1
102
RTVSPropertyOp31
 70
     1
102
RTVSPropertyOp32
 70
     1
  0
XRECORD
  5
243C
102
{ACAD_REACTORS
330
243B
102
}
330
243B
100
AcDbXrecord
280
     1
102
RTVSPropertyOp0
 70
     1
102
RTVSPropertyOp1
 70
     1
102
RTVSPropertyOp2
 70
     1
102
RTVSPropertyOp3
 70
     1
102
RTVSPropertyOp4
 70
     1
102
RTVSPropertyOp5
 70
     1
102
RTVSPropertyOp6
 70
     1
102
RTVSPropertyOp7
 70
     1
102
RTVSPropertyOp8
 70
     1
102
RTVSPropertyOp9
 70
     1
102
RTVSPropertyOp10
 70
     1
102
RTVSPropertyOp11
 70
     1
102
RTVSPropertyOp12
 70
     1
102
RTVSPropertyOp13
 70
     1
102
RTVSPropertyOp14
 70
     1
102
RTVSPropertyOp15
 70
     1
102
RTVSPropertyOp16
 70
     1
102
RTVSPropertyOp17
 70
     1
102
RTVSPropertyOp18
 70
     1
102
RTVSPropertyOp19
 70
     1
102
RTVSPropertyOp20
 70
     1
102
RTVSPropertyOp21
 70
     1
102
RTVSPropertyOp22
 70
     1
102
RTVSPropertyOp23
 70
     1
102
RTVSPropertyOp24
 70
     1
102
RTVSPropertyOp25
 70
     1
102
RTVSPropertyOp26
 70
     1
102
RTVSPropertyOp27
 70
     1
102
RTVSPropertyOp28
 70
     1
102
RTVSPropertyOp29
 70
     1
102
RTVSPropertyOp30
 70
     1
102
RTVSPropertyOp31
 70
     1
102
RTVSPropertyOp32
 70
     1
  0
XRECORD
  5
243E
102
{ACAD_REACTORS
330
243D
102
}
330
243D
100
AcDbXrecord
280
     1
102
RTVSPropertyOp0
 70
     1
102
RTVSPropertyOp1
 70
     1
102
RTVSPropertyOp2
 70
     1
102
RTVSPropertyOp3
 70
     1
102
RTVSPropertyOp4
 70
     1
102
RTVSPropertyOp5
 70
     1
102
RTVSPropertyOp6
 70
     1
102
RTVSPropertyOp7
 70
     1
102
RTVSPropertyOp8
 70
     1
102
RTVSPropertyOp9
 70
     1
102
RTVSPropertyOp10
 70
     1
102
RTVSPropertyOp11
 70
     1
102
RTVSPropertyOp12
 70
     1
102
RTVSPropertyOp13
 70
     1
102
RTVSPropertyOp14
 70
     1
102
RTVSPropertyOp15
 70
     1
102
RTVSPropertyOp16
 70
     1
102
RTVSPropertyOp17
 70
     1
102
RTVSPropertyOp18
 70
     1
102
RTVSPropertyOp19
 70
     1
102
RTVSPropertyOp20
 70
     1
102
RTVSPropertyOp21
 70
     1
102
RTVSPropertyOp22
 70
     1
102
RTVSPropertyOp23
 70
     1
102
RTVSPropertyOp24
 70
     1
102
RTVSPropertyOp25
 70
     1
102
RTVSPropertyOp26
 70
     1
102
RTVSPropertyOp27
 70
     1
102
RTVSPropertyOp28
 70
     1
102
RTVSPropertyOp29
 70
     1
102
RTVSPropertyOp30
 70
     1
102
RTVSPropertyOp31
 70
     1
102
RTVSPropertyOp32
 70
     1
  0
XRECORD
  5
2446
102
{ACAD_REACTORS
330
2445
102
}
330
2445
100
AcDbXrecord
280
     1
102
RTVSPropertyOp0
 70
     1
102
RTVSPropertyOp1
 70
     1
102
RTVSPropertyOp2
 70
     1
102
RTVSPropertyOp3
 70
     1
102
RTVSPropertyOp4
 70
     1
102
RTVSPropertyOp5
 70
     1
102
RTVSPropertyOp6
 70
     1
102
RTVSPropertyOp7
 70
     1
102
RTVSPropertyOp8
 70
     1
102
RTVSPropertyOp9
 70
     1
102
RTVSPropertyOp10
 70
     1
102
RTVSPropertyOp11
 70
     1
102
RTVSPropertyOp12
 70
     1
102
RTVSPropertyOp13
 70
     1
102
RTVSPropertyOp14
 70
     1
102
RTVSPropertyOp15
 70
     1
102
RTVSPropertyOp16
 70
     1
102
RTVSPropertyOp17
 70
     1
102
RTVSPropertyOp18
 70
     1
102
RTVSPropertyOp19
 70
     1
102
RTVSPropertyOp20
 70
     1
102
RTVSPropertyOp21
 70
     1
102
RTVSPropertyOp22
 70
     1
102
RTVSPropertyOp23
 70
     1
102
RTVSPropertyOp24
 70
     1
102
RTVSPropertyOp25
 70
     1
102
RTVSPropertyOp26
 70
     1
102
RTVSPropertyOp27
 70
     1
102
RTVSPropertyOp28
 70
     1
102
RTVSPropertyOp29
 70
     1
102
RTVSPropertyOp30
 70
     1
102
RTVSPropertyOp31
 70
     1
102
RTVSPropertyOp32
 70
     1
  0
XRECORD
  5
2462
102
{ACAD_REACTORS
330
2461
102
}
330
2461
100
AcDbXrecord
280
     1
102
RTVSPropertyOp0
 70
     0
102
RTVSPropertyOp1
 70
     0
102
RTVSPropertyOp2
 70
     0
102
RTVSPropertyOp3
 70
     0
102
RTVSPropertyOp4
 70
     0
102
RTVSPropertyOp5
 70
     0
102
RTVSPropertyOp6
 70
     0
102
RTVSPropertyOp7
 70
     0
102
RTVSPropertyOp8
 70
     0
102
RTVSPropertyOp9
 70
     0
102
RTVSPropertyOp10
 70
     0
102
RTVSPropertyOp11
 70
     0
102
RTVSPropertyOp12
 70
     0
102
RTVSPropertyOp13
 70
     0
102
RTVSPropertyOp14
 70
     2
102
RTVSPropertyOp15
 70
     0
102
RTVSPropertyOp16
 70
     0
102
RTVSPropertyOp17
 70
     0
102
RTVSPropertyOp18
 70
     0
102
RTVSPropertyOp19
 70
     0
102
RTVSPropertyOp20
 70
     0
102
RTVSPropertyOp21
 70
     0
102
RTVSPropertyOp22
 70
     0
102
RTVSPropertyOp23
 70
     0
102
RTVSPropertyOp24
 70
     0
102
RTVSPropertyOp25
 70
     0
102
RTVSPropertyOp26
 70
     0
102
RTVSPropertyOp27
 70
     0
102
RTVSPropertyOp28
 70
     0
102
RTVSPropertyOp29
 70
     0
102
RTVSPropertyOp30
 70
     0
102
RTVSPropertyOp31
 70
     0
102
RTVSPropertyOp32
 70
     0
  0
XRECORD
  5
2452
102
{ACAD_REACTORS
330
2451
102
}
330
2451
100
AcDbXrecord
280
     1
102
RTVSPropertyOp0
 70
     1
102
RTVSPropertyOp1
 70
     1
102
RTVSPropertyOp2
 70
     1
102
RTVSPropertyOp3
 70
     1
102
RTVSPropertyOp4
 70
     1
102
RTVSPropertyOp5
 70
     1
102
RTVSPropertyOp6
 70
     1
102
RTVSPropertyOp7
 70
     1
102
RTVSPropertyOp8
 70
     1
102
RTVSPropertyOp9
 70
     1
102
RTVSPropertyOp10
 70
     1
102
RTVSPropertyOp11
 70
     1
102
RTVSPropertyOp12
 70
     1
102
RTVSPropertyOp13
 70
     1
102
RTVSPropertyOp14
 70
     1
102
RTVSPropertyOp15
 70
     1
102
RTVSPropertyOp16
 70
     1
102
RTVSPropertyOp17
 70
     1
102
RTVSPropertyOp18
 70
     1
102
RTVSPropertyOp19
 70
     1
102
RTVSPropertyOp20
 70
     1
102
RTVSPropertyOp21
 70
     1
102
RTVSPropertyOp22
 70
     1
102
RTVSPropertyOp23
 70
     1
102
RTVSPropertyOp24
 70
     1
102
RTVSPropertyOp25
 70
     1
102
RTVSPropertyOp26
 70
     1
102
RTVSPropertyOp27
 70
     1
102
RTVSPropertyOp28
 70
     1
102
RTVSPropertyOp29
 70
     1
102
RTVSPropertyOp30
 70
     1
102
RTVSPropertyOp31
 70
     1
102
RTVSPropertyOp32
 70
     1
  0
XRECORD
  5
2464
102
{ACAD_REACTORS
330
2463
102
}
330
2463
100
AcDbXrecord
280
     1
102
RTVSPropertyOp0
 70
     0
102
RTVSPropertyOp1
 70
     0
102
RTVSPropertyOp2
 70
     0
102
RTVSPropertyOp3
 70
     0
102
RTVSPropertyOp4
 70
     0
102
RTVSPropertyOp5
 70
     0
102
RTVSPropertyOp6
 70
     0
102
RTVSPropertyOp7
 70
     0
102
RTVSPropertyOp8
 70
     0
102
RTVSPropertyOp9
 70
     0
102
RTVSPropertyOp10
 70
     0
102
RTVSPropertyOp11
 70
     0
102
RTVSPropertyOp12
 70
     0
102
RTVSPropertyOp13
 70
     0
102
RTVSPropertyOp14
 70
     2
102
RTVSPropertyOp15
 70
     0
102
RTVSPropertyOp16
 70
     0
102
RTVSPropertyOp17
 70
     0
102
RTVSPropertyOp18
 70
     0
102
RTVSPropertyOp19
 70
     0
102
RTVSPropertyOp20
 70
     0
102
RTVSPropertyOp21
 70
     0
102
RTVSPropertyOp22
 70
     0
102
RTVSPropertyOp23
 70
     0
102
RTVSPropertyOp24
 70
     0
102
RTVSPropertyOp25
 70
     0
102
RTVSPropertyOp26
 70
     0
102
RTVSPropertyOp27
 70
     0
102
RTVSPropertyOp28
 70
     0
102
RTVSPropertyOp29
 70
     0
102
RTVSPropertyOp30
 70
     0
102
RTVSPropertyOp31
 70
     0
102
RTVSPropertyOp32
 70
     0
  0
XRECORD
  5
244A
102
{ACAD_REACTORS
330
2449
102
}
330
2449
100
AcDbXrecord
280
     1
102
RTVSPropertyOp0
 70
     1
102
RTVSPropertyOp1
 70
     1
102
RTVSPropertyOp2
 70
     1
102
RTVSPropertyOp3
 70
     1
102
RTVSPropertyOp4
 70
     1
102
RTVSPropertyOp5
 70
     1
102
RTVSPropertyOp6
 70
     1
102
RTVSPropertyOp7
 70
     1
102
RTVSPropertyOp8
 70
     1
102
RTVSPropertyOp9
 70
     1
102
RTVSPropertyOp10
 70
     1
102
RTVSPropertyOp11
 70
     1
102
RTVSPropertyOp12
 70
     1
102
RTVSPropertyOp13
 70
     1
102
RTVSPropertyOp14
 70
     1
102
RTVSPropertyOp15
 70
     1
102
RTVSPropertyOp16
 70
     1
102
RTVSPropertyOp17
 70
     1
102
RTVSPropertyOp18
 70
     1
102
RTVSPropertyOp19
 70
     1
102
RTVSPropertyOp20
 70
     1
102
RTVSPropertyOp21
 70
     1
102
RTVSPropertyOp22
 70
     1
102
RTVSPropertyOp23
 70
     1
102
RTVSPropertyOp24
 70
     1
102
RTVSPropertyOp25
 70
     1
102
RTVSPropertyOp26
 70
     1
102
RTVSPropertyOp27
 70
     1
102
RTVSPropertyOp28
 70
     1
102
RTVSPropertyOp29
 70
     1
102
RTVSPropertyOp30
 70
     1
102
RTVSPropertyOp31
 70
     1
102
RTVSPropertyOp32
 70
     1
  0
XRECORD
  5
2460
102
{ACAD_REACTORS
330
245F
102
}
330
245F
100
AcDbXrecord
280
     1
102
RTVSPropertyOp0
 70
     1
102
RTVSPropertyOp1
 70
     1
102
RTVSPropertyOp2
 70
     1
102
RTVSPropertyOp3
 70
     1
102
RTVSPropertyOp4
 70
     1
102
RTVSPropertyOp5
 70
     1
102
RTVSPropertyOp6
 70
     1
102
RTVSPropertyOp7
 70
     1
102
RTVSPropertyOp8
 70
     1
102
RTVSPropertyOp9
 70
     1
102
RTVSPropertyOp10
 70
     1
102
RTVSPropertyOp11
 70
     1
102
RTVSPropertyOp12
 70
     1
102
RTVSPropertyOp13
 70
     1
102
RTVSPropertyOp14
 70
     1
102
RTVSPropertyOp15
 70
     1
102
RTVSPropertyOp16
 70
     1
102
RTVSPropertyOp17
 70
     1
102
RTVSPropertyOp18
 70
     1
102
RTVSPropertyOp19
 70
     1
102
RTVSPropertyOp20
 70
     1
102
RTVSPropertyOp21
 70
     1
102
RTVSPropertyOp22
 70
     1
102
RTVSPropertyOp23
 70
     1
102
RTVSPropertyOp24
 70
     1
102
RTVSPropertyOp25
 70
     1
102
RTVSPropertyOp26
 70
     1
102
RTVSPropertyOp27
 70
     1
102
RTVSPropertyOp28
 70
     1
102
RTVSPropertyOp29
 70
     1
102
RTVSPropertyOp30
 70
     1
102
RTVSPropertyOp31
 70
     1
102
RTVSPropertyOp32
 70
     1
  0
XRECORD
  5
245E
102
{ACAD_REACTORS
330
245D
102
}
330
245D
100
AcDbXrecord
280
     1
102
RTVSPropertyOp0
 70
     1
102
RTVSPropertyOp1
 70
     1
102
RTVSPropertyOp2
 70
     1
102
RTVSPropertyOp3
 70
     1
102
RTVSPropertyOp4
 70
     1
102
RTVSPropertyOp5
 70
     1
102
RTVSPropertyOp6
 70
     1
102
RTVSPropertyOp7
 70
     1
102
RTVSPropertyOp8
 70
     1
102
RTVSPropertyOp9
 70
     1
102
RTVSPropertyOp10
 70
     1
102
RTVSPropertyOp11
 70
     1
102
RTVSPropertyOp12
 70
     1
102
RTVSPropertyOp13
 70
     1
102
RTVSPropertyOp14
 70
     1
102
RTVSPropertyOp15
 70
     1
102
RTVSPropertyOp16
 70
     1
102
RTVSPropertyOp17
 70
     1
102
RTVSPropertyOp18
 70
     1
102
RTVSPropertyOp19
 70
     1
102
RTVSPropertyOp20
 70
     1
102
RTVSPropertyOp21
 70
     1
102
RTVSPropertyOp22
 70
     1
102
RTVSPropertyOp23
 70
     1
102
RTVSPropertyOp24
 70
     1
102
RTVSPropertyOp25
 70
     1
102
RTVSPropertyOp26
 70
     1
102
RTVSPropertyOp27
 70
     1
102
RTVSPropertyOp28
 70
     1
102
RTVSPropertyOp29
 70
     1
102
RTVSPropertyOp30
 70
     1
102
RTVSPropertyOp31
 70
     1
102
RTVSPropertyOp32
 70
     1
  0
XRECORD
  5
2458
102
{ACAD_REACTORS
330
2457
102
}
330
2457
100
AcDbXrecord
280
     1
102
RTVSPropertyOp0
 70
     1
102
RTVSPropertyOp1
 70
     1
102
RTVSPropertyOp2
 70
     1
102
RTVSPropertyOp3
 70
     1
102
RTVSPropertyOp4
 70
     1
102
RTVSPropertyOp5
 70
     1
102
RTVSPropertyOp6
 70
     1
102
RTVSPropertyOp7
 70
     1
102
RTVSPropertyOp8
 70
     1
102
RTVSPropertyOp9
 70
     1
102
RTVSPropertyOp10
 70
     1
102
RTVSPropertyOp11
 70
     1
102
RTVSPropertyOp12
 70
     1
102
RTVSPropertyOp13
 70
     1
102
RTVSPropertyOp14
 70
     1
102
RTVSPropertyOp15
 70
     1
102
RTVSPropertyOp16
 70
     1
102
RTVSPropertyOp17
 70
     1
102
RTVSPropertyOp18
 70
     1
102
RTVSPropertyOp19
 70
     1
102
RTVSPropertyOp20
 70
     1
102
RTVSPropertyOp21
 70
     1
102
RTVSPropertyOp22
 70
     1
102
RTVSPropertyOp23
 70
     1
102
RTVSPropertyOp24
 70
     1
102
RTVSPropertyOp25
 70
     1
102
RTVSPropertyOp26
 70
     1
102
RTVSPropertyOp27
 70
     1
102
RTVSPropertyOp28
 70
     1
102
RTVSPropertyOp29
 70
     1
102
RTVSPropertyOp30
 70
     1
102
RTVSPropertyOp31
 70
     1
102
RTVSPropertyOp32
 70
     1
  0
XRECORD
  5
245A
102
{ACAD_REACTORS
330
2459
102
}
330
2459
100
AcDbXrecord
280
     1
102
RTVSPropertyOp0
 70
     1
102
RTVSPropertyOp1
 70
     1
102
RTVSPropertyOp2
 70
     1
102
RTVSPropertyOp3
 70
     1
102
RTVSPropertyOp4
 70
     1
102
RTVSPropertyOp5
 70
     1
102
RTVSPropertyOp6
 70
     1
102
RTVSPropertyOp7
 70
     1
102
RTVSPropertyOp8
 70
     1
102
RTVSPropertyOp9
 70
     1
102
RTVSPropertyOp10
 70
     1
102
RTVSPropertyOp11
 70
     1
102
RTVSPropertyOp12
 70
     1
102
RTVSPropertyOp13
 70
     1
102
RTVSPropertyOp14
 70
     1
102
RTVSPropertyOp15
 70
     1
102
RTVSPropertyOp16
 70
     1
102
RTVSPropertyOp17
 70
     1
102
RTVSPropertyOp18
 70
     1
102
RTVSPropertyOp19
 70
     1
102
RTVSPropertyOp20
 70
     1
102
RTVSPropertyOp21
 70
     1
102
RTVSPropertyOp22
 70
     1
102
RTVSPropertyOp23
 70
     1
102
RTVSPropertyOp24
 70
     1
102
RTVSPropertyOp25
 70
     1
102
RTVSPropertyOp26
 70
     1
102
RTVSPropertyOp27
 70
     1
102
RTVSPropertyOp28
 70
     1
102
RTVSPropertyOp29
 70
     1
102
RTVSPropertyOp30
 70
     1
102
RTVSPropertyOp31
 70
     1
102
RTVSPropertyOp32
 70
     1
  0
XRECORD
  5
2450
102
{ACAD_REACTORS
330
244F
102
}
330
244F
100
AcDbXrecord
280
     1
102
RTVSPropertyOp0
 70
     1
102
RTVSPropertyOp1
 70
     1
102
RTVSPropertyOp2
 70
     1
102
RTVSPropertyOp3
 70
     1
102
RTVSPropertyOp4
 70
     1
102
RTVSPropertyOp5
 70
     1
102
RTVSPropertyOp6
 70
     1
102
RTVSPropertyOp7
 70
     1
102
RTVSPropertyOp8
 70
     1
102
RTVSPropertyOp9
 70
     1
102
RTVSPropertyOp10
 70
     1
102
RTVSPropertyOp11
 70
     1
102
RTVSPropertyOp12
 70
     1
102
RTVSPropertyOp13
 70
     1
102
RTVSPropertyOp14
 70
     1
102
RTVSPropertyOp15
 70
     1
102
RTVSPropertyOp16
 70
     1
102
RTVSPropertyOp17
 70
     1
102
RTVSPropertyOp18
 70
     1
102
RTVSPropertyOp19
 70
     1
102
RTVSPropertyOp20
 70
     1
102
RTVSPropertyOp21
 70
     1
102
RTVSPropertyOp22
 70
     1
102
RTVSPropertyOp23
 70
     1
102
RTVSPropertyOp24
 70
     1
102
RTVSPropertyOp25
 70
     1
102
RTVSPropertyOp26
 70
     1
102
RTVSPropertyOp27
 70
     1
102
RTVSPropertyOp28
 70
     1
102
RTVSPropertyOp29
 70
     1
102
RTVSPropertyOp30
 70
     1
102
RTVSPropertyOp31
 70
     1
102
RTVSPropertyOp32
 70
     1
  0
XRECORD
  5
2444
102
{ACAD_REACTORS
330
2443
102
}
330
2443
100
AcDbXrecord
280
     1
102
RTVSPropertyOp0
 70
     1
102
RTVSPropertyOp1
 70
     1
102
RTVSPropertyOp2
 70
     1
102
RTVSPropertyOp3
 70
     1
102
RTVSPropertyOp4
 70
     1
102
RTVSPropertyOp5
 70
     1
102
RTVSPropertyOp6
 70
     1
102
RTVSPropertyOp7
 70
     1
102
RTVSPropertyOp8
 70
     1
102
RTVSPropertyOp9
 70
     1
102
RTVSPropertyOp10
 70
     1
102
RTVSPropertyOp11
 70
     1
102
RTVSPropertyOp12
 70
     1
102
RTVSPropertyOp13
 70
     1
102
RTVSPropertyOp14
 70
     1
102
RTVSPropertyOp15
 70
     1
102
RTVSPropertyOp16
 70
     1
102
RTVSPropertyOp17
 70
     1
102
RTVSPropertyOp18
 70
     1
102
RTVSPropertyOp19
 70
     1
102
RTVSPropertyOp20
 70
     1
102
RTVSPropertyOp21
 70
     1
102
RTVSPropertyOp22
 70
     1
102
RTVSPropertyOp23
 70
     1
102
RTVSPropertyOp24
 70
     1
102
RTVSPropertyOp25
 70
     1
102
RTVSPropertyOp26
 70
     1
102
RTVSPropertyOp27
 70
     1
102
RTVSPropertyOp28
 70
     1
102
RTVSPropertyOp29
 70
     1
102
RTVSPropertyOp30
 70
     1
102
RTVSPropertyOp31
 70
     1
102
RTVSPropertyOp32
 70
     1
  0
XRECORD
  5
245C
102
{ACAD_REACTORS
330
245B
102
}
330
245B
100
AcDbXrecord
280
     1
102
RTVSPropertyOp0
 70
     1
102
RTVSPropertyOp1
 70
     1
102
RTVSPropertyOp2
 70
     1
102
RTVSPropertyOp3
 70
     1
102
RTVSPropertyOp4
 70
     1
102
RTVSPropertyOp5
 70
     1
102
RTVSPropertyOp6
 70
     1
102
RTVSPropertyOp7
 70
     1
102
RTVSPropertyOp8
 70
     1
102
RTVSPropertyOp9
 70
     1
102
RTVSPropertyOp10
 70
     1
102
RTVSPropertyOp11
 70
     1
102
RTVSPropertyOp12
 70
     1
102
RTVSPropertyOp13
 70
     1
102
RTVSPropertyOp14
 70
     1
102
RTVSPropertyOp15
 70
     1
102
RTVSPropertyOp16
 70
     1
102
RTVSPropertyOp17
 70
     1
102
RTVSPropertyOp18
 70
     1
102
RTVSPropertyOp19
 70
     1
102
RTVSPropertyOp20
 70
     1
102
RTVSPropertyOp21
 70
     1
102
RTVSPropertyOp22
 70
     1
102
RTVSPropertyOp23
 70
     1
102
RTVSPropertyOp24
 70
     1
102
RTVSPropertyOp25
 70
     1
102
RTVSPropertyOp26
 70
     1
102
RTVSPropertyOp27
 70
     1
102
RTVSPropertyOp28
 70
     1
102
RTVSPropertyOp29
 70
     1
102
RTVSPropertyOp30
 70
     1
102
RTVSPropertyOp31
 70
     1
102
RTVSPropertyOp32
 70
     1
  0
ENDSEC
  0
EOF
