  0
SECTION
  2
HEADER
  9
$ACADVER
  1
AC1009
  9
$INSBASE
 10
0.0
 20
0.0
 30
0.0
  9
$EXTMIN
 10
-4.0
 20
-2.372947
 30
0.0
  9
$EXTMAX
 10
4.960493
 20
3.028767
 30
0.0
  9
$LIMMIN
 10
0.0
 20
0.0
  9
$LIMMAX
 10
12.0
 20
9.0
  9
$ORTHOMODE
 70
     0
  9
$REGENMODE
 70
     1
  9
$FILLMODE
 70
     1
  9
$QTEXTMODE
 70
     0
  9
$MIRRTEXT
 70
     1
  9
$DRAGMODE
 70
     2
  9
$LTSCALE
 40
0.35
  9
$OSMODE
 70
   165
  9
$ATTMODE
 70
     1
  9
$TEXTSIZE
 40
0.168
  9
$TRACEWID
 40
0.05
  9
$TEXTSTYLE
  7
STANDARD
  9
$CLAYER
  8
L
  9
$CELTYPE
  6
BYLAYER
  9
$CECOLOR
 62
   256
  9
$DIMSCALE
 40
1.0
  9
$DIMASZ
 40
0.12
  9
$DIMEXO
 40
0.0625
  9
$DIMDLI
 40
0.38
  9
$DIMRND
 40
0.0
  9
$DIMDLE
 40
0.0
  9
$DIMEXE
 40
0.05
  9
$DIMTP
 40
0.0
  9
$DIMTM
 40
0.0
  9
$DIMTXT
 40
0.125
  9
$DIMCEN
 40
0.09
  9
$DIMTSZ
 40
0.0
  9
$DIMTOL
 70
     0
  9
$DIMLIM
 70
     0
  9
$DIMTIH
 70
     1
  9
$DIMTOH
 70
     1
  9
$DIMSE1
 70
     0
  9
$DIMSE2
 70
     0
  9
$DIMTAD
 70
     0
  9
$DIMZIN
 70
     0
  9
$DIMBLK
  1

  9
$DIMASO
 70
     1
  9
$DIMSHO
 70
     1
  9
$DIMPOST
  1

  9
$DIMAPOST
  1

  9
$DIMALT
 70
     0
  9
$DIMALTD
 70
     2
  9
$DIMALTF
 40
25.4
  9
$DIMLFAC
 40
1.0
  9
$DIMTOFL
 70
     0
  9
$DIMTVP
 40
0.0
  9
$DIMTIX
 70
     0
  9
$DIMSOXD
 70
     0
  9
$DIMSAH
 70
     0
  9
$DIMBLK1
  1

  9
$DIMBLK2
  1

  9
$DIMSTYLE
  2
5P
  9
$DIMCLRD
 70
     0
  9
$DIMCLRE
 70
     0
  9
$DIMCLRT
 70
     0
  9
$DIMTFAC
 40
1.0
  9
$DIMGAP
 40
0.09
  9
$LUNITS
 70
     2
  9
$LUPREC
 70
     3
  9
$SKETCHINC
 40
0.1
  9
$FILLETRAD
 40
0.06
  9
$AUNITS
 70
     1
  9
$AUPREC
 70
     0
  9
$MENU
  1
acad
  9
$ELEVATION
 40
0.0
  9
$PELEVATION
 40
0.0
  9
$THICKNESS
 40
0.0
  9
$LIMCHECK
 70
     0
  9
$BLIPMODE
 70
     0
  9
$CHAMFERA
 40
0.0
  9
$CHAMFERB
 40
0.0
  9
$SKPOLY
 70
     0
  9
$TDCREATE
 40
2449856.453404
  9
$TDUPDATE
 40
2450910.446854
  9
$TDINDWG
 40
0.110265
  9
$TDUSRTIMER
 40
0.110265
  9
$USRTIMER
 70
     1
  9
$ANGBASE
 50
0.0
  9
$ANGDIR
 70
     0
  9
$PDMODE
 70
     0
  9
$PDSIZE
 40
0.0
  9
$PLINEWID
 40
0.0
  9
$COORDS
 70
     1
  9
$SPLFRAME
 70
     0
  9
$SPLINETYPE
 70
     6
  9
$SPLINESEGS
 70
     8
  9
$ATTDIA
 70
     1
  9
$ATTREQ
 70
     1
  9
$HANDLING
 70
     1
  9
$HANDSEED
  5
97B
  9
$SURFTAB1
 70
     6
  9
$SURFTAB2
 70
     6
  9
$SURFTYPE
 70
     6
  9
$SURFU
 70
     6
  9
$SURFV
 70
     6
  9
$UCSNAME
  2

  9
$UCSORG
 10
0.0
 20
0.0
 30
0.0
  9
$UCSXDIR
 10
1.0
 20
0.0
 30
0.0
  9
$UCSYDIR
 10
0.0
 20
1.0
 30
0.0
  9
$PUCSNAME
  2

  9
$PUCSORG
 10
0.0
 20
0.0
 30
0.0
  9
$PUCSXDIR
 10
1.0
 20
0.0
 30
0.0
  9
$PUCSYDIR
 10
0.0
 20
1.0
 30
0.0
  9
$USERI1
 70
     0
  9
$USERI2
 70
     0
  9
$USERI3
 70
     0
  9
$USERI4
 70
     0
  9
$USERI5
 70
     0
  9
$USERR1
 40
0.0
  9
$USERR2
 40
0.0
  9
$USERR3
 40
0.0
  9
$USERR4
 40
0.0
  9
$USERR5
 40
0.0
  9
$WORLDVIEW
 70
     1
  9
$SHADEDGE
 70
     3
  9
$SHADEDIF
 70
    70
  9
$TILEMODE
 70
     1
  9
$MAXACTVP
 70
    16
  9
$PLIMCHECK
 70
     0
  9
$PEXTMIN
 10
1.000000E+020
 20
1.000000E+020
 30
1.000000E+020
  9
$PEXTMAX
 10
-1.000000E+020
 20
-1.000000E+020
 30
-1.000000E+020
  9
$PLIMMIN
 10
0.0
 20
0.0
  9
$PLIMMAX
 10
12.0
 20
9.0
  9
$UNITMODE
 70
     0
  9
$VISRETAIN
 70
     1
  9
$PLINEGEN
 70
     0
  9
$PSLTSCALE
 70
     1
  0
ENDSEC
  0
SECTION
  2
TABLES
  0
TABLE
  2
VPORT
 70
     2
  0
VPORT
  2
*ACTIVE
 70
     0
 10
0.0
 20
0.0
 11
1.0
 21
1.0
 12
0.469116
 22
0.488454
 13
0.0
 23
0.0
 14
0.25
 24
0.25
 15
0.0
 25
0.0
 16
0.0
 26
0.0
 36
1.0
 17
0.0
 27
0.0
 37
0.0
 40
5.782969
 41
1.605903
 42
50.0
 43
0.0
 44
0.0
 50
0.0
 51
0.0
 71
     0
 72
 20000
 73
     1
 74
     0
 75
     0
 76
     0
 77
     0
 78
     0
  0
ENDTAB
  0
TABLE
  2
LTYPE
 70
     6
  0
LTYPE
  2
CONTINUOUS
 70
     0
  3
Solid line
 72
    65
 73
     0
 40
0.0
  0
LTYPE
  2
HIDDEN
 70
     0
  3
__ __ __ __ __ __ __ __ __ __ __ __ __ __ __ __
 72
    65
 73
     2
 40
0.375
 49
0.25
 49
-0.125
  0
LTYPE
  2
15SC_1$0$HIDDEN
 70
     0
  3
__ __ __ __ __ __ __ __ __ __ __ __ __ __ __ __
 72
    65
 73
     2
 40
0.375
 49
0.25
 49
-0.125
  0
LTYPE
  2
C50_BASE$0$HIDDEN
 70
     0
  3
__ __ __ __ __ __ __ __ __ __ __ __ __ __ __ __
 72
    65
 73
     2
 40
0.375
 49
0.25
 49
-0.125
  0
LTYPE
  2
CENTER
 70
     0
  3
Center ____ _ ____ _ ____ _ ____ _ ____ _ ____
 72
    65
 73
     4
 40
2.0
 49
1.25
 49
-0.25
 49
0.25
 49
-0.25
  0
LTYPE
  2
PHANTOM
 70
     0
  3
Phantom ______  __  __  ______  __  __  ______
 72
    65
 73
     6
 40
2.5
 49
1.25
 49
-0.25
 49
0.25
 49
-0.25
 49
0.25
 49
-0.25
  0
ENDTAB
  0
TABLE
  2
LAYER
 70
    19
  0
LAYER
  2
0
 70
     0
 62
     7
  6
CONTINUOUS
  0
LAYER
  2
D
 70
     0
 62
     7
  6
CONTINUOUS
  0
LAYER
  2
H
 70
     0
 62
     4
  6
HIDDEN
  0
LAYER
  2
L
 70
     0
 62
     5
  6
CONTINUOUS
  0
LAYER
  2
DEFPOINTS
 70
     0
 62
    -7
  6
CONTINUOUS
  0
LAYER
  2
C50_2$0$D
 70
     0
 62
     7
  6
CONTINUOUS
  0
LAYER
  2
C50_2$0$L
 70
     0
 62
     5
  6
CONTINUOUS
  0
LAYER
  2
15SC_1$0$H
 70
     0
 62
     4
  6
15SC_1$0$HIDDEN
  0
LAYER
  2
15SC_1$0$L
 70
     0
 62
     5
  6
CONTINUOUS
  0
LAYER
  2
C50_BASE$0$D
 70
     0
 62
     7
  6
CONTINUOUS
  0
LAYER
  2
C50_BASE$0$H
 70
     0
 62
     4
  6
C50_BASE$0$HIDDEN
  0
LAYER
  2
C50_BASE$0$L
 70
     0
 62
     5
  6
CONTINUOUS
  0
LAYER
  2
F
 70
     0
 62
    13
  6
CONTINUOUS
  0
LAYER
  2
C
 70
     0
 62
     1
  6
CENTER
  0
LAYER
  2
P
 70
     0
 62
     2
  6
PHANTOM
  0
LAYER
  2
S
 70
     0
 62
     6
  6
CONTINUOUS
  0
LAYER
  2
AM_TR
 70
     0
 62
     7
  6
CONTINUOUS
  0
LAYER
  2
AM_BM
 70
     0
 62
     7
  6
CONTINUOUS
  0
LAYER
  2
AM_BL
 70
     0
 62
     7
  6
CONTINUOUS
  0
ENDTAB
  0
TABLE
  2
STYLE
 70
     2
  0
STYLE
  2
STANDARD
 70
     0
 40
0.0
 41
1.0
 50
0.0
 71
     0
 42
0.168
  3
txt
  4

  0
STYLE
  2
C50_BASE$0$STANDARD
 70
     0
 40
0.0
 41
1.0
 50
0.0
 71
     0
 42
0.075
  3
txt
  4

  0
ENDTAB
  0
TABLE
  2
VIEW
 70
     0
  0
ENDTAB
  0
TABLE
  2
UCS
 70
     0
  0
ENDTAB
  0
TABLE
  2
APPID
 70
     3
  0
APPID
  2
ACAD
 70
     0
  0
APPID
  2
MCAD_NO_VIS
 70
     0
  0
APPID
  2
ACAD_TEMP_GRAPHIC
 70
     0
  0
ENDTAB
  0
TABLE
  2
DIMSTYLE
 70
     7
  0
DIMSTYLE
  2
PARLEC
 70
     0
  3

  4

  5

  6

  7

 40
1.0
 41
0.12
 42
0.0625
 43
0.38
 44
0.05
 45
0.0
 46
0.0
 47
0.0
 48
0.0
140
0.125
141
0.09
142
0.0
143
25.4
144
1.0
145
0.0
146
1.0
147
0.09
 71
     0
 72
     0
 73
     1
 74
     1
 75
     0
 76
     0
 77
     0
 78
     0
170
     0
171
     2
172
     0
173
     0
174
     0
175
     0
176
     0
177
     0
178
     0
  0
DIMSTYLE
  2
0P
 70
     0
  3

  4

  5

  6

  7

 40
1.0
 41
0.12
 42
0.0625
 43
0.38
 44
0.05
 45
0.0
 46
0.0
 47
0.0
 48
0.0
140
0.125
141
0.09
142
0.0
143
25.4
144
1.0
145
0.0
146
1.0
147
0.09
 71
     0
 72
     0
 73
     1
 74
     1
 75
     0
 76
     0
 77
     0
 78
     0
170
     0
171
     2
172
     0
173
     0
174
     0
175
     0
176
     0
177
     0
178
     0
  0
DIMSTYLE
  2
1P
 70
     0
  3

  4

  5

  6

  7

 40
1.0
 41
0.12
 42
0.0625
 43
0.38
 44
0.05
 45
0.0
 46
0.0
 47
0.0
 48
0.0
140
0.125
141
0.09
142
0.0
143
25.4
144
1.0
145
0.0
146
1.0
147
0.09
 71
     0
 72
     0
 73
     1
 74
     1
 75
     0
 76
     0
 77
     0
 78
     0
170
     0
171
     2
172
     0
173
     0
174
     0
175
     0
176
     0
177
     0
178
     0
  0
DIMSTYLE
  2
2P
 70
     0
  3

  4

  5

  6

  7

 40
1.0
 41
0.12
 42
0.0625
 43
0.38
 44
0.05
 45
0.0
 46
0.0
 47
0.0
 48
0.0
140
0.125
141
0.09
142
0.0
143
25.4
144
1.0
145
0.0
146
1.0
147
0.09
 71
     0
 72
     0
 73
     1
 74
     1
 75
     0
 76
     0
 77
     0
 78
     0
170
     0
171
     2
172
     0
173
     0
174
     0
175
     0
176
     0
177
     0
178
     0
  0
DIMSTYLE
  2
3P
 70
     0
  3

  4

  5

  6

  7

 40
1.0
 41
0.12
 42
0.0625
 43
0.38
 44
0.05
 45
0.0
 46
0.0
 47
0.0
 48
0.0
140
0.125
141
0.09
142
0.0
143
25.4
144
1.0
145
0.0
146
1.0
147
0.09
 71
     0
 72
     0
 73
     1
 74
     1
 75
     0
 76
     0
 77
     0
 78
     0
170
     0
171
     2
172
     0
173
     0
174
     0
175
     0
176
     0
177
     0
178
     0
  0
DIMSTYLE
  2
4P
 70
     0
  3

  4

  5

  6

  7

 40
1.0
 41
0.12
 42
0.0625
 43
0.38
 44
0.05
 45
0.0
 46
0.0
 47
0.0
 48
0.0
140
0.125
141
0.09
142
0.0
143
25.4
144
1.0
145
0.0
146
1.0
147
0.09
 71
     0
 72
     0
 73
     1
 74
     1
 75
     0
 76
     0
 77
     0
 78
     0
170
     0
171
     2
172
     0
173
     0
174
     0
175
     0
176
     0
177
     0
178
     0
  0
DIMSTYLE
  2
5P
 70
     0
  3

  4

  5

  6

  7

 40
1.0
 41
0.12
 42
0.0625
 43
0.38
 44
0.05
 45
0.0
 46
0.0
 47
0.0
 48
0.0
140
0.125
141
0.09
142
0.0
143
25.4
144
1.0
145
0.0
146
1.0
147
0.09
 71
     0
 72
     0
 73
     1
 74
     1
 75
     0
 76
     0
 77
     0
 78
     0
170
     0
171
     2
172
     0
173
     0
174
     0
175
     0
176
     0
177
     0
178
     0
  0
ENDTAB
  0
ENDSEC
  0
SECTION
  2
BLOCKS
  0
BLOCK
  8
0
  2
$MODEL_SPACE
 70
     0
 10
0.0
 20
0.0
 30
0.0
  3
$MODEL_SPACE
  1

  0
ENDBLK
  5
92E
  8
0
  0
BLOCK
 67
     1
  8
0
  2
$PAPER_SPACE
 70
     0
 10
0.0
 20
0.0
 30
0.0
  3
$PAPER_SPACE
  1

  0
ENDBLK
  5
92C
 67
     1
  8
0
  0
BLOCK
  8
0
  6
CONTINUOUS
 62
     7
  2
C50_2
 70
     0
 10
0.0
 20
0.0
 30
0.0
  3
C50_2
  1
C50_2
  0
LINE
  5
58F
  8
C50_2$0$L
 10
0.72
 20
-1.9375
 30
0.0
 11
0.72
 21
-0.51
 31
0.0
  0
LINE
  5
590
  8
C50_2$0$L
 10
0.75
 20
0.0
 30
0.0
 11
0.75
 21
-1.9075
 31
0.0
  0
LINE
  5
591
  8
C50_2$0$L
 10
1.033675
 20
-1.375
 30
0.0
 11
0.78
 21
-1.375
 31
0.0
  0
LINE
  5
592
  8
C50_2$0$L
 10
0.72
 20
-1.9375
 30
0.0
 11
0.75
 21
-1.9075
 31
0.0
  0
ARC
  5
593
  8
C50_2$0$L
 10
0.78
 20
-1.405
 30
0.0
 40
0.03
 50
90.0
 51
180.0
  0
LINE
  5
594
  8
C50_2$0$L
 10
0.75
 20
0.0
 30
0.0
 11
0.75
 21
1.9075
 31
0.0
  0
LINE
  5
595
  8
C50_2$0$L
 10
0.72
 20
1.9375
 30
0.0
 11
0.72
 21
0.51
 31
0.0
  0
LINE
  5
596
  8
C50_2$0$L
 10
0.78
 20
1.375
 30
0.0
 11
1.033675
 21
1.375
 31
0.0
  0
ARC
  5
597
  8
C50_2$0$L
 10
0.78
 20
1.405
 30
0.0
 40
0.03
 50
180.0
 51
270.0
  0
LINE
  5
598
  8
C50_2$0$L
 10
0.72
 20
1.9375
 30
0.0
 11
0.75
 21
1.9075
 31
0.0
  0
INSERT
  5
599
  8
C50_2$0$D
  2
C50_BASE
 10
0.0
 20
0.0
 30
0.0
  0
LINE
  5
59A
  8
C50_2$0$L
 10
0.695204
 20
0.51
 30
0.0
 11
0.75
 21
0.51
 31
0.0
  0
LINE
  5
59B
  8
C50_2$0$L
 10
0.695204
 20
-0.51
 30
0.0
 11
0.75
 21
-0.51
 31
0.0
  0
ENDBLK
  5
31A
  8
0
  6
CONTINUOUS
 62
     7
  0
BLOCK
  8
0
  6
CONTINUOUS
 62
     7
  2
15SC_1
 70
     0
 10
0.0
 20
0.0
 30
0.0
  3
15SC_1
  1
15SC_1
  0
LINE
  5
78A
  8
15SC_1$0$H
 10
-3.068329
 20
0.825
 30
0.0
 11
-0.7
 21
0.996
 31
0.0
  0
LINE
  5
78B
  8
15SC_1$0$H
 10
-3.068329
 20
-0.825
 30
0.0
 11
-0.7
 21
-0.996
 31
0.0
  0
LINE
  5
78C
  8
15SC_1$0$H
 10
-3.45
 20
0.825
 30
0.0
 11
-3.45
 21
-0.825
 31
0.0
  0
LINE
  5
78D
  8
15SC_1$0$H
 10
-3.068329
 20
0.825
 30
0.0
 11
-3.068329
 21
-0.825
 31
0.0
  0
LINE
  5
78E
  8
15SC_1$0$H
 10
-3.45
 20
-0.825
 30
0.0
 11
-3.068329
 21
-0.825
 31
0.0
  0
LINE
  5
78F
  8
15SC_1$0$H
 10
-3.45
 20
0.825
 30
0.0
 11
-3.068329
 21
0.825
 31
0.0
  0
LINE
  5
790
  8
15SC_1$0$L
 10
-1.952
 20
1.375
 30
0.0
 11
-1.952
 21
-1.375
 31
0.0
  0
LINE
  5
791
  8
15SC_1$0$L
 10
-1.89
 20
1.313
 30
0.0
 11
-1.89
 21
-1.313
 31
0.0
  0
LINE
  5
792
  8
15SC_1$0$L
 10
-0.7
 20
1.313
 30
0.0
 11
-0.7
 21
-1.313
 31
0.0
  0
LINE
  5
793
  8
15SC_1$0$L
 10
-1.54
 20
1.313
 30
0.0
 11
-1.54
 21
-1.313
 31
0.0
  0
LINE
  5
794
  8
15SC_1$0$L
 10
-0.64
 20
1.253
 30
0.0
 11
-0.64
 21
0.0
 31
0.0
  0
LINE
  5
795
  8
15SC_1$0$L
 10
-0.64
 20
1.03
 30
0.0
 11
-0.64
 21
0.0
 31
0.0
  0
LINE
  5
796
  8
15SC_1$0$L
 10
-1.89
 20
-1.313
 30
0.0
 11
-0.7
 21
-1.313
 31
0.0
  0
LINE
  5
797
  8
15SC_1$0$L
 10
-1.89
 20
-1.313
 30
0.0
 11
-1.952
 21
-1.375
 31
0.0
  0
LINE
  5
798
  8
15SC_1$0$L
 10
-0.64
 20
0.0
 30
0.0
 11
-0.64
 21
-1.253
 31
0.0
  0
LINE
  5
799
  8
15SC_1$0$L
 10
-0.64
 20
-1.03
 30
0.0
 11
-0.64
 21
0.0
 31
0.0
  0
LINE
  5
79A
  8
15SC_1$0$H
 10
-0.64
 20
-1.137
 30
0.0
 11
-1.54
 21
-1.137
 31
0.0
  0
LINE
  5
79B
  8
15SC_1$0$L
 10
-0.64
 20
-1.253
 30
0.0
 11
-0.7
 21
-1.313
 31
0.0
  0
LINE
  5
79C
  8
15SC_1$0$H
 10
-0.7
 20
-0.996
 30
0.0
 11
-0.64
 21
-1.03
 31
0.0
  0
LINE
  5
79D
  8
15SC_1$0$L
 10
-1.89
 20
1.313
 30
0.0
 11
-0.7
 21
1.313
 31
0.0
  0
LINE
  5
79E
  8
15SC_1$0$L
 10
-1.89
 20
1.313
 30
0.0
 11
-1.952
 21
1.375
 31
0.0
  0
LINE
  5
79F
  8
15SC_1$0$L
 10
-0.7
 20
1.313
 30
0.0
 11
-0.64
 21
1.253
 31
0.0
  0
LINE
  5
7A0
  8
15SC_1$0$H
 10
-0.64
 20
1.137
 30
0.0
 11
-1.54
 21
1.137
 31
0.0
  0
LINE
  5
7A1
  8
15SC_1$0$H
 10
-0.7
 20
0.996
 30
0.0
 11
-0.64
 21
1.03
 31
0.0
  0
ENDBLK
  5
320
  8
0
  6
CONTINUOUS
 62
     7
  0
BLOCK
  8
0
  2
15CN
 70
     0
 10
0.0
 20
0.0
 30
0.0
  3
15CN
  1

  0
LINE
  5
194
  8
L
 10
-1.36
 20
-1.615
 30
0.0
 11
-1.36
 21
1.615
 31
0.0
  0
LINE
  5
195
  8
L
 10
-1.3
 20
1.675
 30
0.0
 11
-0.47
 21
1.675
 31
0.0
  0
LINE
  5
196
  8
L
 10
-0.03
 20
1.675
 30
0.0
 11
-0.03
 21
-1.675
 31
0.0
  0
LINE
  5
197
  8
L
 10
-0.066
 20
1.711
 30
0.0
 11
-0.434
 21
1.711
 31
0.0
  0
LINE
  5
198
  8
L
 10
-0.47
 20
1.675
 30
0.0
 11
-0.434
 21
1.711
 31
0.0
  0
LINE
  5
199
  8
L
 10
-0.03
 20
1.675
 30
0.0
 11
-0.066
 21
1.711
 31
0.0
  0
LINE
  5
19A
  8
L
 10
-0.066
 20
1.711
 30
0.0
 11
-0.066
 21
0.0
 31
0.0
  0
LINE
  5
19B
  8
L
 10
-0.434
 20
1.711
 30
0.0
 11
-0.434
 21
0.0
 31
0.0
  0
LINE
  5
19C
  8
L
 10
-0.47
 20
1.675
 30
0.0
 11
-0.47
 21
0.0
 31
0.0
  0
LINE
  5
19D
  8
L
 10
-0.47
 20
-1.675
 30
0.0
 11
-0.47
 21
0.0
 31
0.0
  0
LINE
  5
19E
  8
L
 10
-0.434
 20
-1.711
 30
0.0
 11
-0.434
 21
0.0
 31
0.0
  0
LINE
  5
19F
  8
L
 10
-0.066
 20
-1.711
 30
0.0
 11
-0.066
 21
0.0
 31
0.0
  0
LINE
  5
1A0
  8
L
 10
-0.03
 20
-1.675
 30
0.0
 11
-0.066
 21
-1.711
 31
0.0
  0
LINE
  5
1A1
  8
L
 10
-0.47
 20
-1.675
 30
0.0
 11
-0.434
 21
-1.711
 31
0.0
  0
LINE
  5
1A2
  8
L
 10
-0.066
 20
-1.711
 30
0.0
 11
-0.434
 21
-1.711
 31
0.0
  0
LINE
  5
1A3
  8
L
 10
-1.3
 20
-1.675
 30
0.0
 11
-0.47
 21
-1.675
 31
0.0
  0
LINE
  5
1A4
  8
L
 10
-1.3
 20
1.675
 30
0.0
 11
-1.36
 21
1.615
 31
0.0
  0
LINE
  5
1A5
  8
L
 10
-1.36
 20
-1.615
 30
0.0
 11
-1.3
 21
-1.675
 31
0.0
  0
LINE
  5
1A6
  8
L
 10
-1.3
 20
-1.675
 30
0.0
 11
-1.3
 21
1.675
 31
0.0
  0
LINE
  5
1A7
  8
L
 10
-0.43
 20
1.711
 30
0.0
 11
-0.43
 21
-1.711
 31
0.0
  0
LINE
  5
1A8
  8
L
 10
0.0
 20
1.1975
 30
0.0
 11
-0.03
 21
1.1975
 31
0.0
  0
LINE
  5
1A9
  8
L
 10
0.0
 20
-1.1975
 30
0.0
 11
-0.03
 21
-1.1975
 31
0.0
  0
LINE
  5
1AA
  8
L
 10
0.0
 20
-1.1975
 30
0.0
 11
0.0
 21
1.1975
 31
0.0
  0
LINE
  5
1AB
  8
D
 10
-0.0035
 20
1.711
 30
0.0
 11
1.322993
 21
1.711
 31
0.0
  0
LINE
  5
1AC
  8
D
 10
-0.0035
 20
-1.711
 30
0.0
 11
1.322993
 21
-1.711
 31
0.0
  0
LINE
  5
1AD
  8
D
 10
1.272993
 20
1.591
 30
0.0
 11
1.272993
 21
0.1525
 31
0.0
  0
LINE
  5
1AE
  8
D
 10
1.272993
 20
-1.591
 30
0.0
 11
1.272993
 21
-0.1525
 31
0.0
  0
SOLID
  5
1AF
  8
D
 10
1.252993
 20
1.591
 30
0.0
 11
1.292993
 21
1.591
 31
0.0
 12
1.272993
 22
1.711
 32
0.0
 13
1.272993
 23
1.711
 33
0.0
  0
SOLID
  5
1B0
  8
D
 10
1.252993
 20
-1.591
 30
0.0
 11
1.292993
 21
-1.591
 31
0.0
 12
1.272993
 22
-1.711
 32
0.0
 13
1.272993
 23
-1.711
 33
0.0
  0
TEXT
  5
1B1
  8
D
 10
1.085493
 20
-0.0625
 30
0.0
 40
0.125
  1
3.43
 72
     4
 11
1.272993
 21
0.0
 31
0.0
  0
POLYLINE
  5
1B2
  8
D
 66
     1
 10
0.0
 20
0.0
 30
0.0
 70
     1
  0
VERTEX
  5
958
  8
D
 10
-1.1955
 20
0.818573
 30
0.0
 42
0.109044
  0
VERTEX
  5
959
  8
D
 10
-1.184546
 20
0.768941
 30
0.0
 42
0.102254
  0
VERTEX
  5
95A
  8
D
 10
-1.152298
 20
0.725471
 30
0.0
 42
0.09392
  0
VERTEX
  5
95B
  8
D
 10
-1.105193
 20
0.697142
 30
0.0
 42
0.088771
  0
VERTEX
  5
95C
  8
D
 10
-1.048
 20
0.686907
 30
0.0
 42
0.088771
  0
VERTEX
  5
95D
  8
D
 10
-0.990807
 20
0.697142
 30
0.0
 42
0.09392
  0
VERTEX
  5
95E
  8
D
 10
-0.943702
 20
0.725471
 30
0.0
 42
0.102254
  0
VERTEX
  5
95F
  8
D
 10
-0.911454
 20
0.768941
 30
0.0
 42
0.109044
  0
VERTEX
  5
960
  8
D
 10
-0.9005
 20
0.818573
 30
0.0
 42
0.109044
  0
VERTEX
  5
961
  8
D
 10
-0.911454
 20
0.868205
 30
0.0
 42
0.102254
  0
VERTEX
  5
962
  8
D
 10
-0.943702
 20
0.911675
 30
0.0
 42
0.09392
  0
VERTEX
  5
963
  8
D
 10
-0.990807
 20
0.940004
 30
0.0
 42
0.088771
  0
VERTEX
  5
964
  8
D
 10
-1.048
 20
0.950239
 30
0.0
 42
0.088771
  0
VERTEX
  5
965
  8
D
 10
-1.105193
 20
0.940004
 30
0.0
 42
0.09392
  0
VERTEX
  5
966
  8
D
 10
-1.152298
 20
0.911675
 30
0.0
 42
0.102254
  0
VERTEX
  5
967
  8
D
 10
-1.184546
 20
0.868205
 30
0.0
 42
0.109044
  0
SEQEND
  5
968
  8
D
  0
POLYLINE
  5
1C4
  8
D
 66
     1
 10
0.0
 20
0.0
 30
0.0
 70
     1
  0
VERTEX
  5
969
  8
D
 10
-1.1955
 20
-0.818573
 30
0.0
 42
0.109044
  0
VERTEX
  5
96A
  8
D
 10
-1.184546
 20
-0.868205
 30
0.0
 42
0.102254
  0
VERTEX
  5
96B
  8
D
 10
-1.152298
 20
-0.911675
 30
0.0
 42
0.09392
  0
VERTEX
  5
96C
  8
D
 10
-1.105193
 20
-0.940004
 30
0.0
 42
0.088771
  0
VERTEX
  5
96D
  8
D
 10
-1.048
 20
-0.950239
 30
0.0
 42
0.088771
  0
VERTEX
  5
96E
  8
D
 10
-0.990807
 20
-0.940004
 30
0.0
 42
0.09392
  0
VERTEX
  5
96F
  8
D
 10
-0.943702
 20
-0.911675
 30
0.0
 42
0.102254
  0
VERTEX
  5
970
  8
D
 10
-0.911454
 20
-0.868205
 30
0.0
 42
0.109044
  0
VERTEX
  5
971
  8
D
 10
-0.9005
 20
-0.818573
 30
0.0
 42
0.109044
  0
VERTEX
  5
972
  8
D
 10
-0.911454
 20
-0.768941
 30
0.0
 42
0.102254
  0
VERTEX
  5
973
  8
D
 10
-0.943702
 20
-0.725471
 30
0.0
 42
0.09392
  0
VERTEX
  5
974
  8
D
 10
-0.990807
 20
-0.697142
 30
0.0
 42
0.088771
  0
VERTEX
  5
975
  8
D
 10
-1.048
 20
-0.686907
 30
0.0
 42
0.088771
  0
VERTEX
  5
976
  8
D
 10
-1.105193
 20
-0.697142
 30
0.0
 42
0.09392
  0
VERTEX
  5
977
  8
D
 10
-1.152298
 20
-0.725471
 30
0.0
 42
0.102254
  0
VERTEX
  5
978
  8
D
 10
-1.184546
 20
-0.768941
 30
0.0
 42
0.109044
  0
SEQEND
  5
979
  8
D
  0
ENDBLK
  5
1D6
  8
0
  0
BLOCK
  8
0
  6
CONTINUOUS
 62
     7
  2
C50_BASE
 70
     0
 10
0.0
 20
0.0
 30
0.0
  3
C50_BASE
  1
C50_BASE
  0
LINE
  5
322
  8
C50_BASE$0$L
 10
0.0
 20
0.0
 30
0.0
 11
0.0
 21
-1.375
 31
0.0
  0
LINE
  5
323
  8
C50_BASE$0$L
 10
0.0
 20
-1.375
 30
0.0
 11
-3.897317
 21
-0.806641
 31
0.0
  0
LINE
  5
324
  8
C50_BASE$0$L
 10
0.0
 20
-1.375
 30
0.0
 11
0.105
 21
-1.375
 31
0.0
  0
ARC
  5
325
  8
C50_BASE$0$L
 10
-3.88241
 20
0.69
 30
0.0
 40
0.11759
 50
97.282949
 51
180.0
  0
LINE
  5
326
  8
C50_BASE$0$H
 10
-4.0
 20
0.5625
 30
0.0
 11
-3.918594
 21
0.5155
 31
0.0
  0
LINE
  5
327
  8
C50_BASE$0$H
 10
-4.0
 20
-0.5625
 30
0.0
 11
-3.918594
 21
-0.5155
 31
0.0
  0
ARC
  5
328
  8
C50_BASE$0$L
 10
-3.88241
 20
-0.69
 30
0.0
 40
0.11759
 50
180.0
 51
262.717051
  0
LINE
  5
329
  8
C50_BASE$0$L
 10
-4.0
 20
-0.69
 30
0.0
 11
-4.0
 21
0.69
 31
0.0
  0
LINE
  5
32A
  8
C50_BASE$0$L
 10
0.0
 20
1.375
 30
0.0
 11
-3.897317
 21
0.806641
 31
0.0
  0
LINE
  5
32B
  8
C50_BASE$0$H
 10
-3.75
 20
-0.5
 30
0.0
 11
-2.25
 21
-0.5
 31
0.0
  0
LINE
  5
32C
  8
C50_BASE$0$H
 10
-3.75
 20
-0.4375
 30
0.0
 11
-2.25
 21
-0.4375
 31
0.0
  0
LINE
  5
32D
  8
C50_BASE$0$H
 10
-3.75
 20
0.4375
 30
0.0
 11
-2.25
 21
0.4375
 31
0.0
  0
LINE
  5
32E
  8
C50_BASE$0$H
 10
-3.75
 20
0.5
 30
0.0
 11
-2.25
 21
0.5
 31
0.0
  0
LINE
  5
32F
  8
C50_BASE$0$H
 10
-3.918594
 20
0.5155
 30
0.0
 11
-3.918594
 21
-0.0025
 31
0.0
  0
LINE
  5
330
  8
C50_BASE$0$H
 10
-3.75
 20
0.0
 30
0.0
 11
-3.75
 21
0.5155
 31
0.0
  0
LINE
  5
331
  8
C50_BASE$0$H
 10
-3.75
 20
0.0
 30
0.0
 11
-3.75
 21
-0.5155
 31
0.0
  0
LINE
  5
332
  8
C50_BASE$0$H
 10
-3.918594
 20
-0.5155
 30
0.0
 11
-3.918594
 21
0.0025
 31
0.0
  0
LINE
  5
333
  8
C50_BASE$0$H
 10
-3.918594
 20
-0.5155
 30
0.0
 11
-3.75
 21
-0.5155
 31
0.0
  0
LINE
  5
334
  8
C50_BASE$0$H
 10
-3.918594
 20
0.5155
 30
0.0
 11
-3.75
 21
0.5155
 31
0.0
  0
LINE
  5
335
  8
C50_BASE$0$H
 10
-2.25
 20
0.5
 30
0.0
 11
-2.25
 21
-0.5
 31
0.0
  0
LINE
  5
336
  8
C50_BASE$0$L
 10
0.0
 20
0.0
 30
0.0
 11
0.0
 21
1.375
 31
0.0
  0
CIRCLE
  5
337
  8
C50_BASE$0$L
 10
0.44
 20
0.0
 30
0.0
 40
0.1875
  0
LINE
  5
338
  8
C50_BASE$0$L
 10
0.125
 20
0.51
 30
0.0
 11
0.695204
 21
0.51
 31
0.0
  0
LINE
  5
339
  8
C50_BASE$0$L
 10
0.0
 20
1.375
 30
0.0
 11
0.105
 21
1.375
 31
0.0
  0
POINT
  5
33A
  8
DEFPOINTS
  6
BYBLOCK
 62
     0
 10
0.0
 20
1.375
 30
0.0
  0
POINT
  5
33B
  8
DEFPOINTS
  6
BYBLOCK
 62
     0
 10
0.0
 20
-1.375
 30
0.0
  0
POINT
  5
33C
  8
DEFPOINTS
  6
BYBLOCK
 62
     0
 10
0.0
 20
1.375
 30
0.0
  0
LINE
  5
33D
  8
C50_BASE$0$L
 10
0.125
 20
-1.9075
 30
0.0
 11
0.125
 21
1.9075
 31
0.0
  0
LINE
  5
33E
  8
C50_BASE$0$L
 10
0.5155
 20
0.51
 30
0.0
 11
0.5155
 21
1.827515
 31
0.0
  0
LINE
  5
33F
  8
C50_BASE$0$L
 10
0.3645
 20
0.51
 30
0.0
 11
0.3645
 21
1.827515
 31
0.0
  0
LINE
  5
340
  8
C50_BASE$0$L
 10
0.579
 20
0.51
 30
0.0
 11
0.579
 21
1.9375
 31
0.0
  0
LINE
  5
341
  8
C50_BASE$0$L
 10
0.301
 20
0.51
 30
0.0
 11
0.301
 21
1.9375
 31
0.0
  0
LINE
  5
342
  8
C50_BASE$0$L
 10
0.579
 20
1.9375
 30
0.0
 11
0.5155
 21
1.827515
 31
0.0
  0
LINE
  5
343
  8
C50_BASE$0$L
 10
0.301
 20
1.9375
 30
0.0
 11
0.3645
 21
1.827515
 31
0.0
  0
LINE
  5
344
  8
C50_BASE$0$L
 10
0.579
 20
1.9375
 30
0.0
 11
0.72
 21
1.9375
 31
0.0
  0
LINE
  5
345
  8
C50_BASE$0$L
 10
0.301
 20
1.9375
 30
0.0
 11
0.155
 21
1.9375
 31
0.0
  0
LINE
  5
346
  8
C50_BASE$0$L
 10
0.155
 20
0.51
 30
0.0
 11
0.155
 21
1.9375
 31
0.0
  0
LINE
  5
347
  8
C50_BASE$0$L
 10
0.125
 20
1.9075
 30
0.0
 11
0.155
 21
1.9375
 31
0.0
  0
LINE
  5
348
  8
C50_BASE$0$L
 10
0.5155
 20
1.797
 30
0.0
 11
0.3645
 21
1.797
 31
0.0
  0
ARC
  5
349
  8
C50_BASE$0$L
 10
0.105
 20
1.395
 30
0.0
 40
0.02
 50
270.0
 51
0.0
  0
LINE
  5
34A
  8
C50_BASE$0$L
 10
0.579
 20
-0.51
 30
0.0
 11
0.579
 21
-1.9375
 31
0.0
  0
LINE
  5
34B
  8
C50_BASE$0$L
 10
0.5155
 20
-0.51
 30
0.0
 11
0.5155
 21
-1.827515
 31
0.0
  0
LINE
  5
34C
  8
C50_BASE$0$L
 10
0.3645
 20
-0.51
 30
0.0
 11
0.3645
 21
-1.827515
 31
0.0
  0
LINE
  5
34D
  8
C50_BASE$0$L
 10
0.301
 20
-0.51
 30
0.0
 11
0.301
 21
-1.9375
 31
0.0
  0
LINE
  5
34E
  8
C50_BASE$0$L
 10
0.155
 20
-0.51
 30
0.0
 11
0.155
 21
-1.9375
 31
0.0
  0
LINE
  5
34F
  8
C50_BASE$0$L
 10
0.579
 20
-1.9375
 30
0.0
 11
0.72
 21
-1.9375
 31
0.0
  0
LINE
  5
350
  8
C50_BASE$0$L
 10
0.301
 20
-1.9375
 30
0.0
 11
0.3645
 21
-1.827515
 31
0.0
  0
LINE
  5
351
  8
C50_BASE$0$L
 10
0.579
 20
-1.9375
 30
0.0
 11
0.5155
 21
-1.827515
 31
0.0
  0
LINE
  5
352
  8
C50_BASE$0$L
 10
0.301
 20
-1.9375
 30
0.0
 11
0.155
 21
-1.9375
 31
0.0
  0
LINE
  5
353
  8
C50_BASE$0$L
 10
0.125
 20
-1.9075
 30
0.0
 11
0.155
 21
-1.9375
 31
0.0
  0
LINE
  5
354
  8
C50_BASE$0$L
 10
0.5155
 20
-1.797
 30
0.0
 11
0.3645
 21
-1.797
 31
0.0
  0
LINE
  5
355
  8
C50_BASE$0$L
 10
0.125
 20
-0.51
 30
0.0
 11
0.695204
 21
-0.51
 31
0.0
  0
ARC
  5
356
  8
C50_BASE$0$L
 10
0.105
 20
-1.395
 30
0.0
 40
0.02
 50
0.0
 51
90.0
  0
SOLID
  5
357
  8
C50_BASE$0$D
 10
-0.371748
 20
1.44279
 30
0.0
 11
-0.408045
 21
1.425982
 31
0.0
 12
-0.339474
 22
1.325493
 32
0.0
 13
-0.339474
 23
1.325493
 33
0.0
  0
LINE
  5
358
  8
C50_BASE$0$D
 10
-0.389896
 20
1.434386
 30
0.0
 11
-1.092609
 21
2.951982
 31
0.0
  0
LINE
  5
359
  8
C50_BASE$0$D
 10
-1.092609
 20
2.951982
 30
0.0
 11
-1.225138
 21
2.951982
 31
0.0
  0
TEXT
  5
35A
  8
C50_BASE$0$D
 10
-2.677478
 20
2.903767
 30
0.0
 40
0.125
  1
50 V-FLANGE
  7
C50_BASE$0$STANDARD
 72
     2
 11
-1.323312
 21
2.966267
 31
0.0
 73
     2
  0
TEXT
  5
35B
  8
C50_BASE$0$D
 10
-3.030563
 20
2.905161
 30
0.0
 40
0.09
  1
CAT
  7
C50_BASE$0$STANDARD
 72
     2
 11
-2.790563
 21
2.950161
 31
0.0
 73
     2
  0
ENDBLK
  5
31D
  8
0
  6
CONTINUOUS
 62
     7
  0
ENDSEC
  0
SECTION
  2
ENTITIES
  0
LINE
  5
2D9
  8
H
 10
-1.05
 20
0.8125
 30
0.0
 11
0.05
 21
0.8125
 31
0.0
  0
LINE
  5
2DA
  8
H
 10
-2.25
 20
0.4375
 30
0.0
 11
-1.870988
 21
0.4375
 31
0.0
  0
LINE
  5
2DB
  8
H
 10
-1.870988
 20
0.4375
 30
0.0
 11
-1.870988
 21
-0.4375
 31
0.0
  0
LINE
  5
2DD
  8
L
 10
1.033675
 20
1.375
 30
0.0
 11
1.548
 21
1.375
 31
0.0
  0
LINE
  5
2DE
  8
H
 10
0.05
 20
0.772
 30
0.0
 11
-1.67
 21
0.772
 31
0.0
  0
LINE
  5
2DF
  8
H
 10
0.05
 20
-0.772
 30
0.0
 11
-1.67
 21
-0.772
 31
0.0
  0
LINE
  5
2E0
  8
L
 10
1.033675
 20
-1.375
 30
0.0
 11
1.548
 21
-1.375
 31
0.0
  0
LINE
  5
2E1
  8
H
 10
-1.05
 20
-0.8125
 30
0.0
 11
0.05
 21
-0.8125
 31
0.0
  0
LINE
  5
2E2
  8
H
 10
-1.05
 20
0.8125
 30
0.0
 11
-1.05
 21
-0.8125
 31
0.0
  0
LINE
  5
2E3
  8
H
 10
-1.67
 20
0.772
 30
0.0
 11
-1.67
 21
-0.772
 31
0.0
  0
POINT
  5
2E4
  8
DEFPOINTS
  6
BYBLOCK
 62
     0
 10
-1.67
 20
-0.772
 30
0.0
  0
POINT
  5
2E5
  8
DEFPOINTS
  6
BYBLOCK
 62
     0
 10
-1.05
 20
-0.8125
 30
0.0
  0
POINT
  5
2E6
  8
DEFPOINTS
  6
BYBLOCK
 62
     0
 10
0.05
 20
-0.830068
 30
0.0
  0
POINT
  5
2E7
  8
DEFPOINTS
  6
BYBLOCK
 62
     0
 10
2.86
 20
-1.258068
 30
0.0
  0
LINE
  5
2E8
  8
H
 10
-1.67
 20
0.772
 30
0.0
 11
-1.870988
 21
0.4375
 31
0.0
  0
LINE
  5
2E9
  8
H
 10
-2.25
 20
-0.4375
 30
0.0
 11
-1.870988
 21
-0.4375
 31
0.0
  0
LINE
  5
2EA
  8
H
 10
-1.67
 20
-0.772
 30
0.0
 11
-1.870988
 21
-0.4375
 31
0.0
  0
INSERT
  5
2EC
  8
0
  2
15CN
 10
3.5
 20
0.0
 30
0.0
  0
LINE
  5
2EF
  8
L
 10
-2.898698
 20
-0.085794
 30
0.0
 11
-2.836198
 21
-0.085794
 31
0.0
  0
LINE
  5
2F0
  8
L
 10
-2.898698
 20
0.189206
 30
0.0
 11
-2.836198
 21
0.189206
 31
0.0
  0
ARC
  5
2F1
  8
L
 10
-3.221251
 20
0.023706
 30
0.0
 40
0.1095
 50
0.018858
 51
278.071967
  0
CIRCLE
  5
2F2
  8
L
 10
-3.221251
 20
0.023706
 30
0.0
 40
0.05
  0
ARC
  5
2F3
  8
L
 10
-3.221251
 20
0.023706
 30
0.0
 40
0.1095
 50
0.018858
 51
278.071967
  0
LINE
  5
2F4
  8
L
 10
-3.503791
 20
0.032577
 30
0.0
 11
-3.503791
 21
-0.085794
 31
0.0
  0
LINE
  5
2F5
  8
L
 10
-3.566291
 20
0.079628
 30
0.0
 11
-3.566291
 21
-0.085794
 31
0.0
  0
LINE
  5
2F6
  8
L
 10
-3.566291
 20
-0.085794
 30
0.0
 11
-3.503791
 21
-0.085794
 31
0.0
  0
CIRCLE
  5
2F7
  8
L
 10
-3.456791
 20
0.079628
 30
0.0
 40
0.05
  0
ARC
  5
2F8
  8
L
 10
-3.456791
 20
0.079628
 30
0.0
 40
0.1095
 50
269.890544
 51
179.99999
  0
LINE
  5
2F9
  8
L
 10
-3.503791
 20
0.032577
 30
0.0
 11
-3.457
 21
-0.029872
 31
0.0
  0
LINE
  5
2FA
  8
L
 10
-2.898698
 20
0.189206
 30
0.0
 11
-2.898698
 21
-0.085794
 31
0.0
  0
LINE
  5
2FB
  8
L
 10
-3.019217
 20
0.053668
 30
0.0
 11
-3.018941
 21
-0.085794
 31
0.0
  0
LINE
  5
2FC
  8
L
 10
-3.081717
 20
0.053668
 30
0.0
 11
-3.081441
 21
-0.085794
 31
0.0
  0
LINE
  5
2FD
  8
L
 10
-3.111751
 20
0.023742
 30
0.0
 11
-3.111715
 21
-0.085794
 31
0.0
  0
LINE
  5
2FE
  8
L
 10
-3.174237
 20
-0.019179
 30
0.0
 11
-3.205876
 21
-0.084709
 31
0.0
  0
LINE
  5
2FF
  8
L
 10
-3.174237
 20
-0.019179
 30
0.0
 11
-3.174215
 21
-0.085794
 31
0.0
  0
LINE
  5
300
  8
L
 10
-3.111751
 20
0.023742
 30
0.0
 11
-3.111715
 21
-0.085722
 31
0.0
  0
LINE
  5
301
  8
L
 10
-3.081441
 20
-0.085794
 30
0.0
 11
-3.018941
 21
-0.085794
 31
0.0
  0
LINE
  5
302
  8
L
 10
-3.174215
 20
-0.085794
 30
0.0
 11
-3.111715
 21
-0.085794
 31
0.0
  0
ARC
  5
303
  8
L
 10
-3.002179
 20
0.053668
 30
0.0
 40
0.079538
 50
18.846034
 51
180.226252
  0
LINE
  5
304
  8
L
 10
-2.926906
 20
0.079361
 30
0.0
 11
-2.9693
 21
0.055708
 31
0.0
  0
ARC
  5
305
  8
L
 10
-2.994217
 20
0.053668
 30
0.0
 40
0.025
 50
4.679095
 51
180.226252
  0
ARC
  5
306
  8
L
 10
-2.469911
 20
0.023706
 30
0.0
 40
0.1095
 50
30.701399
 51
270.0
  0
ARC
  5
307
  8
L
 10
-2.699992
 20
0.023706
 30
0.0
 40
0.05625
 50
235.5219
 51
332.233922
  0
LINE
  5
308
  8
L
 10
-2.836198
 20
0.189206
 30
0.0
 11
-2.836198
 21
-0.085794
 31
0.0
  0
ARC
  5
309
  8
L
 10
-2.699992
 20
0.023706
 30
0.0
 40
0.1095
 50
14.507251
 51
328.258317
  0
ARC
  5
30A
  8
L
 10
-2.699992
 20
0.023706
 30
0.0
 40
0.05625
 50
64.071476
 51
172.253555
  0
LINE
  5
30B
  8
L
 10
-2.675397
 20
0.074294
 30
0.0
 11
-2.755729
 21
0.031288
 31
0.0
  0
LINE
  5
30C
  8
L
 10
-2.593983
 20
0.051136
 30
0.0
 11
-2.731835
 21
-0.022663
 31
0.0
  0
LINE
  5
30D
  8
L
 10
-2.650219
 20
-0.002499
 30
0.0
 11
-2.60687
 21
-0.033901
 31
0.0
  0
LINE
  5
30E
  8
L
 10
-2.333045
 20
-0.032544
 30
0.0
 11
-2.360586
 21
-0.085794
 31
0.0
  0
LINE
  5
30F
  8
L
 10
-2.469911
 20
-0.085794
 30
0.0
 11
-2.360586
 21
-0.085794
 31
0.0
  0
LINE
  5
310
  8
L
 10
-2.469911
 20
-0.032544
 30
0.0
 11
-2.333045
 21
-0.032544
 31
0.0
  0
LINE
  5
311
  8
L
 10
-2.375759
 20
0.079613
 30
0.0
 11
-2.425271
 21
0.05793
 31
0.0
  0
ARC
  5
312
  8
L
 10
-2.469911
 20
0.023706
 30
0.0
 40
0.05625
 50
37.476042
 51
270.0
  0
TEXT
  5
313
  8
0
 10
-3.462989
 20
-0.278784
 30
0.0
 40
0.125
  1
C50-15SC4
  0
LINE
  5
82B
  8
L
 10
-1.15
 20
0.74
 30
0.0
 11
-1.15
 21
0.0
 31
0.0
  0
LINE
  5
82C
  8
H
 10
-0.523
 20
0.763
 30
0.0
 11
-1.027
 21
0.763
 31
0.0
  0
LINE
  5
82D
  8
L
 10
-0.569
 20
0.809
 30
0.0
 11
-0.981
 21
0.809
 31
0.0
  0
LINE
  5
82E
  8
L
 10
-0.4
 20
0.74
 30
0.0
 11
-0.4
 21
0.0
 31
0.0
  0
LINE
  5
82F
  8
L
 10
-0.49
 20
0.076
 30
0.0
 11
-0.4
 21
0.076
 31
0.0
  0
LINE
  5
830
  8
L
 10
-0.49
 20
-0.076
 30
0.0
 11
-0.4
 21
-0.076
 31
0.0
  0
LINE
  5
831
  8
L
 10
-0.49
 20
0.076
 30
0.0
 11
-0.49
 21
-0.076
 31
0.0
  0
LINE
  5
832
  8
L
 10
-0.4
 20
0.74
 30
0.0
 11
-1.15
 21
0.74
 31
0.0
  0
LINE
  5
833
  8
L
 10
-1.05
 20
0.74
 30
0.0
 11
-0.981
 21
0.809
 31
0.0
  0
LINE
  5
834
  8
L
 10
-0.5
 20
0.74
 30
0.0
 11
-0.569
 21
0.809
 31
0.0
  0
LINE
  5
835
  8
L
 10
-0.5
 20
-0.74
 30
0.0
 11
-0.569
 21
-0.809
 31
0.0
  0
LINE
  5
836
  8
L
 10
-1.05
 20
-0.74
 30
0.0
 11
-0.981
 21
-0.809
 31
0.0
  0
LINE
  5
837
  8
L
 10
-0.4
 20
-0.74
 30
0.0
 11
-1.15
 21
-0.74
 31
0.0
  0
LINE
  5
838
  8
L
 10
-0.5
 20
-0.74
 30
0.0
 11
-0.5
 21
0.0
 31
0.0
  0
LINE
  5
839
  8
L
 10
-1.05
 20
-0.74
 30
0.0
 11
-1.05
 21
0.0
 31
0.0
  0
LINE
  5
83A
  8
L
 10
-0.4
 20
-0.74
 30
0.0
 11
-0.4
 21
0.0
 31
0.0
  0
LINE
  5
83B
  8
L
 10
-0.569
 20
-0.809
 30
0.0
 11
-0.981
 21
-0.809
 31
0.0
  0
LINE
  5
83C
  8
H
 10
-0.523
 20
-0.763
 30
0.0
 11
-1.027
 21
-0.763
 31
0.0
  0
LINE
  5
83D
  8
L
 10
-1.15
 20
-0.74
 30
0.0
 11
-1.15
 21
0.0
 31
0.0
  0
LINE
  5
83E
  8
H
 10
-0.4
 20
0.0935
 30
0.0
 11
-0.775
 21
0.0935
 31
0.0
  0
LINE
  5
83F
  8
H
 10
-0.4
 20
-0.0935
 30
0.0
 11
-0.775
 21
-0.0935
 31
0.0
  0
LINE
  5
840
  8
H
 10
-0.775
 20
-0.1085
 30
0.0
 11
-0.775
 21
0.1085
 31
0.0
  0
LINE
  5
841
  8
H
 10
-1.15
 20
0.032
 30
0.0
 11
-0.775
 21
0.032
 31
0.0
  0
LINE
  5
842
  8
H
 10
-1.15
 20
-0.032
 30
0.0
 11
-0.775
 21
-0.032
 31
0.0
  0
LINE
  5
843
  8
H
 10
-0.775
 20
0.1085
 30
0.0
 11
-1.15
 21
0.1085
 31
0.0
  0
LINE
  5
844
  8
H
 10
-0.775
 20
-0.1085
 30
0.0
 11
-1.15
 21
-0.1085
 31
0.0
  0
LINE
  5
845
  8
L
 10
-0.5
 20
0.74
 30
0.0
 11
-0.5
 21
0.0
 31
0.0
  0
LINE
  5
846
  8
L
 10
-0.569
 20
0.809
 30
0.0
 11
-0.569
 21
-0.809
 31
0.0
  0
LINE
  5
847
  8
L
 10
-1.05
 20
0.74
 30
0.0
 11
-1.05
 21
0.0
 31
0.0
  0
LINE
  5
848
  8
L
 10
-0.981
 20
0.809
 30
0.0
 11
-0.981
 21
-0.809
 31
0.0
  0
LINE
  5
849
  8
C50_2$0$L
 10
0.72
 20
-1.9375
 30
0.0
 11
0.72
 21
-0.51
 31
0.0
  0
LINE
  5
84A
  8
C50_2$0$L
 10
0.75
 20
0.0
 30
0.0
 11
0.75
 21
-1.9075
 31
0.0
  0
LINE
  5
84B
  8
C50_2$0$L
 10
1.033675
 20
-1.375
 30
0.0
 11
0.78
 21
-1.375
 31
0.0
  0
LINE
  5
84C
  8
C50_2$0$L
 10
0.72
 20
-1.9375
 30
0.0
 11
0.75
 21
-1.9075
 31
0.0
  0
ARC
  5
84D
  8
C50_2$0$L
 10
0.78
 20
-1.405
 30
0.0
 40
0.03
 50
90.0
 51
180.0
  0
LINE
  5
84E
  8
C50_2$0$L
 10
0.75
 20
0.0
 30
0.0
 11
0.75
 21
1.9075
 31
0.0
  0
LINE
  5
84F
  8
C50_2$0$L
 10
0.72
 20
1.9375
 30
0.0
 11
0.72
 21
0.51
 31
0.0
  0
LINE
  5
850
  8
C50_2$0$L
 10
0.78
 20
1.375
 30
0.0
 11
1.033675
 21
1.375
 31
0.0
  0
ARC
  5
851
  8
C50_2$0$L
 10
0.78
 20
1.405
 30
0.0
 40
0.03
 50
180.0
 51
270.0
  0
LINE
  5
852
  8
C50_2$0$L
 10
0.72
 20
1.9375
 30
0.0
 11
0.75
 21
1.9075
 31
0.0
  0
INSERT
  5
853
  8
C50_2$0$D
  2
C50_BASE
 10
0.0
 20
0.0
 30
0.0
  0
LINE
  5
854
  8
C50_2$0$L
 10
0.695204
 20
0.51
 30
0.0
 11
0.75
 21
0.51
 31
0.0
  0
LINE
  5
855
  8
C50_2$0$L
 10
0.695204
 20
-0.51
 30
0.0
 11
0.75
 21
-0.51
 31
0.0
  0
LINE
  5
856
  8
15SC_1$0$H
 10
0.431671
 20
0.825
 30
0.0
 11
2.8
 21
0.996
 31
0.0
  0
LINE
  5
857
  8
15SC_1$0$H
 10
0.431671
 20
-0.825
 30
0.0
 11
2.8
 21
-0.996
 31
0.0
  0
LINE
  5
858
  8
15SC_1$0$H
 10
0.05
 20
0.825
 30
0.0
 11
0.05
 21
-0.825
 31
0.0
  0
LINE
  5
859
  8
15SC_1$0$H
 10
0.431671
 20
0.825
 30
0.0
 11
0.431671
 21
-0.825
 31
0.0
  0
LINE
  5
85A
  8
15SC_1$0$H
 10
0.05
 20
-0.825
 30
0.0
 11
0.431671
 21
-0.825
 31
0.0
  0
LINE
  5
85B
  8
15SC_1$0$H
 10
0.05
 20
0.825
 30
0.0
 11
0.431671
 21
0.825
 31
0.0
  0
LINE
  5
85C
  8
15SC_1$0$L
 10
1.548
 20
1.375
 30
0.0
 11
1.548
 21
-1.375
 31
0.0
  0
LINE
  5
85D
  8
15SC_1$0$L
 10
1.61
 20
1.313
 30
0.0
 11
1.61
 21
-1.313
 31
0.0
  0
LINE
  5
85E
  8
15SC_1$0$L
 10
2.8
 20
1.313
 30
0.0
 11
2.8
 21
-1.313
 31
0.0
  0
LINE
  5
85F
  8
15SC_1$0$L
 10
1.96
 20
1.313
 30
0.0
 11
1.96
 21
-1.313
 31
0.0
  0
LINE
  5
860
  8
15SC_1$0$L
 10
2.86
 20
1.253
 30
0.0
 11
2.86
 21
0.0
 31
0.0
  0
LINE
  5
861
  8
15SC_1$0$L
 10
2.86
 20
1.03
 30
0.0
 11
2.86
 21
0.0
 31
0.0
  0
LINE
  5
862
  8
15SC_1$0$L
 10
1.61
 20
-1.313
 30
0.0
 11
2.8
 21
-1.313
 31
0.0
  0
LINE
  5
863
  8
15SC_1$0$L
 10
1.61
 20
-1.313
 30
0.0
 11
1.548
 21
-1.375
 31
0.0
  0
LINE
  5
864
  8
15SC_1$0$L
 10
2.86
 20
0.0
 30
0.0
 11
2.86
 21
-1.253
 31
0.0
  0
LINE
  5
865
  8
15SC_1$0$L
 10
2.86
 20
-1.03
 30
0.0
 11
2.86
 21
0.0
 31
0.0
  0
LINE
  5
866
  8
15SC_1$0$H
 10
2.86
 20
-1.137
 30
0.0
 11
1.96
 21
-1.137
 31
0.0
  0
LINE
  5
867
  8
15SC_1$0$L
 10
2.86
 20
-1.253
 30
0.0
 11
2.8
 21
-1.313
 31
0.0
  0
LINE
  5
868
  8
15SC_1$0$H
 10
2.8
 20
-0.996
 30
0.0
 11
2.86
 21
-1.03
 31
0.0
  0
LINE
  5
869
  8
15SC_1$0$L
 10
1.61
 20
1.313
 30
0.0
 11
2.8
 21
1.313
 31
0.0
  0
LINE
  5
86A
  8
15SC_1$0$L
 10
1.61
 20
1.313
 30
0.0
 11
1.548
 21
1.375
 31
0.0
  0
LINE
  5
86B
  8
15SC_1$0$L
 10
2.8
 20
1.313
 30
0.0
 11
2.86
 21
1.253
 31
0.0
  0
LINE
  5
86C
  8
15SC_1$0$H
 10
2.86
 20
1.137
 30
0.0
 11
1.96
 21
1.137
 31
0.0
  0
LINE
  5
86D
  8
15SC_1$0$H
 10
2.8
 20
0.996
 30
0.0
 11
2.86
 21
1.03
 31
0.0
  0
LINE
  5
86E
  8
0
  6
BYBLOCK
 62
     0
 10
-0.4
 20
-0.8025
 30
0.0
 11
-0.4
 21
-2.360447
 31
0.0
  0
LINE
  5
86F
  8
0
  6
BYBLOCK
 62
     0
 10
3.5
 20
-1.26
 30
0.0
 11
3.5
 21
-2.360447
 31
0.0
  0
LINE
  5
870
  8
0
  6
BYBLOCK
 62
     0
 10
-0.28
 20
-2.310447
 30
0.0
 11
1.282917
 21
-2.310447
 31
0.0
  0
LINE
  5
871
  8
0
  6
BYBLOCK
 62
     0
 10
3.38
 20
-2.310447
 30
0.0
 11
1.817083
 21
-2.310447
 31
0.0
  0
SOLID
  5
872
  8
0
  6
BYBLOCK
 62
     0
 10
-0.28
 20
-2.290447
 30
0.0
 11
-0.28
 21
-2.330447
 31
0.0
 12
-0.4
 22
-2.310447
 32
0.0
 13
-0.4
 23
-2.310447
 33
0.0
  0
SOLID
  5
873
  8
0
  6
BYBLOCK
 62
     0
 10
3.38
 20
-2.290447
 30
0.0
 11
3.38
 21
-2.330447
 31
0.0
 12
3.5
 22
-2.310447
 32
0.0
 13
3.5
 23
-2.310447
 33
0.0
  0
TEXT
  5
874
  8
0
  6
BYBLOCK
 62
     0
 10
1.372917
 20
-2.372947
 30
0.0
 40
0.125
  1
3.90
 72
     1
 11
1.55
 21
-2.310447
 31
0.0
 73
     2
  0
POINT
  5
875
  8
DEFPOINTS
  6
BYBLOCK
 62
     0
 10
-0.4
 20
-0.74
 30
0.0
  0
POINT
  5
876
  8
DEFPOINTS
  6
BYBLOCK
 62
     0
 10
3.5
 20
-1.1975
 30
0.0
  0
POINT
  5
877
  8
DEFPOINTS
  6
BYBLOCK
 62
     0
 10
3.5
 20
-2.310447
 30
0.0
  0
LINE
  5
878
  8
0
  6
BYBLOCK
 62
     0
 10
0.0
 20
1.4375
 30
0.0
 11
0.0
 21
2.822021
 31
0.0
  0
LINE
  5
879
  8
0
  6
BYBLOCK
 62
     0
 10
3.5
 20
1.26
 30
0.0
 11
3.5
 21
2.822021
 31
0.0
  0
LINE
  5
87A
  8
0
  6
BYBLOCK
 62
     0
 10
0.12
 20
2.772021
 30
0.0
 11
1.482917
 21
2.772021
 31
0.0
  0
LINE
  5
87B
  8
0
  6
BYBLOCK
 62
     0
 10
3.38
 20
2.772021
 30
0.0
 11
2.017083
 21
2.772021
 31
0.0
  0
SOLID
  5
87C
  8
0
  6
BYBLOCK
 62
     0
 10
0.12
 20
2.792021
 30
0.0
 11
0.12
 21
2.752021
 31
0.0
 12
0.0
 22
2.772021
 32
0.0
 13
0.0
 23
2.772021
 33
0.0
  0
SOLID
  5
87D
  8
0
  6
BYBLOCK
 62
     0
 10
3.38
 20
2.792021
 30
0.0
 11
3.38
 21
2.752021
 31
0.0
 12
3.5
 22
2.772021
 32
0.0
 13
3.5
 23
2.772021
 33
0.0
  0
TEXT
  5
87E
  8
0
  6
BYBLOCK
 62
     0
 10
1.572917
 20
2.709521
 30
0.0
 40
0.125
  1
3.50
 72
     1
 11
1.75
 21
2.772021
 31
0.0
 73
     2
  0
POINT
  5
87F
  8
DEFPOINTS
  6
BYBLOCK
 62
     0
 10
0.0
 20
1.375
 30
0.0
  0
POINT
  5
880
  8
DEFPOINTS
  6
BYBLOCK
 62
     0
 10
3.5
 20
1.1975
 30
0.0
  0
POINT
  5
881
  8
DEFPOINTS
  6
BYBLOCK
 62
     0
 10
3.5
 20
2.772021
 30
0.0
  0
ENDSEC
  0
EOF
